  0
SECTION
  2
HEADER
  9
$ACADVER
  1
AC1015
  9
$ACADMAINTVER
 70
    20
  9
$DWGCODEPAGE
  3
ANSI_932
  9
$INSBASE
 10
0.0
 20
0.0
 30
0.0
  9
$EXTMIN
 10
10.0
 20
10.000001
 30
0.0
  9
$EXTMAX
 10
755.4928069999997
 20
403.500962
 30
0.0
  9
$LIMMIN
 10
0.0
 20
0.0
  9
$LIMMAX
 10
792.0
 20
546.0
  9
$ORTHOMODE
 70
     1
  9
$REGENMODE
 70
     1
  9
$FILLMODE
 70
     1
  9
$QTEXTMODE
 70
     0
  9
$MIRRTEXT
 70
     1
  9
$LTSCALE
 40
20.0
  9
$ATTMODE
 70
     1
  9
$TEXTSIZE
 40
5.0
  9
$TRACEWID
 40
1.0
  9
$TEXTSTYLE
  7
STANDARD
  9
$CLAYER
  8
0
  9
$CELTYPE
  6
BYLAYER
  9
$CECOLOR
 62
   256
  9
$CELTSCALE
 40
1.0
  9
$DISPSILH
 70
     0
  9
$DIMSCALE
 40
1.0
  9
$DIMASZ
 40
2.5
  9
$DIMEXO
 40
1.0
  9
$DIMDLI
 40
10.0
  9
$DIMRND
 40
0.0
  9
$DIMDLE
 40
0.0
  9
$DIMEXE
 40
1.0
  9
$DIMTP
 40
0.0
  9
$DIMTM
 40
0.0
  9
$DIMTXT
 40
3.2
  9
$DIMCEN
 40
0.0
  9
$DIMTSZ
 40
0.0
  9
$DIMTOL
 70
     0
  9
$DIMLIM
 70
     0
  9
$DIMTIH
 70
     0
  9
$DIMTOH
 70
     0
  9
$DIMSE1
 70
     0
  9
$DIMSE2
 70
     0
  9
$DIMTAD
 70
     3
  9
$DIMZIN
 70
     8
  9
$DIMBLK
  1

  9
$DIMASO
 70
     1
  9
$DIMSHO
 70
     1
  9
$DIMPOST
  1

  9
$DIMAPOST
  1

  9
$DIMALT
 70
     0
  9
$DIMALTD
 70
     2
  9
$DIMALTF
 40
25.4
  9
$DIMLFAC
 40
1.0
  9
$DIMTOFL
 70
     1
  9
$DIMTVP
 40
0.0
  9
$DIMTIX
 70
     0
  9
$DIMSOXD
 70
     0
  9
$DIMSAH
 70
     1
  9
$DIMBLK1
  1

  9
$DIMBLK2
  1

  9
$DIMSTYLE
  2
STANDARD
  9
$DIMCLRD
 70
     0
  9
$DIMCLRE
 70
     0
  9
$DIMCLRT
 70
     0
  9
$DIMTFAC
 40
1.0
  9
$DIMGAP
 40
1.0
  9
$DIMJUST
 70
     0
  9
$DIMSD1
 70
     0
  9
$DIMSD2
 70
     0
  9
$DIMTOLJ
 70
     1
  9
$DIMTZIN
 70
     0
  9
$DIMALTZ
 70
     0
  9
$DIMALTTZ
 70
     0
  9
$DIMUPT
 70
     0
  9
$DIMDEC
 70
     4
  9
$DIMTDEC
 70
     4
  9
$DIMALTU
 70
     2
  9
$DIMALTTD
 70
     2
  9
$DIMTXSTY
  7
STANDARD
  9
$DIMAUNIT
 70
     0
  9
$DIMADEC
 70
     0
  9
$DIMALTRND
 40
0.0
  9
$DIMAZIN
 70
     0
  9
$DIMDSEP
 70
    46
  9
$DIMATFIT
 70
     3
  9
$DIMFRAC
 70
     0
  9
$DIMLDRBLK
  1

  9
$DIMLUNIT
 70
     2
  9
$DIMLWD
 70
    -2
  9
$DIMLWE
 70
    -2
  9
$DIMTMOVE
 70
     0
  9
$LUNITS
 70
     2
  9
$LUPREC
 70
     4
  9
$SKETCHINC
 40
1.0
  9
$FILLETRAD
 40
0.5
  9
$AUNITS
 70
     0
  9
$AUPREC
 70
     2
  9
$MENU
  1
.
  9
$ELEVATION
 40
0.0
  9
$PELEVATION
 40
0.0
  9
$THICKNESS
 40
0.0
  9
$LIMCHECK
 70
     0
  9
$CHAMFERA
 40
10.0
  9
$CHAMFERB
 40
10.0
  9
$CHAMFERC
 40
0.0
  9
$CHAMFERD
 40
0.0
  9
$SKPOLY
 70
     0
  9
$TDCREATE
 40
2451439.559735880
  9
$TDUCREATE
 40
2451439.184735880
  9
$TDUPDATE
 40
2457192.641683415
  9
$TDUUPDATE
 40
2457192.266683414
  9
$TDINDWG
 40
0.0098245602
  9
$TDUSRTIMER
 40
0.0098242477
  9
$USRTIMER
 70
     1
  9
$ANGBASE
 50
0.0
  9
$ANGDIR
 70
     0
  9
$PDMODE
 70
     0
  9
$PDSIZE
 40
0.0
  9
$PLINEWID
 40
0.0
  9
$SPLFRAME
 70
     0
  9
$SPLINETYPE
 70
     6
  9
$SPLINESEGS
 70
     8
  9
$HANDSEED
  5
EB56
  9
$SURFTAB1
 70
     6
  9
$SURFTAB2
 70
     6
  9
$SURFTYPE
 70
     6
  9
$SURFU
 70
     6
  9
$SURFV
 70
     6
  9
$UCSBASE
  2

  9
$UCSNAME
  2

  9
$UCSORG
 10
0.0
 20
0.0
 30
0.0
  9
$UCSXDIR
 10
1.0
 20
0.0
 30
0.0
  9
$UCSYDIR
 10
0.0
 20
1.0
 30
0.0
  9
$UCSORTHOREF
  2

  9
$UCSORTHOVIEW
 70
     0
  9
$UCSORGTOP
 10
0.0
 20
0.0
 30
0.0
  9
$UCSORGBOTTOM
 10
0.0
 20
0.0
 30
0.0
  9
$UCSORGLEFT
 10
0.0
 20
0.0
 30
0.0
  9
$UCSORGRIGHT
 10
0.0
 20
0.0
 30
0.0
  9
$UCSORGFRONT
 10
0.0
 20
0.0
 30
0.0
  9
$UCSORGBACK
 10
0.0
 20
0.0
 30
0.0
  9
$PUCSBASE
  2

  9
$PUCSNAME
  2

  9
$PUCSORG
 10
0.0
 20
0.0
 30
0.0
  9
$PUCSXDIR
 10
1.0
 20
0.0
 30
0.0
  9
$PUCSYDIR
 10
0.0
 20
1.0
 30
0.0
  9
$PUCSORTHOREF
  2

  9
$PUCSORTHOVIEW
 70
     0
  9
$PUCSORGTOP
 10
0.0
 20
0.0
 30
0.0
  9
$PUCSORGBOTTOM
 10
0.0
 20
0.0
 30
0.0
  9
$PUCSORGLEFT
 10
0.0
 20
0.0
 30
0.0
  9
$PUCSORGRIGHT
 10
0.0
 20
0.0
 30
0.0
  9
$PUCSORGFRONT
 10
0.0
 20
0.0
 30
0.0
  9
$PUCSORGBACK
 10
0.0
 20
0.0
 30
0.0
  9
$USERI1
 70
     0
  9
$USERI2
 70
     0
  9
$USERI3
 70
     0
  9
$USERI4
 70
     0
  9
$USERI5
 70
     0
  9
$USERR1
 40
0.0
  9
$USERR2
 40
0.0
  9
$USERR3
 40
0.0
  9
$USERR4
 40
0.0
  9
$USERR5
 40
0.0
  9
$WORLDVIEW
 70
     1
  9
$SHADEDGE
 70
     3
  9
$SHADEDIF
 70
    70
  9
$TILEMODE
 70
     1
  9
$MAXACTVP
 70
    16
  9
$PINSBASE
 10
0.0
 20
0.0
 30
0.0
  9
$PLIMCHECK
 70
     0
  9
$PEXTMIN
 10
1.000000000000000E+20
 20
1.000000000000000E+20
 30
1.000000000000000E+20
  9
$PEXTMAX
 10
-1.000000000000000E+20
 20
-1.000000000000000E+20
 30
-1.000000000000000E+20
  9
$PLIMMIN
 10
0.0
 20
0.0
  9
$PLIMMAX
 10
420.0
 20
297.0
  9
$UNITMODE
 70
     0
  9
$VISRETAIN
 70
     0
  9
$PLINEGEN
 70
     0
  9
$PSLTSCALE
 70
     0
  9
$TREEDEPTH
 70
  3020
  9
$CMLSTYLE
  2
STANDARD
  9
$CMLJUST
 70
     0
  9
$CMLSCALE
 40
1.0
  9
$PROXYGRAPHICS
 70
     1
  9
$MEASUREMENT
 70
     0
  9
$CELWEIGHT
370
    -1
  9
$ENDCAPS
280
     0
  9
$JOINSTYLE
280
     0
  9
$LWDISPLAY
290
     0
  9
$INSUNITS
 70
     0
  9
$HYPERLINKBASE
  1

  9
$STYLESHEET
  1

  9
$XEDIT
290
     1
  9
$CEPSNTYPE
380
     0
  9
$PSTYLEMODE
290
     1
  9
$FINGERPRINTGUID
  2
{E1E20CC7-EFBA-4EBD-AD74-B0564561B93F}
  9
$VERSIONGUID
  2
{5D130393-7A8E-4545-951E-5E86FE9F22FA}
  9
$EXTNAMES
290
     1
  9
$PSVPSCALE
 40
0.0
  9
$OLESTARTUP
290
     0
  0
ENDSEC
  0
SECTION
  2
CLASSES
  0
CLASS
  1
ACDBDICTIONARYWDFLT
  2
AcDbDictionaryWithDefault
  3
ObjectDBX Classes
 90
        0
280
     0
281
     0
  0
CLASS
  1
ACDBPLACEHOLDER
  2
AcDbPlaceHolder
  3
ObjectDBX Classes
 90
        0
280
     0
281
     0
  0
CLASS
  1
LAYOUT
  2
AcDbLayout
  3
ObjectDBX Classes
 90
        0
280
     0
281
     0
  0
CLASS
  1
DICTIONARYVAR
  2
AcDbDictionaryVar
  3
ObjectDBX Classes
 90
        0
280
     0
281
     0
  0
CLASS
  1
MATERIAL
  2
AcDbMaterial
  3
ObjectDBX Classes
 90
     1153
280
     0
281
     0
  0
CLASS
  1
VISUALSTYLE
  2
AcDbVisualStyle
  3
ObjectDBX Classes
 90
     4095
280
     0
281
     0
  0
CLASS
  1
TABLESTYLE
  2
AcDbTableStyle
  3
ObjectDBX Classes
 90
     4095
280
     0
281
     0
  0
CLASS
  1
SCALE
  2
AcDbScale
  3
ObjectDBX Classes
 90
     1153
280
     0
281
     0
  0
CLASS
  1
MLEADERSTYLE
  2
AcDbMLeaderStyle
  3
ACDB_MLEADERSTYLE_CLASS
 90
     4095
280
     0
281
     0
  0
CLASS
  1
ACDBSECTIONVIEWSTYLE
  2
AcDbSectionViewStyle
  3
ObjectDBX Classes
 90
     1025
280
     0
281
     0
  0
CLASS
  1
ACDBDETAILVIEWSTYLE
  2
AcDbDetailViewStyle
  3
ObjectDBX Classes
 90
     1025
280
     0
281
     0
  0
CLASS
  1
CELLSTYLEMAP
  2
AcDbCellStyleMap
  3
ObjectDBX Classes
 90
     1152
280
     0
281
     0
  0
ENDSEC
  0
SECTION
  2
TABLES
  0
TABLE
  2
VPORT
  5
E6D5
330
0
100
AcDbSymbolTable
 70
     1
  0
VPORT
  5
EA9F
330
E6D5
100
AcDbSymbolTableRecord
100
AcDbViewportTableRecord
  2
*ACTIVE
 70
     0
 10
0.0
 20
0.0
 11
1.0
 21
1.0
 12
511.1060988522407
 22
206.7453472634606
 13
0.0
 23
0.0
 14
10.0
 24
10.0
 15
10.0
 25
10.0
 16
0.0
 26
0.0
 36
1.0
 17
0.0
 27
0.0
 37
0.0
 40
428.5665603485719
 41
1.899603698811096
 42
50.0
 43
0.0
 44
0.0
 50
0.0
 51
0.0
 71
     0
 72
   100
 73
     1
 74
     0
 75
     0
 76
     0
 77
     0
 78
     0
281
     0
 65
     1
110
0.0
120
0.0
130
0.0
111
1.0
121
0.0
131
0.0
112
0.0
122
1.0
132
0.0
 79
     0
146
0.0
1001
ACAD_NAV_VCDISPLAY
1070
     3
  0
ENDTAB
  0
TABLE
  2
LTYPE
  5
E6D2
330
0
100
AcDbSymbolTable
 70
     4
  0
LTYPE
  5
E6E0
330
E6D2
100
AcDbSymbolTableRecord
100
AcDbLinetypeTableRecord
  2
BYBLOCK
 70
     0
  3

 72
    65
 73
     0
 40
0.0
  0
LTYPE
  5
E6E1
330
E6D2
100
AcDbSymbolTableRecord
100
AcDbLinetypeTableRecord
  2
BYLAYER
 70
     0
  3

 72
    65
 73
     0
 40
0.0
  0
LTYPE
  5
E6E2
330
E6D2
100
AcDbSymbolTableRecord
100
AcDbLinetypeTableRecord
  2
CONTINUOUS
 70
     0
  3
Solid line
 72
    65
 73
     0
 40
0.0
  0
LTYPE
  5
E6F0
330
E6D2
100
AcDbSymbolTableRecord
100
AcDbLinetypeTableRecord
  2
DASHED
 70
     0
  3
__ __ __ __ __ __ __ __ __ __ __ __ __ __ __ __
 72
    65
 73
     2
 40
0.75
 49
0.5
 74
     0
 49
-0.25
 74
     0
  0
LTYPE
  5
E6F1
330
E6D2
100
AcDbSymbolTableRecord
100
AcDbLinetypeTableRecord
  2
CENTER
 70
     0
  3
____ _ ____ _ ____ _ ____ _ ____ _ ____ _ ____ 
 72
    65
 73
     4
 40
2.0
 49
1.25
 74
     0
 49
-0.25
 74
     0
 49
0.25
 74
     0
 49
-0.25
 74
     0
  0
LTYPE
  5
E6F2
330
E6D2
100
AcDbSymbolTableRecord
100
AcDbLinetypeTableRecord
  2
PHANTOM
 70
     0
  3
______  __  __  ______  __  __  ______  __  __ 
 72
    65
 73
     6
 40
2.5
 49
1.25
 74
     0
 49
-0.25
 74
     0
 49
0.25
 74
     0
 49
-0.25
 74
     0
 49
0.25
 74
     0
 49
-0.25
 74
     0
  0
ENDTAB
  0
TABLE
  2
LAYER
  5
E6CF
330
0
100
AcDbSymbolTable
 70
     8
  0
LAYER
  5
E6DD
102
{ACAD_XDICTIONARY
360
EAFA
102
}
330
E6CF
100
AcDbSymbolTableRecord
100
AcDbLayerTableRecord
  2
0
 70
     0
 62
     7
  6
CONTINUOUS
370
    -3
390
EAA8
  0
LAYER
  5
E6F3
102
{ACAD_XDICTIONARY
360
EAFC
102
}
330
E6CF
100
AcDbSymbolTableRecord
100
AcDbLayerTableRecord
  2
1
 70
     0
 62
     7
  6
CONTINUOUS
370
    -3
390
EAA8
  0
LAYER
  5
E6F4
102
{ACAD_XDICTIONARY
360
EAFE
102
}
330
E6CF
100
AcDbSymbolTableRecord
100
AcDbLayerTableRecord
  2
4
 70
     0
 62
     1
  6
CENTER
370
    -3
390
EAA8
  0
LAYER
  5
E6F5
102
{ACAD_XDICTIONARY
360
EB00
102
}
330
E6CF
100
AcDbSymbolTableRecord
100
AcDbLayerTableRecord
  2
5
 70
     0
 62
     6
  6
PHANTOM
370
    -3
390
EAA8
  0
LAYER
  5
E6F6
102
{ACAD_XDICTIONARY
360
EB02
102
}
330
E6CF
100
AcDbSymbolTableRecord
100
AcDbLayerTableRecord
  2
2
 70
     0
 62
     4
  6
CONTINUOUS
370
    -3
390
EAA8
  0
LAYER
  5
E6F7
102
{ACAD_XDICTIONARY
360
EB04
102
}
330
E6CF
100
AcDbSymbolTableRecord
100
AcDbLayerTableRecord
  2
3
 70
     0
 62
     2
  6
DASHED
370
    -3
390
EAA8
  0
LAYER
  5
E6F8
102
{ACAD_XDICTIONARY
360
EB06
102
}
330
E6CF
100
AcDbSymbolTableRecord
100
AcDbLayerTableRecord
  2
6
 70
     0
 62
     5
  6
CONTINUOUS
370
    -3
390
EAA8
  0
LAYER
  5
E6F9
102
{ACAD_XDICTIONARY
360
EB08
102
}
330
E6CF
100
AcDbSymbolTableRecord
100
AcDbLayerTableRecord
  2
7
 70
     0
 62
     3
  6
CONTINUOUS
370
    -3
390
EAA8
  0
ENDTAB
  0
TABLE
  2
STYLE
  5
E6D0
330
0
100
AcDbSymbolTable
 70
     1
  0
STYLE
  5
E6DE
330
E6D0
100
AcDbSymbolTableRecord
100
AcDbTextStyleTableRecord
  2
STANDARD
 70
     0
 40
0.0
 41
1.0
 50
0.0
 71
     0
 42
5.0
  3
txt
  4

  0
ENDTAB
  0
TABLE
  2
VIEW
  5
E6D3
330
0
100
AcDbSymbolTable
 70
     0
  0
ENDTAB
  0
TABLE
  2
UCS
  5
E6D4
330
0
100
AcDbSymbolTable
 70
     0
  0
ENDTAB
  0
TABLE
  2
APPID
  5
E6D6
330
0
100
AcDbSymbolTable
 70
     3
  0
APPID
  5
E6DF
330
E6D6
100
AcDbSymbolTableRecord
100
AcDbRegAppTableRecord
  2
ACAD
 70
     0
  0
APPID
  5
EB14
330
E6D6
100
AcDbSymbolTableRecord
100
AcDbRegAppTableRecord
  2
ACAD_NAV_VCDISPLAY
 70
     0
  0
APPID
  5
EB4D
330
E6D6
100
AcDbSymbolTableRecord
100
AcDbRegAppTableRecord
  2
ACAD_MLEADERVER
 70
     0
  0
ENDTAB
  0
TABLE
  2
DIMSTYLE
  5
E6D7
330
0
100
AcDbSymbolTable
 70
     1
100
AcDbDimStyleTable
 71
     0
  0
DIMSTYLE
105
E6FB
330
E6D7
100
AcDbSymbolTableRecord
100
AcDbDimStyleTableRecord
  2
STANDARD
 70
     0
 41
2.5
 42
1.0
 43
10.0
 44
1.0
 73
     0
 74
     0
 77
     3
 78
     8
140
3.2
141
0.0
147
1.0
172
     1
173
     1
284
     8
285
     8
286
     8
340
E6DE
  0
ENDTAB
  0
TABLE
  2
BLOCK_RECORD
  5
E6CE
330
0
100
AcDbSymbolTable
 70
     0
  0
BLOCK_RECORD
  5
E6EB
102
{ACAD_XDICTIONARY
360
EAA2
102
}
330
E6CE
100
AcDbSymbolTableRecord
100
AcDbBlockTableRecord
  2
*MODEL_SPACE
340
EAF6
  0
BLOCK_RECORD
  5
E6E7
102
{ACAD_XDICTIONARY
360
EAA0
102
}
330
E6CE
100
AcDbSymbolTableRecord
100
AcDbBlockTableRecord
  2
*PAPER_SPACE
340
EAF7
  0
ENDTAB
  0
ENDSEC
  0
SECTION
  2
BLOCKS
  0
BLOCK
  5
E6EC
330
E6EB
100
AcDbEntity
  8
0
100
AcDbBlockBegin
  2
*MODEL_SPACE
 70
     0
 10
0.0
 20
0.0
 30
0.0
  3
*MODEL_SPACE
  1

  0
ENDBLK
  5
E6ED
330
E6EB
100
AcDbEntity
  8
0
100
AcDbBlockEnd
  0
BLOCK
  5
E6E8
330
E6E7
100
AcDbEntity
 67
     1
  8
0
100
AcDbBlockBegin
  2
*PAPER_SPACE
 70
     0
 10
0.0
 20
0.0
 30
0.0
  3
*PAPER_SPACE
  1

  0
ENDBLK
  5
E6E9
330
E6E7
100
AcDbEntity
 67
     1
  8
0
100
AcDbBlockEnd
  0
ENDSEC
  0
SECTION
  2
ENTITIES
  0
ARC
  5
E703
330
E6EB
100
AcDbEntity
  8
1
  6
Continuous
100
AcDbCircle
 10
186.007768
 20
172.999045
 30
0.0
 40
6.0
100
AcDbArc
 50
0.0
 51
45.0
  0
LINE
  5
E704
330
E6EB
100
AcDbEntity
  8
1
  6
Continuous
100
AcDbLine
 10
62.662121
 20
233.4348809999999
 30
0.0
 11
58.256999
 21
166.064429
 31
0.0
  0
LINE
  5
E705
330
E6EB
100
AcDbEntity
  8
1
  6
Continuous
100
AcDbLine
 10
38.514469
 20
233.4348809999999
 30
0.0
 11
42.91959099999997
 21
166.064429
 31
0.0
  0
LINE
  5
E706
330
E6EB
100
AcDbEntity
  8
1
  6
Continuous
100
AcDbLine
 10
179.860553
 20
165.3248659999999
 30
0.0
 11
174.644471
 21
230.538297
 31
0.0
  0
LINE
  5
E707
330
E6EB
100
AcDbEntity
  8
4
  6
CENTER
100
AcDbLine
 10
50.588295
 20
158.484326
 30
0.0
 11
50.588295
 21
292.4843259999999
 31
0.0
  0
TEXT
  5
E708
330
E6EB
100
AcDbEntity
  8
7
  6
Continuous
100
AcDbText
 10
10.0
 20
26.000001
 30
0.0
 40
3.0
  1
CODE No.13184
100
AcDbText
  0
TEXT
  5
E709
330
E6EB
100
AcDbEntity
  8
7
  6
Continuous
100
AcDbText
 10
10.0
 20
18.000001
 30
0.0
 40
3.0
  1
TYPE No.THA-330S-2
100
AcDbText
  0
TEXT
  5
E70A
330
E6EB
100
AcDbEntity
  8
1
  6
Continuous
100
AcDbText
 10
10.0
 20
10.000001
 30
0.0
 40
1.399999999999999
  1
LAYER
100
AcDbText
  0
TEXT
  5
E70B
330
E6EB
100
AcDbEntity
  8
5
  6
PHANTOM
100
AcDbText
 10
25.97951099999999
 20
10.048738
 30
0.0
 40
1.399999999999999
  1
5
100
AcDbText
  0
TEXT
  5
E70C
330
E6EB
100
AcDbEntity
  8
6
  6
Continuous
100
AcDbText
 10
27.979511
 20
10.048738
 30
0.0
 40
1.399999999999999
  1
6
100
AcDbText
  0
TEXT
  5
E70D
330
E6EB
100
AcDbEntity
  8
2
  6
Continuous
100
AcDbText
 10
19.97951099999999
 20
10.048738
 30
0.0
 40
1.399999999999999
  1
2
100
AcDbText
  0
TEXT
  5
E70E
330
E6EB
100
AcDbEntity
  8
3
  6
DASHED
100
AcDbText
 10
21.979511
 20
10.048738
 30
0.0
 40
1.399999999999999
  1
3
100
AcDbText
  0
TEXT
  5
E70F
330
E6EB
100
AcDbEntity
  8
4
  6
CENTER
100
AcDbText
 10
23.97951099999999
 20
10.048738
 30
0.0
 40
1.399999999999999
  1
4
100
AcDbText
  0
TEXT
  5
E710
330
E6EB
100
AcDbEntity
  8
7
  6
Continuous
100
AcDbText
 10
29.97951099999999
 20
10.048738
 30
0.0
 40
1.399999999999999
  1
7
100
AcDbText
  0
TEXT
  5
E711
330
E6EB
100
AcDbEntity
  8
1
  6
Continuous
100
AcDbText
 10
17.97951099999998
 20
10.048738
 30
0.0
 40
1.399999999999999
  1
1
100
AcDbText
  0
ARC
  5
E712
330
E6EB
100
AcDbEntity
  8
1
  6
Continuous
100
AcDbCircle
 10
50.588295
 20
188.484326
 30
0.0
 40
25.0
100
AcDbArc
 50
255.720595
 51
284.279405
  0
ARC
  5
E713
330
E6EB
100
AcDbEntity
  8
1
  6
Continuous
100
AcDbCircle
 10
44.915329
 20
166.194924
 30
0.0
 40
2.0
100
AcDbArc
 50
183.741048
 51
255.720595
  0
ARC
  5
E714
330
E6EB
100
AcDbEntity
  8
1
  6
Continuous
100
AcDbCircle
 10
56.261261
 20
166.194924
 30
0.0
 40
2.0
100
AcDbArc
 50
284.279405
 51
356.258952
  0
LINE
  5
E715
330
E6EB
100
AcDbEntity
  8
1
  6
Continuous
100
AcDbLine
 10
205.687276
 20
85.053573
 30
0.0
 11
213.507768
 21
88.55357299999999
 31
0.0
  0
LINE
  5
E716
330
E6EB
100
AcDbEntity
  8
1
  6
Continuous
100
AcDbLine
 10
213.507768
 20
94.55357300000001
 30
0.0
 11
213.507768
 21
50.553573
 31
0.0
  0
LINE
  5
E717
330
E6EB
100
AcDbEntity
  8
1
  6
Continuous
100
AcDbLine
 10
217.007768
 20
96.553573
 30
0.0
 11
217.007768
 21
48.553573
 31
0.0
  0
LINE
  5
E718
330
E6EB
100
AcDbEntity
  8
1
  6
Continuous
100
AcDbLine
 10
218.007768
 20
96.553573
 30
0.0
 11
218.007768
 21
48.553573
 31
0.0
  0
ARC
  5
E719
330
E6EB
100
AcDbEntity
  8
1
  6
Continuous
100
AcDbCircle
 10
186.007768
 20
70.88507299999998
 30
0.0
 40
6.0
100
AcDbArc
 50
270.0
 51
0.0
  0
ARC
  5
E71A
330
E6EB
100
AcDbEntity
  8
1
  6
Continuous
100
AcDbCircle
 10
186.007768
 20
74.22207299999998
 30
0.0
 40
6.0
100
AcDbArc
 50
0.0
 51
90.0
  0
LINE
  5
E71B
330
E6EB
100
AcDbEntity
  8
1
  6
Continuous
100
AcDbLine
 10
205.687276
 20
85.053573
 30
0.0
 11
176.0393819999999
 21
85.053573
 31
0.0
  0
LINE
  5
E71C
330
E6EB
100
AcDbEntity
  8
1
  6
Continuous
100
AcDbLine
 10
205.687276
 20
60.053573
 30
0.0
 11
176.0393819999999
 21
60.053573
 31
0.0
  0
LINE
  5
E71D
330
E6EB
100
AcDbEntity
  8
4
  6
CENTER
100
AcDbLine
 10
245.054307
 20
72.553573
 30
0.0
 11
167.9077679999998
 21
72.553573
 31
0.0
  0
LINE
  5
E71E
330
E6EB
100
AcDbEntity
  8
1
  6
Continuous
100
AcDbLine
 10
187.0077679999999
 20
64.968994
 30
0.0
 11
187.0077679999999
 21
60.053573
 31
0.0
  0
LINE
  5
E71F
330
E6EB
100
AcDbEntity
  8
1
  6
Continuous
100
AcDbLine
 10
186.007768
 20
64.88507299999999
 30
0.0
 11
181.3858339999999
 21
64.88507299999999
 31
0.0
  0
LINE
  5
E720
330
E6EB
100
AcDbEntity
  8
1
  6
Continuous
100
AcDbLine
 10
187.0077679999999
 20
77.553573
 30
0.0
 11
187.0077679999999
 21
67.553573
 31
0.0
  0
LINE
  5
E721
330
E6EB
100
AcDbEntity
  8
1
  6
Continuous
100
AcDbLine
 10
186.007768
 20
80.22207299999998
 30
0.0
 11
181.3858339999999
 21
80.22207299999998
 31
0.0
  0
LINE
  5
E722
330
E6EB
100
AcDbEntity
  8
1
  6
Continuous
100
AcDbLine
 10
187.0077679999999
 20
85.053573
 30
0.0
 11
187.0077679999999
 21
80.138153
 31
0.0
  0
LINE
  5
E723
330
E6EB
100
AcDbEntity
  8
2
  6
Continuous
100
AcDbLine
 10
231.4197679999999
 20
82.741573
 30
0.0
 11
219.907768
 21
82.741573
 31
0.0
  0
LINE
  5
E724
330
E6EB
100
AcDbEntity
  8
1
  6
Continuous
100
AcDbLine
 10
230.607768
 20
77.646473
 30
0.0
 11
218.007768
 21
77.646473
 31
0.0
  0
LINE
  5
E725
330
E6EB
100
AcDbEntity
  8
1
  6
Continuous
100
AcDbLine
 10
230.607768
 20
83.55357299999999
 30
0.0
 11
219.007768
 21
83.55357299999999
 31
0.0
  0
LINE
  5
E726
330
E6EB
100
AcDbEntity
  8
2
  6
Continuous
100
AcDbLine
 10
231.4197679999999
 20
62.365573
 30
0.0
 11
219.907768
 21
62.365573
 31
0.0
  0
LINE
  5
E727
330
E6EB
100
AcDbEntity
  8
1
  6
Continuous
100
AcDbLine
 10
230.607768
 20
67.46067299999999
 30
0.0
 11
218.007768
 21
67.46067299999999
 31
0.0
  0
LINE
  5
E728
330
E6EB
100
AcDbEntity
  8
1
  6
Continuous
100
AcDbLine
 10
230.607768
 20
61.553573
 30
0.0
 11
219.007768
 21
61.553573
 31
0.0
  0
LINE
  5
E729
330
E6EB
100
AcDbEntity
  8
2
  6
Continuous
100
AcDbLine
 10
218.007768
 20
77.646473
 30
0.0
 11
230.607768
 21
67.46067299999999
 31
0.0
  0
LINE
  5
E72A
330
E6EB
100
AcDbEntity
  8
2
  6
Continuous
100
AcDbLine
 10
230.607768
 20
77.646473
 30
0.0
 11
218.007768
 21
67.46067299999999
 31
0.0
  0
LINE
  5
E72B
330
E6EB
100
AcDbEntity
  8
1
  6
Continuous
100
AcDbLine
 10
219.907768
 20
67.46067299999999
 30
0.0
 11
219.907768
 21
61.553573
 31
0.0
  0
LINE
  5
E72C
330
E6EB
100
AcDbEntity
  8
1
  6
Continuous
100
AcDbLine
 10
205.687276
 20
60.053573
 30
0.0
 11
205.687276
 21
85.053573
 31
0.0
  0
LINE
  5
E72D
330
E6EB
100
AcDbEntity
  8
1
  6
Continuous
100
AcDbLine
 10
205.507768
 20
60.053573
 30
0.0
 11
205.507768
 21
85.053573
 31
0.0
  0
LINE
  5
E72E
330
E6EB
100
AcDbEntity
  8
1
  6
Continuous
100
AcDbLine
 10
205.687276
 20
60.053573
 30
0.0
 11
213.507768
 21
56.553573
 31
0.0
  0
ARC
  5
E72F
330
E6EB
100
AcDbEntity
  8
1
  6
Continuous
100
AcDbCircle
 10
219.007768
 20
60.553573
 30
0.0
 40
1.0
100
AcDbArc
 50
90.0
 51
180.0
  0
LINE
  5
E730
330
E6EB
100
AcDbEntity
  8
2
  6
Continuous
100
AcDbLine
 10
218.501342
 20
61.553573
 30
0.0
 11
219.907768
 21
62.365573
 31
0.0
  0
LINE
  5
E731
330
E6EB
100
AcDbEntity
  8
1
  6
Continuous
100
AcDbLine
 10
215.507768
 20
48.553573
 30
0.0
 11
217.007768
 21
48.553573
 31
0.0
  0
LINE
  5
E732
330
E6EB
100
AcDbEntity
  8
1
  6
Continuous
100
AcDbLine
 10
218.007768
 20
48.553573
 30
0.0
 11
217.007768
 21
48.553573
 31
0.0
  0
ARC
  5
E733
330
E6EB
100
AcDbEntity
  8
1
  6
Continuous
100
AcDbCircle
 10
215.507768
 20
50.553573
 30
0.0
 40
2.0
100
AcDbArc
 50
222.3553149999999
 51
270.0
  0
ARC
  5
E734
330
E6EB
100
AcDbEntity
  8
1
  6
Continuous
100
AcDbCircle
 10
215.507768
 20
50.553573
 30
0.0
 40
2.0
100
AcDbArc
 50
180.0
 51
222.3553149999999
  0
LINE
  5
E735
330
E6EB
100
AcDbEntity
  8
1
  6
Continuous
100
AcDbLine
 10
192.007768
 20
74.22207299999998
 30
0.0
 11
192.007768
 21
70.88507299999998
 31
0.0
  0
LINE
  5
E736
330
E6EB
100
AcDbEntity
  8
1
  6
Continuous
100
AcDbLine
 10
219.907768
 20
83.55357299999999
 30
0.0
 11
219.907768
 21
77.646473
 31
0.0
  0
ARC
  5
E737
330
E6EB
100
AcDbEntity
  8
1
  6
Continuous
100
AcDbCircle
 10
219.007768
 20
84.55357300000001
 30
0.0
 40
1.0
100
AcDbArc
 50
180.0
 51
270.0
  0
LINE
  5
E738
330
E6EB
100
AcDbEntity
  8
1
  6
Continuous
100
AcDbLine
 10
219.507768
 20
74.803573
 30
0.0
 11
218.007768
 21
74.803573
 31
0.0
  0
LINE
  5
E739
330
E6EB
100
AcDbEntity
  8
2
  6
Continuous
100
AcDbLine
 10
218.501342
 20
83.55357299999999
 30
0.0
 11
219.907768
 21
82.741573
 31
0.0
  0
LINE
  5
E73A
330
E6EB
100
AcDbEntity
  8
1
  6
Continuous
100
AcDbLine
 10
219.507768
 20
70.303573
 30
0.0
 11
218.007768
 21
70.303573
 31
0.0
  0
LINE
  5
E73B
330
E6EB
100
AcDbEntity
  8
1
  6
Continuous
100
AcDbLine
 10
219.507768
 20
70.303573
 30
0.0
 11
219.507768
 21
74.803573
 31
0.0
  0
LINE
  5
E73C
330
E6EB
100
AcDbEntity
  8
1
  6
Continuous
100
AcDbLine
 10
230.607768
 20
67.46067299999999
 30
0.0
 11
230.607768
 21
61.553573
 31
0.0
  0
LINE
  5
E73D
330
E6EB
100
AcDbEntity
  8
1
  6
Continuous
100
AcDbLine
 10
232.307768
 20
65.753573
 30
0.0
 11
232.307768
 21
79.35357299999998
 31
0.0
  0
LINE
  5
E73E
330
E6EB
100
AcDbEntity
  8
1
  6
Continuous
100
AcDbLine
 10
232.107768
 20
82.05357300000001
 30
0.0
 11
232.107768
 21
63.053573
 31
0.0
  0
ARC
  5
E73F
330
E6EB
100
AcDbEntity
  8
1
  6
Continuous
100
AcDbCircle
 10
232.107768
 20
65.753573
 30
0.0
 40
0.2
100
AcDbArc
 50
270.0
 51
0.0
  0
LINE
  5
E740
330
E6EB
100
AcDbEntity
  8
1
  6
Continuous
100
AcDbLine
 10
230.607768
 20
61.553573
 30
0.0
 11
232.107768
 21
63.053573
 31
0.0
  0
ARC
  5
E741
330
E6EB
100
AcDbEntity
  8
1
  6
Continuous
100
AcDbCircle
 10
237.007768
 20
77.71545299999998
 30
0.0
 40
0.3
100
AcDbArc
 50
0.0
 51
90.0
  0
ARC
  5
E742
330
E6EB
100
AcDbEntity
  8
1
  6
Continuous
100
AcDbCircle
 10
237.007768
 20
67.391694
 30
0.0
 40
0.3
100
AcDbArc
 50
270.0
 51
0.0
  0
LINE
  5
E743
330
E6EB
100
AcDbEntity
  8
1
  6
Continuous
100
AcDbLine
 10
237.307768
 20
77.71545299999998
 30
0.0
 11
237.307768
 21
67.391694
 31
0.0
  0
ARC
  5
E744
330
E6EB
100
AcDbEntity
  8
1
  6
Continuous
100
AcDbCircle
 10
232.107768
 20
79.35357299999998
 30
0.0
 40
0.2
100
AcDbArc
 50
0.0
 51
90.0
  0
LINE
  5
E745
330
E6EB
100
AcDbEntity
  8
1
  6
Continuous
100
AcDbLine
 10
230.607768
 20
83.55357299999999
 30
0.0
 11
232.107768
 21
82.05357300000001
 31
0.0
  0
LINE
  5
E746
330
E6EB
100
AcDbEntity
  8
1
  6
Continuous
100
AcDbLine
 10
230.607768
 20
83.55357299999999
 30
0.0
 11
230.607768
 21
77.646473
 31
0.0
  0
ARC
  5
E747
330
E6EB
100
AcDbEntity
  8
1
  6
Continuous
100
AcDbCircle
 10
222.711891
 20
72.553573
 30
0.0
 40
9.395877
100
AcDbArc
 50
327.177679
 51
32.822321
  0
LINE
  5
E748
330
E6EB
100
AcDbEntity
  8
1
  6
Continuous
100
AcDbLine
 10
237.007768
 20
78.01545299999998
 30
0.0
 11
232.307768
 21
78.01545299999998
 31
0.0
  0
LINE
  5
E749
330
E6EB
100
AcDbEntity
  8
2
  6
Continuous
100
AcDbLine
 10
232.307768
 20
67.09169399999999
 30
0.0
 11
237.007768
 21
72.553573
 31
0.0
  0
LINE
  5
E74A
330
E6EB
100
AcDbEntity
  8
2
  6
Continuous
100
AcDbLine
 10
232.307768
 20
72.553573
 30
0.0
 11
237.007768
 21
67.09169399999999
 31
0.0
  0
LINE
  5
E74B
330
E6EB
100
AcDbEntity
  8
1
  6
Continuous
100
AcDbLine
 10
237.007768
 20
72.553573
 30
0.0
 11
232.307768
 21
72.553573
 31
0.0
  0
LINE
  5
E74C
330
E6EB
100
AcDbEntity
  8
1
  6
Continuous
100
AcDbLine
 10
237.007768
 20
67.09169399999999
 30
0.0
 11
232.307768
 21
67.09169399999999
 31
0.0
  0
LINE
  5
E74D
330
E6EB
100
AcDbEntity
  8
2
  6
Continuous
100
AcDbLine
 10
237.007768
 20
78.01545299999998
 30
0.0
 11
232.307768
 21
72.553573
 31
0.0
  0
LINE
  5
E74E
330
E6EB
100
AcDbEntity
  8
2
  6
Continuous
100
AcDbLine
 10
237.007768
 20
72.553573
 30
0.0
 11
232.307768
 21
78.01545299999998
 31
0.0
  0
ARC
  5
E74F
330
E6EB
100
AcDbEntity
  8
1
  6
Continuous
100
AcDbCircle
 10
185.007768
 20
170.484326
 30
0.0
 40
7.0
100
AcDbArc
 50
270.0
 51
0.0
  0
ARC
  5
E750
330
E6EB
100
AcDbEntity
  8
1
  6
Continuous
100
AcDbCircle
 10
181.854186
 20
165.4843259999998
 30
0.0
 40
2.0
100
AcDbArc
 50
184.573055
 51
270.0
  0
LINE
  5
E751
330
E6EB
100
AcDbEntity
  8
1
  6
Continuous
100
AcDbLine
 10
181.854186
 20
163.484326
 30
0.0
 11
185.007768
 21
163.484326
 31
0.0
  0
LINE
  5
E752
330
E6EB
100
AcDbEntity
  8
1
  6
Continuous
100
AcDbLine
 10
215.507768
 20
96.553573
 30
0.0
 11
217.007768
 21
96.553573
 31
0.0
  0
LINE
  5
E753
330
E6EB
100
AcDbEntity
  8
1
  6
Continuous
100
AcDbLine
 10
218.007768
 20
96.553573
 30
0.0
 11
217.007768
 21
96.553573
 31
0.0
  0
ARC
  5
E754
330
E6EB
100
AcDbEntity
  8
1
  6
Continuous
100
AcDbCircle
 10
215.507768
 20
94.55357300000001
 30
0.0
 40
2.0
100
AcDbArc
 50
90.0
 51
137.644685
  0
ARC
  5
E755
330
E6EB
100
AcDbEntity
  8
1
  6
Continuous
100
AcDbCircle
 10
215.507768
 20
94.55357300000001
 30
0.0
 40
2.0
100
AcDbArc
 50
137.644685
 51
180.0
  0
LINE
  5
E756
330
E6EB
100
AcDbEntity
  8
1
  6
Continuous
100
AcDbLine
 10
192.007768
 20
172.999045
 30
0.0
 11
192.007768
 21
170.484326
 31
0.0
  0
LINE
  5
E757
330
E6EB
100
AcDbEntity
  8
4
  6
CENTER
100
AcDbLine
 10
141.5209619999999
 20
210.9843259999999
 30
0.0
 11
25.473558
 21
277.9843259999997
 31
0.0
  0
LINE
  5
E758
330
E6EB
100
AcDbEntity
  8
5
  6
PHANTOM
100
AcDbLine
 10
70.57496500000002
 20
238.003364
 30
0.0
 11
131.122048
 21
208.133085
 31
0.0
  0
LINE
  5
E759
330
E6EB
100
AcDbEntity
  8
5
  6
PHANTOM
100
AcDbLine
 10
82.64879099999998
 20
258.9158439999998
 30
0.0
 11
138.7907519999999
 21
221.41567
 31
0.0
  0
ARC
  5
E75A
330
E6EB
100
AcDbEntity
  8
5
  6
PHANTOM
100
AcDbCircle
 10
-28.43927299999997
 20
92.60456299999999
 30
0.0
 40
200.0
100
AcDbArc
 50
56.258952
 51
58.99540300000001
  0
LINE
  5
E75B
330
E6EB
100
AcDbEntity
  8
1
  6
Continuous
100
AcDbLine
 10
66.588295
 20
280.4548889999999
 30
0.0
 11
66.588295
 21
246.513763
 31
0.0
  0
LINE
  5
E75C
330
E6EB
100
AcDbEntity
  8
1
  6
Continuous
100
AcDbLine
 10
63.08829499999998
 20
246.4843259999999
 30
0.0
 11
63.08829499999998
 21
275.8169409999998
 31
0.0
  0
LINE
  5
E75D
330
E6EB
100
AcDbEntity
  8
1
  6
Continuous
100
AcDbLine
 10
61.338295
 20
277.942134
 30
0.0
 11
61.338295
 21
246.9843259999999
 31
0.0
  0
LINE
  5
E75E
330
E6EB
100
AcDbEntity
  8
1
  6
Continuous
100
AcDbLine
 10
34.588295
 20
280.4548889999999
 30
0.0
 11
34.588295
 21
246.513763
 31
0.0
  0
LINE
  5
E75F
330
E6EB
100
AcDbEntity
  8
1
  6
Continuous
100
AcDbLine
 10
38.088295
 20
246.4843259999999
 30
0.0
 11
38.088295
 21
275.8169409999998
 31
0.0
  0
LINE
  5
E760
330
E6EB
100
AcDbEntity
  8
1
  6
Continuous
100
AcDbLine
 10
39.838295
 20
277.942134
 30
0.0
 11
39.838295
 21
246.9843259999999
 31
0.0
  0
ARC
  5
E761
330
E6EB
100
AcDbEntity
  8
1
  6
Continuous
100
AcDbCircle
 10
50.588295
 20
263.4843259999997
 30
0.0
 40
24.0
100
AcDbArc
 50
301.302234
 51
238.6977659999999
  0
ARC
  5
E762
330
E6EB
100
AcDbEntity
  8
5
  6
PHANTOM
100
AcDbCircle
 10
159.060727
 20
417.3640889999998
 30
0.0
 40
200.0
100
AcDbArc
 50
241.306618
 51
243.741048
  0
LINE
  5
E763
330
E6EB
100
AcDbEntity
  8
1
  6
Continuous
100
AcDbLine
 10
63.08829499999998
 20
253.3804589999999
 30
0.0
 11
66.34428299999999
 21
246.138513
 31
0.0
  0
LINE
  5
E764
330
E6EB
100
AcDbEntity
  8
4
  6
CENTER
100
AcDbLine
 10
79.588295
 20
263.4843259999997
 30
0.0
 11
21.58829499999999
 21
263.4843259999997
 31
0.0
  0
ARC
  5
E765
330
E6EB
100
AcDbEntity
  8
1
  6
Continuous
100
AcDbCircle
 10
-136.911705
 20
246.4843259999999
 30
0.0
 40
200.0
100
AcDbArc
 50
356.258952
 51
0.0
  0
ARC
  5
E766
330
E6EB
100
AcDbEntity
  8
1
  6
Continuous
100
AcDbCircle
 10
238.0882949999999
 20
246.4843259999999
 30
0.0
 40
200.0
100
AcDbArc
 50
180.0
 51
183.741048
  0
LINE
  5
E767
330
E6EB
100
AcDbEntity
  8
1
  6
Continuous
100
AcDbLine
 10
47.701544
 20
256.4843259999999
 30
0.0
 11
53.475046
 21
256.4843259999999
 31
0.0
  0
LINE
  5
E768
330
E6EB
100
AcDbEntity
  8
1
  6
Continuous
100
AcDbLine
 10
47.412869
 20
255.984326
 30
0.0
 11
53.76372199999998
 21
255.984326
 31
0.0
  0
LINE
  5
E769
330
E6EB
100
AcDbEntity
  8
1
  6
Continuous
100
AcDbLine
 10
47.12419299999999
 20
255.4843259999999
 30
0.0
 11
54.052397
 21
255.4843259999999
 31
0.0
  0
LINE
  5
E76A
330
E6EB
100
AcDbEntity
  8
1
  6
Continuous
100
AcDbLine
 10
46.835518
 20
254.9843259999999
 30
0.0
 11
54.34107199999999
 21
254.9843259999999
 31
0.0
  0
LINE
  5
E76B
330
E6EB
100
AcDbEntity
  8
1
  6
Continuous
100
AcDbLine
 10
46.546843
 20
254.4843259999999
 30
0.0
 11
54.629747
 21
254.4843259999999
 31
0.0
  0
LINE
  5
E76C
330
E6EB
100
AcDbEntity
  8
1
  6
Continuous
100
AcDbLine
 10
46.25816799999999
 20
253.984326
 30
0.0
 11
54.918422
 21
253.984326
 31
0.0
  0
LINE
  5
E76D
330
E6EB
100
AcDbEntity
  8
1
  6
Continuous
100
AcDbLine
 10
45.969493
 20
253.4843259999999
 30
0.0
 11
50.588295
 21
253.4843259999999
 31
0.0
  0
LINE
  5
E76E
330
E6EB
100
AcDbEntity
  8
1
  6
Continuous
100
AcDbLine
 10
43.66009199999999
 20
249.4843259999999
 30
0.0
 11
50.588295
 21
261.4843259999997
 31
0.0
  0
ARC
  5
E76F
330
E6EB
100
AcDbEntity
  8
1
  6
Continuous
100
AcDbCircle
 10
50.588295
 20
245.484326
 30
0.0
 40
8.0
100
AcDbArc
 50
12.83958799999999
 51
167.160412
  0
LINE
  5
E770
330
E6EB
100
AcDbEntity
  8
1
  6
Continuous
100
AcDbLine
 10
45.680818
 20
252.9843259999999
 30
0.0
 11
47.80441299999998
 21
252.9843259999999
 31
0.0
  0
LINE
  5
E771
330
E6EB
100
AcDbEntity
  8
1
  6
Continuous
100
AcDbLine
 10
45.392143
 20
252.4843259999999
 30
0.0
 11
46.71531199999999
 21
252.4843259999999
 31
0.0
  0
LINE
  5
E772
330
E6EB
100
AcDbEntity
  8
1
  6
Continuous
100
AcDbLine
 10
45.10346799999999
 20
251.984326
 30
0.0
 11
45.92460599999999
 21
251.984326
 31
0.0
  0
LINE
  5
E773
330
E6EB
100
AcDbEntity
  8
1
  6
Continuous
100
AcDbLine
 10
44.81479199999998
 20
251.4843259999999
 30
0.0
 11
45.29679199999999
 21
251.4843259999999
 31
0.0
  0
LINE
  5
E774
330
E6EB
100
AcDbEntity
  8
1
  6
Continuous
100
AcDbLine
 10
44.526117
 20
250.9843259999999
 30
0.0
 11
44.77882
 21
250.9843259999999
 31
0.0
  0
LINE
  5
E775
330
E6EB
100
AcDbEntity
  8
1
  6
Continuous
100
AcDbLine
 10
44.237442
 20
250.4843259999999
 30
0.0
 11
44.343297
 21
250.4843259999999
 31
0.0
  0
LINE
  5
E776
330
E6EB
100
AcDbEntity
  8
1
  6
Continuous
100
AcDbLine
 10
44.093105
 20
250.2343259999999
 30
0.0
 11
44.15109799999998
 21
250.2343259999999
 31
0.0
  0
LINE
  5
E777
330
E6EB
100
AcDbEntity
  8
1
  6
Continuous
100
AcDbLine
 10
43.948767
 20
249.984326
 30
0.0
 11
43.973917
 21
249.984326
 31
0.0
  0
LINE
  5
E778
330
E6EB
100
AcDbEntity
  8
1
  6
Continuous
100
AcDbLine
 10
43.804429
 20
249.734326
 30
0.0
 11
43.810574
 21
249.734326
 31
0.0
  0
ARC
  5
E779
330
E6EB
100
AcDbEntity
  8
1
  6
Continuous
100
AcDbCircle
 10
41.81333099999998
 20
247.4843259999999
 30
0.0
 40
1.0
100
AcDbArc
 50
270.0
 51
347.160412
  0
ARC
  5
E77A
330
E6EB
100
AcDbEntity
  8
1
  6
Continuous
100
AcDbCircle
 10
36.588295
 20
246.513763
 30
0.0
 40
2.0
100
AcDbArc
 50
180.0
 51
230.478804
  0
LINE
  5
E77B
330
E6EB
100
AcDbEntity
  8
1
  6
Continuous
100
AcDbLine
 10
38.088295
 20
253.3804589999999
 30
0.0
 11
34.80283699999999
 21
246.0729649999999
 31
0.0
  0
LINE
  5
E77C
330
E6EB
100
AcDbEntity
  8
1
  6
Continuous
100
AcDbLine
 10
40.338295
 20
246.4843259999999
 30
0.0
 11
41.81333099999998
 21
246.4843259999999
 31
0.0
  0
LINE
  5
E77D
330
E6EB
100
AcDbEntity
  8
1
  6
Continuous
100
AcDbLine
 10
50.29962000000001
 20
260.9843259999997
 30
0.0
 11
50.87697
 21
260.9843259999997
 31
0.0
  0
LINE
  5
E77E
330
E6EB
100
AcDbEntity
  8
1
  6
Continuous
100
AcDbLine
 10
50.010945
 20
260.4843259999999
 30
0.0
 11
51.16564499999999
 21
260.4843259999999
 31
0.0
  0
LINE
  5
E77F
330
E6EB
100
AcDbEntity
  8
1
  6
Continuous
100
AcDbLine
 10
49.72227
 20
259.9843259999999
 30
0.0
 11
51.45432
 21
259.9843259999999
 31
0.0
  0
LINE
  5
E780
330
E6EB
100
AcDbEntity
  8
1
  6
Continuous
100
AcDbLine
 10
49.43359499999999
 20
259.4843259999997
 30
0.0
 11
51.74299600000001
 21
259.4843259999997
 31
0.0
  0
LINE
  5
E781
330
E6EB
100
AcDbEntity
  8
1
  6
Continuous
100
AcDbLine
 10
49.144919
 20
258.9843259999997
 30
0.0
 11
52.031671
 21
258.9843259999997
 31
0.0
  0
LINE
  5
E782
330
E6EB
100
AcDbEntity
  8
1
  6
Continuous
100
AcDbLine
 10
48.85624400000001
 20
258.4843259999999
 30
0.0
 11
52.320346
 21
258.4843259999999
 31
0.0
  0
LINE
  5
E783
330
E6EB
100
AcDbEntity
  8
1
  6
Continuous
100
AcDbLine
 10
48.567569
 20
257.9843259999999
 30
0.0
 11
52.609021
 21
257.9843259999999
 31
0.0
  0
LINE
  5
E784
330
E6EB
100
AcDbEntity
  8
1
  6
Continuous
100
AcDbLine
 10
48.278894
 20
257.4843259999997
 30
0.0
 11
52.89769599999999
 21
257.4843259999997
 31
0.0
  0
LINE
  5
E785
330
E6EB
100
AcDbEntity
  8
1
  6
Continuous
100
AcDbLine
 10
47.990219
 20
256.9843259999997
 30
0.0
 11
53.186371
 21
256.9843259999997
 31
0.0
  0
LINE
  5
E786
330
E6EB
100
AcDbEntity
  8
1
  6
Continuous
100
AcDbLine
 10
50.588295
 20
253.4843259999999
 30
0.0
 11
55.207097
 21
253.4843259999999
 31
0.0
  0
LINE
  5
E787
330
E6EB
100
AcDbEntity
  8
1
  6
Continuous
100
AcDbLine
 10
53.372177
 20
252.9843259999999
 30
0.0
 11
55.49577199999998
 21
252.9843259999999
 31
0.0
  0
LINE
  5
E788
330
E6EB
100
AcDbEntity
  8
1
  6
Continuous
100
AcDbLine
 10
54.461278
 20
252.4843259999999
 30
0.0
 11
55.78444799999999
 21
252.4843259999999
 31
0.0
  0
LINE
  5
E789
330
E6EB
100
AcDbEntity
  8
1
  6
Continuous
100
AcDbLine
 10
55.251985
 20
251.984326
 30
0.0
 11
56.073123
 21
251.984326
 31
0.0
  0
LINE
  5
E78A
330
E6EB
100
AcDbEntity
  8
1
  6
Continuous
100
AcDbLine
 10
55.879798
 20
251.4843259999999
 30
0.0
 11
56.361798
 21
251.4843259999999
 31
0.0
  0
LINE
  5
E78B
330
E6EB
100
AcDbEntity
  8
1
  6
Continuous
100
AcDbLine
 10
56.39776999999998
 20
250.9843259999999
 30
0.0
 11
56.650473
 21
250.9843259999999
 31
0.0
  0
LINE
  5
E78C
330
E6EB
100
AcDbEntity
  8
1
  6
Continuous
100
AcDbLine
 10
56.833293
 20
250.4843259999999
 30
0.0
 11
56.93914799999999
 21
250.4843259999999
 31
0.0
  0
LINE
  5
E78D
330
E6EB
100
AcDbEntity
  8
1
  6
Continuous
100
AcDbLine
 10
57.025492
 20
250.2343259999999
 30
0.0
 11
57.083486
 21
250.2343259999999
 31
0.0
  0
LINE
  5
E78E
330
E6EB
100
AcDbEntity
  8
1
  6
Continuous
100
AcDbLine
 10
57.20267299999999
 20
249.984326
 30
0.0
 11
57.227823
 21
249.984326
 31
0.0
  0
LINE
  5
E78F
330
E6EB
100
AcDbEntity
  8
1
  6
Continuous
100
AcDbLine
 10
57.366016
 20
249.734326
 30
0.0
 11
57.372161
 21
249.734326
 31
0.0
  0
LINE
  5
E790
330
E6EB
100
AcDbEntity
  8
1
  6
Continuous
100
AcDbLine
 10
59.36325899999999
 20
246.4843259999999
 30
0.0
 11
60.838295
 21
246.4843259999999
 31
0.0
  0
ARC
  5
E791
330
E6EB
100
AcDbEntity
  8
1
  6
Continuous
100
AcDbCircle
 10
59.36325899999999
 20
247.4843259999999
 30
0.0
 40
1.0
100
AcDbArc
 50
192.839588
 51
270.0
  0
LINE
  5
E792
330
E6EB
100
AcDbEntity
  8
1
  6
Continuous
100
AcDbLine
 10
50.588295
 20
261.4843259999997
 30
0.0
 11
57.516498
 21
249.4843259999999
 31
0.0
  0
ARC
  5
E793
330
E6EB
100
AcDbEntity
  8
1
  6
Continuous
100
AcDbCircle
 10
64.588295
 20
246.513763
 30
0.0
 40
2.0
100
AcDbArc
 50
309.5211959999998
 51
0.0
  0
LINE
  5
E794
330
E6EB
100
AcDbEntity
  8
1
  6
Continuous
100
AcDbLine
 10
66.234148
 20
280.5851769999998
 30
0.0
 11
63.08829499999998
 21
273.588193
 31
0.0
  0
ARC
  5
E795
330
E6EB
100
AcDbEntity
  8
1
  6
Continuous
100
AcDbCircle
 10
50.588295
 20
256.4843259999999
 30
0.0
 40
24.0
100
AcDbArc
 50
61.49256900000001
 51
118.507431
  0
ARC
  5
E796
330
E6EB
100
AcDbEntity
  8
1
  6
Continuous
100
AcDbCircle
 10
36.588295
 20
280.4548889999999
 30
0.0
 40
2.0
100
AcDbArc
 50
129.521196
 51
180.0
  0
LINE
  5
E797
330
E6EB
100
AcDbEntity
  8
1
  6
Continuous
100
AcDbLine
 10
34.831662
 20
280.8315749999998
 30
0.0
 11
38.088295
 21
273.588193
 31
0.0
  0
ARC
  5
E798
330
E6EB
100
AcDbEntity
  8
1
  6
Continuous
100
AcDbCircle
 10
40.088295
 20
275.8169409999998
 30
0.0
 40
2.0
100
AcDbArc
 50
118.507431
 51
180.0
  0
ARC
  5
E799
330
E6EB
100
AcDbEntity
  8
1
  6
Continuous
100
AcDbCircle
 10
61.08829499999998
 20
275.8169409999998
 30
0.0
 40
2.0
100
AcDbArc
 50
0.0
 51
61.49256900000001
  0
ARC
  5
E79A
330
E6EB
100
AcDbEntity
  8
1
  6
Continuous
100
AcDbCircle
 10
64.588295
 20
280.4548889999999
 30
0.0
 40
2.0
100
AcDbArc
 50
0.0
 51
50.478804
  0
LINE
  5
E79B
330
E6EB
100
AcDbEntity
  8
1
  6
Continuous
100
AcDbLine
 10
232.107768
 20
272.9843259999999
 30
0.0
 11
232.107768
 21
253.984326
 31
0.0
  0
LINE
  5
E79C
330
E6EB
100
AcDbEntity
  8
2
  6
Continuous
100
AcDbLine
 10
237.007768
 20
268.946206
 30
0.0
 11
232.307768
 21
263.4843259999997
 31
0.0
  0
LINE
  5
E79D
330
E6EB
100
AcDbEntity
  8
2
  6
Continuous
100
AcDbLine
 10
237.007768
 20
263.4843259999997
 30
0.0
 11
232.307768
 21
268.946206
 31
0.0
  0
LINE
  5
E79E
330
E6EB
100
AcDbEntity
  8
1
  6
Continuous
100
AcDbLine
 10
232.307768
 20
256.684326
 30
0.0
 11
232.307768
 21
270.2843259999997
 31
0.0
  0
LINE
  5
E79F
330
E6EB
100
AcDbEntity
  8
1
  6
Continuous
100
AcDbLine
 10
237.307768
 20
268.646206
 30
0.0
 11
237.307768
 21
258.322447
 31
0.0
  0
LINE
  5
E7A0
330
E6EB
100
AcDbEntity
  8
1
  6
Continuous
100
AcDbLine
 10
205.5577679999999
 20
277.2906129999999
 30
0.0
 11
205.5577679999999
 21
249.678039
 31
0.0
  0
LINE
  5
E7A1
330
E6EB
100
AcDbEntity
  8
1
  6
Continuous
100
AcDbLine
 10
205.507768
 20
249.4843259999999
 30
0.0
 11
205.507768
 21
277.4843259999999
 31
0.0
  0
LINE
  5
E7A2
330
E6EB
100
AcDbEntity
  8
1
  6
Continuous
100
AcDbLine
 10
213.507768
 20
285.4843259999999
 30
0.0
 11
213.507768
 21
241.484326
 31
0.0
  0
LINE
  5
E7A3
330
E6EB
100
AcDbEntity
  8
1
  6
Continuous
100
AcDbLine
 10
217.007768
 20
287.4843259999999
 30
0.0
 11
217.007768
 21
239.484326
 31
0.0
  0
LINE
  5
E7A4
330
E6EB
100
AcDbEntity
  8
1
  6
Continuous
100
AcDbLine
 10
218.007768
 20
287.4843259999999
 30
0.0
 11
218.007768
 21
239.484326
 31
0.0
  0
ARC
  5
E7A5
330
E6EB
100
AcDbEntity
  8
1
  6
Continuous
100
AcDbCircle
 10
193.007768
 20
246.1628339999998
 30
0.0
 40
6.0
100
AcDbArc
 50
95.44033199999999
 51
180.0
  0
LINE
  5
E7A6
330
E6EB
100
AcDbEntity
  8
4
  6
CENTER
100
AcDbLine
 10
167.2569639999998
 20
263.4843259999997
 30
0.0
 11
240.8336789999999
 21
263.4843259999997
 31
0.0
  0
LINE
  5
E7A7
330
E6EB
100
AcDbEntity
  8
1
  6
Continuous
100
AcDbLine
 10
187.219471
 20
247.7425839999999
 30
0.0
 11
205.507768
 21
249.4843259999999
 31
0.0
  0
ARC
  5
E7A8
330
E6EB
100
AcDbEntity
  8
5
  6
PHANTOM
100
AcDbCircle
 10
137.6798709999999
 20
219.752558
 30
0.0
 40
2.0
100
AcDbArc
 50
344.2794049999998
 51
56.258952
  0
LINE
  5
E7A9
330
E6EB
100
AcDbEntity
  8
1
  6
Continuous
100
AcDbLine
 10
187.0077679999999
 20
246.1628339999998
 30
0.0
 11
187.0077679999999
 21
182.9696079999999
 31
0.0
  0
ARC
  5
E7AA
330
E6EB
100
AcDbEntity
  8
5
  6
PHANTOM
100
AcDbCircle
 10
132.0069049999998
 20
209.926692
 30
0.0
 40
2.0
100
AcDbArc
 50
243.741048
 51
315.720595
  0
ARC
  5
E7AB
330
E6EB
100
AcDbEntity
  8
5
  6
PHANTOM
100
AcDbCircle
 10
115.5402
 20
225.9843259999999
 30
0.0
 40
25.0
100
AcDbArc
 50
315.720595
 51
344.2794049999998
  0
ARC
  5
E7AC
330
E6EB
100
AcDbEntity
  8
1
  6
Continuous
100
AcDbCircle
 10
193.007768
 20
182.9696079999999
 30
0.0
 40
6.0
100
AcDbArc
 50
180.0
 51
225.0
  0
LINE
  5
E7AD
330
E6EB
100
AcDbEntity
  8
1
  6
Continuous
100
AcDbLine
 10
190.2504089999999
 20
177.2416859999999
 30
0.0
 11
188.765128
 21
178.726967
 31
0.0
  0
ARC
  5
E7AE
330
E6EB
100
AcDbEntity
  8
1
  6
Continuous
100
AcDbCircle
 10
374.007768
 20
246.4843259999999
 30
0.0
 40
200.0
100
AcDbArc
 50
180.0
 51
184.573055
  0
LINE
  5
E7AF
330
E6EB
100
AcDbEntity
  8
1
  6
Continuous
100
AcDbLine
 10
231.857768
 20
253.7343259999999
 30
0.0
 11
218.007768
 21
253.7343259999999
 31
0.0
  0
LINE
  5
E7B0
330
E6EB
100
AcDbEntity
  8
1
  6
Continuous
100
AcDbLine
 10
205.687277
 20
249.342277
 30
0.0
 11
214.0258039999999
 21
240.1412769999998
 31
0.0
  0
LINE
  5
E7B1
330
E6EB
100
AcDbEntity
  8
1
  6
Continuous
100
AcDbLine
 10
215.507768
 20
239.484326
 30
0.0
 11
217.007768
 21
239.484326
 31
0.0
  0
LINE
  5
E7B2
330
E6EB
100
AcDbEntity
  8
1
  6
Continuous
100
AcDbLine
 10
218.007768
 20
239.484326
 30
0.0
 11
217.007768
 21
239.484326
 31
0.0
  0
ARC
  5
E7B3
330
E6EB
100
AcDbEntity
  8
1
  6
Continuous
100
AcDbCircle
 10
215.507768
 20
241.484326
 30
0.0
 40
2.0
100
AcDbArc
 50
180.0
 51
222.3553149999999
  0
ARC
  5
E7B4
330
E6EB
100
AcDbEntity
  8
1
  6
Continuous
100
AcDbCircle
 10
215.507768
 20
241.484326
 30
0.0
 40
2.0
100
AcDbArc
 50
222.3553149999999
 51
270.0
  0
LINE
  5
E7B5
330
E6EB
100
AcDbEntity
  8
1
  6
Continuous
100
AcDbLine
 10
205.638278
 20
253.253462
 30
0.0
 11
209.1680929999998
 21
249.8186529999999
 31
0.0
  0
ARC
  5
E7B6
330
E6EB
100
AcDbEntity
  8
1
  6
Continuous
100
AcDbCircle
 10
206.0577679999999
 20
249.678039
 30
0.0
 40
0.5
100
AcDbArc
 50
180.0
 51
222.1848549999999
  0
LINE
  5
E7B7
330
E6EB
100
AcDbEntity
  8
1
  6
Continuous
100
AcDbLine
 10
205.507768
 20
254.4843259999999
 30
0.0
 11
205.5577679999999
 21
254.4843259999999
 31
0.0
  0
LINE
  5
E7B8
330
E6EB
100
AcDbEntity
  8
1
  6
Continuous
100
AcDbLine
 10
192.4389139999999
 20
252.135806
 30
0.0
 11
205.140043
 21
253.345438
 31
0.0
  0
LINE
  5
E7B9
330
E6EB
100
AcDbEntity
  8
1
  6
Continuous
100
AcDbLine
 10
219.507768
 20
248.4843259999999
 30
0.0
 11
218.007768
 21
248.4843259999999
 31
0.0
  0
LINE
  5
E7BA
330
E6EB
100
AcDbEntity
  8
1
  6
Continuous
100
AcDbLine
 10
219.507768
 20
243.9843259999999
 30
0.0
 11
218.007768
 21
243.9843259999999
 31
0.0
  0
LINE
  5
E7BB
330
E6EB
100
AcDbEntity
  8
1
  6
Continuous
100
AcDbLine
 10
219.507768
 20
243.9843259999999
 30
0.0
 11
219.507768
 21
248.4843259999999
 31
0.0
  0
LINE
  5
E7BC
330
E6EB
100
AcDbEntity
  8
1
  6
Continuous
100
AcDbLine
 10
209.813262
 20
249.1908489999999
 30
0.0
 11
212.507768
 21
246.568867
 31
0.0
  0
LINE
  5
E7BD
330
E6EB
100
AcDbEntity
  8
2
  6
Continuous
100
AcDbLine
 10
232.307768
 20
258.022447
 30
0.0
 11
237.007768
 21
263.4843259999997
 31
0.0
  0
LINE
  5
E7BE
330
E6EB
100
AcDbEntity
  8
2
  6
Continuous
100
AcDbLine
 10
232.307768
 20
263.4843259999997
 30
0.0
 11
237.007768
 21
258.022447
 31
0.0
  0
LINE
  5
E7BF
330
E6EB
100
AcDbEntity
  8
1
  6
Continuous
100
AcDbLine
 10
237.007768
 20
263.4843259999997
 30
0.0
 11
232.307768
 21
263.4843259999997
 31
0.0
  0
LINE
  5
E7C0
330
E6EB
100
AcDbEntity
  8
1
  6
Continuous
100
AcDbLine
 10
237.007768
 20
258.022447
 30
0.0
 11
232.307768
 21
258.022447
 31
0.0
  0
ARC
  5
E7C1
330
E6EB
100
AcDbEntity
  8
1
  6
Continuous
100
AcDbCircle
 10
237.007768
 20
258.322447
 30
0.0
 40
0.3
100
AcDbArc
 50
270.0
 51
0.0
  0
LINE
  5
E7C2
330
E6EB
100
AcDbEntity
  8
1
  6
Continuous
100
AcDbLine
 10
231.857768
 20
253.7343259999999
 30
0.0
 11
232.107768
 21
253.984326
 31
0.0
  0
ARC
  5
E7C3
330
E6EB
100
AcDbEntity
  8
1
  6
Continuous
100
AcDbCircle
 10
232.107768
 20
256.684326
 30
0.0
 40
0.2
100
AcDbArc
 50
270.0
 51
0.0
  0
LINE
  5
E7C4
330
E6EB
100
AcDbEntity
  8
1
  6
Continuous
100
AcDbLine
 10
186.178062
 20
276.5619939999999
 30
0.0
 11
204.9222219999998
 21
273.678277
 31
0.0
  0
LINE
  5
E7C5
330
E6EB
100
AcDbEntity
  8
1
  6
Continuous
100
AcDbLine
 10
186.763608
 20
280.368043
 30
0.0
 11
205.507768
 21
277.4843259999999
 31
0.0
  0
LINE
  5
E7C6
330
E6EB
100
AcDbEntity
  8
1
  6
Continuous
100
AcDbLine
 10
231.857768
 20
273.2343259999999
 30
0.0
 11
218.007768
 21
273.2343259999999
 31
0.0
  0
LINE
  5
E7C7
330
E6EB
100
AcDbEntity
  8
1
  6
Continuous
100
AcDbLine
 10
214.0258039999999
 20
286.8273759999999
 30
0.0
 11
205.687277
 21
277.6263759999998
 31
0.0
  0
ARC
  5
E7C8
330
E6EB
100
AcDbEntity
  8
1
  6
Continuous
100
AcDbCircle
 10
215.507768
 20
285.4843259999999
 30
0.0
 40
2.0
100
AcDbArc
 50
137.644685
 51
180.0
  0
LINE
  5
E7C9
330
E6EB
100
AcDbEntity
  8
1
  6
Continuous
100
AcDbLine
 10
209.1680929999998
 20
277.1499989999999
 30
0.0
 11
205.638278
 21
273.71519
 31
0.0
  0
ARC
  5
E7CA
330
E6EB
100
AcDbEntity
  8
1
  6
Continuous
100
AcDbCircle
 10
206.0577679999999
 20
277.2906129999999
 30
0.0
 40
0.5
100
AcDbArc
 50
137.815145
 51
180.0
  0
LINE
  5
E7CB
330
E6EB
100
AcDbEntity
  8
1
  6
Continuous
100
AcDbLine
 10
205.5577679999999
 20
274.9843259999999
 30
0.0
 11
205.507768
 21
274.9843259999999
 31
0.0
  0
LINE
  5
E7CC
330
E6EB
100
AcDbEntity
  8
1
  6
Continuous
100
AcDbLine
 10
219.507768
 20
278.4843259999997
 30
0.0
 11
218.007768
 21
278.4843259999997
 31
0.0
  0
LINE
  5
E7CD
330
E6EB
100
AcDbEntity
  8
1
  6
Continuous
100
AcDbLine
 10
219.507768
 20
282.9843259999999
 30
0.0
 11
218.007768
 21
282.9843259999999
 31
0.0
  0
LINE
  5
E7CE
330
E6EB
100
AcDbEntity
  8
1
  6
Continuous
100
AcDbLine
 10
219.507768
 20
282.9843259999999
 30
0.0
 11
219.507768
 21
278.4843259999997
 31
0.0
  0
LINE
  5
E7CF
330
E6EB
100
AcDbEntity
  8
1
  6
Continuous
100
AcDbLine
 10
212.507768
 20
280.399785
 30
0.0
 11
209.813262
 21
277.7778029999999
 31
0.0
  0
LINE
  5
E7D0
330
E6EB
100
AcDbEntity
  8
1
  6
Continuous
100
AcDbLine
 10
215.507768
 20
287.4843259999999
 30
0.0
 11
217.007768
 21
287.4843259999999
 31
0.0
  0
LINE
  5
E7D1
330
E6EB
100
AcDbEntity
  8
1
  6
Continuous
100
AcDbLine
 10
218.007768
 20
287.4843259999999
 30
0.0
 11
217.007768
 21
287.4843259999999
 31
0.0
  0
ARC
  5
E7D2
330
E6EB
100
AcDbEntity
  8
1
  6
Continuous
100
AcDbCircle
 10
215.507768
 20
285.4843259999999
 30
0.0
 40
2.0
100
AcDbArc
 50
90.0
 51
137.644685
  0
LINE
  5
E7D3
330
E6EB
100
AcDbEntity
  8
1
  6
Continuous
100
AcDbLine
 10
237.007768
 20
268.946206
 30
0.0
 11
232.307768
 21
268.946206
 31
0.0
  0
ARC
  5
E7D4
330
E6EB
100
AcDbEntity
  8
1
  6
Continuous
100
AcDbCircle
 10
237.007768
 20
268.646206
 30
0.0
 40
0.3
100
AcDbArc
 50
0.0
 51
90.0
  0
LINE
  5
E7D5
330
E6EB
100
AcDbEntity
  8
1
  6
Continuous
100
AcDbLine
 10
232.107768
 20
272.9843259999999
 30
0.0
 11
231.857768
 21
273.2343259999999
 31
0.0
  0
ARC
  5
E7D6
330
E6EB
100
AcDbEntity
  8
1
  6
Continuous
100
AcDbCircle
 10
232.107768
 20
270.2843259999997
 30
0.0
 40
0.2
100
AcDbArc
 50
0.0
 51
90.0
  0
LINE
  5
E7D7
330
E6EB
100
AcDbEntity
  8
4
  6
CENTER
100
AcDbLine
 10
461.3748849999998
 20
292.4843259999999
 30
0.0
 11
461.3748849999998
 21
157.798321
 31
0.0
  0
LINE
  5
E7D8
330
E6EB
100
AcDbEntity
  8
1
  6
Continuous
100
AcDbLine
 10
473.448711
 20
233.4348809999999
 30
0.0
 11
469.0435889999998
 21
166.064429
 31
0.0
  0
LINE
  5
E7D9
330
E6EB
100
AcDbEntity
  8
1
  6
Continuous
100
AcDbLine
 10
449.3010589999998
 20
233.4348809999999
 30
0.0
 11
453.7061809999998
 21
166.064429
 31
0.0
  0
LINE
  5
E7DA
330
E6EB
100
AcDbEntity
  8
4
  6
CENTER
100
AcDbLine
 10
327.5150779999999
 20
72.553574
 30
0.0
 11
312.876481
 21
72.553574
 31
0.0
  0
ARC
  5
E7DB
330
E6EB
100
AcDbEntity
  8
1
  6
Continuous
100
AcDbCircle
 10
304.959339
 20
65.053574
 30
0.0
 40
32.055667
100
AcDbArc
 50
166.4692029999999
 51
193.530797
  0
ARC
  5
E7DC
330
E6EB
100
AcDbEntity
  8
1
  6
Continuous
100
AcDbCircle
 10
244.848004
 20
65.053574
 30
0.0
 40
32.055667
100
AcDbArc
 50
346.469203
 51
13.530797
  0
LINE
  5
E7DD
330
E6EB
100
AcDbEntity
  8
1
  6
Continuous
100
AcDbLine
 10
271.4036709999999
 20
86.55357399999996
 30
0.0
 11
271.4036709999999
 21
58.55357399999999
 31
0.0
  0
LINE
  5
E7DE
330
E6EB
100
AcDbEntity
  8
1
  6
Continuous
100
AcDbLine
 10
272.9036709999999
 20
57.553574
 30
0.0
 11
272.9036709999999
 21
87.55357399999999
 31
0.0
  0
LINE
  5
E7DF
330
E6EB
100
AcDbEntity
  8
1
  6
Continuous
100
AcDbLine
 10
276.9036709999999
 20
57.553574
 30
0.0
 11
276.9036709999999
 21
87.55357399999999
 31
0.0
  0
LINE
  5
E7E0
330
E6EB
100
AcDbEntity
  8
1
  6
Continuous
100
AcDbLine
 10
269.9036709999999
 20
84.553574
 30
0.0
 11
269.9036709999999
 21
60.553573
 31
0.0
  0
LINE
  5
E7E1
330
E6EB
100
AcDbEntity
  8
1
  6
Continuous
100
AcDbLine
 10
278.4036709999999
 20
58.55357399999999
 30
0.0
 11
278.4036709999999
 21
86.55357399999996
 31
0.0
  0
ARC
  5
E7E2
330
E6EB
100
AcDbEntity
  8
1
  6
Continuous
100
AcDbCircle
 10
270.6536709999999
 20
60.553573
 30
0.0
 40
0.75
100
AcDbArc
 50
180.0
 51
0.0
  0
LINE
  5
E7E3
330
E6EB
100
AcDbEntity
  8
1
  6
Continuous
100
AcDbLine
 10
276.9036709999999
 20
58.55357399999999
 30
0.0
 11
278.4036709999999
 21
58.55357399999999
 31
0.0
  0
LINE
  5
E7E4
330
E6EB
100
AcDbEntity
  8
1
  6
Continuous
100
AcDbLine
 10
278.4036709999999
 20
61.20458000000001
 30
0.0
 11
276.9036709999999
 21
61.20458000000001
 31
0.0
  0
LINE
  5
E7E5
330
E6EB
100
AcDbEntity
  8
1
  6
Continuous
100
AcDbLine
 10
278.4036709999999
 20
59.59524399999999
 30
0.0
 11
276.9036709999999
 21
59.59524399999999
 31
0.0
  0
LINE
  5
E7E6
330
E6EB
100
AcDbEntity
  8
1
  6
Continuous
100
AcDbLine
 10
276.9036709999999
 20
57.553574
 30
0.0
 11
272.9036709999999
 21
57.553574
 31
0.0
  0
LINE
  5
E7E7
330
E6EB
100
AcDbEntity
  8
1
  6
Continuous
100
AcDbLine
 10
271.4036709999999
 20
58.55357399999999
 30
0.0
 11
272.9036709999999
 21
58.55357399999999
 31
0.0
  0
ARC
  5
E7E8
330
E6EB
100
AcDbEntity
  8
1
  6
Continuous
100
AcDbCircle
 10
270.6536709999999
 20
84.553574
 30
0.0
 40
0.75
100
AcDbArc
 50
0.0
 51
180.0
  0
LINE
  5
E7E9
330
E6EB
100
AcDbEntity
  8
1
  6
Continuous
100
AcDbLine
 10
269.9036709999999
 20
72.553573
 30
0.0
 11
271.4036709999999
 21
74.053573
 31
0.0
  0
LINE
  5
E7EA
330
E6EB
100
AcDbEntity
  8
1
  6
Continuous
100
AcDbLine
 10
269.9036709999999
 20
71.053573
 30
0.0
 11
271.4036709999999
 21
72.553573
 31
0.0
  0
LINE
  5
E7EB
330
E6EB
100
AcDbEntity
  8
4
  6
CENTER
100
AcDbLine
 10
266.9036709999999
 20
72.553573
 30
0.0
 11
281.4036709999999
 21
72.553573
 31
0.0
  0
LINE
  5
E7EC
330
E6EB
100
AcDbEntity
  8
1
  6
Continuous
100
AcDbLine
 10
276.9036709999999
 20
86.55357399999996
 30
0.0
 11
278.4036709999999
 21
86.55357399999996
 31
0.0
  0
LINE
  5
E7ED
330
E6EB
100
AcDbEntity
  8
1
  6
Continuous
100
AcDbLine
 10
278.4036709999999
 20
85.51190400000001
 30
0.0
 11
276.9036709999999
 21
85.51190400000001
 31
0.0
  0
LINE
  5
E7EE
330
E6EB
100
AcDbEntity
  8
1
  6
Continuous
100
AcDbLine
 10
278.4036709999999
 20
83.902569
 30
0.0
 11
276.9036709999999
 21
83.902569
 31
0.0
  0
LINE
  5
E7EF
330
E6EB
100
AcDbEntity
  8
1
  6
Continuous
100
AcDbLine
 10
276.9036709999999
 20
87.55357399999999
 30
0.0
 11
272.9036709999999
 21
87.55357399999999
 31
0.0
  0
LINE
  5
E7F0
330
E6EB
100
AcDbEntity
  8
1
  6
Continuous
100
AcDbLine
 10
271.4036709999999
 20
86.55357399999996
 30
0.0
 11
272.9036709999999
 21
86.55357399999996
 31
0.0
  0
LINE
  5
E7F1
330
E6EB
100
AcDbEntity
  8
1
  6
Continuous
100
AcDbLine
 10
273.793399
 20
72.553573
 30
0.0
 11
276.0139429999999
 21
72.553574
 31
0.0
  0
ARC
  5
E7F2
330
E6EB
100
AcDbEntity
  8
1
  6
Continuous
100
AcDbCircle
 10
304.959339
 20
80.05357399999999
 30
0.0
 40
32.055667
100
AcDbArc
 50
166.4692029999999
 51
193.530797
  0
ARC
  5
E7F3
330
E6EB
100
AcDbEntity
  8
1
  6
Continuous
100
AcDbCircle
 10
244.848004
 20
80.05357399999999
 30
0.0
 40
32.055667
100
AcDbArc
 50
346.469203
 51
13.530797
  0
LINE
  5
E7F4
330
E6EB
100
AcDbEntity
  8
1
  6
Continuous
100
AcDbLine
 10
319.076481
 20
81.55357399999997
 30
0.0
 11
319.076481
 21
63.55357399999999
 31
0.0
  0
LINE
  5
E7F5
330
E6EB
100
AcDbEntity
  8
1
  6
Continuous
100
AcDbLine
 10
315.876481
 20
81.55357399999997
 30
0.0
 11
315.876481
 21
63.55357399999999
 31
0.0
  0
LINE
  5
E7F6
330
E6EB
100
AcDbEntity
  8
1
  6
Continuous
100
AcDbLine
 10
319.076481
 20
63.55357399999999
 30
0.0
 11
315.876481
 21
63.55357399999999
 31
0.0
  0
LINE
  5
E7F7
330
E6EB
100
AcDbEntity
  8
1
  6
Continuous
100
AcDbLine
 10
319.076481
 20
81.55357399999997
 30
0.0
 11
315.876481
 21
81.55357399999997
 31
0.0
  0
LINE
  5
E7F8
330
E6EB
100
AcDbEntity
  8
1
  6
Continuous
100
AcDbLine
 10
343.104555
 20
80.553574
 30
0.0
 11
343.104555
 21
64.553574
 31
0.0
  0
LINE
  5
E7F9
330
E6EB
100
AcDbEntity
  8
1
  6
Continuous
100
AcDbLine
 10
341.9045549999997
 20
80.553574
 30
0.0
 11
341.9045549999997
 21
64.553574
 31
0.0
  0
LINE
  5
E7FA
330
E6EB
100
AcDbEntity
  8
1
  6
Continuous
100
AcDbLine
 10
324.5150779999999
 20
81.55357399999997
 30
0.0
 11
324.5150779999999
 21
63.55357399999999
 31
0.0
  0
LINE
  5
E7FB
330
E6EB
100
AcDbEntity
  8
1
  6
Continuous
100
AcDbLine
 10
322.9150779999998
 20
81.55357399999997
 30
0.0
 11
322.9150779999998
 21
63.55357399999999
 31
0.0
  0
LINE
  5
E7FC
330
E6EB
100
AcDbEntity
  8
1
  6
Continuous
100
AcDbLine
 10
324.5150779999999
 20
63.55357399999999
 30
0.0
 11
322.9150779999998
 21
63.55357399999999
 31
0.0
  0
LINE
  5
E7FD
330
E6EB
100
AcDbEntity
  8
1
  6
Continuous
100
AcDbLine
 10
343.104555
 20
64.553574
 30
0.0
 11
341.9045549999997
 21
64.553574
 31
0.0
  0
LINE
  5
E7FE
330
E6EB
100
AcDbEntity
  8
1
  6
Continuous
100
AcDbLine
 10
324.5150779999999
 20
81.55357399999997
 30
0.0
 11
322.9150779999998
 21
81.55357399999997
 31
0.0
  0
LINE
  5
E7FF
330
E6EB
100
AcDbEntity
  8
1
  6
Continuous
100
AcDbLine
 10
344.4045549999998
 20
73.85357399999998
 30
0.0
 11
343.104555
 21
72.553574
 31
0.0
  0
LINE
  5
E800
330
E6EB
100
AcDbEntity
  8
1
  6
Continuous
100
AcDbLine
 10
344.4045549999998
 20
72.553574
 30
0.0
 11
343.104555
 21
71.253574
 31
0.0
  0
LINE
  5
E801
330
E6EB
100
AcDbEntity
  8
1
  6
Continuous
100
AcDbLine
 10
344.4045549999998
 20
77.15357400000002
 30
0.0
 11
343.104555
 21
77.15357400000002
 31
0.0
  0
LINE
  5
E802
330
E6EB
100
AcDbEntity
  8
1
  6
Continuous
100
AcDbLine
 10
344.4045549999998
 20
67.953574
 30
0.0
 11
343.104555
 21
67.953574
 31
0.0
  0
LINE
  5
E803
330
E6EB
100
AcDbEntity
  8
1
  6
Continuous
100
AcDbLine
 10
344.4045549999998
 20
67.953574
 30
0.0
 11
344.4045549999998
 21
77.15357400000002
 31
0.0
  0
LINE
  5
E804
330
E6EB
100
AcDbEntity
  8
1
  6
Continuous
100
AcDbLine
 10
343.104555
 20
80.553574
 30
0.0
 11
341.9045549999997
 21
80.553574
 31
0.0
  0
ARC
  5
E805
330
E6EB
100
AcDbEntity
  8
1
  6
Continuous
100
AcDbCircle
 10
342.1295779999999
 20
74.553574
 30
0.0
 40
5.774976999999998
100
AcDbArc
 50
339.7375
 51
20.2625
  0
ARC
  5
E806
330
E6EB
100
AcDbEntity
  8
1
  6
Continuous
100
AcDbCircle
 10
350.1795319999998
 20
74.553574
 30
0.0
 40
5.774976999999998
100
AcDbArc
 50
159.7375
 51
200.2625
  0
LINE
  5
E807
330
E6EB
100
AcDbEntity
  8
1
  6
Continuous
100
AcDbLine
 10
344.761935
 20
72.553574
 30
0.0
 11
347.547175
 21
72.553574
 31
0.0
  0
LINE
  5
E808
330
E6EB
100
AcDbEntity
  8
1
  6
Continuous
100
AcDbLine
 10
347.9045549999999
 20
76.55357399999998
 30
0.0
 11
344.4045549999998
 21
76.55357399999998
 31
0.0
  0
LINE
  5
E809
330
E6EB
100
AcDbEntity
  8
1
  6
Continuous
100
AcDbLine
 10
347.9045549999999
 20
68.55357399999999
 30
0.0
 11
344.4045549999998
 21
68.55357399999999
 31
0.0
  0
LINE
  5
E80A
330
E6EB
100
AcDbEntity
  8
1
  6
Continuous
100
AcDbLine
 10
347.9045549999999
 20
76.55357399999998
 30
0.0
 11
347.9045549999999
 21
68.55357399999999
 31
0.0
  0
ARC
  5
E80B
330
E6EB
100
AcDbEntity
  8
1
  6
Continuous
100
AcDbCircle
 10
350.1795319999998
 20
70.553574
 30
0.0
 40
5.774976999999998
100
AcDbArc
 50
159.7375
 51
200.2625
  0
ARC
  5
E80C
330
E6EB
100
AcDbEntity
  8
1
  6
Continuous
100
AcDbCircle
 10
342.1295779999999
 20
70.553574
 30
0.0
 40
5.774976999999998
100
AcDbArc
 50
339.7375
 51
20.2625
  0
LINE
  5
E80D
330
E6EB
100
AcDbEntity
  8
4
  6
CENTER
100
AcDbLine
 10
350.9045549999997
 20
72.553574
 30
0.0
 11
338.9045549999999
 21
72.553574
 31
0.0
  0
ARC
  5
E80E
330
E6EB
100
AcDbEntity
  8
1
  6
Continuous
100
AcDbCircle
 10
461.3748849999998
 20
178.484326
 30
0.0
 40
8.0
100
AcDbArc
 50
226.051292
 51
313.948708
  0
ARC
  5
E80F
330
E6EB
100
AcDbEntity
  8
1
  6
Continuous
100
AcDbCircle
 10
461.3748849999998
 20
188.484326
 30
0.0
 40
25.0
100
AcDbArc
 50
255.720595
 51
284.279405
  0
ARC
  5
E810
330
E6EB
100
AcDbEntity
  8
1
  6
Continuous
100
AcDbCircle
 10
455.701919
 20
166.194924
 30
0.0
 40
2.0
100
AcDbArc
 50
183.741048
 51
255.720595
  0
ARC
  5
E811
330
E6EB
100
AcDbEntity
  8
1
  6
Continuous
100
AcDbCircle
 10
467.0478499999998
 20
166.194924
 30
0.0
 40
2.0
100
AcDbArc
 50
284.279405
 51
356.258952
  0
LINE
  5
E812
330
E6EB
100
AcDbEntity
  8
5
  6
PHANTOM
100
AcDbLine
 10
429.3143889999998
 20
258.9158439999998
 30
0.0
 11
373.172427
 21
221.41567
 31
0.0
  0
LINE
  5
E813
330
E6EB
100
AcDbEntity
  8
5
  6
PHANTOM
100
AcDbLine
 10
441.388215
 20
238.003364
 30
0.0
 11
380.841131
 21
208.133085
 31
0.0
  0
LINE
  5
E814
330
E6EB
100
AcDbEntity
  8
4
  6
CENTER
100
AcDbLine
 10
370.442218
 20
210.9843259999999
 30
0.0
 11
486.489622
 21
277.9843259999997
 31
0.0
  0
LINE
  5
E815
330
E6EB
100
AcDbEntity
  8
1
  6
Continuous
100
AcDbLine
 10
347.9045549999999
 20
267.484826
 30
0.0
 11
347.9045549999999
 21
259.484826
 31
0.0
  0
ARC
  5
E816
330
E6EB
100
AcDbEntity
  8
1
  6
Continuous
100
AcDbCircle
 10
352.0455999999999
 20
263.4843259999997
 30
0.0
 40
7.641045
100
AcDbArc
 50
162.407253
 51
197.592747
  0
ARC
  5
E817
330
E6EB
100
AcDbEntity
  8
1
  6
Continuous
100
AcDbCircle
 10
340.2635099999999
 20
263.4843259999997
 30
0.0
 40
7.641045
100
AcDbArc
 50
342.4072529999999
 51
17.59274699999998
  0
LINE
  5
E818
330
E6EB
100
AcDbEntity
  8
1
  6
Continuous
100
AcDbLine
 10
269.9036709999999
 20
263.4843259999997
 30
0.0
 11
271.4036709999999
 21
264.9843259999999
 31
0.0
  0
ARC
  5
E819
330
E6EB
100
AcDbEntity
  8
1
  6
Continuous
100
AcDbCircle
 10
234.3111149999999
 20
263.4843259999997
 30
0.0
 40
42.592555
100
AcDbArc
 50
348.268368
 51
11.731632
  0
ARC
  5
E81A
330
E6EB
100
AcDbEntity
  8
1
  6
Continuous
100
AcDbCircle
 10
315.496226
 20
263.4843259999997
 30
0.0
 40
42.592555
100
AcDbArc
 50
168.2683679999998
 51
191.7316319999999
  0
LINE
  5
E81B
330
E6EB
100
AcDbEntity
  8
1
  6
Continuous
100
AcDbLine
 10
278.4036709999999
 20
249.4843259999999
 30
0.0
 11
278.4036709999999
 21
277.4843259999999
 31
0.0
  0
LINE
  5
E81C
330
E6EB
100
AcDbEntity
  8
1
  6
Continuous
100
AcDbLine
 10
271.4036709999999
 20
277.4843259999999
 30
0.0
 11
271.4036709999999
 21
249.4843259999999
 31
0.0
  0
LINE
  5
E81D
330
E6EB
100
AcDbEntity
  8
1
  6
Continuous
100
AcDbLine
 10
276.9036709999999
 20
248.484324
 30
0.0
 11
276.9036709999999
 21
278.484328
 31
0.0
  0
LINE
  5
E81E
330
E6EB
100
AcDbEntity
  8
1
  6
Continuous
100
AcDbLine
 10
272.9036709999999
 20
248.4843259999999
 30
0.0
 11
272.9036709999999
 21
278.4843259999997
 31
0.0
  0
LINE
  5
E81F
330
E6EB
100
AcDbEntity
  8
1
  6
Continuous
100
AcDbLine
 10
269.9036709999999
 20
275.4843259999999
 30
0.0
 11
269.9036709999999
 21
251.4843259999999
 31
0.0
  0
LINE
  5
E820
330
E6EB
100
AcDbEntity
  8
1
  6
Continuous
100
AcDbLine
 10
344.4045549999998
 20
264.7843259999999
 30
0.0
 11
343.104555
 21
263.4843259999997
 31
0.0
  0
LINE
  5
E821
330
E6EB
100
AcDbEntity
  8
1
  6
Continuous
100
AcDbLine
 10
344.4045549999998
 20
258.865524
 30
0.0
 11
344.4045549999998
 21
268.1031279999999
 31
0.0
  0
LINE
  5
E822
330
E6EB
100
AcDbEntity
  8
1
  6
Continuous
100
AcDbLine
 10
341.9045549999997
 20
271.4843259999997
 30
0.0
 11
341.9045549999997
 21
255.4843259999999
 31
0.0
  0
LINE
  5
E823
330
E6EB
100
AcDbEntity
  8
1
  6
Continuous
100
AcDbLine
 10
343.104555
 20
271.4843259999997
 30
0.0
 11
343.104555
 21
255.4843259999999
 31
0.0
  0
LINE
  5
E824
330
E6EB
100
AcDbEntity
  8
1
  6
Continuous
100
AcDbLine
 10
322.9150779999998
 20
272.4843259999999
 30
0.0
 11
322.9150779999998
 21
254.4843259999999
 31
0.0
  0
LINE
  5
E825
330
E6EB
100
AcDbEntity
  8
1
  6
Continuous
100
AcDbLine
 10
324.5150779999999
 20
272.4843259999999
 30
0.0
 11
324.5150779999999
 21
254.4843259999999
 31
0.0
  0
LINE
  5
E826
330
E6EB
100
AcDbEntity
  8
1
  6
Continuous
100
AcDbLine
 10
315.876481
 20
272.4843259999999
 30
0.0
 11
315.876481
 21
254.4843259999999
 31
0.0
  0
LINE
  5
E827
330
E6EB
100
AcDbEntity
  8
1
  6
Continuous
100
AcDbLine
 10
319.076481
 20
272.4843259999999
 30
0.0
 11
319.076481
 21
254.4843259999999
 31
0.0
  0
LINE
  5
E828
330
E6EB
100
AcDbEntity
  8
4
  6
CENTER
100
AcDbLine
 10
327.5150779999999
 20
263.4843259999997
 30
0.0
 11
312.876481
 21
263.4843259999997
 31
0.0
  0
LINE
  5
E829
330
E6EB
100
AcDbEntity
  8
1
  6
Continuous
100
AcDbLine
 10
269.9036709999999
 20
261.9843259999999
 30
0.0
 11
271.4036709999999
 21
263.4843259999997
 31
0.0
  0
ARC
  5
E82A
330
E6EB
100
AcDbEntity
  8
1
  6
Continuous
100
AcDbCircle
 10
270.6536709999999
 20
251.4843259999999
 30
0.0
 40
0.75
100
AcDbArc
 50
180.0
 51
0.0
  0
LINE
  5
E82B
330
E6EB
100
AcDbEntity
  8
4
  6
CENTER
100
AcDbLine
 10
266.9036709999999
 20
263.4843259999997
 30
0.0
 11
281.4036709999999
 21
263.4843259999997
 31
0.0
  0
LINE
  5
E82C
330
E6EB
100
AcDbEntity
  8
1
  6
Continuous
100
AcDbLine
 10
278.4036709999999
 20
257.7545989999999
 30
0.0
 11
276.9036709999999
 21
257.7545989999999
 31
0.0
  0
LINE
  5
E82D
330
E6EB
100
AcDbEntity
  8
1
  6
Continuous
100
AcDbLine
 10
278.4036709999999
 20
255.286745
 30
0.0
 11
276.9036709999999
 21
255.286745
 31
0.0
  0
LINE
  5
E82E
330
E6EB
100
AcDbEntity
  8
1
  6
Continuous
100
AcDbLine
 10
276.0139429999999
 20
254.824072
 30
0.0
 11
273.793399
 21
254.824072
 31
0.0
  0
LINE
  5
E82F
330
E6EB
100
AcDbEntity
  8
1
  6
Continuous
100
AcDbLine
 10
275.5639259999999
 20
246.163818
 30
0.0
 11
276.9036719999999
 21
248.4843259999999
 31
0.0
  0
LINE
  5
E830
330
E6EB
100
AcDbEntity
  8
1
  6
Continuous
100
AcDbLine
 10
274.2434169999999
 20
246.163818
 30
0.0
 11
272.9036709999999
 21
248.4843259999999
 31
0.0
  0
LINE
  5
E831
330
E6EB
100
AcDbEntity
  8
1
  6
Continuous
100
AcDbLine
 10
275.5639259999999
 20
246.163818
 30
0.0
 11
274.243416
 21
246.163818
 31
0.0
  0
LINE
  5
E832
330
E6EB
100
AcDbEntity
  8
1
  6
Continuous
100
AcDbLine
 10
278.4036709999999
 20
249.4843259999999
 30
0.0
 11
276.9036709999999
 21
249.4843259999999
 31
0.0
  0
LINE
  5
E833
330
E6EB
100
AcDbEntity
  8
1
  6
Continuous
100
AcDbLine
 10
276.9036709999999
 20
249.4843259999999
 30
0.0
 11
278.4036709999999
 21
249.4843259999999
 31
0.0
  0
LINE
  5
E834
330
E6EB
100
AcDbEntity
  8
1
  6
Continuous
100
AcDbLine
 10
271.4036709999999
 20
249.4843259999999
 30
0.0
 11
272.9036709999999
 21
249.4843259999999
 31
0.0
  0
ARC
  5
E835
330
E6EB
100
AcDbEntity
  8
1
  6
Continuous
100
AcDbCircle
 10
265.9218839999999
 20
250.493945
 30
0.0
 40
10.98178699999998
100
AcDbArc
 50
346.759553
 51
23.222372
  0
ARC
  5
E836
330
E6EB
100
AcDbEntity
  8
1
  6
Continuous
100
AcDbCircle
 10
283.885458
 20
250.493945
 30
0.0
 40
10.98178699999998
100
AcDbArc
 50
156.7776279999999
 51
193.240431
  0
LINE
  5
E837
330
E6EB
100
AcDbEntity
  8
1
  6
Continuous
100
AcDbLine
 10
319.076481
 20
254.4843259999999
 30
0.0
 11
315.876481
 21
254.4843259999999
 31
0.0
  0
ARC
  5
E838
330
E6EB
100
AcDbEntity
  8
5
  6
PHANTOM
100
AcDbCircle
 10
374.283308
 20
219.752558
 30
0.0
 40
2.0
100
AcDbArc
 50
123.7410479999999
 51
195.720595
  0
ARC
  5
E839
330
E6EB
100
AcDbEntity
  8
5
  6
PHANTOM
100
AcDbCircle
 10
396.42298
 20
225.9843259999999
 30
0.0
 40
25.0
100
AcDbArc
 50
195.720595
 51
224.2794049999997
  0
ARC
  5
E83A
330
E6EB
100
AcDbEntity
  8
5
  6
PHANTOM
100
AcDbCircle
 10
379.956274
 20
209.926692
 30
0.0
 40
2.0
100
AcDbArc
 50
224.2794049999997
 51
296.258952
  0
LINE
  5
E83B
330
E6EB
100
AcDbEntity
  8
1
  6
Continuous
100
AcDbLine
 10
324.5150779999999
 20
254.4843259999999
 30
0.0
 11
322.9150779999998
 21
254.4843259999999
 31
0.0
  0
ARC
  5
E83C
330
E6EB
100
AcDbEntity
  8
1
  6
Continuous
100
AcDbCircle
 10
346.4496419999999
 20
260.020826
 30
0.0
 40
2.045087
100
AcDbArc
 50
145.613799
 51
205.613799
  0
LINE
  5
E83D
330
E6EB
100
AcDbEntity
  8
1
  6
Continuous
100
AcDbLine
 10
344.761935
 20
261.174826
 30
0.0
 11
347.547175
 21
261.174826
 31
0.0
  0
LINE
  5
E83E
330
E6EB
100
AcDbEntity
  8
1
  6
Continuous
100
AcDbLine
 10
344.761935
 20
258.8658259999998
 30
0.0
 11
347.547175
 21
258.8658259999998
 31
0.0
  0
LINE
  5
E83F
330
E6EB
100
AcDbEntity
  8
1
  6
Continuous
100
AcDbLine
 10
344.4045549999998
 20
259.484826
 30
0.0
 11
344.761935
 21
258.8658259999998
 31
0.0
  0
LINE
  5
E840
330
E6EB
100
AcDbEntity
  8
1
  6
Continuous
100
AcDbLine
 10
347.9045549999999
 20
259.484826
 30
0.0
 11
347.547175
 21
258.8658259999998
 31
0.0
  0
ARC
  5
E841
330
E6EB
100
AcDbEntity
  8
1
  6
Continuous
100
AcDbCircle
 10
345.8594689999998
 20
260.020826
 30
0.0
 40
2.045087
100
AcDbArc
 50
334.3862009999999
 51
34.386201
  0
LINE
  5
E842
330
E6EB
100
AcDbEntity
  8
1
  6
Continuous
100
AcDbLine
 10
344.4045549999998
 20
263.4843259999997
 30
0.0
 11
343.104555
 21
262.1843259999999
 31
0.0
  0
LINE
  5
E843
330
E6EB
100
AcDbEntity
  8
1
  6
Continuous
100
AcDbLine
 10
344.4045549999998
 20
258.8843259999998
 30
0.0
 11
343.104555
 21
258.8843259999998
 31
0.0
  0
LINE
  5
E844
330
E6EB
100
AcDbEntity
  8
1
  6
Continuous
100
AcDbLine
 10
343.104555
 20
255.4843259999999
 30
0.0
 11
341.9045549999997
 21
255.4843259999999
 31
0.0
  0
LINE
  5
E845
330
E6EB
100
AcDbEntity
  8
4
  6
CENTER
100
AcDbLine
 10
350.9045549999997
 20
263.4843259999997
 30
0.0
 11
338.9045549999999
 21
263.4843259999997
 31
0.0
  0
ARC
  5
E846
330
E6EB
100
AcDbEntity
  8
1
  6
Continuous
100
AcDbCircle
 10
270.6536709999999
 20
275.4843259999999
 30
0.0
 40
0.75
100
AcDbArc
 50
0.0
 51
180.0
  0
LINE
  5
E847
330
E6EB
100
AcDbEntity
  8
1
  6
Continuous
100
AcDbLine
 10
275.5639259999999
 20
280.8048339999999
 30
0.0
 11
274.2434169999999
 21
280.8048339999999
 31
0.0
  0
ARC
  5
E848
330
E6EB
100
AcDbEntity
  8
1
  6
Continuous
100
AcDbCircle
 10
265.9218839999999
 20
276.4747069999998
 30
0.0
 40
10.98178699999998
100
AcDbArc
 50
336.777628
 51
13.24044699999999
  0
ARC
  5
E849
330
E6EB
100
AcDbEntity
  8
1
  6
Continuous
100
AcDbCircle
 10
283.885458
 20
276.4747069999998
 30
0.0
 40
10.98178699999998
100
AcDbArc
 50
166.7595689999999
 51
203.222372
  0
LINE
  5
E84A
330
E6EB
100
AcDbEntity
  8
1
  6
Continuous
100
AcDbLine
 10
278.4036709999999
 20
271.6819069999999
 30
0.0
 11
276.9036709999999
 21
271.6819069999999
 31
0.0
  0
LINE
  5
E84B
330
E6EB
100
AcDbEntity
  8
1
  6
Continuous
100
AcDbLine
 10
276.0139429999999
 20
272.1445799999999
 30
0.0
 11
273.793399
 21
272.1445799999999
 31
0.0
  0
LINE
  5
E84C
330
E6EB
100
AcDbEntity
  8
1
  6
Continuous
100
AcDbLine
 10
278.4036709999999
 20
269.2140529999999
 30
0.0
 11
276.9036709999999
 21
269.2140529999999
 31
0.0
  0
LINE
  5
E84D
330
E6EB
100
AcDbEntity
  8
1
  6
Continuous
100
AcDbLine
 10
278.4036709999999
 20
277.4843259999999
 30
0.0
 11
276.9036709999999
 21
277.4843259999999
 31
0.0
  0
LINE
  5
E84E
330
E6EB
100
AcDbEntity
  8
1
  6
Continuous
100
AcDbLine
 10
276.9036709999999
 20
277.4843259999999
 30
0.0
 11
278.4036709999999
 21
277.4843259999999
 31
0.0
  0
LINE
  5
E84F
330
E6EB
100
AcDbEntity
  8
1
  6
Continuous
100
AcDbLine
 10
271.4036709999999
 20
277.4843259999999
 30
0.0
 11
272.9036709999999
 21
277.4843259999999
 31
0.0
  0
LINE
  5
E850
330
E6EB
100
AcDbEntity
  8
1
  6
Continuous
100
AcDbLine
 10
275.5639259999999
 20
280.8048339999999
 30
0.0
 11
276.9036719999999
 21
278.4843259999997
 31
0.0
  0
LINE
  5
E851
330
E6EB
100
AcDbEntity
  8
1
  6
Continuous
100
AcDbLine
 10
274.2434169999999
 20
280.8048339999999
 30
0.0
 11
272.9036709999999
 21
278.4843259999997
 31
0.0
  0
LINE
  5
E852
330
E6EB
100
AcDbEntity
  8
1
  6
Continuous
100
AcDbLine
 10
319.076481
 20
272.4843259999999
 30
0.0
 11
315.876481
 21
272.4843259999999
 31
0.0
  0
LINE
  5
E853
330
E6EB
100
AcDbEntity
  8
1
  6
Continuous
100
AcDbLine
 10
324.5150779999999
 20
272.4843259999999
 30
0.0
 11
322.9150779999998
 21
272.4843259999999
 31
0.0
  0
LINE
  5
E854
330
E6EB
100
AcDbEntity
  8
1
  6
Continuous
100
AcDbLine
 10
344.4045549999998
 20
267.484826
 30
0.0
 11
344.761935
 21
268.1038259999999
 31
0.0
  0
ARC
  5
E855
330
E6EB
100
AcDbEntity
  8
1
  6
Continuous
100
AcDbCircle
 10
346.4496419999999
 20
266.948826
 30
0.0
 40
2.045087
100
AcDbArc
 50
154.3862009999998
 51
214.3862009999998
  0
LINE
  5
E856
330
E6EB
100
AcDbEntity
  8
1
  6
Continuous
100
AcDbLine
 10
344.761935
 20
268.1038259999999
 30
0.0
 11
347.547175
 21
268.1038259999999
 31
0.0
  0
LINE
  5
E857
330
E6EB
100
AcDbEntity
  8
1
  6
Continuous
100
AcDbLine
 10
344.761935
 20
265.7938259999998
 30
0.0
 11
347.547175
 21
265.7938259999998
 31
0.0
  0
LINE
  5
E858
330
E6EB
100
AcDbEntity
  8
1
  6
Continuous
100
AcDbLine
 10
347.9045549999999
 20
267.484826
 30
0.0
 11
347.547175
 21
268.1038259999999
 31
0.0
  0
ARC
  5
E859
330
E6EB
100
AcDbEntity
  8
1
  6
Continuous
100
AcDbCircle
 10
345.8594689999998
 20
266.948826
 30
0.0
 40
2.045087
100
AcDbArc
 50
325.6137989999999
 51
25.61379899999999
  0
LINE
  5
E85A
330
E6EB
100
AcDbEntity
  8
1
  6
Continuous
100
AcDbLine
 10
344.4045549999998
 20
268.0843259999999
 30
0.0
 11
343.104555
 21
268.0843259999999
 31
0.0
  0
LINE
  5
E85B
330
E6EB
100
AcDbEntity
  8
1
  6
Continuous
100
AcDbLine
 10
343.104555
 20
271.4843259999997
 30
0.0
 11
341.9045549999997
 21
271.4843259999997
 31
0.0
  0
LINE
  5
E85C
330
E6EB
100
AcDbEntity
  8
1
  6
Continuous
100
AcDbLine
 10
462.3708399999999
 20
263.4843259999997
 30
0.0
 11
462.5854809999998
 21
264.074047
 31
0.0
  0
LINE
  5
E85D
330
E6EB
100
AcDbEntity
  8
1
  6
Continuous
100
AcDbLine
 10
460.3789299999998
 20
263.4843259999997
 30
0.0
 11
460.1642889999998
 21
264.074047
 31
0.0
  0
LINE
  5
E85E
330
E6EB
100
AcDbEntity
  8
1
  6
Continuous
100
AcDbLine
 10
457.3748849999998
 20
261.1743259999999
 30
0.0
 11
457.3748849999998
 21
265.7933259999999
 31
0.0
  0
LINE
  5
E85F
330
E6EB
100
AcDbEntity
  8
1
  6
Continuous
100
AcDbLine
 10
465.3748849999998
 20
261.1743259999999
 30
0.0
 11
465.3748849999998
 21
265.7933259999999
 31
0.0
  0
CIRCLE
  5
E860
330
E6EB
100
AcDbEntity
  8
1
  6
Continuous
100
AcDbCircle
 10
461.3748849999998
 20
263.4843259999997
 30
0.0
 40
4.0
  0
CIRCLE
  5
E861
330
E6EB
100
AcDbEntity
  8
1
  6
Continuous
100
AcDbCircle
 10
461.3748849999998
 20
263.4843259999997
 30
0.0
 40
3.1
  0
CIRCLE
  5
E862
330
E6EB
100
AcDbEntity
  8
1
  6
Continuous
100
AcDbCircle
 10
461.3748849999998
 20
263.4843259999997
 30
0.0
 40
15.0
  0
CIRCLE
  5
E863
330
E6EB
100
AcDbEntity
  8
1
  6
Continuous
100
AcDbCircle
 10
461.3748849999998
 20
263.4843259999997
 30
0.0
 40
9.0
  0
CIRCLE
  5
E864
330
E6EB
100
AcDbEntity
  8
1
  6
Continuous
100
AcDbCircle
 10
461.3748849999998
 20
263.4843259999997
 30
0.0
 40
8.0
  0
ARC
  5
E865
330
E6EB
100
AcDbEntity
  8
1
  6
Continuous
100
AcDbCircle
 10
461.3748849999998
 20
263.4843259999997
 30
0.0
 40
13.0
100
AcDbArc
 50
168.9125109999999
 51
191.087489
  0
ARC
  5
E866
330
E6EB
100
AcDbEntity
  8
1
  6
Continuous
100
AcDbCircle
 10
461.3748849999998
 20
263.4843259999997
 30
0.0
 40
11.3
100
AcDbArc
 50
167.218188
 51
192.7818119999997
  0
LINE
  5
E867
330
E6EB
100
AcDbEntity
  8
1
  6
Continuous
100
AcDbLine
 10
446.3748849999998
 20
254.824072
 30
0.0
 11
446.3748849999998
 21
272.1445799999999
 31
0.0
  0
ARC
  5
E868
330
E6EB
100
AcDbEntity
  8
1
  6
Continuous
100
AcDbCircle
 10
461.3748849999998
 20
263.4843259999997
 30
0.0
 40
14.0
100
AcDbArc
 50
155.841252
 51
204.158748
  0
ARC
  5
E869
330
E6EB
100
AcDbEntity
  8
1
  6
Continuous
100
AcDbCircle
 10
461.3748849999998
 20
263.4843259999997
 30
0.0
 40
13.0
100
AcDbArc
 50
342.079787
 51
17.920213
  0
ARC
  5
E86A
330
E6EB
100
AcDbEntity
  8
1
  6
Continuous
100
AcDbCircle
 10
461.3748849999998
 20
263.4843259999997
 30
0.0
 40
11.3
100
AcDbArc
 50
339.2689149999998
 51
20.731085
  0
LINE
  5
E86B
330
E6EB
100
AcDbEntity
  8
1
  6
Continuous
100
AcDbLine
 10
476.3748849999998
 20
254.824072
 30
0.0
 11
476.3748849999998
 21
272.1445799999999
 31
0.0
  0
ARC
  5
E86C
330
E6EB
100
AcDbEntity
  8
1
  6
Continuous
100
AcDbCircle
 10
461.3748849999998
 20
263.4843259999997
 30
0.0
 40
14.0
100
AcDbArc
 50
335.8412519999999
 51
24.158748
  0
ARC
  5
E86D
330
E6EB
100
AcDbEntity
  8
1
  6
Continuous
100
AcDbCircle
 10
461.3748849999998
 20
263.4843259999997
 30
0.0
 40
11.0
100
AcDbArc
 50
297.5801989999999
 51
62.419801
  0
ARC
  5
E86E
330
E6EB
100
AcDbEntity
  8
2
  6
Continuous
100
AcDbCircle
 10
461.3748849999998
 20
263.4843259999997
 30
0.0
 40
10.18799999999999
100
AcDbArc
 50
286.8615909999999
 51
73.13840899999998
  0
ARC
  5
E86F
330
E6EB
100
AcDbEntity
  8
1
  6
Continuous
100
AcDbCircle
 10
461.3748849999998
 20
263.4843259999997
 30
0.0
 40
11.0
100
AcDbArc
 50
117.5801989999998
 51
242.419801
  0
ARC
  5
E870
330
E6EB
100
AcDbEntity
  8
2
  6
Continuous
100
AcDbCircle
 10
461.3748849999998
 20
263.4843259999997
 30
0.0
 40
10.18799999999999
100
AcDbArc
 50
106.8615909999999
 51
253.1384089999999
  0
CIRCLE
  5
E871
330
E6EB
100
AcDbEntity
  8
1
  6
Continuous
100
AcDbCircle
 10
461.3748849999998
 20
263.4843259999997
 30
0.0
 40
24.0
  0
LINE
  5
E872
330
E6EB
100
AcDbEntity
  8
4
  6
CENTER
100
AcDbLine
 10
490.3748849999998
 20
263.4843259999997
 30
0.0
 11
432.3748849999998
 21
263.4843259999997
 31
0.0
  0
LINE
  5
E873
330
E6EB
100
AcDbEntity
  8
1
  6
Continuous
100
AcDbLine
 10
446.3748849999998
 20
254.824072
 30
0.0
 11
461.3748849999998
 21
246.163818
 31
0.0
  0
LINE
  5
E874
330
E6EB
100
AcDbEntity
  8
1
  6
Continuous
100
AcDbLine
 10
460.707579
 20
219.2991109999999
 30
0.0
 11
458.7110889999998
 21
220.074411
 31
0.0
  0
ARC
  5
E875
330
E6EB
100
AcDbEntity
  8
1
  6
Continuous
100
AcDbCircle
 10
462.978699
 20
219.1985609999999
 30
0.0
 40
1.067529999999997
100
AcDbArc
 50
48.932
 51
131.0679999999997
  0
ARC
  5
E876
330
E6EB
100
AcDbEntity
  8
1
  6
Continuous
100
AcDbCircle
 10
462.7804389999998
 20
219.4261109999999
 30
0.0
 40
0.76574
100
AcDbArc
 50
131.0679999999997
 51
199.193
  0
ARC
  5
E877
330
E6EB
100
AcDbEntity
  8
1
  6
Continuous
100
AcDbCircle
 10
463.176959
 20
219.4261109999999
 30
0.0
 40
0.76574
100
AcDbArc
 50
340.8072
 51
48.932
  0
LINE
  5
E878
330
E6EB
100
AcDbEntity
  8
1
  6
Continuous
100
AcDbLine
 10
451.7957319999998
 20
233.5979989999999
 30
0.0
 11
455.2307589999998
 21
181.063849
 31
0.0
  0
LINE
  5
E879
330
E6EB
100
AcDbEntity
  8
1
  6
Continuous
100
AcDbLine
 10
470.9540379999999
 20
233.5979989999999
 30
0.0
 11
467.5190109999999
 21
181.063849
 31
0.0
  0
LINE
  5
E87A
330
E6EB
100
AcDbEntity
  8
1
  6
Continuous
100
AcDbLine
 10
457.725432
 20
178.726967
 30
0.0
 11
465.024338
 21
178.726967
 31
0.0
  0
LINE
  5
E87B
330
E6EB
100
AcDbEntity
  8
1
  6
Continuous
100
AcDbLine
 10
454.4840129999998
 20
192.484326
 30
0.0
 11
468.2657559999998
 21
192.484326
 31
0.0
  0
ARC
  5
E87C
330
E6EB
100
AcDbEntity
  8
1
  6
Continuous
100
AcDbCircle
 10
457.725432
 20
181.226967
 30
0.0
 40
2.5
100
AcDbArc
 50
183.741048
 51
270.0
  0
ARC
  5
E87D
330
E6EB
100
AcDbEntity
  8
1
  6
Continuous
100
AcDbCircle
 10
465.024338
 20
181.226967
 30
0.0
 40
2.5
100
AcDbArc
 50
270.0
 51
356.258952
  0
LINE
  5
E87E
330
E6EB
100
AcDbEntity
  8
1
  6
Continuous
100
AcDbLine
 10
463.949179
 20
209.8231109999999
 30
0.0
 11
461.9020589999998
 21
209.065811
 31
0.0
  0
LINE
  5
E87F
330
E6EB
100
AcDbEntity
  8
1
  6
Continuous
100
AcDbLine
 10
463.996304
 20
218.0078109999997
 30
0.0
 11
461.894864
 21
218.0078109999997
 31
0.0
  0
LINE
  5
E880
330
E6EB
100
AcDbEntity
  8
1
  6
Continuous
100
AcDbLine
 10
463.996304
 20
216.710811
 30
0.0
 11
461.894864
 21
216.710811
 31
0.0
  0
LINE
  5
E881
330
E6EB
100
AcDbEntity
  8
1
  6
Continuous
100
AcDbLine
 10
463.996304
 20
216.0078109999997
 30
0.0
 11
461.894864
 21
216.0078109999997
 31
0.0
  0
LINE
  5
E882
330
E6EB
100
AcDbEntity
  8
1
  6
Continuous
100
AcDbLine
 10
463.945584
 20
209.8231109999999
 30
0.0
 11
461.9020639999998
 21
210.616561
 31
0.0
  0
LINE
  5
E883
330
E6EB
100
AcDbEntity
  8
1
  6
Continuous
100
AcDbLine
 10
462.836854
 20
211.6890109999999
 30
0.0
 11
461.894864
 21
211.6890109999999
 31
0.0
  0
LINE
  5
E884
330
E6EB
100
AcDbEntity
  8
1
  6
Continuous
100
AcDbLine
 10
463.996304
 20
213.0875609999999
 30
0.0
 11
461.894864
 21
213.0875609999999
 31
0.0
  0
ARC
  5
E885
330
E6EB
100
AcDbEntity
  8
1
  6
Continuous
100
AcDbCircle
 10
462.942399
 20
214.150161
 30
0.0
 40
1.067529999999997
100
AcDbArc
 50
48.932
 51
131.0679999999997
  0
ARC
  5
E886
330
E6EB
100
AcDbEntity
  8
1
  6
Continuous
100
AcDbCircle
 10
462.6986989999998
 20
214.3724109999999
 30
0.0
 40
0.72
100
AcDbArc
 50
179.5819999999999
 51
281.6541
  0
LINE
  5
E887
330
E6EB
100
AcDbEntity
  8
1
  6
Continuous
100
AcDbLine
 10
454.091694
 20
198.484326
 30
0.0
 11
468.658076
 21
198.484326
 31
0.0
  0
LINE
  5
E888
330
E6EB
100
AcDbEntity
  8
1
  6
Continuous
100
AcDbLine
 10
457.941091
 20
202.4843259999999
 30
0.0
 11
458.410892
 21
202.4843259999999
 31
0.0
  0
ARC
  5
E889
330
E6EB
100
AcDbEntity
  8
1
  6
Continuous
100
AcDbCircle
 10
458.410892
 20
201.844326
 30
0.0
 40
0.6400000000000004
100
AcDbArc
 50
222.7718659999999
 51
90.0
  0
LINE
  5
E88A
330
E6EB
100
AcDbEntity
  8
1
  6
Continuous
100
AcDbLine
 10
457.941091
 20
202.4843259999999
 30
0.0
 11
457.941091
 21
200.484326
 31
0.0
  0
LINE
  5
E88B
330
E6EB
100
AcDbEntity
  8
1
  6
Continuous
100
AcDbLine
 10
459.365806
 20
201.089526
 30
0.0
 11
460.4193059999998
 21
201.089526
 31
0.0
  0
LINE
  5
E88C
330
E6EB
100
AcDbEntity
  8
1
  6
Continuous
100
AcDbLine
 10
459.9013059999998
 20
202.486081
 30
0.0
 11
460.6411559999998
 21
200.486076
 31
0.0
  0
LINE
  5
E88D
330
E6EB
100
AcDbEntity
  8
1
  6
Continuous
100
AcDbLine
 10
459.9013059999998
 20
202.4825659999999
 30
0.0
 11
459.1260059999997
 21
200.486076
 31
0.0
  0
LINE
  5
E88E
330
E6EB
100
AcDbEntity
  8
1
  6
Continuous
100
AcDbLine
 10
461.508143
 20
202.4843259999999
 30
0.0
 11
461.508143
 21
200.484326
 31
0.0
  0
LINE
  5
E88F
330
E6EB
100
AcDbEntity
  8
1
  6
Continuous
100
AcDbLine
 10
460.7241379999998
 20
202.4843259999999
 30
0.0
 11
462.2991129999999
 21
202.4843259999999
 31
0.0
  0
LINE
  5
E890
330
E6EB
100
AcDbEntity
  8
1
  6
Continuous
100
AcDbLine
 10
459.7093389999998
 20
217.6123609999999
 30
0.0
 11
459.7093389999998
 21
216.9858109999999
 31
0.0
  0
LINE
  5
E891
330
E6EB
100
AcDbEntity
  8
1
  6
Continuous
100
AcDbLine
 10
459.314539
 20
219.834611
 30
0.0
 11
459.314539
 21
218.7811109999999
 31
0.0
  0
LINE
  5
E892
330
E6EB
100
AcDbEntity
  8
1
  6
Continuous
100
AcDbLine
 10
460.711094
 20
219.2991109999999
 30
0.0
 11
458.7110889999998
 21
218.559261
 31
0.0
  0
LINE
  5
E893
330
E6EB
100
AcDbEntity
  8
1
  6
Continuous
100
AcDbLine
 10
462.5034939999999
 20
210.3774109999998
 30
0.0
 11
462.5034939999999
 21
209.286861
 31
0.0
  0
LINE
  5
E894
330
E6EB
100
AcDbEntity
  8
1
  6
Continuous
100
AcDbLine
 10
462.5460689999998
 20
213.667261
 30
0.0
 11
461.9093389999998
 21
213.667261
 31
0.0
  0
ARC
  5
E895
330
E6EB
100
AcDbEntity
  8
1
  6
Continuous
100
AcDbCircle
 10
462.541884
 20
219.3430609999999
 30
0.0
 40
0.513145
100
AcDbArc
 50
199.193
 51
264.341
  0
ARC
  5
E896
330
E6EB
100
AcDbEntity
  8
1
  6
Continuous
100
AcDbCircle
 10
462.7441339999998
 20
214.3776609999999
 30
0.0
 40
0.76574
100
AcDbArc
 50
131.0679999999997
 51
186.5909999999999
  0
ARC
  5
E897
330
E6EB
100
AcDbEntity
  8
1
  6
Continuous
100
AcDbCircle
 10
459.2593389999996
 20
215.369081
 30
0.0
 40
0.5225300000000001
100
AcDbArc
 50
103.0139999999999
 51
137.1299999999999
  0
ARC
  5
E898
330
E6EB
100
AcDbEntity
  8
1
  6
Continuous
100
AcDbCircle
 10
459.2593389999996
 20
215.229141
 30
0.0
 40
0.5225300000000001
100
AcDbArc
 50
222.8699999999999
 51
317.1304
  0
ARC
  5
E899
330
E6EB
100
AcDbEntity
  8
1
  6
Continuous
100
AcDbCircle
 10
459.183962
 20
215.2991109999999
 30
0.0
 40
0.6253750000000001
100
AcDbArc
 50
317.1304
 51
327.1503
  0
ARC
  5
E89A
330
E6EB
100
AcDbEntity
  8
1
  6
Continuous
100
AcDbCircle
 10
459.3347139999996
 20
215.2991109999999
 30
0.0
 40
0.6253750000000001
100
AcDbArc
 50
137.1299999999999
 51
222.8699999999999
  0
ARC
  5
E89B
330
E6EB
100
AcDbEntity
  8
1
  6
Continuous
100
AcDbCircle
 10
460.1593389999998
 20
215.369081
 30
0.0
 40
0.5225300000000001
100
AcDbArc
 50
42.86999999999999
 51
108.2079999999999
  0
ARC
  5
E89C
330
E6EB
100
AcDbEntity
  8
1
  6
Continuous
100
AcDbCircle
 10
460.1593389999998
 20
215.229141
 30
0.0
 40
0.5225300000000001
100
AcDbArc
 50
222.8699999999999
 51
317.1304
  0
ARC
  5
E89D
330
E6EB
100
AcDbEntity
  8
1
  6
Continuous
100
AcDbCircle
 10
460.083964
 20
215.2991109999999
 30
0.0
 40
0.6253750000000001
100
AcDbArc
 50
317.1304
 51
42.86999999999999
  0
ARC
  5
E89E
330
E6EB
100
AcDbEntity
  8
1
  6
Continuous
100
AcDbCircle
 10
460.2347139999998
 20
215.2991109999999
 30
0.0
 40
0.6253750000000001
100
AcDbArc
 50
212.8499999999999
 51
222.8699999999999
  0
LINE
  5
E89F
330
E6EB
100
AcDbEntity
  8
1
  6
Continuous
100
AcDbLine
 10
459.7093389999998
 20
215.252591
 30
0.0
 11
459.7093389999998
 21
214.959881
 31
0.0
  0
LINE
  5
E8A0
330
E6EB
100
AcDbEntity
  8
1
  6
Continuous
100
AcDbLine
 10
459.7093389999998
 20
213.4036189999999
 30
0.0
 11
459.7093389999998
 21
213.1109089999999
 31
0.0
  0
ARC
  5
E8A1
330
E6EB
100
AcDbEntity
  8
1
  6
Continuous
100
AcDbCircle
 10
460.2347139999998
 20
213.450139
 30
0.0
 40
0.6253750000000001
100
AcDbArc
 50
212.8499999999999
 51
222.8699999999999
  0
ARC
  5
E8A2
330
E6EB
100
AcDbEntity
  8
1
  6
Continuous
100
AcDbCircle
 10
460.083964
 20
213.450139
 30
0.0
 40
0.6253750000000001
100
AcDbArc
 50
317.1304
 51
42.86999999999999
  0
ARC
  5
E8A3
330
E6EB
100
AcDbEntity
  8
1
  6
Continuous
100
AcDbCircle
 10
460.1593389999998
 20
213.3801689999998
 30
0.0
 40
0.5225300000000001
100
AcDbArc
 50
222.8699999999999
 51
317.1304
  0
ARC
  5
E8A4
330
E6EB
100
AcDbEntity
  8
1
  6
Continuous
100
AcDbCircle
 10
460.1593389999998
 20
213.5201089999999
 30
0.0
 40
0.5225300000000001
100
AcDbArc
 50
42.86999999999999
 51
108.2079999999999
  0
ARC
  5
E8A5
330
E6EB
100
AcDbEntity
  8
1
  6
Continuous
100
AcDbCircle
 10
459.3347139999996
 20
213.450139
 30
0.0
 40
0.6253750000000001
100
AcDbArc
 50
137.1299999999999
 51
222.8699999999999
  0
ARC
  5
E8A6
330
E6EB
100
AcDbEntity
  8
1
  6
Continuous
100
AcDbCircle
 10
459.183962
 20
213.450139
 30
0.0
 40
0.6253750000000001
100
AcDbArc
 50
317.1304
 51
327.1503
  0
ARC
  5
E8A7
330
E6EB
100
AcDbEntity
  8
1
  6
Continuous
100
AcDbCircle
 10
459.2593389999996
 20
213.3801689999998
 30
0.0
 40
0.5225300000000001
100
AcDbArc
 50
222.8699999999999
 51
317.1304
  0
ARC
  5
E8A8
330
E6EB
100
AcDbEntity
  8
1
  6
Continuous
100
AcDbCircle
 10
459.2593389999996
 20
213.5201089999999
 30
0.0
 40
0.5225300000000001
100
AcDbArc
 50
103.0139999999999
 51
137.1299999999999
  0
ARC
  5
E8A9
330
E6EB
100
AcDbEntity
  8
1
  6
Continuous
100
AcDbCircle
 10
459.3214389999998
 20
211.584114
 30
0.0
 40
0.62634
100
AcDbArc
 50
225.9269999999999
 51
270.0
  0
ARC
  5
E8AA
330
E6EB
100
AcDbEntity
  8
1
  6
Continuous
100
AcDbCircle
 10
460.0972389999998
 20
211.584114
 30
0.0
 40
0.62634
100
AcDbArc
 50
270.0
 51
314.0724999999998
  0
LINE
  5
E8AB
330
E6EB
100
AcDbEntity
  8
1
  6
Continuous
100
AcDbLine
 10
460.0972389999998
 20
210.957764
 30
0.0
 11
459.3214389999998
 21
210.957764
 31
0.0
  0
ARC
  5
E8AC
330
E6EB
100
AcDbEntity
  8
1
  6
Continuous
100
AcDbCircle
 10
459.288679
 20
211.550264
 30
0.0
 40
0.57924
100
AcDbArc
 50
134.072
 51
225.9269999999999
  0
ARC
  5
E8AD
330
E6EB
100
AcDbEntity
  8
1
  6
Continuous
100
AcDbCircle
 10
459.3214389999998
 20
211.516414
 30
0.0
 40
0.62634
100
AcDbArc
 50
90.0
 51
134.072
  0
ARC
  5
E8AE
330
E6EB
100
AcDbEntity
  8
1
  6
Continuous
100
AcDbCircle
 10
460.129999
 20
211.550264
 30
0.0
 40
0.57924
100
AcDbArc
 50
314.0724999999998
 51
45.92799999999999
  0
ARC
  5
E8AF
330
E6EB
100
AcDbEntity
  8
1
  6
Continuous
100
AcDbCircle
 10
460.0972389999998
 20
211.516414
 30
0.0
 40
0.62634
100
AcDbArc
 50
45.92799999999999
 51
90.0
  0
LINE
  5
E8B0
330
E6EB
100
AcDbEntity
  8
1
  6
Continuous
100
AcDbLine
 10
460.0972389999998
 20
212.1427639999998
 30
0.0
 11
459.3214389999998
 21
212.1427639999998
 31
0.0
  0
LINE
  5
E8B1
330
E6EB
100
AcDbEntity
  8
1
  6
Continuous
100
AcDbLine
 10
459.7093389999998
 20
208.1501321370355
 30
0.0
 11
459.7093389999998
 21
207.5235821370355
 31
0.0
  0
ARC
  5
E8B2
330
E6EB
100
AcDbEntity
  8
1
  6
Continuous
100
AcDbCircle
 10
460.1596429999998
 20
205.9361581370355
 30
0.0
 40
0.5225300000000001
100
AcDbArc
 50
42.86999999999999
 51
114.2769999999999
  0
ARC
  5
E8B3
330
E6EB
100
AcDbEntity
  8
1
  6
Continuous
100
AcDbCircle
 10
460.1596429999998
 20
205.7962181370355
 30
0.0
 40
0.5225300000000001
100
AcDbArc
 50
222.8699999999999
 51
317.1304
  0
ARC
  5
E8B4
330
E6EB
100
AcDbEntity
  8
1
  6
Continuous
100
AcDbCircle
 10
460.0842679999998
 20
205.8661881370356
 30
0.0
 40
0.6253750000000001
100
AcDbArc
 50
317.1304
 51
42.86999999999999
  0
LINE
  5
E8B5
330
E6EB
100
AcDbEntity
  8
1
  6
Continuous
100
AcDbLine
 10
458.7096429999999
 20
206.4597631370356
 30
0.0
 11
458.7096429999999
 21
205.2726131370355
 31
0.0
  0
LINE
  5
E8B6
330
E6EB
100
AcDbEntity
  8
1
  6
Continuous
100
AcDbLine
 10
458.7096429999999
 20
206.4597631370356
 30
0.0
 11
459.8027629999998
 21
205.4142481370356
 31
0.0
  0
CIRCLE
  5
E8B7
330
E6EB
100
AcDbEntity
  8
1
  6
Continuous
100
AcDbCircle
 10
463.291008
 20
200.5243259999998
 30
0.0
 40
0.04
  0
LINE
  5
E8B8
330
E6EB
100
AcDbEntity
  8
1
  6
Continuous
100
AcDbLine
 10
464.017944
 20
202.4843259999999
 30
0.0
 11
464.017944
 21
200.484326
 31
0.0
  0
LINE
  5
E8B9
330
E6EB
100
AcDbEntity
  8
1
  6
Continuous
100
AcDbLine
 10
464.017944
 20
202.4843259999999
 30
0.0
 11
464.487745
 21
202.4843259999999
 31
0.0
  0
ARC
  5
E8BA
330
E6EB
100
AcDbEntity
  8
1
  6
Continuous
100
AcDbCircle
 10
464.487745
 20
201.844326
 30
0.0
 40
0.6400000000000004
100
AcDbArc
 50
222.7718659999999
 51
90.0
  0
LINE
  5
E8BB
330
E6EB
100
AcDbEntity
  8
1
  6
Continuous
100
AcDbLine
 10
462.945584
 20
218.0078109999997
 30
0.0
 11
462.945584
 21
216.710811
 31
0.0
  0
LINE
  5
E8BC
330
E6EB
100
AcDbEntity
  8
1
  6
Continuous
100
AcDbLine
 10
462.8441439999998
 20
214.3701609999999
 30
0.0
 11
462.8441439999998
 21
213.667261
 31
0.0
  0
LINE
  5
E8BD
330
E6EB
100
AcDbEntity
  8
1
  6
Continuous
100
AcDbLine
 10
462.8368489999998
 20
211.6890109999999
 30
0.0
 11
464.0121989999998
 21
211.0104109999999
 31
0.0
  0
LINE
  5
E8BE
330
E6EB
100
AcDbEntity
  8
1
  6
Continuous
100
AcDbLine
 10
462.840459
 20
211.6890109999999
 30
0.0
 11
464.0109389999998
 21
212.362711
 31
0.0
  0
ARC
  5
E8BF
330
E6EB
100
AcDbEntity
  8
1
  6
Continuous
100
AcDbCircle
 10
463.4155139999998
 20
219.3430609999999
 30
0.0
 40
0.513145
100
AcDbArc
 50
275.65924
 51
340.8072
  0
ARC
  5
E8C0
330
E6EB
100
AcDbEntity
  8
1
  6
Continuous
100
AcDbCircle
 10
463.3792139999997
 20
214.294611
 30
0.0
 40
0.513145
100
AcDbArc
 50
275.65924
 51
340.8072
  0
ARC
  5
E8C1
330
E6EB
100
AcDbEntity
  8
1
  6
Continuous
100
AcDbCircle
 10
463.140659
 20
214.3776609999999
 30
0.0
 40
0.76574
100
AcDbArc
 50
340.8072
 51
48.932
  0
ARC
  5
E8C2
330
E6EB
100
AcDbEntity
  8
1
  6
Continuous
100
AcDbCircle
 10
273.8748849999999
 20
246.4843259999999
 30
0.0
 40
200.0
100
AcDbArc
 50
356.258952
 51
358.9954029999997
  0
ARC
  5
E8C3
330
E6EB
100
AcDbEntity
  8
1
  6
Continuous
100
AcDbCircle
 10
648.8748849999998
 20
246.4843259999999
 30
0.0
 40
200.0
100
AcDbArc
 50
181.0045969999999
 51
183.741048
  0
ARC
  5
E8C4
330
E6EB
100
AcDbEntity
  8
1
  6
Continuous
100
AcDbCircle
 10
462.874147
 20
226.7095509999998
 30
0.0
 40
1.145318999999998
100
AcDbArc
 50
242.2499999999998
 51
324.4619999999998
  0
LINE
  5
E8C5
330
E6EB
100
AcDbEntity
  8
1
  6
Continuous
100
AcDbLine
 10
462.042303
 20
226.7059419999999
 30
0.0
 11
463.915305
 21
226.2034069999999
 31
0.0
  0
LINE
  5
E8C6
330
E6EB
100
AcDbEntity
  8
1
  6
Continuous
100
AcDbLine
 10
463.909339
 20
223.5150959999999
 30
0.0
 11
461.9093389999998
 21
223.5150959999999
 31
0.0
  0
LINE
  5
E8C7
330
E6EB
100
AcDbEntity
  8
1
  6
Continuous
100
AcDbLine
 10
464.334836
 20
227.8210819999999
 30
0.0
 11
461.5523989999998
 21
227.8210819999999
 31
0.0
  0
LINE
  5
E8C8
330
E6EB
100
AcDbEntity
  8
1
  6
Continuous
100
AcDbLine
 10
461.619163
 20
228.264973
 30
0.0
 11
462.874147
 21
228.264973
 31
0.0
  0
LINE
  5
E8C9
330
E6EB
100
AcDbEntity
  8
1
  6
Continuous
100
AcDbLine
 10
462.874147
 20
227.1543439999999
 30
0.0
 11
461.8077259999998
 21
227.1543439999999
 31
0.0
  0
LINE
  5
E8CA
330
E6EB
100
AcDbEntity
  8
1
  6
Continuous
100
AcDbLine
 10
464.3366409999998
 20
228.709766
 30
0.0
 11
461.410751
 21
228.709766
 31
0.0
  0
LINE
  5
E8CB
330
E6EB
100
AcDbEntity
  8
1
  6
Continuous
100
AcDbLine
 10
464.424156
 20
229.153656
 30
0.0
 11
461.323236
 21
229.153656
 31
0.0
  0
LINE
  5
E8CC
330
E6EB
100
AcDbEntity
  8
1
  6
Continuous
100
AcDbLine
 10
464.424156
 20
229.5984489999999
 30
0.0
 11
461.323236
 21
229.5984489999999
 31
0.0
  0
LINE
  5
E8CD
330
E6EB
100
AcDbEntity
  8
1
  6
Continuous
100
AcDbLine
 10
464.387165
 20
230.04234
 30
0.0
 11
461.3602269999996
 21
230.04234
 31
0.0
  0
LINE
  5
E8CE
330
E6EB
100
AcDbEntity
  8
1
  6
Continuous
100
AcDbLine
 10
464.028082
 20
230.9319259999998
 30
0.0
 11
461.7193089999998
 21
230.9319259999998
 31
0.0
  0
ARC
  5
E8CF
330
E6EB
100
AcDbEntity
  8
1
  6
Continuous
100
AcDbCircle
 10
462.874147
 20
232.0425549999999
 30
0.0
 40
1.145318999999998
100
AcDbArc
 50
90.0
 51
144.462
  0
LINE
  5
E8D0
330
E6EB
100
AcDbEntity
  8
1
  6
Continuous
100
AcDbLine
 10
463.97034
 20
231.3758169999999
 30
0.0
 11
461.7779529999999
 21
231.3758169999999
 31
0.0
  0
LINE
  5
E8D1
330
E6EB
100
AcDbEntity
  8
1
  6
Continuous
100
AcDbLine
 10
462.0540319999998
 20
231.8206099999999
 30
0.0
 11
463.6933599999998
 21
231.8206099999999
 31
0.0
  0
LINE
  5
E8D2
330
E6EB
100
AcDbEntity
  8
1
  6
Continuous
100
AcDbLine
 10
464.093042
 20
232.2645009999999
 30
0.0
 11
462.1767329999998
 21
232.2645009999999
 31
0.0
  0
ARC
  5
E8D3
330
E6EB
100
AcDbEntity
  8
1
  6
Continuous
100
AcDbCircle
 10
462.9680989999997
 20
221.7522659999999
 30
0.0
 40
1.067529999999997
100
AcDbArc
 50
228.932
 51
311.0679
  0
ARC
  5
E8D4
330
E6EB
100
AcDbEntity
  8
1
  6
Continuous
100
AcDbCircle
 10
462.9680989999997
 20
221.2972109999999
 30
0.0
 40
1.067529999999997
100
AcDbArc
 50
48.932
 51
131.0679999999997
  0
ARC
  5
E8D5
330
E6EB
100
AcDbEntity
  8
1
  6
Continuous
100
AcDbCircle
 10
466.606619
 20
229.376504
 30
0.0
 40
5.732929999999998
100
AcDbArc
 50
144.462
 51
215.5379999999999
  0
ARC
  5
E8D6
330
E6EB
100
AcDbEntity
  8
1
  6
Continuous
100
AcDbCircle
 10
462.874147
 20
226.7095509999998
 30
0.0
 40
1.145318999999998
100
AcDbArc
 50
215.5379999999999
 51
225.699
  0
LINE
  5
E8D7
330
E6EB
100
AcDbEntity
  8
1
  6
Continuous
100
AcDbLine
 10
460.7093389999998
 20
224.0831109999998
 30
0.0
 11
460.7093389999998
 21
222.5081359999999
 31
0.0
  0
LINE
  5
E8D8
330
E6EB
100
AcDbEntity
  8
1
  6
Continuous
100
AcDbLine
 10
460.7093389999998
 20
223.2991059999999
 30
0.0
 11
458.7093389999998
 21
223.2991059999999
 31
0.0
  0
ARC
  5
E8D9
330
E6EB
100
AcDbEntity
  8
1
  6
Continuous
100
AcDbCircle
 10
466.606619
 20
229.376504
 30
0.0
 40
5.288524999999999
100
AcDbArc
 50
187.793
 51
190.1039999999999
  0
ARC
  5
E8DA
330
E6EB
100
AcDbEntity
  8
1
  6
Continuous
100
AcDbCircle
 10
461.410751
 20
228.6646549999999
 30
0.0
 40
0.044452
100
AcDbArc
 50
90.0
 51
187.793
  0
ARC
  5
E8DB
330
E6EB
100
AcDbEntity
  8
1
  6
Continuous
100
AcDbCircle
 10
461.619163
 20
228.486918
 30
0.0
 40
0.222261
100
AcDbArc
 50
190.1039999999999
 51
270.0
  0
ARC
  5
E8DC
330
E6EB
100
AcDbEntity
  8
1
  6
Continuous
100
AcDbCircle
 10
466.606619
 20
229.376504
 30
0.0
 40
5.288524999999999
100
AcDbArc
 50
153.986
 51
157.056
  0
ARC
  5
E8DD
330
E6EB
100
AcDbEntity
  8
1
  6
Continuous
100
AcDbCircle
 10
461.7779529999999
 20
231.4200259999998
 30
0.0
 40
0.044452
100
AcDbArc
 50
157.056
 51
270.0
  0
LINE
  5
E8DE
330
E6EB
100
AcDbEntity
  8
1
  6
Continuous
100
AcDbLine
 10
461.49195
 20
230.487133
 30
0.0
 11
462.340937
 21
230.487133
 31
0.0
  0
ARC
  5
E8DF
330
E6EB
100
AcDbEntity
  8
1
  6
Continuous
100
AcDbCircle
 10
461.49195
 20
230.531342
 30
0.0
 40
0.044452
100
AcDbArc
 50
167.2709999999999
 51
270.0
  0
ARC
  5
E8E0
330
E6EB
100
AcDbEntity
  8
1
  6
Continuous
100
AcDbCircle
 10
466.606619
 20
229.376504
 30
0.0
 40
5.288524999999999
100
AcDbArc
 50
164.794
 51
167.2709999999999
  0
ARC
  5
E8E1
330
E6EB
100
AcDbEntity
  8
1
  6
Continuous
100
AcDbCircle
 10
466.606619
 20
229.376504
 30
0.0
 40
5.288524999999999
100
AcDbArc
 50
164.7419999999998
 51
164.794
  0
ARC
  5
E8E2
330
E6EB
100
AcDbEntity
  8
1
  6
Continuous
100
AcDbCircle
 10
461.7193089999998
 20
230.709079
 30
0.0
 40
0.222261
100
AcDbArc
 50
90.0
 51
164.7419999999998
  0
ARC
  5
E8E3
330
E6EB
100
AcDbEntity
  8
1
  6
Continuous
100
AcDbCircle
 10
462.0540319999998
 20
231.5977619999999
 30
0.0
 40
0.222261
100
AcDbArc
 50
90.0
 51
153.986
  0
LINE
  5
E8E4
330
E6EB
100
AcDbEntity
  8
1
  6
Continuous
100
AcDbLine
 10
459.7093389999998
 20
221.925591
 30
0.0
 11
459.7093389999998
 21
220.6726109999999
 31
0.0
  0
LINE
  5
E8E5
330
E6EB
100
AcDbEntity
  8
1
  6
Continuous
100
AcDbLine
 10
460.7242939999999
 20
220.6726109999999
 30
0.0
 11
458.7242889999997
 21
220.6726109999999
 31
0.0
  0
LINE
  5
E8E6
330
E6EB
100
AcDbEntity
  8
1
  6
Continuous
100
AcDbLine
 10
460.7242939999999
 20
221.925591
 30
0.0
 11
458.7242889999997
 21
221.925591
 31
0.0
  0
ARC
  5
E8E7
330
E6EB
100
AcDbEntity
  8
1
  6
Continuous
100
AcDbCircle
 10
462.7698389999998
 20
221.5247359999999
 30
0.0
 40
0.76574
100
AcDbArc
 50
131.0679999999997
 51
228.932
  0
ARC
  5
E8E8
330
E6EB
100
AcDbEntity
  8
1
  6
Continuous
100
AcDbCircle
 10
648.8748849999998
 20
246.4843259999999
 30
0.0
 40
197.5
100
AcDbArc
 50
181.405574
 51
183.741048
  0
ARC
  5
E8E9
330
E6EB
100
AcDbEntity
  8
1
  6
Continuous
100
AcDbCircle
 10
459.140773
 20
229.376504
 30
0.0
 40
5.732929999999998
100
AcDbArc
 50
324.4619999999998
 51
35.5377
  0
ARC
  5
E8EA
330
E6EB
100
AcDbEntity
  8
1
  6
Continuous
100
AcDbCircle
 10
463.0960919999998
 20
227.1543439999999
 30
0.0
 40
0.222261
100
AcDbArc
 50
90.0
 51
270.0
  0
LINE
  5
E8EB
330
E6EB
100
AcDbEntity
  8
1
  6
Continuous
100
AcDbLine
 10
462.874147
 20
225.564637
 30
0.0
 11
462.874147
 21
226.4830939999999
 31
0.0
  0
LINE
  5
E8EC
330
E6EB
100
AcDbEntity
  8
1
  6
Continuous
100
AcDbLine
 10
463.0960919999998
 20
226.9314959999999
 30
0.0
 11
464.045224
 21
226.9314959999999
 31
0.0
  0
LINE
  5
E8ED
330
E6EB
100
AcDbEntity
  8
1
  6
Continuous
100
AcDbLine
 10
463.909339
 20
224.326716
 30
0.0
 11
463.909339
 21
222.6962959999999
 31
0.0
  0
LINE
  5
E8EE
330
E6EB
100
AcDbEntity
  8
1
  6
Continuous
100
AcDbLine
 10
464.1255219999998
 20
227.3762889999999
 30
0.0
 11
463.0960919999998
 21
227.3762889999999
 31
0.0
  0
LINE
  5
E8EF
330
E6EB
100
AcDbEntity
  8
1
  6
Continuous
100
AcDbLine
 10
463.4073569999998
 20
228.264973
 30
0.0
 11
464.1282279999998
 21
228.264973
 31
0.0
  0
ARC
  5
E8F0
330
E6EB
100
AcDbEntity
  8
1
  6
Continuous
100
AcDbCircle
 10
464.3366409999998
 20
228.6646549999999
 30
0.0
 40
0.044452
100
AcDbArc
 50
352.2069999999998
 51
90.0
  0
ARC
  5
E8F1
330
E6EB
100
AcDbEntity
  8
1
  6
Continuous
100
AcDbCircle
 10
459.140773
 20
229.376504
 30
0.0
 40
5.288524999999999
100
AcDbArc
 50
349.8959999999998
 51
352.2069999999998
  0
ARC
  5
E8F2
330
E6EB
100
AcDbEntity
  8
1
  6
Continuous
100
AcDbCircle
 10
464.1282279999998
 20
228.486918
 30
0.0
 40
0.222261
100
AcDbArc
 50
270.0
 51
349.8959999999998
  0
LINE
  5
E8F3
330
E6EB
100
AcDbEntity
  8
1
  6
Continuous
100
AcDbLine
 10
462.874147
 20
228.264973
 30
0.0
 11
462.874147
 21
228.486918
 31
0.0
  0
ARC
  5
E8F4
330
E6EB
100
AcDbEntity
  8
1
  6
Continuous
100
AcDbCircle
 10
464.028082
 20
230.709079
 30
0.0
 40
0.222261
100
AcDbArc
 50
15.2575
 51
90.0
  0
ARC
  5
E8F5
330
E6EB
100
AcDbEntity
  8
1
  6
Continuous
100
AcDbCircle
 10
459.140773
 20
229.376504
 30
0.0
 40
5.288524999999999
100
AcDbArc
 50
13.2681
 51
15.2575
  0
ARC
  5
E8F6
330
E6EB
100
AcDbEntity
  8
1
  6
Continuous
100
AcDbCircle
 10
459.140773
 20
229.376504
 30
0.0
 40
5.288524999999999
100
AcDbArc
 50
12.7289
 51
13.2681
  0
ARC
  5
E8F7
330
E6EB
100
AcDbEntity
  8
1
  6
Continuous
100
AcDbCircle
 10
464.255441
 20
230.531342
 30
0.0
 40
0.044452
100
AcDbArc
 50
270.0
 51
12.7289
  0
ARC
  5
E8F8
330
E6EB
100
AcDbEntity
  8
1
  6
Continuous
100
AcDbCircle
 10
463.97034
 20
231.4200259999998
 30
0.0
 40
0.044452
100
AcDbArc
 50
270.0
 51
22.94399999999999
  0
ARC
  5
E8F9
330
E6EB
100
AcDbEntity
  8
1
  6
Continuous
100
AcDbCircle
 10
459.140773
 20
229.376504
 30
0.0
 40
5.288524999999999
100
AcDbArc
 50
22.94399999999999
 51
26.0144
  0
ARC
  5
E8FA
330
E6EB
100
AcDbEntity
  8
1
  6
Continuous
100
AcDbCircle
 10
463.6933599999998
 20
231.5977619999999
 30
0.0
 40
0.222261
100
AcDbArc
 50
26.0144
 51
90.0
  0
ARC
  5
E8FB
330
E6EB
100
AcDbEntity
  8
1
  6
Continuous
100
AcDbCircle
 10
462.874147
 20
232.0425549999999
 30
0.0
 40
1.145318999999998
100
AcDbArc
 50
35.5377
 51
76.5374
  0
LINE
  5
E8FC
330
E6EB
100
AcDbEntity
  8
1
  6
Continuous
100
AcDbLine
 10
462.874147
 20
229.5984489999999
 30
0.0
 11
462.874147
 21
230.04234
 31
0.0
  0
LINE
  5
E8FD
330
E6EB
100
AcDbEntity
  8
1
  6
Continuous
100
AcDbLine
 10
463.4073569999998
 20
230.487133
 30
0.0
 11
464.255441
 21
230.487133
 31
0.0
  0
ARC
  5
E8FE
330
E6EB
100
AcDbEntity
  8
1
  6
Continuous
100
AcDbCircle
 10
463.166359
 20
221.5247359999999
 30
0.0
 40
0.76574
100
AcDbArc
 50
311.0679
 51
48.932
  0
ARC
  5
E8FF
330
E6EB
100
AcDbEntity
  8
1
  6
Continuous
100
AcDbCircle
 10
273.8748849999999
 20
246.4843259999999
 30
0.0
 40
197.5
100
AcDbArc
 50
356.258952
 51
358.594426
  0
LINE
  5
E900
330
E6EB
100
AcDbEntity
  8
1
  6
Continuous
100
AcDbLine
 10
465.3748849999998
 20
261.1753259999999
 30
0.0
 11
461.3748849999998
 21
258.865326
 31
0.0
  0
LINE
  5
E901
330
E6EB
100
AcDbEntity
  8
1
  6
Continuous
100
AcDbLine
 10
463.3427379999998
 20
262.1104429999999
 30
0.0
 11
462.5854809999998
 21
262.8946049999999
 31
0.0
  0
ARC
  5
E902
330
E6EB
100
AcDbEntity
  8
1
  6
Continuous
100
AcDbCircle
 10
461.3748849999998
 20
263.4843259999997
 30
0.0
 40
2.399999999999999
100
AcDbArc
 50
304.921342
 51
325.078658
  0
ARC
  5
E903
330
E6EB
100
AcDbEntity
  8
1
  6
Continuous
100
AcDbCircle
 10
461.3748849999998
 20
263.4843259999997
 30
0.0
 40
11.5
100
AcDbArc
 50
192.555858
 51
339.645594
  0
LINE
  5
E904
330
E6EB
100
AcDbEntity
  8
4
  6
CENTER
100
AcDbLine
 10
466.8709059999998
 20
247.4843259999999
 30
0.0
 11
456.3748849999998
 21
247.4843259999999
 31
0.0
  0
ARC
  5
E905
330
E6EB
100
AcDbEntity
  8
1
  6
Continuous
100
AcDbCircle
 10
461.3748849999998
 20
247.4843259999999
 30
0.0
 40
3.7
100
AcDbArc
 50
180.0
 51
0.0
  0
ARC
  5
E906
330
E6EB
100
AcDbEntity
  8
1
  6
Continuous
100
AcDbCircle
 10
461.3748849999998
 20
263.4843259999997
 30
0.0
 40
10.18799999999999
100
AcDbArc
 50
253.1384089999999
 51
286.8615909999999
  0
ARC
  5
E907
330
E6EB
100
AcDbEntity
  8
2
  6
Continuous
100
AcDbCircle
 10
461.3748849999998
 20
263.4843259999997
 30
0.0
 40
11.0
100
AcDbArc
 50
242.419801
 51
297.5801989999999
  0
LINE
  5
E908
330
E6EB
100
AcDbEntity
  8
1
  6
Continuous
100
AcDbLine
 10
466.4677719999998
 20
253.7343259999999
 30
0.0
 11
456.2819969999998
 21
253.7343259999999
 31
0.0
  0
ARC
  5
E909
330
E6EB
100
AcDbEntity
  8
1
  6
Continuous
100
AcDbCircle
 10
461.3748849999998
 20
247.4843259999999
 30
0.0
 40
3.5
100
AcDbArc
 50
170.4059319999998
 51
9.594068
  0
ARC
  5
E90A
330
E6EB
100
AcDbEntity
  8
1
  6
Continuous
100
AcDbCircle
 10
461.3748849999998
 20
263.4843259999997
 30
0.0
 40
14.0
100
AcDbArc
 50
215.841252
 51
324.158748
  0
LINE
  5
E90B
330
E6EB
100
AcDbEntity
  8
1
  6
Continuous
100
AcDbLine
 10
476.3748849999998
 20
254.824072
 30
0.0
 11
461.3748849999998
 21
246.163818
 31
0.0
  0
LINE
  5
E90C
330
E6EB
100
AcDbEntity
  8
1
  6
Continuous
100
AcDbLine
 10
462.7487679999998
 20
261.516473
 30
0.0
 11
461.9646059999998
 21
262.27373
 31
0.0
  0
LINE
  5
E90D
330
E6EB
100
AcDbEntity
  8
1
  6
Continuous
100
AcDbLine
 10
462.3708399999999
 20
263.4843259999997
 30
0.0
 11
462.5854809999998
 21
262.8946049999999
 31
0.0
  0
LINE
  5
E90E
330
E6EB
100
AcDbEntity
  8
1
  6
Continuous
100
AcDbLine
 10
461.3748849999998
 20
262.4883709999999
 30
0.0
 11
461.9646059999998
 21
262.27373
 31
0.0
  0
LINE
  5
E90F
330
E6EB
100
AcDbEntity
  8
1
  6
Continuous
100
AcDbLine
 10
460.001002
 20
261.516473
 30
0.0
 11
460.7851639999998
 21
262.27373
 31
0.0
  0
LINE
  5
E910
330
E6EB
100
AcDbEntity
  8
1
  6
Continuous
100
AcDbLine
 10
460.3789299999998
 20
263.4843259999997
 30
0.0
 11
460.1642889999998
 21
262.8946049999999
 31
0.0
  0
LINE
  5
E911
330
E6EB
100
AcDbEntity
  8
1
  6
Continuous
100
AcDbLine
 10
459.407032
 20
262.1104429999999
 30
0.0
 11
460.1642889999998
 21
262.8946049999999
 31
0.0
  0
ARC
  5
E912
330
E6EB
100
AcDbEntity
  8
1
  6
Continuous
100
AcDbCircle
 10
461.3748849999998
 20
263.4843259999997
 30
0.0
 40
2.399999999999999
100
AcDbArc
 50
214.921342
 51
235.0786579999998
  0
LINE
  5
E913
330
E6EB
100
AcDbEntity
  8
1
  6
Continuous
100
AcDbLine
 10
461.3748849999998
 20
262.4883709999999
 30
0.0
 11
460.7851639999998
 21
262.27373
 31
0.0
  0
LINE
  5
E914
330
E6EB
100
AcDbEntity
  8
1
  6
Continuous
100
AcDbLine
 10
457.3748849999998
 20
261.1743259999999
 30
0.0
 11
461.3748849999998
 21
258.865326
 31
0.0
  0
LINE
  5
E915
330
E6EB
100
AcDbEntity
  8
1
  6
Continuous
100
AcDbLine
 10
448.6175339999999
 20
260.9843259999997
 30
0.0
 11
450.354903
 21
260.9843259999997
 31
0.0
  0
ARC
  5
E916
330
E6EB
100
AcDbEntity
  8
1
  6
Continuous
100
AcDbCircle
 10
450.116555
 20
256.9843259999997
 30
0.0
 40
1.7
100
AcDbArc
 50
153.057137
 51
266.942863
  0
LINE
  5
E917
330
E6EB
100
AcDbEntity
  8
1
  6
Continuous
100
AcDbLine
 10
457.6748849999996
 20
247.4843259999999
 30
0.0
 11
457.6748849999996
 21
248.300014
 31
0.0
  0
ARC
  5
E918
330
E6EB
100
AcDbEntity
  8
1
  6
Continuous
100
AcDbCircle
 10
458.4168449999999
 20
247.9843259999999
 30
0.0
 40
0.5
100
AcDbArc
 50
161.254793
 51
170.4059319999998
  0
LINE
  5
E919
330
E6EB
100
AcDbEntity
  8
1
  6
Continuous
100
AcDbLine
 10
457.8748849999998
 20
246.2843259999999
 30
0.0
 11
457.8748849999998
 21
248.1845439999999
 31
0.0
  0
ARC
  5
E91A
330
E6EB
100
AcDbEntity
  8
1
  6
Continuous
100
AcDbCircle
 10
461.3748849999998
 20
263.4843259999997
 30
0.0
 40
16.12829999999998
100
AcDbArc
 50
256.737637
 51
257.4665319999999
  0
LINE
  5
E91B
330
E6EB
100
AcDbEntity
  8
1
  6
Continuous
100
AcDbLine
 10
465.0748849999998
 20
247.4843259999999
 30
0.0
 11
465.0748849999998
 21
248.300014
 31
0.0
  0
ARC
  5
E91C
330
E6EB
100
AcDbEntity
  8
1
  6
Continuous
100
AcDbCircle
 10
464.3329249999998
 20
247.9843259999999
 30
0.0
 40
0.5
100
AcDbArc
 50
9.594068
 51
18.745207
  0
LINE
  5
E91D
330
E6EB
100
AcDbEntity
  8
1
  6
Continuous
100
AcDbLine
 10
464.8748849999998
 20
246.2843259999999
 30
0.0
 11
464.8748849999998
 21
248.1845439999999
 31
0.0
  0
ARC
  5
E91E
330
E6EB
100
AcDbEntity
  8
1
  6
Continuous
100
AcDbCircle
 10
461.3748849999998
 20
263.4843259999997
 30
0.0
 40
16.12829999999998
100
AcDbArc
 50
282.533468
 51
283.262363
  0
LINE
  5
E91F
330
E6EB
100
AcDbEntity
  8
1
  6
Continuous
100
AcDbLine
 10
471.943234
 20
259.4843259999997
 30
0.0
 11
473.7442019999998
 21
259.4843259999997
 31
0.0
  0
ARC
  5
E920
330
E6EB
100
AcDbEntity
  8
1
  6
Continuous
100
AcDbCircle
 10
472.6332150000001
 20
256.9843259999997
 30
0.0
 40
1.7
100
AcDbArc
 50
273.057137
 51
26.942863
  0
LINE
  5
E921
330
E6EB
100
AcDbEntity
  8
1
  6
Continuous
100
AcDbLine
 10
461.3748849999998
 20
280.8048339999999
 30
0.0
 11
446.3748849999998
 21
272.1445799999999
 31
0.0
  0
LINE
  5
E922
330
E6EB
100
AcDbEntity
  8
1
  6
Continuous
100
AcDbLine
 10
461.3748849999998
 20
268.1033259999999
 30
0.0
 11
465.3748849999998
 21
265.7933259999999
 31
0.0
  0
ARC
  5
E923
330
E6EB
100
AcDbEntity
  8
1
  6
Continuous
100
AcDbCircle
 10
461.3748849999998
 20
263.4843259999997
 30
0.0
 40
2.399999999999999
100
AcDbArc
 50
34.92134199999998
 51
55.078658
  0
LINE
  5
E924
330
E6EB
100
AcDbEntity
  8
1
  6
Continuous
100
AcDbLine
 10
463.3427379999998
 20
264.858209
 30
0.0
 11
462.5854809999998
 21
264.074047
 31
0.0
  0
ARC
  5
E925
330
E6EB
100
AcDbEntity
  8
1
  6
Continuous
100
AcDbCircle
 10
461.3748849999998
 20
263.4843259999997
 30
0.0
 40
11.5
100
AcDbArc
 50
20.354406
 51
167.4441419999999
  0
LINE
  5
E926
330
E6EB
100
AcDbEntity
  8
4
  6
CENTER
100
AcDbLine
 10
466.3748849999998
 20
279.4843259999999
 30
0.0
 11
455.912991
 21
279.4843259999999
 31
0.0
  0
ARC
  5
E927
330
E6EB
100
AcDbEntity
  8
1
  6
Continuous
100
AcDbCircle
 10
461.3748849999998
 20
279.4843259999999
 30
0.0
 40
3.7
100
AcDbArc
 50
0.0
 51
180.0
  0
ARC
  5
E928
330
E6EB
100
AcDbEntity
  8
1
  6
Continuous
100
AcDbCircle
 10
461.3748849999998
 20
263.4843259999997
 30
0.0
 40
10.18799999999999
100
AcDbArc
 50
73.13840899999998
 51
106.8615909999999
  0
ARC
  5
E929
330
E6EB
100
AcDbEntity
  8
2
  6
Continuous
100
AcDbCircle
 10
461.3748849999998
 20
263.4843259999997
 30
0.0
 40
11.0
100
AcDbArc
 50
62.419801
 51
117.5801989999998
  0
LINE
  5
E92A
330
E6EB
100
AcDbEntity
  8
1
  6
Continuous
100
AcDbLine
 10
466.4677719999998
 20
273.2343259999999
 30
0.0
 11
456.2819969999998
 21
273.2343259999999
 31
0.0
  0
ARC
  5
E92B
330
E6EB
100
AcDbEntity
  8
1
  6
Continuous
100
AcDbCircle
 10
461.3748849999998
 20
279.4843259999999
 30
0.0
 40
3.5
100
AcDbArc
 50
350.405932
 51
189.5940679999999
  0
ARC
  5
E92C
330
E6EB
100
AcDbEntity
  8
1
  6
Continuous
100
AcDbCircle
 10
461.3748849999998
 20
263.4843259999997
 30
0.0
 40
14.0
100
AcDbArc
 50
35.84125199999999
 51
144.158748
  0
LINE
  5
E92D
330
E6EB
100
AcDbEntity
  8
1
  6
Continuous
100
AcDbLine
 10
461.3748849999998
 20
280.8048339999999
 30
0.0
 11
476.3748849999998
 21
272.1445799999999
 31
0.0
  0
ARC
  5
E92E
330
E6EB
100
AcDbEntity
  8
1
  6
Continuous
100
AcDbCircle
 10
461.3748849999998
 20
263.4843259999997
 30
0.0
 40
2.399999999999999
100
AcDbArc
 50
124.921342
 51
145.0786579999999
  0
LINE
  5
E92F
330
E6EB
100
AcDbEntity
  8
1
  6
Continuous
100
AcDbLine
 10
461.3748849999998
 20
268.1033259999999
 30
0.0
 11
457.3748849999998
 21
265.7933259999999
 31
0.0
  0
LINE
  5
E930
330
E6EB
100
AcDbEntity
  8
1
  6
Continuous
100
AcDbLine
 10
461.3748849999998
 20
264.4802809999998
 30
0.0
 11
461.9646059999998
 21
264.694922
 31
0.0
  0
LINE
  5
E931
330
E6EB
100
AcDbEntity
  8
1
  6
Continuous
100
AcDbLine
 10
461.3748849999998
 20
264.4802809999998
 30
0.0
 11
460.7851639999998
 21
264.694922
 31
0.0
  0
LINE
  5
E932
330
E6EB
100
AcDbEntity
  8
1
  6
Continuous
100
AcDbLine
 10
462.7487679999998
 20
265.4521789999999
 30
0.0
 11
461.9646059999998
 21
264.694922
 31
0.0
  0
LINE
  5
E933
330
E6EB
100
AcDbEntity
  8
1
  6
Continuous
100
AcDbLine
 10
460.001002
 20
265.4521789999999
 30
0.0
 11
460.7851639999998
 21
264.694922
 31
0.0
  0
LINE
  5
E934
330
E6EB
100
AcDbEntity
  8
1
  6
Continuous
100
AcDbLine
 10
459.407032
 20
264.858209
 30
0.0
 11
460.1642889999998
 21
264.074047
 31
0.0
  0
ARC
  5
E935
330
E6EB
100
AcDbEntity
  8
1
  6
Continuous
100
AcDbCircle
 10
450.116555
 20
269.9843259999997
 30
0.0
 40
1.7
100
AcDbArc
 50
93.057137
 51
206.9428629999999
  0
LINE
  5
E936
330
E6EB
100
AcDbEntity
  8
1
  6
Continuous
100
AcDbLine
 10
448.6175339999999
 20
265.9843259999997
 30
0.0
 11
450.354903
 21
265.9843259999997
 31
0.0
  0
LINE
  5
E937
330
E6EB
100
AcDbEntity
  8
1
  6
Continuous
100
AcDbLine
 10
457.6748849999996
 20
279.4843259999999
 30
0.0
 11
457.6748849999996
 21
278.6686379999998
 31
0.0
  0
ARC
  5
E938
330
E6EB
100
AcDbEntity
  8
1
  6
Continuous
100
AcDbCircle
 10
458.4168449999999
 20
278.9843259999999
 30
0.0
 40
0.5
100
AcDbArc
 50
189.5940679999999
 51
198.745207
  0
LINE
  5
E939
330
E6EB
100
AcDbEntity
  8
1
  6
Continuous
100
AcDbLine
 10
457.8748849999998
 20
280.6843259999999
 30
0.0
 11
457.8748849999998
 21
278.784108
 31
0.0
  0
ARC
  5
E93A
330
E6EB
100
AcDbEntity
  8
1
  6
Continuous
100
AcDbCircle
 10
461.3748849999998
 20
263.4843259999997
 30
0.0
 40
16.12829999999998
100
AcDbArc
 50
102.533468
 51
103.262363
  0
LINE
  5
E93B
330
E6EB
100
AcDbEntity
  8
1
  6
Continuous
100
AcDbLine
 10
465.0748849999998
 20
279.4843259999999
 30
0.0
 11
465.0748849999998
 21
278.6686379999998
 31
0.0
  0
ARC
  5
E93C
330
E6EB
100
AcDbEntity
  8
1
  6
Continuous
100
AcDbCircle
 10
464.3329249999998
 20
278.9843259999999
 30
0.0
 40
0.5
100
AcDbArc
 50
341.254793
 51
350.405932
  0
LINE
  5
E93D
330
E6EB
100
AcDbEntity
  8
1
  6
Continuous
100
AcDbLine
 10
464.8748849999998
 20
280.6843259999999
 30
0.0
 11
464.8748849999998
 21
278.784108
 31
0.0
  0
ARC
  5
E93E
330
E6EB
100
AcDbEntity
  8
1
  6
Continuous
100
AcDbCircle
 10
461.3748849999998
 20
263.4843259999997
 30
0.0
 40
16.12829999999998
100
AcDbArc
 50
76.73763700000002
 51
77.466532
  0
ARC
  5
E93F
330
E6EB
100
AcDbEntity
  8
1
  6
Continuous
100
AcDbCircle
 10
472.6332150000001
 20
269.9843259999997
 30
0.0
 40
1.7
100
AcDbArc
 50
333.057137
 51
86.94286299999998
  0
LINE
  5
E940
330
E6EB
100
AcDbEntity
  8
1
  6
Continuous
100
AcDbLine
 10
471.943234
 20
267.4843259999997
 30
0.0
 11
473.7442019999998
 21
267.4843259999997
 31
0.0
  0
LINE
  5
E941
330
E6EB
100
AcDbEntity
  8
1
  6
Continuous
100
AcDbLine
 10
205.687276
 20
367.000962
 30
0.0
 11
176.139382
 21
367.000962
 31
0.0
  0
LINE
  5
E942
330
E6EB
100
AcDbEntity
  8
1
  6
Continuous
100
AcDbLine
 10
205.687276
 20
392.000962
 30
0.0
 11
176.139382
 21
392.000962
 31
0.0
  0
LINE
  5
E943
330
E6EB
100
AcDbEntity
  8
4
  6
CENTER
100
AcDbLine
 10
245.054307
 20
379.500962
 30
0.0
 11
167.9077679999998
 21
379.500962
 31
0.0
  0
LINE
  5
E944
330
E6EB
100
AcDbEntity
  8
1
  6
Continuous
100
AcDbLine
 10
174.039026
 20
371.500962
 30
0.0
 11
173.534633
 21
371.500962
 31
0.0
  0
LINE
  5
E945
330
E6EB
100
AcDbEntity
  8
1
  6
Continuous
100
AcDbLine
 10
174.978643
 20
368.750962
 30
0.0
 11
174.4704889999999
 21
368.750962
 31
0.0
  0
LINE
  5
E946
330
E6EB
100
AcDbEntity
  8
1
  6
Continuous
100
AcDbLine
 10
174.039026
 20
387.500962
 30
0.0
 11
173.534633
 21
387.500962
 31
0.0
  0
LINE
  5
E947
330
E6EB
100
AcDbEntity
  8
1
  6
Continuous
100
AcDbLine
 10
174.978643
 20
390.250962
 30
0.0
 11
174.4704889999999
 21
390.250962
 31
0.0
  0
LINE
  5
E948
330
E6EB
100
AcDbEntity
  8
1
  6
Continuous
100
AcDbLine
 10
218.007768
 20
403.500962
 30
0.0
 11
218.007768
 21
355.500962
 31
0.0
  0
LINE
  5
E949
330
E6EB
100
AcDbEntity
  8
1
  6
Continuous
100
AcDbLine
 10
217.007768
 20
403.500962
 30
0.0
 11
217.007768
 21
355.500962
 31
0.0
  0
LINE
  5
E94A
330
E6EB
100
AcDbEntity
  8
1
  6
Continuous
100
AcDbLine
 10
213.507768
 20
401.5009619999998
 30
0.0
 11
213.507768
 21
357.500962
 31
0.0
  0
LINE
  5
E94B
330
E6EB
100
AcDbEntity
  8
2
  6
Continuous
100
AcDbLine
 10
230.607768
 20
384.593862
 30
0.0
 11
218.007768
 21
374.4080619999999
 31
0.0
  0
LINE
  5
E94C
330
E6EB
100
AcDbEntity
  8
2
  6
Continuous
100
AcDbLine
 10
218.007768
 20
384.593862
 30
0.0
 11
230.607768
 21
374.4080619999999
 31
0.0
  0
LINE
  5
E94D
330
E6EB
100
AcDbEntity
  8
1
  6
Continuous
100
AcDbLine
 10
230.607768
 20
374.4080619999999
 30
0.0
 11
218.007768
 21
374.4080619999999
 31
0.0
  0
LINE
  5
E94E
330
E6EB
100
AcDbEntity
  8
1
  6
Continuous
100
AcDbLine
 10
230.607768
 20
384.593862
 30
0.0
 11
218.007768
 21
384.593862
 31
0.0
  0
LINE
  5
E94F
330
E6EB
100
AcDbEntity
  8
2
  6
Continuous
100
AcDbLine
 10
231.4197679999999
 20
369.3129620000001
 30
0.0
 11
219.907768
 21
369.3129620000001
 31
0.0
  0
LINE
  5
E950
330
E6EB
100
AcDbEntity
  8
2
  6
Continuous
100
AcDbLine
 10
231.4197679999999
 20
389.6889619999998
 30
0.0
 11
219.907768
 21
389.6889619999998
 31
0.0
  0
LINE
  5
E951
330
E6EB
100
AcDbEntity
  8
1
  6
Continuous
100
AcDbLine
 10
230.607768
 20
368.500962
 30
0.0
 11
219.007768
 21
368.500962
 31
0.0
  0
LINE
  5
E952
330
E6EB
100
AcDbEntity
  8
1
  6
Continuous
100
AcDbLine
 10
230.607768
 20
390.500962
 30
0.0
 11
219.007768
 21
390.500962
 31
0.0
  0
LINE
  5
E953
330
E6EB
100
AcDbEntity
  8
1
  6
Continuous
100
AcDbLine
 10
205.507768
 20
367.000962
 30
0.0
 11
205.507768
 21
392.000962
 31
0.0
  0
LINE
  5
E954
330
E6EB
100
AcDbEntity
  8
1
  6
Continuous
100
AcDbLine
 10
219.907768
 20
374.4080619999999
 30
0.0
 11
219.907768
 21
368.500962
 31
0.0
  0
LINE
  5
E955
330
E6EB
100
AcDbEntity
  8
1
  6
Continuous
100
AcDbLine
 10
205.687276
 20
367.000962
 30
0.0
 11
205.687276
 21
392.000962
 31
0.0
  0
LINE
  5
E956
330
E6EB
100
AcDbEntity
  8
1
  6
Continuous
100
AcDbLine
 10
205.687276
 20
367.000962
 30
0.0
 11
213.507768
 21
363.500962
 31
0.0
  0
ARC
  5
E957
330
E6EB
100
AcDbEntity
  8
1
  6
Continuous
100
AcDbCircle
 10
219.007768
 20
367.500962
 30
0.0
 40
1.0
100
AcDbArc
 50
90.0
 51
180.0
  0
LINE
  5
E958
330
E6EB
100
AcDbEntity
  8
2
  6
Continuous
100
AcDbLine
 10
218.501342
 20
368.500962
 30
0.0
 11
219.907768
 21
369.3129620000001
 31
0.0
  0
ARC
  5
E959
330
E6EB
100
AcDbEntity
  8
1
  6
Continuous
100
AcDbCircle
 10
215.507768
 20
357.500962
 30
0.0
 40
2.0
100
AcDbArc
 50
222.3553149999999
 51
270.0
  0
ARC
  5
E95A
330
E6EB
100
AcDbEntity
  8
1
  6
Continuous
100
AcDbCircle
 10
215.507768
 20
357.500962
 30
0.0
 40
2.0
100
AcDbArc
 50
180.0
 51
222.3553149999999
  0
LINE
  5
E95B
330
E6EB
100
AcDbEntity
  8
1
  6
Continuous
100
AcDbLine
 10
218.007768
 20
355.500962
 30
0.0
 11
217.007768
 21
355.500962
 31
0.0
  0
LINE
  5
E95C
330
E6EB
100
AcDbEntity
  8
1
  6
Continuous
100
AcDbLine
 10
215.507768
 20
355.500962
 30
0.0
 11
217.007768
 21
355.500962
 31
0.0
  0
LINE
  5
E95D
330
E6EB
100
AcDbEntity
  8
1
  6
Continuous
100
AcDbLine
 10
205.687276
 20
392.000962
 30
0.0
 11
213.507768
 21
395.500962
 31
0.0
  0
ARC
  5
E95E
330
E6EB
100
AcDbEntity
  8
1
  6
Continuous
100
AcDbCircle
 10
219.007768
 20
391.500962
 30
0.0
 40
1.0
100
AcDbArc
 50
180.0
 51
270.0
  0
LINE
  5
E95F
330
E6EB
100
AcDbEntity
  8
2
  6
Continuous
100
AcDbLine
 10
218.501342
 20
390.500962
 30
0.0
 11
219.907768
 21
389.6889619999998
 31
0.0
  0
LINE
  5
E960
330
E6EB
100
AcDbEntity
  8
1
  6
Continuous
100
AcDbLine
 10
219.907768
 20
390.500962
 30
0.0
 11
219.907768
 21
384.593862
 31
0.0
  0
LINE
  5
E961
330
E6EB
100
AcDbEntity
  8
1
  6
Continuous
100
AcDbLine
 10
219.507768
 20
381.750962
 30
0.0
 11
218.007768
 21
381.750962
 31
0.0
  0
LINE
  5
E962
330
E6EB
100
AcDbEntity
  8
1
  6
Continuous
100
AcDbLine
 10
219.507768
 20
377.250962
 30
0.0
 11
218.007768
 21
377.250962
 31
0.0
  0
LINE
  5
E963
330
E6EB
100
AcDbEntity
  8
1
  6
Continuous
100
AcDbLine
 10
219.507768
 20
377.250962
 30
0.0
 11
219.507768
 21
381.750962
 31
0.0
  0
LINE
  5
E964
330
E6EB
100
AcDbEntity
  8
1
  6
Continuous
100
AcDbLine
 10
230.607768
 20
374.4080619999999
 30
0.0
 11
230.607768
 21
368.500962
 31
0.0
  0
ARC
  5
E965
330
E6EB
100
AcDbEntity
  8
1
  6
Continuous
100
AcDbCircle
 10
237.007768
 20
374.339083
 30
0.0
 40
0.3
100
AcDbArc
 50
270.0
 51
0.0
  0
LINE
  5
E966
330
E6EB
100
AcDbEntity
  8
1
  6
Continuous
100
AcDbLine
 10
232.307768
 20
372.700962
 30
0.0
 11
232.307768
 21
386.300962
 31
0.0
  0
LINE
  5
E967
330
E6EB
100
AcDbEntity
  8
1
  6
Continuous
100
AcDbLine
 10
232.107768
 20
389.000962
 30
0.0
 11
232.107768
 21
370.000962
 31
0.0
  0
LINE
  5
E968
330
E6EB
100
AcDbEntity
  8
1
  6
Continuous
100
AcDbLine
 10
230.607768
 20
368.500962
 30
0.0
 11
232.107768
 21
370.000962
 31
0.0
  0
ARC
  5
E969
330
E6EB
100
AcDbEntity
  8
1
  6
Continuous
100
AcDbCircle
 10
232.107768
 20
372.700962
 30
0.0
 40
0.2
100
AcDbArc
 50
270.0
 51
0.0
  0
ARC
  5
E96A
330
E6EB
100
AcDbEntity
  8
1
  6
Continuous
100
AcDbCircle
 10
222.711891
 20
379.500962
 30
0.0
 40
9.395877
100
AcDbArc
 50
327.177679
 51
32.822321
  0
LINE
  5
E96B
330
E6EB
100
AcDbEntity
  8
1
  6
Continuous
100
AcDbLine
 10
230.607768
 20
390.500962
 30
0.0
 11
230.607768
 21
384.593862
 31
0.0
  0
LINE
  5
E96C
330
E6EB
100
AcDbEntity
  8
1
  6
Continuous
100
AcDbLine
 10
230.607768
 20
390.500962
 30
0.0
 11
232.107768
 21
389.000962
 31
0.0
  0
ARC
  5
E96D
330
E6EB
100
AcDbEntity
  8
1
  6
Continuous
100
AcDbCircle
 10
232.107768
 20
386.300962
 30
0.0
 40
0.2
100
AcDbArc
 50
0.0
 51
90.0
  0
LINE
  5
E96E
330
E6EB
100
AcDbEntity
  8
1
  6
Continuous
100
AcDbLine
 10
237.307768
 20
384.662842
 30
0.0
 11
237.307768
 21
374.339083
 31
0.0
  0
ARC
  5
E96F
330
E6EB
100
AcDbEntity
  8
1
  6
Continuous
100
AcDbCircle
 10
237.007768
 20
384.662842
 30
0.0
 40
0.3
100
AcDbArc
 50
0.0
 51
90.0
  0
LINE
  5
E970
330
E6EB
100
AcDbEntity
  8
2
  6
Continuous
100
AcDbLine
 10
237.007768
 20
379.500962
 30
0.0
 11
232.307768
 21
384.9628419999999
 31
0.0
  0
LINE
  5
E971
330
E6EB
100
AcDbEntity
  8
2
  6
Continuous
100
AcDbLine
 10
237.007768
 20
384.9628419999999
 30
0.0
 11
232.307768
 21
379.500962
 31
0.0
  0
LINE
  5
E972
330
E6EB
100
AcDbEntity
  8
1
  6
Continuous
100
AcDbLine
 10
237.007768
 20
374.0390829999999
 30
0.0
 11
232.307768
 21
374.0390829999999
 31
0.0
  0
LINE
  5
E973
330
E6EB
100
AcDbEntity
  8
1
  6
Continuous
100
AcDbLine
 10
237.007768
 20
379.500962
 30
0.0
 11
232.307768
 21
379.500962
 31
0.0
  0
LINE
  5
E974
330
E6EB
100
AcDbEntity
  8
2
  6
Continuous
100
AcDbLine
 10
232.307768
 20
379.500962
 30
0.0
 11
237.007768
 21
374.0390829999999
 31
0.0
  0
LINE
  5
E975
330
E6EB
100
AcDbEntity
  8
2
  6
Continuous
100
AcDbLine
 10
232.307768
 20
374.0390829999999
 30
0.0
 11
237.007768
 21
379.500962
 31
0.0
  0
LINE
  5
E976
330
E6EB
100
AcDbEntity
  8
1
  6
Continuous
100
AcDbLine
 10
237.007768
 20
384.9628419999999
 30
0.0
 11
232.307768
 21
384.9628419999999
 31
0.0
  0
ARC
  5
E977
330
E6EB
100
AcDbEntity
  8
1
  6
Continuous
100
AcDbCircle
 10
215.507768
 20
401.5009619999998
 30
0.0
 40
2.0
100
AcDbArc
 50
137.644685
 51
180.0
  0
ARC
  5
E978
330
E6EB
100
AcDbEntity
  8
1
  6
Continuous
100
AcDbCircle
 10
215.507768
 20
401.5009619999998
 30
0.0
 40
2.0
100
AcDbArc
 50
90.0
 51
137.644685
  0
LINE
  5
E979
330
E6EB
100
AcDbEntity
  8
1
  6
Continuous
100
AcDbLine
 10
218.007768
 20
403.500962
 30
0.0
 11
217.007768
 21
403.500962
 31
0.0
  0
LINE
  5
E97A
330
E6EB
100
AcDbEntity
  8
1
  6
Continuous
100
AcDbLine
 10
215.507768
 20
403.500962
 30
0.0
 11
217.007768
 21
403.500962
 31
0.0
  0
LINE
  5
E97B
330
E6EB
100
AcDbEntity
  8
4
  6
CENTER
100
AcDbLine
 10
327.5150779999999
 20
379.500962
 30
0.0
 11
312.876481
 21
379.500962
 31
0.0
  0
ARC
  5
E97C
330
E6EB
100
AcDbEntity
  8
1
  6
Continuous
100
AcDbCircle
 10
304.959339
 20
372.000962
 30
0.0
 40
32.055667
100
AcDbArc
 50
166.4692029999999
 51
193.530797
  0
ARC
  5
E97D
330
E6EB
100
AcDbEntity
  8
1
  6
Continuous
100
AcDbCircle
 10
244.848004
 20
372.000962
 30
0.0
 40
32.055667
100
AcDbArc
 50
346.469203
 51
13.530797
  0
LINE
  5
E97E
330
E6EB
100
AcDbEntity
  8
1
  6
Continuous
100
AcDbLine
 10
271.4036709999999
 20
393.500962
 30
0.0
 11
271.4036709999999
 21
365.500962
 31
0.0
  0
LINE
  5
E97F
330
E6EB
100
AcDbEntity
  8
1
  6
Continuous
100
AcDbLine
 10
272.9036709999999
 20
364.500962
 30
0.0
 11
272.9036709999999
 21
394.500962
 31
0.0
  0
LINE
  5
E980
330
E6EB
100
AcDbEntity
  8
1
  6
Continuous
100
AcDbLine
 10
276.9036709999999
 20
364.500962
 30
0.0
 11
276.9036709999999
 21
394.500962
 31
0.0
  0
LINE
  5
E981
330
E6EB
100
AcDbEntity
  8
1
  6
Continuous
100
AcDbLine
 10
278.4036709999999
 20
365.500962
 30
0.0
 11
278.4036709999999
 21
393.500962
 31
0.0
  0
LINE
  5
E982
330
E6EB
100
AcDbEntity
  8
1
  6
Continuous
100
AcDbLine
 10
269.9036709999999
 20
391.500962
 30
0.0
 11
269.9036709999999
 21
367.500962
 31
0.0
  0
ARC
  5
E983
330
E6EB
100
AcDbEntity
  8
1
  6
Continuous
100
AcDbCircle
 10
270.6536709999999
 20
367.500962
 30
0.0
 40
0.75
100
AcDbArc
 50
180.0
 51
0.0
  0
LINE
  5
E984
330
E6EB
100
AcDbEntity
  8
1
  6
Continuous
100
AcDbLine
 10
276.9036709999999
 20
364.500962
 30
0.0
 11
272.9036709999999
 21
364.500962
 31
0.0
  0
LINE
  5
E985
330
E6EB
100
AcDbEntity
  8
1
  6
Continuous
100
AcDbLine
 10
271.4036709999999
 20
365.500962
 30
0.0
 11
272.9036709999999
 21
365.500962
 31
0.0
  0
LINE
  5
E986
330
E6EB
100
AcDbEntity
  8
1
  6
Continuous
100
AcDbLine
 10
276.9036709999999
 20
365.500962
 30
0.0
 11
278.4036709999999
 21
365.500962
 31
0.0
  0
LINE
  5
E987
330
E6EB
100
AcDbEntity
  8
1
  6
Continuous
100
AcDbLine
 10
278.4036709999999
 20
368.151968
 30
0.0
 11
276.9036709999999
 21
368.151968
 31
0.0
  0
LINE
  5
E988
330
E6EB
100
AcDbEntity
  8
1
  6
Continuous
100
AcDbLine
 10
278.4036709999999
 20
366.5426319999999
 30
0.0
 11
276.9036709999999
 21
366.5426319999999
 31
0.0
  0
ARC
  5
E989
330
E6EB
100
AcDbEntity
  8
1
  6
Continuous
100
AcDbCircle
 10
270.6536709999999
 20
391.500962
 30
0.0
 40
0.75
100
AcDbArc
 50
0.0
 51
180.0
  0
LINE
  5
E98A
330
E6EB
100
AcDbEntity
  8
1
  6
Continuous
100
AcDbLine
 10
269.9036709999999
 20
379.500962
 30
0.0
 11
271.4036709999999
 21
381.000962
 31
0.0
  0
LINE
  5
E98B
330
E6EB
100
AcDbEntity
  8
1
  6
Continuous
100
AcDbLine
 10
269.9036709999999
 20
378.000962
 30
0.0
 11
271.4036709999999
 21
379.500962
 31
0.0
  0
LINE
  5
E98C
330
E6EB
100
AcDbEntity
  8
4
  6
CENTER
100
AcDbLine
 10
266.9036709999999
 20
379.500962
 30
0.0
 11
281.4036709999999
 21
379.500962
 31
0.0
  0
LINE
  5
E98D
330
E6EB
100
AcDbEntity
  8
1
  6
Continuous
100
AcDbLine
 10
276.9036709999999
 20
394.500962
 30
0.0
 11
272.9036709999999
 21
394.500962
 31
0.0
  0
LINE
  5
E98E
330
E6EB
100
AcDbEntity
  8
1
  6
Continuous
100
AcDbLine
 10
271.4036709999999
 20
393.500962
 30
0.0
 11
272.9036709999999
 21
393.500962
 31
0.0
  0
LINE
  5
E98F
330
E6EB
100
AcDbEntity
  8
1
  6
Continuous
100
AcDbLine
 10
276.9036709999999
 20
393.500962
 30
0.0
 11
278.4036709999999
 21
393.500962
 31
0.0
  0
LINE
  5
E990
330
E6EB
100
AcDbEntity
  8
1
  6
Continuous
100
AcDbLine
 10
278.4036709999999
 20
392.459292
 30
0.0
 11
276.9036709999999
 21
392.459292
 31
0.0
  0
LINE
  5
E991
330
E6EB
100
AcDbEntity
  8
1
  6
Continuous
100
AcDbLine
 10
278.4036709999999
 20
390.8499569999997
 30
0.0
 11
276.9036709999999
 21
390.8499569999997
 31
0.0
  0
LINE
  5
E992
330
E6EB
100
AcDbEntity
  8
1
  6
Continuous
100
AcDbLine
 10
273.793399
 20
379.500962
 30
0.0
 11
276.0139429999999
 21
379.500962
 31
0.0
  0
ARC
  5
E993
330
E6EB
100
AcDbEntity
  8
1
  6
Continuous
100
AcDbCircle
 10
304.959339
 20
387.000962
 30
0.0
 40
32.055667
100
AcDbArc
 50
166.4692029999999
 51
193.530797
  0
ARC
  5
E994
330
E6EB
100
AcDbEntity
  8
1
  6
Continuous
100
AcDbCircle
 10
244.848004
 20
387.000962
 30
0.0
 40
32.055667
100
AcDbArc
 50
346.469203
 51
13.530797
  0
LINE
  5
E995
330
E6EB
100
AcDbEntity
  8
1
  6
Continuous
100
AcDbLine
 10
319.076481
 20
388.500962
 30
0.0
 11
319.076481
 21
370.500962
 31
0.0
  0
LINE
  5
E996
330
E6EB
100
AcDbEntity
  8
1
  6
Continuous
100
AcDbLine
 10
315.876481
 20
388.500962
 30
0.0
 11
315.876481
 21
370.500962
 31
0.0
  0
LINE
  5
E997
330
E6EB
100
AcDbEntity
  8
1
  6
Continuous
100
AcDbLine
 10
319.076481
 20
370.500962
 30
0.0
 11
315.876481
 21
370.500962
 31
0.0
  0
LINE
  5
E998
330
E6EB
100
AcDbEntity
  8
1
  6
Continuous
100
AcDbLine
 10
319.076481
 20
388.500962
 30
0.0
 11
315.876481
 21
388.500962
 31
0.0
  0
LINE
  5
E999
330
E6EB
100
AcDbEntity
  8
1
  6
Continuous
100
AcDbLine
 10
324.5150779999999
 20
388.500962
 30
0.0
 11
324.5150779999999
 21
370.500962
 31
0.0
  0
LINE
  5
E99A
330
E6EB
100
AcDbEntity
  8
1
  6
Continuous
100
AcDbLine
 10
322.9150779999998
 20
388.500962
 30
0.0
 11
322.9150779999998
 21
370.500962
 31
0.0
  0
LINE
  5
E99B
330
E6EB
100
AcDbEntity
  8
1
  6
Continuous
100
AcDbLine
 10
343.104555
 20
387.500962
 30
0.0
 11
343.104555
 21
371.500962
 31
0.0
  0
LINE
  5
E99C
330
E6EB
100
AcDbEntity
  8
1
  6
Continuous
100
AcDbLine
 10
341.9045549999997
 20
387.500962
 30
0.0
 11
341.9045549999997
 21
371.500962
 31
0.0
  0
LINE
  5
E99D
330
E6EB
100
AcDbEntity
  8
1
  6
Continuous
100
AcDbLine
 10
324.5150779999999
 20
370.500962
 30
0.0
 11
322.9150779999998
 21
370.500962
 31
0.0
  0
LINE
  5
E99E
330
E6EB
100
AcDbEntity
  8
1
  6
Continuous
100
AcDbLine
 10
343.104555
 20
371.500962
 30
0.0
 11
341.9045549999997
 21
371.500962
 31
0.0
  0
LINE
  5
E99F
330
E6EB
100
AcDbEntity
  8
1
  6
Continuous
100
AcDbLine
 10
324.5150779999999
 20
388.500962
 30
0.0
 11
322.9150779999998
 21
388.500962
 31
0.0
  0
LINE
  5
E9A0
330
E6EB
100
AcDbEntity
  8
1
  6
Continuous
100
AcDbLine
 10
347.9045549999999
 20
383.500962
 30
0.0
 11
344.4045549999998
 21
383.500962
 31
0.0
  0
ARC
  5
E9A1
330
E6EB
100
AcDbEntity
  8
1
  6
Continuous
100
AcDbCircle
 10
342.1295779999999
 20
377.500962
 30
0.0
 40
5.774976999999998
100
AcDbArc
 50
339.7375
 51
20.2625
  0
ARC
  5
E9A2
330
E6EB
100
AcDbEntity
  8
1
  6
Continuous
100
AcDbCircle
 10
350.1795319999998
 20
377.500962
 30
0.0
 40
5.774976999999998
100
AcDbArc
 50
159.7375
 51
200.2625
  0
LINE
  5
E9A3
330
E6EB
100
AcDbEntity
  8
1
  6
Continuous
100
AcDbLine
 10
347.9045549999999
 20
375.500962
 30
0.0
 11
344.4045549999998
 21
375.500962
 31
0.0
  0
LINE
  5
E9A4
330
E6EB
100
AcDbEntity
  8
1
  6
Continuous
100
AcDbLine
 10
344.761935
 20
379.500962
 30
0.0
 11
347.547175
 21
379.500962
 31
0.0
  0
LINE
  5
E9A5
330
E6EB
100
AcDbEntity
  8
1
  6
Continuous
100
AcDbLine
 10
347.9045549999999
 20
383.500962
 30
0.0
 11
347.9045549999999
 21
375.500962
 31
0.0
  0
ARC
  5
E9A6
330
E6EB
100
AcDbEntity
  8
1
  6
Continuous
100
AcDbCircle
 10
350.1795319999998
 20
381.500962
 30
0.0
 40
5.774976999999998
100
AcDbArc
 50
159.7375
 51
200.2625
  0
ARC
  5
E9A7
330
E6EB
100
AcDbEntity
  8
1
  6
Continuous
100
AcDbCircle
 10
342.1295779999999
 20
381.500962
 30
0.0
 40
5.774976999999998
100
AcDbArc
 50
339.7375
 51
20.2625
  0
LINE
  5
E9A8
330
E6EB
100
AcDbEntity
  8
1
  6
Continuous
100
AcDbLine
 10
343.104555
 20
387.500962
 30
0.0
 11
341.9045549999997
 21
387.500962
 31
0.0
  0
LINE
  5
E9A9
330
E6EB
100
AcDbEntity
  8
1
  6
Continuous
100
AcDbLine
 10
344.4045549999998
 20
374.9009619999998
 30
0.0
 11
344.4045549999998
 21
384.1009619999999
 31
0.0
  0
LINE
  5
E9AA
330
E6EB
100
AcDbEntity
  8
1
  6
Continuous
100
AcDbLine
 10
344.4045549999998
 20
374.9009619999998
 30
0.0
 11
343.104555
 21
374.9009619999998
 31
0.0
  0
LINE
  5
E9AB
330
E6EB
100
AcDbEntity
  8
1
  6
Continuous
100
AcDbLine
 10
344.4045549999998
 20
384.1009619999999
 30
0.0
 11
343.104555
 21
384.1009619999999
 31
0.0
  0
LINE
  5
E9AC
330
E6EB
100
AcDbEntity
  8
1
  6
Continuous
100
AcDbLine
 10
344.4045549999998
 20
379.500962
 30
0.0
 11
343.104555
 21
378.200962
 31
0.0
  0
LINE
  5
E9AD
330
E6EB
100
AcDbEntity
  8
1
  6
Continuous
100
AcDbLine
 10
344.4045549999998
 20
380.800962
 30
0.0
 11
343.104555
 21
379.500962
 31
0.0
  0
LINE
  5
E9AE
330
E6EB
100
AcDbEntity
  8
4
  6
CENTER
100
AcDbLine
 10
350.9045549999997
 20
379.500962
 30
0.0
 11
338.9045549999999
 21
379.500962
 31
0.0
  0
ARC
  5
E9AF
330
E6EB
100
AcDbEntity
  8
1
  6
Continuous
100
AcDbCircle
 10
234.007768
 20
379.500962
 30
0.0
 40
61.0
100
AcDbArc
 50
172.4640909999999
 51
187.535909
  0
ARC
  5
E9B0
330
E6EB
100
AcDbEntity
  8
1
  6
Continuous
100
AcDbCircle
 10
234.007768
 20
72.553573
 30
0.0
 40
61.0
100
AcDbArc
 50
172.4640909999999
 51
187.535909
  0
ARC
  5
E9B1
330
E6EB
100
AcDbEntity
  8
1
  6
Continuous
100
AcDbCircle
 10
234.007768
 20
72.553573
 30
0.0
 40
60.5
100
AcDbArc
 50
169.764998
 51
190.2350019999999
  0
LINE
  5
E9B2
330
E6EB
100
AcDbEntity
  8
1
  6
Continuous
100
AcDbLine
 10
174.039026
 20
64.553573
 30
0.0
 11
173.534633
 21
64.553573
 31
0.0
  0
LINE
  5
E9B3
330
E6EB
100
AcDbEntity
  8
1
  6
Continuous
100
AcDbLine
 10
174.978643
 20
61.803573
 30
0.0
 11
174.4704889999999
 21
61.803573
 31
0.0
  0
LINE
  5
E9B4
330
E6EB
100
AcDbEntity
  8
1
  6
Continuous
100
AcDbLine
 10
174.039026
 20
80.553573
 30
0.0
 11
173.534633
 21
80.553573
 31
0.0
  0
LINE
  5
E9B5
330
E6EB
100
AcDbEntity
  8
1
  6
Continuous
100
AcDbLine
 10
174.978643
 20
83.30357300000001
 30
0.0
 11
174.4704889999999
 21
83.30357300000001
 31
0.0
  0
ARC
  5
E9B6
330
E6EB
100
AcDbEntity
  8
1
  6
Continuous
100
AcDbCircle
 10
234.007768
 20
72.553573
 30
0.0
 40
60.0
100
AcDbArc
 50
168.760227
 51
191.2397729999999
  0
ARC
  5
E9B7
330
E6EB
100
AcDbEntity
  8
1
  6
Continuous
100
AcDbCircle
 10
240.007768
 20
72.553573
 30
0.0
 40
60.0
100
AcDbArc
 50
173.510252
 51
186.4897479999999
  0
ARC
  5
E9B8
330
E6EB
100
AcDbEntity
  8
1
  6
Continuous
100
AcDbCircle
 10
181.3858339999999
 20
79.22207299999998
 30
0.0
 40
1.0
100
AcDbArc
 50
90.0
 51
173.510252
  0
ARC
  5
E9B9
330
E6EB
100
AcDbEntity
  8
1
  6
Continuous
100
AcDbCircle
 10
181.3858339999999
 20
65.88507299999999
 30
0.0
 40
1.0
100
AcDbArc
 50
186.4897479999999
 51
270.0
  0
ARC
  5
E9BA
330
E6EB
100
AcDbEntity
  8
1
  6
Continuous
100
AcDbCircle
 10
234.007768
 20
379.500962
 30
0.0
 40
60.5
100
AcDbArc
 50
169.764998
 51
190.2350019999999
  0
ARC
  5
E9BB
330
E6EB
100
AcDbEntity
  8
1
  6
Continuous
100
AcDbCircle
 10
234.007768
 20
379.500962
 30
0.0
 40
60.0
100
AcDbArc
 50
168.760227
 51
169.678776
  0
ARC
  5
E9BC
330
E6EB
100
AcDbEntity
  8
1
  6
Continuous
100
AcDbCircle
 10
176.139382
 20
391.000962
 30
0.0
 40
1.0
100
AcDbArc
 50
90.0
 51
168.760227
  0
ARC
  5
E9BD
330
E6EB
100
AcDbEntity
  8
1
  6
Continuous
100
AcDbCircle
 10
176.139382
 20
368.000962
 30
0.0
 40
1.0
100
AcDbArc
 50
191.2397729999999
 51
270.0
  0
ARC
  5
E9BE
330
E6EB
100
AcDbEntity
  8
1
  6
Continuous
100
AcDbCircle
 10
234.007768
 20
379.500962
 30
0.0
 40
60.0
100
AcDbArc
 50
190.321224
 51
191.2397729999999
  0
ARC
  5
E9BF
330
E6EB
100
AcDbEntity
  8
1
  6
Continuous
100
AcDbCircle
 10
176.139382
 20
84.053573
 30
0.0
 40
1.0
100
AcDbArc
 50
90.0
 51
168.760227
  0
ARC
  5
E9C0
330
E6EB
100
AcDbEntity
  8
1
  6
Continuous
100
AcDbCircle
 10
176.139382
 20
61.053573
 30
0.0
 40
1.0
100
AcDbArc
 50
191.2397729999999
 51
270.0
  0
LINE
  5
E9C1
330
E6EB
100
AcDbEntity
  8
1
  6
Continuous
100
AcDbLine
 10
175.50492
 20
84.826527
 30
0.0
 11
180.7198849999998
 21
79.96807099999998
 31
0.0
  0
LINE
  5
E9C2
330
E6EB
100
AcDbEntity
  8
1
  6
Continuous
100
AcDbLine
 10
180.7198849999998
 20
65.139076
 30
0.0
 11
175.50492
 21
60.28061999999999
 31
0.0
  0
LINE
  5
E9C3
330
E6EB
100
AcDbEntity
  8
1
  6
Continuous
100
AcDbLine
 10
652.846099
 20
263.4843259999997
 30
0.0
 11
651.3460989999997
 21
261.9843259999999
 31
0.0
  0
ARC
  5
E9C4
330
E6EB
100
AcDbEntity
  8
1
  6
Continuous
100
AcDbCircle
 10
688.4386549999996
 20
263.4843259999997
 30
0.0
 40
42.592555
100
AcDbArc
 50
168.2683679999998
 51
191.7316319999999
  0
ARC
  5
E9C5
330
E6EB
100
AcDbEntity
  8
1
  6
Continuous
100
AcDbCircle
 10
607.253544
 20
263.4843259999997
 30
0.0
 40
42.592555
100
AcDbArc
 50
348.268368
 51
11.731632
  0
LINE
  5
E9C6
330
E6EB
100
AcDbEntity
  8
1
  6
Continuous
100
AcDbLine
 10
644.346099
 20
249.4843259999999
 30
0.0
 11
644.346099
 21
277.4843259999999
 31
0.0
  0
LINE
  5
E9C7
330
E6EB
100
AcDbEntity
  8
1
  6
Continuous
100
AcDbLine
 10
651.3460989999997
 20
277.4843259999999
 30
0.0
 11
651.3460989999997
 21
249.4843259999999
 31
0.0
  0
LINE
  5
E9C8
330
E6EB
100
AcDbEntity
  8
1
  6
Continuous
100
AcDbLine
 10
645.8460989999998
 20
248.484324
 30
0.0
 11
645.8460989999998
 21
278.484328
 31
0.0
  0
LINE
  5
E9C9
330
E6EB
100
AcDbEntity
  8
1
  6
Continuous
100
AcDbLine
 10
649.8460989999998
 20
248.4843259999999
 30
0.0
 11
649.8460989999998
 21
278.4843259999997
 31
0.0
  0
LINE
  5
E9CA
330
E6EB
100
AcDbEntity
  8
1
  6
Continuous
100
AcDbLine
 10
652.846099
 20
275.4843259999999
 30
0.0
 11
652.846099
 21
251.4843259999999
 31
0.0
  0
LINE
  5
E9CB
330
E6EB
100
AcDbEntity
  8
1
  6
Continuous
100
AcDbLine
 10
574.8452150000002
 20
267.484826
 30
0.0
 11
574.8452150000002
 21
259.484826
 31
0.0
  0
ARC
  5
E9CC
330
E6EB
100
AcDbEntity
  8
1
  6
Continuous
100
AcDbCircle
 10
570.7041699999997
 20
263.4843259999997
 30
0.0
 40
7.641045
100
AcDbArc
 50
342.4072529999999
 51
17.59274699999998
  0
ARC
  5
E9CD
330
E6EB
100
AcDbEntity
  8
1
  6
Continuous
100
AcDbCircle
 10
582.48626
 20
263.4843259999997
 30
0.0
 40
7.641045
100
AcDbArc
 50
162.407253
 51
197.592747
  0
LINE
  5
E9CE
330
E6EB
100
AcDbEntity
  8
1
  6
Continuous
100
AcDbLine
 10
578.3452150000001
 20
262.1843259999999
 30
0.0
 11
579.645215
 21
263.4843259999997
 31
0.0
  0
LINE
  5
E9CF
330
E6EB
100
AcDbEntity
  8
1
  6
Continuous
100
AcDbLine
 10
578.3452150000001
 20
258.865524
 30
0.0
 11
578.3452150000001
 21
268.1031279999999
 31
0.0
  0
LINE
  5
E9D0
330
E6EB
100
AcDbEntity
  8
1
  6
Continuous
100
AcDbLine
 10
580.8452150000001
 20
271.4843259999997
 30
0.0
 11
580.8452150000001
 21
255.4843259999999
 31
0.0
  0
LINE
  5
E9D1
330
E6EB
100
AcDbEntity
  8
1
  6
Continuous
100
AcDbLine
 10
579.645215
 20
271.4843259999997
 30
0.0
 11
579.645215
 21
255.4843259999999
 31
0.0
  0
LINE
  5
E9D2
330
E6EB
100
AcDbEntity
  8
1
  6
Continuous
100
AcDbLine
 10
599.834692
 20
272.4843259999999
 30
0.0
 11
599.834692
 21
254.4843259999999
 31
0.0
  0
LINE
  5
E9D3
330
E6EB
100
AcDbEntity
  8
1
  6
Continuous
100
AcDbLine
 10
598.234692
 20
272.4843259999999
 30
0.0
 11
598.234692
 21
254.4843259999999
 31
0.0
  0
LINE
  5
E9D4
330
E6EB
100
AcDbEntity
  8
1
  6
Continuous
100
AcDbLine
 10
606.8732889999997
 20
272.4843259999999
 30
0.0
 11
606.8732889999997
 21
254.4843259999999
 31
0.0
  0
LINE
  5
E9D5
330
E6EB
100
AcDbEntity
  8
1
  6
Continuous
100
AcDbLine
 10
603.6732889999998
 20
272.4843259999999
 30
0.0
 11
603.6732889999998
 21
254.4843259999999
 31
0.0
  0
LINE
  5
E9D6
330
E6EB
100
AcDbEntity
  8
4
  6
CENTER
100
AcDbLine
 10
595.234692
 20
263.4843259999997
 30
0.0
 11
609.8732889999999
 21
263.4843259999997
 31
0.0
  0
LINE
  5
E9D7
330
E6EB
100
AcDbEntity
  8
1
  6
Continuous
100
AcDbLine
 10
652.846099
 20
264.9843259999999
 30
0.0
 11
651.3460989999997
 21
263.4843259999997
 31
0.0
  0
ARC
  5
E9D8
330
E6EB
100
AcDbEntity
  8
1
  6
Continuous
100
AcDbCircle
 10
652.0960989999998
 20
251.4843259999999
 30
0.0
 40
0.75
100
AcDbArc
 50
180.0
 51
0.0
  0
LINE
  5
E9D9
330
E6EB
100
AcDbEntity
  8
4
  6
CENTER
100
AcDbLine
 10
655.846099
 20
263.4843259999997
 30
0.0
 11
641.3460989999999
 21
263.4843259999997
 31
0.0
  0
LINE
  5
E9DA
330
E6EB
100
AcDbEntity
  8
1
  6
Continuous
100
AcDbLine
 10
644.346099
 20
257.7545989999999
 30
0.0
 11
645.8460989999998
 21
257.7545989999999
 31
0.0
  0
LINE
  5
E9DB
330
E6EB
100
AcDbEntity
  8
1
  6
Continuous
100
AcDbLine
 10
644.346099
 20
255.286745
 30
0.0
 11
645.8460989999998
 21
255.286745
 31
0.0
  0
LINE
  5
E9DC
330
E6EB
100
AcDbEntity
  8
1
  6
Continuous
100
AcDbLine
 10
646.735827
 20
254.824072
 30
0.0
 11
648.9563709999997
 21
254.824072
 31
0.0
  0
LINE
  5
E9DD
330
E6EB
100
AcDbEntity
  8
1
  6
Continuous
100
AcDbLine
 10
647.185844
 20
246.163818
 30
0.0
 11
645.8460979999999
 21
248.4843259999999
 31
0.0
  0
LINE
  5
E9DE
330
E6EB
100
AcDbEntity
  8
1
  6
Continuous
100
AcDbLine
 10
648.5063529999997
 20
246.163818
 30
0.0
 11
649.8460989999998
 21
248.4843259999999
 31
0.0
  0
LINE
  5
E9DF
330
E6EB
100
AcDbEntity
  8
1
  6
Continuous
100
AcDbLine
 10
647.185844
 20
246.163818
 30
0.0
 11
648.5063539999997
 21
246.163818
 31
0.0
  0
LINE
  5
E9E0
330
E6EB
100
AcDbEntity
  8
1
  6
Continuous
100
AcDbLine
 10
644.346099
 20
249.4843259999999
 30
0.0
 11
645.8460989999998
 21
249.4843259999999
 31
0.0
  0
LINE
  5
E9E1
330
E6EB
100
AcDbEntity
  8
1
  6
Continuous
100
AcDbLine
 10
645.8460989999998
 20
249.4843259999999
 30
0.0
 11
644.346099
 21
249.4843259999999
 31
0.0
  0
LINE
  5
E9E2
330
E6EB
100
AcDbEntity
  8
1
  6
Continuous
100
AcDbLine
 10
651.3460989999997
 20
249.4843259999999
 30
0.0
 11
649.8460989999998
 21
249.4843259999999
 31
0.0
  0
ARC
  5
E9E3
330
E6EB
100
AcDbEntity
  8
1
  6
Continuous
100
AcDbCircle
 10
656.827886
 20
250.493945
 30
0.0
 40
10.98178699999998
100
AcDbArc
 50
156.7776279999999
 51
193.240447
  0
ARC
  5
E9E4
330
E6EB
100
AcDbEntity
  8
1
  6
Continuous
100
AcDbCircle
 10
638.864312
 20
250.493945
 30
0.0
 40
10.98178699999998
100
AcDbArc
 50
346.759569
 51
23.222372
  0
LINE
  5
E9E5
330
E6EB
100
AcDbEntity
  8
1
  6
Continuous
100
AcDbLine
 10
603.6732889999998
 20
254.4843259999999
 30
0.0
 11
606.8732889999997
 21
254.4843259999999
 31
0.0
  0
LINE
  5
E9E6
330
E6EB
100
AcDbEntity
  8
1
  6
Continuous
100
AcDbLine
 10
598.234692
 20
254.4843259999999
 30
0.0
 11
599.834692
 21
254.4843259999999
 31
0.0
  0
LINE
  5
E9E7
330
E6EB
100
AcDbEntity
  8
1
  6
Continuous
100
AcDbLine
 10
574.8452150000002
 20
259.484826
 30
0.0
 11
575.202595
 21
258.8658259999998
 31
0.0
  0
ARC
  5
E9E8
330
E6EB
100
AcDbEntity
  8
1
  6
Continuous
100
AcDbCircle
 10
576.890301
 20
260.020826
 30
0.0
 40
2.045087
100
AcDbArc
 50
145.613799
 51
205.613799
  0
LINE
  5
E9E9
330
E6EB
100
AcDbEntity
  8
1
  6
Continuous
100
AcDbLine
 10
579.645215
 20
255.4843259999999
 30
0.0
 11
580.8452150000001
 21
255.4843259999999
 31
0.0
  0
ARC
  5
E9EA
330
E6EB
100
AcDbEntity
  8
1
  6
Continuous
100
AcDbCircle
 10
576.300128
 20
260.020826
 30
0.0
 40
2.045087
100
AcDbArc
 50
334.3862009999999
 51
34.386201
  0
LINE
  5
E9EB
330
E6EB
100
AcDbEntity
  8
1
  6
Continuous
100
AcDbLine
 10
578.3452150000001
 20
259.484826
 30
0.0
 11
577.987835
 21
258.8658259999998
 31
0.0
  0
LINE
  5
E9EC
330
E6EB
100
AcDbEntity
  8
1
  6
Continuous
100
AcDbLine
 10
578.3452150000001
 20
263.4843259999997
 30
0.0
 11
579.645215
 21
264.7843259999999
 31
0.0
  0
LINE
  5
E9ED
330
E6EB
100
AcDbEntity
  8
1
  6
Continuous
100
AcDbLine
 10
578.3452150000001
 20
258.8843259999998
 30
0.0
 11
579.645215
 21
258.8843259999998
 31
0.0
  0
LINE
  5
E9EE
330
E6EB
100
AcDbEntity
  8
4
  6
CENTER
100
AcDbLine
 10
571.8452150000001
 20
263.4843259999997
 30
0.0
 11
583.8452150000001
 21
263.4843259999997
 31
0.0
  0
LINE
  5
E9EF
330
E6EB
100
AcDbEntity
  8
1
  6
Continuous
100
AcDbLine
 10
577.987835
 20
261.174826
 30
0.0
 11
575.202595
 21
261.174826
 31
0.0
  0
LINE
  5
E9F0
330
E6EB
100
AcDbEntity
  8
1
  6
Continuous
100
AcDbLine
 10
577.987835
 20
258.8658259999998
 30
0.0
 11
575.202595
 21
258.8658259999998
 31
0.0
  0
ARC
  5
E9F1
330
E6EB
100
AcDbEntity
  8
1
  6
Continuous
100
AcDbCircle
 10
652.0960989999998
 20
275.4843259999999
 30
0.0
 40
0.75
100
AcDbArc
 50
0.0
 51
180.0
  0
LINE
  5
E9F2
330
E6EB
100
AcDbEntity
  8
1
  6
Continuous
100
AcDbLine
 10
647.185844
 20
280.8048339999999
 30
0.0
 11
648.5063529999997
 21
280.8048339999999
 31
0.0
  0
ARC
  5
E9F3
330
E6EB
100
AcDbEntity
  8
1
  6
Continuous
100
AcDbCircle
 10
656.827886
 20
276.4747069999998
 30
0.0
 40
10.98178699999998
100
AcDbArc
 50
166.759553
 51
203.222372
  0
ARC
  5
E9F4
330
E6EB
100
AcDbEntity
  8
1
  6
Continuous
100
AcDbCircle
 10
638.864312
 20
276.4747069999998
 30
0.0
 40
10.98178699999998
100
AcDbArc
 50
336.777628
 51
13.24043099999999
  0
LINE
  5
E9F5
330
E6EB
100
AcDbEntity
  8
1
  6
Continuous
100
AcDbLine
 10
644.346099
 20
271.6819069999999
 30
0.0
 11
645.8460989999998
 21
271.6819069999999
 31
0.0
  0
LINE
  5
E9F6
330
E6EB
100
AcDbEntity
  8
1
  6
Continuous
100
AcDbLine
 10
646.735827
 20
272.1445799999999
 30
0.0
 11
648.9563709999997
 21
272.1445799999999
 31
0.0
  0
LINE
  5
E9F7
330
E6EB
100
AcDbEntity
  8
1
  6
Continuous
100
AcDbLine
 10
644.346099
 20
269.2140529999999
 30
0.0
 11
645.8460989999998
 21
269.2140529999999
 31
0.0
  0
LINE
  5
E9F8
330
E6EB
100
AcDbEntity
  8
1
  6
Continuous
100
AcDbLine
 10
644.346099
 20
277.4843259999999
 30
0.0
 11
645.8460989999998
 21
277.4843259999999
 31
0.0
  0
LINE
  5
E9F9
330
E6EB
100
AcDbEntity
  8
1
  6
Continuous
100
AcDbLine
 10
645.8460989999998
 20
277.4843259999999
 30
0.0
 11
644.346099
 21
277.4843259999999
 31
0.0
  0
LINE
  5
E9FA
330
E6EB
100
AcDbEntity
  8
1
  6
Continuous
100
AcDbLine
 10
651.3460989999997
 20
277.4843259999999
 30
0.0
 11
649.8460989999998
 21
277.4843259999999
 31
0.0
  0
LINE
  5
E9FB
330
E6EB
100
AcDbEntity
  8
1
  6
Continuous
100
AcDbLine
 10
647.185844
 20
280.8048339999999
 30
0.0
 11
645.8460979999999
 21
278.4843259999997
 31
0.0
  0
LINE
  5
E9FC
330
E6EB
100
AcDbEntity
  8
1
  6
Continuous
100
AcDbLine
 10
648.5063529999997
 20
280.8048339999999
 30
0.0
 11
649.8460989999998
 21
278.4843259999997
 31
0.0
  0
LINE
  5
E9FD
330
E6EB
100
AcDbEntity
  8
1
  6
Continuous
100
AcDbLine
 10
603.6732889999998
 20
272.4843259999999
 30
0.0
 11
606.8732889999997
 21
272.4843259999999
 31
0.0
  0
LINE
  5
E9FE
330
E6EB
100
AcDbEntity
  8
1
  6
Continuous
100
AcDbLine
 10
598.234692
 20
272.4843259999999
 30
0.0
 11
599.834692
 21
272.4843259999999
 31
0.0
  0
LINE
  5
E9FF
330
E6EB
100
AcDbEntity
  8
1
  6
Continuous
100
AcDbLine
 10
574.8452150000002
 20
267.484826
 30
0.0
 11
575.202595
 21
268.1038259999999
 31
0.0
  0
ARC
  5
EA00
330
E6EB
100
AcDbEntity
  8
1
  6
Continuous
100
AcDbCircle
 10
576.890301
 20
266.948826
 30
0.0
 40
2.045087
100
AcDbArc
 50
154.3862009999998
 51
214.3862009999998
  0
LINE
  5
EA01
330
E6EB
100
AcDbEntity
  8
1
  6
Continuous
100
AcDbLine
 10
579.645215
 20
271.4843259999997
 30
0.0
 11
580.8452150000001
 21
271.4843259999997
 31
0.0
  0
LINE
  5
EA02
330
E6EB
100
AcDbEntity
  8
1
  6
Continuous
100
AcDbLine
 10
578.3452150000001
 20
267.484826
 30
0.0
 11
577.987835
 21
268.1038259999999
 31
0.0
  0
ARC
  5
EA03
330
E6EB
100
AcDbEntity
  8
1
  6
Continuous
100
AcDbCircle
 10
576.300128
 20
266.948826
 30
0.0
 40
2.045087
100
AcDbArc
 50
325.6137989999999
 51
25.61379899999999
  0
LINE
  5
EA04
330
E6EB
100
AcDbEntity
  8
1
  6
Continuous
100
AcDbLine
 10
578.3452150000001
 20
268.0843259999999
 30
0.0
 11
579.645215
 21
268.0843259999999
 31
0.0
  0
LINE
  5
EA05
330
E6EB
100
AcDbEntity
  8
1
  6
Continuous
100
AcDbLine
 10
577.987835
 20
268.1038259999999
 30
0.0
 11
575.202595
 21
268.1038259999999
 31
0.0
  0
LINE
  5
EA06
330
E6EB
100
AcDbEntity
  8
1
  6
Continuous
100
AcDbLine
 10
577.987835
 20
265.7938259999998
 30
0.0
 11
575.202595
 21
265.7938259999998
 31
0.0
  0
LINE
  5
EA07
330
E6EB
100
AcDbEntity
  8
1
  6
Continuous
100
AcDbLine
 10
173.0077679999999
 20
254.9843259999999
 30
0.0
 11
173.507768
 21
254.4843259999999
 31
0.0
  0
LINE
  5
EA08
330
E6EB
100
AcDbEntity
  8
1
  6
Continuous
100
AcDbLine
 10
173.507768
 20
279.4843259999999
 30
0.0
 11
173.507768
 21
246.4843259999999
 31
0.0
  0
LINE
  5
EA09
330
E6EB
100
AcDbEntity
  8
1
  6
Continuous
100
AcDbLine
 10
174.4704899999999
 20
277.942134
 30
0.0
 11
174.4704899999999
 21
246.4843259999999
 31
0.0
  0
LINE
  5
EA0A
330
E6EB
100
AcDbEntity
  8
1
  6
Continuous
100
AcDbLine
 10
174.978644
 20
277.942134
 30
0.0
 11
174.978644
 21
246.4843259999999
 31
0.0
  0
LINE
  5
EA0B
330
E6EB
100
AcDbEntity
  8
1
  6
Continuous
100
AcDbLine
 10
173.0077679999999
 20
249.984326
 30
0.0
 11
173.507768
 21
249.4843259999999
 31
0.0
  0
LINE
  5
EA0C
330
E6EB
100
AcDbEntity
  8
1
  6
Continuous
100
AcDbLine
 10
174.978644
 20
246.4843259999999
 30
0.0
 11
173.507768
 21
246.4843259999999
 31
0.0
  0
LINE
  5
EA0D
330
E6EB
100
AcDbEntity
  8
1
  6
Continuous
100
AcDbLine
 10
173.507768
 20
254.4843259999999
 30
0.0
 11
173.0077679999999
 21
253.984326
 31
0.0
  0
LINE
  5
EA0E
330
E6EB
100
AcDbEntity
  8
1
  6
Continuous
100
AcDbLine
 10
173.0077679999999
 20
253.984326
 30
0.0
 11
173.507768
 21
253.4843259999999
 31
0.0
  0
LINE
  5
EA0F
330
E6EB
100
AcDbEntity
  8
1
  6
Continuous
100
AcDbLine
 10
173.507768
 20
253.4843259999999
 30
0.0
 11
173.0077679999999
 21
252.9843259999999
 31
0.0
  0
LINE
  5
EA10
330
E6EB
100
AcDbEntity
  8
1
  6
Continuous
100
AcDbLine
 10
173.0077679999999
 20
252.9843259999999
 30
0.0
 11
173.507768
 21
252.4843259999999
 31
0.0
  0
LINE
  5
EA11
330
E6EB
100
AcDbEntity
  8
1
  6
Continuous
100
AcDbLine
 10
173.507768
 20
252.4843259999999
 30
0.0
 11
173.0077679999999
 21
251.984326
 31
0.0
  0
LINE
  5
EA12
330
E6EB
100
AcDbEntity
  8
1
  6
Continuous
100
AcDbLine
 10
173.0077679999999
 20
251.984326
 30
0.0
 11
173.507768
 21
251.4843259999999
 31
0.0
  0
LINE
  5
EA13
330
E6EB
100
AcDbEntity
  8
1
  6
Continuous
100
AcDbLine
 10
173.507768
 20
251.4843259999999
 30
0.0
 11
173.0077679999999
 21
250.9843259999999
 31
0.0
  0
LINE
  5
EA14
330
E6EB
100
AcDbEntity
  8
1
  6
Continuous
100
AcDbLine
 10
173.0077679999999
 20
250.9843259999999
 30
0.0
 11
173.507768
 21
250.4843259999999
 31
0.0
  0
LINE
  5
EA15
330
E6EB
100
AcDbEntity
  8
1
  6
Continuous
100
AcDbLine
 10
173.507768
 20
250.4843259999999
 30
0.0
 11
173.0077679999999
 21
249.984326
 31
0.0
  0
ARC
  5
EA16
330
E6EB
100
AcDbEntity
  8
1
  6
Continuous
100
AcDbCircle
 10
176.324295
 20
275.6334989999999
 30
0.0
 40
1.0
100
AcDbArc
 50
90.0
 51
180.0
  0
LINE
  5
EA17
330
E6EB
100
AcDbEntity
  8
1
  6
Continuous
100
AcDbLine
 10
173.507768
 20
260.4843259999999
 30
0.0
 11
173.0077679999999
 21
259.9843259999999
 31
0.0
  0
LINE
  5
EA18
330
E6EB
100
AcDbEntity
  8
1
  6
Continuous
100
AcDbLine
 10
173.0077679999999
 20
259.9843259999999
 30
0.0
 11
173.507768
 21
259.4843259999997
 31
0.0
  0
LINE
  5
EA19
330
E6EB
100
AcDbEntity
  8
1
  6
Continuous
100
AcDbLine
 10
173.507768
 20
259.4843259999997
 30
0.0
 11
173.0077679999999
 21
258.9843259999997
 31
0.0
  0
LINE
  5
EA1A
330
E6EB
100
AcDbEntity
  8
1
  6
Continuous
100
AcDbLine
 10
173.0077679999999
 20
258.9843259999997
 30
0.0
 11
173.507768
 21
258.4843259999999
 31
0.0
  0
LINE
  5
EA1B
330
E6EB
100
AcDbEntity
  8
1
  6
Continuous
100
AcDbLine
 10
173.507768
 20
258.4843259999999
 30
0.0
 11
173.0077679999999
 21
257.9843259999999
 31
0.0
  0
LINE
  5
EA1C
330
E6EB
100
AcDbEntity
  8
1
  6
Continuous
100
AcDbLine
 10
173.0077679999999
 20
257.9843259999999
 30
0.0
 11
173.507768
 21
257.4843259999997
 31
0.0
  0
LINE
  5
EA1D
330
E6EB
100
AcDbEntity
  8
1
  6
Continuous
100
AcDbLine
 10
173.507768
 20
257.4843259999997
 30
0.0
 11
173.0077679999999
 21
256.9843259999997
 31
0.0
  0
LINE
  5
EA1E
330
E6EB
100
AcDbEntity
  8
1
  6
Continuous
100
AcDbLine
 10
173.0077679999999
 20
256.9843259999997
 30
0.0
 11
173.507768
 21
256.4843259999999
 31
0.0
  0
LINE
  5
EA1F
330
E6EB
100
AcDbEntity
  8
1
  6
Continuous
100
AcDbLine
 10
173.507768
 20
256.4843259999999
 30
0.0
 11
173.0077679999999
 21
255.984326
 31
0.0
  0
LINE
  5
EA20
330
E6EB
100
AcDbEntity
  8
1
  6
Continuous
100
AcDbLine
 10
173.0077679999999
 20
255.984326
 30
0.0
 11
173.507768
 21
255.4843259999999
 31
0.0
  0
LINE
  5
EA21
330
E6EB
100
AcDbEntity
  8
1
  6
Continuous
100
AcDbLine
 10
173.507768
 20
255.4843259999999
 30
0.0
 11
173.0077679999999
 21
254.9843259999999
 31
0.0
  0
LINE
  5
EA22
330
E6EB
100
AcDbEntity
  8
1
  6
Continuous
100
AcDbLine
 10
173.507768
 20
261.4843259999997
 30
0.0
 11
173.0077679999999
 21
260.9843259999997
 31
0.0
  0
LINE
  5
EA23
330
E6EB
100
AcDbEntity
  8
1
  6
Continuous
100
AcDbLine
 10
173.0077679999999
 20
260.9843259999997
 30
0.0
 11
173.507768
 21
260.4843259999999
 31
0.0
  0
LINE
  5
EA24
330
E6EB
100
AcDbEntity
  8
1
  6
Continuous
100
AcDbLine
 10
174.507768
 20
280.4843259999996
 30
0.0
 11
185.2430359999999
 21
280.4843259999996
 31
0.0
  0
LINE
  5
EA25
330
E6EB
100
AcDbEntity
  8
1
  6
Continuous
100
AcDbLine
 10
174.4704899999999
 20
277.942134
 30
0.0
 11
173.976268
 21
279.6529599999999
 31
0.0
  0
LINE
  5
EA26
330
E6EB
100
AcDbEntity
  8
1
  6
Continuous
100
AcDbLine
 10
174.978644
 20
277.942134
 30
0.0
 11
175.467096
 21
276.8119459999999
 31
0.0
  0
LINE
  5
EA27
330
E6EB
100
AcDbEntity
  8
1
  6
Continuous
100
AcDbLine
 10
174.4704899999999
 20
277.942134
 30
0.0
 11
174.978644
 21
277.942134
 31
0.0
  0
ARC
  5
EA28
330
E6EB
100
AcDbEntity
  8
1
  6
Continuous
100
AcDbCircle
 10
174.507768
 20
279.4843259999999
 30
0.0
 40
1.0
100
AcDbArc
 50
90.0
 51
180.0
  0
LINE
  5
EA29
330
E6EB
100
AcDbEntity
  8
1
  6
Continuous
100
AcDbLine
 10
176.324295
 20
276.6334989999999
 30
0.0
 11
185.2430359999999
 21
276.6334989999999
 31
0.0
  0
ARC
  5
EA2A
330
E6EB
100
AcDbEntity
  8
1
  6
Continuous
100
AcDbCircle
 10
185.2430359999999
 20
270.4843259999999
 30
0.0
 40
6.149172
100
AcDbArc
 50
81.25383799999999
 51
90.0
  0
ARC
  5
EA2B
330
E6EB
100
AcDbEntity
  8
1
  6
Continuous
100
AcDbCircle
 10
185.2430359999999
 20
270.4843259999999
 30
0.0
 40
10.0
100
AcDbArc
 50
81.25383799999999
 51
90.0
  0
LINE
  5
EA2C
330
E6EB
100
AcDbEntity
  8
1
  6
Continuous
100
AcDbLine
 10
742.8892179999997
 20
165.3248659999999
 30
0.0
 11
748.1053000000001
 21
230.538297
 31
0.0
  0
ARC
  5
EA2D
330
E6EB
100
AcDbEntity
  8
1
  6
Continuous
100
AcDbCircle
 10
736.7420029999997
 20
172.999045
 30
0.0
 40
6.0
100
AcDbArc
 50
135.0
 51
180.0
  0
ARC
  5
EA2E
330
E6EB
100
AcDbEntity
  8
1
  6
Continuous
100
AcDbCircle
 10
737.7420029999997
 20
170.484326
 30
0.0
 40
7.0
100
AcDbArc
 50
180.0
 51
270.0
  0
LINE
  5
EA2F
330
E6EB
100
AcDbEntity
  8
1
  6
Continuous
100
AcDbLine
 10
740.8955849999999
 20
163.484326
 30
0.0
 11
737.7420029999997
 21
163.484326
 31
0.0
  0
ARC
  5
EA30
330
E6EB
100
AcDbEntity
  8
1
  6
Continuous
100
AcDbCircle
 10
740.8955849999999
 20
165.4843259999998
 30
0.0
 40
2.0
100
AcDbArc
 50
270.0
 51
355.426945
  0
LINE
  5
EA31
330
E6EB
100
AcDbEntity
  8
1
  6
Continuous
100
AcDbLine
 10
730.7420029999997
 20
172.999045
 30
0.0
 11
730.7420029999997
 21
170.484326
 31
0.0
  0
LINE
  5
EA32
330
E6EB
100
AcDbEntity
  8
1
  6
Continuous
100
AcDbLine
 10
747.771127
 20
277.942134
 30
0.0
 11
747.771127
 21
246.4843259999999
 31
0.0
  0
LINE
  5
EA33
330
E6EB
100
AcDbEntity
  8
1
  6
Continuous
100
AcDbLine
 10
748.2792809999997
 20
277.942134
 30
0.0
 11
748.2792809999997
 21
246.4843259999999
 31
0.0
  0
LINE
  5
EA34
330
E6EB
100
AcDbEntity
  8
1
  6
Continuous
100
AcDbLine
 10
749.2420029999997
 20
279.4843259999999
 30
0.0
 11
749.2420029999997
 21
246.4843259999999
 31
0.0
  0
LINE
  5
EA35
330
E6EB
100
AcDbEntity
  8
1
  6
Continuous
100
AcDbLine
 10
704.7420029999998
 20
287.4843259999999
 30
0.0
 11
704.7420029999998
 21
239.484326
 31
0.0
  0
LINE
  5
EA36
330
E6EB
100
AcDbEntity
  8
1
  6
Continuous
100
AcDbLine
 10
705.7420030000002
 20
287.4843259999999
 30
0.0
 11
705.7420030000002
 21
239.484326
 31
0.0
  0
LINE
  5
EA37
330
E6EB
100
AcDbEntity
  8
1
  6
Continuous
100
AcDbLine
 10
709.2420029999998
 20
285.4843259999999
 30
0.0
 11
709.2420029999998
 21
241.484326
 31
0.0
  0
LINE
  5
EA38
330
E6EB
100
AcDbEntity
  8
1
  6
Continuous
100
AcDbLine
 10
717.2420029999998
 20
249.4843259999999
 30
0.0
 11
717.2420029999998
 21
277.4843259999999
 31
0.0
  0
LINE
  5
EA39
330
E6EB
100
AcDbEntity
  8
1
  6
Continuous
100
AcDbLine
 10
717.1920029999999
 20
277.2906129999999
 30
0.0
 11
717.1920029999999
 21
249.678039
 31
0.0
  0
LINE
  5
EA3A
330
E6EB
100
AcDbEntity
  8
1
  6
Continuous
100
AcDbLine
 10
685.4420029999999
 20
268.646206
 30
0.0
 11
685.4420029999999
 21
258.322447
 31
0.0
  0
LINE
  5
EA3B
330
E6EB
100
AcDbEntity
  8
1
  6
Continuous
100
AcDbLine
 10
690.4420029999997
 20
256.684326
 30
0.0
 11
690.4420029999997
 21
270.2843259999997
 31
0.0
  0
LINE
  5
EA3C
330
E6EB
100
AcDbEntity
  8
2
  6
Continuous
100
AcDbLine
 10
685.742003
 20
263.4843259999997
 30
0.0
 11
690.4420029999997
 21
268.946206
 31
0.0
  0
LINE
  5
EA3D
330
E6EB
100
AcDbEntity
  8
2
  6
Continuous
100
AcDbLine
 10
685.742003
 20
268.946206
 30
0.0
 11
690.4420029999997
 21
263.4843259999997
 31
0.0
  0
LINE
  5
EA3E
330
E6EB
100
AcDbEntity
  8
1
  6
Continuous
100
AcDbLine
 10
690.6420030000001
 20
272.9843259999999
 30
0.0
 11
690.6420030000001
 21
253.984326
 31
0.0
  0
LINE
  5
EA3F
330
E6EB
100
AcDbEntity
  8
1
  6
Continuous
100
AcDbLine
 10
735.5303
 20
247.7425839999999
 30
0.0
 11
717.2420029999998
 21
249.4843259999999
 31
0.0
  0
LINE
  5
EA40
330
E6EB
100
AcDbEntity
  8
4
  6
CENTER
100
AcDbLine
 10
755.4928069999997
 20
263.4843259999997
 30
0.0
 11
681.9160920000001
 21
263.4843259999997
 31
0.0
  0
ARC
  5
EA41
330
E6EB
100
AcDbEntity
  8
1
  6
Continuous
100
AcDbCircle
 10
729.7420029999997
 20
246.1628339999998
 30
0.0
 40
6.0
100
AcDbArc
 50
0.0
 51
84.559668
  0
LINE
  5
EA42
330
E6EB
100
AcDbEntity
  8
1
  6
Continuous
100
AcDbLine
 10
735.7420029999997
 20
246.1628339999998
 30
0.0
 11
735.7420029999997
 21
182.9696079999999
 31
0.0
  0
LINE
  5
EA43
330
E6EB
100
AcDbEntity
  8
1
  6
Continuous
100
AcDbLine
 10
732.499362
 20
177.2416859999999
 30
0.0
 11
733.984643
 21
178.726967
 31
0.0
  0
ARC
  5
EA44
330
E6EB
100
AcDbEntity
  8
1
  6
Continuous
100
AcDbCircle
 10
729.7420029999997
 20
182.9696079999999
 30
0.0
 40
6.0
100
AcDbArc
 50
315.0
 51
0.0
  0
ARC
  5
EA45
330
E6EB
100
AcDbEntity
  8
1
  6
Continuous
100
AcDbCircle
 10
548.742003
 20
246.4843259999999
 30
0.0
 40
200.0
100
AcDbArc
 50
355.426945
 51
0.0
  0
LINE
  5
EA46
330
E6EB
100
AcDbEntity
  8
1
  6
Continuous
100
AcDbLine
 10
747.771127
 20
246.4843259999999
 30
0.0
 11
749.2420029999997
 21
246.4843259999999
 31
0.0
  0
LINE
  5
EA47
330
E6EB
100
AcDbEntity
  8
1
  6
Continuous
100
AcDbLine
 10
749.7420029999997
 20
260.9843259999997
 30
0.0
 11
749.2420029999997
 21
260.4843259999999
 31
0.0
  0
LINE
  5
EA48
330
E6EB
100
AcDbEntity
  8
1
  6
Continuous
100
AcDbLine
 10
749.2420029999997
 20
261.4843259999997
 30
0.0
 11
749.7420029999997
 21
260.9843259999997
 31
0.0
  0
LINE
  5
EA49
330
E6EB
100
AcDbEntity
  8
1
  6
Continuous
100
AcDbLine
 10
749.2420029999997
 20
255.4843259999999
 30
0.0
 11
749.7420029999997
 21
254.9843259999999
 31
0.0
  0
LINE
  5
EA4A
330
E6EB
100
AcDbEntity
  8
1
  6
Continuous
100
AcDbLine
 10
749.7420029999997
 20
255.984326
 30
0.0
 11
749.2420029999997
 21
255.4843259999999
 31
0.0
  0
LINE
  5
EA4B
330
E6EB
100
AcDbEntity
  8
1
  6
Continuous
100
AcDbLine
 10
749.2420029999997
 20
256.4843259999999
 30
0.0
 11
749.7420029999997
 21
255.984326
 31
0.0
  0
LINE
  5
EA4C
330
E6EB
100
AcDbEntity
  8
1
  6
Continuous
100
AcDbLine
 10
749.7420029999997
 20
256.9843259999997
 30
0.0
 11
749.2420029999997
 21
256.4843259999999
 31
0.0
  0
LINE
  5
EA4D
330
E6EB
100
AcDbEntity
  8
1
  6
Continuous
100
AcDbLine
 10
749.2420029999997
 20
257.4843259999997
 30
0.0
 11
749.7420029999997
 21
256.9843259999997
 31
0.0
  0
LINE
  5
EA4E
330
E6EB
100
AcDbEntity
  8
1
  6
Continuous
100
AcDbLine
 10
749.7420029999997
 20
257.9843259999999
 30
0.0
 11
749.2420029999997
 21
257.4843259999997
 31
0.0
  0
LINE
  5
EA4F
330
E6EB
100
AcDbEntity
  8
1
  6
Continuous
100
AcDbLine
 10
749.2420029999997
 20
258.4843259999999
 30
0.0
 11
749.7420029999997
 21
257.9843259999999
 31
0.0
  0
LINE
  5
EA50
330
E6EB
100
AcDbEntity
  8
1
  6
Continuous
100
AcDbLine
 10
749.7420029999997
 20
258.9843259999997
 30
0.0
 11
749.2420029999997
 21
258.4843259999999
 31
0.0
  0
LINE
  5
EA51
330
E6EB
100
AcDbEntity
  8
1
  6
Continuous
100
AcDbLine
 10
749.2420029999997
 20
259.4843259999997
 30
0.0
 11
749.7420029999997
 21
258.9843259999997
 31
0.0
  0
LINE
  5
EA52
330
E6EB
100
AcDbEntity
  8
1
  6
Continuous
100
AcDbLine
 10
749.7420029999997
 20
259.9843259999999
 30
0.0
 11
749.2420029999997
 21
259.4843259999997
 31
0.0
  0
LINE
  5
EA53
330
E6EB
100
AcDbEntity
  8
1
  6
Continuous
100
AcDbLine
 10
749.2420029999997
 20
260.4843259999999
 30
0.0
 11
749.7420029999997
 21
259.9843259999999
 31
0.0
  0
LINE
  5
EA54
330
E6EB
100
AcDbEntity
  8
1
  6
Continuous
100
AcDbLine
 10
749.2420029999997
 20
250.4843259999999
 30
0.0
 11
749.7420029999997
 21
249.984326
 31
0.0
  0
LINE
  5
EA55
330
E6EB
100
AcDbEntity
  8
1
  6
Continuous
100
AcDbLine
 10
749.7420029999997
 20
250.9843259999999
 30
0.0
 11
749.2420029999997
 21
250.4843259999999
 31
0.0
  0
LINE
  5
EA56
330
E6EB
100
AcDbEntity
  8
1
  6
Continuous
100
AcDbLine
 10
749.2420029999997
 20
251.4843259999999
 30
0.0
 11
749.7420029999997
 21
250.9843259999999
 31
0.0
  0
LINE
  5
EA57
330
E6EB
100
AcDbEntity
  8
1
  6
Continuous
100
AcDbLine
 10
749.7420029999997
 20
251.984326
 30
0.0
 11
749.2420029999997
 21
251.4843259999999
 31
0.0
  0
LINE
  5
EA58
330
E6EB
100
AcDbEntity
  8
1
  6
Continuous
100
AcDbLine
 10
749.2420029999997
 20
252.4843259999999
 30
0.0
 11
749.7420029999997
 21
251.984326
 31
0.0
  0
LINE
  5
EA59
330
E6EB
100
AcDbEntity
  8
1
  6
Continuous
100
AcDbLine
 10
749.7420029999997
 20
252.9843259999999
 30
0.0
 11
749.2420029999997
 21
252.4843259999999
 31
0.0
  0
LINE
  5
EA5A
330
E6EB
100
AcDbEntity
  8
1
  6
Continuous
100
AcDbLine
 10
749.2420029999997
 20
253.4843259999999
 30
0.0
 11
749.7420029999997
 21
252.9843259999999
 31
0.0
  0
LINE
  5
EA5B
330
E6EB
100
AcDbEntity
  8
1
  6
Continuous
100
AcDbLine
 10
749.7420029999997
 20
253.984326
 30
0.0
 11
749.2420029999997
 21
253.4843259999999
 31
0.0
  0
LINE
  5
EA5C
330
E6EB
100
AcDbEntity
  8
1
  6
Continuous
100
AcDbLine
 10
749.2420029999997
 20
254.4843259999999
 30
0.0
 11
749.7420029999997
 21
253.984326
 31
0.0
  0
LINE
  5
EA5D
330
E6EB
100
AcDbEntity
  8
1
  6
Continuous
100
AcDbLine
 10
749.7420029999997
 20
249.984326
 30
0.0
 11
749.2420029999997
 21
249.4843259999999
 31
0.0
  0
LINE
  5
EA5E
330
E6EB
100
AcDbEntity
  8
1
  6
Continuous
100
AcDbLine
 10
749.7420029999997
 20
254.9843259999999
 30
0.0
 11
749.2420029999997
 21
254.4843259999999
 31
0.0
  0
LINE
  5
EA5F
330
E6EB
100
AcDbEntity
  8
1
  6
Continuous
100
AcDbLine
 10
690.8920030000001
 20
253.7343259999999
 30
0.0
 11
704.7420029999998
 21
253.7343259999999
 31
0.0
  0
LINE
  5
EA60
330
E6EB
100
AcDbEntity
  8
1
  6
Continuous
100
AcDbLine
 10
717.062494
 20
249.342277
 30
0.0
 11
708.723967
 21
240.1412769999998
 31
0.0
  0
ARC
  5
EA61
330
E6EB
100
AcDbEntity
  8
1
  6
Continuous
100
AcDbCircle
 10
707.2420029999998
 20
241.484326
 30
0.0
 40
2.0
100
AcDbArc
 50
270.0
 51
317.644685
  0
ARC
  5
EA62
330
E6EB
100
AcDbEntity
  8
1
  6
Continuous
100
AcDbCircle
 10
707.2420029999998
 20
241.484326
 30
0.0
 40
2.0
100
AcDbArc
 50
317.644685
 51
0.0
  0
LINE
  5
EA63
330
E6EB
100
AcDbEntity
  8
1
  6
Continuous
100
AcDbLine
 10
704.7420029999998
 20
239.484326
 30
0.0
 11
705.7420030000002
 21
239.484326
 31
0.0
  0
LINE
  5
EA64
330
E6EB
100
AcDbEntity
  8
1
  6
Continuous
100
AcDbLine
 10
707.2420029999998
 20
239.484326
 30
0.0
 11
705.7420030000002
 21
239.484326
 31
0.0
  0
LINE
  5
EA65
330
E6EB
100
AcDbEntity
  8
1
  6
Continuous
100
AcDbLine
 10
717.1114929999996
 20
253.253462
 30
0.0
 11
713.5816779999997
 21
249.8186529999999
 31
0.0
  0
LINE
  5
EA66
330
E6EB
100
AcDbEntity
  8
1
  6
Continuous
100
AcDbLine
 10
730.310857
 20
252.135806
 30
0.0
 11
717.609728
 21
253.345438
 31
0.0
  0
LINE
  5
EA67
330
E6EB
100
AcDbEntity
  8
1
  6
Continuous
100
AcDbLine
 10
717.2420029999998
 20
254.4843259999999
 30
0.0
 11
717.1920029999999
 21
254.4843259999999
 31
0.0
  0
ARC
  5
EA68
330
E6EB
100
AcDbEntity
  8
1
  6
Continuous
100
AcDbCircle
 10
716.6920029999999
 20
249.678039
 30
0.0
 40
0.5
100
AcDbArc
 50
317.8151449999999
 51
0.0
  0
LINE
  5
EA69
330
E6EB
100
AcDbEntity
  8
1
  6
Continuous
100
AcDbLine
 10
712.936509
 20
249.1908489999999
 30
0.0
 11
710.2420030000001
 21
246.568867
 31
0.0
  0
LINE
  5
EA6A
330
E6EB
100
AcDbEntity
  8
1
  6
Continuous
100
AcDbLine
 10
703.2420029999998
 20
243.9843259999999
 30
0.0
 11
703.2420029999998
 21
248.4843259999999
 31
0.0
  0
LINE
  5
EA6B
330
E6EB
100
AcDbEntity
  8
1
  6
Continuous
100
AcDbLine
 10
703.2420029999998
 20
243.9843259999999
 30
0.0
 11
704.7420029999998
 21
243.9843259999999
 31
0.0
  0
LINE
  5
EA6C
330
E6EB
100
AcDbEntity
  8
1
  6
Continuous
100
AcDbLine
 10
703.2420029999998
 20
248.4843259999999
 30
0.0
 11
704.7420029999998
 21
248.4843259999999
 31
0.0
  0
ARC
  5
EA6D
330
E6EB
100
AcDbEntity
  8
1
  6
Continuous
100
AcDbCircle
 10
690.6420030000001
 20
256.684326
 30
0.0
 40
0.2
100
AcDbArc
 50
180.0
 51
270.0
  0
LINE
  5
EA6E
330
E6EB
100
AcDbEntity
  8
1
  6
Continuous
100
AcDbLine
 10
690.8920030000001
 20
253.7343259999999
 30
0.0
 11
690.6420030000001
 21
253.984326
 31
0.0
  0
ARC
  5
EA6F
330
E6EB
100
AcDbEntity
  8
1
  6
Continuous
100
AcDbCircle
 10
685.742003
 20
258.322447
 30
0.0
 40
0.3
100
AcDbArc
 50
180.0
 51
270.0
  0
LINE
  5
EA70
330
E6EB
100
AcDbEntity
  8
1
  6
Continuous
100
AcDbLine
 10
685.742003
 20
258.022447
 30
0.0
 11
690.4420029999997
 21
258.022447
 31
0.0
  0
LINE
  5
EA71
330
E6EB
100
AcDbEntity
  8
1
  6
Continuous
100
AcDbLine
 10
685.742003
 20
263.4843259999997
 30
0.0
 11
690.4420029999997
 21
263.4843259999997
 31
0.0
  0
LINE
  5
EA72
330
E6EB
100
AcDbEntity
  8
2
  6
Continuous
100
AcDbLine
 10
690.4420029999997
 20
263.4843259999997
 30
0.0
 11
685.742003
 21
258.022447
 31
0.0
  0
LINE
  5
EA73
330
E6EB
100
AcDbEntity
  8
2
  6
Continuous
100
AcDbLine
 10
690.4420029999997
 20
258.022447
 30
0.0
 11
685.742003
 21
263.4843259999997
 31
0.0
  0
LINE
  5
EA74
330
E6EB
100
AcDbEntity
  8
1
  6
Continuous
100
AcDbLine
 10
735.986163
 20
280.368043
 30
0.0
 11
717.2420029999998
 21
277.4843259999999
 31
0.0
  0
LINE
  5
EA75
330
E6EB
100
AcDbEntity
  8
1
  6
Continuous
100
AcDbLine
 10
736.5717089999996
 20
276.5619939999999
 30
0.0
 11
717.8275489999997
 21
273.678277
 31
0.0
  0
ARC
  5
EA76
330
E6EB
100
AcDbEntity
  8
1
  6
Continuous
100
AcDbCircle
 10
746.425476
 20
275.6334989999999
 30
0.0
 40
1.0
100
AcDbArc
 50
0.0
 51
90.0
  0
LINE
  5
EA77
330
E6EB
100
AcDbEntity
  8
1
  6
Continuous
100
AcDbLine
 10
748.2420029999997
 20
280.4843259999996
 30
0.0
 11
737.5067349999997
 21
280.4843259999996
 31
0.0
  0
ARC
  5
EA78
330
E6EB
100
AcDbEntity
  8
1
  6
Continuous
100
AcDbCircle
 10
748.2420029999997
 20
279.4843259999999
 30
0.0
 40
1.0
100
AcDbArc
 50
0.0
 51
90.0
  0
LINE
  5
EA79
330
E6EB
100
AcDbEntity
  8
1
  6
Continuous
100
AcDbLine
 10
748.2792809999997
 20
277.942134
 30
0.0
 11
747.771127
 21
277.942134
 31
0.0
  0
LINE
  5
EA7A
330
E6EB
100
AcDbEntity
  8
1
  6
Continuous
100
AcDbLine
 10
747.771127
 20
277.942134
 30
0.0
 11
747.282675
 21
276.8119459999999
 31
0.0
  0
LINE
  5
EA7B
330
E6EB
100
AcDbEntity
  8
1
  6
Continuous
100
AcDbLine
 10
748.2792809999997
 20
277.942134
 30
0.0
 11
748.773503
 21
279.6529599999999
 31
0.0
  0
ARC
  5
EA7C
330
E6EB
100
AcDbEntity
  8
1
  6
Continuous
100
AcDbCircle
 10
737.5067349999997
 20
270.4843259999999
 30
0.0
 40
10.0
100
AcDbArc
 50
90.0
 51
98.746162
  0
ARC
  5
EA7D
330
E6EB
100
AcDbEntity
  8
1
  6
Continuous
100
AcDbCircle
 10
737.5067349999997
 20
270.4843259999999
 30
0.0
 40
6.149172
100
AcDbArc
 50
90.0
 51
98.746162
  0
LINE
  5
EA7E
330
E6EB
100
AcDbEntity
  8
1
  6
Continuous
100
AcDbLine
 10
746.425476
 20
276.6334989999999
 30
0.0
 11
737.5067349999997
 21
276.6334989999999
 31
0.0
  0
LINE
  5
EA7F
330
E6EB
100
AcDbEntity
  8
1
  6
Continuous
100
AcDbLine
 10
690.8920030000001
 20
273.2343259999999
 30
0.0
 11
704.7420029999998
 21
273.2343259999999
 31
0.0
  0
ARC
  5
EA80
330
E6EB
100
AcDbEntity
  8
1
  6
Continuous
100
AcDbCircle
 10
707.2420029999998
 20
285.4843259999999
 30
0.0
 40
2.0
100
AcDbArc
 50
0.0
 51
42.35531499999999
  0
LINE
  5
EA81
330
E6EB
100
AcDbEntity
  8
1
  6
Continuous
100
AcDbLine
 10
708.723967
 20
286.8273759999999
 30
0.0
 11
717.062494
 21
277.6263759999998
 31
0.0
  0
LINE
  5
EA82
330
E6EB
100
AcDbEntity
  8
1
  6
Continuous
100
AcDbLine
 10
713.5816779999997
 20
277.1499989999999
 30
0.0
 11
717.1114929999996
 21
273.71519
 31
0.0
  0
LINE
  5
EA83
330
E6EB
100
AcDbEntity
  8
1
  6
Continuous
100
AcDbLine
 10
717.1920029999999
 20
274.9843259999999
 30
0.0
 11
717.2420029999998
 21
274.9843259999999
 31
0.0
  0
ARC
  5
EA84
330
E6EB
100
AcDbEntity
  8
1
  6
Continuous
100
AcDbCircle
 10
716.6920029999999
 20
277.2906129999999
 30
0.0
 40
0.5
100
AcDbArc
 50
0.0
 51
42.18485499999998
  0
LINE
  5
EA85
330
E6EB
100
AcDbEntity
  8
1
  6
Continuous
100
AcDbLine
 10
710.2420030000001
 20
280.399785
 30
0.0
 11
712.936509
 21
277.7778029999999
 31
0.0
  0
LINE
  5
EA86
330
E6EB
100
AcDbEntity
  8
1
  6
Continuous
100
AcDbLine
 10
703.2420029999998
 20
282.9843259999999
 30
0.0
 11
703.2420029999998
 21
278.4843259999997
 31
0.0
  0
LINE
  5
EA87
330
E6EB
100
AcDbEntity
  8
1
  6
Continuous
100
AcDbLine
 10
703.2420029999998
 20
282.9843259999999
 30
0.0
 11
704.7420029999998
 21
282.9843259999999
 31
0.0
  0
LINE
  5
EA88
330
E6EB
100
AcDbEntity
  8
1
  6
Continuous
100
AcDbLine
 10
703.2420029999998
 20
278.4843259999997
 30
0.0
 11
704.7420029999998
 21
278.4843259999997
 31
0.0
  0
ARC
  5
EA89
330
E6EB
100
AcDbEntity
  8
1
  6
Continuous
100
AcDbCircle
 10
707.2420029999998
 20
285.4843259999999
 30
0.0
 40
2.0
100
AcDbArc
 50
42.35531499999999
 51
90.0
  0
LINE
  5
EA8A
330
E6EB
100
AcDbEntity
  8
1
  6
Continuous
100
AcDbLine
 10
704.7420029999998
 20
287.4843259999999
 30
0.0
 11
705.7420030000002
 21
287.4843259999999
 31
0.0
  0
LINE
  5
EA8B
330
E6EB
100
AcDbEntity
  8
1
  6
Continuous
100
AcDbLine
 10
707.2420029999998
 20
287.4843259999999
 30
0.0
 11
705.7420030000002
 21
287.4843259999999
 31
0.0
  0
ARC
  5
EA8C
330
E6EB
100
AcDbEntity
  8
1
  6
Continuous
100
AcDbCircle
 10
690.6420030000001
 20
270.2843259999997
 30
0.0
 40
0.2
100
AcDbArc
 50
90.0
 51
180.0
  0
LINE
  5
EA8D
330
E6EB
100
AcDbEntity
  8
1
  6
Continuous
100
AcDbLine
 10
690.6420030000001
 20
272.9843259999999
 30
0.0
 11
690.8920030000001
 21
273.2343259999999
 31
0.0
  0
ARC
  5
EA8E
330
E6EB
100
AcDbEntity
  8
1
  6
Continuous
100
AcDbCircle
 10
685.742003
 20
268.646206
 30
0.0
 40
0.3
100
AcDbArc
 50
90.0
 51
180.0
  0
LINE
  5
EA8F
330
E6EB
100
AcDbEntity
  8
1
  6
Continuous
100
AcDbLine
 10
685.742003
 20
268.946206
 30
0.0
 11
690.4420029999997
 21
268.946206
 31
0.0
  0
ARC
  5
EA90
330
E6EB
100
AcDbEntity
  8
1
  6
Continuous
100
AcDbCircle
 10
40.338295
 20
246.9843259999999
 30
0.0
 40
0.5
100
AcDbArc
 50
180.0
 51
270.0
  0
ARC
  5
EA91
330
E6EB
100
AcDbEntity
  8
1
  6
Continuous
100
AcDbCircle
 10
60.838295
 20
246.9843259999999
 30
0.0
 40
0.5
100
AcDbArc
 50
270.0
 51
0.0
  0
ARC
  5
EA92
330
E6EB
100
AcDbEntity
  8
1
  6
Continuous
100
AcDbCircle
 10
460.2096429999998
 20
209.459579316306
 30
0.0
 40
0.5
100
AcDbArc
 50
270.0
 51
180.0
  0
ARC
  5
EA93
330
E6EB
100
AcDbEntity
  8
1
  6
Continuous
100
AcDbCircle
 10
459.2096429999998
 20
209.459579316306
 30
0.0
 40
0.5
100
AcDbArc
 50
89.99999999999998
 51
0.0
  0
ENDSEC
  0
SECTION
  2
OBJECTS
  0
DICTIONARY
  5
E6D9
330
0
100
AcDbDictionary
281
     1
  3
ACAD_CIP_PREVIOUS_PRODUCT_INFO
350
EAF9
  3
ACAD_COLOR
350
EADB
  3
ACAD_DETAILVIEWSTYLE
350
EAF4
  3
ACAD_GROUP
350
E6DA
  3
ACAD_LAYOUT
350
E6E6
  3
ACAD_MATERIAL
350
EAA9
  3
ACAD_MLEADERSTYLE
350
EAF0
  3
ACAD_MLINESTYLE
350
E6E3
  3
ACAD_PLOTSETTINGS
350
E6E5
  3
ACAD_PLOTSTYLENAME
350
EAA7
  3
ACAD_SCALELIST
350
EADE
  3
ACAD_SECTIONVIEWSTYLE
350
EAF2
  3
ACAD_TABLESTYLE
350
EADC
  3
ACAD_VISUALSTYLE
350
EAC2
  3
ACDB_RECOMPOSE_DATA
350
EB17
  3
AcDbVariableDictionary
350
EB0A
  3
DWGPROPS
350
EB18
  0
DICTIONARY
  5
EAFA
330
E6DD
100
AcDbDictionary
280
     1
281
     1
  3
ADSK_XREC_LAYER_RECONCILED
360
EAFB
  0
DICTIONARY
  5
EAFC
330
E6F3
100
AcDbDictionary
280
     1
281
     1
  3
ADSK_XREC_LAYER_RECONCILED
360
EAFD
  0
DICTIONARY
  5
EAFE
330
E6F4
100
AcDbDictionary
280
     1
281
     1
  3
ADSK_XREC_LAYER_RECONCILED
360
EAFF
  0
DICTIONARY
  5
EB00
330
E6F5
100
AcDbDictionary
280
     1
281
     1
  3
ADSK_XREC_LAYER_RECONCILED
360
EB01
  0
DICTIONARY
  5
EB02
330
E6F6
100
AcDbDictionary
280
     1
281
     1
  3
ADSK_XREC_LAYER_RECONCILED
360
EB03
  0
DICTIONARY
  5
EB04
330
E6F7
100
AcDbDictionary
280
     1
281
     1
  3
ADSK_XREC_LAYER_RECONCILED
360
EB05
  0
DICTIONARY
  5
EB06
330
E6F8
100
AcDbDictionary
280
     1
281
     1
  3
ADSK_XREC_LAYER_RECONCILED
360
EB07
  0
DICTIONARY
  5
EB08
330
E6F9
100
AcDbDictionary
280
     1
281
     1
  3
ADSK_XREC_LAYER_RECONCILED
360
EB09
  0
DICTIONARY
  5
EAA2
330
E6EB
100
AcDbDictionary
281
     1
  3
ACAD_LAYOUTSELFREF
350
EAA3
  0
DICTIONARY
  5
EAA0
330
E6E7
100
AcDbDictionary
281
     1
  3
ACAD_LAYOUTSELFREF
350
EAA1
  0
XRECORD
  5
EAF9
102
{ACAD_REACTORS
330
E6D9
102
}
330
E6D9
100
AcDbXrecord
280
     1
300
ACDLT
300
2014
300
ACDLT_F_S
  0
DICTIONARY
  5
EADB
102
{ACAD_REACTORS
330
E6D9
102
}
330
E6D9
100
AcDbDictionary
281
     1
  0
DICTIONARY
  5
EAF4
102
{ACAD_REACTORS
330
E6D9
102
}
330
E6D9
100
AcDbDictionary
281
     1
  3
Imperial24
350
EAF5
  0
DICTIONARY
  5
E6DA
102
{ACAD_REACTORS
330
E6D9
102
}
330
E6D9
100
AcDbDictionary
281
     1
  0
DICTIONARY
  5
E6E6
102
{ACAD_REACTORS
330
E6D9
102
}
330
E6D9
100
AcDbDictionary
281
     1
  3
Model
350
EAF6
  3
レイアウト1
350
EAF7
  0
DICTIONARY
  5
EAA9
102
{ACAD_REACTORS
330
E6D9
102
}
330
E6D9
100
AcDbDictionary
281
     1
  3
ByBlock
350
EAB2
  3
ByLayer
350
EAAA
  3
Global
350
EABA
  0
DICTIONARY
  5
EAF0
102
{ACAD_REACTORS
330
E6D9
102
}
330
E6D9
100
AcDbDictionary
281
     1
  3
Standard
350
EAF1
  0
DICTIONARY
  5
E6E3
102
{ACAD_REACTORS
330
E6D9
102
}
330
E6D9
100
AcDbDictionary
281
     1
  3
STANDARD
350
E6E4
  0
DICTIONARY
  5
E6E5
102
{ACAD_REACTORS
330
E6D9
102
}
330
E6D9
100
AcDbDictionary
281
     1
  0
ACDBDICTIONARYWDFLT
  5
EAA7
102
{ACAD_REACTORS
330
E6D9
102
}
330
E6D9
100
AcDbDictionary
281
     1
  3
Normal
350
EAA8
100
AcDbDictionaryWithDefault
340
EAA8
  0
DICTIONARY
  5
EADE
102
{ACAD_REACTORS
330
E6D9
102
}
330
E6D9
100
AcDbDictionary
281
     1
  3
A0
350
EADF
  3
A1
350
EAE0
  3
A2
350
EAE1
  3
A3
350
EAE2
  3
A4
350
EAE3
  3
A5
350
EAE4
  3
A6
350
EAE5
  3
A7
350
EAE6
  3
A8
350
EAE7
  3
A9
350
EAE8
  3
B0
350
EAE9
  3
B1
350
EAEA
  3
B2
350
EAEB
  3
B3
350
EAEC
  3
B4
350
EAED
  3
B5
350
EAEE
  3
B6
350
EAEF
  0
DICTIONARY
  5
EAF2
102
{ACAD_REACTORS
330
E6D9
102
}
330
E6D9
100
AcDbDictionary
281
     1
  3
Imperial24
350
EAF3
  0
DICTIONARY
  5
EADC
102
{ACAD_REACTORS
330
E6D9
102
}
330
E6D9
100
AcDbDictionary
281
     1
  3
Standard
350
EADD
  0
DICTIONARY
  5
EAC2
102
{ACAD_REACTORS
330
E6D9
102
}
330
E6D9
100
AcDbDictionary
281
     1
  3
2dWireframe
350
EAC8
  3
Basic
350
EAC7
  3
Brighten
350
EACE
  3
ColorChange
350
EAD2
  3
Conceptual
350
EACB
  3
Dim
350
EACD
  3
EdgeColorOff
350
EADA
  3
Facepattern
350
EAD1
  3
Flat
350
EAC3
  3
FlatWithEdges
350
EAC4
  3
Gouraud
350
EAC5
  3
GouraudWithEdges
350
EAC6
  3
Hidden
350
EACA
  3
JitterOff
350
EAD8
  3
Linepattern
350
EAD0
  3
OverhangOff
350
EAD9
  3
Realistic
350
EACC
  3
Shaded
350
EAD7
  3
Shaded with edges
350
EAD6
  3
Shades of Gray
350
EAD3
  3
Sketchy
350
EAD4
  3
Thicken
350
EACF
  3
Wireframe
350
EAC9
  3
X-Ray
350
EAD5
  0
XRECORD
  5
EB17
102
{ACAD_REACTORS
330
E6D9
102
}
330
E6D9
100
AcDbXrecord
280
     1
 90
        1
330
EADD
  0
DICTIONARY
  5
EB0A
102
{ACAD_REACTORS
330
E6D9
102
}
330
E6D9
100
AcDbDictionary
281
     1
  3
CANNOSCALE
350
EB0F
  3
CMLEADERSTYLE
350
EB0C
  3
CTABLESTYLE
350
EB0B
  3
CVIEWDETAILSTYLE
350
EB0D
  3
CVIEWSECTIONSTYLE
350
EB0E
  3
DIMASSOC
350
EB12
  3
INDEXCTL
350
EB11
  3
SORTENTS
350
EB10
  3
XCLIPFRAME
350
EB13
  0
XRECORD
  5
EB18
102
{ACAD_REACTORS
330
E6D9
102
}
330
E6D9
100
AcDbXrecord
280
     1
  1
DWGPROPS COOKIE
  2

  3

  4

  6

  7

  8
Yoshitsune
  9

300
=
301
=
302
=
303
=
304
=
305
=
306
=
307
=
308
=
309
=
 40
0.0098238657407407
 41
2451439.55973588
 42
2457192.641683415
  1

 90
        0
  0
XRECORD
  5
EAFB
102
{ACAD_REACTORS
330
EAFA
102
}
330
EAFA
100
AcDbXrecord
280
     1
290
     1
  0
XRECORD
  5
EAFD
102
{ACAD_REACTORS
330
EAFC
102
}
330
EAFC
100
AcDbXrecord
280
     1
290
     1
  0
XRECORD
  5
EAFF
102
{ACAD_REACTORS
330
EAFE
102
}
330
EAFE
100
AcDbXrecord
280
     1
290
     1
  0
XRECORD
  5
EB01
102
{ACAD_REACTORS
330
EB00
102
}
330
EB00
100
AcDbXrecord
280
     1
290
     1
  0
XRECORD
  5
EB03
102
{ACAD_REACTORS
330
EB02
102
}
330
EB02
100
AcDbXrecord
280
     1
290
     1
  0
XRECORD
  5
EB05
102
{ACAD_REACTORS
330
EB04
102
}
330
EB04
100
AcDbXrecord
280
     1
290
     1
  0
XRECORD
  5
EB07
102
{ACAD_REACTORS
330
EB06
102
}
330
EB06
100
AcDbXrecord
280
     1
290
     1
  0
XRECORD
  5
EB09
102
{ACAD_REACTORS
330
EB08
102
}
330
EB08
100
AcDbXrecord
280
     1
290
     1
  0
XRECORD
  5
EAA3
102
{ACAD_REACTORS
330
EAA2
102
}
330
EAA2
100
AcDbXrecord
280
     1
340
E6EB
  0
XRECORD
  5
EAA1
102
{ACAD_REACTORS
330
EAA0
102
}
330
EAA0
100
AcDbXrecord
280
     1
340
E6E7
  0
ACDBDETAILVIEWSTYLE
  5
EAF5
102
{ACAD_XDICTIONARY
360
EB50
102
}
102
{ACAD_REACTORS
330
EAF4
102
}
330
EAF4
100
AcDbModelDocViewStyle
 70
     0
  3
Imperial24
290
     0
100
AcDbDetailViewStyle
 70
     0
 71
     0
 90
        3
 71
     1
340
E6DE
 40
0.24
340
0
 40
0.24
300

 40
0.36
280
     3
 71
     2
340
E6E2
 90
       25
 71
     3
340
E6DE
 40
0.24
 90
        1
 40
0.75
 90
        1
300
%<\AcVar ViewType \f "%tc1">% %<\AcVar ViewDetailId>%\PSCALE %<\AcVar ViewScale \f "%sn">%
 71
     4
340
E6E2
 90
       25
340
E6E2
 90
       25
280
     0
  0
LAYOUT
  5
EAF6
102
{ACAD_XDICTIONARY
360
EB52
102
}
102
{ACAD_REACTORS
330
E6E6
102
}
330
E6E6
100
AcDbPlotSettings
  1

  2
Canon LBP9100C
  4

  6

 40
0.0
 41
0.0
 42
0.0
 43
0.0
 44
0.0
 45
0.0
 46
0.0
 47
0.0
 48
0.0
 49
0.0
140
0.0
141
0.0
142
1.0
143
1.0
 70
  1712
 72
     0
 73
     0
 74
     0
  7

 75
     0
147
1.0
148
0.0
149
0.0
100
AcDbLayout
  1
Model
 70
     1
 71
     0
 10
0.0
 20
0.0
 11
12.0
 21
9.0
 12
0.0
 22
0.0
 32
0.0
 14
0.0
 24
0.0
 34
0.0
 15
0.0
 25
0.0
 35
0.0
146
0.0
 13
0.0
 23
0.0
 33
0.0
 16
1.0
 26
0.0
 36
0.0
 17
0.0
 27
1.0
 37
0.0
 76
     0
330
E6EB
331
EA9F
  0
LAYOUT
  5
EAF7
102
{ACAD_XDICTIONARY
360
EB54
102
}
102
{ACAD_REACTORS
330
E6E6
102
}
330
E6E6
100
AcDbPlotSettings
  1

  2
Canon LBP9100C
  4

  6

 40
0.0
 41
0.0
 42
0.0
 43
0.0
 44
0.0
 45
0.0
 46
0.0
 47
0.0
 48
0.0
 49
0.0
140
0.0
141
0.0
142
1.0
143
1.0
 70
   688
 72
     0
 73
     0
 74
     5
  7

 75
    16
147
1.0
148
0.0
149
0.0
100
AcDbLayout
  1
レイアウト1
 70
     0
 71
     1
 10
0.0
 20
0.0
 11
420.0
 21
297.0
 12
0.0
 22
0.0
 32
0.0
 14
1.000000000000000E+20
 24
1.000000000000000E+20
 34
1.000000000000000E+20
 15
-1.000000000000000E+20
 25
-1.000000000000000E+20
 35
-1.000000000000000E+20
146
0.0
 13
0.0
 23
0.0
 33
0.0
 16
1.0
 26
0.0
 36
0.0
 17
0.0
 27
1.0
 37
0.0
 76
     0
330
E6E7
  0
MATERIAL
  5
EAB2
102
{ACAD_XDICTIONARY
360
EAB3
102
}
102
{ACAD_REACTORS
330
EAA9
102
}
330
EAA9
100
AcDbMaterial
  1
ByBlock
 72
     0
 43
0.0208333333333333
 43
0.0
 43
0.0
 43
0.0
 43
0.0
 43
0.0208333333333333
 43
0.0
 43
0.0
 43
0.0
 43
0.0
 43
1.0
 43
0.0
 43
0.0
 43
0.0
 43
0.0
 43
1.0
 77
     0
 47
0.0208333333333333
 47
0.0
 47
0.0
 47
0.0
 47
0.0
 47
0.0208333333333333
 47
0.0
 47
0.0
 47
0.0
 47
0.0
 47
1.0
 47
0.0
 47
0.0
 47
0.0
 47
0.0
 47
1.0
171
     0
 49
0.0208333333333333
 49
0.0
 49
0.0
 49
0.0
 49
0.0
 49
0.0208333333333333
 49
0.0
 49
0.0
 49
0.0
 49
0.0
 49
1.0
 49
0.0
 49
0.0
 49
0.0
 49
0.0
 49
1.0
175
     0
142
0.0208333333333333
142
0.0
142
0.0
142
0.0
142
0.0
142
0.0208333333333333
142
0.0
142
0.0
142
0.0
142
0.0
142
1.0
142
0.0
142
0.0
142
0.0
142
0.0
142
1.0
179
     0
144
0.0208333333333333
144
0.0
144
0.0
144
0.0
144
0.0
144
0.0208333333333333
144
0.0
144
0.0
144
0.0
144
0.0
144
1.0
144
0.0
144
0.0
144
0.0
144
0.0
144
1.0
147
0.0208333333333333
147
0.0
147
0.0
147
0.0
147
0.0
147
0.0208333333333333
147
0.0
147
0.0
147
0.0
147
0.0
147
1.0
147
0.0
147
0.0
147
0.0
147
0.0
147
1.0
  0
MATERIAL
  5
EAAA
102
{ACAD_XDICTIONARY
360
EAAB
102
}
102
{ACAD_REACTORS
330
EAA9
102
}
330
EAA9
100
AcDbMaterial
  1
ByLayer
 72
     0
 43
0.0208333333333333
 43
0.0
 43
0.0
 43
0.0
 43
0.0
 43
0.0208333333333333
 43
0.0
 43
0.0
 43
0.0
 43
0.0
 43
1.0
 43
0.0
 43
0.0
 43
0.0
 43
0.0
 43
1.0
 77
     0
 47
0.0208333333333333
 47
0.0
 47
0.0
 47
0.0
 47
0.0
 47
0.0208333333333333
 47
0.0
 47
0.0
 47
0.0
 47
0.0
 47
1.0
 47
0.0
 47
0.0
 47
0.0
 47
0.0
 47
1.0
171
     0
 49
0.0208333333333333
 49
0.0
 49
0.0
 49
0.0
 49
0.0
 49
0.0208333333333333
 49
0.0
 49
0.0
 49
0.0
 49
0.0
 49
1.0
 49
0.0
 49
0.0
 49
0.0
 49
0.0
 49
1.0
175
     0
142
0.0208333333333333
142
0.0
142
0.0
142
0.0
142
0.0
142
0.0208333333333333
142
0.0
142
0.0
142
0.0
142
0.0
142
1.0
142
0.0
142
0.0
142
0.0
142
0.0
142
1.0
179
     0
144
0.0208333333333333
144
0.0
144
0.0
144
0.0
144
0.0
144
0.0208333333333333
144
0.0
144
0.0
144
0.0
144
0.0
144
1.0
144
0.0
144
0.0
144
0.0
144
0.0
144
1.0
147
0.0208333333333333
147
0.0
147
0.0
147
0.0
147
0.0
147
0.0208333333333333
147
0.0
147
0.0
147
0.0
147
0.0
147
1.0
147
0.0
147
0.0
147
0.0
147
0.0
147
1.0
  0
MATERIAL
  5
EABA
102
{ACAD_XDICTIONARY
360
EABB
102
}
102
{ACAD_REACTORS
330
EAA9
102
}
330
EAA9
100
AcDbMaterial
  1
Global
 72
     0
 43
0.0208333333333333
 43
0.0
 43
0.0
 43
0.0
 43
0.0
 43
0.0208333333333333
 43
0.0
 43
0.0
 43
0.0
 43
0.0
 43
1.0
 43
0.0
 43
0.0
 43
0.0
 43
0.0
 43
1.0
 77
     0
 47
0.0208333333333333
 47
0.0
 47
0.0
 47
0.0
 47
0.0
 47
0.0208333333333333
 47
0.0
 47
0.0
 47
0.0
 47
0.0
 47
1.0
 47
0.0
 47
0.0
 47
0.0
 47
0.0
 47
1.0
171
     0
 49
0.0208333333333333
 49
0.0
 49
0.0
 49
0.0
 49
0.0
 49
0.0208333333333333
 49
0.0
 49
0.0
 49
0.0
 49
0.0
 49
1.0
 49
0.0
 49
0.0
 49
0.0
 49
0.0
 49
1.0
175
     0
142
0.0208333333333333
142
0.0
142
0.0
142
0.0
142
0.0
142
0.0208333333333333
142
0.0
142
0.0
142
0.0
142
0.0
142
1.0
142
0.0
142
0.0
142
0.0
142
0.0
142
1.0
179
     0
144
0.0208333333333333
144
0.0
144
0.0
144
0.0
144
0.0
144
0.0208333333333333
144
0.0
144
0.0
144
0.0
144
0.0
144
1.0
144
0.0
144
0.0
144
0.0
144
0.0
144
1.0
147
0.0208333333333333
147
0.0
147
0.0
147
0.0
147
0.0
147
0.0208333333333333
147
0.0
147
0.0
147
0.0
147
0.0
147
1.0
147
0.0
147
0.0
147
0.0
147
0.0
147
1.0
  0
MLEADERSTYLE
  5
EAF1
102
{ACAD_REACTORS
330
EAF0
102
}
330
EAF0
100
AcDbMLeaderStyle
170
     2
171
     1
172
     0
 90
        2
 40
0.0
 41
0.0
173
     1
 91
-1056964608
340
E6E0
 92
       -2
290
     1
 42
0.09
291
     1
 43
0.36
  3
Standard
 44
0.18
300

342
E6DE
174
     1
178
     6
175
     1
176
     0
 93
-1056964608
 45
0.18
292
     0
297
     0
 46
0.18
 94
-1056964608
 47
1.0
 49
1.0
140
1.0
293
     1
141
0.0
294
     1
177
     0
142
1.0
295
     0
296
     0
143
0.125
1001
ACAD_MLEADERVER
1070
     2
  0
MLINESTYLE
  5
E6E4
102
{ACAD_REACTORS
330
E6E3
102
}
330
E6E3
100
AcDbMlineStyle
  2
STANDARD
 70
     0
  3

 62
   256
 51
90.0
 52
90.0
 71
     2
 49
0.5
 62
   256
  6
BYLAYER
 49
-0.5
 62
   256
  6
BYLAYER
  0
ACDBPLACEHOLDER
  5
EAA8
102
{ACAD_REACTORS
330
EAA7
102
}
330
EAA7
  0
SCALE
  5
EADF
102
{ACAD_REACTORS
330
EADE
102
}
330
EADE
100
AcDbScale
 70
     0
300
1:1
140
1.0
141
1.0
290
     1
  0
SCALE
  5
EAE0
102
{ACAD_REACTORS
330
EADE
102
}
330
EADE
100
AcDbScale
 70
     0
300
1/128" = 1'-0"
140
0.0078125
141
12.0
290
     0
  0
SCALE
  5
EAE1
102
{ACAD_REACTORS
330
EADE
102
}
330
EADE
100
AcDbScale
 70
     0
300
1/64" = 1'-0"
140
0.015625
141
12.0
290
     0
  0
SCALE
  5
EAE2
102
{ACAD_REACTORS
330
EADE
102
}
330
EADE
100
AcDbScale
 70
     0
300
1/32" = 1'-0"
140
0.03125
141
12.0
290
     0
  0
SCALE
  5
EAE3
102
{ACAD_REACTORS
330
EADE
102
}
330
EADE
100
AcDbScale
 70
     0
300
1/16" = 1'-0"
140
0.0625
141
12.0
290
     0
  0
SCALE
  5
EAE4
102
{ACAD_REACTORS
330
EADE
102
}
330
EADE
100
AcDbScale
 70
     0
300
3/32" = 1'-0"
140
0.09375
141
12.0
290
     0
  0
SCALE
  5
EAE5
102
{ACAD_REACTORS
330
EADE
102
}
330
EADE
100
AcDbScale
 70
     0
300
1/8" = 1'-0"
140
0.125
141
12.0
290
     0
  0
SCALE
  5
EAE6
102
{ACAD_REACTORS
330
EADE
102
}
330
EADE
100
AcDbScale
 70
     0
300
3/16" = 1'-0"
140
0.1875
141
12.0
290
     0
  0
SCALE
  5
EAE7
102
{ACAD_REACTORS
330
EADE
102
}
330
EADE
100
AcDbScale
 70
     0
300
1/4" = 1'-0"
140
0.25
141
12.0
290
     0
  0
SCALE
  5
EAE8
102
{ACAD_REACTORS
330
EADE
102
}
330
EADE
100
AcDbScale
 70
     0
300
3/8" = 1'-0"
140
0.375
141
12.0
290
     0
  0
SCALE
  5
EAE9
102
{ACAD_REACTORS
330
EADE
102
}
330
EADE
100
AcDbScale
 70
     0
300
1/2" = 1'-0"
140
0.5
141
12.0
290
     0
  0
SCALE
  5
EAEA
102
{ACAD_REACTORS
330
EADE
102
}
330
EADE
100
AcDbScale
 70
     0
300
3/4" = 1'-0"
140
0.75
141
12.0
290
     0
  0
SCALE
  5
EAEB
102
{ACAD_REACTORS
330
EADE
102
}
330
EADE
100
AcDbScale
 70
     0
300
1" = 1'-0"
140
1.0
141
12.0
290
     0
  0
SCALE
  5
EAEC
102
{ACAD_REACTORS
330
EADE
102
}
330
EADE
100
AcDbScale
 70
     0
300
1-1/2" = 1'-0"
140
1.5
141
12.0
290
     0
  0
SCALE
  5
EAED
102
{ACAD_REACTORS
330
EADE
102
}
330
EADE
100
AcDbScale
 70
     0
300
3" = 1'-0"
140
3.0
141
12.0
290
     0
  0
SCALE
  5
EAEE
102
{ACAD_REACTORS
330
EADE
102
}
330
EADE
100
AcDbScale
 70
     0
300
6" = 1'-0"
140
6.0
141
12.0
290
     0
  0
SCALE
  5
EAEF
102
{ACAD_REACTORS
330
EADE
102
}
330
EADE
100
AcDbScale
 70
     0
300
1'-0" = 1'-0"
140
12.0
141
12.0
290
     0
  0
ACDBSECTIONVIEWSTYLE
  5
EAF3
102
{ACAD_XDICTIONARY
360
EB4E
102
}
102
{ACAD_REACTORS
330
EAF2
102
}
330
EAF2
100
AcDbModelDocViewStyle
 70
     0
  3
Imperial24
290
     0
100
AcDbSectionViewStyle
 70
     0
 71
     0
 90
       78
 71
     1
340
E6DE
 40
0.24
340
0
340
0
 40
0.24
300
I, O, Q, S, X, Z
 40
0.48
 90
        3
 40
0.18
 90
        1
 71
     2
340
E6E2
 90
       25
340
E6E2
 90
       50
 40
0.24
 40
0.0
 40
0.24
 71
     3
340
E6DE
 40
0.24
 90
        1
 40
0.75
 90
        1
300
%<\AcVar ViewType \f "%tc1">% %<\AcVar ViewSectionStartId>%-%<\AcVar ViewSectionEndId>%\PSCALE %<\AcVar ViewScale \f "%sn">%
 71
     4
300
ANSI31
 40
1.0
 90
        0
290
     0
290
     0
 90
        6
 40
0.0
 40
1.570796326794896
 40
0.2617993877991494
 40
1.308996938995747
 40
-0.2617993877991494
 40
1.832595714594046
  0
TABLESTYLE
  5
EADD
102
{ACAD_XDICTIONARY
360
EB15
102
}
102
{ACAD_REACTORS
330
EADC
102
}
330
EADC
100
AcDbTableStyle
  3
Standard
 70
     0
 71
     0
 40
0.06
 41
0.06
280
     0
281
     0
  7
STANDARD
140
0.18
170
     2
 62
     0
 63
     7
283
     0
274
    -2
284
     1
 64
     0
275
    -2
285
     1
 65
     0
276
    -2
286
     1
 66
     0
277
    -2
287
     1
 67
     0
278
    -2
288
     1
 68
     0
279
    -2
289
     1
 69
     0
  7
STANDARD
140
0.25
170
     5
 62
     0
 63
     7
283
     0
274
    -2
284
     1
 64
     0
275
    -2
285
     1
 65
     0
276
    -2
286
     1
 66
     0
277
    -2
287
     1
 67
     0
278
    -2
288
     1
 68
     0
279
    -2
289
     1
 69
     0
  7
STANDARD
140
0.18
170
     5
 62
     0
 63
     7
283
     0
274
    -2
284
     1
 64
     0
275
    -2
285
     1
 65
     0
276
    -2
286
     1
 66
     0
277
    -2
287
     1
 67
     0
278
    -2
288
     1
 68
     0
279
    -2
289
     1
 69
     0
  0
VISUALSTYLE
  5
EAC8
102
{ACAD_XDICTIONARY
360
EB26
102
}
102
{ACAD_REACTORS
330
EAC2
102
}
330
EAC2
100
AcDbVisualStyle
  2
2dWireframe
 70
     4
 71
     0
 72
     2
 73
     0
 90
        0
 40
-0.6
 41
-30.0
 62
     5
 63
     7
 74
     1
 91
        4
 64
     7
 65
   257
 75
     1
175
     1
 42
1.0
 92
        0
 66
   257
 43
1.0
 76
     1
 77
     6
 78
     2
 67
     7
 79
     5
170
     0
171
     0
290
     0
174
     0
 93
        1
 44
0.0
173
     0
291
     0
 45
0.0
1001
ACAD
1000
AcDbSavedByObjectVersion
1070
     0
  0
VISUALSTYLE
  5
EAC7
102
{ACAD_XDICTIONARY
360
EB24
102
}
102
{ACAD_REACTORS
330
EAC2
102
}
330
EAC2
100
AcDbVisualStyle
  2
Basic
 70
     7
 71
     1
 72
     0
 73
     1
 90
        0
 40
-0.6
 41
-30.0
 62
     5
 63
     7
 74
     0
 91
        4
 64
     7
 65
   257
 75
     1
175
     1
 42
1.0
 92
        8
 66
     7
 43
1.0
 76
     1
 77
     6
 78
     2
 67
     7
 79
     5
170
     0
171
     0
290
     0
174
     0
 93
        1
 44
0.0
173
     0
291
     1
 45
0.0
1001
ACAD
1000
AcDbSavedByObjectVersion
1070
     0
  0
VISUALSTYLE
  5
EACE
102
{ACAD_XDICTIONARY
360
EB32
102
}
102
{ACAD_REACTORS
330
EAC2
102
}
330
EAC2
100
AcDbVisualStyle
  2
Brighten
 70
    12
 71
     2
 72
     2
 73
     0
 90
        0
 40
-0.6
 41
-30.0
 62
     5
 63
     7
 74
     1
 91
        4
 64
     7
 65
   257
 75
     1
175
     1
 42
1.0
 92
        8
 66
     7
 43
1.0
 76
     1
 77
     6
 78
     2
 67
     7
 79
     5
170
     0
171
     0
290
     0
174
     0
 93
        1
 44
50.0
173
     0
291
     1
 45
0.0
1001
ACAD
1000
AcDbSavedByObjectVersion
1070
     0
  0
VISUALSTYLE
  5
EAD2
102
{ACAD_XDICTIONARY
360
EB3A
102
}
102
{ACAD_REACTORS
330
EAC2
102
}
330
EAC2
100
AcDbVisualStyle
  2
ColorChange
 70
    16
 71
     2
 72
     2
 73
     3
 90
        0
 40
-0.6
 41
-30.0
 62
     5
 63
     8
 74
     1
 91
        4
 64
     7
 65
   257
 75
     1
175
     1
 42
1.0
 92
        8
 66
     8
 43
1.0
 76
     1
 77
     6
 78
     2
 67
     7
 79
     5
170
     0
171
     0
290
     0
174
     0
 93
        1
 44
0.0
173
     0
291
     1
 45
0.0
1001
ACAD
1000
AcDbSavedByObjectVersion
1070
     0
  0
VISUALSTYLE
  5
EACB
102
{ACAD_XDICTIONARY
360
EB2C
102
}
102
{ACAD_REACTORS
330
EAC2
102
}
330
EAC2
100
AcDbVisualStyle
  2
Conceptual
 70
     9
 71
     3
 72
     2
 73
     0
 90
        0
 40
-0.6
 41
-30.0
 62
     5
 63
     7
 74
     2
 91
        2
 64
     7
 65
   257
 75
     1
175
     1
 42
179.0
 92
        8
 66
     7
 43
1.0
 76
     1
 77
     6
 78
     2
 67
     7
 79
     3
170
     0
171
     0
290
     0
174
     0
 93
        1
 44
0.0
173
     0
291
     0
 45
0.0
1001
ACAD
1000
AcDbSavedByObjectVersion
1070
     0
  0
VISUALSTYLE
  5
EACD
102
{ACAD_XDICTIONARY
360
EB30
102
}
102
{ACAD_REACTORS
330
EAC2
102
}
330
EAC2
100
AcDbVisualStyle
  2
Dim
 70
    11
 71
     2
 72
     2
 73
     0
 90
        0
 40
-0.6
 41
-30.0
 62
     5
 63
     7
 74
     1
 91
        4
 64
     7
 65
   257
 75
     1
175
     1
 42
1.0
 92
        8
 66
     7
 43
1.0
 76
     1
 77
     6
 78
     2
 67
     7
 79
     5
170
     0
171
     0
290
     0
174
     0
 93
        1
 44
-50.0
173
     0
291
     1
 45
0.0
1001
ACAD
1000
AcDbSavedByObjectVersion
1070
     0
  0
VISUALSTYLE
  5
EADA
102
{ACAD_XDICTIONARY
360
EB4A
102
}
102
{ACAD_REACTORS
330
EAC2
102
}
330
EAC2
100
AcDbVisualStyle
  2
EdgeColorOff
 70
    22
 71
     2
 72
     2
 73
     0
 90
        0
 40
-0.6
 41
-30.0
 62
     5
 63
     7
 74
     1
 91
        4
 64
     7
 65
   257
 75
     1
175
     1
 42
1.0
 92
        8
 66
     7
 43
1.0
 76
     1
 77
     6
 78
     2
 67
     7
 79
     5
170
     0
171
     0
290
     0
174
     0
 93
        1
 44
0.0
173
     0
291
     1
 45
0.0
1001
ACAD
1000
AcDbSavedByObjectVersion
1070
     0
  0
VISUALSTYLE
  5
EAD1
102
{ACAD_XDICTIONARY
360
EB38
102
}
102
{ACAD_REACTORS
330
EAC2
102
}
330
EAC2
100
AcDbVisualStyle
  2
Facepattern
 70
    15
 71
     2
 72
     2
 73
     0
 90
        0
 40
-0.6
 41
-30.0
 62
     5
 63
     7
 74
     1
 91
        4
 64
     7
 65
   257
 75
     1
175
     1
 42
1.0
 92
        8
 66
     7
 43
1.0
 76
     1
 77
     6
 78
     2
 67
     7
 79
     5
170
     0
171
     0
290
     0
174
     0
 93
        1
 44
0.0
173
     0
291
     1
 45
0.0
1001
ACAD
1000
AcDbSavedByObjectVersion
1070
     0
  0
VISUALSTYLE
  5
EAC3
102
{ACAD_XDICTIONARY
360
EB1C
102
}
102
{ACAD_REACTORS
330
EAC2
102
}
330
EAC2
100
AcDbVisualStyle
  2
Flat
 70
     0
 71
     2
 72
     1
 73
     1
 90
        2
 40
-0.6
 41
30.0
 62
     5
 63
     7
 74
     0
 91
        0
 64
     7
 65
   257
 75
     1
175
     1
 42
1.0
 92
        8
 66
     7
 43
1.0
 76
     1
 77
     6
 78
     2
 67
     7
 79
     5
170
     0
171
     0
290
     0
174
     0
 93
       13
 44
0.0
173
     0
291
     1
 45
0.0
1001
ACAD
1000
AcDbSavedByObjectVersion
1070
     0
  0
VISUALSTYLE
  5
EAC4
102
{ACAD_XDICTIONARY
360
EB1E
102
}
102
{ACAD_REACTORS
330
EAC2
102
}
330
EAC2
100
AcDbVisualStyle
  2
FlatWithEdges
 70
     1
 71
     2
 72
     1
 73
     1
 90
        2
 40
-0.6
 41
30.0
 62
     5
 63
     7
 74
     1
 91
        0
 64
     7
 65
   257
 75
     1
175
     1
 42
1.0
 92
        0
 66
   257
 43
1.0
 76
     1
 77
     6
 78
     2
 67
     7
 79
     5
170
     0
171
     0
290
     0
174
     0
 93
       13
 44
0.0
173
     0
291
     1
 45
0.0
1001
ACAD
1000
AcDbSavedByObjectVersion
1070
     0
  0
VISUALSTYLE
  5
EAC5
102
{ACAD_XDICTIONARY
360
EB20
102
}
102
{ACAD_REACTORS
330
EAC2
102
}
330
EAC2
100
AcDbVisualStyle
  2
Gouraud
 70
     2
 71
     2
 72
     2
 73
     1
 90
        2
 40
-0.6
 41
30.0
 62
     5
 63
     7
 74
     0
 91
        0
 64
     7
 65
   257
 75
     1
175
     1
 42
1.0
 92
        0
 66
     7
 43
1.0
 76
     1
 77
     6
 78
     2
 67
     7
 79
     5
170
     0
171
     0
290
     0
174
     0
 93
       13
 44
0.0
173
     0
291
     1
 45
0.0
1001
ACAD
1000
AcDbSavedByObjectVersion
1070
     0
  0
VISUALSTYLE
  5
EAC6
102
{ACAD_XDICTIONARY
360
EB22
102
}
102
{ACAD_REACTORS
330
EAC2
102
}
330
EAC2
100
AcDbVisualStyle
  2
GouraudWithEdges
 70
     3
 71
     2
 72
     2
 73
     1
 90
        2
 40
-0.6
 41
30.0
 62
     5
 63
     7
 74
     1
 91
        0
 64
     7
 65
   257
 75
     1
175
     1
 42
1.0
 92
        0
 66
   257
 43
1.0
 76
     1
 77
     6
 78
     2
 67
     7
 79
     5
170
     0
171
     0
290
     0
174
     0
 93
       13
 44
0.0
173
     0
291
     1
 45
0.0
1001
ACAD
1000
AcDbSavedByObjectVersion
1070
     0
  0
VISUALSTYLE
  5
EACA
102
{ACAD_XDICTIONARY
360
EB2A
102
}
102
{ACAD_REACTORS
330
EAC2
102
}
330
EAC2
100
AcDbVisualStyle
  2
Hidden
 70
     6
 71
     1
 72
     2
 73
     2
 90
        0
 40
-0.6
 41
-30.0
 62
     5
 63
     7
 74
     2
 91
        2
 64
     7
 65
   257
 75
     2
175
     1
 42
40.0
 92
        0
 66
   257
 43
1.0
 76
     1
 77
     6
 78
     2
 67
     7
 79
     3
170
     0
171
     0
290
     0
174
     0
 93
        1
 44
0.0
173
     0
291
     0
 45
0.0
1001
ACAD
1000
AcDbSavedByObjectVersion
1070
     0
  0
VISUALSTYLE
  5
EAD8
102
{ACAD_XDICTIONARY
360
EB46
102
}
102
{ACAD_REACTORS
330
EAC2
102
}
330
EAC2
100
AcDbVisualStyle
  2
JitterOff
 70
    20
 71
     2
 72
     2
 73
     0
 90
        0
 40
-0.6
 41
-30.0
 62
     5
 63
     7
 74
     1
 91
        4
 64
     7
 65
   257
 75
     1
175
     1
 42
1.0
 92
       10
 66
     7
 43
1.0
 76
     1
 77
     6
 78
     2
 67
     7
 79
     5
170
     0
171
     0
290
     0
174
     0
 93
        1
 44
0.0
173
     0
291
     1
 45
0.0
1001
ACAD
1000
AcDbSavedByObjectVersion
1070
     0
  0
VISUALSTYLE
  5
EAD0
102
{ACAD_XDICTIONARY
360
EB36
102
}
102
{ACAD_REACTORS
330
EAC2
102
}
330
EAC2
100
AcDbVisualStyle
  2
Linepattern
 70
    14
 71
     2
 72
     2
 73
     0
 90
        0
 40
-0.6
 41
-30.0
 62
     5
 63
     7
 74
     1
 91
        4
 64
     7
 65
   257
 75
     7
175
     7
 42
1.0
 92
        8
 66
     7
 43
1.0
 76
     1
 77
     6
 78
     2
 67
     7
 79
     5
170
     0
171
     0
290
     0
174
     0
 93
        1
 44
0.0
173
     0
291
     1
 45
0.0
1001
ACAD
1000
AcDbSavedByObjectVersion
1070
     0
  0
VISUALSTYLE
  5
EAD9
102
{ACAD_XDICTIONARY
360
EB48
102
}
102
{ACAD_REACTORS
330
EAC2
102
}
330
EAC2
100
AcDbVisualStyle
  2
OverhangOff
 70
    21
 71
     2
 72
     2
 73
     0
 90
        0
 40
-0.6
 41
-30.0
 62
     5
 63
     7
 74
     1
 91
        4
 64
     7
 65
   257
 75
     1
175
     1
 42
1.0
 92
        9
 66
     7
 43
1.0
 76
     1
 77
     6
 78
     2
 67
     7
 79
     5
170
     0
171
     0
290
     0
174
     0
 93
        1
 44
0.0
173
     0
291
     1
 45
0.0
1001
ACAD
1000
AcDbSavedByObjectVersion
1070
     0
  0
VISUALSTYLE
  5
EACC
102
{ACAD_XDICTIONARY
360
EB2E
102
}
102
{ACAD_REACTORS
330
EAC2
102
}
330
EAC2
100
AcDbVisualStyle
  2
Realistic
 70
     8
 71
     2
 72
     3
 73
     0
 90
        2
 40
-0.6
 41
30.0
 62
     5
 63
     7
 74
     0
 91
        0
 64
     7
 65
   257
 75
     1
175
     1
 42
1.0
 92
        8
 66
   257
 43
1.0
 76
     1
 77
     6
 78
     2
 67
     7
 79
     3
170
     0
171
     0
290
     0
174
     0
 93
       13
 44
0.0
173
     0
291
     0
 45
0.0
1001
ACAD
1000
AcDbSavedByObjectVersion
1070
     0
  0
VISUALSTYLE
  5
EAD7
102
{ACAD_XDICTIONARY
360
EB44
102
}
102
{ACAD_REACTORS
330
EAC2
102
}
330
EAC2
100
AcDbVisualStyle
  2
Shaded
 70
    27
 71
     2
 72
     2
 73
     1
 90
        2
 40
-0.6
 41
30.0
 62
     5
 63
     7
 74
     0
 91
        4
 64
     7
 65
   257
 75
     1
175
     1
 42
1.0
 92
        8
 66
   257
 43
1.0
 76
     1
 77
     6
 78
     2
 67
     8
 79
     3
170
     0
171
     0
290
     0
174
     0
 93
        5
 44
0.0
173
     0
291
     0
 45
0.0
1001
ACAD
1000
AcDbSavedByObjectVersion
1070
     0
  0
VISUALSTYLE
  5
EAD6
102
{ACAD_XDICTIONARY
360
EB42
102
}
102
{ACAD_REACTORS
330
EAC2
102
}
330
EAC2
100
AcDbVisualStyle
  2
Shaded with edges
 70
    26
 71
     2
 72
     2
 73
     1
 90
        2
 40
-0.6
 41
30.0
 62
     5
 63
     7
 74
     1
 91
       10
 64
     7
 65
   257
 75
     2
175
     1
 42
1.0
 92
        8
 66
   257
 43
1.0
 76
     1
 77
     6
 78
     2
 67
     7
 79
     3
170
     0
171
     0
290
     0
174
     0
 93
        5
 44
0.0
173
     0
291
     0
 45
0.0
1001
ACAD
1000
AcDbSavedByObjectVersion
1070
     0
  0
VISUALSTYLE
  5
EAD3
102
{ACAD_XDICTIONARY
360
EB3C
102
}
102
{ACAD_REACTORS
330
EAC2
102
}
330
EAC2
100
AcDbVisualStyle
  2
Shades of Gray
 70
    23
 71
     2
 72
     2
 73
     3
 90
        0
 40
-0.6
 41
-30.0
 62
     5
 63
     7
 74
     2
 91
        2
 64
     7
 65
     7
 75
     1
175
     1
 42
40.0
 92
        8
 66
     7
 43
1.0
 76
     1
 77
     6
 78
     2
 67
     7
 79
     3
170
     0
171
     0
290
     0
174
     0
 93
        1
 44
0.0
173
     0
291
     0
 45
0.0
1001
ACAD
1000
AcDbSavedByObjectVersion
1070
     0
  0
VISUALSTYLE
  5
EAD4
102
{ACAD_XDICTIONARY
360
EB3E
102
}
102
{ACAD_REACTORS
330
EAC2
102
}
330
EAC2
100
AcDbVisualStyle
  2
Sketchy
 70
    24
 71
     1
 72
     2
 73
     2
 90
        0
 40
-0.6
 41
-30.0
 62
     5
 63
     7
 74
     2
 91
        2
 64
     7
 65
     7
 75
     1
175
     1
 42
40.0
 92
       11
 66
     7
 43
1.0
 76
     1
 77
     6
 78
     2
 67
     7
 79
     6
170
     0
171
     0
290
     0
174
     0
 93
        1
 44
0.0
173
     0
291
     0
 45
0.0
1001
ACAD
1000
AcDbSavedByObjectVersion
1070
     0
  0
VISUALSTYLE
  5
EACF
102
{ACAD_XDICTIONARY
360
EB34
102
}
102
{ACAD_REACTORS
330
EAC2
102
}
330
EAC2
100
AcDbVisualStyle
  2
Thicken
 70
    13
 71
     2
 72
     2
 73
     0
 90
        0
 40
-0.6
 41
-30.0
 62
     5
 63
     7
 74
     1
 91
        4
 64
     7
 65
   257
 75
     1
175
     1
 42
1.0
 92
       12
 66
     7
 43
1.0
 76
     1
 77
     6
 78
     2
 67
     7
 79
     5
170
     0
171
     0
290
     0
174
     0
 93
        1
 44
0.0
173
     0
291
     1
 45
0.0
1001
ACAD
1000
AcDbSavedByObjectVersion
1070
     0
  0
VISUALSTYLE
  5
EAC9
102
{ACAD_XDICTIONARY
360
EB28
102
}
102
{ACAD_REACTORS
330
EAC2
102
}
330
EAC2
100
AcDbVisualStyle
  2
Wireframe
 70
     5
 71
     0
 72
     2
 73
     0
 90
        0
 40
-0.6
 41
-30.0
 62
     5
 63
     7
 74
     1
 91
        4
 64
     7
 65
   257
 75
     1
175
     1
 42
1.0
 92
        0
 66
   257
 43
1.0
 76
     1
 77
     6
 78
     2
 67
     7
 79
     3
170
     0
171
     0
290
     0
174
     0
 93
        1
 44
0.0
173
     0
291
     0
 45
0.0
1001
ACAD
1000
AcDbSavedByObjectVersion
1070
     0
  0
VISUALSTYLE
  5
EAD5
102
{ACAD_XDICTIONARY
360
EB40
102
}
102
{ACAD_REACTORS
330
EAC2
102
}
330
EAC2
100
AcDbVisualStyle
  2
X-Ray
 70
    25
 71
     2
 72
     2
 73
     1
 90
        1
 40
0.5
 41
-30.0
 62
     5
 63
     7
 74
     1
 91
        0
 64
     7
 65
   257
 75
     1
175
     1
 42
1.0
 92
        8
 66
     7
 43
1.0
 76
     1
 77
     6
 78
     2
 67
     7
 79
     3
170
     0
171
     0
290
     0
174
     0
 93
       13
 44
0.0
173
     0
291
     0
 45
0.0
1001
ACAD
1000
AcDbSavedByObjectVersion
1070
     0
  0
DICTIONARYVAR
  5
EB0F
102
{ACAD_REACTORS
330
EB0A
102
}
330
EB0A
100
DictionaryVariables
280
     0
  1
1:1
  0
DICTIONARYVAR
  5
EB0C
102
{ACAD_REACTORS
330
EB0A
102
}
330
EB0A
100
DictionaryVariables
280
     0
  1
STANDARD
  0
DICTIONARYVAR
  5
EB0B
102
{ACAD_REACTORS
330
EB0A
102
}
330
EB0A
100
DictionaryVariables
280
     0
  1
STANDARD
  0
DICTIONARYVAR
  5
EB0D
102
{ACAD_REACTORS
330
EB0A
102
}
330
EB0A
100
DictionaryVariables
280
     0
  1
Imperial24
  0
DICTIONARYVAR
  5
EB0E
102
{ACAD_REACTORS
330
EB0A
102
}
330
EB0A
100
DictionaryVariables
280
     0
  1
Imperial24
  0
DICTIONARYVAR
  5
EB12
102
{ACAD_REACTORS
330
EB0A
102
}
330
EB0A
100
DictionaryVariables
280
     0
  1
1
  0
DICTIONARYVAR
  5
EB11
102
{ACAD_REACTORS
330
EB0A
102
}
330
EB0A
100
DictionaryVariables
280
     0
  1
0
  0
DICTIONARYVAR
  5
EB10
102
{ACAD_REACTORS
330
EB0A
102
}
330
EB0A
100
DictionaryVariables
280
     0
  1
127
  0
DICTIONARYVAR
  5
EB13
102
{ACAD_REACTORS
330
EB0A
102
}
330
EB0A
100
DictionaryVariables
280
     0
  1
2
  0
DICTIONARY
  5
EB50
330
EAF5
100
AcDbDictionary
280
     1
281
     1
  3
ACAD_XREC_ROUNDTRIP
360
EB51
  0
DICTIONARY
  5
EB52
330
EAF6
100
AcDbDictionary
280
     1
281
     1
  3
ACAD_XREC_ROUNDTRIP
360
EB53
  0
DICTIONARY
  5
EB54
330
EAF7
100
AcDbDictionary
280
     1
281
     1
  3
ACAD_XREC_ROUNDTRIP
360
EB55
  0
DICTIONARY
  5
EAB3
330
EAB2
100
AcDbDictionary
280
     1
281
     1
  3
ACAD_XREC_ROUNDTRIP
360
EB1A
  3
BUMPTILE
360
EAB5
  3
DIFFUSETILE
360
EAB4
  3
OPACITYTILE
360
EAB8
  3
REFLECTIONTILE
360
EAB7
  3
REFRACTIONTILE
360
EAB9
  3
SPECULARTILE
360
EAB6
  0
DICTIONARY
  5
EAAB
330
EAAA
100
AcDbDictionary
280
     1
281
     1
  3
ACAD_XREC_ROUNDTRIP
360
EB19
  3
BUMPTILE
360
EAAD
  3
DIFFUSETILE
360
EAAC
  3
OPACITYTILE
360
EAB0
  3
REFLECTIONTILE
360
EAAF
  3
REFRACTIONTILE
360
EAB1
  3
SPECULARTILE
360
EAAE
  0
DICTIONARY
  5
EABB
330
EABA
100
AcDbDictionary
280
     1
281
     1
  3
ACAD_XREC_ROUNDTRIP
360
EB1B
  3
BUMPTILE
360
EABD
  3
DIFFUSETILE
360
EABC
  3
OPACITYTILE
360
EAC0
  3
REFLECTIONTILE
360
EABF
  3
REFRACTIONTILE
360
EAC1
  3
SPECULARTILE
360
EABE
  0
DICTIONARY
  5
EB4E
330
EAF3
100
AcDbDictionary
280
     1
281
     1
  3
ACAD_XREC_ROUNDTRIP
360
EB4F
  0
DICTIONARY
  5
EB15
330
EADD
100
AcDbDictionary
280
     1
281
     1
  3
ACAD_ROUNDTRIP_2008_TABLESTYLE_CELLSTYLEMAP
360
EB16
  3
ACAD_XREC_ROUNDTRIP
360
EB4C
  0
DICTIONARY
  5
EB26
330
EAC8
100
AcDbDictionary
280
     1
281
     1
  3
ACAD_XREC_ROUNDTRIP
360
EB27
  0
DICTIONARY
  5
EB24
330
EAC7
100
AcDbDictionary
280
     1
281
     1
  3
ACAD_XREC_ROUNDTRIP
360
EB25
  0
DICTIONARY
  5
EB32
330
EACE
100
AcDbDictionary
280
     1
281
     1
  3
ACAD_XREC_ROUNDTRIP
360
EB33
  0
DICTIONARY
  5
EB3A
330
EAD2
100
AcDbDictionary
280
     1
281
     1
  3
ACAD_XREC_ROUNDTRIP
360
EB3B
  0
DICTIONARY
  5
EB2C
330
EACB
100
AcDbDictionary
280
     1
281
     1
  3
ACAD_XREC_ROUNDTRIP
360
EB2D
  0
DICTIONARY
  5
EB30
330
EACD
100
AcDbDictionary
280
     1
281
     1
  3
ACAD_XREC_ROUNDTRIP
360
EB31
  0
DICTIONARY
  5
EB4A
330
EADA
100
AcDbDictionary
280
     1
281
     1
  3
ACAD_XREC_ROUNDTRIP
360
EB4B
  0
DICTIONARY
  5
EB38
330
EAD1
100
AcDbDictionary
280
     1
281
     1
  3
ACAD_XREC_ROUNDTRIP
360
EB39
  0
DICTIONARY
  5
EB1C
330
EAC3
100
AcDbDictionary
280
     1
281
     1
  3
ACAD_XREC_ROUNDTRIP
360
EB1D
  0
DICTIONARY
  5
EB1E
330
EAC4
100
AcDbDictionary
280
     1
281
     1
  3
ACAD_XREC_ROUNDTRIP
360
EB1F
  0
DICTIONARY
  5
EB20
330
EAC5
100
AcDbDictionary
280
     1
281
     1
  3
ACAD_XREC_ROUNDTRIP
360
EB21
  0
DICTIONARY
  5
EB22
330
EAC6
100
AcDbDictionary
280
     1
281
     1
  3
ACAD_XREC_ROUNDTRIP
360
EB23
  0
DICTIONARY
  5
EB2A
330
EACA
100
AcDbDictionary
280
     1
281
     1
  3
ACAD_XREC_ROUNDTRIP
360
EB2B
  0
DICTIONARY
  5
EB46
330
EAD8
100
AcDbDictionary
280
     1
281
     1
  3
ACAD_XREC_ROUNDTRIP
360
EB47
  0
DICTIONARY
  5
EB36
330
EAD0
100
AcDbDictionary
280
     1
281
     1
  3
ACAD_XREC_ROUNDTRIP
360
EB37
  0
DICTIONARY
  5
EB48
330
EAD9
100
AcDbDictionary
280
     1
281
     1
  3
ACAD_XREC_ROUNDTRIP
360
EB49
  0
DICTIONARY
  5
EB2E
330
EACC
100
AcDbDictionary
280
     1
281
     1
  3
ACAD_XREC_ROUNDTRIP
360
EB2F
  0
DICTIONARY
  5
EB44
330
EAD7
100
AcDbDictionary
280
     1
281
     1
  3
ACAD_XREC_ROUNDTRIP
360
EB45
  0
DICTIONARY
  5
EB42
330
EAD6
100
AcDbDictionary
280
     1
281
     1
  3
ACAD_XREC_ROUNDTRIP
360
EB43
  0
DICTIONARY
  5
EB3C
330
EAD3
100
AcDbDictionary
280
     1
281
     1
  3
ACAD_XREC_ROUNDTRIP
360
EB3D
  0
DICTIONARY
  5
EB3E
330
EAD4
100
AcDbDictionary
280
     1
281
     1
  3
ACAD_XREC_ROUNDTRIP
360
EB3F
  0
DICTIONARY
  5
EB34
330
EACF
100
AcDbDictionary
280
     1
281
     1
  3
ACAD_XREC_ROUNDTRIP
360
EB35
  0
DICTIONARY
  5
EB28
330
EAC9
100
AcDbDictionary
280
     1
281
     1
  3
ACAD_XREC_ROUNDTRIP
360
EB29
  0
DICTIONARY
  5
EB40
330
EAD5
100
AcDbDictionary
280
     1
281
     1
  3
ACAD_XREC_ROUNDTRIP
360
EB41
  0
XRECORD
  5
EB51
102
{ACAD_REACTORS
330
EB50
102
}
330
EB50
100
AcDbXrecord
280
     1
102
DISPLAYNAME
  1
Imperial24
102
FLAGS
 90
        0
  0
XRECORD
  5
EB53
102
{ACAD_REACTORS
330
EB52
102
}
330
EB52
100
AcDbXrecord
280
     1
102
SHADEPLOT
 70
     0
102
SHADEPLOTRESLEVEL
 70
     2
102
SHADEPLOTCUSTOMDPI
 70
   300
  0
XRECORD
  5
EB55
102
{ACAD_REACTORS
330
EB54
102
}
330
EB54
100
AcDbXrecord
280
     1
102
SHADEPLOT
 70
     0
102
SHADEPLOTRESLEVEL
 70
     2
102
SHADEPLOTCUSTOMDPI
 70
   300
  0
XRECORD
  5
EB1A
102
{ACAD_REACTORS
330
EAB3
102
}
330
EAB3
100
AcDbXrecord
280
     1
102
MATERIAL
148
0.0
149
0.0
149
0.0
 93
        0
 94
      127
282
     0
 72
     0
 77
     0
171
     0
175
     0
179
     0
273
     0
  0
XRECORD
  5
EAB5
102
{ACAD_REACTORS
330
EAB3
102
}
330
EAB3
100
AcDbXrecord
280
     1
270
     1
271
     1
  0
XRECORD
  5
EAB4
102
{ACAD_REACTORS
330
EAB3
102
}
330
EAB3
100
AcDbXrecord
280
     1
270
     1
271
     1
  0
XRECORD
  5
EAB8
102
{ACAD_REACTORS
330
EAB3
102
}
330
EAB3
100
AcDbXrecord
280
     1
270
     1
271
     1
  0
XRECORD
  5
EAB7
102
{ACAD_REACTORS
330
EAB3
102
}
330
EAB3
100
AcDbXrecord
280
     1
270
     1
271
     1
  0
XRECORD
  5
EAB9
102
{ACAD_REACTORS
330
EAB3
102
}
330
EAB3
100
AcDbXrecord
280
     1
270
     1
271
     1
  0
XRECORD
  5
EAB6
102
{ACAD_REACTORS
330
EAB3
102
}
330
EAB3
100
AcDbXrecord
280
     1
270
     1
271
     1
  0
XRECORD
  5
EB19
102
{ACAD_REACTORS
330
EAAB
102
}
330
EAAB
100
AcDbXrecord
280
     1
102
MATERIAL
148
0.0
149
0.0
149
0.0
 93
        0
 94
      127
282
     0
 72
     0
 77
     0
171
     0
175
     0
179
     0
273
     0
  0
XRECORD
  5
EAAD
102
{ACAD_REACTORS
330
EAAB
102
}
330
EAAB
100
AcDbXrecord
280
     1
270
     1
271
     1
  0
XRECORD
  5
EAAC
102
{ACAD_REACTORS
330
EAAB
102
}
330
EAAB
100
AcDbXrecord
280
     1
270
     1
271
     1
  0
XRECORD
  5
EAB0
102
{ACAD_REACTORS
330
EAAB
102
}
330
EAAB
100
AcDbXrecord
280
     1
270
     1
271
     1
  0
XRECORD
  5
EAAF
102
{ACAD_REACTORS
330
EAAB
102
}
330
EAAB
100
AcDbXrecord
280
     1
270
     1
271
     1
  0
XRECORD
  5
EAB1
102
{ACAD_REACTORS
330
EAAB
102
}
330
EAAB
100
AcDbXrecord
280
     1
270
     1
271
     1
  0
XRECORD
  5
EAAE
102
{ACAD_REACTORS
330
EAAB
102
}
330
EAAB
100
AcDbXrecord
280
     1
270
     1
271
     1
  0
XRECORD
  5
EB1B
102
{ACAD_REACTORS
330
EABB
102
}
330
EABB
100
AcDbXrecord
280
     1
102
MATERIAL
148
0.0
149
0.0
149
0.0
 93
        0
 94
      127
282
     0
 72
     0
 77
     0
171
     0
175
     0
179
     0
273
     0
  0
XRECORD
  5
EABD
102
{ACAD_REACTORS
330
EABB
102
}
330
EABB
100
AcDbXrecord
280
     1
270
     1
271
     1
  0
XRECORD
  5
EABC
102
{ACAD_REACTORS
330
EABB
102
}
330
EABB
100
AcDbXrecord
280
     1
270
     1
271
     1
  0
XRECORD
  5
EAC0
102
{ACAD_REACTORS
330
EABB
102
}
330
EABB
100
AcDbXrecord
280
     1
270
     1
271
     1
  0
XRECORD
  5
EABF
102
{ACAD_REACTORS
330
EABB
102
}
330
EABB
100
AcDbXrecord
280
     1
270
     1
271
     1
  0
XRECORD
  5
EAC1
102
{ACAD_REACTORS
330
EABB
102
}
330
EABB
100
AcDbXrecord
280
     1
270
     1
271
     1
  0
XRECORD
  5
EABE
102
{ACAD_REACTORS
330
EABB
102
}
330
EABB
100
AcDbXrecord
280
     1
270
     1
271
     1
  0
XRECORD
  5
EB4F
102
{ACAD_REACTORS
330
EB4E
102
}
330
EB4E
100
AcDbXrecord
280
     1
102
DISPLAYNAME
  1
Imperial24
102
FLAGS
 90
        0
  0
CELLSTYLEMAP
  5
EB16
102
{ACAD_REACTORS
330
EB15
102
}
330
EB15
100
AcDbCellStyleMap
 90
        3
300
CELLSTYLE
  1
TABLEFORMAT_BEGIN
 90
        5
170
     1
 91
        0
 92
    32768
 62
   257
 93
        1
300
CONTENTFORMAT
  1
CONTENTFORMAT_BEGIN
 90
        0
 91
        0
 92
      512
 93
        0
300

 40
0.0
140
1.0
 94
        5
 62
     0
340
E6DE
144
0.25
309
CONTENTFORMAT_END
171
     0
 94
        0
309
TABLEFORMAT_END
  1
CELLSTYLE_BEGIN
 90
        1
 91
        1
300
_TITLE
309
CELLSTYLE_END
300
CELLSTYLE
  1
TABLEFORMAT_BEGIN
 90
        5
170
     1
 91
        0
 92
        0
 62
   257
 93
        1
300
CONTENTFORMAT
  1
CONTENTFORMAT_BEGIN
 90
        0
 91
        0
 92
      512
 93
        0
300

 40
0.0
140
1.0
 94
        5
 62
     0
340
E6DE
144
0.18
309
CONTENTFORMAT_END
171
     0
 94
        0
309
TABLEFORMAT_END
  1
CELLSTYLE_BEGIN
 90
        2
 91
        1
300
_HEADER
309
CELLSTYLE_END
300
CELLSTYLE
  1
TABLEFORMAT_BEGIN
 90
        5
170
     1
 91
        0
 92
        0
 62
   257
 93
        1
300
CONTENTFORMAT
  1
CONTENTFORMAT_BEGIN
 90
        0
 91
        0
 92
      512
 93
        0
300

 40
0.0
140
1.0
 94
        2
 62
     0
340
E6DE
144
0.18
309
CONTENTFORMAT_END
171
     0
 94
        0
309
TABLEFORMAT_END
  1
CELLSTYLE_BEGIN
 90
        3
 91
        2
300
_DATA
309
CELLSTYLE_END
  0
XRECORD
  5
EB4C
102
{ACAD_REACTORS
330
EB15
102
}
330
EB15
100
AcDbXrecord
280
     1
102
ACAD_ROUNDTRIP_PRE2007_TABLESTYLE
 90
      512
 91
        0
  1

 92
      512
 93
        0
  2

 94
      512
 95
        0
  3

  0
XRECORD
  5
EB27
102
{ACAD_REACTORS
330
EB26
102
}
330
EB26
100
AcDbXrecord
280
     1
102
RTVSPost2010Prop28
280
     1
102
RTVSPost2010PropOp28
 70
     1
102
RTVSPost2010Prop29
280
     1
102
RTVSPost2010PropOp29
 70
     1
102
RTVSPost2010Prop30
280
     0
102
RTVSPost2010PropOp30
 70
     1
102
RTVSPost2010Prop31
280
     0
102
RTVSPost2010PropOp31
 70
     1
102
RTVSPost2010Prop32
280
     0
102
RTVSPost2010PropOp32
 70
     1
102
RTVSPost2010Prop33
280
     0
102
RTVSPost2010PropOp33
 70
     1
102
RTVSPost2010Prop34
280
     0
102
RTVSPost2010PropOp34
 70
     1
102
RTVSPost2010Prop35
280
     0
102
RTVSPost2010PropOp35
 70
     1
102
RTVSPost2010Prop36
280
     0
102
RTVSPost2010PropOp36
 70
     1
102
RTVSPost2010Prop37
 90
       50
102
RTVSPost2010PropOp37
 70
     1
102
RTVSPost2010Prop38
140
0.0
102
RTVSPost2010PropOp38
 70
     1
102
RTVSPost2010Prop39
140
1.0
102
RTVSPost2010PropOp39
 70
     1
102
RTVSPost2010Prop40
 90
        0
102
RTVSPost2010PropOp40
 70
     1
102
RTVSPost2010Prop41ColorIndex
 90
       18
102
RTVSPost2010Prop41ColorRGB
 90
        0
102
RTVSPost2010PropOp41
 70
     1
102
RTVSPost2010Prop42
 90
       50
102
RTVSPost2010PropOp42
 70
     1
102
RTVSPost2010Prop43
 90
        3
102
RTVSPost2010PropOp43
 70
     1
102
RTVSPost2010Prop44ColorIndex
 90
        5
102
RTVSPost2010Prop44ColorRGB
 90
      255
102
RTVSPost2010PropOp44
 70
     1
102
RTVSPost2010Prop45
280
     0
102
RTVSPost2010PropOp45
 70
     1
102
RTVSPost2010Prop46
 90
       50
102
RTVSPost2010PropOp46
 70
     1
102
RTVSPost2010Prop47
 90
       50
102
RTVSPost2010PropOp47
 70
     1
102
RTVSPost2010Prop48
 90
       50
102
RTVSPost2010PropOp48
 70
     1
102
RTVSPost2010Prop49
280
     0
102
RTVSPost2010PropOp49
 70
     1
102
RTVSPost2010Prop50
 90
       50
102
RTVSPost2010PropOp50
 70
     1
102
RTVSPost2010Prop51ColorIndex
 90
      256
102
RTVSPost2010Prop51ColorRGB
 90
-16777216
102
RTVSPost2010PropOp51
 70
     0
102
RTVSPost2010Prop52
140
1.0
102
RTVSPost2010PropOp52
 70
     0
102
RTVSPost2010Prop53
 90
        2
102
RTVSPost2010PropOp53
 70
     1
102
RTVSPost2010Prop54
  1
strokes_ogs.tif
102
RTVSPost2010PropOp54
 70
     1
102
RTVSPost2010Prop55
280
     0
102
RTVSPost2010PropOp55
 70
     1
102
RTVSPost2010Prop56
140
1.0
102
RTVSPost2010PropOp56
 70
     1
102
RTVSPost2010Prop57
140
1.0
102
RTVSPost2010PropOp57
 70
     1
102
RTVSPropertyOp0
 70
     1
102
RTVSPropertyOp1
 70
     1
102
RTVSPropertyOp2
 70
     1
102
RTVSPropertyOp3
 70
     1
102
RTVSPropertyOp4
 70
     1
102
RTVSPropertyOp5
 70
     1
102
RTVSPropertyOp6
 70
     1
102
RTVSPropertyOp7
 70
     1
102
RTVSPropertyOp8
 70
     1
102
RTVSPropertyOp9
 70
     1
102
RTVSPropertyOp10
 70
     1
102
RTVSPropertyOp11
 70
     1
102
RTVSPropertyOp12
 70
     1
102
RTVSPropertyOp13
 70
     1
102
RTVSPropertyOp14
 70
     1
102
RTVSPropertyOp15
 70
     1
102
RTVSPropertyOp16
 70
     1
102
RTVSPropertyOp17
 70
     1
102
RTVSPropertyOp18
 70
     1
102
RTVSPropertyOp19
 70
     1
102
RTVSPropertyOp20
 70
     1
102
RTVSPropertyOp21
 70
     1
102
RTVSPropertyOp22
 70
     1
102
RTVSPropertyOp23
 70
     1
102
RTVSPropertyOp24
 70
     1
102
RTVSPropertyOp25
 70
     1
102
RTVSPropertyOp26
 70
     1
102
RTVSPropertyOp27
 70
     1
102
RTVSPropertyOp28
 70
     1
102
RTVSPropertyOp29
 70
     1
102
RTVSPropertyOp30
 70
     1
102
RTVSPropertyOp31
 70
     1
102
RTVSPropertyOp32
 70
     1
102
RTVSPropertyOp33
 70
     1
102
RTVSPropertyOp34
 70
     1
102
RTVSPropertyOp35
 70
     1
102
RTVSPropertyOp36
 70
     1
102
RTVSPropertyOp37
 70
     1
102
RTVSPropertyOp38
 70
     1
102
RTVSPropertyOp39
 70
     1
102
RTVSPropertyOp40
 70
     1
102
RTVSPropertyOp41
 70
     1
102
RTVSPropertyOp42
 70
     1
102
RTVSPropertyOp43
 70
     1
102
RTVSPropertyOp44
 70
     1
102
RTVSPropertyOp45
 70
     1
102
RTVSPropertyOp46
 70
     1
102
RTVSPropertyOp47
 70
     1
102
RTVSPropertyOp48
 70
     1
102
RTVSPropertyOp49
 70
     1
102
RTVSPropertyOp50
 70
     1
102
RTVSPropertyOp51
 70
     0
102
RTVSPropertyOp52
 70
     0
102
RTVSPropertyOp53
 70
     1
102
RTVSPropertyOp54
 70
     1
102
RTVSPropertyOp55
 70
     1
102
RTVSPropertyOp56
 70
     1
102
RTVSPropertyOp57
 70
     1
102
RTVSPropertyOp58
 70
     1
102
RTVSPropertyOp59
 70
     1
102
RTVSPropertyOp60
 70
     1
102
RTVSPropertyOp61
 70
     1
102
RTVSPropertyOp62
 70
     1
  0
XRECORD
  5
EB25
102
{ACAD_REACTORS
330
EB24
102
}
330
EB24
100
AcDbXrecord
280
     1
102
RTVSPost2010Prop28
280
     0
102
RTVSPost2010PropOp28
 70
     1
102
RTVSPost2010Prop29
280
     1
102
RTVSPost2010PropOp29
 70
     1
102
RTVSPost2010Prop30
280
     1
102
RTVSPost2010PropOp30
 70
     1
102
RTVSPost2010Prop31
280
     0
102
RTVSPost2010PropOp31
 70
     1
102
RTVSPost2010Prop32
280
     0
102
RTVSPost2010PropOp32
 70
     1
102
RTVSPost2010Prop33
280
     0
102
RTVSPost2010PropOp33
 70
     1
102
RTVSPost2010Prop34
280
     0
102
RTVSPost2010PropOp34
 70
     1
102
RTVSPost2010Prop35
280
     0
102
RTVSPost2010PropOp35
 70
     1
102
RTVSPost2010Prop36
280
     0
102
RTVSPost2010PropOp36
 70
     1
102
RTVSPost2010Prop37
 90
       50
102
RTVSPost2010PropOp37
 70
     1
102
RTVSPost2010Prop38
140
0.0
102
RTVSPost2010PropOp38
 70
     1
102
RTVSPost2010Prop39
140
1.0
102
RTVSPost2010PropOp39
 70
     1
102
RTVSPost2010Prop40
 90
        0
102
RTVSPost2010PropOp40
 70
     1
102
RTVSPost2010Prop41ColorIndex
 90
       18
102
RTVSPost2010Prop41ColorRGB
 90
        0
102
RTVSPost2010PropOp41
 70
     1
102
RTVSPost2010Prop42
 90
       50
102
RTVSPost2010PropOp42
 70
     1
102
RTVSPost2010Prop43
 90
        3
102
RTVSPost2010PropOp43
 70
     1
102
RTVSPost2010Prop44ColorIndex
 90
        5
102
RTVSPost2010Prop44ColorRGB
 90
      255
102
RTVSPost2010PropOp44
 70
     1
102
RTVSPost2010Prop45
280
     0
102
RTVSPost2010PropOp45
 70
     1
102
RTVSPost2010Prop46
 90
       50
102
RTVSPost2010PropOp46
 70
     1
102
RTVSPost2010Prop47
 90
       50
102
RTVSPost2010PropOp47
 70
     1
102
RTVSPost2010Prop48
 90
       50
102
RTVSPost2010PropOp48
 70
     1
102
RTVSPost2010Prop49
280
     0
102
RTVSPost2010PropOp49
 70
     1
102
RTVSPost2010Prop50
 90
       50
102
RTVSPost2010PropOp50
 70
     1
102
RTVSPost2010Prop51ColorIndex
 90
      256
102
RTVSPost2010Prop51ColorRGB
 90
-16777216
102
RTVSPost2010PropOp51
 70
     0
102
RTVSPost2010Prop52
140
1.0
102
RTVSPost2010PropOp52
 70
     0
102
RTVSPost2010Prop53
 90
        2
102
RTVSPost2010PropOp53
 70
     1
102
RTVSPost2010Prop54
  1
strokes_ogs.tif
102
RTVSPost2010PropOp54
 70
     1
102
RTVSPost2010Prop55
280
     0
102
RTVSPost2010PropOp55
 70
     1
102
RTVSPost2010Prop56
140
1.0
102
RTVSPost2010PropOp56
 70
     1
102
RTVSPost2010Prop57
140
1.0
102
RTVSPost2010PropOp57
 70
     1
102
RTVSPropertyOp0
 70
     1
102
RTVSPropertyOp1
 70
     1
102
RTVSPropertyOp2
 70
     1
102
RTVSPropertyOp3
 70
     1
102
RTVSPropertyOp4
 70
     1
102
RTVSPropertyOp5
 70
     1
102
RTVSPropertyOp6
 70
     1
102
RTVSPropertyOp7
 70
     1
102
RTVSPropertyOp8
 70
     1
102
RTVSPropertyOp9
 70
     1
102
RTVSPropertyOp10
 70
     1
102
RTVSPropertyOp11
 70
     1
102
RTVSPropertyOp12
 70
     1
102
RTVSPropertyOp13
 70
     1
102
RTVSPropertyOp14
 70
     1
102
RTVSPropertyOp15
 70
     1
102
RTVSPropertyOp16
 70
     1
102
RTVSPropertyOp17
 70
     1
102
RTVSPropertyOp18
 70
     1
102
RTVSPropertyOp19
 70
     1
102
RTVSPropertyOp20
 70
     1
102
RTVSPropertyOp21
 70
     1
102
RTVSPropertyOp22
 70
     1
102
RTVSPropertyOp23
 70
     1
102
RTVSPropertyOp24
 70
     1
102
RTVSPropertyOp25
 70
     1
102
RTVSPropertyOp26
 70
     1
102
RTVSPropertyOp27
 70
     1
102
RTVSPropertyOp28
 70
     1
102
RTVSPropertyOp29
 70
     1
102
RTVSPropertyOp30
 70
     1
102
RTVSPropertyOp31
 70
     1
102
RTVSPropertyOp32
 70
     1
102
RTVSPropertyOp33
 70
     1
102
RTVSPropertyOp34
 70
     1
102
RTVSPropertyOp35
 70
     1
102
RTVSPropertyOp36
 70
     1
102
RTVSPropertyOp37
 70
     1
102
RTVSPropertyOp38
 70
     1
102
RTVSPropertyOp39
 70
     1
102
RTVSPropertyOp40
 70
     1
102
RTVSPropertyOp41
 70
     1
102
RTVSPropertyOp42
 70
     1
102
RTVSPropertyOp43
 70
     1
102
RTVSPropertyOp44
 70
     1
102
RTVSPropertyOp45
 70
     1
102
RTVSPropertyOp46
 70
     1
102
RTVSPropertyOp47
 70
     1
102
RTVSPropertyOp48
 70
     1
102
RTVSPropertyOp49
 70
     1
102
RTVSPropertyOp50
 70
     1
102
RTVSPropertyOp51
 70
     0
102
RTVSPropertyOp52
 70
     0
102
RTVSPropertyOp53
 70
     1
102
RTVSPropertyOp54
 70
     1
102
RTVSPropertyOp55
 70
     1
102
RTVSPropertyOp56
 70
     1
102
RTVSPropertyOp57
 70
     1
102
RTVSPropertyOp58
 70
     1
102
RTVSPropertyOp59
 70
     1
102
RTVSPropertyOp60
 70
     1
102
RTVSPropertyOp61
 70
     1
102
RTVSPropertyOp62
 70
     1
  0
XRECORD
  5
EB33
102
{ACAD_REACTORS
330
EB32
102
}
330
EB32
100
AcDbXrecord
280
     1
102
RTVSPost2010Prop28
280
     0
102
RTVSPost2010PropOp28
 70
     1
102
RTVSPost2010Prop29
280
     1
102
RTVSPost2010PropOp29
 70
     1
102
RTVSPost2010Prop30
280
     1
102
RTVSPost2010PropOp30
 70
     1
102
RTVSPost2010Prop31
280
     0
102
RTVSPost2010PropOp31
 70
     1
102
RTVSPost2010Prop32
280
     0
102
RTVSPost2010PropOp32
 70
     1
102
RTVSPost2010Prop33
280
     0
102
RTVSPost2010PropOp33
 70
     1
102
RTVSPost2010Prop34
280
     0
102
RTVSPost2010PropOp34
 70
     1
102
RTVSPost2010Prop35
280
     0
102
RTVSPost2010PropOp35
 70
     1
102
RTVSPost2010Prop36
280
     0
102
RTVSPost2010PropOp36
 70
     1
102
RTVSPost2010Prop37
 90
       50
102
RTVSPost2010PropOp37
 70
     1
102
RTVSPost2010Prop38
140
0.0
102
RTVSPost2010PropOp38
 70
     1
102
RTVSPost2010Prop39
140
1.0
102
RTVSPost2010PropOp39
 70
     1
102
RTVSPost2010Prop40
 90
        0
102
RTVSPost2010PropOp40
 70
     1
102
RTVSPost2010Prop41ColorIndex
 90
       18
102
RTVSPost2010Prop41ColorRGB
 90
        0
102
RTVSPost2010PropOp41
 70
     1
102
RTVSPost2010Prop42
 90
       50
102
RTVSPost2010PropOp42
 70
     1
102
RTVSPost2010Prop43
 90
        3
102
RTVSPost2010PropOp43
 70
     1
102
RTVSPost2010Prop44ColorIndex
 90
        5
102
RTVSPost2010Prop44ColorRGB
 90
      255
102
RTVSPost2010PropOp44
 70
     1
102
RTVSPost2010Prop45
280
     0
102
RTVSPost2010PropOp45
 70
     1
102
RTVSPost2010Prop46
 90
       50
102
RTVSPost2010PropOp46
 70
     1
102
RTVSPost2010Prop47
 90
       50
102
RTVSPost2010PropOp47
 70
     1
102
RTVSPost2010Prop48
 90
       50
102
RTVSPost2010PropOp48
 70
     1
102
RTVSPost2010Prop49
280
     0
102
RTVSPost2010PropOp49
 70
     1
102
RTVSPost2010Prop50
 90
       50
102
RTVSPost2010PropOp50
 70
     1
102
RTVSPost2010Prop51ColorIndex
 90
      256
102
RTVSPost2010Prop51ColorRGB
 90
-16777216
102
RTVSPost2010PropOp51
 70
     0
102
RTVSPost2010Prop52
140
1.0
102
RTVSPost2010PropOp52
 70
     0
102
RTVSPost2010Prop53
 90
        2
102
RTVSPost2010PropOp53
 70
     1
102
RTVSPost2010Prop54
  1
strokes_ogs.tif
102
RTVSPost2010PropOp54
 70
     1
102
RTVSPost2010Prop55
280
     0
102
RTVSPost2010PropOp55
 70
     1
102
RTVSPost2010Prop56
140
1.0
102
RTVSPost2010PropOp56
 70
     1
102
RTVSPost2010Prop57
140
1.0
102
RTVSPost2010PropOp57
 70
     1
102
RTVSPropertyOp0
 70
     1
102
RTVSPropertyOp1
 70
     1
102
RTVSPropertyOp2
 70
     1
102
RTVSPropertyOp3
 70
     1
102
RTVSPropertyOp4
 70
     1
102
RTVSPropertyOp5
 70
     1
102
RTVSPropertyOp6
 70
     1
102
RTVSPropertyOp7
 70
     1
102
RTVSPropertyOp8
 70
     1
102
RTVSPropertyOp9
 70
     1
102
RTVSPropertyOp10
 70
     1
102
RTVSPropertyOp11
 70
     1
102
RTVSPropertyOp12
 70
     1
102
RTVSPropertyOp13
 70
     1
102
RTVSPropertyOp14
 70
     1
102
RTVSPropertyOp15
 70
     1
102
RTVSPropertyOp16
 70
     1
102
RTVSPropertyOp17
 70
     1
102
RTVSPropertyOp18
 70
     1
102
RTVSPropertyOp19
 70
     1
102
RTVSPropertyOp20
 70
     1
102
RTVSPropertyOp21
 70
     1
102
RTVSPropertyOp22
 70
     1
102
RTVSPropertyOp23
 70
     1
102
RTVSPropertyOp24
 70
     1
102
RTVSPropertyOp25
 70
     1
102
RTVSPropertyOp26
 70
     1
102
RTVSPropertyOp27
 70
     1
102
RTVSPropertyOp28
 70
     1
102
RTVSPropertyOp29
 70
     1
102
RTVSPropertyOp30
 70
     1
102
RTVSPropertyOp31
 70
     1
102
RTVSPropertyOp32
 70
     1
102
RTVSPropertyOp33
 70
     1
102
RTVSPropertyOp34
 70
     1
102
RTVSPropertyOp35
 70
     1
102
RTVSPropertyOp36
 70
     1
102
RTVSPropertyOp37
 70
     1
102
RTVSPropertyOp38
 70
     1
102
RTVSPropertyOp39
 70
     1
102
RTVSPropertyOp40
 70
     1
102
RTVSPropertyOp41
 70
     1
102
RTVSPropertyOp42
 70
     1
102
RTVSPropertyOp43
 70
     1
102
RTVSPropertyOp44
 70
     1
102
RTVSPropertyOp45
 70
     1
102
RTVSPropertyOp46
 70
     1
102
RTVSPropertyOp47
 70
     1
102
RTVSPropertyOp48
 70
     1
102
RTVSPropertyOp49
 70
     1
102
RTVSPropertyOp50
 70
     1
102
RTVSPropertyOp51
 70
     0
102
RTVSPropertyOp52
 70
     0
102
RTVSPropertyOp53
 70
     1
102
RTVSPropertyOp54
 70
     1
102
RTVSPropertyOp55
 70
     1
102
RTVSPropertyOp56
 70
     1
102
RTVSPropertyOp57
 70
     1
102
RTVSPropertyOp58
 70
     1
102
RTVSPropertyOp59
 70
     1
102
RTVSPropertyOp60
 70
     1
102
RTVSPropertyOp61
 70
     1
102
RTVSPropertyOp62
 70
     1
  0
XRECORD
  5
EB3B
102
{ACAD_REACTORS
330
EB3A
102
}
330
EB3A
100
AcDbXrecord
280
     1
102
RTVSPost2010Prop28
280
     0
102
RTVSPost2010PropOp28
 70
     1
102
RTVSPost2010Prop29
280
     1
102
RTVSPost2010PropOp29
 70
     1
102
RTVSPost2010Prop30
280
     1
102
RTVSPost2010PropOp30
 70
     1
102
RTVSPost2010Prop31
280
     0
102
RTVSPost2010PropOp31
 70
     1
102
RTVSPost2010Prop32
280
     0
102
RTVSPost2010PropOp32
 70
     1
102
RTVSPost2010Prop33
280
     0
102
RTVSPost2010PropOp33
 70
     1
102
RTVSPost2010Prop34
280
     0
102
RTVSPost2010PropOp34
 70
     1
102
RTVSPost2010Prop35
280
     0
102
RTVSPost2010PropOp35
 70
     1
102
RTVSPost2010Prop36
280
     0
102
RTVSPost2010PropOp36
 70
     1
102
RTVSPost2010Prop37
 90
       50
102
RTVSPost2010PropOp37
 70
     1
102
RTVSPost2010Prop38
140
0.0
102
RTVSPost2010PropOp38
 70
     1
102
RTVSPost2010Prop39
140
1.0
102
RTVSPost2010PropOp39
 70
     1
102
RTVSPost2010Prop40
 90
        0
102
RTVSPost2010PropOp40
 70
     1
102
RTVSPost2010Prop41ColorIndex
 90
       18
102
RTVSPost2010Prop41ColorRGB
 90
        0
102
RTVSPost2010PropOp41
 70
     1
102
RTVSPost2010Prop42
 90
       50
102
RTVSPost2010PropOp42
 70
     1
102
RTVSPost2010Prop43
 90
        3
102
RTVSPost2010PropOp43
 70
     1
102
RTVSPost2010Prop44ColorIndex
 90
        5
102
RTVSPost2010Prop44ColorRGB
 90
      255
102
RTVSPost2010PropOp44
 70
     1
102
RTVSPost2010Prop45
280
     0
102
RTVSPost2010PropOp45
 70
     1
102
RTVSPost2010Prop46
 90
       50
102
RTVSPost2010PropOp46
 70
     1
102
RTVSPost2010Prop47
 90
       50
102
RTVSPost2010PropOp47
 70
     1
102
RTVSPost2010Prop48
 90
       50
102
RTVSPost2010PropOp48
 70
     1
102
RTVSPost2010Prop49
280
     0
102
RTVSPost2010PropOp49
 70
     1
102
RTVSPost2010Prop50
 90
       50
102
RTVSPost2010PropOp50
 70
     1
102
RTVSPost2010Prop51ColorIndex
 90
      256
102
RTVSPost2010Prop51ColorRGB
 90
-16777216
102
RTVSPost2010PropOp51
 70
     0
102
RTVSPost2010Prop52
140
1.0
102
RTVSPost2010PropOp52
 70
     0
102
RTVSPost2010Prop53
 90
        2
102
RTVSPost2010PropOp53
 70
     1
102
RTVSPost2010Prop54
  1
strokes_ogs.tif
102
RTVSPost2010PropOp54
 70
     1
102
RTVSPost2010Prop55
280
     0
102
RTVSPost2010PropOp55
 70
     1
102
RTVSPost2010Prop56
140
1.0
102
RTVSPost2010PropOp56
 70
     1
102
RTVSPost2010Prop57
140
1.0
102
RTVSPost2010PropOp57
 70
     1
102
RTVSPropertyOp0
 70
     1
102
RTVSPropertyOp1
 70
     1
102
RTVSPropertyOp2
 70
     1
102
RTVSPropertyOp3
 70
     1
102
RTVSPropertyOp4
 70
     1
102
RTVSPropertyOp5
 70
     1
102
RTVSPropertyOp6
 70
     1
102
RTVSPropertyOp7
 70
     1
102
RTVSPropertyOp8
 70
     1
102
RTVSPropertyOp9
 70
     1
102
RTVSPropertyOp10
 70
     1
102
RTVSPropertyOp11
 70
     1
102
RTVSPropertyOp12
 70
     1
102
RTVSPropertyOp13
 70
     1
102
RTVSPropertyOp14
 70
     1
102
RTVSPropertyOp15
 70
     1
102
RTVSPropertyOp16
 70
     1
102
RTVSPropertyOp17
 70
     1
102
RTVSPropertyOp18
 70
     1
102
RTVSPropertyOp19
 70
     1
102
RTVSPropertyOp20
 70
     1
102
RTVSPropertyOp21
 70
     1
102
RTVSPropertyOp22
 70
     1
102
RTVSPropertyOp23
 70
     1
102
RTVSPropertyOp24
 70
     1
102
RTVSPropertyOp25
 70
     1
102
RTVSPropertyOp26
 70
     1
102
RTVSPropertyOp27
 70
     1
102
RTVSPropertyOp28
 70
     1
102
RTVSPropertyOp29
 70
     1
102
RTVSPropertyOp30
 70
     1
102
RTVSPropertyOp31
 70
     1
102
RTVSPropertyOp32
 70
     1
102
RTVSPropertyOp33
 70
     1
102
RTVSPropertyOp34
 70
     1
102
RTVSPropertyOp35
 70
     1
102
RTVSPropertyOp36
 70
     1
102
RTVSPropertyOp37
 70
     1
102
RTVSPropertyOp38
 70
     1
102
RTVSPropertyOp39
 70
     1
102
RTVSPropertyOp40
 70
     1
102
RTVSPropertyOp41
 70
     1
102
RTVSPropertyOp42
 70
     1
102
RTVSPropertyOp43
 70
     1
102
RTVSPropertyOp44
 70
     1
102
RTVSPropertyOp45
 70
     1
102
RTVSPropertyOp46
 70
     1
102
RTVSPropertyOp47
 70
     1
102
RTVSPropertyOp48
 70
     1
102
RTVSPropertyOp49
 70
     1
102
RTVSPropertyOp50
 70
     1
102
RTVSPropertyOp51
 70
     0
102
RTVSPropertyOp52
 70
     0
102
RTVSPropertyOp53
 70
     1
102
RTVSPropertyOp54
 70
     1
102
RTVSPropertyOp55
 70
     1
102
RTVSPropertyOp56
 70
     1
102
RTVSPropertyOp57
 70
     1
102
RTVSPropertyOp58
 70
     1
102
RTVSPropertyOp59
 70
     1
102
RTVSPropertyOp60
 70
     1
102
RTVSPropertyOp61
 70
     1
102
RTVSPropertyOp62
 70
     1
  0
XRECORD
  5
EB2D
102
{ACAD_REACTORS
330
EB2C
102
}
330
EB2C
100
AcDbXrecord
280
     1
102
RTVSPost2010Prop28
280
     0
102
RTVSPost2010PropOp28
 70
     1
102
RTVSPost2010Prop29
280
     1
102
RTVSPost2010PropOp29
 70
     1
102
RTVSPost2010Prop30
280
     1
102
RTVSPost2010PropOp30
 70
     1
102
RTVSPost2010Prop31
280
     0
102
RTVSPost2010PropOp31
 70
     1
102
RTVSPost2010Prop32
280
     0
102
RTVSPost2010PropOp32
 70
     1
102
RTVSPost2010Prop33
280
     0
102
RTVSPost2010PropOp33
 70
     1
102
RTVSPost2010Prop34
280
     0
102
RTVSPost2010PropOp34
 70
     1
102
RTVSPost2010Prop35
280
     0
102
RTVSPost2010PropOp35
 70
     1
102
RTVSPost2010Prop36
280
     0
102
RTVSPost2010PropOp36
 70
     1
102
RTVSPost2010Prop37
 90
       50
102
RTVSPost2010PropOp37
 70
     1
102
RTVSPost2010Prop38
140
0.0
102
RTVSPost2010PropOp38
 70
     1
102
RTVSPost2010Prop39
140
1.0
102
RTVSPost2010PropOp39
 70
     1
102
RTVSPost2010Prop40
 90
        0
102
RTVSPost2010PropOp40
 70
     1
102
RTVSPost2010Prop41ColorIndex
 90
       18
102
RTVSPost2010Prop41ColorRGB
 90
        0
102
RTVSPost2010PropOp41
 70
     1
102
RTVSPost2010Prop42
 90
       50
102
RTVSPost2010PropOp42
 70
     1
102
RTVSPost2010Prop43
 90
        3
102
RTVSPost2010PropOp43
 70
     1
102
RTVSPost2010Prop44ColorIndex
 90
        5
102
RTVSPost2010Prop44ColorRGB
 90
      255
102
RTVSPost2010PropOp44
 70
     1
102
RTVSPost2010Prop45
280
     0
102
RTVSPost2010PropOp45
 70
     1
102
RTVSPost2010Prop46
 90
       50
102
RTVSPost2010PropOp46
 70
     1
102
RTVSPost2010Prop47
 90
       50
102
RTVSPost2010PropOp47
 70
     1
102
RTVSPost2010Prop48
 90
       50
102
RTVSPost2010PropOp48
 70
     1
102
RTVSPost2010Prop49
280
     0
102
RTVSPost2010PropOp49
 70
     1
102
RTVSPost2010Prop50
 90
       50
102
RTVSPost2010PropOp50
 70
     1
102
RTVSPost2010Prop51ColorIndex
 90
      256
102
RTVSPost2010Prop51ColorRGB
 90
-16777216
102
RTVSPost2010PropOp51
 70
     0
102
RTVSPost2010Prop52
140
1.0
102
RTVSPost2010PropOp52
 70
     0
102
RTVSPost2010Prop53
 90
        2
102
RTVSPost2010PropOp53
 70
     1
102
RTVSPost2010Prop54
  1
strokes_ogs.tif
102
RTVSPost2010PropOp54
 70
     1
102
RTVSPost2010Prop55
280
     0
102
RTVSPost2010PropOp55
 70
     1
102
RTVSPost2010Prop56
140
1.0
102
RTVSPost2010PropOp56
 70
     1
102
RTVSPost2010Prop57
140
1.0
102
RTVSPost2010PropOp57
 70
     1
102
RTVSPropertyOp0
 70
     1
102
RTVSPropertyOp1
 70
     1
102
RTVSPropertyOp2
 70
     1
102
RTVSPropertyOp3
 70
     1
102
RTVSPropertyOp4
 70
     1
102
RTVSPropertyOp5
 70
     1
102
RTVSPropertyOp6
 70
     1
102
RTVSPropertyOp7
 70
     1
102
RTVSPropertyOp8
 70
     1
102
RTVSPropertyOp9
 70
     1
102
RTVSPropertyOp10
 70
     1
102
RTVSPropertyOp11
 70
     1
102
RTVSPropertyOp12
 70
     1
102
RTVSPropertyOp13
 70
     1
102
RTVSPropertyOp14
 70
     1
102
RTVSPropertyOp15
 70
     1
102
RTVSPropertyOp16
 70
     1
102
RTVSPropertyOp17
 70
     1
102
RTVSPropertyOp18
 70
     1
102
RTVSPropertyOp19
 70
     1
102
RTVSPropertyOp20
 70
     1
102
RTVSPropertyOp21
 70
     1
102
RTVSPropertyOp22
 70
     1
102
RTVSPropertyOp23
 70
     1
102
RTVSPropertyOp24
 70
     1
102
RTVSPropertyOp25
 70
     1
102
RTVSPropertyOp26
 70
     1
102
RTVSPropertyOp27
 70
     1
102
RTVSPropertyOp28
 70
     1
102
RTVSPropertyOp29
 70
     1
102
RTVSPropertyOp30
 70
     1
102
RTVSPropertyOp31
 70
     1
102
RTVSPropertyOp32
 70
     1
102
RTVSPropertyOp33
 70
     1
102
RTVSPropertyOp34
 70
     1
102
RTVSPropertyOp35
 70
     1
102
RTVSPropertyOp36
 70
     1
102
RTVSPropertyOp37
 70
     1
102
RTVSPropertyOp38
 70
     1
102
RTVSPropertyOp39
 70
     1
102
RTVSPropertyOp40
 70
     1
102
RTVSPropertyOp41
 70
     1
102
RTVSPropertyOp42
 70
     1
102
RTVSPropertyOp43
 70
     1
102
RTVSPropertyOp44
 70
     1
102
RTVSPropertyOp45
 70
     1
102
RTVSPropertyOp46
 70
     1
102
RTVSPropertyOp47
 70
     1
102
RTVSPropertyOp48
 70
     1
102
RTVSPropertyOp49
 70
     1
102
RTVSPropertyOp50
 70
     1
102
RTVSPropertyOp51
 70
     0
102
RTVSPropertyOp52
 70
     0
102
RTVSPropertyOp53
 70
     1
102
RTVSPropertyOp54
 70
     1
102
RTVSPropertyOp55
 70
     1
102
RTVSPropertyOp56
 70
     1
102
RTVSPropertyOp57
 70
     1
102
RTVSPropertyOp58
 70
     1
102
RTVSPropertyOp59
 70
     1
102
RTVSPropertyOp60
 70
     1
102
RTVSPropertyOp61
 70
     1
102
RTVSPropertyOp62
 70
     1
  0
XRECORD
  5
EB31
102
{ACAD_REACTORS
330
EB30
102
}
330
EB30
100
AcDbXrecord
280
     1
102
RTVSPost2010Prop28
280
     0
102
RTVSPost2010PropOp28
 70
     1
102
RTVSPost2010Prop29
280
     1
102
RTVSPost2010PropOp29
 70
     1
102
RTVSPost2010Prop30
280
     1
102
RTVSPost2010PropOp30
 70
     1
102
RTVSPost2010Prop31
280
     0
102
RTVSPost2010PropOp31
 70
     1
102
RTVSPost2010Prop32
280
     0
102
RTVSPost2010PropOp32
 70
     1
102
RTVSPost2010Prop33
280
     0
102
RTVSPost2010PropOp33
 70
     1
102
RTVSPost2010Prop34
280
     0
102
RTVSPost2010PropOp34
 70
     1
102
RTVSPost2010Prop35
280
     0
102
RTVSPost2010PropOp35
 70
     1
102
RTVSPost2010Prop36
280
     0
102
RTVSPost2010PropOp36
 70
     1
102
RTVSPost2010Prop37
 90
       50
102
RTVSPost2010PropOp37
 70
     1
102
RTVSPost2010Prop38
140
0.0
102
RTVSPost2010PropOp38
 70
     1
102
RTVSPost2010Prop39
140
1.0
102
RTVSPost2010PropOp39
 70
     1
102
RTVSPost2010Prop40
 90
        0
102
RTVSPost2010PropOp40
 70
     1
102
RTVSPost2010Prop41ColorIndex
 90
       18
102
RTVSPost2010Prop41ColorRGB
 90
        0
102
RTVSPost2010PropOp41
 70
     1
102
RTVSPost2010Prop42
 90
       50
102
RTVSPost2010PropOp42
 70
     1
102
RTVSPost2010Prop43
 90
        3
102
RTVSPost2010PropOp43
 70
     1
102
RTVSPost2010Prop44ColorIndex
 90
        5
102
RTVSPost2010Prop44ColorRGB
 90
      255
102
RTVSPost2010PropOp44
 70
     1
102
RTVSPost2010Prop45
280
     0
102
RTVSPost2010PropOp45
 70
     1
102
RTVSPost2010Prop46
 90
       50
102
RTVSPost2010PropOp46
 70
     1
102
RTVSPost2010Prop47
 90
       50
102
RTVSPost2010PropOp47
 70
     1
102
RTVSPost2010Prop48
 90
       50
102
RTVSPost2010PropOp48
 70
     1
102
RTVSPost2010Prop49
280
     0
102
RTVSPost2010PropOp49
 70
     1
102
RTVSPost2010Prop50
 90
       50
102
RTVSPost2010PropOp50
 70
     1
102
RTVSPost2010Prop51ColorIndex
 90
      256
102
RTVSPost2010Prop51ColorRGB
 90
-16777216
102
RTVSPost2010PropOp51
 70
     0
102
RTVSPost2010Prop52
140
1.0
102
RTVSPost2010PropOp52
 70
     0
102
RTVSPost2010Prop53
 90
        2
102
RTVSPost2010PropOp53
 70
     1
102
RTVSPost2010Prop54
  1
strokes_ogs.tif
102
RTVSPost2010PropOp54
 70
     1
102
RTVSPost2010Prop55
280
     0
102
RTVSPost2010PropOp55
 70
     1
102
RTVSPost2010Prop56
140
1.0
102
RTVSPost2010PropOp56
 70
     1
102
RTVSPost2010Prop57
140
1.0
102
RTVSPost2010PropOp57
 70
     1
102
RTVSPropertyOp0
 70
     1
102
RTVSPropertyOp1
 70
     1
102
RTVSPropertyOp2
 70
     1
102
RTVSPropertyOp3
 70
     1
102
RTVSPropertyOp4
 70
     1
102
RTVSPropertyOp5
 70
     1
102
RTVSPropertyOp6
 70
     1
102
RTVSPropertyOp7
 70
     1
102
RTVSPropertyOp8
 70
     1
102
RTVSPropertyOp9
 70
     1
102
RTVSPropertyOp10
 70
     1
102
RTVSPropertyOp11
 70
     1
102
RTVSPropertyOp12
 70
     1
102
RTVSPropertyOp13
 70
     1
102
RTVSPropertyOp14
 70
     1
102
RTVSPropertyOp15
 70
     1
102
RTVSPropertyOp16
 70
     1
102
RTVSPropertyOp17
 70
     1
102
RTVSPropertyOp18
 70
     1
102
RTVSPropertyOp19
 70
     1
102
RTVSPropertyOp20
 70
     1
102
RTVSPropertyOp21
 70
     1
102
RTVSPropertyOp22
 70
     1
102
RTVSPropertyOp23
 70
     1
102
RTVSPropertyOp24
 70
     1
102
RTVSPropertyOp25
 70
     1
102
RTVSPropertyOp26
 70
     1
102
RTVSPropertyOp27
 70
     1
102
RTVSPropertyOp28
 70
     1
102
RTVSPropertyOp29
 70
     1
102
RTVSPropertyOp30
 70
     1
102
RTVSPropertyOp31
 70
     1
102
RTVSPropertyOp32
 70
     1
102
RTVSPropertyOp33
 70
     1
102
RTVSPropertyOp34
 70
     1
102
RTVSPropertyOp35
 70
     1
102
RTVSPropertyOp36
 70
     1
102
RTVSPropertyOp37
 70
     1
102
RTVSPropertyOp38
 70
     1
102
RTVSPropertyOp39
 70
     1
102
RTVSPropertyOp40
 70
     1
102
RTVSPropertyOp41
 70
     1
102
RTVSPropertyOp42
 70
     1
102
RTVSPropertyOp43
 70
     1
102
RTVSPropertyOp44
 70
     1
102
RTVSPropertyOp45
 70
     1
102
RTVSPropertyOp46
 70
     1
102
RTVSPropertyOp47
 70
     1
102
RTVSPropertyOp48
 70
     1
102
RTVSPropertyOp49
 70
     1
102
RTVSPropertyOp50
 70
     1
102
RTVSPropertyOp51
 70
     0
102
RTVSPropertyOp52
 70
     0
102
RTVSPropertyOp53
 70
     1
102
RTVSPropertyOp54
 70
     1
102
RTVSPropertyOp55
 70
     1
102
RTVSPropertyOp56
 70
     1
102
RTVSPropertyOp57
 70
     1
102
RTVSPropertyOp58
 70
     1
102
RTVSPropertyOp59
 70
     1
102
RTVSPropertyOp60
 70
     1
102
RTVSPropertyOp61
 70
     1
102
RTVSPropertyOp62
 70
     1
  0
XRECORD
  5
EB4B
102
{ACAD_REACTORS
330
EB4A
102
}
330
EB4A
100
AcDbXrecord
280
     1
102
RTVSPost2010Prop28
280
     0
102
RTVSPost2010PropOp28
 70
     1
102
RTVSPost2010Prop29
280
     1
102
RTVSPost2010PropOp29
 70
     1
102
RTVSPost2010Prop30
280
     1
102
RTVSPost2010PropOp30
 70
     1
102
RTVSPost2010Prop31
280
     0
102
RTVSPost2010PropOp31
 70
     1
102
RTVSPost2010Prop32
280
     0
102
RTVSPost2010PropOp32
 70
     1
102
RTVSPost2010Prop33
280
     0
102
RTVSPost2010PropOp33
 70
     1
102
RTVSPost2010Prop34
280
     0
102
RTVSPost2010PropOp34
 70
     1
102
RTVSPost2010Prop35
280
     0
102
RTVSPost2010PropOp35
 70
     1
102
RTVSPost2010Prop36
280
     0
102
RTVSPost2010PropOp36
 70
     1
102
RTVSPost2010Prop37
 90
       50
102
RTVSPost2010PropOp37
 70
     0
102
RTVSPost2010Prop38
140
0.0
102
RTVSPost2010PropOp38
 70
     0
102
RTVSPost2010Prop39
140
1.0
102
RTVSPost2010PropOp39
 70
     0
102
RTVSPost2010Prop40
 90
        0
102
RTVSPost2010PropOp40
 70
     0
102
RTVSPost2010Prop41ColorIndex
 90
       18
102
RTVSPost2010Prop41ColorRGB
 90
        0
102
RTVSPost2010PropOp41
 70
     0
102
RTVSPost2010Prop42
 90
       50
102
RTVSPost2010PropOp42
 70
     0
102
RTVSPost2010Prop43
 90
        3
102
RTVSPost2010PropOp43
 70
     0
102
RTVSPost2010Prop44ColorIndex
 90
        5
102
RTVSPost2010Prop44ColorRGB
 90
      255
102
RTVSPost2010PropOp44
 70
     0
102
RTVSPost2010Prop45
280
     0
102
RTVSPost2010PropOp45
 70
     1
102
RTVSPost2010Prop46
 90
       50
102
RTVSPost2010PropOp46
 70
     0
102
RTVSPost2010Prop47
 90
       50
102
RTVSPost2010PropOp47
 70
     0
102
RTVSPost2010Prop48
 90
       50
102
RTVSPost2010PropOp48
 70
     0
102
RTVSPost2010Prop49
280
     0
102
RTVSPost2010PropOp49
 70
     1
102
RTVSPost2010Prop50
 90
       50
102
RTVSPost2010PropOp50
 70
     0
102
RTVSPost2010Prop51ColorIndex
 90
      256
102
RTVSPost2010Prop51ColorRGB
 90
-16777216
102
RTVSPost2010PropOp51
 70
     0
102
RTVSPost2010Prop52
140
1.0
102
RTVSPost2010PropOp52
 70
     0
102
RTVSPost2010Prop53
 90
        2
102
RTVSPost2010PropOp53
 70
     0
102
RTVSPost2010Prop54
  1
strokes_ogs.tif
102
RTVSPost2010PropOp54
 70
     0
102
RTVSPost2010Prop55
280
     0
102
RTVSPost2010PropOp55
 70
     1
102
RTVSPost2010Prop56
140
1.0
102
RTVSPost2010PropOp56
 70
     0
102
RTVSPost2010Prop57
140
1.0
102
RTVSPost2010PropOp57
 70
     0
102
RTVSPropertyOp0
 70
     0
102
RTVSPropertyOp1
 70
     0
102
RTVSPropertyOp2
 70
     0
102
RTVSPropertyOp3
 70
     0
102
RTVSPropertyOp4
 70
     0
102
RTVSPropertyOp5
 70
     0
102
RTVSPropertyOp6
 70
     0
102
RTVSPropertyOp7
 70
     0
102
RTVSPropertyOp8
 70
     0
102
RTVSPropertyOp9
 70
     0
102
RTVSPropertyOp10
 70
     0
102
RTVSPropertyOp11
 70
     0
102
RTVSPropertyOp12
 70
     0
102
RTVSPropertyOp13
 70
     0
102
RTVSPropertyOp14
 70
     2
102
RTVSPropertyOp15
 70
     0
102
RTVSPropertyOp16
 70
     0
102
RTVSPropertyOp17
 70
     0
102
RTVSPropertyOp18
 70
     0
102
RTVSPropertyOp19
 70
     0
102
RTVSPropertyOp20
 70
     0
102
RTVSPropertyOp21
 70
     0
102
RTVSPropertyOp22
 70
     0
102
RTVSPropertyOp23
 70
     0
102
RTVSPropertyOp24
 70
     0
102
RTVSPropertyOp25
 70
     0
102
RTVSPropertyOp26
 70
     0
102
RTVSPropertyOp27
 70
     0
102
RTVSPropertyOp28
 70
     1
102
RTVSPropertyOp29
 70
     1
102
RTVSPropertyOp30
 70
     1
102
RTVSPropertyOp31
 70
     1
102
RTVSPropertyOp32
 70
     1
102
RTVSPropertyOp33
 70
     1
102
RTVSPropertyOp34
 70
     1
102
RTVSPropertyOp35
 70
     1
102
RTVSPropertyOp36
 70
     1
102
RTVSPropertyOp37
 70
     0
102
RTVSPropertyOp38
 70
     0
102
RTVSPropertyOp39
 70
     0
102
RTVSPropertyOp40
 70
     0
102
RTVSPropertyOp41
 70
     0
102
RTVSPropertyOp42
 70
     0
102
RTVSPropertyOp43
 70
     0
102
RTVSPropertyOp44
 70
     0
102
RTVSPropertyOp45
 70
     1
102
RTVSPropertyOp46
 70
     0
102
RTVSPropertyOp47
 70
     0
102
RTVSPropertyOp48
 70
     0
102
RTVSPropertyOp49
 70
     1
102
RTVSPropertyOp50
 70
     0
102
RTVSPropertyOp51
 70
     0
102
RTVSPropertyOp52
 70
     0
102
RTVSPropertyOp53
 70
     0
102
RTVSPropertyOp54
 70
     0
102
RTVSPropertyOp55
 70
     1
102
RTVSPropertyOp56
 70
     0
102
RTVSPropertyOp57
 70
     0
102
RTVSPropertyOp58
 70
     0
102
RTVSPropertyOp59
 70
     0
102
RTVSPropertyOp60
 70
     0
102
RTVSPropertyOp61
 70
     0
102
RTVSPropertyOp62
 70
     0
  0
XRECORD
  5
EB39
102
{ACAD_REACTORS
330
EB38
102
}
330
EB38
100
AcDbXrecord
280
     1
102
RTVSPost2010Prop28
280
     0
102
RTVSPost2010PropOp28
 70
     1
102
RTVSPost2010Prop29
280
     1
102
RTVSPost2010PropOp29
 70
     1
102
RTVSPost2010Prop30
280
     1
102
RTVSPost2010PropOp30
 70
     1
102
RTVSPost2010Prop31
280
     0
102
RTVSPost2010PropOp31
 70
     1
102
RTVSPost2010Prop32
280
     0
102
RTVSPost2010PropOp32
 70
     1
102
RTVSPost2010Prop33
280
     0
102
RTVSPost2010PropOp33
 70
     1
102
RTVSPost2010Prop34
280
     0
102
RTVSPost2010PropOp34
 70
     1
102
RTVSPost2010Prop35
280
     0
102
RTVSPost2010PropOp35
 70
     1
102
RTVSPost2010Prop36
280
     0
102
RTVSPost2010PropOp36
 70
     1
102
RTVSPost2010Prop37
 90
       50
102
RTVSPost2010PropOp37
 70
     1
102
RTVSPost2010Prop38
140
0.0
102
RTVSPost2010PropOp38
 70
     1
102
RTVSPost2010Prop39
140
1.0
102
RTVSPost2010PropOp39
 70
     1
102
RTVSPost2010Prop40
 90
        0
102
RTVSPost2010PropOp40
 70
     1
102
RTVSPost2010Prop41ColorIndex
 90
       18
102
RTVSPost2010Prop41ColorRGB
 90
        0
102
RTVSPost2010PropOp41
 70
     1
102
RTVSPost2010Prop42
 90
       50
102
RTVSPost2010PropOp42
 70
     1
102
RTVSPost2010Prop43
 90
        3
102
RTVSPost2010PropOp43
 70
     1
102
RTVSPost2010Prop44ColorIndex
 90
        5
102
RTVSPost2010Prop44ColorRGB
 90
      255
102
RTVSPost2010PropOp44
 70
     1
102
RTVSPost2010Prop45
280
     0
102
RTVSPost2010PropOp45
 70
     1
102
RTVSPost2010Prop46
 90
       50
102
RTVSPost2010PropOp46
 70
     1
102
RTVSPost2010Prop47
 90
       50
102
RTVSPost2010PropOp47
 70
     1
102
RTVSPost2010Prop48
 90
       50
102
RTVSPost2010PropOp48
 70
     1
102
RTVSPost2010Prop49
280
     0
102
RTVSPost2010PropOp49
 70
     1
102
RTVSPost2010Prop50
 90
       50
102
RTVSPost2010PropOp50
 70
     1
102
RTVSPost2010Prop51ColorIndex
 90
      256
102
RTVSPost2010Prop51ColorRGB
 90
-16777216
102
RTVSPost2010PropOp51
 70
     0
102
RTVSPost2010Prop52
140
1.0
102
RTVSPost2010PropOp52
 70
     0
102
RTVSPost2010Prop53
 90
        2
102
RTVSPost2010PropOp53
 70
     1
102
RTVSPost2010Prop54
  1
strokes_ogs.tif
102
RTVSPost2010PropOp54
 70
     1
102
RTVSPost2010Prop55
280
     0
102
RTVSPost2010PropOp55
 70
     1
102
RTVSPost2010Prop56
140
1.0
102
RTVSPost2010PropOp56
 70
     1
102
RTVSPost2010Prop57
140
1.0
102
RTVSPost2010PropOp57
 70
     1
102
RTVSPropertyOp0
 70
     1
102
RTVSPropertyOp1
 70
     1
102
RTVSPropertyOp2
 70
     1
102
RTVSPropertyOp3
 70
     1
102
RTVSPropertyOp4
 70
     1
102
RTVSPropertyOp5
 70
     1
102
RTVSPropertyOp6
 70
     1
102
RTVSPropertyOp7
 70
     1
102
RTVSPropertyOp8
 70
     1
102
RTVSPropertyOp9
 70
     1
102
RTVSPropertyOp10
 70
     1
102
RTVSPropertyOp11
 70
     1
102
RTVSPropertyOp12
 70
     1
102
RTVSPropertyOp13
 70
     1
102
RTVSPropertyOp14
 70
     1
102
RTVSPropertyOp15
 70
     1
102
RTVSPropertyOp16
 70
     1
102
RTVSPropertyOp17
 70
     1
102
RTVSPropertyOp18
 70
     1
102
RTVSPropertyOp19
 70
     1
102
RTVSPropertyOp20
 70
     1
102
RTVSPropertyOp21
 70
     1
102
RTVSPropertyOp22
 70
     1
102
RTVSPropertyOp23
 70
     1
102
RTVSPropertyOp24
 70
     1
102
RTVSPropertyOp25
 70
     1
102
RTVSPropertyOp26
 70
     1
102
RTVSPropertyOp27
 70
     1
102
RTVSPropertyOp28
 70
     1
102
RTVSPropertyOp29
 70
     1
102
RTVSPropertyOp30
 70
     1
102
RTVSPropertyOp31
 70
     1
102
RTVSPropertyOp32
 70
     1
102
RTVSPropertyOp33
 70
     1
102
RTVSPropertyOp34
 70
     1
102
RTVSPropertyOp35
 70
     1
102
RTVSPropertyOp36
 70
     1
102
RTVSPropertyOp37
 70
     1
102
RTVSPropertyOp38
 70
     1
102
RTVSPropertyOp39
 70
     1
102
RTVSPropertyOp40
 70
     1
102
RTVSPropertyOp41
 70
     1
102
RTVSPropertyOp42
 70
     1
102
RTVSPropertyOp43
 70
     1
102
RTVSPropertyOp44
 70
     1
102
RTVSPropertyOp45
 70
     1
102
RTVSPropertyOp46
 70
     1
102
RTVSPropertyOp47
 70
     1
102
RTVSPropertyOp48
 70
     1
102
RTVSPropertyOp49
 70
     1
102
RTVSPropertyOp50
 70
     1
102
RTVSPropertyOp51
 70
     0
102
RTVSPropertyOp52
 70
     0
102
RTVSPropertyOp53
 70
     1
102
RTVSPropertyOp54
 70
     1
102
RTVSPropertyOp55
 70
     1
102
RTVSPropertyOp56
 70
     1
102
RTVSPropertyOp57
 70
     1
102
RTVSPropertyOp58
 70
     1
102
RTVSPropertyOp59
 70
     1
102
RTVSPropertyOp60
 70
     1
102
RTVSPropertyOp61
 70
     1
102
RTVSPropertyOp62
 70
     1
  0
XRECORD
  5
EB1D
102
{ACAD_REACTORS
330
EB1C
102
}
330
EB1C
100
AcDbXrecord
280
     1
102
RTVSPost2010Prop28
280
     0
102
RTVSPost2010PropOp28
 70
     1
102
RTVSPost2010Prop29
280
     1
102
RTVSPost2010PropOp29
 70
     1
102
RTVSPost2010Prop30
280
     1
102
RTVSPost2010PropOp30
 70
     1
102
RTVSPost2010Prop31
280
     0
102
RTVSPost2010PropOp31
 70
     1
102
RTVSPost2010Prop32
280
     0
102
RTVSPost2010PropOp32
 70
     1
102
RTVSPost2010Prop33
280
     0
102
RTVSPost2010PropOp33
 70
     1
102
RTVSPost2010Prop34
280
     0
102
RTVSPost2010PropOp34
 70
     1
102
RTVSPost2010Prop35
280
     0
102
RTVSPost2010PropOp35
 70
     1
102
RTVSPost2010Prop36
280
     0
102
RTVSPost2010PropOp36
 70
     1
102
RTVSPost2010Prop37
 90
       50
102
RTVSPost2010PropOp37
 70
     1
102
RTVSPost2010Prop38
140
0.0
102
RTVSPost2010PropOp38
 70
     1
102
RTVSPost2010Prop39
140
1.0
102
RTVSPost2010PropOp39
 70
     1
102
RTVSPost2010Prop40
 90
        0
102
RTVSPost2010PropOp40
 70
     1
102
RTVSPost2010Prop41ColorIndex
 90
       18
102
RTVSPost2010Prop41ColorRGB
 90
        0
102
RTVSPost2010PropOp41
 70
     1
102
RTVSPost2010Prop42
 90
       50
102
RTVSPost2010PropOp42
 70
     1
102
RTVSPost2010Prop43
 90
        3
102
RTVSPost2010PropOp43
 70
     1
102
RTVSPost2010Prop44ColorIndex
 90
        5
102
RTVSPost2010Prop44ColorRGB
 90
      255
102
RTVSPost2010PropOp44
 70
     1
102
RTVSPost2010Prop45
280
     0
102
RTVSPost2010PropOp45
 70
     1
102
RTVSPost2010Prop46
 90
       50
102
RTVSPost2010PropOp46
 70
     1
102
RTVSPost2010Prop47
 90
       50
102
RTVSPost2010PropOp47
 70
     1
102
RTVSPost2010Prop48
 90
       50
102
RTVSPost2010PropOp48
 70
     1
102
RTVSPost2010Prop49
280
     0
102
RTVSPost2010PropOp49
 70
     1
102
RTVSPost2010Prop50
 90
       50
102
RTVSPost2010PropOp50
 70
     1
102
RTVSPost2010Prop51ColorIndex
 90
      256
102
RTVSPost2010Prop51ColorRGB
 90
-16777216
102
RTVSPost2010PropOp51
 70
     0
102
RTVSPost2010Prop52
140
1.0
102
RTVSPost2010PropOp52
 70
     0
102
RTVSPost2010Prop53
 90
        2
102
RTVSPost2010PropOp53
 70
     1
102
RTVSPost2010Prop54
  1
strokes_ogs.tif
102
RTVSPost2010PropOp54
 70
     1
102
RTVSPost2010Prop55
280
     0
102
RTVSPost2010PropOp55
 70
     1
102
RTVSPost2010Prop56
140
1.0
102
RTVSPost2010PropOp56
 70
     1
102
RTVSPost2010Prop57
140
1.0
102
RTVSPost2010PropOp57
 70
     1
102
RTVSPropertyOp0
 70
     1
102
RTVSPropertyOp1
 70
     1
102
RTVSPropertyOp2
 70
     1
102
RTVSPropertyOp3
 70
     1
102
RTVSPropertyOp4
 70
     1
102
RTVSPropertyOp5
 70
     1
102
RTVSPropertyOp6
 70
     1
102
RTVSPropertyOp7
 70
     1
102
RTVSPropertyOp8
 70
     1
102
RTVSPropertyOp9
 70
     1
102
RTVSPropertyOp10
 70
     1
102
RTVSPropertyOp11
 70
     1
102
RTVSPropertyOp12
 70
     1
102
RTVSPropertyOp13
 70
     1
102
RTVSPropertyOp14
 70
     1
102
RTVSPropertyOp15
 70
     1
102
RTVSPropertyOp16
 70
     1
102
RTVSPropertyOp17
 70
     1
102
RTVSPropertyOp18
 70
     1
102
RTVSPropertyOp19
 70
     1
102
RTVSPropertyOp20
 70
     1
102
RTVSPropertyOp21
 70
     1
102
RTVSPropertyOp22
 70
     1
102
RTVSPropertyOp23
 70
     1
102
RTVSPropertyOp24
 70
     1
102
RTVSPropertyOp25
 70
     1
102
RTVSPropertyOp26
 70
     1
102
RTVSPropertyOp27
 70
     1
102
RTVSPropertyOp28
 70
     1
102
RTVSPropertyOp29
 70
     1
102
RTVSPropertyOp30
 70
     1
102
RTVSPropertyOp31
 70
     1
102
RTVSPropertyOp32
 70
     1
102
RTVSPropertyOp33
 70
     1
102
RTVSPropertyOp34
 70
     1
102
RTVSPropertyOp35
 70
     1
102
RTVSPropertyOp36
 70
     1
102
RTVSPropertyOp37
 70
     1
102
RTVSPropertyOp38
 70
     1
102
RTVSPropertyOp39
 70
     1
102
RTVSPropertyOp40
 70
     1
102
RTVSPropertyOp41
 70
     1
102
RTVSPropertyOp42
 70
     1
102
RTVSPropertyOp43
 70
     1
102
RTVSPropertyOp44
 70
     1
102
RTVSPropertyOp45
 70
     1
102
RTVSPropertyOp46
 70
     1
102
RTVSPropertyOp47
 70
     1
102
RTVSPropertyOp48
 70
     1
102
RTVSPropertyOp49
 70
     1
102
RTVSPropertyOp50
 70
     1
102
RTVSPropertyOp51
 70
     0
102
RTVSPropertyOp52
 70
     0
102
RTVSPropertyOp53
 70
     1
102
RTVSPropertyOp54
 70
     1
102
RTVSPropertyOp55
 70
     1
102
RTVSPropertyOp56
 70
     1
102
RTVSPropertyOp57
 70
     1
102
RTVSPropertyOp58
 70
     1
102
RTVSPropertyOp59
 70
     1
102
RTVSPropertyOp60
 70
     1
102
RTVSPropertyOp61
 70
     1
102
RTVSPropertyOp62
 70
     1
  0
XRECORD
  5
EB1F
102
{ACAD_REACTORS
330
EB1E
102
}
330
EB1E
100
AcDbXrecord
280
     1
102
RTVSPost2010Prop28
280
     0
102
RTVSPost2010PropOp28
 70
     1
102
RTVSPost2010Prop29
280
     1
102
RTVSPost2010PropOp29
 70
     1
102
RTVSPost2010Prop30
280
     1
102
RTVSPost2010PropOp30
 70
     1
102
RTVSPost2010Prop31
280
     0
102
RTVSPost2010PropOp31
 70
     1
102
RTVSPost2010Prop32
280
     0
102
RTVSPost2010PropOp32
 70
     1
102
RTVSPost2010Prop33
280
     0
102
RTVSPost2010PropOp33
 70
     1
102
RTVSPost2010Prop34
280
     0
102
RTVSPost2010PropOp34
 70
     1
102
RTVSPost2010Prop35
280
     0
102
RTVSPost2010PropOp35
 70
     1
102
RTVSPost2010Prop36
280
     0
102
RTVSPost2010PropOp36
 70
     1
102
RTVSPost2010Prop37
 90
       50
102
RTVSPost2010PropOp37
 70
     1
102
RTVSPost2010Prop38
140
0.0
102
RTVSPost2010PropOp38
 70
     1
102
RTVSPost2010Prop39
140
1.0
102
RTVSPost2010PropOp39
 70
     1
102
RTVSPost2010Prop40
 90
        0
102
RTVSPost2010PropOp40
 70
     1
102
RTVSPost2010Prop41ColorIndex
 90
       18
102
RTVSPost2010Prop41ColorRGB
 90
        0
102
RTVSPost2010PropOp41
 70
     1
102
RTVSPost2010Prop42
 90
       50
102
RTVSPost2010PropOp42
 70
     1
102
RTVSPost2010Prop43
 90
        3
102
RTVSPost2010PropOp43
 70
     1
102
RTVSPost2010Prop44ColorIndex
 90
        5
102
RTVSPost2010Prop44ColorRGB
 90
      255
102
RTVSPost2010PropOp44
 70
     1
102
RTVSPost2010Prop45
280
     0
102
RTVSPost2010PropOp45
 70
     1
102
RTVSPost2010Prop46
 90
       50
102
RTVSPost2010PropOp46
 70
     1
102
RTVSPost2010Prop47
 90
       50
102
RTVSPost2010PropOp47
 70
     1
102
RTVSPost2010Prop48
 90
       50
102
RTVSPost2010PropOp48
 70
     1
102
RTVSPost2010Prop49
280
     0
102
RTVSPost2010PropOp49
 70
     1
102
RTVSPost2010Prop50
 90
       50
102
RTVSPost2010PropOp50
 70
     1
102
RTVSPost2010Prop51ColorIndex
 90
      256
102
RTVSPost2010Prop51ColorRGB
 90
-16777216
102
RTVSPost2010PropOp51
 70
     0
102
RTVSPost2010Prop52
140
1.0
102
RTVSPost2010PropOp52
 70
     0
102
RTVSPost2010Prop53
 90
        2
102
RTVSPost2010PropOp53
 70
     1
102
RTVSPost2010Prop54
  1
strokes_ogs.tif
102
RTVSPost2010PropOp54
 70
     1
102
RTVSPost2010Prop55
280
     0
102
RTVSPost2010PropOp55
 70
     1
102
RTVSPost2010Prop56
140
1.0
102
RTVSPost2010PropOp56
 70
     1
102
RTVSPost2010Prop57
140
1.0
102
RTVSPost2010PropOp57
 70
     1
102
RTVSPropertyOp0
 70
     1
102
RTVSPropertyOp1
 70
     1
102
RTVSPropertyOp2
 70
     1
102
RTVSPropertyOp3
 70
     1
102
RTVSPropertyOp4
 70
     1
102
RTVSPropertyOp5
 70
     1
102
RTVSPropertyOp6
 70
     1
102
RTVSPropertyOp7
 70
     1
102
RTVSPropertyOp8
 70
     1
102
RTVSPropertyOp9
 70
     1
102
RTVSPropertyOp10
 70
     1
102
RTVSPropertyOp11
 70
     1
102
RTVSPropertyOp12
 70
     1
102
RTVSPropertyOp13
 70
     1
102
RTVSPropertyOp14
 70
     1
102
RTVSPropertyOp15
 70
     1
102
RTVSPropertyOp16
 70
     1
102
RTVSPropertyOp17
 70
     1
102
RTVSPropertyOp18
 70
     1
102
RTVSPropertyOp19
 70
     1
102
RTVSPropertyOp20
 70
     1
102
RTVSPropertyOp21
 70
     1
102
RTVSPropertyOp22
 70
     1
102
RTVSPropertyOp23
 70
     1
102
RTVSPropertyOp24
 70
     1
102
RTVSPropertyOp25
 70
     1
102
RTVSPropertyOp26
 70
     1
102
RTVSPropertyOp27
 70
     1
102
RTVSPropertyOp28
 70
     1
102
RTVSPropertyOp29
 70
     1
102
RTVSPropertyOp30
 70
     1
102
RTVSPropertyOp31
 70
     1
102
RTVSPropertyOp32
 70
     1
102
RTVSPropertyOp33
 70
     1
102
RTVSPropertyOp34
 70
     1
102
RTVSPropertyOp35
 70
     1
102
RTVSPropertyOp36
 70
     1
102
RTVSPropertyOp37
 70
     1
102
RTVSPropertyOp38
 70
     1
102
RTVSPropertyOp39
 70
     1
102
RTVSPropertyOp40
 70
     1
102
RTVSPropertyOp41
 70
     1
102
RTVSPropertyOp42
 70
     1
102
RTVSPropertyOp43
 70
     1
102
RTVSPropertyOp44
 70
     1
102
RTVSPropertyOp45
 70
     1
102
RTVSPropertyOp46
 70
     1
102
RTVSPropertyOp47
 70
     1
102
RTVSPropertyOp48
 70
     1
102
RTVSPropertyOp49
 70
     1
102
RTVSPropertyOp50
 70
     1
102
RTVSPropertyOp51
 70
     0
102
RTVSPropertyOp52
 70
     0
102
RTVSPropertyOp53
 70
     1
102
RTVSPropertyOp54
 70
     1
102
RTVSPropertyOp55
 70
     1
102
RTVSPropertyOp56
 70
     1
102
RTVSPropertyOp57
 70
     1
102
RTVSPropertyOp58
 70
     1
102
RTVSPropertyOp59
 70
     1
102
RTVSPropertyOp60
 70
     1
102
RTVSPropertyOp61
 70
     1
102
RTVSPropertyOp62
 70
     1
  0
XRECORD
  5
EB21
102
{ACAD_REACTORS
330
EB20
102
}
330
EB20
100
AcDbXrecord
280
     1
102
RTVSPost2010Prop28
280
     0
102
RTVSPost2010PropOp28
 70
     1
102
RTVSPost2010Prop29
280
     1
102
RTVSPost2010PropOp29
 70
     1
102
RTVSPost2010Prop30
280
     1
102
RTVSPost2010PropOp30
 70
     1
102
RTVSPost2010Prop31
280
     0
102
RTVSPost2010PropOp31
 70
     1
102
RTVSPost2010Prop32
280
     0
102
RTVSPost2010PropOp32
 70
     1
102
RTVSPost2010Prop33
280
     0
102
RTVSPost2010PropOp33
 70
     1
102
RTVSPost2010Prop34
280
     0
102
RTVSPost2010PropOp34
 70
     1
102
RTVSPost2010Prop35
280
     0
102
RTVSPost2010PropOp35
 70
     1
102
RTVSPost2010Prop36
280
     0
102
RTVSPost2010PropOp36
 70
     1
102
RTVSPost2010Prop37
 90
       50
102
RTVSPost2010PropOp37
 70
     1
102
RTVSPost2010Prop38
140
0.0
102
RTVSPost2010PropOp38
 70
     1
102
RTVSPost2010Prop39
140
1.0
102
RTVSPost2010PropOp39
 70
     1
102
RTVSPost2010Prop40
 90
        0
102
RTVSPost2010PropOp40
 70
     1
102
RTVSPost2010Prop41ColorIndex
 90
       18
102
RTVSPost2010Prop41ColorRGB
 90
        0
102
RTVSPost2010PropOp41
 70
     1
102
RTVSPost2010Prop42
 90
       50
102
RTVSPost2010PropOp42
 70
     1
102
RTVSPost2010Prop43
 90
        3
102
RTVSPost2010PropOp43
 70
     1
102
RTVSPost2010Prop44ColorIndex
 90
        5
102
RTVSPost2010Prop44ColorRGB
 90
      255
102
RTVSPost2010PropOp44
 70
     1
102
RTVSPost2010Prop45
280
     0
102
RTVSPost2010PropOp45
 70
     1
102
RTVSPost2010Prop46
 90
       50
102
RTVSPost2010PropOp46
 70
     1
102
RTVSPost2010Prop47
 90
       50
102
RTVSPost2010PropOp47
 70
     1
102
RTVSPost2010Prop48
 90
       50
102
RTVSPost2010PropOp48
 70
     1
102
RTVSPost2010Prop49
280
     0
102
RTVSPost2010PropOp49
 70
     1
102
RTVSPost2010Prop50
 90
       50
102
RTVSPost2010PropOp50
 70
     1
102
RTVSPost2010Prop51ColorIndex
 90
      256
102
RTVSPost2010Prop51ColorRGB
 90
-16777216
102
RTVSPost2010PropOp51
 70
     0
102
RTVSPost2010Prop52
140
1.0
102
RTVSPost2010PropOp52
 70
     0
102
RTVSPost2010Prop53
 90
        2
102
RTVSPost2010PropOp53
 70
     1
102
RTVSPost2010Prop54
  1
strokes_ogs.tif
102
RTVSPost2010PropOp54
 70
     1
102
RTVSPost2010Prop55
280
     0
102
RTVSPost2010PropOp55
 70
     1
102
RTVSPost2010Prop56
140
1.0
102
RTVSPost2010PropOp56
 70
     1
102
RTVSPost2010Prop57
140
1.0
102
RTVSPost2010PropOp57
 70
     1
102
RTVSPropertyOp0
 70
     1
102
RTVSPropertyOp1
 70
     1
102
RTVSPropertyOp2
 70
     1
102
RTVSPropertyOp3
 70
     1
102
RTVSPropertyOp4
 70
     1
102
RTVSPropertyOp5
 70
     1
102
RTVSPropertyOp6
 70
     1
102
RTVSPropertyOp7
 70
     1
102
RTVSPropertyOp8
 70
     1
102
RTVSPropertyOp9
 70
     1
102
RTVSPropertyOp10
 70
     1
102
RTVSPropertyOp11
 70
     1
102
RTVSPropertyOp12
 70
     1
102
RTVSPropertyOp13
 70
     1
102
RTVSPropertyOp14
 70
     1
102
RTVSPropertyOp15
 70
     1
102
RTVSPropertyOp16
 70
     1
102
RTVSPropertyOp17
 70
     1
102
RTVSPropertyOp18
 70
     1
102
RTVSPropertyOp19
 70
     1
102
RTVSPropertyOp20
 70
     1
102
RTVSPropertyOp21
 70
     1
102
RTVSPropertyOp22
 70
     1
102
RTVSPropertyOp23
 70
     1
102
RTVSPropertyOp24
 70
     1
102
RTVSPropertyOp25
 70
     1
102
RTVSPropertyOp26
 70
     1
102
RTVSPropertyOp27
 70
     1
102
RTVSPropertyOp28
 70
     1
102
RTVSPropertyOp29
 70
     1
102
RTVSPropertyOp30
 70
     1
102
RTVSPropertyOp31
 70
     1
102
RTVSPropertyOp32
 70
     1
102
RTVSPropertyOp33
 70
     1
102
RTVSPropertyOp34
 70
     1
102
RTVSPropertyOp35
 70
     1
102
RTVSPropertyOp36
 70
     1
102
RTVSPropertyOp37
 70
     1
102
RTVSPropertyOp38
 70
     1
102
RTVSPropertyOp39
 70
     1
102
RTVSPropertyOp40
 70
     1
102
RTVSPropertyOp41
 70
     1
102
RTVSPropertyOp42
 70
     1
102
RTVSPropertyOp43
 70
     1
102
RTVSPropertyOp44
 70
     1
102
RTVSPropertyOp45
 70
     1
102
RTVSPropertyOp46
 70
     1
102
RTVSPropertyOp47
 70
     1
102
RTVSPropertyOp48
 70
     1
102
RTVSPropertyOp49
 70
     1
102
RTVSPropertyOp50
 70
     1
102
RTVSPropertyOp51
 70
     0
102
RTVSPropertyOp52
 70
     0
102
RTVSPropertyOp53
 70
     1
102
RTVSPropertyOp54
 70
     1
102
RTVSPropertyOp55
 70
     1
102
RTVSPropertyOp56
 70
     1
102
RTVSPropertyOp57
 70
     1
102
RTVSPropertyOp58
 70
     1
102
RTVSPropertyOp59
 70
     1
102
RTVSPropertyOp60
 70
     1
102
RTVSPropertyOp61
 70
     1
102
RTVSPropertyOp62
 70
     1
  0
XRECORD
  5
EB23
102
{ACAD_REACTORS
330
EB22
102
}
330
EB22
100
AcDbXrecord
280
     1
102
RTVSPost2010Prop28
280
     0
102
RTVSPost2010PropOp28
 70
     1
102
RTVSPost2010Prop29
280
     1
102
RTVSPost2010PropOp29
 70
     1
102
RTVSPost2010Prop30
280
     1
102
RTVSPost2010PropOp30
 70
     1
102
RTVSPost2010Prop31
280
     0
102
RTVSPost2010PropOp31
 70
     1
102
RTVSPost2010Prop32
280
     0
102
RTVSPost2010PropOp32
 70
     1
102
RTVSPost2010Prop33
280
     0
102
RTVSPost2010PropOp33
 70
     1
102
RTVSPost2010Prop34
280
     0
102
RTVSPost2010PropOp34
 70
     1
102
RTVSPost2010Prop35
280
     0
102
RTVSPost2010PropOp35
 70
     1
102
RTVSPost2010Prop36
280
     0
102
RTVSPost2010PropOp36
 70
     1
102
RTVSPost2010Prop37
 90
       50
102
RTVSPost2010PropOp37
 70
     1
102
RTVSPost2010Prop38
140
0.0
102
RTVSPost2010PropOp38
 70
     1
102
RTVSPost2010Prop39
140
1.0
102
RTVSPost2010PropOp39
 70
     1
102
RTVSPost2010Prop40
 90
        0
102
RTVSPost2010PropOp40
 70
     1
102
RTVSPost2010Prop41ColorIndex
 90
       18
102
RTVSPost2010Prop41ColorRGB
 90
        0
102
RTVSPost2010PropOp41
 70
     1
102
RTVSPost2010Prop42
 90
       50
102
RTVSPost2010PropOp42
 70
     1
102
RTVSPost2010Prop43
 90
        3
102
RTVSPost2010PropOp43
 70
     1
102
RTVSPost2010Prop44ColorIndex
 90
        5
102
RTVSPost2010Prop44ColorRGB
 90
      255
102
RTVSPost2010PropOp44
 70
     1
102
RTVSPost2010Prop45
280
     0
102
RTVSPost2010PropOp45
 70
     1
102
RTVSPost2010Prop46
 90
       50
102
RTVSPost2010PropOp46
 70
     1
102
RTVSPost2010Prop47
 90
       50
102
RTVSPost2010PropOp47
 70
     1
102
RTVSPost2010Prop48
 90
       50
102
RTVSPost2010PropOp48
 70
     1
102
RTVSPost2010Prop49
280
     0
102
RTVSPost2010PropOp49
 70
     1
102
RTVSPost2010Prop50
 90
       50
102
RTVSPost2010PropOp50
 70
     1
102
RTVSPost2010Prop51ColorIndex
 90
      256
102
RTVSPost2010Prop51ColorRGB
 90
-16777216
102
RTVSPost2010PropOp51
 70
     0
102
RTVSPost2010Prop52
140
1.0
102
RTVSPost2010PropOp52
 70
     0
102
RTVSPost2010Prop53
 90
        2
102
RTVSPost2010PropOp53
 70
     1
102
RTVSPost2010Prop54
  1
strokes_ogs.tif
102
RTVSPost2010PropOp54
 70
     1
102
RTVSPost2010Prop55
280
     0
102
RTVSPost2010PropOp55
 70
     1
102
RTVSPost2010Prop56
140
1.0
102
RTVSPost2010PropOp56
 70
     1
102
RTVSPost2010Prop57
140
1.0
102
RTVSPost2010PropOp57
 70
     1
102
RTVSPropertyOp0
 70
     1
102
RTVSPropertyOp1
 70
     1
102
RTVSPropertyOp2
 70
     1
102
RTVSPropertyOp3
 70
     1
102
RTVSPropertyOp4
 70
     1
102
RTVSPropertyOp5
 70
     1
102
RTVSPropertyOp6
 70
     1
102
RTVSPropertyOp7
 70
     1
102
RTVSPropertyOp8
 70
     1
102
RTVSPropertyOp9
 70
     1
102
RTVSPropertyOp10
 70
     1
102
RTVSPropertyOp11
 70
     1
102
RTVSPropertyOp12
 70
     1
102
RTVSPropertyOp13
 70
     1
102
RTVSPropertyOp14
 70
     1
102
RTVSPropertyOp15
 70
     1
102
RTVSPropertyOp16
 70
     1
102
RTVSPropertyOp17
 70
     1
102
RTVSPropertyOp18
 70
     1
102
RTVSPropertyOp19
 70
     1
102
RTVSPropertyOp20
 70
     1
102
RTVSPropertyOp21
 70
     1
102
RTVSPropertyOp22
 70
     1
102
RTVSPropertyOp23
 70
     1
102
RTVSPropertyOp24
 70
     1
102
RTVSPropertyOp25
 70
     1
102
RTVSPropertyOp26
 70
     1
102
RTVSPropertyOp27
 70
     1
102
RTVSPropertyOp28
 70
     1
102
RTVSPropertyOp29
 70
     1
102
RTVSPropertyOp30
 70
     1
102
RTVSPropertyOp31
 70
     1
102
RTVSPropertyOp32
 70
     1
102
RTVSPropertyOp33
 70
     1
102
RTVSPropertyOp34
 70
     1
102
RTVSPropertyOp35
 70
     1
102
RTVSPropertyOp36
 70
     1
102
RTVSPropertyOp37
 70
     1
102
RTVSPropertyOp38
 70
     1
102
RTVSPropertyOp39
 70
     1
102
RTVSPropertyOp40
 70
     1
102
RTVSPropertyOp41
 70
     1
102
RTVSPropertyOp42
 70
     1
102
RTVSPropertyOp43
 70
     1
102
RTVSPropertyOp44
 70
     1
102
RTVSPropertyOp45
 70
     1
102
RTVSPropertyOp46
 70
     1
102
RTVSPropertyOp47
 70
     1
102
RTVSPropertyOp48
 70
     1
102
RTVSPropertyOp49
 70
     1
102
RTVSPropertyOp50
 70
     1
102
RTVSPropertyOp51
 70
     0
102
RTVSPropertyOp52
 70
     0
102
RTVSPropertyOp53
 70
     1
102
RTVSPropertyOp54
 70
     1
102
RTVSPropertyOp55
 70
     1
102
RTVSPropertyOp56
 70
     1
102
RTVSPropertyOp57
 70
     1
102
RTVSPropertyOp58
 70
     1
102
RTVSPropertyOp59
 70
     1
102
RTVSPropertyOp60
 70
     1
102
RTVSPropertyOp61
 70
     1
102
RTVSPropertyOp62
 70
     1
  0
XRECORD
  5
EB2B
102
{ACAD_REACTORS
330
EB2A
102
}
330
EB2A
100
AcDbXrecord
280
     1
102
RTVSPost2010Prop28
280
     0
102
RTVSPost2010PropOp28
 70
     1
102
RTVSPost2010Prop29
280
     1
102
RTVSPost2010PropOp29
 70
     1
102
RTVSPost2010Prop30
280
     1
102
RTVSPost2010PropOp30
 70
     1
102
RTVSPost2010Prop31
280
     0
102
RTVSPost2010PropOp31
 70
     1
102
RTVSPost2010Prop32
280
     0
102
RTVSPost2010PropOp32
 70
     1
102
RTVSPost2010Prop33
280
     0
102
RTVSPost2010PropOp33
 70
     1
102
RTVSPost2010Prop34
280
     0
102
RTVSPost2010PropOp34
 70
     1
102
RTVSPost2010Prop35
280
     0
102
RTVSPost2010PropOp35
 70
     1
102
RTVSPost2010Prop36
280
     0
102
RTVSPost2010PropOp36
 70
     1
102
RTVSPost2010Prop37
 90
       50
102
RTVSPost2010PropOp37
 70
     1
102
RTVSPost2010Prop38
140
0.0
102
RTVSPost2010PropOp38
 70
     1
102
RTVSPost2010Prop39
140
1.0
102
RTVSPost2010PropOp39
 70
     1
102
RTVSPost2010Prop40
 90
        0
102
RTVSPost2010PropOp40
 70
     1
102
RTVSPost2010Prop41ColorIndex
 90
       18
102
RTVSPost2010Prop41ColorRGB
 90
        0
102
RTVSPost2010PropOp41
 70
     1
102
RTVSPost2010Prop42
 90
       50
102
RTVSPost2010PropOp42
 70
     1
102
RTVSPost2010Prop43
 90
        3
102
RTVSPost2010PropOp43
 70
     1
102
RTVSPost2010Prop44ColorIndex
 90
        5
102
RTVSPost2010Prop44ColorRGB
 90
      255
102
RTVSPost2010PropOp44
 70
     1
102
RTVSPost2010Prop45
280
     0
102
RTVSPost2010PropOp45
 70
     1
102
RTVSPost2010Prop46
 90
       50
102
RTVSPost2010PropOp46
 70
     1
102
RTVSPost2010Prop47
 90
       50
102
RTVSPost2010PropOp47
 70
     1
102
RTVSPost2010Prop48
 90
       50
102
RTVSPost2010PropOp48
 70
     1
102
RTVSPost2010Prop49
280
     0
102
RTVSPost2010PropOp49
 70
     1
102
RTVSPost2010Prop50
 90
       50
102
RTVSPost2010PropOp50
 70
     1
102
RTVSPost2010Prop51ColorIndex
 90
      256
102
RTVSPost2010Prop51ColorRGB
 90
-16777216
102
RTVSPost2010PropOp51
 70
     0
102
RTVSPost2010Prop52
140
1.0
102
RTVSPost2010PropOp52
 70
     0
102
RTVSPost2010Prop53
 90
        2
102
RTVSPost2010PropOp53
 70
     1
102
RTVSPost2010Prop54
  1
strokes_ogs.tif
102
RTVSPost2010PropOp54
 70
     1
102
RTVSPost2010Prop55
280
     0
102
RTVSPost2010PropOp55
 70
     1
102
RTVSPost2010Prop56
140
1.0
102
RTVSPost2010PropOp56
 70
     1
102
RTVSPost2010Prop57
140
1.0
102
RTVSPost2010PropOp57
 70
     1
102
RTVSPropertyOp0
 70
     1
102
RTVSPropertyOp1
 70
     1
102
RTVSPropertyOp2
 70
     1
102
RTVSPropertyOp3
 70
     1
102
RTVSPropertyOp4
 70
     1
102
RTVSPropertyOp5
 70
     1
102
RTVSPropertyOp6
 70
     1
102
RTVSPropertyOp7
 70
     1
102
RTVSPropertyOp8
 70
     1
102
RTVSPropertyOp9
 70
     1
102
RTVSPropertyOp10
 70
     1
102
RTVSPropertyOp11
 70
     1
102
RTVSPropertyOp12
 70
     1
102
RTVSPropertyOp13
 70
     1
102
RTVSPropertyOp14
 70
     1
102
RTVSPropertyOp15
 70
     1
102
RTVSPropertyOp16
 70
     1
102
RTVSPropertyOp17
 70
     1
102
RTVSPropertyOp18
 70
     1
102
RTVSPropertyOp19
 70
     1
102
RTVSPropertyOp20
 70
     1
102
RTVSPropertyOp21
 70
     1
102
RTVSPropertyOp22
 70
     1
102
RTVSPropertyOp23
 70
     1
102
RTVSPropertyOp24
 70
     1
102
RTVSPropertyOp25
 70
     1
102
RTVSPropertyOp26
 70
     1
102
RTVSPropertyOp27
 70
     1
102
RTVSPropertyOp28
 70
     1
102
RTVSPropertyOp29
 70
     1
102
RTVSPropertyOp30
 70
     1
102
RTVSPropertyOp31
 70
     1
102
RTVSPropertyOp32
 70
     1
102
RTVSPropertyOp33
 70
     1
102
RTVSPropertyOp34
 70
     1
102
RTVSPropertyOp35
 70
     1
102
RTVSPropertyOp36
 70
     1
102
RTVSPropertyOp37
 70
     1
102
RTVSPropertyOp38
 70
     1
102
RTVSPropertyOp39
 70
     1
102
RTVSPropertyOp40
 70
     1
102
RTVSPropertyOp41
 70
     1
102
RTVSPropertyOp42
 70
     1
102
RTVSPropertyOp43
 70
     1
102
RTVSPropertyOp44
 70
     1
102
RTVSPropertyOp45
 70
     1
102
RTVSPropertyOp46
 70
     1
102
RTVSPropertyOp47
 70
     1
102
RTVSPropertyOp48
 70
     1
102
RTVSPropertyOp49
 70
     1
102
RTVSPropertyOp50
 70
     1
102
RTVSPropertyOp51
 70
     0
102
RTVSPropertyOp52
 70
     0
102
RTVSPropertyOp53
 70
     1
102
RTVSPropertyOp54
 70
     1
102
RTVSPropertyOp55
 70
     1
102
RTVSPropertyOp56
 70
     1
102
RTVSPropertyOp57
 70
     1
102
RTVSPropertyOp58
 70
     1
102
RTVSPropertyOp59
 70
     1
102
RTVSPropertyOp60
 70
     1
102
RTVSPropertyOp61
 70
     1
102
RTVSPropertyOp62
 70
     1
  0
XRECORD
  5
EB47
102
{ACAD_REACTORS
330
EB46
102
}
330
EB46
100
AcDbXrecord
280
     1
102
RTVSPost2010Prop28
280
     0
102
RTVSPost2010PropOp28
 70
     1
102
RTVSPost2010Prop29
280
     1
102
RTVSPost2010PropOp29
 70
     1
102
RTVSPost2010Prop30
280
     1
102
RTVSPost2010PropOp30
 70
     1
102
RTVSPost2010Prop31
280
     0
102
RTVSPost2010PropOp31
 70
     1
102
RTVSPost2010Prop32
280
     0
102
RTVSPost2010PropOp32
 70
     1
102
RTVSPost2010Prop33
280
     0
102
RTVSPost2010PropOp33
 70
     1
102
RTVSPost2010Prop34
280
     0
102
RTVSPost2010PropOp34
 70
     1
102
RTVSPost2010Prop35
280
     0
102
RTVSPost2010PropOp35
 70
     1
102
RTVSPost2010Prop36
280
     0
102
RTVSPost2010PropOp36
 70
     1
102
RTVSPost2010Prop37
 90
       50
102
RTVSPost2010PropOp37
 70
     0
102
RTVSPost2010Prop38
140
0.0
102
RTVSPost2010PropOp38
 70
     0
102
RTVSPost2010Prop39
140
1.0
102
RTVSPost2010PropOp39
 70
     0
102
RTVSPost2010Prop40
 90
        0
102
RTVSPost2010PropOp40
 70
     0
102
RTVSPost2010Prop41ColorIndex
 90
       18
102
RTVSPost2010Prop41ColorRGB
 90
        0
102
RTVSPost2010PropOp41
 70
     0
102
RTVSPost2010Prop42
 90
       50
102
RTVSPost2010PropOp42
 70
     0
102
RTVSPost2010Prop43
 90
        3
102
RTVSPost2010PropOp43
 70
     0
102
RTVSPost2010Prop44ColorIndex
 90
        5
102
RTVSPost2010Prop44ColorRGB
 90
      255
102
RTVSPost2010PropOp44
 70
     0
102
RTVSPost2010Prop45
280
     0
102
RTVSPost2010PropOp45
 70
     1
102
RTVSPost2010Prop46
 90
       50
102
RTVSPost2010PropOp46
 70
     0
102
RTVSPost2010Prop47
 90
       50
102
RTVSPost2010PropOp47
 70
     0
102
RTVSPost2010Prop48
 90
       50
102
RTVSPost2010PropOp48
 70
     0
102
RTVSPost2010Prop49
280
     0
102
RTVSPost2010PropOp49
 70
     1
102
RTVSPost2010Prop50
 90
       50
102
RTVSPost2010PropOp50
 70
     0
102
RTVSPost2010Prop51ColorIndex
 90
      256
102
RTVSPost2010Prop51ColorRGB
 90
-16777216
102
RTVSPost2010PropOp51
 70
     0
102
RTVSPost2010Prop52
140
1.0
102
RTVSPost2010PropOp52
 70
     0
102
RTVSPost2010Prop53
 90
        2
102
RTVSPost2010PropOp53
 70
     0
102
RTVSPost2010Prop54
  1
strokes_ogs.tif
102
RTVSPost2010PropOp54
 70
     0
102
RTVSPost2010Prop55
280
     0
102
RTVSPost2010PropOp55
 70
     1
102
RTVSPost2010Prop56
140
1.0
102
RTVSPost2010PropOp56
 70
     0
102
RTVSPost2010Prop57
140
1.0
102
RTVSPost2010PropOp57
 70
     0
102
RTVSPropertyOp0
 70
     0
102
RTVSPropertyOp1
 70
     0
102
RTVSPropertyOp2
 70
     0
102
RTVSPropertyOp3
 70
     0
102
RTVSPropertyOp4
 70
     0
102
RTVSPropertyOp5
 70
     0
102
RTVSPropertyOp6
 70
     0
102
RTVSPropertyOp7
 70
     0
102
RTVSPropertyOp8
 70
     0
102
RTVSPropertyOp9
 70
     0
102
RTVSPropertyOp10
 70
     0
102
RTVSPropertyOp11
 70
     0
102
RTVSPropertyOp12
 70
     0
102
RTVSPropertyOp13
 70
     0
102
RTVSPropertyOp14
 70
     2
102
RTVSPropertyOp15
 70
     0
102
RTVSPropertyOp16
 70
     0
102
RTVSPropertyOp17
 70
     0
102
RTVSPropertyOp18
 70
     0
102
RTVSPropertyOp19
 70
     0
102
RTVSPropertyOp20
 70
     0
102
RTVSPropertyOp21
 70
     0
102
RTVSPropertyOp22
 70
     0
102
RTVSPropertyOp23
 70
     0
102
RTVSPropertyOp24
 70
     0
102
RTVSPropertyOp25
 70
     0
102
RTVSPropertyOp26
 70
     0
102
RTVSPropertyOp27
 70
     0
102
RTVSPropertyOp28
 70
     1
102
RTVSPropertyOp29
 70
     1
102
RTVSPropertyOp30
 70
     1
102
RTVSPropertyOp31
 70
     1
102
RTVSPropertyOp32
 70
     1
102
RTVSPropertyOp33
 70
     1
102
RTVSPropertyOp34
 70
     1
102
RTVSPropertyOp35
 70
     1
102
RTVSPropertyOp36
 70
     1
102
RTVSPropertyOp37
 70
     0
102
RTVSPropertyOp38
 70
     0
102
RTVSPropertyOp39
 70
     0
102
RTVSPropertyOp40
 70
     0
102
RTVSPropertyOp41
 70
     0
102
RTVSPropertyOp42
 70
     0
102
RTVSPropertyOp43
 70
     0
102
RTVSPropertyOp44
 70
     0
102
RTVSPropertyOp45
 70
     1
102
RTVSPropertyOp46
 70
     0
102
RTVSPropertyOp47
 70
     0
102
RTVSPropertyOp48
 70
     0
102
RTVSPropertyOp49
 70
     1
102
RTVSPropertyOp50
 70
     0
102
RTVSPropertyOp51
 70
     0
102
RTVSPropertyOp52
 70
     0
102
RTVSPropertyOp53
 70
     0
102
RTVSPropertyOp54
 70
     0
102
RTVSPropertyOp55
 70
     1
102
RTVSPropertyOp56
 70
     0
102
RTVSPropertyOp57
 70
     0
102
RTVSPropertyOp58
 70
     0
102
RTVSPropertyOp59
 70
     0
102
RTVSPropertyOp60
 70
     0
102
RTVSPropertyOp61
 70
     0
102
RTVSPropertyOp62
 70
     0
  0
XRECORD
  5
EB37
102
{ACAD_REACTORS
330
EB36
102
}
330
EB36
100
AcDbXrecord
280
     1
102
RTVSPost2010Prop28
280
     0
102
RTVSPost2010PropOp28
 70
     1
102
RTVSPost2010Prop29
280
     1
102
RTVSPost2010PropOp29
 70
     1
102
RTVSPost2010Prop30
280
     1
102
RTVSPost2010PropOp30
 70
     1
102
RTVSPost2010Prop31
280
     0
102
RTVSPost2010PropOp31
 70
     1
102
RTVSPost2010Prop32
280
     0
102
RTVSPost2010PropOp32
 70
     1
102
RTVSPost2010Prop33
280
     0
102
RTVSPost2010PropOp33
 70
     1
102
RTVSPost2010Prop34
280
     0
102
RTVSPost2010PropOp34
 70
     1
102
RTVSPost2010Prop35
280
     0
102
RTVSPost2010PropOp35
 70
     1
102
RTVSPost2010Prop36
280
     0
102
RTVSPost2010PropOp36
 70
     1
102
RTVSPost2010Prop37
 90
       50
102
RTVSPost2010PropOp37
 70
     1
102
RTVSPost2010Prop38
140
0.0
102
RTVSPost2010PropOp38
 70
     1
102
RTVSPost2010Prop39
140
1.0
102
RTVSPost2010PropOp39
 70
     1
102
RTVSPost2010Prop40
 90
        0
102
RTVSPost2010PropOp40
 70
     1
102
RTVSPost2010Prop41ColorIndex
 90
       18
102
RTVSPost2010Prop41ColorRGB
 90
        0
102
RTVSPost2010PropOp41
 70
     1
102
RTVSPost2010Prop42
 90
       50
102
RTVSPost2010PropOp42
 70
     1
102
RTVSPost2010Prop43
 90
        3
102
RTVSPost2010PropOp43
 70
     1
102
RTVSPost2010Prop44ColorIndex
 90
        5
102
RTVSPost2010Prop44ColorRGB
 90
      255
102
RTVSPost2010PropOp44
 70
     1
102
RTVSPost2010Prop45
280
     0
102
RTVSPost2010PropOp45
 70
     1
102
RTVSPost2010Prop46
 90
       50
102
RTVSPost2010PropOp46
 70
     1
102
RTVSPost2010Prop47
 90
       50
102
RTVSPost2010PropOp47
 70
     1
102
RTVSPost2010Prop48
 90
       50
102
RTVSPost2010PropOp48
 70
     1
102
RTVSPost2010Prop49
280
     0
102
RTVSPost2010PropOp49
 70
     1
102
RTVSPost2010Prop50
 90
       50
102
RTVSPost2010PropOp50
 70
     1
102
RTVSPost2010Prop51ColorIndex
 90
      256
102
RTVSPost2010Prop51ColorRGB
 90
-16777216
102
RTVSPost2010PropOp51
 70
     0
102
RTVSPost2010Prop52
140
1.0
102
RTVSPost2010PropOp52
 70
     0
102
RTVSPost2010Prop53
 90
        2
102
RTVSPost2010PropOp53
 70
     1
102
RTVSPost2010Prop54
  1
strokes_ogs.tif
102
RTVSPost2010PropOp54
 70
     1
102
RTVSPost2010Prop55
280
     0
102
RTVSPost2010PropOp55
 70
     1
102
RTVSPost2010Prop56
140
1.0
102
RTVSPost2010PropOp56
 70
     1
102
RTVSPost2010Prop57
140
1.0
102
RTVSPost2010PropOp57
 70
     1
102
RTVSPropertyOp0
 70
     1
102
RTVSPropertyOp1
 70
     1
102
RTVSPropertyOp2
 70
     1
102
RTVSPropertyOp3
 70
     1
102
RTVSPropertyOp4
 70
     1
102
RTVSPropertyOp5
 70
     1
102
RTVSPropertyOp6
 70
     1
102
RTVSPropertyOp7
 70
     1
102
RTVSPropertyOp8
 70
     1
102
RTVSPropertyOp9
 70
     1
102
RTVSPropertyOp10
 70
     1
102
RTVSPropertyOp11
 70
     1
102
RTVSPropertyOp12
 70
     1
102
RTVSPropertyOp13
 70
     1
102
RTVSPropertyOp14
 70
     1
102
RTVSPropertyOp15
 70
     1
102
RTVSPropertyOp16
 70
     1
102
RTVSPropertyOp17
 70
     1
102
RTVSPropertyOp18
 70
     1
102
RTVSPropertyOp19
 70
     1
102
RTVSPropertyOp20
 70
     1
102
RTVSPropertyOp21
 70
     1
102
RTVSPropertyOp22
 70
     1
102
RTVSPropertyOp23
 70
     1
102
RTVSPropertyOp24
 70
     1
102
RTVSPropertyOp25
 70
     1
102
RTVSPropertyOp26
 70
     1
102
RTVSPropertyOp27
 70
     1
102
RTVSPropertyOp28
 70
     1
102
RTVSPropertyOp29
 70
     1
102
RTVSPropertyOp30
 70
     1
102
RTVSPropertyOp31
 70
     1
102
RTVSPropertyOp32
 70
     1
102
RTVSPropertyOp33
 70
     1
102
RTVSPropertyOp34
 70
     1
102
RTVSPropertyOp35
 70
     1
102
RTVSPropertyOp36
 70
     1
102
RTVSPropertyOp37
 70
     1
102
RTVSPropertyOp38
 70
     1
102
RTVSPropertyOp39
 70
     1
102
RTVSPropertyOp40
 70
     1
102
RTVSPropertyOp41
 70
     1
102
RTVSPropertyOp42
 70
     1
102
RTVSPropertyOp43
 70
     1
102
RTVSPropertyOp44
 70
     1
102
RTVSPropertyOp45
 70
     1
102
RTVSPropertyOp46
 70
     1
102
RTVSPropertyOp47
 70
     1
102
RTVSPropertyOp48
 70
     1
102
RTVSPropertyOp49
 70
     1
102
RTVSPropertyOp50
 70
     1
102
RTVSPropertyOp51
 70
     0
102
RTVSPropertyOp52
 70
     0
102
RTVSPropertyOp53
 70
     1
102
RTVSPropertyOp54
 70
     1
102
RTVSPropertyOp55
 70
     1
102
RTVSPropertyOp56
 70
     1
102
RTVSPropertyOp57
 70
     1
102
RTVSPropertyOp58
 70
     1
102
RTVSPropertyOp59
 70
     1
102
RTVSPropertyOp60
 70
     1
102
RTVSPropertyOp61
 70
     1
102
RTVSPropertyOp62
 70
     1
  0
XRECORD
  5
EB49
102
{ACAD_REACTORS
330
EB48
102
}
330
EB48
100
AcDbXrecord
280
     1
102
RTVSPost2010Prop28
280
     0
102
RTVSPost2010PropOp28
 70
     1
102
RTVSPost2010Prop29
280
     1
102
RTVSPost2010PropOp29
 70
     1
102
RTVSPost2010Prop30
280
     1
102
RTVSPost2010PropOp30
 70
     1
102
RTVSPost2010Prop31
280
     0
102
RTVSPost2010PropOp31
 70
     1
102
RTVSPost2010Prop32
280
     0
102
RTVSPost2010PropOp32
 70
     1
102
RTVSPost2010Prop33
280
     0
102
RTVSPost2010PropOp33
 70
     1
102
RTVSPost2010Prop34
280
     0
102
RTVSPost2010PropOp34
 70
     1
102
RTVSPost2010Prop35
280
     0
102
RTVSPost2010PropOp35
 70
     1
102
RTVSPost2010Prop36
280
     0
102
RTVSPost2010PropOp36
 70
     1
102
RTVSPost2010Prop37
 90
       50
102
RTVSPost2010PropOp37
 70
     0
102
RTVSPost2010Prop38
140
0.0
102
RTVSPost2010PropOp38
 70
     0
102
RTVSPost2010Prop39
140
1.0
102
RTVSPost2010PropOp39
 70
     0
102
RTVSPost2010Prop40
 90
        0
102
RTVSPost2010PropOp40
 70
     0
102
RTVSPost2010Prop41ColorIndex
 90
       18
102
RTVSPost2010Prop41ColorRGB
 90
        0
102
RTVSPost2010PropOp41
 70
     0
102
RTVSPost2010Prop42
 90
       50
102
RTVSPost2010PropOp42
 70
     0
102
RTVSPost2010Prop43
 90
        3
102
RTVSPost2010PropOp43
 70
     0
102
RTVSPost2010Prop44ColorIndex
 90
        5
102
RTVSPost2010Prop44ColorRGB
 90
      255
102
RTVSPost2010PropOp44
 70
     0
102
RTVSPost2010Prop45
280
     0
102
RTVSPost2010PropOp45
 70
     1
102
RTVSPost2010Prop46
 90
       50
102
RTVSPost2010PropOp46
 70
     0
102
RTVSPost2010Prop47
 90
       50
102
RTVSPost2010PropOp47
 70
     0
102
RTVSPost2010Prop48
 90
       50
102
RTVSPost2010PropOp48
 70
     0
102
RTVSPost2010Prop49
280
     0
102
RTVSPost2010PropOp49
 70
     1
102
RTVSPost2010Prop50
 90
       50
102
RTVSPost2010PropOp50
 70
     0
102
RTVSPost2010Prop51ColorIndex
 90
      256
102
RTVSPost2010Prop51ColorRGB
 90
-16777216
102
RTVSPost2010PropOp51
 70
     0
102
RTVSPost2010Prop52
140
1.0
102
RTVSPost2010PropOp52
 70
     0
102
RTVSPost2010Prop53
 90
        2
102
RTVSPost2010PropOp53
 70
     0
102
RTVSPost2010Prop54
  1
strokes_ogs.tif
102
RTVSPost2010PropOp54
 70
     0
102
RTVSPost2010Prop55
280
     0
102
RTVSPost2010PropOp55
 70
     1
102
RTVSPost2010Prop56
140
1.0
102
RTVSPost2010PropOp56
 70
     0
102
RTVSPost2010Prop57
140
1.0
102
RTVSPost2010PropOp57
 70
     0
102
RTVSPropertyOp0
 70
     0
102
RTVSPropertyOp1
 70
     0
102
RTVSPropertyOp2
 70
     0
102
RTVSPropertyOp3
 70
     0
102
RTVSPropertyOp4
 70
     0
102
RTVSPropertyOp5
 70
     0
102
RTVSPropertyOp6
 70
     0
102
RTVSPropertyOp7
 70
     0
102
RTVSPropertyOp8
 70
     0
102
RTVSPropertyOp9
 70
     0
102
RTVSPropertyOp10
 70
     0
102
RTVSPropertyOp11
 70
     0
102
RTVSPropertyOp12
 70
     0
102
RTVSPropertyOp13
 70
     0
102
RTVSPropertyOp14
 70
     2
102
RTVSPropertyOp15
 70
     0
102
RTVSPropertyOp16
 70
     0
102
RTVSPropertyOp17
 70
     0
102
RTVSPropertyOp18
 70
     0
102
RTVSPropertyOp19
 70
     0
102
RTVSPropertyOp20
 70
     0
102
RTVSPropertyOp21
 70
     0
102
RTVSPropertyOp22
 70
     0
102
RTVSPropertyOp23
 70
     0
102
RTVSPropertyOp24
 70
     0
102
RTVSPropertyOp25
 70
     0
102
RTVSPropertyOp26
 70
     0
102
RTVSPropertyOp27
 70
     0
102
RTVSPropertyOp28
 70
     1
102
RTVSPropertyOp29
 70
     1
102
RTVSPropertyOp30
 70
     1
102
RTVSPropertyOp31
 70
     1
102
RTVSPropertyOp32
 70
     1
102
RTVSPropertyOp33
 70
     1
102
RTVSPropertyOp34
 70
     1
102
RTVSPropertyOp35
 70
     1
102
RTVSPropertyOp36
 70
     1
102
RTVSPropertyOp37
 70
     0
102
RTVSPropertyOp38
 70
     0
102
RTVSPropertyOp39
 70
     0
102
RTVSPropertyOp40
 70
     0
102
RTVSPropertyOp41
 70
     0
102
RTVSPropertyOp42
 70
     0
102
RTVSPropertyOp43
 70
     0
102
RTVSPropertyOp44
 70
     0
102
RTVSPropertyOp45
 70
     1
102
RTVSPropertyOp46
 70
     0
102
RTVSPropertyOp47
 70
     0
102
RTVSPropertyOp48
 70
     0
102
RTVSPropertyOp49
 70
     1
102
RTVSPropertyOp50
 70
     0
102
RTVSPropertyOp51
 70
     0
102
RTVSPropertyOp52
 70
     0
102
RTVSPropertyOp53
 70
     0
102
RTVSPropertyOp54
 70
     0
102
RTVSPropertyOp55
 70
     1
102
RTVSPropertyOp56
 70
     0
102
RTVSPropertyOp57
 70
     0
102
RTVSPropertyOp58
 70
     0
102
RTVSPropertyOp59
 70
     0
102
RTVSPropertyOp60
 70
     0
102
RTVSPropertyOp61
 70
     0
102
RTVSPropertyOp62
 70
     0
  0
XRECORD
  5
EB2F
102
{ACAD_REACTORS
330
EB2E
102
}
330
EB2E
100
AcDbXrecord
280
     1
102
RTVSPost2010Prop28
280
     0
102
RTVSPost2010PropOp28
 70
     1
102
RTVSPost2010Prop29
280
     1
102
RTVSPost2010PropOp29
 70
     1
102
RTVSPost2010Prop30
280
     1
102
RTVSPost2010PropOp30
 70
     1
102
RTVSPost2010Prop31
280
     0
102
RTVSPost2010PropOp31
 70
     1
102
RTVSPost2010Prop32
280
     0
102
RTVSPost2010PropOp32
 70
     1
102
RTVSPost2010Prop33
280
     0
102
RTVSPost2010PropOp33
 70
     1
102
RTVSPost2010Prop34
280
     0
102
RTVSPost2010PropOp34
 70
     1
102
RTVSPost2010Prop35
280
     0
102
RTVSPost2010PropOp35
 70
     1
102
RTVSPost2010Prop36
280
     0
102
RTVSPost2010PropOp36
 70
     1
102
RTVSPost2010Prop37
 90
       50
102
RTVSPost2010PropOp37
 70
     1
102
RTVSPost2010Prop38
140
0.0
102
RTVSPost2010PropOp38
 70
     1
102
RTVSPost2010Prop39
140
1.0
102
RTVSPost2010PropOp39
 70
     1
102
RTVSPost2010Prop40
 90
        0
102
RTVSPost2010PropOp40
 70
     1
102
RTVSPost2010Prop41ColorIndex
 90
       18
102
RTVSPost2010Prop41ColorRGB
 90
        0
102
RTVSPost2010PropOp41
 70
     1
102
RTVSPost2010Prop42
 90
       50
102
RTVSPost2010PropOp42
 70
     1
102
RTVSPost2010Prop43
 90
        3
102
RTVSPost2010PropOp43
 70
     1
102
RTVSPost2010Prop44ColorIndex
 90
        5
102
RTVSPost2010Prop44ColorRGB
 90
      255
102
RTVSPost2010PropOp44
 70
     1
102
RTVSPost2010Prop45
280
     0
102
RTVSPost2010PropOp45
 70
     1
102
RTVSPost2010Prop46
 90
       50
102
RTVSPost2010PropOp46
 70
     1
102
RTVSPost2010Prop47
 90
       50
102
RTVSPost2010PropOp47
 70
     1
102
RTVSPost2010Prop48
 90
       50
102
RTVSPost2010PropOp48
 70
     1
102
RTVSPost2010Prop49
280
     0
102
RTVSPost2010PropOp49
 70
     1
102
RTVSPost2010Prop50
 90
       50
102
RTVSPost2010PropOp50
 70
     1
102
RTVSPost2010Prop51ColorIndex
 90
      256
102
RTVSPost2010Prop51ColorRGB
 90
-16777216
102
RTVSPost2010PropOp51
 70
     0
102
RTVSPost2010Prop52
140
1.0
102
RTVSPost2010PropOp52
 70
     0
102
RTVSPost2010Prop53
 90
        2
102
RTVSPost2010PropOp53
 70
     1
102
RTVSPost2010Prop54
  1
strokes_ogs.tif
102
RTVSPost2010PropOp54
 70
     1
102
RTVSPost2010Prop55
280
     0
102
RTVSPost2010PropOp55
 70
     1
102
RTVSPost2010Prop56
140
1.0
102
RTVSPost2010PropOp56
 70
     1
102
RTVSPost2010Prop57
140
1.0
102
RTVSPost2010PropOp57
 70
     1
102
RTVSPropertyOp0
 70
     1
102
RTVSPropertyOp1
 70
     1
102
RTVSPropertyOp2
 70
     1
102
RTVSPropertyOp3
 70
     1
102
RTVSPropertyOp4
 70
     1
102
RTVSPropertyOp5
 70
     1
102
RTVSPropertyOp6
 70
     1
102
RTVSPropertyOp7
 70
     1
102
RTVSPropertyOp8
 70
     1
102
RTVSPropertyOp9
 70
     1
102
RTVSPropertyOp10
 70
     1
102
RTVSPropertyOp11
 70
     1
102
RTVSPropertyOp12
 70
     1
102
RTVSPropertyOp13
 70
     1
102
RTVSPropertyOp14
 70
     1
102
RTVSPropertyOp15
 70
     1
102
RTVSPropertyOp16
 70
     1
102
RTVSPropertyOp17
 70
     1
102
RTVSPropertyOp18
 70
     1
102
RTVSPropertyOp19
 70
     1
102
RTVSPropertyOp20
 70
     1
102
RTVSPropertyOp21
 70
     1
102
RTVSPropertyOp22
 70
     1
102
RTVSPropertyOp23
 70
     1
102
RTVSPropertyOp24
 70
     1
102
RTVSPropertyOp25
 70
     1
102
RTVSPropertyOp26
 70
     1
102
RTVSPropertyOp27
 70
     1
102
RTVSPropertyOp28
 70
     1
102
RTVSPropertyOp29
 70
     1
102
RTVSPropertyOp30
 70
     1
102
RTVSPropertyOp31
 70
     1
102
RTVSPropertyOp32
 70
     1
102
RTVSPropertyOp33
 70
     1
102
RTVSPropertyOp34
 70
     1
102
RTVSPropertyOp35
 70
     1
102
RTVSPropertyOp36
 70
     1
102
RTVSPropertyOp37
 70
     1
102
RTVSPropertyOp38
 70
     1
102
RTVSPropertyOp39
 70
     1
102
RTVSPropertyOp40
 70
     1
102
RTVSPropertyOp41
 70
     1
102
RTVSPropertyOp42
 70
     1
102
RTVSPropertyOp43
 70
     1
102
RTVSPropertyOp44
 70
     1
102
RTVSPropertyOp45
 70
     1
102
RTVSPropertyOp46
 70
     1
102
RTVSPropertyOp47
 70
     1
102
RTVSPropertyOp48
 70
     1
102
RTVSPropertyOp49
 70
     1
102
RTVSPropertyOp50
 70
     1
102
RTVSPropertyOp51
 70
     0
102
RTVSPropertyOp52
 70
     0
102
RTVSPropertyOp53
 70
     1
102
RTVSPropertyOp54
 70
     1
102
RTVSPropertyOp55
 70
     1
102
RTVSPropertyOp56
 70
     1
102
RTVSPropertyOp57
 70
     1
102
RTVSPropertyOp58
 70
     1
102
RTVSPropertyOp59
 70
     1
102
RTVSPropertyOp60
 70
     1
102
RTVSPropertyOp61
 70
     1
102
RTVSPropertyOp62
 70
     1
  0
XRECORD
  5
EB45
102
{ACAD_REACTORS
330
EB44
102
}
330
EB44
100
AcDbXrecord
280
     1
102
RTVSPost2010Prop28
280
     0
102
RTVSPost2010PropOp28
 70
     1
102
RTVSPost2010Prop29
280
     1
102
RTVSPost2010PropOp29
 70
     1
102
RTVSPost2010Prop30
280
     1
102
RTVSPost2010PropOp30
 70
     1
102
RTVSPost2010Prop31
280
     0
102
RTVSPost2010PropOp31
 70
     1
102
RTVSPost2010Prop32
280
     0
102
RTVSPost2010PropOp32
 70
     1
102
RTVSPost2010Prop33
280
     0
102
RTVSPost2010PropOp33
 70
     1
102
RTVSPost2010Prop34
280
     0
102
RTVSPost2010PropOp34
 70
     1
102
RTVSPost2010Prop35
280
     0
102
RTVSPost2010PropOp35
 70
     1
102
RTVSPost2010Prop36
280
     0
102
RTVSPost2010PropOp36
 70
     1
102
RTVSPost2010Prop37
 90
       50
102
RTVSPost2010PropOp37
 70
     1
102
RTVSPost2010Prop38
140
0.0
102
RTVSPost2010PropOp38
 70
     1
102
RTVSPost2010Prop39
140
1.0
102
RTVSPost2010PropOp39
 70
     1
102
RTVSPost2010Prop40
 90
        0
102
RTVSPost2010PropOp40
 70
     1
102
RTVSPost2010Prop41ColorIndex
 90
       18
102
RTVSPost2010Prop41ColorRGB
 90
        0
102
RTVSPost2010PropOp41
 70
     1
102
RTVSPost2010Prop42
 90
       50
102
RTVSPost2010PropOp42
 70
     1
102
RTVSPost2010Prop43
 90
        3
102
RTVSPost2010PropOp43
 70
     1
102
RTVSPost2010Prop44ColorIndex
 90
        5
102
RTVSPost2010Prop44ColorRGB
 90
      255
102
RTVSPost2010PropOp44
 70
     1
102
RTVSPost2010Prop45
280
     0
102
RTVSPost2010PropOp45
 70
     1
102
RTVSPost2010Prop46
 90
       50
102
RTVSPost2010PropOp46
 70
     1
102
RTVSPost2010Prop47
 90
       50
102
RTVSPost2010PropOp47
 70
     1
102
RTVSPost2010Prop48
 90
       50
102
RTVSPost2010PropOp48
 70
     1
102
RTVSPost2010Prop49
280
     0
102
RTVSPost2010PropOp49
 70
     1
102
RTVSPost2010Prop50
 90
       50
102
RTVSPost2010PropOp50
 70
     1
102
RTVSPost2010Prop51ColorIndex
 90
      256
102
RTVSPost2010Prop51ColorRGB
 90
-16777216
102
RTVSPost2010PropOp51
 70
     0
102
RTVSPost2010Prop52
140
1.0
102
RTVSPost2010PropOp52
 70
     0
102
RTVSPost2010Prop53
 90
        2
102
RTVSPost2010PropOp53
 70
     1
102
RTVSPost2010Prop54
  1
strokes_ogs.tif
102
RTVSPost2010PropOp54
 70
     1
102
RTVSPost2010Prop55
280
     0
102
RTVSPost2010PropOp55
 70
     1
102
RTVSPost2010Prop56
140
1.0
102
RTVSPost2010PropOp56
 70
     1
102
RTVSPost2010Prop57
140
1.0
102
RTVSPost2010PropOp57
 70
     1
102
RTVSPropertyOp0
 70
     1
102
RTVSPropertyOp1
 70
     1
102
RTVSPropertyOp2
 70
     1
102
RTVSPropertyOp3
 70
     1
102
RTVSPropertyOp4
 70
     1
102
RTVSPropertyOp5
 70
     1
102
RTVSPropertyOp6
 70
     1
102
RTVSPropertyOp7
 70
     1
102
RTVSPropertyOp8
 70
     1
102
RTVSPropertyOp9
 70
     1
102
RTVSPropertyOp10
 70
     1
102
RTVSPropertyOp11
 70
     1
102
RTVSPropertyOp12
 70
     1
102
RTVSPropertyOp13
 70
     1
102
RTVSPropertyOp14
 70
     1
102
RTVSPropertyOp15
 70
     1
102
RTVSPropertyOp16
 70
     1
102
RTVSPropertyOp17
 70
     1
102
RTVSPropertyOp18
 70
     1
102
RTVSPropertyOp19
 70
     1
102
RTVSPropertyOp20
 70
     1
102
RTVSPropertyOp21
 70
     1
102
RTVSPropertyOp22
 70
     1
102
RTVSPropertyOp23
 70
     1
102
RTVSPropertyOp24
 70
     1
102
RTVSPropertyOp25
 70
     1
102
RTVSPropertyOp26
 70
     1
102
RTVSPropertyOp27
 70
     1
102
RTVSPropertyOp28
 70
     1
102
RTVSPropertyOp29
 70
     1
102
RTVSPropertyOp30
 70
     1
102
RTVSPropertyOp31
 70
     1
102
RTVSPropertyOp32
 70
     1
102
RTVSPropertyOp33
 70
     1
102
RTVSPropertyOp34
 70
     1
102
RTVSPropertyOp35
 70
     1
102
RTVSPropertyOp36
 70
     1
102
RTVSPropertyOp37
 70
     1
102
RTVSPropertyOp38
 70
     1
102
RTVSPropertyOp39
 70
     1
102
RTVSPropertyOp40
 70
     1
102
RTVSPropertyOp41
 70
     1
102
RTVSPropertyOp42
 70
     1
102
RTVSPropertyOp43
 70
     1
102
RTVSPropertyOp44
 70
     1
102
RTVSPropertyOp45
 70
     1
102
RTVSPropertyOp46
 70
     1
102
RTVSPropertyOp47
 70
     1
102
RTVSPropertyOp48
 70
     1
102
RTVSPropertyOp49
 70
     1
102
RTVSPropertyOp50
 70
     1
102
RTVSPropertyOp51
 70
     0
102
RTVSPropertyOp52
 70
     0
102
RTVSPropertyOp53
 70
     1
102
RTVSPropertyOp54
 70
     1
102
RTVSPropertyOp55
 70
     1
102
RTVSPropertyOp56
 70
     1
102
RTVSPropertyOp57
 70
     1
102
RTVSPropertyOp58
 70
     1
102
RTVSPropertyOp59
 70
     1
102
RTVSPropertyOp60
 70
     1
102
RTVSPropertyOp61
 70
     1
102
RTVSPropertyOp62
 70
     1
  0
XRECORD
  5
EB43
102
{ACAD_REACTORS
330
EB42
102
}
330
EB42
100
AcDbXrecord
280
     1
102
RTVSPost2010Prop28
280
     0
102
RTVSPost2010PropOp28
 70
     1
102
RTVSPost2010Prop29
280
     1
102
RTVSPost2010PropOp29
 70
     1
102
RTVSPost2010Prop30
280
     1
102
RTVSPost2010PropOp30
 70
     1
102
RTVSPost2010Prop31
280
     0
102
RTVSPost2010PropOp31
 70
     1
102
RTVSPost2010Prop32
280
     0
102
RTVSPost2010PropOp32
 70
     1
102
RTVSPost2010Prop33
280
     0
102
RTVSPost2010PropOp33
 70
     1
102
RTVSPost2010Prop34
280
     0
102
RTVSPost2010PropOp34
 70
     1
102
RTVSPost2010Prop35
280
     0
102
RTVSPost2010PropOp35
 70
     1
102
RTVSPost2010Prop36
280
     0
102
RTVSPost2010PropOp36
 70
     1
102
RTVSPost2010Prop37
 90
       50
102
RTVSPost2010PropOp37
 70
     1
102
RTVSPost2010Prop38
140
0.0
102
RTVSPost2010PropOp38
 70
     1
102
RTVSPost2010Prop39
140
1.0
102
RTVSPost2010PropOp39
 70
     1
102
RTVSPost2010Prop40
 90
        0
102
RTVSPost2010PropOp40
 70
     1
102
RTVSPost2010Prop41ColorIndex
 90
       18
102
RTVSPost2010Prop41ColorRGB
 90
        0
102
RTVSPost2010PropOp41
 70
     1
102
RTVSPost2010Prop42
 90
       50
102
RTVSPost2010PropOp42
 70
     1
102
RTVSPost2010Prop43
 90
        3
102
RTVSPost2010PropOp43
 70
     1
102
RTVSPost2010Prop44ColorIndex
 90
        5
102
RTVSPost2010Prop44ColorRGB
 90
      255
102
RTVSPost2010PropOp44
 70
     1
102
RTVSPost2010Prop45
280
     0
102
RTVSPost2010PropOp45
 70
     1
102
RTVSPost2010Prop46
 90
       50
102
RTVSPost2010PropOp46
 70
     1
102
RTVSPost2010Prop47
 90
       50
102
RTVSPost2010PropOp47
 70
     1
102
RTVSPost2010Prop48
 90
       50
102
RTVSPost2010PropOp48
 70
     1
102
RTVSPost2010Prop49
280
     0
102
RTVSPost2010PropOp49
 70
     1
102
RTVSPost2010Prop50
 90
       50
102
RTVSPost2010PropOp50
 70
     1
102
RTVSPost2010Prop51ColorIndex
 90
      256
102
RTVSPost2010Prop51ColorRGB
 90
-16777216
102
RTVSPost2010PropOp51
 70
     0
102
RTVSPost2010Prop52
140
1.0
102
RTVSPost2010PropOp52
 70
     0
102
RTVSPost2010Prop53
 90
        2
102
RTVSPost2010PropOp53
 70
     1
102
RTVSPost2010Prop54
  1
strokes_ogs.tif
102
RTVSPost2010PropOp54
 70
     1
102
RTVSPost2010Prop55
280
     0
102
RTVSPost2010PropOp55
 70
     1
102
RTVSPost2010Prop56
140
1.0
102
RTVSPost2010PropOp56
 70
     1
102
RTVSPost2010Prop57
140
1.0
102
RTVSPost2010PropOp57
 70
     1
102
RTVSPropertyOp0
 70
     1
102
RTVSPropertyOp1
 70
     1
102
RTVSPropertyOp2
 70
     1
102
RTVSPropertyOp3
 70
     1
102
RTVSPropertyOp4
 70
     1
102
RTVSPropertyOp5
 70
     1
102
RTVSPropertyOp6
 70
     1
102
RTVSPropertyOp7
 70
     1
102
RTVSPropertyOp8
 70
     1
102
RTVSPropertyOp9
 70
     1
102
RTVSPropertyOp10
 70
     1
102
RTVSPropertyOp11
 70
     1
102
RTVSPropertyOp12
 70
     1
102
RTVSPropertyOp13
 70
     1
102
RTVSPropertyOp14
 70
     1
102
RTVSPropertyOp15
 70
     1
102
RTVSPropertyOp16
 70
     1
102
RTVSPropertyOp17
 70
     1
102
RTVSPropertyOp18
 70
     1
102
RTVSPropertyOp19
 70
     1
102
RTVSPropertyOp20
 70
     1
102
RTVSPropertyOp21
 70
     1
102
RTVSPropertyOp22
 70
     1
102
RTVSPropertyOp23
 70
     1
102
RTVSPropertyOp24
 70
     1
102
RTVSPropertyOp25
 70
     1
102
RTVSPropertyOp26
 70
     1
102
RTVSPropertyOp27
 70
     1
102
RTVSPropertyOp28
 70
     1
102
RTVSPropertyOp29
 70
     1
102
RTVSPropertyOp30
 70
     1
102
RTVSPropertyOp31
 70
     1
102
RTVSPropertyOp32
 70
     1
102
RTVSPropertyOp33
 70
     1
102
RTVSPropertyOp34
 70
     1
102
RTVSPropertyOp35
 70
     1
102
RTVSPropertyOp36
 70
     1
102
RTVSPropertyOp37
 70
     1
102
RTVSPropertyOp38
 70
     1
102
RTVSPropertyOp39
 70
     1
102
RTVSPropertyOp40
 70
     1
102
RTVSPropertyOp41
 70
     1
102
RTVSPropertyOp42
 70
     1
102
RTVSPropertyOp43
 70
     1
102
RTVSPropertyOp44
 70
     1
102
RTVSPropertyOp45
 70
     1
102
RTVSPropertyOp46
 70
     1
102
RTVSPropertyOp47
 70
     1
102
RTVSPropertyOp48
 70
     1
102
RTVSPropertyOp49
 70
     1
102
RTVSPropertyOp50
 70
     1
102
RTVSPropertyOp51
 70
     0
102
RTVSPropertyOp52
 70
     0
102
RTVSPropertyOp53
 70
     1
102
RTVSPropertyOp54
 70
     1
102
RTVSPropertyOp55
 70
     1
102
RTVSPropertyOp56
 70
     1
102
RTVSPropertyOp57
 70
     1
102
RTVSPropertyOp58
 70
     1
102
RTVSPropertyOp59
 70
     1
102
RTVSPropertyOp60
 70
     1
102
RTVSPropertyOp61
 70
     1
102
RTVSPropertyOp62
 70
     1
  0
XRECORD
  5
EB3D
102
{ACAD_REACTORS
330
EB3C
102
}
330
EB3C
100
AcDbXrecord
280
     1
102
RTVSPost2010Prop28
280
     0
102
RTVSPost2010PropOp28
 70
     1
102
RTVSPost2010Prop29
280
     1
102
RTVSPost2010PropOp29
 70
     1
102
RTVSPost2010Prop30
280
     1
102
RTVSPost2010PropOp30
 70
     1
102
RTVSPost2010Prop31
280
     0
102
RTVSPost2010PropOp31
 70
     1
102
RTVSPost2010Prop32
280
     0
102
RTVSPost2010PropOp32
 70
     1
102
RTVSPost2010Prop33
280
     0
102
RTVSPost2010PropOp33
 70
     1
102
RTVSPost2010Prop34
280
     0
102
RTVSPost2010PropOp34
 70
     1
102
RTVSPost2010Prop35
280
     0
102
RTVSPost2010PropOp35
 70
     1
102
RTVSPost2010Prop36
280
     0
102
RTVSPost2010PropOp36
 70
     1
102
RTVSPost2010Prop37
 90
       50
102
RTVSPost2010PropOp37
 70
     1
102
RTVSPost2010Prop38
140
0.0
102
RTVSPost2010PropOp38
 70
     1
102
RTVSPost2010Prop39
140
1.0
102
RTVSPost2010PropOp39
 70
     1
102
RTVSPost2010Prop40
 90
        0
102
RTVSPost2010PropOp40
 70
     1
102
RTVSPost2010Prop41ColorIndex
 90
       18
102
RTVSPost2010Prop41ColorRGB
 90
        0
102
RTVSPost2010PropOp41
 70
     1
102
RTVSPost2010Prop42
 90
       50
102
RTVSPost2010PropOp42
 70
     1
102
RTVSPost2010Prop43
 90
        3
102
RTVSPost2010PropOp43
 70
     1
102
RTVSPost2010Prop44ColorIndex
 90
        5
102
RTVSPost2010Prop44ColorRGB
 90
      255
102
RTVSPost2010PropOp44
 70
     1
102
RTVSPost2010Prop45
280
     0
102
RTVSPost2010PropOp45
 70
     1
102
RTVSPost2010Prop46
 90
       50
102
RTVSPost2010PropOp46
 70
     1
102
RTVSPost2010Prop47
 90
       50
102
RTVSPost2010PropOp47
 70
     1
102
RTVSPost2010Prop48
 90
       50
102
RTVSPost2010PropOp48
 70
     1
102
RTVSPost2010Prop49
280
     0
102
RTVSPost2010PropOp49
 70
     1
102
RTVSPost2010Prop50
 90
       50
102
RTVSPost2010PropOp50
 70
     1
102
RTVSPost2010Prop51ColorIndex
 90
      256
102
RTVSPost2010Prop51ColorRGB
 90
-16777216
102
RTVSPost2010PropOp51
 70
     0
102
RTVSPost2010Prop52
140
1.0
102
RTVSPost2010PropOp52
 70
     0
102
RTVSPost2010Prop53
 90
        2
102
RTVSPost2010PropOp53
 70
     1
102
RTVSPost2010Prop54
  1
strokes_ogs.tif
102
RTVSPost2010PropOp54
 70
     1
102
RTVSPost2010Prop55
280
     0
102
RTVSPost2010PropOp55
 70
     1
102
RTVSPost2010Prop56
140
1.0
102
RTVSPost2010PropOp56
 70
     1
102
RTVSPost2010Prop57
140
1.0
102
RTVSPost2010PropOp57
 70
     1
102
RTVSPropertyOp0
 70
     1
102
RTVSPropertyOp1
 70
     1
102
RTVSPropertyOp2
 70
     1
102
RTVSPropertyOp3
 70
     1
102
RTVSPropertyOp4
 70
     1
102
RTVSPropertyOp5
 70
     1
102
RTVSPropertyOp6
 70
     1
102
RTVSPropertyOp7
 70
     1
102
RTVSPropertyOp8
 70
     1
102
RTVSPropertyOp9
 70
     1
102
RTVSPropertyOp10
 70
     1
102
RTVSPropertyOp11
 70
     1
102
RTVSPropertyOp12
 70
     1
102
RTVSPropertyOp13
 70
     1
102
RTVSPropertyOp14
 70
     1
102
RTVSPropertyOp15
 70
     1
102
RTVSPropertyOp16
 70
     1
102
RTVSPropertyOp17
 70
     1
102
RTVSPropertyOp18
 70
     1
102
RTVSPropertyOp19
 70
     1
102
RTVSPropertyOp20
 70
     1
102
RTVSPropertyOp21
 70
     1
102
RTVSPropertyOp22
 70
     1
102
RTVSPropertyOp23
 70
     1
102
RTVSPropertyOp24
 70
     1
102
RTVSPropertyOp25
 70
     1
102
RTVSPropertyOp26
 70
     1
102
RTVSPropertyOp27
 70
     1
102
RTVSPropertyOp28
 70
     1
102
RTVSPropertyOp29
 70
     1
102
RTVSPropertyOp30
 70
     1
102
RTVSPropertyOp31
 70
     1
102
RTVSPropertyOp32
 70
     1
102
RTVSPropertyOp33
 70
     1
102
RTVSPropertyOp34
 70
     1
102
RTVSPropertyOp35
 70
     1
102
RTVSPropertyOp36
 70
     1
102
RTVSPropertyOp37
 70
     1
102
RTVSPropertyOp38
 70
     1
102
RTVSPropertyOp39
 70
     1
102
RTVSPropertyOp40
 70
     1
102
RTVSPropertyOp41
 70
     1
102
RTVSPropertyOp42
 70
     1
102
RTVSPropertyOp43
 70
     1
102
RTVSPropertyOp44
 70
     1
102
RTVSPropertyOp45
 70
     1
102
RTVSPropertyOp46
 70
     1
102
RTVSPropertyOp47
 70
     1
102
RTVSPropertyOp48
 70
     1
102
RTVSPropertyOp49
 70
     1
102
RTVSPropertyOp50
 70
     1
102
RTVSPropertyOp51
 70
     0
102
RTVSPropertyOp52
 70
     0
102
RTVSPropertyOp53
 70
     1
102
RTVSPropertyOp54
 70
     1
102
RTVSPropertyOp55
 70
     1
102
RTVSPropertyOp56
 70
     1
102
RTVSPropertyOp57
 70
     1
102
RTVSPropertyOp58
 70
     1
102
RTVSPropertyOp59
 70
     1
102
RTVSPropertyOp60
 70
     1
102
RTVSPropertyOp61
 70
     1
102
RTVSPropertyOp62
 70
     1
  0
XRECORD
  5
EB3F
102
{ACAD_REACTORS
330
EB3E
102
}
330
EB3E
100
AcDbXrecord
280
     1
102
RTVSPost2010Prop28
280
     0
102
RTVSPost2010PropOp28
 70
     1
102
RTVSPost2010Prop29
280
     1
102
RTVSPost2010PropOp29
 70
     1
102
RTVSPost2010Prop30
280
     1
102
RTVSPost2010PropOp30
 70
     1
102
RTVSPost2010Prop31
280
     0
102
RTVSPost2010PropOp31
 70
     1
102
RTVSPost2010Prop32
280
     0
102
RTVSPost2010PropOp32
 70
     1
102
RTVSPost2010Prop33
280
     0
102
RTVSPost2010PropOp33
 70
     1
102
RTVSPost2010Prop34
280
     0
102
RTVSPost2010PropOp34
 70
     1
102
RTVSPost2010Prop35
280
     0
102
RTVSPost2010PropOp35
 70
     1
102
RTVSPost2010Prop36
280
     0
102
RTVSPost2010PropOp36
 70
     1
102
RTVSPost2010Prop37
 90
       50
102
RTVSPost2010PropOp37
 70
     1
102
RTVSPost2010Prop38
140
0.0
102
RTVSPost2010PropOp38
 70
     1
102
RTVSPost2010Prop39
140
1.0
102
RTVSPost2010PropOp39
 70
     1
102
RTVSPost2010Prop40
 90
        0
102
RTVSPost2010PropOp40
 70
     1
102
RTVSPost2010Prop41ColorIndex
 90
       18
102
RTVSPost2010Prop41ColorRGB
 90
        0
102
RTVSPost2010PropOp41
 70
     1
102
RTVSPost2010Prop42
 90
       50
102
RTVSPost2010PropOp42
 70
     1
102
RTVSPost2010Prop43
 90
        3
102
RTVSPost2010PropOp43
 70
     1
102
RTVSPost2010Prop44ColorIndex
 90
        5
102
RTVSPost2010Prop44ColorRGB
 90
      255
102
RTVSPost2010PropOp44
 70
     1
102
RTVSPost2010Prop45
280
     0
102
RTVSPost2010PropOp45
 70
     1
102
RTVSPost2010Prop46
 90
       50
102
RTVSPost2010PropOp46
 70
     1
102
RTVSPost2010Prop47
 90
       50
102
RTVSPost2010PropOp47
 70
     1
102
RTVSPost2010Prop48
 90
       50
102
RTVSPost2010PropOp48
 70
     1
102
RTVSPost2010Prop49
280
     0
102
RTVSPost2010PropOp49
 70
     1
102
RTVSPost2010Prop50
 90
       50
102
RTVSPost2010PropOp50
 70
     1
102
RTVSPost2010Prop51ColorIndex
 90
      256
102
RTVSPost2010Prop51ColorRGB
 90
-16777216
102
RTVSPost2010PropOp51
 70
     0
102
RTVSPost2010Prop52
140
1.0
102
RTVSPost2010PropOp52
 70
     0
102
RTVSPost2010Prop53
 90
        2
102
RTVSPost2010PropOp53
 70
     1
102
RTVSPost2010Prop54
  1
strokes_ogs.tif
102
RTVSPost2010PropOp54
 70
     1
102
RTVSPost2010Prop55
280
     0
102
RTVSPost2010PropOp55
 70
     1
102
RTVSPost2010Prop56
140
1.0
102
RTVSPost2010PropOp56
 70
     1
102
RTVSPost2010Prop57
140
1.0
102
RTVSPost2010PropOp57
 70
     1
102
RTVSPropertyOp0
 70
     1
102
RTVSPropertyOp1
 70
     1
102
RTVSPropertyOp2
 70
     1
102
RTVSPropertyOp3
 70
     1
102
RTVSPropertyOp4
 70
     1
102
RTVSPropertyOp5
 70
     1
102
RTVSPropertyOp6
 70
     1
102
RTVSPropertyOp7
 70
     1
102
RTVSPropertyOp8
 70
     1
102
RTVSPropertyOp9
 70
     1
102
RTVSPropertyOp10
 70
     1
102
RTVSPropertyOp11
 70
     1
102
RTVSPropertyOp12
 70
     1
102
RTVSPropertyOp13
 70
     1
102
RTVSPropertyOp14
 70
     1
102
RTVSPropertyOp15
 70
     1
102
RTVSPropertyOp16
 70
     1
102
RTVSPropertyOp17
 70
     1
102
RTVSPropertyOp18
 70
     1
102
RTVSPropertyOp19
 70
     1
102
RTVSPropertyOp20
 70
     1
102
RTVSPropertyOp21
 70
     1
102
RTVSPropertyOp22
 70
     1
102
RTVSPropertyOp23
 70
     1
102
RTVSPropertyOp24
 70
     1
102
RTVSPropertyOp25
 70
     1
102
RTVSPropertyOp26
 70
     1
102
RTVSPropertyOp27
 70
     1
102
RTVSPropertyOp28
 70
     1
102
RTVSPropertyOp29
 70
     1
102
RTVSPropertyOp30
 70
     1
102
RTVSPropertyOp31
 70
     1
102
RTVSPropertyOp32
 70
     1
102
RTVSPropertyOp33
 70
     1
102
RTVSPropertyOp34
 70
     1
102
RTVSPropertyOp35
 70
     1
102
RTVSPropertyOp36
 70
     1
102
RTVSPropertyOp37
 70
     1
102
RTVSPropertyOp38
 70
     1
102
RTVSPropertyOp39
 70
     1
102
RTVSPropertyOp40
 70
     1
102
RTVSPropertyOp41
 70
     1
102
RTVSPropertyOp42
 70
     1
102
RTVSPropertyOp43
 70
     1
102
RTVSPropertyOp44
 70
     1
102
RTVSPropertyOp45
 70
     1
102
RTVSPropertyOp46
 70
     1
102
RTVSPropertyOp47
 70
     1
102
RTVSPropertyOp48
 70
     1
102
RTVSPropertyOp49
 70
     1
102
RTVSPropertyOp50
 70
     1
102
RTVSPropertyOp51
 70
     0
102
RTVSPropertyOp52
 70
     0
102
RTVSPropertyOp53
 70
     1
102
RTVSPropertyOp54
 70
     1
102
RTVSPropertyOp55
 70
     1
102
RTVSPropertyOp56
 70
     1
102
RTVSPropertyOp57
 70
     1
102
RTVSPropertyOp58
 70
     1
102
RTVSPropertyOp59
 70
     1
102
RTVSPropertyOp60
 70
     1
102
RTVSPropertyOp61
 70
     1
102
RTVSPropertyOp62
 70
     1
  0
XRECORD
  5
EB35
102
{ACAD_REACTORS
330
EB34
102
}
330
EB34
100
AcDbXrecord
280
     1
102
RTVSPost2010Prop28
280
     0
102
RTVSPost2010PropOp28
 70
     1
102
RTVSPost2010Prop29
280
     1
102
RTVSPost2010PropOp29
 70
     1
102
RTVSPost2010Prop30
280
     1
102
RTVSPost2010PropOp30
 70
     1
102
RTVSPost2010Prop31
280
     0
102
RTVSPost2010PropOp31
 70
     1
102
RTVSPost2010Prop32
280
     0
102
RTVSPost2010PropOp32
 70
     1
102
RTVSPost2010Prop33
280
     0
102
RTVSPost2010PropOp33
 70
     1
102
RTVSPost2010Prop34
280
     0
102
RTVSPost2010PropOp34
 70
     1
102
RTVSPost2010Prop35
280
     0
102
RTVSPost2010PropOp35
 70
     1
102
RTVSPost2010Prop36
280
     0
102
RTVSPost2010PropOp36
 70
     1
102
RTVSPost2010Prop37
 90
       50
102
RTVSPost2010PropOp37
 70
     1
102
RTVSPost2010Prop38
140
0.0
102
RTVSPost2010PropOp38
 70
     1
102
RTVSPost2010Prop39
140
1.0
102
RTVSPost2010PropOp39
 70
     1
102
RTVSPost2010Prop40
 90
        0
102
RTVSPost2010PropOp40
 70
     1
102
RTVSPost2010Prop41ColorIndex
 90
       18
102
RTVSPost2010Prop41ColorRGB
 90
        0
102
RTVSPost2010PropOp41
 70
     1
102
RTVSPost2010Prop42
 90
       50
102
RTVSPost2010PropOp42
 70
     1
102
RTVSPost2010Prop43
 90
        3
102
RTVSPost2010PropOp43
 70
     1
102
RTVSPost2010Prop44ColorIndex
 90
        5
102
RTVSPost2010Prop44ColorRGB
 90
      255
102
RTVSPost2010PropOp44
 70
     1
102
RTVSPost2010Prop45
280
     0
102
RTVSPost2010PropOp45
 70
     1
102
RTVSPost2010Prop46
 90
       50
102
RTVSPost2010PropOp46
 70
     1
102
RTVSPost2010Prop47
 90
       50
102
RTVSPost2010PropOp47
 70
     1
102
RTVSPost2010Prop48
 90
       50
102
RTVSPost2010PropOp48
 70
     1
102
RTVSPost2010Prop49
280
     0
102
RTVSPost2010PropOp49
 70
     1
102
RTVSPost2010Prop50
 90
       50
102
RTVSPost2010PropOp50
 70
     1
102
RTVSPost2010Prop51ColorIndex
 90
      256
102
RTVSPost2010Prop51ColorRGB
 90
-16777216
102
RTVSPost2010PropOp51
 70
     0
102
RTVSPost2010Prop52
140
1.0
102
RTVSPost2010PropOp52
 70
     0
102
RTVSPost2010Prop53
 90
        2
102
RTVSPost2010PropOp53
 70
     1
102
RTVSPost2010Prop54
  1
strokes_ogs.tif
102
RTVSPost2010PropOp54
 70
     1
102
RTVSPost2010Prop55
280
     0
102
RTVSPost2010PropOp55
 70
     1
102
RTVSPost2010Prop56
140
1.0
102
RTVSPost2010PropOp56
 70
     1
102
RTVSPost2010Prop57
140
1.0
102
RTVSPost2010PropOp57
 70
     1
102
RTVSPropertyOp0
 70
     1
102
RTVSPropertyOp1
 70
     1
102
RTVSPropertyOp2
 70
     1
102
RTVSPropertyOp3
 70
     1
102
RTVSPropertyOp4
 70
     1
102
RTVSPropertyOp5
 70
     1
102
RTVSPropertyOp6
 70
     1
102
RTVSPropertyOp7
 70
     1
102
RTVSPropertyOp8
 70
     1
102
RTVSPropertyOp9
 70
     1
102
RTVSPropertyOp10
 70
     1
102
RTVSPropertyOp11
 70
     1
102
RTVSPropertyOp12
 70
     1
102
RTVSPropertyOp13
 70
     1
102
RTVSPropertyOp14
 70
     1
102
RTVSPropertyOp15
 70
     1
102
RTVSPropertyOp16
 70
     1
102
RTVSPropertyOp17
 70
     1
102
RTVSPropertyOp18
 70
     1
102
RTVSPropertyOp19
 70
     1
102
RTVSPropertyOp20
 70
     1
102
RTVSPropertyOp21
 70
     1
102
RTVSPropertyOp22
 70
     1
102
RTVSPropertyOp23
 70
     1
102
RTVSPropertyOp24
 70
     1
102
RTVSPropertyOp25
 70
     1
102
RTVSPropertyOp26
 70
     1
102
RTVSPropertyOp27
 70
     1
102
RTVSPropertyOp28
 70
     1
102
RTVSPropertyOp29
 70
     1
102
RTVSPropertyOp30
 70
     1
102
RTVSPropertyOp31
 70
     1
102
RTVSPropertyOp32
 70
     1
102
RTVSPropertyOp33
 70
     1
102
RTVSPropertyOp34
 70
     1
102
RTVSPropertyOp35
 70
     1
102
RTVSPropertyOp36
 70
     1
102
RTVSPropertyOp37
 70
     1
102
RTVSPropertyOp38
 70
     1
102
RTVSPropertyOp39
 70
     1
102
RTVSPropertyOp40
 70
     1
102
RTVSPropertyOp41
 70
     1
102
RTVSPropertyOp42
 70
     1
102
RTVSPropertyOp43
 70
     1
102
RTVSPropertyOp44
 70
     1
102
RTVSPropertyOp45
 70
     1
102
RTVSPropertyOp46
 70
     1
102
RTVSPropertyOp47
 70
     1
102
RTVSPropertyOp48
 70
     1
102
RTVSPropertyOp49
 70
     1
102
RTVSPropertyOp50
 70
     1
102
RTVSPropertyOp51
 70
     0
102
RTVSPropertyOp52
 70
     0
102
RTVSPropertyOp53
 70
     1
102
RTVSPropertyOp54
 70
     1
102
RTVSPropertyOp55
 70
     1
102
RTVSPropertyOp56
 70
     1
102
RTVSPropertyOp57
 70
     1
102
RTVSPropertyOp58
 70
     1
102
RTVSPropertyOp59
 70
     1
102
RTVSPropertyOp60
 70
     1
102
RTVSPropertyOp61
 70
     1
102
RTVSPropertyOp62
 70
     1
  0
XRECORD
  5
EB29
102
{ACAD_REACTORS
330
EB28
102
}
330
EB28
100
AcDbXrecord
280
     1
102
RTVSPost2010Prop28
280
     0
102
RTVSPost2010PropOp28
 70
     1
102
RTVSPost2010Prop29
280
     1
102
RTVSPost2010PropOp29
 70
     1
102
RTVSPost2010Prop30
280
     1
102
RTVSPost2010PropOp30
 70
     1
102
RTVSPost2010Prop31
280
     0
102
RTVSPost2010PropOp31
 70
     1
102
RTVSPost2010Prop32
280
     0
102
RTVSPost2010PropOp32
 70
     1
102
RTVSPost2010Prop33
280
     0
102
RTVSPost2010PropOp33
 70
     1
102
RTVSPost2010Prop34
280
     0
102
RTVSPost2010PropOp34
 70
     1
102
RTVSPost2010Prop35
280
     0
102
RTVSPost2010PropOp35
 70
     1
102
RTVSPost2010Prop36
280
     0
102
RTVSPost2010PropOp36
 70
     1
102
RTVSPost2010Prop37
 90
       50
102
RTVSPost2010PropOp37
 70
     1
102
RTVSPost2010Prop38
140
0.0
102
RTVSPost2010PropOp38
 70
     1
102
RTVSPost2010Prop39
140
1.0
102
RTVSPost2010PropOp39
 70
     1
102
RTVSPost2010Prop40
 90
        0
102
RTVSPost2010PropOp40
 70
     1
102
RTVSPost2010Prop41ColorIndex
 90
       18
102
RTVSPost2010Prop41ColorRGB
 90
        0
102
RTVSPost2010PropOp41
 70
     1
102
RTVSPost2010Prop42
 90
       50
102
RTVSPost2010PropOp42
 70
     1
102
RTVSPost2010Prop43
 90
        3
102
RTVSPost2010PropOp43
 70
     1
102
RTVSPost2010Prop44ColorIndex
 90
        5
102
RTVSPost2010Prop44ColorRGB
 90
      255
102
RTVSPost2010PropOp44
 70
     1
102
RTVSPost2010Prop45
280
     0
102
RTVSPost2010PropOp45
 70
     1
102
RTVSPost2010Prop46
 90
       50
102
RTVSPost2010PropOp46
 70
     1
102
RTVSPost2010Prop47
 90
       50
102
RTVSPost2010PropOp47
 70
     1
102
RTVSPost2010Prop48
 90
       50
102
RTVSPost2010PropOp48
 70
     1
102
RTVSPost2010Prop49
280
     0
102
RTVSPost2010PropOp49
 70
     1
102
RTVSPost2010Prop50
 90
       50
102
RTVSPost2010PropOp50
 70
     1
102
RTVSPost2010Prop51ColorIndex
 90
      256
102
RTVSPost2010Prop51ColorRGB
 90
-16777216
102
RTVSPost2010PropOp51
 70
     0
102
RTVSPost2010Prop52
140
1.0
102
RTVSPost2010PropOp52
 70
     0
102
RTVSPost2010Prop53
 90
        2
102
RTVSPost2010PropOp53
 70
     1
102
RTVSPost2010Prop54
  1
strokes_ogs.tif
102
RTVSPost2010PropOp54
 70
     1
102
RTVSPost2010Prop55
280
     0
102
RTVSPost2010PropOp55
 70
     1
102
RTVSPost2010Prop56
140
1.0
102
RTVSPost2010PropOp56
 70
     1
102
RTVSPost2010Prop57
140
1.0
102
RTVSPost2010PropOp57
 70
     1
102
RTVSPropertyOp0
 70
     1
102
RTVSPropertyOp1
 70
     1
102
RTVSPropertyOp2
 70
     1
102
RTVSPropertyOp3
 70
     1
102
RTVSPropertyOp4
 70
     1
102
RTVSPropertyOp5
 70
     1
102
RTVSPropertyOp6
 70
     1
102
RTVSPropertyOp7
 70
     1
102
RTVSPropertyOp8
 70
     1
102
RTVSPropertyOp9
 70
     1
102
RTVSPropertyOp10
 70
     1
102
RTVSPropertyOp11
 70
     1
102
RTVSPropertyOp12
 70
     1
102
RTVSPropertyOp13
 70
     1
102
RTVSPropertyOp14
 70
     1
102
RTVSPropertyOp15
 70
     1
102
RTVSPropertyOp16
 70
     1
102
RTVSPropertyOp17
 70
     1
102
RTVSPropertyOp18
 70
     1
102
RTVSPropertyOp19
 70
     1
102
RTVSPropertyOp20
 70
     1
102
RTVSPropertyOp21
 70
     1
102
RTVSPropertyOp22
 70
     1
102
RTVSPropertyOp23
 70
     1
102
RTVSPropertyOp24
 70
     1
102
RTVSPropertyOp25
 70
     1
102
RTVSPropertyOp26
 70
     1
102
RTVSPropertyOp27
 70
     1
102
RTVSPropertyOp28
 70
     1
102
RTVSPropertyOp29
 70
     1
102
RTVSPropertyOp30
 70
     1
102
RTVSPropertyOp31
 70
     1
102
RTVSPropertyOp32
 70
     1
102
RTVSPropertyOp33
 70
     1
102
RTVSPropertyOp34
 70
     1
102
RTVSPropertyOp35
 70
     1
102
RTVSPropertyOp36
 70
     1
102
RTVSPropertyOp37
 70
     1
102
RTVSPropertyOp38
 70
     1
102
RTVSPropertyOp39
 70
     1
102
RTVSPropertyOp40
 70
     1
102
RTVSPropertyOp41
 70
     1
102
RTVSPropertyOp42
 70
     1
102
RTVSPropertyOp43
 70
     1
102
RTVSPropertyOp44
 70
     1
102
RTVSPropertyOp45
 70
     1
102
RTVSPropertyOp46
 70
     1
102
RTVSPropertyOp47
 70
     1
102
RTVSPropertyOp48
 70
     1
102
RTVSPropertyOp49
 70
     1
102
RTVSPropertyOp50
 70
     1
102
RTVSPropertyOp51
 70
     0
102
RTVSPropertyOp52
 70
     0
102
RTVSPropertyOp53
 70
     1
102
RTVSPropertyOp54
 70
     1
102
RTVSPropertyOp55
 70
     1
102
RTVSPropertyOp56
 70
     1
102
RTVSPropertyOp57
 70
     1
102
RTVSPropertyOp58
 70
     1
102
RTVSPropertyOp59
 70
     1
102
RTVSPropertyOp60
 70
     1
102
RTVSPropertyOp61
 70
     1
102
RTVSPropertyOp62
 70
     1
  0
XRECORD
  5
EB41
102
{ACAD_REACTORS
330
EB40
102
}
330
EB40
100
AcDbXrecord
280
     1
102
RTVSPost2010Prop28
280
     0
102
RTVSPost2010PropOp28
 70
     1
102
RTVSPost2010Prop29
280
     1
102
RTVSPost2010PropOp29
 70
     1
102
RTVSPost2010Prop30
280
     1
102
RTVSPost2010PropOp30
 70
     1
102
RTVSPost2010Prop31
280
     0
102
RTVSPost2010PropOp31
 70
     1
102
RTVSPost2010Prop32
280
     0
102
RTVSPost2010PropOp32
 70
     1
102
RTVSPost2010Prop33
280
     0
102
RTVSPost2010PropOp33
 70
     1
102
RTVSPost2010Prop34
280
     0
102
RTVSPost2010PropOp34
 70
     1
102
RTVSPost2010Prop35
280
     0
102
RTVSPost2010PropOp35
 70
     1
102
RTVSPost2010Prop36
280
     0
102
RTVSPost2010PropOp36
 70
     1
102
RTVSPost2010Prop37
 90
       50
102
RTVSPost2010PropOp37
 70
     1
102
RTVSPost2010Prop38
140
0.0
102
RTVSPost2010PropOp38
 70
     1
102
RTVSPost2010Prop39
140
1.0
102
RTVSPost2010PropOp39
 70
     1
102
RTVSPost2010Prop40
 90
        0
102
RTVSPost2010PropOp40
 70
     1
102
RTVSPost2010Prop41ColorIndex
 90
       18
102
RTVSPost2010Prop41ColorRGB
 90
        0
102
RTVSPost2010PropOp41
 70
     1
102
RTVSPost2010Prop42
 90
       50
102
RTVSPost2010PropOp42
 70
     1
102
RTVSPost2010Prop43
 90
        3
102
RTVSPost2010PropOp43
 70
     1
102
RTVSPost2010Prop44ColorIndex
 90
        5
102
RTVSPost2010Prop44ColorRGB
 90
      255
102
RTVSPost2010PropOp44
 70
     1
102
RTVSPost2010Prop45
280
     0
102
RTVSPost2010PropOp45
 70
     1
102
RTVSPost2010Prop46
 90
       50
102
RTVSPost2010PropOp46
 70
     1
102
RTVSPost2010Prop47
 90
       50
102
RTVSPost2010PropOp47
 70
     1
102
RTVSPost2010Prop48
 90
       50
102
RTVSPost2010PropOp48
 70
     1
102
RTVSPost2010Prop49
280
     0
102
RTVSPost2010PropOp49
 70
     1
102
RTVSPost2010Prop50
 90
       50
102
RTVSPost2010PropOp50
 70
     1
102
RTVSPost2010Prop51ColorIndex
 90
      256
102
RTVSPost2010Prop51ColorRGB
 90
-16777216
102
RTVSPost2010PropOp51
 70
     0
102
RTVSPost2010Prop52
140
1.0
102
RTVSPost2010PropOp52
 70
     0
102
RTVSPost2010Prop53
 90
        2
102
RTVSPost2010PropOp53
 70
     1
102
RTVSPost2010Prop54
  1
strokes_ogs.tif
102
RTVSPost2010PropOp54
 70
     1
102
RTVSPost2010Prop55
280
     0
102
RTVSPost2010PropOp55
 70
     1
102
RTVSPost2010Prop56
140
1.0
102
RTVSPost2010PropOp56
 70
     1
102
RTVSPost2010Prop57
140
1.0
102
RTVSPost2010PropOp57
 70
     1
102
RTVSPropertyOp0
 70
     1
102
RTVSPropertyOp1
 70
     1
102
RTVSPropertyOp2
 70
     1
102
RTVSPropertyOp3
 70
     1
102
RTVSPropertyOp4
 70
     1
102
RTVSPropertyOp5
 70
     1
102
RTVSPropertyOp6
 70
     1
102
RTVSPropertyOp7
 70
     1
102
RTVSPropertyOp8
 70
     1
102
RTVSPropertyOp9
 70
     1
102
RTVSPropertyOp10
 70
     1
102
RTVSPropertyOp11
 70
     1
102
RTVSPropertyOp12
 70
     1
102
RTVSPropertyOp13
 70
     1
102
RTVSPropertyOp14
 70
     1
102
RTVSPropertyOp15
 70
     1
102
RTVSPropertyOp16
 70
     1
102
RTVSPropertyOp17
 70
     1
102
RTVSPropertyOp18
 70
     1
102
RTVSPropertyOp19
 70
     1
102
RTVSPropertyOp20
 70
     1
102
RTVSPropertyOp21
 70
     1
102
RTVSPropertyOp22
 70
     1
102
RTVSPropertyOp23
 70
     1
102
RTVSPropertyOp24
 70
     1
102
RTVSPropertyOp25
 70
     1
102
RTVSPropertyOp26
 70
     1
102
RTVSPropertyOp27
 70
     1
102
RTVSPropertyOp28
 70
     1
102
RTVSPropertyOp29
 70
     1
102
RTVSPropertyOp30
 70
     1
102
RTVSPropertyOp31
 70
     1
102
RTVSPropertyOp32
 70
     1
102
RTVSPropertyOp33
 70
     1
102
RTVSPropertyOp34
 70
     1
102
RTVSPropertyOp35
 70
     1
102
RTVSPropertyOp36
 70
     1
102
RTVSPropertyOp37
 70
     1
102
RTVSPropertyOp38
 70
     1
102
RTVSPropertyOp39
 70
     1
102
RTVSPropertyOp40
 70
     1
102
RTVSPropertyOp41
 70
     1
102
RTVSPropertyOp42
 70
     1
102
RTVSPropertyOp43
 70
     1
102
RTVSPropertyOp44
 70
     1
102
RTVSPropertyOp45
 70
     1
102
RTVSPropertyOp46
 70
     1
102
RTVSPropertyOp47
 70
     1
102
RTVSPropertyOp48
 70
     1
102
RTVSPropertyOp49
 70
     1
102
RTVSPropertyOp50
 70
     1
102
RTVSPropertyOp51
 70
     0
102
RTVSPropertyOp52
 70
     0
102
RTVSPropertyOp53
 70
     1
102
RTVSPropertyOp54
 70
     1
102
RTVSPropertyOp55
 70
     1
102
RTVSPropertyOp56
 70
     1
102
RTVSPropertyOp57
 70
     1
102
RTVSPropertyOp58
 70
     1
102
RTVSPropertyOp59
 70
     1
102
RTVSPropertyOp60
 70
     1
102
RTVSPropertyOp61
 70
     1
102
RTVSPropertyOp62
 70
     1
  0
ENDSEC
  0
EOF
