  0
SECTION
  2
HEADER
  9
$ACADVER
  1
AC1015
  9
$ACADMAINTVER
 70
    20
  9
$DWGCODEPAGE
  3
ANSI_932
  9
$INSBASE
 10
0.0
 20
0.0
 30
0.0
  9
$EXTMIN
 10
10.0
 20
10.000001
 30
0.0
  9
$EXTMAX
 10
755.4928069999997
 20
403.500962
 30
0.0
  9
$LIMMIN
 10
0.0
 20
0.0
  9
$LIMMAX
 10
792.0
 20
546.0
  9
$ORTHOMODE
 70
     1
  9
$REGENMODE
 70
     1
  9
$FILLMODE
 70
     1
  9
$QTEXTMODE
 70
     0
  9
$MIRRTEXT
 70
     1
  9
$LTSCALE
 40
20.0
  9
$ATTMODE
 70
     1
  9
$TEXTSIZE
 40
5.0
  9
$TRACEWID
 40
1.0
  9
$TEXTSTYLE
  7
STANDARD
  9
$CLAYER
  8
0
  9
$CELTYPE
  6
BYLAYER
  9
$CECOLOR
 62
   256
  9
$CELTSCALE
 40
1.0
  9
$DISPSILH
 70
     0
  9
$DIMSCALE
 40
1.0
  9
$DIMASZ
 40
2.5
  9
$DIMEXO
 40
1.0
  9
$DIMDLI
 40
10.0
  9
$DIMRND
 40
0.0
  9
$DIMDLE
 40
0.0
  9
$DIMEXE
 40
1.0
  9
$DIMTP
 40
0.0
  9
$DIMTM
 40
0.0
  9
$DIMTXT
 40
3.2
  9
$DIMCEN
 40
0.0
  9
$DIMTSZ
 40
0.0
  9
$DIMTOL
 70
     0
  9
$DIMLIM
 70
     0
  9
$DIMTIH
 70
     0
  9
$DIMTOH
 70
     0
  9
$DIMSE1
 70
     0
  9
$DIMSE2
 70
     0
  9
$DIMTAD
 70
     3
  9
$DIMZIN
 70
     8
  9
$DIMBLK
  1

  9
$DIMASO
 70
     1
  9
$DIMSHO
 70
     1
  9
$DIMPOST
  1

  9
$DIMAPOST
  1

  9
$DIMALT
 70
     0
  9
$DIMALTD
 70
     2
  9
$DIMALTF
 40
25.4
  9
$DIMLFAC
 40
1.0
  9
$DIMTOFL
 70
     1
  9
$DIMTVP
 40
0.0
  9
$DIMTIX
 70
     0
  9
$DIMSOXD
 70
     0
  9
$DIMSAH
 70
     1
  9
$DIMBLK1
  1

  9
$DIMBLK2
  1

  9
$DIMSTYLE
  2
STANDARD
  9
$DIMCLRD
 70
     0
  9
$DIMCLRE
 70
     0
  9
$DIMCLRT
 70
     0
  9
$DIMTFAC
 40
1.0
  9
$DIMGAP
 40
1.0
  9
$DIMJUST
 70
     0
  9
$DIMSD1
 70
     0
  9
$DIMSD2
 70
     0
  9
$DIMTOLJ
 70
     1
  9
$DIMTZIN
 70
     0
  9
$DIMALTZ
 70
     0
  9
$DIMALTTZ
 70
     0
  9
$DIMUPT
 70
     0
  9
$DIMDEC
 70
     4
  9
$DIMTDEC
 70
     4
  9
$DIMALTU
 70
     2
  9
$DIMALTTD
 70
     2
  9
$DIMTXSTY
  7
STANDARD
  9
$DIMAUNIT
 70
     0
  9
$DIMADEC
 70
     0
  9
$DIMALTRND
 40
0.0
  9
$DIMAZIN
 70
     0
  9
$DIMDSEP
 70
    46
  9
$DIMATFIT
 70
     3
  9
$DIMFRAC
 70
     0
  9
$DIMLDRBLK
  1

  9
$DIMLUNIT
 70
     2
  9
$DIMLWD
 70
    -2
  9
$DIMLWE
 70
    -2
  9
$DIMTMOVE
 70
     0
  9
$LUNITS
 70
     2
  9
$LUPREC
 70
     4
  9
$SKETCHINC
 40
1.0
  9
$FILLETRAD
 40
0.5
  9
$AUNITS
 70
     0
  9
$AUPREC
 70
     2
  9
$MENU
  1
.
  9
$ELEVATION
 40
0.0
  9
$PELEVATION
 40
0.0
  9
$THICKNESS
 40
0.0
  9
$LIMCHECK
 70
     0
  9
$CHAMFERA
 40
10.0
  9
$CHAMFERB
 40
10.0
  9
$CHAMFERC
 40
0.0
  9
$CHAMFERD
 40
0.0
  9
$SKPOLY
 70
     0
  9
$TDCREATE
 40
2451439.559735880
  9
$TDUCREATE
 40
2451439.184735880
  9
$TDUPDATE
 40
2457192.641760660
  9
$TDUUPDATE
 40
2457192.266760660
  9
$TDINDWG
 40
0.0139917245
  9
$TDUSRTIMER
 40
0.0139914120
  9
$USRTIMER
 70
     1
  9
$ANGBASE
 50
0.0
  9
$ANGDIR
 70
     0
  9
$PDMODE
 70
     0
  9
$PDSIZE
 40
0.0
  9
$PLINEWID
 40
0.0
  9
$SPLFRAME
 70
     0
  9
$SPLINETYPE
 70
     6
  9
$SPLINESEGS
 70
     8
  9
$HANDSEED
  5
F2DD
  9
$SURFTAB1
 70
     6
  9
$SURFTAB2
 70
     6
  9
$SURFTYPE
 70
     6
  9
$SURFU
 70
     6
  9
$SURFV
 70
     6
  9
$UCSBASE
  2

  9
$UCSNAME
  2

  9
$UCSORG
 10
0.0
 20
0.0
 30
0.0
  9
$UCSXDIR
 10
1.0
 20
0.0
 30
0.0
  9
$UCSYDIR
 10
0.0
 20
1.0
 30
0.0
  9
$UCSORTHOREF
  2

  9
$UCSORTHOVIEW
 70
     0
  9
$UCSORGTOP
 10
0.0
 20
0.0
 30
0.0
  9
$UCSORGBOTTOM
 10
0.0
 20
0.0
 30
0.0
  9
$UCSORGLEFT
 10
0.0
 20
0.0
 30
0.0
  9
$UCSORGRIGHT
 10
0.0
 20
0.0
 30
0.0
  9
$UCSORGFRONT
 10
0.0
 20
0.0
 30
0.0
  9
$UCSORGBACK
 10
0.0
 20
0.0
 30
0.0
  9
$PUCSBASE
  2

  9
$PUCSNAME
  2

  9
$PUCSORG
 10
0.0
 20
0.0
 30
0.0
  9
$PUCSXDIR
 10
1.0
 20
0.0
 30
0.0
  9
$PUCSYDIR
 10
0.0
 20
1.0
 30
0.0
  9
$PUCSORTHOREF
  2

  9
$PUCSORTHOVIEW
 70
     0
  9
$PUCSORGTOP
 10
0.0
 20
0.0
 30
0.0
  9
$PUCSORGBOTTOM
 10
0.0
 20
0.0
 30
0.0
  9
$PUCSORGLEFT
 10
0.0
 20
0.0
 30
0.0
  9
$PUCSORGRIGHT
 10
0.0
 20
0.0
 30
0.0
  9
$PUCSORGFRONT
 10
0.0
 20
0.0
 30
0.0
  9
$PUCSORGBACK
 10
0.0
 20
0.0
 30
0.0
  9
$USERI1
 70
     0
  9
$USERI2
 70
     0
  9
$USERI3
 70
     0
  9
$USERI4
 70
     0
  9
$USERI5
 70
     0
  9
$USERR1
 40
0.0
  9
$USERR2
 40
0.0
  9
$USERR3
 40
0.0
  9
$USERR4
 40
0.0
  9
$USERR5
 40
0.0
  9
$WORLDVIEW
 70
     1
  9
$SHADEDGE
 70
     3
  9
$SHADEDIF
 70
    70
  9
$TILEMODE
 70
     1
  9
$MAXACTVP
 70
    16
  9
$PINSBASE
 10
0.0
 20
0.0
 30
0.0
  9
$PLIMCHECK
 70
     0
  9
$PEXTMIN
 10
1.000000000000000E+20
 20
1.000000000000000E+20
 30
1.000000000000000E+20
  9
$PEXTMAX
 10
-1.000000000000000E+20
 20
-1.000000000000000E+20
 30
-1.000000000000000E+20
  9
$PLIMMIN
 10
0.0
 20
0.0
  9
$PLIMMAX
 10
420.0
 20
297.0
  9
$UNITMODE
 70
     0
  9
$VISRETAIN
 70
     0
  9
$PLINEGEN
 70
     0
  9
$PSLTSCALE
 70
     0
  9
$TREEDEPTH
 70
  3020
  9
$CMLSTYLE
  2
STANDARD
  9
$CMLJUST
 70
     0
  9
$CMLSCALE
 40
1.0
  9
$PROXYGRAPHICS
 70
     1
  9
$MEASUREMENT
 70
     0
  9
$CELWEIGHT
370
    -1
  9
$ENDCAPS
280
     0
  9
$JOINSTYLE
280
     0
  9
$LWDISPLAY
290
     0
  9
$INSUNITS
 70
     0
  9
$HYPERLINKBASE
  1

  9
$STYLESHEET
  1

  9
$XEDIT
290
     1
  9
$CEPSNTYPE
380
     0
  9
$PSTYLEMODE
290
     1
  9
$FINGERPRINTGUID
  2
{B74E5C78-0C4C-4538-832A-26E97B3524FC}
  9
$VERSIONGUID
  2
{E79F2AA7-3A46-4FFF-9DF9-EC84546733AD}
  9
$EXTNAMES
290
     1
  9
$PSVPSCALE
 40
0.0
  9
$OLESTARTUP
290
     0
  0
ENDSEC
  0
SECTION
  2
CLASSES
  0
CLASS
  1
ACDBDICTIONARYWDFLT
  2
AcDbDictionaryWithDefault
  3
ObjectDBX Classes
 90
        0
280
     0
281
     0
  0
CLASS
  1
ACDBPLACEHOLDER
  2
AcDbPlaceHolder
  3
ObjectDBX Classes
 90
        0
280
     0
281
     0
  0
CLASS
  1
LAYOUT
  2
AcDbLayout
  3
ObjectDBX Classes
 90
        0
280
     0
281
     0
  0
CLASS
  1
DICTIONARYVAR
  2
AcDbDictionaryVar
  3
ObjectDBX Classes
 90
        0
280
     0
281
     0
  0
CLASS
  1
MATERIAL
  2
AcDbMaterial
  3
ObjectDBX Classes
 90
     1153
280
     0
281
     0
  0
CLASS
  1
VISUALSTYLE
  2
AcDbVisualStyle
  3
ObjectDBX Classes
 90
     4095
280
     0
281
     0
  0
CLASS
  1
TABLESTYLE
  2
AcDbTableStyle
  3
ObjectDBX Classes
 90
     4095
280
     0
281
     0
  0
CLASS
  1
SCALE
  2
AcDbScale
  3
ObjectDBX Classes
 90
     1153
280
     0
281
     0
  0
CLASS
  1
MLEADERSTYLE
  2
AcDbMLeaderStyle
  3
ACDB_MLEADERSTYLE_CLASS
 90
     4095
280
     0
281
     0
  0
CLASS
  1
ACDBSECTIONVIEWSTYLE
  2
AcDbSectionViewStyle
  3
ObjectDBX Classes
 90
     1025
280
     0
281
     0
  0
CLASS
  1
ACDBDETAILVIEWSTYLE
  2
AcDbDetailViewStyle
  3
ObjectDBX Classes
 90
     1025
280
     0
281
     0
  0
CLASS
  1
CELLSTYLEMAP
  2
AcDbCellStyleMap
  3
ObjectDBX Classes
 90
     1152
280
     0
281
     0
  0
ENDSEC
  0
SECTION
  2
TABLES
  0
TABLE
  2
VPORT
  5
EDEA
330
0
100
AcDbSymbolTable
 70
     1
  0
VPORT
  5
F226
330
EDEA
100
AcDbSymbolTableRecord
100
AcDbViewportTableRecord
  2
*ACTIVE
 70
     0
 10
0.0
 20
0.0
 11
1.0
 21
1.0
 12
511.1060988522407
 22
206.7453472634606
 13
0.0
 23
0.0
 14
10.0
 24
10.0
 15
10.0
 25
10.0
 16
0.0
 26
0.0
 36
1.0
 17
0.0
 27
0.0
 37
0.0
 40
428.5665603485719
 41
1.899603698811096
 42
50.0
 43
0.0
 44
0.0
 50
0.0
 51
0.0
 71
     0
 72
   100
 73
     1
 74
     0
 75
     0
 76
     0
 77
     0
 78
     0
281
     0
 65
     1
110
0.0
120
0.0
130
0.0
111
1.0
121
0.0
131
0.0
112
0.0
122
1.0
132
0.0
 79
     0
146
0.0
1001
ACAD_NAV_VCDISPLAY
1070
     3
  0
ENDTAB
  0
TABLE
  2
LTYPE
  5
EDE7
330
0
100
AcDbSymbolTable
 70
     4
  0
LTYPE
  5
EDF5
330
EDE7
100
AcDbSymbolTableRecord
100
AcDbLinetypeTableRecord
  2
BYBLOCK
 70
     0
  3

 72
    65
 73
     0
 40
0.0
  0
LTYPE
  5
EDF6
330
EDE7
100
AcDbSymbolTableRecord
100
AcDbLinetypeTableRecord
  2
BYLAYER
 70
     0
  3

 72
    65
 73
     0
 40
0.0
  0
LTYPE
  5
EDF7
330
EDE7
100
AcDbSymbolTableRecord
100
AcDbLinetypeTableRecord
  2
CONTINUOUS
 70
     0
  3
Solid line
 72
    65
 73
     0
 40
0.0
  0
LTYPE
  5
EE05
330
EDE7
100
AcDbSymbolTableRecord
100
AcDbLinetypeTableRecord
  2
DASHED
 70
     0
  3
__ __ __ __ __ __ __ __ __ __ __ __ __ __ __ __
 72
    65
 73
     2
 40
0.75
 49
0.5
 74
     0
 49
-0.25
 74
     0
  0
LTYPE
  5
EE06
330
EDE7
100
AcDbSymbolTableRecord
100
AcDbLinetypeTableRecord
  2
CENTER
 70
     0
  3
____ _ ____ _ ____ _ ____ _ ____ _ ____ _ ____ 
 72
    65
 73
     4
 40
2.0
 49
1.25
 74
     0
 49
-0.25
 74
     0
 49
0.25
 74
     0
 49
-0.25
 74
     0
  0
LTYPE
  5
EE07
330
EDE7
100
AcDbSymbolTableRecord
100
AcDbLinetypeTableRecord
  2
PHANTOM
 70
     0
  3
______  __  __  ______  __  __  ______  __  __ 
 72
    65
 73
     6
 40
2.5
 49
1.25
 74
     0
 49
-0.25
 74
     0
 49
0.25
 74
     0
 49
-0.25
 74
     0
 49
0.25
 74
     0
 49
-0.25
 74
     0
  0
ENDTAB
  0
TABLE
  2
LAYER
  5
EDE4
330
0
100
AcDbSymbolTable
 70
     8
  0
LAYER
  5
EDF2
102
{ACAD_XDICTIONARY
360
F281
102
}
330
EDE4
100
AcDbSymbolTableRecord
100
AcDbLayerTableRecord
  2
0
 70
     0
 62
     7
  6
CONTINUOUS
370
    -3
390
F22F
  0
LAYER
  5
EE08
102
{ACAD_XDICTIONARY
360
F283
102
}
330
EDE4
100
AcDbSymbolTableRecord
100
AcDbLayerTableRecord
  2
1
 70
     0
 62
     7
  6
CONTINUOUS
370
    -3
390
F22F
  0
LAYER
  5
EE09
102
{ACAD_XDICTIONARY
360
F285
102
}
330
EDE4
100
AcDbSymbolTableRecord
100
AcDbLayerTableRecord
  2
4
 70
     0
 62
     1
  6
CENTER
370
    -3
390
F22F
  0
LAYER
  5
EE0A
102
{ACAD_XDICTIONARY
360
F287
102
}
330
EDE4
100
AcDbSymbolTableRecord
100
AcDbLayerTableRecord
  2
5
 70
     0
 62
     6
  6
PHANTOM
370
    -3
390
F22F
  0
LAYER
  5
EE0B
102
{ACAD_XDICTIONARY
360
F289
102
}
330
EDE4
100
AcDbSymbolTableRecord
100
AcDbLayerTableRecord
  2
2
 70
     0
 62
     4
  6
CONTINUOUS
370
    -3
390
F22F
  0
LAYER
  5
EE0C
102
{ACAD_XDICTIONARY
360
F28B
102
}
330
EDE4
100
AcDbSymbolTableRecord
100
AcDbLayerTableRecord
  2
3
 70
     0
 62
     2
  6
DASHED
370
    -3
390
F22F
  0
LAYER
  5
EE0D
102
{ACAD_XDICTIONARY
360
F28D
102
}
330
EDE4
100
AcDbSymbolTableRecord
100
AcDbLayerTableRecord
  2
6
 70
     0
 62
     5
  6
CONTINUOUS
370
    -3
390
F22F
  0
LAYER
  5
EE0E
102
{ACAD_XDICTIONARY
360
F28F
102
}
330
EDE4
100
AcDbSymbolTableRecord
100
AcDbLayerTableRecord
  2
7
 70
     0
 62
     3
  6
CONTINUOUS
370
    -3
390
F22F
  0
ENDTAB
  0
TABLE
  2
STYLE
  5
EDE5
330
0
100
AcDbSymbolTable
 70
     1
  0
STYLE
  5
EDF3
330
EDE5
100
AcDbSymbolTableRecord
100
AcDbTextStyleTableRecord
  2
STANDARD
 70
     0
 40
0.0
 41
1.0
 50
0.0
 71
     0
 42
5.0
  3
txt
  4

  0
ENDTAB
  0
TABLE
  2
VIEW
  5
EDE8
330
0
100
AcDbSymbolTable
 70
     0
  0
ENDTAB
  0
TABLE
  2
UCS
  5
EDE9
330
0
100
AcDbSymbolTable
 70
     0
  0
ENDTAB
  0
TABLE
  2
APPID
  5
EDEB
330
0
100
AcDbSymbolTable
 70
     3
  0
APPID
  5
EDF4
330
EDEB
100
AcDbSymbolTableRecord
100
AcDbRegAppTableRecord
  2
ACAD
 70
     0
  0
APPID
  5
F29B
330
EDEB
100
AcDbSymbolTableRecord
100
AcDbRegAppTableRecord
  2
ACAD_NAV_VCDISPLAY
 70
     0
  0
APPID
  5
F2D4
330
EDEB
100
AcDbSymbolTableRecord
100
AcDbRegAppTableRecord
  2
ACAD_MLEADERVER
 70
     0
  0
ENDTAB
  0
TABLE
  2
DIMSTYLE
  5
EDEC
330
0
100
AcDbSymbolTable
 70
     1
100
AcDbDimStyleTable
 71
     0
  0
DIMSTYLE
105
EE10
330
EDEC
100
AcDbSymbolTableRecord
100
AcDbDimStyleTableRecord
  2
STANDARD
 70
     0
 41
2.5
 42
1.0
 43
10.0
 44
1.0
 73
     0
 74
     0
 77
     3
 78
     8
140
3.2
141
0.0
147
1.0
172
     1
173
     1
284
     8
285
     8
286
     8
340
EDF3
  0
ENDTAB
  0
TABLE
  2
BLOCK_RECORD
  5
EDE3
330
0
100
AcDbSymbolTable
 70
     0
  0
BLOCK_RECORD
  5
EE00
102
{ACAD_XDICTIONARY
360
F229
102
}
330
EDE3
100
AcDbSymbolTableRecord
100
AcDbBlockTableRecord
  2
*MODEL_SPACE
340
F27D
  0
BLOCK_RECORD
  5
EDFC
102
{ACAD_XDICTIONARY
360
F227
102
}
330
EDE3
100
AcDbSymbolTableRecord
100
AcDbBlockTableRecord
  2
*PAPER_SPACE
340
F27E
  0
ENDTAB
  0
ENDSEC
  0
SECTION
  2
BLOCKS
  0
BLOCK
  5
EE01
330
EE00
100
AcDbEntity
  8
0
100
AcDbBlockBegin
  2
*MODEL_SPACE
 70
     0
 10
0.0
 20
0.0
 30
0.0
  3
*MODEL_SPACE
  1

  0
ENDBLK
  5
EE02
330
EE00
100
AcDbEntity
  8
0
100
AcDbBlockEnd
  0
BLOCK
  5
EDFD
330
EDFC
100
AcDbEntity
 67
     1
  8
0
100
AcDbBlockBegin
  2
*PAPER_SPACE
 70
     0
 10
0.0
 20
0.0
 30
0.0
  3
*PAPER_SPACE
  1

  0
ENDBLK
  5
EDFE
330
EDFC
100
AcDbEntity
 67
     1
  8
0
100
AcDbBlockEnd
  0
ENDSEC
  0
SECTION
  2
ENTITIES
  0
ARC
  5
EE18
330
EE00
100
AcDbEntity
  8
1
  6
Continuous
100
AcDbCircle
 10
186.007768
 20
172.999045
 30
0.0
 40
6.0
100
AcDbArc
 50
0.0
 51
45.0
  0
LINE
  5
EE19
330
EE00
100
AcDbEntity
  8
1
  6
Continuous
100
AcDbLine
 10
62.662121
 20
233.4348809999999
 30
0.0
 11
58.256999
 21
166.064429
 31
0.0
  0
LINE
  5
EE1A
330
EE00
100
AcDbEntity
  8
1
  6
Continuous
100
AcDbLine
 10
38.514469
 20
233.4348809999999
 30
0.0
 11
42.91959099999997
 21
166.064429
 31
0.0
  0
LINE
  5
EE1B
330
EE00
100
AcDbEntity
  8
1
  6
Continuous
100
AcDbLine
 10
179.860553
 20
165.3248659999999
 30
0.0
 11
174.644471
 21
230.538297
 31
0.0
  0
LINE
  5
EE1C
330
EE00
100
AcDbEntity
  8
4
  6
CENTER
100
AcDbLine
 10
50.588295
 20
158.484326
 30
0.0
 11
50.588295
 21
292.4843259999999
 31
0.0
  0
TEXT
  5
EE1D
330
EE00
100
AcDbEntity
  8
7
  6
Continuous
100
AcDbText
 10
10.0
 20
26.000001
 30
0.0
 40
3.0
  1
CODE No.13091
100
AcDbText
  0
TEXT
  5
EE1E
330
EE00
100
AcDbEntity
  8
7
  6
Continuous
100
AcDbText
 10
10.0
 20
18.000001
 30
0.0
 40
3.0
  1
TYPE No.THA-330-2
100
AcDbText
  0
TEXT
  5
EE1F
330
EE00
100
AcDbEntity
  8
1
  6
Continuous
100
AcDbText
 10
10.0
 20
10.000001
 30
0.0
 40
1.399999999999999
  1
LAYER
100
AcDbText
  0
TEXT
  5
EE20
330
EE00
100
AcDbEntity
  8
5
  6
PHANTOM
100
AcDbText
 10
25.97951099999999
 20
10.048738
 30
0.0
 40
1.399999999999999
  1
5
100
AcDbText
  0
TEXT
  5
EE21
330
EE00
100
AcDbEntity
  8
6
  6
Continuous
100
AcDbText
 10
27.979511
 20
10.048738
 30
0.0
 40
1.399999999999999
  1
6
100
AcDbText
  0
TEXT
  5
EE22
330
EE00
100
AcDbEntity
  8
2
  6
Continuous
100
AcDbText
 10
19.97951099999999
 20
10.048738
 30
0.0
 40
1.399999999999999
  1
2
100
AcDbText
  0
TEXT
  5
EE23
330
EE00
100
AcDbEntity
  8
3
  6
DASHED
100
AcDbText
 10
21.979511
 20
10.048738
 30
0.0
 40
1.399999999999999
  1
3
100
AcDbText
  0
TEXT
  5
EE24
330
EE00
100
AcDbEntity
  8
4
  6
CENTER
100
AcDbText
 10
23.97951099999999
 20
10.048738
 30
0.0
 40
1.399999999999999
  1
4
100
AcDbText
  0
TEXT
  5
EE25
330
EE00
100
AcDbEntity
  8
7
  6
Continuous
100
AcDbText
 10
29.97951099999999
 20
10.048738
 30
0.0
 40
1.399999999999999
  1
7
100
AcDbText
  0
TEXT
  5
EE26
330
EE00
100
AcDbEntity
  8
1
  6
Continuous
100
AcDbText
 10
17.97951099999998
 20
10.048738
 30
0.0
 40
1.399999999999999
  1
1
100
AcDbText
  0
ARC
  5
EE27
330
EE00
100
AcDbEntity
  8
1
  6
Continuous
100
AcDbCircle
 10
50.588295
 20
188.484326
 30
0.0
 40
25.0
100
AcDbArc
 50
255.720595
 51
284.279405
  0
ARC
  5
EE28
330
EE00
100
AcDbEntity
  8
1
  6
Continuous
100
AcDbCircle
 10
44.915329
 20
166.194924
 30
0.0
 40
2.0
100
AcDbArc
 50
183.741048
 51
255.720595
  0
ARC
  5
EE29
330
EE00
100
AcDbEntity
  8
1
  6
Continuous
100
AcDbCircle
 10
56.261261
 20
166.194924
 30
0.0
 40
2.0
100
AcDbArc
 50
284.279405
 51
356.258952
  0
LINE
  5
EE2A
330
EE00
100
AcDbEntity
  8
1
  6
Continuous
100
AcDbLine
 10
205.687276
 20
85.053573
 30
0.0
 11
213.507768
 21
88.55357299999999
 31
0.0
  0
LINE
  5
EE2B
330
EE00
100
AcDbEntity
  8
1
  6
Continuous
100
AcDbLine
 10
213.507768
 20
94.55357300000001
 30
0.0
 11
213.507768
 21
50.553573
 31
0.0
  0
LINE
  5
EE2C
330
EE00
100
AcDbEntity
  8
1
  6
Continuous
100
AcDbLine
 10
217.007768
 20
96.553573
 30
0.0
 11
217.007768
 21
48.553573
 31
0.0
  0
LINE
  5
EE2D
330
EE00
100
AcDbEntity
  8
1
  6
Continuous
100
AcDbLine
 10
218.007768
 20
96.553573
 30
0.0
 11
218.007768
 21
48.553573
 31
0.0
  0
ARC
  5
EE2E
330
EE00
100
AcDbEntity
  8
1
  6
Continuous
100
AcDbCircle
 10
186.007768
 20
70.88507299999998
 30
0.0
 40
6.0
100
AcDbArc
 50
270.0
 51
0.0
  0
ARC
  5
EE2F
330
EE00
100
AcDbEntity
  8
1
  6
Continuous
100
AcDbCircle
 10
186.007768
 20
74.22207299999998
 30
0.0
 40
6.0
100
AcDbArc
 50
0.0
 51
90.0
  0
LINE
  5
EE30
330
EE00
100
AcDbEntity
  8
1
  6
Continuous
100
AcDbLine
 10
205.687276
 20
85.053573
 30
0.0
 11
176.0393819999999
 21
85.053573
 31
0.0
  0
LINE
  5
EE31
330
EE00
100
AcDbEntity
  8
1
  6
Continuous
100
AcDbLine
 10
205.687276
 20
60.053573
 30
0.0
 11
176.0393819999999
 21
60.053573
 31
0.0
  0
LINE
  5
EE32
330
EE00
100
AcDbEntity
  8
4
  6
CENTER
100
AcDbLine
 10
245.054307
 20
72.553573
 30
0.0
 11
167.9077679999998
 21
72.553573
 31
0.0
  0
LINE
  5
EE33
330
EE00
100
AcDbEntity
  8
1
  6
Continuous
100
AcDbLine
 10
187.0077679999999
 20
64.968994
 30
0.0
 11
187.0077679999999
 21
60.053573
 31
0.0
  0
LINE
  5
EE34
330
EE00
100
AcDbEntity
  8
1
  6
Continuous
100
AcDbLine
 10
186.007768
 20
64.88507299999999
 30
0.0
 11
181.3858339999999
 21
64.88507299999999
 31
0.0
  0
LINE
  5
EE35
330
EE00
100
AcDbEntity
  8
1
  6
Continuous
100
AcDbLine
 10
187.0077679999999
 20
77.553573
 30
0.0
 11
187.0077679999999
 21
67.553573
 31
0.0
  0
LINE
  5
EE36
330
EE00
100
AcDbEntity
  8
1
  6
Continuous
100
AcDbLine
 10
186.007768
 20
80.22207299999998
 30
0.0
 11
181.3858339999999
 21
80.22207299999998
 31
0.0
  0
LINE
  5
EE37
330
EE00
100
AcDbEntity
  8
1
  6
Continuous
100
AcDbLine
 10
187.0077679999999
 20
85.053573
 30
0.0
 11
187.0077679999999
 21
80.138153
 31
0.0
  0
LINE
  5
EE38
330
EE00
100
AcDbEntity
  8
2
  6
Continuous
100
AcDbLine
 10
231.4197679999999
 20
82.741573
 30
0.0
 11
219.907768
 21
82.741573
 31
0.0
  0
LINE
  5
EE39
330
EE00
100
AcDbEntity
  8
1
  6
Continuous
100
AcDbLine
 10
230.607768
 20
77.646473
 30
0.0
 11
218.007768
 21
77.646473
 31
0.0
  0
LINE
  5
EE3A
330
EE00
100
AcDbEntity
  8
1
  6
Continuous
100
AcDbLine
 10
230.607768
 20
83.55357299999999
 30
0.0
 11
219.007768
 21
83.55357299999999
 31
0.0
  0
LINE
  5
EE3B
330
EE00
100
AcDbEntity
  8
2
  6
Continuous
100
AcDbLine
 10
231.4197679999999
 20
62.365573
 30
0.0
 11
219.907768
 21
62.365573
 31
0.0
  0
LINE
  5
EE3C
330
EE00
100
AcDbEntity
  8
1
  6
Continuous
100
AcDbLine
 10
230.607768
 20
67.46067299999999
 30
0.0
 11
218.007768
 21
67.46067299999999
 31
0.0
  0
LINE
  5
EE3D
330
EE00
100
AcDbEntity
  8
1
  6
Continuous
100
AcDbLine
 10
230.607768
 20
61.553573
 30
0.0
 11
219.007768
 21
61.553573
 31
0.0
  0
LINE
  5
EE3E
330
EE00
100
AcDbEntity
  8
2
  6
Continuous
100
AcDbLine
 10
218.007768
 20
77.646473
 30
0.0
 11
230.607768
 21
67.46067299999999
 31
0.0
  0
LINE
  5
EE3F
330
EE00
100
AcDbEntity
  8
2
  6
Continuous
100
AcDbLine
 10
230.607768
 20
77.646473
 30
0.0
 11
218.007768
 21
67.46067299999999
 31
0.0
  0
LINE
  5
EE40
330
EE00
100
AcDbEntity
  8
1
  6
Continuous
100
AcDbLine
 10
219.907768
 20
67.46067299999999
 30
0.0
 11
219.907768
 21
61.553573
 31
0.0
  0
LINE
  5
EE41
330
EE00
100
AcDbEntity
  8
1
  6
Continuous
100
AcDbLine
 10
205.687276
 20
60.053573
 30
0.0
 11
205.687276
 21
85.053573
 31
0.0
  0
LINE
  5
EE42
330
EE00
100
AcDbEntity
  8
1
  6
Continuous
100
AcDbLine
 10
205.507768
 20
60.053573
 30
0.0
 11
205.507768
 21
85.053573
 31
0.0
  0
LINE
  5
EE43
330
EE00
100
AcDbEntity
  8
1
  6
Continuous
100
AcDbLine
 10
205.687276
 20
60.053573
 30
0.0
 11
213.507768
 21
56.553573
 31
0.0
  0
ARC
  5
EE44
330
EE00
100
AcDbEntity
  8
1
  6
Continuous
100
AcDbCircle
 10
219.007768
 20
60.553573
 30
0.0
 40
1.0
100
AcDbArc
 50
90.0
 51
180.0
  0
LINE
  5
EE45
330
EE00
100
AcDbEntity
  8
2
  6
Continuous
100
AcDbLine
 10
218.501342
 20
61.553573
 30
0.0
 11
219.907768
 21
62.365573
 31
0.0
  0
LINE
  5
EE46
330
EE00
100
AcDbEntity
  8
1
  6
Continuous
100
AcDbLine
 10
215.507768
 20
48.553573
 30
0.0
 11
217.007768
 21
48.553573
 31
0.0
  0
LINE
  5
EE47
330
EE00
100
AcDbEntity
  8
1
  6
Continuous
100
AcDbLine
 10
218.007768
 20
48.553573
 30
0.0
 11
217.007768
 21
48.553573
 31
0.0
  0
ARC
  5
EE48
330
EE00
100
AcDbEntity
  8
1
  6
Continuous
100
AcDbCircle
 10
215.507768
 20
50.553573
 30
0.0
 40
2.0
100
AcDbArc
 50
222.3553149999999
 51
270.0
  0
ARC
  5
EE49
330
EE00
100
AcDbEntity
  8
1
  6
Continuous
100
AcDbCircle
 10
215.507768
 20
50.553573
 30
0.0
 40
2.0
100
AcDbArc
 50
180.0
 51
222.3553149999999
  0
LINE
  5
EE4A
330
EE00
100
AcDbEntity
  8
1
  6
Continuous
100
AcDbLine
 10
192.007768
 20
74.22207299999998
 30
0.0
 11
192.007768
 21
70.88507299999998
 31
0.0
  0
LINE
  5
EE4B
330
EE00
100
AcDbEntity
  8
1
  6
Continuous
100
AcDbLine
 10
219.907768
 20
83.55357299999999
 30
0.0
 11
219.907768
 21
77.646473
 31
0.0
  0
ARC
  5
EE4C
330
EE00
100
AcDbEntity
  8
1
  6
Continuous
100
AcDbCircle
 10
219.007768
 20
84.55357300000001
 30
0.0
 40
1.0
100
AcDbArc
 50
180.0
 51
270.0
  0
LINE
  5
EE4D
330
EE00
100
AcDbEntity
  8
1
  6
Continuous
100
AcDbLine
 10
219.507768
 20
74.803573
 30
0.0
 11
218.007768
 21
74.803573
 31
0.0
  0
LINE
  5
EE4E
330
EE00
100
AcDbEntity
  8
2
  6
Continuous
100
AcDbLine
 10
218.501342
 20
83.55357299999999
 30
0.0
 11
219.907768
 21
82.741573
 31
0.0
  0
LINE
  5
EE4F
330
EE00
100
AcDbEntity
  8
1
  6
Continuous
100
AcDbLine
 10
219.507768
 20
70.303573
 30
0.0
 11
218.007768
 21
70.303573
 31
0.0
  0
LINE
  5
EE50
330
EE00
100
AcDbEntity
  8
1
  6
Continuous
100
AcDbLine
 10
219.507768
 20
70.303573
 30
0.0
 11
219.507768
 21
74.803573
 31
0.0
  0
LINE
  5
EE51
330
EE00
100
AcDbEntity
  8
1
  6
Continuous
100
AcDbLine
 10
230.607768
 20
67.46067299999999
 30
0.0
 11
230.607768
 21
61.553573
 31
0.0
  0
LINE
  5
EE52
330
EE00
100
AcDbEntity
  8
1
  6
Continuous
100
AcDbLine
 10
232.307768
 20
65.753573
 30
0.0
 11
232.307768
 21
79.35357299999998
 31
0.0
  0
LINE
  5
EE53
330
EE00
100
AcDbEntity
  8
1
  6
Continuous
100
AcDbLine
 10
232.107768
 20
82.05357300000001
 30
0.0
 11
232.107768
 21
63.053573
 31
0.0
  0
ARC
  5
EE54
330
EE00
100
AcDbEntity
  8
1
  6
Continuous
100
AcDbCircle
 10
232.107768
 20
65.753573
 30
0.0
 40
0.2
100
AcDbArc
 50
270.0
 51
0.0
  0
LINE
  5
EE55
330
EE00
100
AcDbEntity
  8
1
  6
Continuous
100
AcDbLine
 10
230.607768
 20
61.553573
 30
0.0
 11
232.107768
 21
63.053573
 31
0.0
  0
ARC
  5
EE56
330
EE00
100
AcDbEntity
  8
1
  6
Continuous
100
AcDbCircle
 10
237.007768
 20
77.71545299999998
 30
0.0
 40
0.3
100
AcDbArc
 50
0.0
 51
90.0
  0
ARC
  5
EE57
330
EE00
100
AcDbEntity
  8
1
  6
Continuous
100
AcDbCircle
 10
237.007768
 20
67.391694
 30
0.0
 40
0.3
100
AcDbArc
 50
270.0
 51
0.0
  0
LINE
  5
EE58
330
EE00
100
AcDbEntity
  8
1
  6
Continuous
100
AcDbLine
 10
237.307768
 20
77.71545299999998
 30
0.0
 11
237.307768
 21
67.391694
 31
0.0
  0
ARC
  5
EE59
330
EE00
100
AcDbEntity
  8
1
  6
Continuous
100
AcDbCircle
 10
232.107768
 20
79.35357299999998
 30
0.0
 40
0.2
100
AcDbArc
 50
0.0
 51
90.0
  0
LINE
  5
EE5A
330
EE00
100
AcDbEntity
  8
1
  6
Continuous
100
AcDbLine
 10
230.607768
 20
83.55357299999999
 30
0.0
 11
232.107768
 21
82.05357300000001
 31
0.0
  0
LINE
  5
EE5B
330
EE00
100
AcDbEntity
  8
1
  6
Continuous
100
AcDbLine
 10
230.607768
 20
83.55357299999999
 30
0.0
 11
230.607768
 21
77.646473
 31
0.0
  0
ARC
  5
EE5C
330
EE00
100
AcDbEntity
  8
1
  6
Continuous
100
AcDbCircle
 10
222.711891
 20
72.553573
 30
0.0
 40
9.395877
100
AcDbArc
 50
327.177679
 51
32.822321
  0
LINE
  5
EE5D
330
EE00
100
AcDbEntity
  8
1
  6
Continuous
100
AcDbLine
 10
237.007768
 20
78.01545299999998
 30
0.0
 11
232.307768
 21
78.01545299999998
 31
0.0
  0
LINE
  5
EE5E
330
EE00
100
AcDbEntity
  8
2
  6
Continuous
100
AcDbLine
 10
232.307768
 20
67.09169399999999
 30
0.0
 11
237.007768
 21
72.553573
 31
0.0
  0
LINE
  5
EE5F
330
EE00
100
AcDbEntity
  8
2
  6
Continuous
100
AcDbLine
 10
232.307768
 20
72.553573
 30
0.0
 11
237.007768
 21
67.09169399999999
 31
0.0
  0
LINE
  5
EE60
330
EE00
100
AcDbEntity
  8
1
  6
Continuous
100
AcDbLine
 10
237.007768
 20
72.553573
 30
0.0
 11
232.307768
 21
72.553573
 31
0.0
  0
LINE
  5
EE61
330
EE00
100
AcDbEntity
  8
1
  6
Continuous
100
AcDbLine
 10
237.007768
 20
67.09169399999999
 30
0.0
 11
232.307768
 21
67.09169399999999
 31
0.0
  0
LINE
  5
EE62
330
EE00
100
AcDbEntity
  8
2
  6
Continuous
100
AcDbLine
 10
237.007768
 20
78.01545299999998
 30
0.0
 11
232.307768
 21
72.553573
 31
0.0
  0
LINE
  5
EE63
330
EE00
100
AcDbEntity
  8
2
  6
Continuous
100
AcDbLine
 10
237.007768
 20
72.553573
 30
0.0
 11
232.307768
 21
78.01545299999998
 31
0.0
  0
ARC
  5
EE64
330
EE00
100
AcDbEntity
  8
1
  6
Continuous
100
AcDbCircle
 10
185.007768
 20
170.484326
 30
0.0
 40
7.0
100
AcDbArc
 50
270.0
 51
0.0
  0
ARC
  5
EE65
330
EE00
100
AcDbEntity
  8
1
  6
Continuous
100
AcDbCircle
 10
181.854186
 20
165.4843259999998
 30
0.0
 40
2.0
100
AcDbArc
 50
184.573055
 51
270.0
  0
LINE
  5
EE66
330
EE00
100
AcDbEntity
  8
1
  6
Continuous
100
AcDbLine
 10
181.854186
 20
163.484326
 30
0.0
 11
185.007768
 21
163.484326
 31
0.0
  0
LINE
  5
EE67
330
EE00
100
AcDbEntity
  8
1
  6
Continuous
100
AcDbLine
 10
215.507768
 20
96.553573
 30
0.0
 11
217.007768
 21
96.553573
 31
0.0
  0
LINE
  5
EE68
330
EE00
100
AcDbEntity
  8
1
  6
Continuous
100
AcDbLine
 10
218.007768
 20
96.553573
 30
0.0
 11
217.007768
 21
96.553573
 31
0.0
  0
ARC
  5
EE69
330
EE00
100
AcDbEntity
  8
1
  6
Continuous
100
AcDbCircle
 10
215.507768
 20
94.55357300000001
 30
0.0
 40
2.0
100
AcDbArc
 50
90.0
 51
137.644685
  0
ARC
  5
EE6A
330
EE00
100
AcDbEntity
  8
1
  6
Continuous
100
AcDbCircle
 10
215.507768
 20
94.55357300000001
 30
0.0
 40
2.0
100
AcDbArc
 50
137.644685
 51
180.0
  0
LINE
  5
EE6B
330
EE00
100
AcDbEntity
  8
1
  6
Continuous
100
AcDbLine
 10
192.007768
 20
172.999045
 30
0.0
 11
192.007768
 21
170.484326
 31
0.0
  0
LINE
  5
EE6C
330
EE00
100
AcDbEntity
  8
4
  6
CENTER
100
AcDbLine
 10
141.5209619999999
 20
210.9843259999999
 30
0.0
 11
25.473558
 21
277.9843259999997
 31
0.0
  0
LINE
  5
EE6D
330
EE00
100
AcDbEntity
  8
5
  6
PHANTOM
100
AcDbLine
 10
70.57496500000002
 20
238.003364
 30
0.0
 11
131.122048
 21
208.133085
 31
0.0
  0
LINE
  5
EE6E
330
EE00
100
AcDbEntity
  8
5
  6
PHANTOM
100
AcDbLine
 10
82.64879099999998
 20
258.9158439999998
 30
0.0
 11
138.7907519999999
 21
221.41567
 31
0.0
  0
ARC
  5
EE6F
330
EE00
100
AcDbEntity
  8
5
  6
PHANTOM
100
AcDbCircle
 10
-28.43927299999997
 20
92.60456299999999
 30
0.0
 40
200.0
100
AcDbArc
 50
56.258952
 51
58.99540300000001
  0
LINE
  5
EE70
330
EE00
100
AcDbEntity
  8
1
  6
Continuous
100
AcDbLine
 10
66.588295
 20
280.4548889999999
 30
0.0
 11
66.588295
 21
246.513763
 31
0.0
  0
LINE
  5
EE71
330
EE00
100
AcDbEntity
  8
1
  6
Continuous
100
AcDbLine
 10
63.08829499999998
 20
246.4843259999999
 30
0.0
 11
63.08829499999998
 21
275.8169409999998
 31
0.0
  0
LINE
  5
EE72
330
EE00
100
AcDbEntity
  8
1
  6
Continuous
100
AcDbLine
 10
61.338295
 20
277.942134
 30
0.0
 11
61.338295
 21
246.9843259999999
 31
0.0
  0
LINE
  5
EE73
330
EE00
100
AcDbEntity
  8
1
  6
Continuous
100
AcDbLine
 10
34.588295
 20
280.4548889999999
 30
0.0
 11
34.588295
 21
246.513763
 31
0.0
  0
LINE
  5
EE74
330
EE00
100
AcDbEntity
  8
1
  6
Continuous
100
AcDbLine
 10
38.088295
 20
246.4843259999999
 30
0.0
 11
38.088295
 21
275.8169409999998
 31
0.0
  0
LINE
  5
EE75
330
EE00
100
AcDbEntity
  8
1
  6
Continuous
100
AcDbLine
 10
39.838295
 20
277.942134
 30
0.0
 11
39.838295
 21
246.9843259999999
 31
0.0
  0
ARC
  5
EE76
330
EE00
100
AcDbEntity
  8
1
  6
Continuous
100
AcDbCircle
 10
50.588295
 20
263.4843259999997
 30
0.0
 40
24.0
100
AcDbArc
 50
301.302234
 51
238.6977659999999
  0
ARC
  5
EE77
330
EE00
100
AcDbEntity
  8
5
  6
PHANTOM
100
AcDbCircle
 10
159.060727
 20
417.3640889999998
 30
0.0
 40
200.0
100
AcDbArc
 50
241.306618
 51
243.741048
  0
LINE
  5
EE78
330
EE00
100
AcDbEntity
  8
1
  6
Continuous
100
AcDbLine
 10
63.08829499999998
 20
253.3804589999999
 30
0.0
 11
66.34428299999999
 21
246.138513
 31
0.0
  0
LINE
  5
EE79
330
EE00
100
AcDbEntity
  8
4
  6
CENTER
100
AcDbLine
 10
79.588295
 20
263.4843259999997
 30
0.0
 11
21.58829499999999
 21
263.4843259999997
 31
0.0
  0
ARC
  5
EE7A
330
EE00
100
AcDbEntity
  8
1
  6
Continuous
100
AcDbCircle
 10
-136.911705
 20
246.4843259999999
 30
0.0
 40
200.0
100
AcDbArc
 50
356.258952
 51
0.0
  0
ARC
  5
EE7B
330
EE00
100
AcDbEntity
  8
1
  6
Continuous
100
AcDbCircle
 10
238.0882949999999
 20
246.4843259999999
 30
0.0
 40
200.0
100
AcDbArc
 50
180.0
 51
183.741048
  0
LINE
  5
EE7C
330
EE00
100
AcDbEntity
  8
1
  6
Continuous
100
AcDbLine
 10
47.701544
 20
256.4843259999999
 30
0.0
 11
53.475046
 21
256.4843259999999
 31
0.0
  0
LINE
  5
EE7D
330
EE00
100
AcDbEntity
  8
1
  6
Continuous
100
AcDbLine
 10
47.412869
 20
255.984326
 30
0.0
 11
53.76372199999998
 21
255.984326
 31
0.0
  0
LINE
  5
EE7E
330
EE00
100
AcDbEntity
  8
1
  6
Continuous
100
AcDbLine
 10
47.12419299999999
 20
255.4843259999999
 30
0.0
 11
54.052397
 21
255.4843259999999
 31
0.0
  0
LINE
  5
EE7F
330
EE00
100
AcDbEntity
  8
1
  6
Continuous
100
AcDbLine
 10
46.835518
 20
254.9843259999999
 30
0.0
 11
54.34107199999999
 21
254.9843259999999
 31
0.0
  0
LINE
  5
EE80
330
EE00
100
AcDbEntity
  8
1
  6
Continuous
100
AcDbLine
 10
46.546843
 20
254.4843259999999
 30
0.0
 11
54.629747
 21
254.4843259999999
 31
0.0
  0
LINE
  5
EE81
330
EE00
100
AcDbEntity
  8
1
  6
Continuous
100
AcDbLine
 10
46.25816799999999
 20
253.984326
 30
0.0
 11
54.918422
 21
253.984326
 31
0.0
  0
LINE
  5
EE82
330
EE00
100
AcDbEntity
  8
1
  6
Continuous
100
AcDbLine
 10
45.969493
 20
253.4843259999999
 30
0.0
 11
50.588295
 21
253.4843259999999
 31
0.0
  0
LINE
  5
EE83
330
EE00
100
AcDbEntity
  8
1
  6
Continuous
100
AcDbLine
 10
43.66009199999999
 20
249.4843259999999
 30
0.0
 11
50.588295
 21
261.4843259999997
 31
0.0
  0
ARC
  5
EE84
330
EE00
100
AcDbEntity
  8
1
  6
Continuous
100
AcDbCircle
 10
50.588295
 20
245.484326
 30
0.0
 40
8.0
100
AcDbArc
 50
12.83958799999999
 51
167.160412
  0
LINE
  5
EE85
330
EE00
100
AcDbEntity
  8
1
  6
Continuous
100
AcDbLine
 10
45.680818
 20
252.9843259999999
 30
0.0
 11
47.80441299999998
 21
252.9843259999999
 31
0.0
  0
LINE
  5
EE86
330
EE00
100
AcDbEntity
  8
1
  6
Continuous
100
AcDbLine
 10
45.392143
 20
252.4843259999999
 30
0.0
 11
46.71531199999999
 21
252.4843259999999
 31
0.0
  0
LINE
  5
EE87
330
EE00
100
AcDbEntity
  8
1
  6
Continuous
100
AcDbLine
 10
45.10346799999999
 20
251.984326
 30
0.0
 11
45.92460599999999
 21
251.984326
 31
0.0
  0
LINE
  5
EE88
330
EE00
100
AcDbEntity
  8
1
  6
Continuous
100
AcDbLine
 10
44.81479199999998
 20
251.4843259999999
 30
0.0
 11
45.29679199999999
 21
251.4843259999999
 31
0.0
  0
LINE
  5
EE89
330
EE00
100
AcDbEntity
  8
1
  6
Continuous
100
AcDbLine
 10
44.526117
 20
250.9843259999999
 30
0.0
 11
44.77882
 21
250.9843259999999
 31
0.0
  0
LINE
  5
EE8A
330
EE00
100
AcDbEntity
  8
1
  6
Continuous
100
AcDbLine
 10
44.237442
 20
250.4843259999999
 30
0.0
 11
44.343297
 21
250.4843259999999
 31
0.0
  0
LINE
  5
EE8B
330
EE00
100
AcDbEntity
  8
1
  6
Continuous
100
AcDbLine
 10
44.093105
 20
250.2343259999999
 30
0.0
 11
44.15109799999998
 21
250.2343259999999
 31
0.0
  0
LINE
  5
EE8C
330
EE00
100
AcDbEntity
  8
1
  6
Continuous
100
AcDbLine
 10
43.948767
 20
249.984326
 30
0.0
 11
43.973917
 21
249.984326
 31
0.0
  0
LINE
  5
EE8D
330
EE00
100
AcDbEntity
  8
1
  6
Continuous
100
AcDbLine
 10
43.804429
 20
249.734326
 30
0.0
 11
43.810574
 21
249.734326
 31
0.0
  0
ARC
  5
EE8E
330
EE00
100
AcDbEntity
  8
1
  6
Continuous
100
AcDbCircle
 10
41.81333099999998
 20
247.4843259999999
 30
0.0
 40
1.0
100
AcDbArc
 50
270.0
 51
347.160412
  0
ARC
  5
EE8F
330
EE00
100
AcDbEntity
  8
1
  6
Continuous
100
AcDbCircle
 10
36.588295
 20
246.513763
 30
0.0
 40
2.0
100
AcDbArc
 50
180.0
 51
230.478804
  0
LINE
  5
EE90
330
EE00
100
AcDbEntity
  8
1
  6
Continuous
100
AcDbLine
 10
38.088295
 20
253.3804589999999
 30
0.0
 11
34.80283699999999
 21
246.0729649999999
 31
0.0
  0
LINE
  5
EE91
330
EE00
100
AcDbEntity
  8
1
  6
Continuous
100
AcDbLine
 10
40.338295
 20
246.4843259999999
 30
0.0
 11
41.81333099999998
 21
246.4843259999999
 31
0.0
  0
LINE
  5
EE92
330
EE00
100
AcDbEntity
  8
1
  6
Continuous
100
AcDbLine
 10
50.29962000000001
 20
260.9843259999997
 30
0.0
 11
50.87697
 21
260.9843259999997
 31
0.0
  0
LINE
  5
EE93
330
EE00
100
AcDbEntity
  8
1
  6
Continuous
100
AcDbLine
 10
50.010945
 20
260.4843259999999
 30
0.0
 11
51.16564499999999
 21
260.4843259999999
 31
0.0
  0
LINE
  5
EE94
330
EE00
100
AcDbEntity
  8
1
  6
Continuous
100
AcDbLine
 10
49.72227
 20
259.9843259999999
 30
0.0
 11
51.45432
 21
259.9843259999999
 31
0.0
  0
LINE
  5
EE95
330
EE00
100
AcDbEntity
  8
1
  6
Continuous
100
AcDbLine
 10
49.43359499999999
 20
259.4843259999997
 30
0.0
 11
51.74299600000001
 21
259.4843259999997
 31
0.0
  0
LINE
  5
EE96
330
EE00
100
AcDbEntity
  8
1
  6
Continuous
100
AcDbLine
 10
49.144919
 20
258.9843259999997
 30
0.0
 11
52.031671
 21
258.9843259999997
 31
0.0
  0
LINE
  5
EE97
330
EE00
100
AcDbEntity
  8
1
  6
Continuous
100
AcDbLine
 10
48.85624400000001
 20
258.4843259999999
 30
0.0
 11
52.320346
 21
258.4843259999999
 31
0.0
  0
LINE
  5
EE98
330
EE00
100
AcDbEntity
  8
1
  6
Continuous
100
AcDbLine
 10
48.567569
 20
257.9843259999999
 30
0.0
 11
52.609021
 21
257.9843259999999
 31
0.0
  0
LINE
  5
EE99
330
EE00
100
AcDbEntity
  8
1
  6
Continuous
100
AcDbLine
 10
48.278894
 20
257.4843259999997
 30
0.0
 11
52.89769599999999
 21
257.4843259999997
 31
0.0
  0
LINE
  5
EE9A
330
EE00
100
AcDbEntity
  8
1
  6
Continuous
100
AcDbLine
 10
47.990219
 20
256.9843259999997
 30
0.0
 11
53.186371
 21
256.9843259999997
 31
0.0
  0
LINE
  5
EE9B
330
EE00
100
AcDbEntity
  8
1
  6
Continuous
100
AcDbLine
 10
50.588295
 20
253.4843259999999
 30
0.0
 11
55.207097
 21
253.4843259999999
 31
0.0
  0
LINE
  5
EE9C
330
EE00
100
AcDbEntity
  8
1
  6
Continuous
100
AcDbLine
 10
53.372177
 20
252.9843259999999
 30
0.0
 11
55.49577199999998
 21
252.9843259999999
 31
0.0
  0
LINE
  5
EE9D
330
EE00
100
AcDbEntity
  8
1
  6
Continuous
100
AcDbLine
 10
54.461278
 20
252.4843259999999
 30
0.0
 11
55.78444799999999
 21
252.4843259999999
 31
0.0
  0
LINE
  5
EE9E
330
EE00
100
AcDbEntity
  8
1
  6
Continuous
100
AcDbLine
 10
55.251985
 20
251.984326
 30
0.0
 11
56.073123
 21
251.984326
 31
0.0
  0
LINE
  5
EE9F
330
EE00
100
AcDbEntity
  8
1
  6
Continuous
100
AcDbLine
 10
55.879798
 20
251.4843259999999
 30
0.0
 11
56.361798
 21
251.4843259999999
 31
0.0
  0
LINE
  5
EEA0
330
EE00
100
AcDbEntity
  8
1
  6
Continuous
100
AcDbLine
 10
56.39776999999998
 20
250.9843259999999
 30
0.0
 11
56.650473
 21
250.9843259999999
 31
0.0
  0
LINE
  5
EEA1
330
EE00
100
AcDbEntity
  8
1
  6
Continuous
100
AcDbLine
 10
56.833293
 20
250.4843259999999
 30
0.0
 11
56.93914799999999
 21
250.4843259999999
 31
0.0
  0
LINE
  5
EEA2
330
EE00
100
AcDbEntity
  8
1
  6
Continuous
100
AcDbLine
 10
57.025492
 20
250.2343259999999
 30
0.0
 11
57.083486
 21
250.2343259999999
 31
0.0
  0
LINE
  5
EEA3
330
EE00
100
AcDbEntity
  8
1
  6
Continuous
100
AcDbLine
 10
57.20267299999999
 20
249.984326
 30
0.0
 11
57.227823
 21
249.984326
 31
0.0
  0
LINE
  5
EEA4
330
EE00
100
AcDbEntity
  8
1
  6
Continuous
100
AcDbLine
 10
57.366016
 20
249.734326
 30
0.0
 11
57.372161
 21
249.734326
 31
0.0
  0
LINE
  5
EEA5
330
EE00
100
AcDbEntity
  8
1
  6
Continuous
100
AcDbLine
 10
59.36325899999999
 20
246.4843259999999
 30
0.0
 11
60.838295
 21
246.4843259999999
 31
0.0
  0
ARC
  5
EEA6
330
EE00
100
AcDbEntity
  8
1
  6
Continuous
100
AcDbCircle
 10
59.36325899999999
 20
247.4843259999999
 30
0.0
 40
1.0
100
AcDbArc
 50
192.839588
 51
270.0
  0
LINE
  5
EEA7
330
EE00
100
AcDbEntity
  8
1
  6
Continuous
100
AcDbLine
 10
50.588295
 20
261.4843259999997
 30
0.0
 11
57.516498
 21
249.4843259999999
 31
0.0
  0
ARC
  5
EEA8
330
EE00
100
AcDbEntity
  8
1
  6
Continuous
100
AcDbCircle
 10
64.588295
 20
246.513763
 30
0.0
 40
2.0
100
AcDbArc
 50
309.5211959999998
 51
0.0
  0
LINE
  5
EEA9
330
EE00
100
AcDbEntity
  8
1
  6
Continuous
100
AcDbLine
 10
66.234148
 20
280.5851769999998
 30
0.0
 11
63.08829499999998
 21
273.588193
 31
0.0
  0
ARC
  5
EEAA
330
EE00
100
AcDbEntity
  8
1
  6
Continuous
100
AcDbCircle
 10
50.588295
 20
256.4843259999999
 30
0.0
 40
24.0
100
AcDbArc
 50
61.49256900000001
 51
118.507431
  0
ARC
  5
EEAB
330
EE00
100
AcDbEntity
  8
1
  6
Continuous
100
AcDbCircle
 10
36.588295
 20
280.4548889999999
 30
0.0
 40
2.0
100
AcDbArc
 50
129.521196
 51
180.0
  0
LINE
  5
EEAC
330
EE00
100
AcDbEntity
  8
1
  6
Continuous
100
AcDbLine
 10
34.831662
 20
280.8315749999998
 30
0.0
 11
38.088295
 21
273.588193
 31
0.0
  0
ARC
  5
EEAD
330
EE00
100
AcDbEntity
  8
1
  6
Continuous
100
AcDbCircle
 10
40.088295
 20
275.8169409999998
 30
0.0
 40
2.0
100
AcDbArc
 50
118.507431
 51
180.0
  0
ARC
  5
EEAE
330
EE00
100
AcDbEntity
  8
1
  6
Continuous
100
AcDbCircle
 10
61.08829499999998
 20
275.8169409999998
 30
0.0
 40
2.0
100
AcDbArc
 50
0.0
 51
61.49256900000001
  0
ARC
  5
EEAF
330
EE00
100
AcDbEntity
  8
1
  6
Continuous
100
AcDbCircle
 10
64.588295
 20
280.4548889999999
 30
0.0
 40
2.0
100
AcDbArc
 50
0.0
 51
50.478804
  0
LINE
  5
EEB0
330
EE00
100
AcDbEntity
  8
1
  6
Continuous
100
AcDbLine
 10
232.107768
 20
272.9843259999999
 30
0.0
 11
232.107768
 21
253.984326
 31
0.0
  0
LINE
  5
EEB1
330
EE00
100
AcDbEntity
  8
2
  6
Continuous
100
AcDbLine
 10
237.007768
 20
268.946206
 30
0.0
 11
232.307768
 21
263.4843259999997
 31
0.0
  0
LINE
  5
EEB2
330
EE00
100
AcDbEntity
  8
2
  6
Continuous
100
AcDbLine
 10
237.007768
 20
263.4843259999997
 30
0.0
 11
232.307768
 21
268.946206
 31
0.0
  0
LINE
  5
EEB3
330
EE00
100
AcDbEntity
  8
1
  6
Continuous
100
AcDbLine
 10
232.307768
 20
256.684326
 30
0.0
 11
232.307768
 21
270.2843259999997
 31
0.0
  0
LINE
  5
EEB4
330
EE00
100
AcDbEntity
  8
1
  6
Continuous
100
AcDbLine
 10
237.307768
 20
268.646206
 30
0.0
 11
237.307768
 21
258.322447
 31
0.0
  0
LINE
  5
EEB5
330
EE00
100
AcDbEntity
  8
1
  6
Continuous
100
AcDbLine
 10
205.5577679999999
 20
277.2906129999999
 30
0.0
 11
205.5577679999999
 21
249.678039
 31
0.0
  0
LINE
  5
EEB6
330
EE00
100
AcDbEntity
  8
1
  6
Continuous
100
AcDbLine
 10
205.507768
 20
249.4843259999999
 30
0.0
 11
205.507768
 21
277.4843259999999
 31
0.0
  0
LINE
  5
EEB7
330
EE00
100
AcDbEntity
  8
1
  6
Continuous
100
AcDbLine
 10
213.507768
 20
285.4843259999999
 30
0.0
 11
213.507768
 21
241.484326
 31
0.0
  0
LINE
  5
EEB8
330
EE00
100
AcDbEntity
  8
1
  6
Continuous
100
AcDbLine
 10
217.007768
 20
287.4843259999999
 30
0.0
 11
217.007768
 21
239.484326
 31
0.0
  0
LINE
  5
EEB9
330
EE00
100
AcDbEntity
  8
1
  6
Continuous
100
AcDbLine
 10
218.007768
 20
287.4843259999999
 30
0.0
 11
218.007768
 21
239.484326
 31
0.0
  0
ARC
  5
EEBA
330
EE00
100
AcDbEntity
  8
1
  6
Continuous
100
AcDbCircle
 10
193.007768
 20
246.1628339999998
 30
0.0
 40
6.0
100
AcDbArc
 50
95.44033199999999
 51
180.0
  0
LINE
  5
EEBB
330
EE00
100
AcDbEntity
  8
4
  6
CENTER
100
AcDbLine
 10
167.2569639999998
 20
263.4843259999997
 30
0.0
 11
240.8336789999999
 21
263.4843259999997
 31
0.0
  0
LINE
  5
EEBC
330
EE00
100
AcDbEntity
  8
1
  6
Continuous
100
AcDbLine
 10
187.219471
 20
247.7425839999999
 30
0.0
 11
205.507768
 21
249.4843259999999
 31
0.0
  0
ARC
  5
EEBD
330
EE00
100
AcDbEntity
  8
5
  6
PHANTOM
100
AcDbCircle
 10
137.6798709999999
 20
219.752558
 30
0.0
 40
2.0
100
AcDbArc
 50
344.2794049999998
 51
56.258952
  0
LINE
  5
EEBE
330
EE00
100
AcDbEntity
  8
1
  6
Continuous
100
AcDbLine
 10
187.0077679999999
 20
246.1628339999998
 30
0.0
 11
187.0077679999999
 21
182.9696079999999
 31
0.0
  0
ARC
  5
EEBF
330
EE00
100
AcDbEntity
  8
5
  6
PHANTOM
100
AcDbCircle
 10
132.0069049999998
 20
209.926692
 30
0.0
 40
2.0
100
AcDbArc
 50
243.741048
 51
315.720595
  0
ARC
  5
EEC0
330
EE00
100
AcDbEntity
  8
5
  6
PHANTOM
100
AcDbCircle
 10
115.5402
 20
225.9843259999999
 30
0.0
 40
25.0
100
AcDbArc
 50
315.720595
 51
344.2794049999998
  0
ARC
  5
EEC1
330
EE00
100
AcDbEntity
  8
1
  6
Continuous
100
AcDbCircle
 10
193.007768
 20
182.9696079999999
 30
0.0
 40
6.0
100
AcDbArc
 50
180.0
 51
225.0
  0
LINE
  5
EEC2
330
EE00
100
AcDbEntity
  8
1
  6
Continuous
100
AcDbLine
 10
190.2504089999999
 20
177.2416859999999
 30
0.0
 11
188.765128
 21
178.726967
 31
0.0
  0
ARC
  5
EEC3
330
EE00
100
AcDbEntity
  8
1
  6
Continuous
100
AcDbCircle
 10
374.007768
 20
246.4843259999999
 30
0.0
 40
200.0
100
AcDbArc
 50
180.0
 51
184.573055
  0
LINE
  5
EEC4
330
EE00
100
AcDbEntity
  8
1
  6
Continuous
100
AcDbLine
 10
231.857768
 20
253.7343259999999
 30
0.0
 11
218.007768
 21
253.7343259999999
 31
0.0
  0
LINE
  5
EEC5
330
EE00
100
AcDbEntity
  8
1
  6
Continuous
100
AcDbLine
 10
205.687277
 20
249.342277
 30
0.0
 11
214.0258039999999
 21
240.1412769999998
 31
0.0
  0
LINE
  5
EEC6
330
EE00
100
AcDbEntity
  8
1
  6
Continuous
100
AcDbLine
 10
215.507768
 20
239.484326
 30
0.0
 11
217.007768
 21
239.484326
 31
0.0
  0
LINE
  5
EEC7
330
EE00
100
AcDbEntity
  8
1
  6
Continuous
100
AcDbLine
 10
218.007768
 20
239.484326
 30
0.0
 11
217.007768
 21
239.484326
 31
0.0
  0
ARC
  5
EEC8
330
EE00
100
AcDbEntity
  8
1
  6
Continuous
100
AcDbCircle
 10
215.507768
 20
241.484326
 30
0.0
 40
2.0
100
AcDbArc
 50
180.0
 51
222.3553149999999
  0
ARC
  5
EEC9
330
EE00
100
AcDbEntity
  8
1
  6
Continuous
100
AcDbCircle
 10
215.507768
 20
241.484326
 30
0.0
 40
2.0
100
AcDbArc
 50
222.3553149999999
 51
270.0
  0
LINE
  5
EECA
330
EE00
100
AcDbEntity
  8
1
  6
Continuous
100
AcDbLine
 10
205.638278
 20
253.253462
 30
0.0
 11
209.1680929999998
 21
249.8186529999999
 31
0.0
  0
ARC
  5
EECB
330
EE00
100
AcDbEntity
  8
1
  6
Continuous
100
AcDbCircle
 10
206.0577679999999
 20
249.678039
 30
0.0
 40
0.5
100
AcDbArc
 50
180.0
 51
222.1848549999999
  0
LINE
  5
EECC
330
EE00
100
AcDbEntity
  8
1
  6
Continuous
100
AcDbLine
 10
205.507768
 20
254.4843259999999
 30
0.0
 11
205.5577679999999
 21
254.4843259999999
 31
0.0
  0
LINE
  5
EECD
330
EE00
100
AcDbEntity
  8
1
  6
Continuous
100
AcDbLine
 10
192.4389139999999
 20
252.135806
 30
0.0
 11
205.140043
 21
253.345438
 31
0.0
  0
LINE
  5
EECE
330
EE00
100
AcDbEntity
  8
1
  6
Continuous
100
AcDbLine
 10
219.507768
 20
248.4843259999999
 30
0.0
 11
218.007768
 21
248.4843259999999
 31
0.0
  0
LINE
  5
EECF
330
EE00
100
AcDbEntity
  8
1
  6
Continuous
100
AcDbLine
 10
219.507768
 20
243.9843259999999
 30
0.0
 11
218.007768
 21
243.9843259999999
 31
0.0
  0
LINE
  5
EED0
330
EE00
100
AcDbEntity
  8
1
  6
Continuous
100
AcDbLine
 10
219.507768
 20
243.9843259999999
 30
0.0
 11
219.507768
 21
248.4843259999999
 31
0.0
  0
LINE
  5
EED1
330
EE00
100
AcDbEntity
  8
1
  6
Continuous
100
AcDbLine
 10
209.813262
 20
249.1908489999999
 30
0.0
 11
212.507768
 21
246.568867
 31
0.0
  0
LINE
  5
EED2
330
EE00
100
AcDbEntity
  8
2
  6
Continuous
100
AcDbLine
 10
232.307768
 20
258.022447
 30
0.0
 11
237.007768
 21
263.4843259999997
 31
0.0
  0
LINE
  5
EED3
330
EE00
100
AcDbEntity
  8
2
  6
Continuous
100
AcDbLine
 10
232.307768
 20
263.4843259999997
 30
0.0
 11
237.007768
 21
258.022447
 31
0.0
  0
LINE
  5
EED4
330
EE00
100
AcDbEntity
  8
1
  6
Continuous
100
AcDbLine
 10
237.007768
 20
263.4843259999997
 30
0.0
 11
232.307768
 21
263.4843259999997
 31
0.0
  0
LINE
  5
EED5
330
EE00
100
AcDbEntity
  8
1
  6
Continuous
100
AcDbLine
 10
237.007768
 20
258.022447
 30
0.0
 11
232.307768
 21
258.022447
 31
0.0
  0
ARC
  5
EED6
330
EE00
100
AcDbEntity
  8
1
  6
Continuous
100
AcDbCircle
 10
237.007768
 20
258.322447
 30
0.0
 40
0.3
100
AcDbArc
 50
270.0
 51
0.0
  0
LINE
  5
EED7
330
EE00
100
AcDbEntity
  8
1
  6
Continuous
100
AcDbLine
 10
231.857768
 20
253.7343259999999
 30
0.0
 11
232.107768
 21
253.984326
 31
0.0
  0
ARC
  5
EED8
330
EE00
100
AcDbEntity
  8
1
  6
Continuous
100
AcDbCircle
 10
232.107768
 20
256.684326
 30
0.0
 40
0.2
100
AcDbArc
 50
270.0
 51
0.0
  0
LINE
  5
EED9
330
EE00
100
AcDbEntity
  8
1
  6
Continuous
100
AcDbLine
 10
186.178062
 20
276.5619939999999
 30
0.0
 11
204.9222219999998
 21
273.678277
 31
0.0
  0
LINE
  5
EEDA
330
EE00
100
AcDbEntity
  8
1
  6
Continuous
100
AcDbLine
 10
186.763608
 20
280.368043
 30
0.0
 11
205.507768
 21
277.4843259999999
 31
0.0
  0
LINE
  5
EEDB
330
EE00
100
AcDbEntity
  8
1
  6
Continuous
100
AcDbLine
 10
231.857768
 20
273.2343259999999
 30
0.0
 11
218.007768
 21
273.2343259999999
 31
0.0
  0
LINE
  5
EEDC
330
EE00
100
AcDbEntity
  8
1
  6
Continuous
100
AcDbLine
 10
214.0258039999999
 20
286.8273759999999
 30
0.0
 11
205.687277
 21
277.6263759999998
 31
0.0
  0
ARC
  5
EEDD
330
EE00
100
AcDbEntity
  8
1
  6
Continuous
100
AcDbCircle
 10
215.507768
 20
285.4843259999999
 30
0.0
 40
2.0
100
AcDbArc
 50
137.644685
 51
180.0
  0
LINE
  5
EEDE
330
EE00
100
AcDbEntity
  8
1
  6
Continuous
100
AcDbLine
 10
209.1680929999998
 20
277.1499989999999
 30
0.0
 11
205.638278
 21
273.71519
 31
0.0
  0
ARC
  5
EEDF
330
EE00
100
AcDbEntity
  8
1
  6
Continuous
100
AcDbCircle
 10
206.0577679999999
 20
277.2906129999999
 30
0.0
 40
0.5
100
AcDbArc
 50
137.815145
 51
180.0
  0
LINE
  5
EEE0
330
EE00
100
AcDbEntity
  8
1
  6
Continuous
100
AcDbLine
 10
205.5577679999999
 20
274.9843259999999
 30
0.0
 11
205.507768
 21
274.9843259999999
 31
0.0
  0
LINE
  5
EEE1
330
EE00
100
AcDbEntity
  8
1
  6
Continuous
100
AcDbLine
 10
219.507768
 20
278.4843259999997
 30
0.0
 11
218.007768
 21
278.4843259999997
 31
0.0
  0
LINE
  5
EEE2
330
EE00
100
AcDbEntity
  8
1
  6
Continuous
100
AcDbLine
 10
219.507768
 20
282.9843259999999
 30
0.0
 11
218.007768
 21
282.9843259999999
 31
0.0
  0
LINE
  5
EEE3
330
EE00
100
AcDbEntity
  8
1
  6
Continuous
100
AcDbLine
 10
219.507768
 20
282.9843259999999
 30
0.0
 11
219.507768
 21
278.4843259999997
 31
0.0
  0
LINE
  5
EEE4
330
EE00
100
AcDbEntity
  8
1
  6
Continuous
100
AcDbLine
 10
212.507768
 20
280.399785
 30
0.0
 11
209.813262
 21
277.7778029999999
 31
0.0
  0
LINE
  5
EEE5
330
EE00
100
AcDbEntity
  8
1
  6
Continuous
100
AcDbLine
 10
215.507768
 20
287.4843259999999
 30
0.0
 11
217.007768
 21
287.4843259999999
 31
0.0
  0
LINE
  5
EEE6
330
EE00
100
AcDbEntity
  8
1
  6
Continuous
100
AcDbLine
 10
218.007768
 20
287.4843259999999
 30
0.0
 11
217.007768
 21
287.4843259999999
 31
0.0
  0
ARC
  5
EEE7
330
EE00
100
AcDbEntity
  8
1
  6
Continuous
100
AcDbCircle
 10
215.507768
 20
285.4843259999999
 30
0.0
 40
2.0
100
AcDbArc
 50
90.0
 51
137.644685
  0
LINE
  5
EEE8
330
EE00
100
AcDbEntity
  8
1
  6
Continuous
100
AcDbLine
 10
237.007768
 20
268.946206
 30
0.0
 11
232.307768
 21
268.946206
 31
0.0
  0
ARC
  5
EEE9
330
EE00
100
AcDbEntity
  8
1
  6
Continuous
100
AcDbCircle
 10
237.007768
 20
268.646206
 30
0.0
 40
0.3
100
AcDbArc
 50
0.0
 51
90.0
  0
LINE
  5
EEEA
330
EE00
100
AcDbEntity
  8
1
  6
Continuous
100
AcDbLine
 10
232.107768
 20
272.9843259999999
 30
0.0
 11
231.857768
 21
273.2343259999999
 31
0.0
  0
ARC
  5
EEEB
330
EE00
100
AcDbEntity
  8
1
  6
Continuous
100
AcDbCircle
 10
232.107768
 20
270.2843259999997
 30
0.0
 40
0.2
100
AcDbArc
 50
0.0
 51
90.0
  0
LINE
  5
EEEC
330
EE00
100
AcDbEntity
  8
4
  6
CENTER
100
AcDbLine
 10
461.3748849999998
 20
292.4843259999999
 30
0.0
 11
461.3748849999998
 21
157.798321
 31
0.0
  0
LINE
  5
EEED
330
EE00
100
AcDbEntity
  8
1
  6
Continuous
100
AcDbLine
 10
473.448711
 20
233.4348809999999
 30
0.0
 11
469.0435889999998
 21
166.064429
 31
0.0
  0
LINE
  5
EEEE
330
EE00
100
AcDbEntity
  8
1
  6
Continuous
100
AcDbLine
 10
449.3010589999998
 20
233.4348809999999
 30
0.0
 11
453.7061809999998
 21
166.064429
 31
0.0
  0
LINE
  5
EEEF
330
EE00
100
AcDbEntity
  8
4
  6
CENTER
100
AcDbLine
 10
327.5150779999999
 20
72.553574
 30
0.0
 11
312.876481
 21
72.553574
 31
0.0
  0
ARC
  5
EEF0
330
EE00
100
AcDbEntity
  8
1
  6
Continuous
100
AcDbCircle
 10
304.959339
 20
65.053574
 30
0.0
 40
32.055667
100
AcDbArc
 50
166.4692029999999
 51
193.530797
  0
ARC
  5
EEF1
330
EE00
100
AcDbEntity
  8
1
  6
Continuous
100
AcDbCircle
 10
244.848004
 20
65.053574
 30
0.0
 40
32.055667
100
AcDbArc
 50
346.469203
 51
13.530797
  0
LINE
  5
EEF2
330
EE00
100
AcDbEntity
  8
1
  6
Continuous
100
AcDbLine
 10
272.9036709999999
 20
57.553574
 30
0.0
 11
272.9036709999999
 21
87.55357399999999
 31
0.0
  0
LINE
  5
EEF3
330
EE00
100
AcDbEntity
  8
1
  6
Continuous
100
AcDbLine
 10
276.9036709999999
 20
57.553574
 30
0.0
 11
276.9036709999999
 21
87.55357399999999
 31
0.0
  0
LINE
  5
EEF4
330
EE00
100
AcDbEntity
  8
1
  6
Continuous
100
AcDbLine
 10
278.4036709999999
 20
58.55357399999999
 30
0.0
 11
278.4036709999999
 21
86.55357399999996
 31
0.0
  0
LINE
  5
EEF5
330
EE00
100
AcDbEntity
  8
1
  6
Continuous
100
AcDbLine
 10
276.9036709999999
 20
58.55357399999999
 30
0.0
 11
278.4036709999999
 21
58.55357399999999
 31
0.0
  0
LINE
  5
EEF6
330
EE00
100
AcDbEntity
  8
1
  6
Continuous
100
AcDbLine
 10
278.4036709999999
 20
61.20458000000001
 30
0.0
 11
276.9036709999999
 21
61.20458000000001
 31
0.0
  0
LINE
  5
EEF7
330
EE00
100
AcDbEntity
  8
1
  6
Continuous
100
AcDbLine
 10
278.4036709999999
 20
59.59524399999999
 30
0.0
 11
276.9036709999999
 21
59.59524399999999
 31
0.0
  0
LINE
  5
EEF8
330
EE00
100
AcDbEntity
  8
1
  6
Continuous
100
AcDbLine
 10
276.9036709999999
 20
57.553574
 30
0.0
 11
272.9036709999999
 21
57.553574
 31
0.0
  0
LINE
  5
EEF9
330
EE00
100
AcDbEntity
  8
1
  6
Continuous
100
AcDbLine
 10
271.4036709999999
 20
58.55357399999999
 30
0.0
 11
272.9036709999999
 21
58.55357399999999
 31
0.0
  0
LINE
  5
EEFA
330
EE00
100
AcDbEntity
  8
4
  6
CENTER
100
AcDbLine
 10
266.9036709999999
 20
72.553573
 30
0.0
 11
281.4036709999999
 21
72.553573
 31
0.0
  0
LINE
  5
EEFB
330
EE00
100
AcDbEntity
  8
1
  6
Continuous
100
AcDbLine
 10
276.9036709999999
 20
86.55357399999996
 30
0.0
 11
278.4036709999999
 21
86.55357399999996
 31
0.0
  0
LINE
  5
EEFC
330
EE00
100
AcDbEntity
  8
1
  6
Continuous
100
AcDbLine
 10
278.4036709999999
 20
85.51190400000001
 30
0.0
 11
276.9036709999999
 21
85.51190400000001
 31
0.0
  0
LINE
  5
EEFD
330
EE00
100
AcDbEntity
  8
1
  6
Continuous
100
AcDbLine
 10
278.4036709999999
 20
83.902569
 30
0.0
 11
276.9036709999999
 21
83.902569
 31
0.0
  0
LINE
  5
EEFE
330
EE00
100
AcDbEntity
  8
1
  6
Continuous
100
AcDbLine
 10
276.9036709999999
 20
87.55357399999999
 30
0.0
 11
272.9036709999999
 21
87.55357399999999
 31
0.0
  0
LINE
  5
EEFF
330
EE00
100
AcDbEntity
  8
1
  6
Continuous
100
AcDbLine
 10
271.4036709999999
 20
86.55357399999996
 30
0.0
 11
272.9036709999999
 21
86.55357399999996
 31
0.0
  0
LINE
  5
EF00
330
EE00
100
AcDbEntity
  8
1
  6
Continuous
100
AcDbLine
 10
273.793399
 20
72.553573
 30
0.0
 11
276.0139429999999
 21
72.553574
 31
0.0
  0
ARC
  5
EF01
330
EE00
100
AcDbEntity
  8
1
  6
Continuous
100
AcDbCircle
 10
304.959339
 20
80.05357399999999
 30
0.0
 40
32.055667
100
AcDbArc
 50
166.4692029999999
 51
193.530797
  0
ARC
  5
EF02
330
EE00
100
AcDbEntity
  8
1
  6
Continuous
100
AcDbCircle
 10
244.848004
 20
80.05357399999999
 30
0.0
 40
32.055667
100
AcDbArc
 50
346.469203
 51
13.530797
  0
LINE
  5
EF03
330
EE00
100
AcDbEntity
  8
1
  6
Continuous
100
AcDbLine
 10
319.076481
 20
81.55357399999997
 30
0.0
 11
319.076481
 21
63.55357399999999
 31
0.0
  0
LINE
  5
EF04
330
EE00
100
AcDbEntity
  8
1
  6
Continuous
100
AcDbLine
 10
315.876481
 20
81.55357399999997
 30
0.0
 11
315.876481
 21
63.55357399999999
 31
0.0
  0
LINE
  5
EF05
330
EE00
100
AcDbEntity
  8
1
  6
Continuous
100
AcDbLine
 10
319.076481
 20
63.55357399999999
 30
0.0
 11
315.876481
 21
63.55357399999999
 31
0.0
  0
LINE
  5
EF06
330
EE00
100
AcDbEntity
  8
1
  6
Continuous
100
AcDbLine
 10
319.076481
 20
81.55357399999997
 30
0.0
 11
315.876481
 21
81.55357399999997
 31
0.0
  0
LINE
  5
EF07
330
EE00
100
AcDbEntity
  8
1
  6
Continuous
100
AcDbLine
 10
343.104555
 20
80.553574
 30
0.0
 11
343.104555
 21
64.553574
 31
0.0
  0
LINE
  5
EF08
330
EE00
100
AcDbEntity
  8
1
  6
Continuous
100
AcDbLine
 10
341.9045549999997
 20
80.553574
 30
0.0
 11
341.9045549999997
 21
64.553574
 31
0.0
  0
LINE
  5
EF09
330
EE00
100
AcDbEntity
  8
1
  6
Continuous
100
AcDbLine
 10
324.5150779999999
 20
81.55357399999997
 30
0.0
 11
324.5150779999999
 21
63.55357399999999
 31
0.0
  0
LINE
  5
EF0A
330
EE00
100
AcDbEntity
  8
1
  6
Continuous
100
AcDbLine
 10
322.9150779999998
 20
81.55357399999997
 30
0.0
 11
322.9150779999998
 21
63.55357399999999
 31
0.0
  0
LINE
  5
EF0B
330
EE00
100
AcDbEntity
  8
1
  6
Continuous
100
AcDbLine
 10
324.5150779999999
 20
63.55357399999999
 30
0.0
 11
322.9150779999998
 21
63.55357399999999
 31
0.0
  0
LINE
  5
EF0C
330
EE00
100
AcDbEntity
  8
1
  6
Continuous
100
AcDbLine
 10
343.104555
 20
64.553574
 30
0.0
 11
341.9045549999997
 21
64.553574
 31
0.0
  0
LINE
  5
EF0D
330
EE00
100
AcDbEntity
  8
1
  6
Continuous
100
AcDbLine
 10
324.5150779999999
 20
81.55357399999997
 30
0.0
 11
322.9150779999998
 21
81.55357399999997
 31
0.0
  0
LINE
  5
EF0E
330
EE00
100
AcDbEntity
  8
1
  6
Continuous
100
AcDbLine
 10
344.4045549999998
 20
73.85357399999998
 30
0.0
 11
343.104555
 21
72.553574
 31
0.0
  0
LINE
  5
EF0F
330
EE00
100
AcDbEntity
  8
1
  6
Continuous
100
AcDbLine
 10
344.4045549999998
 20
72.553574
 30
0.0
 11
343.104555
 21
71.253574
 31
0.0
  0
LINE
  5
EF10
330
EE00
100
AcDbEntity
  8
1
  6
Continuous
100
AcDbLine
 10
344.4045549999998
 20
77.15357400000002
 30
0.0
 11
343.104555
 21
77.15357400000002
 31
0.0
  0
LINE
  5
EF11
330
EE00
100
AcDbEntity
  8
1
  6
Continuous
100
AcDbLine
 10
344.4045549999998
 20
67.953574
 30
0.0
 11
343.104555
 21
67.953574
 31
0.0
  0
LINE
  5
EF12
330
EE00
100
AcDbEntity
  8
1
  6
Continuous
100
AcDbLine
 10
344.4045549999998
 20
67.953574
 30
0.0
 11
344.4045549999998
 21
77.15357400000002
 31
0.0
  0
LINE
  5
EF13
330
EE00
100
AcDbEntity
  8
1
  6
Continuous
100
AcDbLine
 10
343.104555
 20
80.553574
 30
0.0
 11
341.9045549999997
 21
80.553574
 31
0.0
  0
ARC
  5
EF14
330
EE00
100
AcDbEntity
  8
1
  6
Continuous
100
AcDbCircle
 10
342.1295779999999
 20
74.553574
 30
0.0
 40
5.774976999999998
100
AcDbArc
 50
339.7375
 51
20.2625
  0
ARC
  5
EF15
330
EE00
100
AcDbEntity
  8
1
  6
Continuous
100
AcDbCircle
 10
350.1795319999998
 20
74.553574
 30
0.0
 40
5.774976999999998
100
AcDbArc
 50
159.7375
 51
200.2625
  0
LINE
  5
EF16
330
EE00
100
AcDbEntity
  8
1
  6
Continuous
100
AcDbLine
 10
344.761935
 20
72.553574
 30
0.0
 11
347.547175
 21
72.553574
 31
0.0
  0
LINE
  5
EF17
330
EE00
100
AcDbEntity
  8
1
  6
Continuous
100
AcDbLine
 10
347.9045549999999
 20
76.55357399999998
 30
0.0
 11
344.4045549999998
 21
76.55357399999998
 31
0.0
  0
LINE
  5
EF18
330
EE00
100
AcDbEntity
  8
1
  6
Continuous
100
AcDbLine
 10
347.9045549999999
 20
68.55357399999999
 30
0.0
 11
344.4045549999998
 21
68.55357399999999
 31
0.0
  0
LINE
  5
EF19
330
EE00
100
AcDbEntity
  8
1
  6
Continuous
100
AcDbLine
 10
347.9045549999999
 20
76.55357399999998
 30
0.0
 11
347.9045549999999
 21
68.55357399999999
 31
0.0
  0
ARC
  5
EF1A
330
EE00
100
AcDbEntity
  8
1
  6
Continuous
100
AcDbCircle
 10
350.1795319999998
 20
70.553574
 30
0.0
 40
5.774976999999998
100
AcDbArc
 50
159.7375
 51
200.2625
  0
ARC
  5
EF1B
330
EE00
100
AcDbEntity
  8
1
  6
Continuous
100
AcDbCircle
 10
342.1295779999999
 20
70.553574
 30
0.0
 40
5.774976999999998
100
AcDbArc
 50
339.7375
 51
20.2625
  0
LINE
  5
EF1C
330
EE00
100
AcDbEntity
  8
4
  6
CENTER
100
AcDbLine
 10
350.9045549999997
 20
72.553574
 30
0.0
 11
338.9045549999999
 21
72.553574
 31
0.0
  0
ARC
  5
EF1D
330
EE00
100
AcDbEntity
  8
1
  6
Continuous
100
AcDbCircle
 10
461.3748849999998
 20
178.484326
 30
0.0
 40
8.0
100
AcDbArc
 50
226.051292
 51
313.948708
  0
ARC
  5
EF1E
330
EE00
100
AcDbEntity
  8
1
  6
Continuous
100
AcDbCircle
 10
461.3748849999998
 20
188.484326
 30
0.0
 40
25.0
100
AcDbArc
 50
255.720595
 51
284.279405
  0
ARC
  5
EF1F
330
EE00
100
AcDbEntity
  8
1
  6
Continuous
100
AcDbCircle
 10
455.701919
 20
166.194924
 30
0.0
 40
2.0
100
AcDbArc
 50
183.741048
 51
255.720595
  0
ARC
  5
EF20
330
EE00
100
AcDbEntity
  8
1
  6
Continuous
100
AcDbCircle
 10
467.0478499999998
 20
166.194924
 30
0.0
 40
2.0
100
AcDbArc
 50
284.279405
 51
356.258952
  0
LINE
  5
EF21
330
EE00
100
AcDbEntity
  8
5
  6
PHANTOM
100
AcDbLine
 10
429.3143889999998
 20
258.9158439999998
 30
0.0
 11
373.172427
 21
221.41567
 31
0.0
  0
LINE
  5
EF22
330
EE00
100
AcDbEntity
  8
5
  6
PHANTOM
100
AcDbLine
 10
441.388215
 20
238.003364
 30
0.0
 11
380.841131
 21
208.133085
 31
0.0
  0
LINE
  5
EF23
330
EE00
100
AcDbEntity
  8
4
  6
CENTER
100
AcDbLine
 10
370.442218
 20
210.9843259999999
 30
0.0
 11
486.489622
 21
277.9843259999997
 31
0.0
  0
LINE
  5
EF24
330
EE00
100
AcDbEntity
  8
1
  6
Continuous
100
AcDbLine
 10
347.9045549999999
 20
267.484826
 30
0.0
 11
347.9045549999999
 21
259.484826
 31
0.0
  0
ARC
  5
EF25
330
EE00
100
AcDbEntity
  8
1
  6
Continuous
100
AcDbCircle
 10
352.0455999999999
 20
263.4843259999997
 30
0.0
 40
7.641045
100
AcDbArc
 50
162.407253
 51
197.592747
  0
ARC
  5
EF26
330
EE00
100
AcDbEntity
  8
1
  6
Continuous
100
AcDbCircle
 10
340.2635099999999
 20
263.4843259999997
 30
0.0
 40
7.641045
100
AcDbArc
 50
342.4072529999999
 51
17.59274699999998
  0
ARC
  5
EF27
330
EE00
100
AcDbEntity
  8
1
  6
Continuous
100
AcDbCircle
 10
234.3111149999999
 20
263.4843259999997
 30
0.0
 40
42.592555
100
AcDbArc
 50
348.268368
 51
11.731632
  0
ARC
  5
EF28
330
EE00
100
AcDbEntity
  8
1
  6
Continuous
100
AcDbCircle
 10
315.496226
 20
263.4843259999997
 30
0.0
 40
42.592555
100
AcDbArc
 50
168.2683679999998
 51
191.7316319999999
  0
LINE
  5
EF29
330
EE00
100
AcDbEntity
  8
1
  6
Continuous
100
AcDbLine
 10
278.4036709999999
 20
249.4843259999999
 30
0.0
 11
278.4036709999999
 21
277.4843259999999
 31
0.0
  0
LINE
  5
EF2A
330
EE00
100
AcDbEntity
  8
1
  6
Continuous
100
AcDbLine
 10
276.9036709999999
 20
248.484324
 30
0.0
 11
276.9036709999999
 21
278.484328
 31
0.0
  0
LINE
  5
EF2B
330
EE00
100
AcDbEntity
  8
1
  6
Continuous
100
AcDbLine
 10
272.9036709999999
 20
248.4843259999999
 30
0.0
 11
272.9036709999999
 21
278.4843259999997
 31
0.0
  0
LINE
  5
EF2C
330
EE00
100
AcDbEntity
  8
1
  6
Continuous
100
AcDbLine
 10
344.4045549999998
 20
264.7843259999999
 30
0.0
 11
343.104555
 21
263.4843259999997
 31
0.0
  0
LINE
  5
EF2D
330
EE00
100
AcDbEntity
  8
1
  6
Continuous
100
AcDbLine
 10
344.4045549999998
 20
258.865524
 30
0.0
 11
344.4045549999998
 21
268.1031279999999
 31
0.0
  0
LINE
  5
EF2E
330
EE00
100
AcDbEntity
  8
1
  6
Continuous
100
AcDbLine
 10
341.9045549999997
 20
271.4843259999997
 30
0.0
 11
341.9045549999997
 21
255.4843259999999
 31
0.0
  0
LINE
  5
EF2F
330
EE00
100
AcDbEntity
  8
1
  6
Continuous
100
AcDbLine
 10
343.104555
 20
271.4843259999997
 30
0.0
 11
343.104555
 21
255.4843259999999
 31
0.0
  0
LINE
  5
EF30
330
EE00
100
AcDbEntity
  8
1
  6
Continuous
100
AcDbLine
 10
322.9150779999998
 20
272.4843259999999
 30
0.0
 11
322.9150779999998
 21
254.4843259999999
 31
0.0
  0
LINE
  5
EF31
330
EE00
100
AcDbEntity
  8
1
  6
Continuous
100
AcDbLine
 10
324.5150779999999
 20
272.4843259999999
 30
0.0
 11
324.5150779999999
 21
254.4843259999999
 31
0.0
  0
LINE
  5
EF32
330
EE00
100
AcDbEntity
  8
1
  6
Continuous
100
AcDbLine
 10
315.876481
 20
272.4843259999999
 30
0.0
 11
315.876481
 21
254.4843259999999
 31
0.0
  0
LINE
  5
EF33
330
EE00
100
AcDbEntity
  8
1
  6
Continuous
100
AcDbLine
 10
319.076481
 20
272.4843259999999
 30
0.0
 11
319.076481
 21
254.4843259999999
 31
0.0
  0
LINE
  5
EF34
330
EE00
100
AcDbEntity
  8
4
  6
CENTER
100
AcDbLine
 10
327.5150779999999
 20
263.4843259999997
 30
0.0
 11
312.876481
 21
263.4843259999997
 31
0.0
  0
LINE
  5
EF35
330
EE00
100
AcDbEntity
  8
4
  6
CENTER
100
AcDbLine
 10
266.9036709999999
 20
263.4843259999997
 30
0.0
 11
281.4036709999999
 21
263.4843259999997
 31
0.0
  0
LINE
  5
EF36
330
EE00
100
AcDbEntity
  8
1
  6
Continuous
100
AcDbLine
 10
278.4036709999999
 20
257.7545989999999
 30
0.0
 11
276.9036709999999
 21
257.7545989999999
 31
0.0
  0
LINE
  5
EF37
330
EE00
100
AcDbEntity
  8
1
  6
Continuous
100
AcDbLine
 10
278.4036709999999
 20
255.286745
 30
0.0
 11
276.9036709999999
 21
255.286745
 31
0.0
  0
LINE
  5
EF38
330
EE00
100
AcDbEntity
  8
1
  6
Continuous
100
AcDbLine
 10
276.0139429999999
 20
254.824072
 30
0.0
 11
273.793399
 21
254.824072
 31
0.0
  0
LINE
  5
EF39
330
EE00
100
AcDbEntity
  8
1
  6
Continuous
100
AcDbLine
 10
275.5639259999999
 20
246.163818
 30
0.0
 11
276.9036719999999
 21
248.4843259999999
 31
0.0
  0
LINE
  5
EF3A
330
EE00
100
AcDbEntity
  8
1
  6
Continuous
100
AcDbLine
 10
274.2434169999999
 20
246.163818
 30
0.0
 11
272.9036709999999
 21
248.4843259999999
 31
0.0
  0
LINE
  5
EF3B
330
EE00
100
AcDbEntity
  8
1
  6
Continuous
100
AcDbLine
 10
275.5639259999999
 20
246.163818
 30
0.0
 11
274.243416
 21
246.163818
 31
0.0
  0
LINE
  5
EF3C
330
EE00
100
AcDbEntity
  8
1
  6
Continuous
100
AcDbLine
 10
278.4036709999999
 20
249.4843259999999
 30
0.0
 11
276.9036709999999
 21
249.4843259999999
 31
0.0
  0
LINE
  5
EF3D
330
EE00
100
AcDbEntity
  8
1
  6
Continuous
100
AcDbLine
 10
276.9036709999999
 20
249.4843259999999
 30
0.0
 11
278.4036709999999
 21
249.4843259999999
 31
0.0
  0
LINE
  5
EF3E
330
EE00
100
AcDbEntity
  8
1
  6
Continuous
100
AcDbLine
 10
271.4036709999999
 20
249.4843259999999
 30
0.0
 11
272.9036709999999
 21
249.4843259999999
 31
0.0
  0
ARC
  5
EF3F
330
EE00
100
AcDbEntity
  8
1
  6
Continuous
100
AcDbCircle
 10
265.9218839999999
 20
250.493945
 30
0.0
 40
10.98178699999998
100
AcDbArc
 50
346.759553
 51
23.222372
  0
ARC
  5
EF40
330
EE00
100
AcDbEntity
  8
1
  6
Continuous
100
AcDbCircle
 10
283.885458
 20
250.493945
 30
0.0
 40
10.98178699999998
100
AcDbArc
 50
156.7776279999999
 51
193.240431
  0
LINE
  5
EF41
330
EE00
100
AcDbEntity
  8
1
  6
Continuous
100
AcDbLine
 10
319.076481
 20
254.4843259999999
 30
0.0
 11
315.876481
 21
254.4843259999999
 31
0.0
  0
ARC
  5
EF42
330
EE00
100
AcDbEntity
  8
5
  6
PHANTOM
100
AcDbCircle
 10
374.283308
 20
219.752558
 30
0.0
 40
2.0
100
AcDbArc
 50
123.7410479999999
 51
195.720595
  0
ARC
  5
EF43
330
EE00
100
AcDbEntity
  8
5
  6
PHANTOM
100
AcDbCircle
 10
396.42298
 20
225.9843259999999
 30
0.0
 40
25.0
100
AcDbArc
 50
195.720595
 51
224.2794049999997
  0
ARC
  5
EF44
330
EE00
100
AcDbEntity
  8
5
  6
PHANTOM
100
AcDbCircle
 10
379.956274
 20
209.926692
 30
0.0
 40
2.0
100
AcDbArc
 50
224.2794049999997
 51
296.258952
  0
LINE
  5
EF45
330
EE00
100
AcDbEntity
  8
1
  6
Continuous
100
AcDbLine
 10
324.5150779999999
 20
254.4843259999999
 30
0.0
 11
322.9150779999998
 21
254.4843259999999
 31
0.0
  0
ARC
  5
EF46
330
EE00
100
AcDbEntity
  8
1
  6
Continuous
100
AcDbCircle
 10
346.4496419999999
 20
260.020826
 30
0.0
 40
2.045087
100
AcDbArc
 50
145.613799
 51
205.613799
  0
LINE
  5
EF47
330
EE00
100
AcDbEntity
  8
1
  6
Continuous
100
AcDbLine
 10
344.761935
 20
261.174826
 30
0.0
 11
347.547175
 21
261.174826
 31
0.0
  0
LINE
  5
EF48
330
EE00
100
AcDbEntity
  8
1
  6
Continuous
100
AcDbLine
 10
344.761935
 20
258.8658259999998
 30
0.0
 11
347.547175
 21
258.8658259999998
 31
0.0
  0
LINE
  5
EF49
330
EE00
100
AcDbEntity
  8
1
  6
Continuous
100
AcDbLine
 10
344.4045549999998
 20
259.484826
 30
0.0
 11
344.761935
 21
258.8658259999998
 31
0.0
  0
LINE
  5
EF4A
330
EE00
100
AcDbEntity
  8
1
  6
Continuous
100
AcDbLine
 10
347.9045549999999
 20
259.484826
 30
0.0
 11
347.547175
 21
258.8658259999998
 31
0.0
  0
ARC
  5
EF4B
330
EE00
100
AcDbEntity
  8
1
  6
Continuous
100
AcDbCircle
 10
345.8594689999998
 20
260.020826
 30
0.0
 40
2.045087
100
AcDbArc
 50
334.3862009999999
 51
34.386201
  0
LINE
  5
EF4C
330
EE00
100
AcDbEntity
  8
1
  6
Continuous
100
AcDbLine
 10
344.4045549999998
 20
263.4843259999997
 30
0.0
 11
343.104555
 21
262.1843259999999
 31
0.0
  0
LINE
  5
EF4D
330
EE00
100
AcDbEntity
  8
1
  6
Continuous
100
AcDbLine
 10
344.4045549999998
 20
258.8843259999998
 30
0.0
 11
343.104555
 21
258.8843259999998
 31
0.0
  0
LINE
  5
EF4E
330
EE00
100
AcDbEntity
  8
1
  6
Continuous
100
AcDbLine
 10
343.104555
 20
255.4843259999999
 30
0.0
 11
341.9045549999997
 21
255.4843259999999
 31
0.0
  0
LINE
  5
EF4F
330
EE00
100
AcDbEntity
  8
4
  6
CENTER
100
AcDbLine
 10
350.9045549999997
 20
263.4843259999997
 30
0.0
 11
338.9045549999999
 21
263.4843259999997
 31
0.0
  0
LINE
  5
EF50
330
EE00
100
AcDbEntity
  8
1
  6
Continuous
100
AcDbLine
 10
275.5639259999999
 20
280.8048339999999
 30
0.0
 11
274.2434169999999
 21
280.8048339999999
 31
0.0
  0
ARC
  5
EF51
330
EE00
100
AcDbEntity
  8
1
  6
Continuous
100
AcDbCircle
 10
265.9218839999999
 20
276.4747069999998
 30
0.0
 40
10.98178699999998
100
AcDbArc
 50
336.777628
 51
13.24044699999999
  0
ARC
  5
EF52
330
EE00
100
AcDbEntity
  8
1
  6
Continuous
100
AcDbCircle
 10
283.885458
 20
276.4747069999998
 30
0.0
 40
10.98178699999998
100
AcDbArc
 50
166.7595689999999
 51
203.222372
  0
LINE
  5
EF53
330
EE00
100
AcDbEntity
  8
1
  6
Continuous
100
AcDbLine
 10
278.4036709999999
 20
271.6819069999999
 30
0.0
 11
276.9036709999999
 21
271.6819069999999
 31
0.0
  0
LINE
  5
EF54
330
EE00
100
AcDbEntity
  8
1
  6
Continuous
100
AcDbLine
 10
276.0139429999999
 20
272.1445799999999
 30
0.0
 11
273.793399
 21
272.1445799999999
 31
0.0
  0
LINE
  5
EF55
330
EE00
100
AcDbEntity
  8
1
  6
Continuous
100
AcDbLine
 10
278.4036709999999
 20
269.2140529999999
 30
0.0
 11
276.9036709999999
 21
269.2140529999999
 31
0.0
  0
LINE
  5
EF56
330
EE00
100
AcDbEntity
  8
1
  6
Continuous
100
AcDbLine
 10
278.4036709999999
 20
277.4843259999999
 30
0.0
 11
276.9036709999999
 21
277.4843259999999
 31
0.0
  0
LINE
  5
EF57
330
EE00
100
AcDbEntity
  8
1
  6
Continuous
100
AcDbLine
 10
276.9036709999999
 20
277.4843259999999
 30
0.0
 11
278.4036709999999
 21
277.4843259999999
 31
0.0
  0
LINE
  5
EF58
330
EE00
100
AcDbEntity
  8
1
  6
Continuous
100
AcDbLine
 10
271.4036709999999
 20
277.4843259999999
 30
0.0
 11
272.9036709999999
 21
277.4843259999999
 31
0.0
  0
LINE
  5
EF59
330
EE00
100
AcDbEntity
  8
1
  6
Continuous
100
AcDbLine
 10
275.5639259999999
 20
280.8048339999999
 30
0.0
 11
276.9036719999999
 21
278.4843259999997
 31
0.0
  0
LINE
  5
EF5A
330
EE00
100
AcDbEntity
  8
1
  6
Continuous
100
AcDbLine
 10
274.2434169999999
 20
280.8048339999999
 30
0.0
 11
272.9036709999999
 21
278.4843259999997
 31
0.0
  0
LINE
  5
EF5B
330
EE00
100
AcDbEntity
  8
1
  6
Continuous
100
AcDbLine
 10
319.076481
 20
272.4843259999999
 30
0.0
 11
315.876481
 21
272.4843259999999
 31
0.0
  0
LINE
  5
EF5C
330
EE00
100
AcDbEntity
  8
1
  6
Continuous
100
AcDbLine
 10
324.5150779999999
 20
272.4843259999999
 30
0.0
 11
322.9150779999998
 21
272.4843259999999
 31
0.0
  0
LINE
  5
EF5D
330
EE00
100
AcDbEntity
  8
1
  6
Continuous
100
AcDbLine
 10
344.4045549999998
 20
267.484826
 30
0.0
 11
344.761935
 21
268.1038259999999
 31
0.0
  0
ARC
  5
EF5E
330
EE00
100
AcDbEntity
  8
1
  6
Continuous
100
AcDbCircle
 10
346.4496419999999
 20
266.948826
 30
0.0
 40
2.045087
100
AcDbArc
 50
154.3862009999998
 51
214.3862009999998
  0
LINE
  5
EF5F
330
EE00
100
AcDbEntity
  8
1
  6
Continuous
100
AcDbLine
 10
344.761935
 20
268.1038259999999
 30
0.0
 11
347.547175
 21
268.1038259999999
 31
0.0
  0
LINE
  5
EF60
330
EE00
100
AcDbEntity
  8
1
  6
Continuous
100
AcDbLine
 10
344.761935
 20
265.7938259999998
 30
0.0
 11
347.547175
 21
265.7938259999998
 31
0.0
  0
LINE
  5
EF61
330
EE00
100
AcDbEntity
  8
1
  6
Continuous
100
AcDbLine
 10
347.9045549999999
 20
267.484826
 30
0.0
 11
347.547175
 21
268.1038259999999
 31
0.0
  0
ARC
  5
EF62
330
EE00
100
AcDbEntity
  8
1
  6
Continuous
100
AcDbCircle
 10
345.8594689999998
 20
266.948826
 30
0.0
 40
2.045087
100
AcDbArc
 50
325.6137989999999
 51
25.61379899999999
  0
LINE
  5
EF63
330
EE00
100
AcDbEntity
  8
1
  6
Continuous
100
AcDbLine
 10
344.4045549999998
 20
268.0843259999999
 30
0.0
 11
343.104555
 21
268.0843259999999
 31
0.0
  0
LINE
  5
EF64
330
EE00
100
AcDbEntity
  8
1
  6
Continuous
100
AcDbLine
 10
343.104555
 20
271.4843259999997
 30
0.0
 11
341.9045549999997
 21
271.4843259999997
 31
0.0
  0
LINE
  5
EF65
330
EE00
100
AcDbEntity
  8
1
  6
Continuous
100
AcDbLine
 10
462.3708399999999
 20
323.4843259999997
 30
0.0
 11
462.5854809999998
 21
324.0740469999999
 31
0.0
  0
LINE
  5
EF66
330
EE00
100
AcDbEntity
  8
1
  6
Continuous
100
AcDbLine
 10
460.3789299999998
 20
323.4843259999997
 30
0.0
 11
460.1642889999998
 21
324.0740469999999
 31
0.0
  0
LINE
  5
EF67
330
EE00
100
AcDbEntity
  8
1
  6
Continuous
100
AcDbLine
 10
457.3748849999998
 20
321.1743259999999
 30
0.0
 11
457.3748849999998
 21
325.7933259999999
 31
0.0
  0
LINE
  5
EF68
330
EE00
100
AcDbEntity
  8
1
  6
Continuous
100
AcDbLine
 10
465.3748849999998
 20
321.1743259999999
 30
0.0
 11
465.3748849999998
 21
325.7933259999999
 31
0.0
  0
CIRCLE
  5
EF69
330
EE00
100
AcDbEntity
  8
1
  6
Continuous
100
AcDbCircle
 10
461.3748849999998
 20
323.4843259999997
 30
0.0
 40
4.0
  0
CIRCLE
  5
EF6A
330
EE00
100
AcDbEntity
  8
1
  6
Continuous
100
AcDbCircle
 10
461.3748849999998
 20
323.4843259999997
 30
0.0
 40
3.1
  0
CIRCLE
  5
EF6B
330
EE00
100
AcDbEntity
  8
1
  6
Continuous
100
AcDbCircle
 10
461.3748849999998
 20
263.4843259999997
 30
0.0
 40
15.0
  0
CIRCLE
  5
EF6C
330
EE00
100
AcDbEntity
  8
1
  6
Continuous
100
AcDbCircle
 10
461.3748849999998
 20
323.4843259999997
 30
0.0
 40
9.0
  0
CIRCLE
  5
EF6D
330
EE00
100
AcDbEntity
  8
1
  6
Continuous
100
AcDbCircle
 10
461.3748849999998
 20
323.4843259999997
 30
0.0
 40
8.0
  0
ARC
  5
EF6E
330
EE00
100
AcDbEntity
  8
1
  6
Continuous
100
AcDbCircle
 10
461.3748849999998
 20
263.4843259999997
 30
0.0
 40
13.0
100
AcDbArc
 50
168.9125109999999
 51
191.087489
  0
ARC
  5
EF6F
330
EE00
100
AcDbEntity
  8
1
  6
Continuous
100
AcDbCircle
 10
461.3748849999998
 20
263.4843259999997
 30
0.0
 40
11.3
100
AcDbArc
 50
167.218188
 51
192.7818119999997
  0
LINE
  5
EF70
330
EE00
100
AcDbEntity
  8
1
  6
Continuous
100
AcDbLine
 10
446.3748849999998
 20
254.824072
 30
0.0
 11
446.3748849999998
 21
272.1445799999999
 31
0.0
  0
ARC
  5
EF71
330
EE00
100
AcDbEntity
  8
1
  6
Continuous
100
AcDbCircle
 10
461.3748849999998
 20
263.4843259999997
 30
0.0
 40
14.0
100
AcDbArc
 50
155.841252
 51
204.158748
  0
ARC
  5
EF72
330
EE00
100
AcDbEntity
  8
1
  6
Continuous
100
AcDbCircle
 10
461.3748849999998
 20
263.4843259999997
 30
0.0
 40
13.0
100
AcDbArc
 50
342.079787
 51
17.920213
  0
ARC
  5
EF73
330
EE00
100
AcDbEntity
  8
1
  6
Continuous
100
AcDbCircle
 10
461.3748849999998
 20
263.4843259999997
 30
0.0
 40
11.3
100
AcDbArc
 50
339.2689149999998
 51
20.731085
  0
LINE
  5
EF74
330
EE00
100
AcDbEntity
  8
1
  6
Continuous
100
AcDbLine
 10
476.3748849999998
 20
254.824072
 30
0.0
 11
476.3748849999998
 21
272.1445799999999
 31
0.0
  0
ARC
  5
EF75
330
EE00
100
AcDbEntity
  8
1
  6
Continuous
100
AcDbCircle
 10
461.3748849999998
 20
263.4843259999997
 30
0.0
 40
14.0
100
AcDbArc
 50
335.8412519999999
 51
24.158748
  0
ARC
  5
EF76
330
EE00
100
AcDbEntity
  8
1
  6
Continuous
100
AcDbCircle
 10
461.3748849999998
 20
263.4843259999997
 30
0.0
 40
11.0
100
AcDbArc
 50
297.5801989999999
 51
62.419801
  0
ARC
  5
EF77
330
EE00
100
AcDbEntity
  8
2
  6
Continuous
100
AcDbCircle
 10
461.3748849999998
 20
263.4843259999997
 30
0.0
 40
10.18799999999999
100
AcDbArc
 50
286.8615909999999
 51
73.13840899999998
  0
ARC
  5
EF78
330
EE00
100
AcDbEntity
  8
1
  6
Continuous
100
AcDbCircle
 10
461.3748849999998
 20
263.4843259999997
 30
0.0
 40
11.0
100
AcDbArc
 50
117.5801989999998
 51
242.419801
  0
ARC
  5
EF79
330
EE00
100
AcDbEntity
  8
2
  6
Continuous
100
AcDbCircle
 10
461.3748849999998
 20
263.4843259999997
 30
0.0
 40
10.18799999999999
100
AcDbArc
 50
106.8615909999999
 51
253.1384089999999
  0
CIRCLE
  5
EF7A
330
EE00
100
AcDbEntity
  8
1
  6
Continuous
100
AcDbCircle
 10
461.3748849999998
 20
263.4843259999997
 30
0.0
 40
24.0
  0
LINE
  5
EF7B
330
EE00
100
AcDbEntity
  8
4
  6
CENTER
100
AcDbLine
 10
490.3748849999998
 20
263.4843259999997
 30
0.0
 11
432.3748849999998
 21
263.4843259999997
 31
0.0
  0
LINE
  5
EF7C
330
EE00
100
AcDbEntity
  8
1
  6
Continuous
100
AcDbLine
 10
446.3748849999998
 20
254.824072
 30
0.0
 11
461.3748849999998
 21
246.163818
 31
0.0
  0
LINE
  5
EF7D
330
EE00
100
AcDbEntity
  8
1
  6
Continuous
100
AcDbLine
 10
460.707579
 20
219.2991109999999
 30
0.0
 11
458.7110889999998
 21
220.074411
 31
0.0
  0
ARC
  5
EF7E
330
EE00
100
AcDbEntity
  8
1
  6
Continuous
100
AcDbCircle
 10
462.978699
 20
219.1985609999999
 30
0.0
 40
1.067529999999997
100
AcDbArc
 50
48.932
 51
131.0679999999997
  0
ARC
  5
EF7F
330
EE00
100
AcDbEntity
  8
1
  6
Continuous
100
AcDbCircle
 10
462.7804389999998
 20
219.4261109999999
 30
0.0
 40
0.76574
100
AcDbArc
 50
131.0679999999997
 51
199.193
  0
ARC
  5
EF80
330
EE00
100
AcDbEntity
  8
1
  6
Continuous
100
AcDbCircle
 10
463.176959
 20
219.4261109999999
 30
0.0
 40
0.76574
100
AcDbArc
 50
340.8072
 51
48.932
  0
LINE
  5
EF81
330
EE00
100
AcDbEntity
  8
1
  6
Continuous
100
AcDbLine
 10
451.7957319999998
 20
233.5979989999999
 30
0.0
 11
455.2307589999998
 21
181.063849
 31
0.0
  0
LINE
  5
EF82
330
EE00
100
AcDbEntity
  8
1
  6
Continuous
100
AcDbLine
 10
470.9540379999999
 20
233.5979989999999
 30
0.0
 11
467.5190109999999
 21
181.063849
 31
0.0
  0
LINE
  5
EF83
330
EE00
100
AcDbEntity
  8
1
  6
Continuous
100
AcDbLine
 10
457.725432
 20
178.726967
 30
0.0
 11
465.024338
 21
178.726967
 31
0.0
  0
LINE
  5
EF84
330
EE00
100
AcDbEntity
  8
1
  6
Continuous
100
AcDbLine
 10
454.4840129999998
 20
192.484326
 30
0.0
 11
468.2657559999998
 21
192.484326
 31
0.0
  0
ARC
  5
EF85
330
EE00
100
AcDbEntity
  8
1
  6
Continuous
100
AcDbCircle
 10
457.725432
 20
181.226967
 30
0.0
 40
2.5
100
AcDbArc
 50
183.741048
 51
270.0
  0
ARC
  5
EF86
330
EE00
100
AcDbEntity
  8
1
  6
Continuous
100
AcDbCircle
 10
465.024338
 20
181.226967
 30
0.0
 40
2.5
100
AcDbArc
 50
270.0
 51
356.258952
  0
LINE
  5
EF87
330
EE00
100
AcDbEntity
  8
1
  6
Continuous
100
AcDbLine
 10
463.949179
 20
209.8231109999999
 30
0.0
 11
461.9020589999998
 21
209.065811
 31
0.0
  0
LINE
  5
EF88
330
EE00
100
AcDbEntity
  8
1
  6
Continuous
100
AcDbLine
 10
463.996304
 20
218.0078109999997
 30
0.0
 11
461.894864
 21
218.0078109999997
 31
0.0
  0
LINE
  5
EF89
330
EE00
100
AcDbEntity
  8
1
  6
Continuous
100
AcDbLine
 10
463.996304
 20
216.710811
 30
0.0
 11
461.894864
 21
216.710811
 31
0.0
  0
LINE
  5
EF8A
330
EE00
100
AcDbEntity
  8
1
  6
Continuous
100
AcDbLine
 10
463.996304
 20
216.0078109999997
 30
0.0
 11
461.894864
 21
216.0078109999997
 31
0.0
  0
LINE
  5
EF8B
330
EE00
100
AcDbEntity
  8
1
  6
Continuous
100
AcDbLine
 10
463.945584
 20
209.8231109999999
 30
0.0
 11
461.9020639999998
 21
210.616561
 31
0.0
  0
LINE
  5
EF8C
330
EE00
100
AcDbEntity
  8
1
  6
Continuous
100
AcDbLine
 10
462.836854
 20
211.6890109999999
 30
0.0
 11
461.894864
 21
211.6890109999999
 31
0.0
  0
LINE
  5
EF8D
330
EE00
100
AcDbEntity
  8
1
  6
Continuous
100
AcDbLine
 10
463.996304
 20
213.0875609999999
 30
0.0
 11
461.894864
 21
213.0875609999999
 31
0.0
  0
ARC
  5
EF8E
330
EE00
100
AcDbEntity
  8
1
  6
Continuous
100
AcDbCircle
 10
462.942399
 20
214.150161
 30
0.0
 40
1.067529999999997
100
AcDbArc
 50
48.932
 51
131.0679999999997
  0
ARC
  5
EF8F
330
EE00
100
AcDbEntity
  8
1
  6
Continuous
100
AcDbCircle
 10
462.6986989999998
 20
214.3724109999999
 30
0.0
 40
0.72
100
AcDbArc
 50
179.5819999999999
 51
281.6541
  0
LINE
  5
EF90
330
EE00
100
AcDbEntity
  8
1
  6
Continuous
100
AcDbLine
 10
454.091694
 20
198.484326
 30
0.0
 11
468.658076
 21
198.484326
 31
0.0
  0
LINE
  5
EF91
330
EE00
100
AcDbEntity
  8
1
  6
Continuous
100
AcDbLine
 10
457.941091
 20
202.4843259999999
 30
0.0
 11
458.410892
 21
202.4843259999999
 31
0.0
  0
ARC
  5
EF92
330
EE00
100
AcDbEntity
  8
1
  6
Continuous
100
AcDbCircle
 10
458.410892
 20
201.844326
 30
0.0
 40
0.6400000000000004
100
AcDbArc
 50
222.7718659999999
 51
90.0
  0
LINE
  5
EF93
330
EE00
100
AcDbEntity
  8
1
  6
Continuous
100
AcDbLine
 10
457.941091
 20
202.4843259999999
 30
0.0
 11
457.941091
 21
200.484326
 31
0.0
  0
LINE
  5
EF94
330
EE00
100
AcDbEntity
  8
1
  6
Continuous
100
AcDbLine
 10
459.365806
 20
201.089526
 30
0.0
 11
460.4193059999998
 21
201.089526
 31
0.0
  0
LINE
  5
EF95
330
EE00
100
AcDbEntity
  8
1
  6
Continuous
100
AcDbLine
 10
459.9013059999998
 20
202.486081
 30
0.0
 11
460.6411559999998
 21
200.486076
 31
0.0
  0
LINE
  5
EF96
330
EE00
100
AcDbEntity
  8
1
  6
Continuous
100
AcDbLine
 10
459.9013059999998
 20
202.4825659999999
 30
0.0
 11
459.1260059999997
 21
200.486076
 31
0.0
  0
LINE
  5
EF97
330
EE00
100
AcDbEntity
  8
1
  6
Continuous
100
AcDbLine
 10
461.508143
 20
202.4843259999999
 30
0.0
 11
461.508143
 21
200.484326
 31
0.0
  0
LINE
  5
EF98
330
EE00
100
AcDbEntity
  8
1
  6
Continuous
100
AcDbLine
 10
460.7241379999998
 20
202.4843259999999
 30
0.0
 11
462.2991129999999
 21
202.4843259999999
 31
0.0
  0
LINE
  5
EF99
330
EE00
100
AcDbEntity
  8
1
  6
Continuous
100
AcDbLine
 10
459.7093389999998
 20
217.6123609999999
 30
0.0
 11
459.7093389999998
 21
216.9858109999999
 31
0.0
  0
LINE
  5
EF9A
330
EE00
100
AcDbEntity
  8
1
  6
Continuous
100
AcDbLine
 10
459.314539
 20
219.834611
 30
0.0
 11
459.314539
 21
218.7811109999999
 31
0.0
  0
LINE
  5
EF9B
330
EE00
100
AcDbEntity
  8
1
  6
Continuous
100
AcDbLine
 10
460.711094
 20
219.2991109999999
 30
0.0
 11
458.7110889999998
 21
218.559261
 31
0.0
  0
LINE
  5
EF9C
330
EE00
100
AcDbEntity
  8
1
  6
Continuous
100
AcDbLine
 10
462.5034939999999
 20
210.3774109999998
 30
0.0
 11
462.5034939999999
 21
209.286861
 31
0.0
  0
LINE
  5
EF9D
330
EE00
100
AcDbEntity
  8
1
  6
Continuous
100
AcDbLine
 10
462.5460689999998
 20
213.667261
 30
0.0
 11
461.9093389999998
 21
213.667261
 31
0.0
  0
ARC
  5
EF9E
330
EE00
100
AcDbEntity
  8
1
  6
Continuous
100
AcDbCircle
 10
462.541884
 20
219.3430609999999
 30
0.0
 40
0.513145
100
AcDbArc
 50
199.193
 51
264.341
  0
ARC
  5
EF9F
330
EE00
100
AcDbEntity
  8
1
  6
Continuous
100
AcDbCircle
 10
462.7441339999998
 20
214.3776609999999
 30
0.0
 40
0.76574
100
AcDbArc
 50
131.0679999999997
 51
186.5909999999999
  0
ARC
  5
EFA0
330
EE00
100
AcDbEntity
  8
1
  6
Continuous
100
AcDbCircle
 10
459.2593389999996
 20
215.369081
 30
0.0
 40
0.5225300000000001
100
AcDbArc
 50
103.0139999999999
 51
137.1299999999999
  0
ARC
  5
EFA1
330
EE00
100
AcDbEntity
  8
1
  6
Continuous
100
AcDbCircle
 10
459.2593389999996
 20
215.229141
 30
0.0
 40
0.5225300000000001
100
AcDbArc
 50
222.8699999999999
 51
317.1304
  0
ARC
  5
EFA2
330
EE00
100
AcDbEntity
  8
1
  6
Continuous
100
AcDbCircle
 10
459.183962
 20
215.2991109999999
 30
0.0
 40
0.6253750000000001
100
AcDbArc
 50
317.1304
 51
327.1503
  0
ARC
  5
EFA3
330
EE00
100
AcDbEntity
  8
1
  6
Continuous
100
AcDbCircle
 10
459.3347139999996
 20
215.2991109999999
 30
0.0
 40
0.6253750000000001
100
AcDbArc
 50
137.1299999999999
 51
222.8699999999999
  0
ARC
  5
EFA4
330
EE00
100
AcDbEntity
  8
1
  6
Continuous
100
AcDbCircle
 10
460.1593389999998
 20
215.369081
 30
0.0
 40
0.5225300000000001
100
AcDbArc
 50
42.86999999999999
 51
108.2079999999999
  0
ARC
  5
EFA5
330
EE00
100
AcDbEntity
  8
1
  6
Continuous
100
AcDbCircle
 10
460.1593389999998
 20
215.229141
 30
0.0
 40
0.5225300000000001
100
AcDbArc
 50
222.8699999999999
 51
317.1304
  0
ARC
  5
EFA6
330
EE00
100
AcDbEntity
  8
1
  6
Continuous
100
AcDbCircle
 10
460.083964
 20
215.2991109999999
 30
0.0
 40
0.6253750000000001
100
AcDbArc
 50
317.1304
 51
42.86999999999999
  0
ARC
  5
EFA7
330
EE00
100
AcDbEntity
  8
1
  6
Continuous
100
AcDbCircle
 10
460.2347139999998
 20
215.2991109999999
 30
0.0
 40
0.6253750000000001
100
AcDbArc
 50
212.8499999999999
 51
222.8699999999999
  0
LINE
  5
EFA8
330
EE00
100
AcDbEntity
  8
1
  6
Continuous
100
AcDbLine
 10
459.7093389999998
 20
215.252591
 30
0.0
 11
459.7093389999998
 21
214.959881
 31
0.0
  0
LINE
  5
EFA9
330
EE00
100
AcDbEntity
  8
1
  6
Continuous
100
AcDbLine
 10
459.7093389999998
 20
213.4036189999999
 30
0.0
 11
459.7093389999998
 21
213.1109089999999
 31
0.0
  0
ARC
  5
EFAA
330
EE00
100
AcDbEntity
  8
1
  6
Continuous
100
AcDbCircle
 10
460.2347139999998
 20
213.450139
 30
0.0
 40
0.6253750000000001
100
AcDbArc
 50
212.8499999999999
 51
222.8699999999999
  0
ARC
  5
EFAB
330
EE00
100
AcDbEntity
  8
1
  6
Continuous
100
AcDbCircle
 10
460.083964
 20
213.450139
 30
0.0
 40
0.6253750000000001
100
AcDbArc
 50
317.1304
 51
42.86999999999999
  0
ARC
  5
EFAC
330
EE00
100
AcDbEntity
  8
1
  6
Continuous
100
AcDbCircle
 10
460.1593389999998
 20
213.3801689999998
 30
0.0
 40
0.5225300000000001
100
AcDbArc
 50
222.8699999999999
 51
317.1304
  0
ARC
  5
EFAD
330
EE00
100
AcDbEntity
  8
1
  6
Continuous
100
AcDbCircle
 10
460.1593389999998
 20
213.5201089999999
 30
0.0
 40
0.5225300000000001
100
AcDbArc
 50
42.86999999999999
 51
108.2079999999999
  0
ARC
  5
EFAE
330
EE00
100
AcDbEntity
  8
1
  6
Continuous
100
AcDbCircle
 10
459.3347139999996
 20
213.450139
 30
0.0
 40
0.6253750000000001
100
AcDbArc
 50
137.1299999999999
 51
222.8699999999999
  0
ARC
  5
EFAF
330
EE00
100
AcDbEntity
  8
1
  6
Continuous
100
AcDbCircle
 10
459.183962
 20
213.450139
 30
0.0
 40
0.6253750000000001
100
AcDbArc
 50
317.1304
 51
327.1503
  0
ARC
  5
EFB0
330
EE00
100
AcDbEntity
  8
1
  6
Continuous
100
AcDbCircle
 10
459.2593389999996
 20
213.3801689999998
 30
0.0
 40
0.5225300000000001
100
AcDbArc
 50
222.8699999999999
 51
317.1304
  0
ARC
  5
EFB1
330
EE00
100
AcDbEntity
  8
1
  6
Continuous
100
AcDbCircle
 10
459.2593389999996
 20
213.5201089999999
 30
0.0
 40
0.5225300000000001
100
AcDbArc
 50
103.0139999999999
 51
137.1299999999999
  0
ARC
  5
EFB2
330
EE00
100
AcDbEntity
  8
1
  6
Continuous
100
AcDbCircle
 10
459.3214389999998
 20
211.584114
 30
0.0
 40
0.62634
100
AcDbArc
 50
225.9269999999999
 51
270.0
  0
ARC
  5
EFB3
330
EE00
100
AcDbEntity
  8
1
  6
Continuous
100
AcDbCircle
 10
460.0972389999998
 20
211.584114
 30
0.0
 40
0.62634
100
AcDbArc
 50
270.0
 51
314.0724999999998
  0
LINE
  5
EFB4
330
EE00
100
AcDbEntity
  8
1
  6
Continuous
100
AcDbLine
 10
460.0972389999998
 20
210.957764
 30
0.0
 11
459.3214389999998
 21
210.957764
 31
0.0
  0
ARC
  5
EFB5
330
EE00
100
AcDbEntity
  8
1
  6
Continuous
100
AcDbCircle
 10
459.288679
 20
211.550264
 30
0.0
 40
0.57924
100
AcDbArc
 50
134.072
 51
225.9269999999999
  0
ARC
  5
EFB6
330
EE00
100
AcDbEntity
  8
1
  6
Continuous
100
AcDbCircle
 10
459.3214389999998
 20
211.516414
 30
0.0
 40
0.62634
100
AcDbArc
 50
90.0
 51
134.072
  0
ARC
  5
EFB7
330
EE00
100
AcDbEntity
  8
1
  6
Continuous
100
AcDbCircle
 10
460.129999
 20
211.550264
 30
0.0
 40
0.57924
100
AcDbArc
 50
314.0724999999998
 51
45.92799999999999
  0
ARC
  5
EFB8
330
EE00
100
AcDbEntity
  8
1
  6
Continuous
100
AcDbCircle
 10
460.0972389999998
 20
211.516414
 30
0.0
 40
0.62634
100
AcDbArc
 50
45.92799999999999
 51
90.0
  0
LINE
  5
EFB9
330
EE00
100
AcDbEntity
  8
1
  6
Continuous
100
AcDbLine
 10
460.0972389999998
 20
212.1427639999998
 30
0.0
 11
459.3214389999998
 21
212.1427639999998
 31
0.0
  0
LINE
  5
EFBA
330
EE00
100
AcDbEntity
  8
1
  6
Continuous
100
AcDbLine
 10
459.7093389999998
 20
209.745062
 30
0.0
 11
459.7093389999998
 21
209.118512
 31
0.0
  0
ARC
  5
EFBB
330
EE00
100
AcDbEntity
  8
1
  6
Continuous
100
AcDbCircle
 10
460.1596429999998
 20
207.5310879999999
 30
0.0
 40
0.5225300000000001
100
AcDbArc
 50
42.86999999999999
 51
114.2769999999999
  0
ARC
  5
EFBC
330
EE00
100
AcDbEntity
  8
1
  6
Continuous
100
AcDbCircle
 10
460.1596429999998
 20
207.391148
 30
0.0
 40
0.5225300000000001
100
AcDbArc
 50
222.8699999999999
 51
317.1304
  0
ARC
  5
EFBD
330
EE00
100
AcDbEntity
  8
1
  6
Continuous
100
AcDbCircle
 10
460.0842679999998
 20
207.461118
 30
0.0
 40
0.6253750000000001
100
AcDbArc
 50
317.1304
 51
42.86999999999999
  0
LINE
  5
EFBE
330
EE00
100
AcDbEntity
  8
1
  6
Continuous
100
AcDbLine
 10
458.7096429999999
 20
208.0546929999999
 30
0.0
 11
458.7096429999999
 21
206.8675429999999
 31
0.0
  0
LINE
  5
EFBF
330
EE00
100
AcDbEntity
  8
1
  6
Continuous
100
AcDbLine
 10
458.7096429999999
 20
208.0546929999999
 30
0.0
 11
459.8027629999998
 21
207.0091779999999
 31
0.0
  0
CIRCLE
  5
EFC0
330
EE00
100
AcDbEntity
  8
1
  6
Continuous
100
AcDbCircle
 10
463.291008
 20
200.5243259999998
 30
0.0
 40
0.04
  0
LINE
  5
EFC1
330
EE00
100
AcDbEntity
  8
1
  6
Continuous
100
AcDbLine
 10
464.017944
 20
202.4843259999999
 30
0.0
 11
464.017944
 21
200.484326
 31
0.0
  0
LINE
  5
EFC2
330
EE00
100
AcDbEntity
  8
1
  6
Continuous
100
AcDbLine
 10
464.017944
 20
202.4843259999999
 30
0.0
 11
464.487745
 21
202.4843259999999
 31
0.0
  0
ARC
  5
EFC3
330
EE00
100
AcDbEntity
  8
1
  6
Continuous
100
AcDbCircle
 10
464.487745
 20
201.844326
 30
0.0
 40
0.6400000000000004
100
AcDbArc
 50
222.7718659999999
 51
90.0
  0
LINE
  5
EFC4
330
EE00
100
AcDbEntity
  8
1
  6
Continuous
100
AcDbLine
 10
462.945584
 20
218.0078109999997
 30
0.0
 11
462.945584
 21
216.710811
 31
0.0
  0
LINE
  5
EFC5
330
EE00
100
AcDbEntity
  8
1
  6
Continuous
100
AcDbLine
 10
462.8441439999998
 20
214.3701609999999
 30
0.0
 11
462.8441439999998
 21
213.667261
 31
0.0
  0
LINE
  5
EFC6
330
EE00
100
AcDbEntity
  8
1
  6
Continuous
100
AcDbLine
 10
462.8368489999998
 20
211.6890109999999
 30
0.0
 11
464.0121989999998
 21
211.0104109999999
 31
0.0
  0
LINE
  5
EFC7
330
EE00
100
AcDbEntity
  8
1
  6
Continuous
100
AcDbLine
 10
462.840459
 20
211.6890109999999
 30
0.0
 11
464.0109389999998
 21
212.362711
 31
0.0
  0
ARC
  5
EFC8
330
EE00
100
AcDbEntity
  8
1
  6
Continuous
100
AcDbCircle
 10
463.4155139999998
 20
219.3430609999999
 30
0.0
 40
0.513145
100
AcDbArc
 50
275.65924
 51
340.8072
  0
ARC
  5
EFC9
330
EE00
100
AcDbEntity
  8
1
  6
Continuous
100
AcDbCircle
 10
463.3792139999997
 20
214.294611
 30
0.0
 40
0.513145
100
AcDbArc
 50
275.65924
 51
340.8072
  0
ARC
  5
EFCA
330
EE00
100
AcDbEntity
  8
1
  6
Continuous
100
AcDbCircle
 10
463.140659
 20
214.3776609999999
 30
0.0
 40
0.76574
100
AcDbArc
 50
340.8072
 51
48.932
  0
ARC
  5
EFCB
330
EE00
100
AcDbEntity
  8
1
  6
Continuous
100
AcDbCircle
 10
273.8748849999999
 20
246.4843259999999
 30
0.0
 40
200.0
100
AcDbArc
 50
356.258952
 51
358.9954029999997
  0
ARC
  5
EFCC
330
EE00
100
AcDbEntity
  8
1
  6
Continuous
100
AcDbCircle
 10
648.8748849999998
 20
246.4843259999999
 30
0.0
 40
200.0
100
AcDbArc
 50
181.0045969999999
 51
183.741048
  0
ARC
  5
EFCD
330
EE00
100
AcDbEntity
  8
1
  6
Continuous
100
AcDbCircle
 10
462.874147
 20
226.7095509999998
 30
0.0
 40
1.145318999999998
100
AcDbArc
 50
242.2499999999998
 51
324.4619999999998
  0
LINE
  5
EFCE
330
EE00
100
AcDbEntity
  8
1
  6
Continuous
100
AcDbLine
 10
462.042303
 20
226.7059419999999
 30
0.0
 11
463.915305
 21
226.2034069999999
 31
0.0
  0
LINE
  5
EFCF
330
EE00
100
AcDbEntity
  8
1
  6
Continuous
100
AcDbLine
 10
463.909339
 20
223.5150959999999
 30
0.0
 11
461.9093389999998
 21
223.5150959999999
 31
0.0
  0
LINE
  5
EFD0
330
EE00
100
AcDbEntity
  8
1
  6
Continuous
100
AcDbLine
 10
464.334836
 20
227.8210819999999
 30
0.0
 11
461.5523989999998
 21
227.8210819999999
 31
0.0
  0
LINE
  5
EFD1
330
EE00
100
AcDbEntity
  8
1
  6
Continuous
100
AcDbLine
 10
461.619163
 20
228.264973
 30
0.0
 11
462.874147
 21
228.264973
 31
0.0
  0
LINE
  5
EFD2
330
EE00
100
AcDbEntity
  8
1
  6
Continuous
100
AcDbLine
 10
462.874147
 20
227.1543439999999
 30
0.0
 11
461.8077259999998
 21
227.1543439999999
 31
0.0
  0
LINE
  5
EFD3
330
EE00
100
AcDbEntity
  8
1
  6
Continuous
100
AcDbLine
 10
464.3366409999998
 20
228.709766
 30
0.0
 11
461.410751
 21
228.709766
 31
0.0
  0
LINE
  5
EFD4
330
EE00
100
AcDbEntity
  8
1
  6
Continuous
100
AcDbLine
 10
464.424156
 20
229.153656
 30
0.0
 11
461.323236
 21
229.153656
 31
0.0
  0
LINE
  5
EFD5
330
EE00
100
AcDbEntity
  8
1
  6
Continuous
100
AcDbLine
 10
464.424156
 20
229.5984489999999
 30
0.0
 11
461.323236
 21
229.5984489999999
 31
0.0
  0
LINE
  5
EFD6
330
EE00
100
AcDbEntity
  8
1
  6
Continuous
100
AcDbLine
 10
464.387165
 20
230.04234
 30
0.0
 11
461.3602269999996
 21
230.04234
 31
0.0
  0
LINE
  5
EFD7
330
EE00
100
AcDbEntity
  8
1
  6
Continuous
100
AcDbLine
 10
464.028082
 20
230.9319259999998
 30
0.0
 11
461.7193089999998
 21
230.9319259999998
 31
0.0
  0
ARC
  5
EFD8
330
EE00
100
AcDbEntity
  8
1
  6
Continuous
100
AcDbCircle
 10
462.874147
 20
232.0425549999999
 30
0.0
 40
1.145318999999998
100
AcDbArc
 50
90.0
 51
144.462
  0
LINE
  5
EFD9
330
EE00
100
AcDbEntity
  8
1
  6
Continuous
100
AcDbLine
 10
463.97034
 20
231.3758169999999
 30
0.0
 11
461.7779529999999
 21
231.3758169999999
 31
0.0
  0
LINE
  5
EFDA
330
EE00
100
AcDbEntity
  8
1
  6
Continuous
100
AcDbLine
 10
462.0540319999998
 20
231.8206099999999
 30
0.0
 11
463.6933599999998
 21
231.8206099999999
 31
0.0
  0
LINE
  5
EFDB
330
EE00
100
AcDbEntity
  8
1
  6
Continuous
100
AcDbLine
 10
464.093042
 20
232.2645009999999
 30
0.0
 11
462.1767329999998
 21
232.2645009999999
 31
0.0
  0
ARC
  5
EFDC
330
EE00
100
AcDbEntity
  8
1
  6
Continuous
100
AcDbCircle
 10
462.9680989999997
 20
221.7522659999999
 30
0.0
 40
1.067529999999997
100
AcDbArc
 50
228.932
 51
311.0679
  0
ARC
  5
EFDD
330
EE00
100
AcDbEntity
  8
1
  6
Continuous
100
AcDbCircle
 10
462.9680989999997
 20
221.2972109999999
 30
0.0
 40
1.067529999999997
100
AcDbArc
 50
48.932
 51
131.0679999999997
  0
ARC
  5
EFDE
330
EE00
100
AcDbEntity
  8
1
  6
Continuous
100
AcDbCircle
 10
466.606619
 20
229.376504
 30
0.0
 40
5.732929999999998
100
AcDbArc
 50
144.462
 51
215.5379999999999
  0
ARC
  5
EFDF
330
EE00
100
AcDbEntity
  8
1
  6
Continuous
100
AcDbCircle
 10
462.874147
 20
226.7095509999998
 30
0.0
 40
1.145318999999998
100
AcDbArc
 50
215.5379999999999
 51
225.699
  0
LINE
  5
EFE0
330
EE00
100
AcDbEntity
  8
1
  6
Continuous
100
AcDbLine
 10
460.7093389999998
 20
224.0831109999998
 30
0.0
 11
460.7093389999998
 21
222.5081359999999
 31
0.0
  0
LINE
  5
EFE1
330
EE00
100
AcDbEntity
  8
1
  6
Continuous
100
AcDbLine
 10
460.7093389999998
 20
223.2991059999999
 30
0.0
 11
458.7093389999998
 21
223.2991059999999
 31
0.0
  0
ARC
  5
EFE2
330
EE00
100
AcDbEntity
  8
1
  6
Continuous
100
AcDbCircle
 10
466.606619
 20
229.376504
 30
0.0
 40
5.288524999999999
100
AcDbArc
 50
187.793
 51
190.1039999999999
  0
ARC
  5
EFE3
330
EE00
100
AcDbEntity
  8
1
  6
Continuous
100
AcDbCircle
 10
461.410751
 20
228.6646549999999
 30
0.0
 40
0.044452
100
AcDbArc
 50
90.0
 51
187.793
  0
ARC
  5
EFE4
330
EE00
100
AcDbEntity
  8
1
  6
Continuous
100
AcDbCircle
 10
461.619163
 20
228.486918
 30
0.0
 40
0.222261
100
AcDbArc
 50
190.1039999999999
 51
270.0
  0
ARC
  5
EFE5
330
EE00
100
AcDbEntity
  8
1
  6
Continuous
100
AcDbCircle
 10
466.606619
 20
229.376504
 30
0.0
 40
5.288524999999999
100
AcDbArc
 50
153.986
 51
157.056
  0
ARC
  5
EFE6
330
EE00
100
AcDbEntity
  8
1
  6
Continuous
100
AcDbCircle
 10
461.7779529999999
 20
231.4200259999998
 30
0.0
 40
0.044452
100
AcDbArc
 50
157.056
 51
270.0
  0
LINE
  5
EFE7
330
EE00
100
AcDbEntity
  8
1
  6
Continuous
100
AcDbLine
 10
461.49195
 20
230.487133
 30
0.0
 11
462.340937
 21
230.487133
 31
0.0
  0
ARC
  5
EFE8
330
EE00
100
AcDbEntity
  8
1
  6
Continuous
100
AcDbCircle
 10
461.49195
 20
230.531342
 30
0.0
 40
0.044452
100
AcDbArc
 50
167.2709999999999
 51
270.0
  0
ARC
  5
EFE9
330
EE00
100
AcDbEntity
  8
1
  6
Continuous
100
AcDbCircle
 10
466.606619
 20
229.376504
 30
0.0
 40
5.288524999999999
100
AcDbArc
 50
164.794
 51
167.2709999999999
  0
ARC
  5
EFEA
330
EE00
100
AcDbEntity
  8
1
  6
Continuous
100
AcDbCircle
 10
466.606619
 20
229.376504
 30
0.0
 40
5.288524999999999
100
AcDbArc
 50
164.7419999999998
 51
164.794
  0
ARC
  5
EFEB
330
EE00
100
AcDbEntity
  8
1
  6
Continuous
100
AcDbCircle
 10
461.7193089999998
 20
230.709079
 30
0.0
 40
0.222261
100
AcDbArc
 50
90.0
 51
164.7419999999998
  0
ARC
  5
EFEC
330
EE00
100
AcDbEntity
  8
1
  6
Continuous
100
AcDbCircle
 10
462.0540319999998
 20
231.5977619999999
 30
0.0
 40
0.222261
100
AcDbArc
 50
90.0
 51
153.986
  0
LINE
  5
EFED
330
EE00
100
AcDbEntity
  8
1
  6
Continuous
100
AcDbLine
 10
459.7093389999998
 20
221.925591
 30
0.0
 11
459.7093389999998
 21
220.6726109999999
 31
0.0
  0
LINE
  5
EFEE
330
EE00
100
AcDbEntity
  8
1
  6
Continuous
100
AcDbLine
 10
460.7242939999999
 20
220.6726109999999
 30
0.0
 11
458.7242889999997
 21
220.6726109999999
 31
0.0
  0
LINE
  5
EFEF
330
EE00
100
AcDbEntity
  8
1
  6
Continuous
100
AcDbLine
 10
460.7242939999999
 20
221.925591
 30
0.0
 11
458.7242889999997
 21
221.925591
 31
0.0
  0
ARC
  5
EFF0
330
EE00
100
AcDbEntity
  8
1
  6
Continuous
100
AcDbCircle
 10
462.7698389999998
 20
221.5247359999999
 30
0.0
 40
0.76574
100
AcDbArc
 50
131.0679999999997
 51
228.932
  0
ARC
  5
EFF1
330
EE00
100
AcDbEntity
  8
1
  6
Continuous
100
AcDbCircle
 10
648.8748849999998
 20
246.4843259999999
 30
0.0
 40
197.5
100
AcDbArc
 50
181.405574
 51
183.741048
  0
ARC
  5
EFF2
330
EE00
100
AcDbEntity
  8
1
  6
Continuous
100
AcDbCircle
 10
459.140773
 20
229.376504
 30
0.0
 40
5.732929999999998
100
AcDbArc
 50
324.4619999999998
 51
35.5377
  0
ARC
  5
EFF3
330
EE00
100
AcDbEntity
  8
1
  6
Continuous
100
AcDbCircle
 10
463.0960919999998
 20
227.1543439999999
 30
0.0
 40
0.222261
100
AcDbArc
 50
90.0
 51
270.0
  0
LINE
  5
EFF4
330
EE00
100
AcDbEntity
  8
1
  6
Continuous
100
AcDbLine
 10
462.874147
 20
225.564637
 30
0.0
 11
462.874147
 21
226.4830939999999
 31
0.0
  0
LINE
  5
EFF5
330
EE00
100
AcDbEntity
  8
1
  6
Continuous
100
AcDbLine
 10
463.0960919999998
 20
226.9314959999999
 30
0.0
 11
464.045224
 21
226.9314959999999
 31
0.0
  0
LINE
  5
EFF6
330
EE00
100
AcDbEntity
  8
1
  6
Continuous
100
AcDbLine
 10
463.909339
 20
224.326716
 30
0.0
 11
463.909339
 21
222.6962959999999
 31
0.0
  0
LINE
  5
EFF7
330
EE00
100
AcDbEntity
  8
1
  6
Continuous
100
AcDbLine
 10
464.1255219999998
 20
227.3762889999999
 30
0.0
 11
463.0960919999998
 21
227.3762889999999
 31
0.0
  0
LINE
  5
EFF8
330
EE00
100
AcDbEntity
  8
1
  6
Continuous
100
AcDbLine
 10
463.4073569999998
 20
228.264973
 30
0.0
 11
464.1282279999998
 21
228.264973
 31
0.0
  0
ARC
  5
EFF9
330
EE00
100
AcDbEntity
  8
1
  6
Continuous
100
AcDbCircle
 10
464.3366409999998
 20
228.6646549999999
 30
0.0
 40
0.044452
100
AcDbArc
 50
352.2069999999998
 51
90.0
  0
ARC
  5
EFFA
330
EE00
100
AcDbEntity
  8
1
  6
Continuous
100
AcDbCircle
 10
459.140773
 20
229.376504
 30
0.0
 40
5.288524999999999
100
AcDbArc
 50
349.8959999999998
 51
352.2069999999998
  0
ARC
  5
EFFB
330
EE00
100
AcDbEntity
  8
1
  6
Continuous
100
AcDbCircle
 10
464.1282279999998
 20
228.486918
 30
0.0
 40
0.222261
100
AcDbArc
 50
270.0
 51
349.8959999999998
  0
LINE
  5
EFFC
330
EE00
100
AcDbEntity
  8
1
  6
Continuous
100
AcDbLine
 10
462.874147
 20
228.264973
 30
0.0
 11
462.874147
 21
228.486918
 31
0.0
  0
ARC
  5
EFFD
330
EE00
100
AcDbEntity
  8
1
  6
Continuous
100
AcDbCircle
 10
464.028082
 20
230.709079
 30
0.0
 40
0.222261
100
AcDbArc
 50
15.2575
 51
90.0
  0
ARC
  5
EFFE
330
EE00
100
AcDbEntity
  8
1
  6
Continuous
100
AcDbCircle
 10
459.140773
 20
229.376504
 30
0.0
 40
5.288524999999999
100
AcDbArc
 50
13.2681
 51
15.2575
  0
ARC
  5
EFFF
330
EE00
100
AcDbEntity
  8
1
  6
Continuous
100
AcDbCircle
 10
459.140773
 20
229.376504
 30
0.0
 40
5.288524999999999
100
AcDbArc
 50
12.7289
 51
13.2681
  0
ARC
  5
F000
330
EE00
100
AcDbEntity
  8
1
  6
Continuous
100
AcDbCircle
 10
464.255441
 20
230.531342
 30
0.0
 40
0.044452
100
AcDbArc
 50
270.0
 51
12.7289
  0
ARC
  5
F001
330
EE00
100
AcDbEntity
  8
1
  6
Continuous
100
AcDbCircle
 10
463.97034
 20
231.4200259999998
 30
0.0
 40
0.044452
100
AcDbArc
 50
270.0
 51
22.94399999999999
  0
ARC
  5
F002
330
EE00
100
AcDbEntity
  8
1
  6
Continuous
100
AcDbCircle
 10
459.140773
 20
229.376504
 30
0.0
 40
5.288524999999999
100
AcDbArc
 50
22.94399999999999
 51
26.0144
  0
ARC
  5
F003
330
EE00
100
AcDbEntity
  8
1
  6
Continuous
100
AcDbCircle
 10
463.6933599999998
 20
231.5977619999999
 30
0.0
 40
0.222261
100
AcDbArc
 50
26.0144
 51
90.0
  0
ARC
  5
F004
330
EE00
100
AcDbEntity
  8
1
  6
Continuous
100
AcDbCircle
 10
462.874147
 20
232.0425549999999
 30
0.0
 40
1.145318999999998
100
AcDbArc
 50
35.5377
 51
76.5374
  0
LINE
  5
F005
330
EE00
100
AcDbEntity
  8
1
  6
Continuous
100
AcDbLine
 10
462.874147
 20
229.5984489999999
 30
0.0
 11
462.874147
 21
230.04234
 31
0.0
  0
LINE
  5
F006
330
EE00
100
AcDbEntity
  8
1
  6
Continuous
100
AcDbLine
 10
463.4073569999998
 20
230.487133
 30
0.0
 11
464.255441
 21
230.487133
 31
0.0
  0
ARC
  5
F007
330
EE00
100
AcDbEntity
  8
1
  6
Continuous
100
AcDbCircle
 10
463.166359
 20
221.5247359999999
 30
0.0
 40
0.76574
100
AcDbArc
 50
311.0679
 51
48.932
  0
ARC
  5
F008
330
EE00
100
AcDbEntity
  8
1
  6
Continuous
100
AcDbCircle
 10
273.8748849999999
 20
246.4843259999999
 30
0.0
 40
197.5
100
AcDbArc
 50
356.258952
 51
358.594426
  0
LINE
  5
F009
330
EE00
100
AcDbEntity
  8
1
  6
Continuous
100
AcDbLine
 10
465.3748849999998
 20
321.175326
 30
0.0
 11
461.3748849999998
 21
318.8653259999999
 31
0.0
  0
LINE
  5
F00A
330
EE00
100
AcDbEntity
  8
1
  6
Continuous
100
AcDbLine
 10
463.3427379999998
 20
322.110443
 30
0.0
 11
462.5854809999998
 21
322.8946049999997
 31
0.0
  0
ARC
  5
F00B
330
EE00
100
AcDbEntity
  8
1
  6
Continuous
100
AcDbCircle
 10
461.3748849999998
 20
323.4843259999997
 30
0.0
 40
2.399999999999999
100
AcDbArc
 50
304.921342
 51
325.078658
  0
ARC
  5
F00C
330
EE00
100
AcDbEntity
  8
1
  6
Continuous
100
AcDbCircle
 10
461.3748849999998
 20
263.4843259999997
 30
0.0
 40
11.5
100
AcDbArc
 50
192.555858
 51
339.645594
  0
LINE
  5
F00D
330
EE00
100
AcDbEntity
  8
4
  6
CENTER
100
AcDbLine
 10
466.8709059999998
 20
247.4843259999999
 30
0.0
 11
456.3748849999998
 21
247.4843259999999
 31
0.0
  0
ARC
  5
F00E
330
EE00
100
AcDbEntity
  8
1
  6
Continuous
100
AcDbCircle
 10
461.3748849999998
 20
247.4843259999999
 30
0.0
 40
3.7
100
AcDbArc
 50
180.0
 51
0.0
  0
ARC
  5
F00F
330
EE00
100
AcDbEntity
  8
1
  6
Continuous
100
AcDbCircle
 10
461.3748849999998
 20
263.4843259999997
 30
0.0
 40
10.18799999999999
100
AcDbArc
 50
253.1384089999999
 51
286.8615909999999
  0
ARC
  5
F010
330
EE00
100
AcDbEntity
  8
2
  6
Continuous
100
AcDbCircle
 10
461.3748849999998
 20
263.4843259999997
 30
0.0
 40
11.0
100
AcDbArc
 50
242.419801
 51
297.5801989999999
  0
LINE
  5
F011
330
EE00
100
AcDbEntity
  8
1
  6
Continuous
100
AcDbLine
 10
466.4677719999998
 20
253.7343259999999
 30
0.0
 11
456.2819969999998
 21
253.7343259999999
 31
0.0
  0
ARC
  5
F012
330
EE00
100
AcDbEntity
  8
1
  6
Continuous
100
AcDbCircle
 10
461.3748849999998
 20
247.4843259999999
 30
0.0
 40
3.5
100
AcDbArc
 50
170.4059319999998
 51
9.594068
  0
ARC
  5
F013
330
EE00
100
AcDbEntity
  8
1
  6
Continuous
100
AcDbCircle
 10
461.3748849999998
 20
263.4843259999997
 30
0.0
 40
14.0
100
AcDbArc
 50
215.841252
 51
324.158748
  0
LINE
  5
F014
330
EE00
100
AcDbEntity
  8
1
  6
Continuous
100
AcDbLine
 10
476.3748849999998
 20
254.824072
 30
0.0
 11
461.3748849999998
 21
246.163818
 31
0.0
  0
LINE
  5
F015
330
EE00
100
AcDbEntity
  8
1
  6
Continuous
100
AcDbLine
 10
462.7487679999998
 20
321.516473
 30
0.0
 11
461.9646059999998
 21
322.2737299999999
 31
0.0
  0
LINE
  5
F016
330
EE00
100
AcDbEntity
  8
1
  6
Continuous
100
AcDbLine
 10
462.3708399999999
 20
323.4843259999997
 30
0.0
 11
462.5854809999998
 21
322.8946049999997
 31
0.0
  0
LINE
  5
F017
330
EE00
100
AcDbEntity
  8
1
  6
Continuous
100
AcDbLine
 10
461.3748849999998
 20
322.4883709999998
 30
0.0
 11
461.9646059999998
 21
322.2737299999999
 31
0.0
  0
LINE
  5
F018
330
EE00
100
AcDbEntity
  8
1
  6
Continuous
100
AcDbLine
 10
460.001002
 20
321.516473
 30
0.0
 11
460.7851639999998
 21
322.2737299999999
 31
0.0
  0
LINE
  5
F019
330
EE00
100
AcDbEntity
  8
1
  6
Continuous
100
AcDbLine
 10
460.3789299999998
 20
323.4843259999997
 30
0.0
 11
460.1642889999998
 21
322.8946049999997
 31
0.0
  0
LINE
  5
F01A
330
EE00
100
AcDbEntity
  8
1
  6
Continuous
100
AcDbLine
 10
459.407032
 20
322.110443
 30
0.0
 11
460.1642889999998
 21
322.8946049999997
 31
0.0
  0
ARC
  5
F01B
330
EE00
100
AcDbEntity
  8
1
  6
Continuous
100
AcDbCircle
 10
461.3748849999998
 20
323.4843259999997
 30
0.0
 40
2.399999999999999
100
AcDbArc
 50
214.921342
 51
235.0786579999998
  0
LINE
  5
F01C
330
EE00
100
AcDbEntity
  8
1
  6
Continuous
100
AcDbLine
 10
461.3748849999998
 20
322.4883709999998
 30
0.0
 11
460.7851639999998
 21
322.2737299999999
 31
0.0
  0
LINE
  5
F01D
330
EE00
100
AcDbEntity
  8
1
  6
Continuous
100
AcDbLine
 10
457.3748849999998
 20
321.1743259999999
 30
0.0
 11
461.3748849999998
 21
318.8653259999999
 31
0.0
  0
LINE
  5
F01E
330
EE00
100
AcDbEntity
  8
1
  6
Continuous
100
AcDbLine
 10
448.6175339999999
 20
260.9843259999997
 30
0.0
 11
450.354903
 21
260.9843259999997
 31
0.0
  0
ARC
  5
F01F
330
EE00
100
AcDbEntity
  8
1
  6
Continuous
100
AcDbCircle
 10
450.116555
 20
256.9843259999997
 30
0.0
 40
1.7
100
AcDbArc
 50
153.057137
 51
266.942863
  0
LINE
  5
F020
330
EE00
100
AcDbEntity
  8
1
  6
Continuous
100
AcDbLine
 10
457.6748849999996
 20
247.4843259999999
 30
0.0
 11
457.6748849999996
 21
248.300014
 31
0.0
  0
ARC
  5
F021
330
EE00
100
AcDbEntity
  8
1
  6
Continuous
100
AcDbCircle
 10
458.4168449999999
 20
247.9843259999999
 30
0.0
 40
0.5
100
AcDbArc
 50
161.254793
 51
170.4059319999998
  0
LINE
  5
F022
330
EE00
100
AcDbEntity
  8
1
  6
Continuous
100
AcDbLine
 10
457.8748849999998
 20
246.2843259999999
 30
0.0
 11
457.8748849999998
 21
248.1845439999999
 31
0.0
  0
ARC
  5
F023
330
EE00
100
AcDbEntity
  8
1
  6
Continuous
100
AcDbCircle
 10
461.3748849999998
 20
263.4843259999997
 30
0.0
 40
16.12829999999998
100
AcDbArc
 50
256.737637
 51
257.4665319999999
  0
LINE
  5
F024
330
EE00
100
AcDbEntity
  8
1
  6
Continuous
100
AcDbLine
 10
465.0748849999998
 20
247.4843259999999
 30
0.0
 11
465.0748849999998
 21
248.300014
 31
0.0
  0
ARC
  5
F025
330
EE00
100
AcDbEntity
  8
1
  6
Continuous
100
AcDbCircle
 10
464.3329249999998
 20
247.9843259999999
 30
0.0
 40
0.5
100
AcDbArc
 50
9.594068
 51
18.745207
  0
LINE
  5
F026
330
EE00
100
AcDbEntity
  8
1
  6
Continuous
100
AcDbLine
 10
464.8748849999998
 20
246.2843259999999
 30
0.0
 11
464.8748849999998
 21
248.1845439999999
 31
0.0
  0
ARC
  5
F027
330
EE00
100
AcDbEntity
  8
1
  6
Continuous
100
AcDbCircle
 10
461.3748849999998
 20
263.4843259999997
 30
0.0
 40
16.12829999999998
100
AcDbArc
 50
282.533468
 51
283.262363
  0
LINE
  5
F028
330
EE00
100
AcDbEntity
  8
1
  6
Continuous
100
AcDbLine
 10
471.943234
 20
259.4843259999997
 30
0.0
 11
473.7442019999998
 21
259.4843259999997
 31
0.0
  0
ARC
  5
F029
330
EE00
100
AcDbEntity
  8
1
  6
Continuous
100
AcDbCircle
 10
472.6332150000001
 20
256.9843259999997
 30
0.0
 40
1.7
100
AcDbArc
 50
273.057137
 51
26.942863
  0
LINE
  5
F02A
330
EE00
100
AcDbEntity
  8
1
  6
Continuous
100
AcDbLine
 10
461.3748849999998
 20
280.8048339999999
 30
0.0
 11
446.3748849999998
 21
272.1445799999999
 31
0.0
  0
LINE
  5
F02B
330
EE00
100
AcDbEntity
  8
1
  6
Continuous
100
AcDbLine
 10
461.3748849999998
 20
328.103326
 30
0.0
 11
465.3748849999998
 21
325.7933259999999
 31
0.0
  0
ARC
  5
F02C
330
EE00
100
AcDbEntity
  8
1
  6
Continuous
100
AcDbCircle
 10
461.3748849999998
 20
323.4843259999997
 30
0.0
 40
2.399999999999999
100
AcDbArc
 50
34.92134199999998
 51
55.078658
  0
LINE
  5
F02D
330
EE00
100
AcDbEntity
  8
1
  6
Continuous
100
AcDbLine
 10
463.3427379999998
 20
324.8582089999998
 30
0.0
 11
462.5854809999998
 21
324.0740469999999
 31
0.0
  0
ARC
  5
F02E
330
EE00
100
AcDbEntity
  8
1
  6
Continuous
100
AcDbCircle
 10
461.3748849999998
 20
263.4843259999997
 30
0.0
 40
11.5
100
AcDbArc
 50
20.354406
 51
167.4441419999999
  0
LINE
  5
F02F
330
EE00
100
AcDbEntity
  8
4
  6
CENTER
100
AcDbLine
 10
466.3748849999998
 20
279.4843259999999
 30
0.0
 11
455.912991
 21
279.4843259999999
 31
0.0
  0
ARC
  5
F030
330
EE00
100
AcDbEntity
  8
1
  6
Continuous
100
AcDbCircle
 10
461.3748849999998
 20
279.4843259999999
 30
0.0
 40
3.7
100
AcDbArc
 50
0.0
 51
180.0
  0
ARC
  5
F031
330
EE00
100
AcDbEntity
  8
1
  6
Continuous
100
AcDbCircle
 10
461.3748849999998
 20
263.4843259999997
 30
0.0
 40
10.18799999999999
100
AcDbArc
 50
73.13840899999998
 51
106.8615909999999
  0
ARC
  5
F032
330
EE00
100
AcDbEntity
  8
2
  6
Continuous
100
AcDbCircle
 10
461.3748849999998
 20
263.4843259999997
 30
0.0
 40
11.0
100
AcDbArc
 50
62.419801
 51
117.5801989999998
  0
LINE
  5
F033
330
EE00
100
AcDbEntity
  8
1
  6
Continuous
100
AcDbLine
 10
466.4677719999998
 20
273.2343259999999
 30
0.0
 11
456.2819969999998
 21
273.2343259999999
 31
0.0
  0
ARC
  5
F034
330
EE00
100
AcDbEntity
  8
1
  6
Continuous
100
AcDbCircle
 10
461.3748849999998
 20
279.4843259999999
 30
0.0
 40
3.5
100
AcDbArc
 50
350.405932
 51
189.5940679999999
  0
ARC
  5
F035
330
EE00
100
AcDbEntity
  8
1
  6
Continuous
100
AcDbCircle
 10
461.3748849999998
 20
263.4843259999997
 30
0.0
 40
14.0
100
AcDbArc
 50
35.84125199999999
 51
144.158748
  0
LINE
  5
F036
330
EE00
100
AcDbEntity
  8
1
  6
Continuous
100
AcDbLine
 10
461.3748849999998
 20
280.8048339999999
 30
0.0
 11
476.3748849999998
 21
272.1445799999999
 31
0.0
  0
ARC
  5
F037
330
EE00
100
AcDbEntity
  8
1
  6
Continuous
100
AcDbCircle
 10
461.3748849999998
 20
323.4843259999997
 30
0.0
 40
2.399999999999999
100
AcDbArc
 50
124.921342
 51
145.0786579999999
  0
LINE
  5
F038
330
EE00
100
AcDbEntity
  8
1
  6
Continuous
100
AcDbLine
 10
461.3748849999998
 20
328.103326
 30
0.0
 11
457.3748849999998
 21
325.7933259999999
 31
0.0
  0
LINE
  5
F039
330
EE00
100
AcDbEntity
  8
1
  6
Continuous
100
AcDbLine
 10
461.3748849999998
 20
324.4802809999999
 30
0.0
 11
461.9646059999998
 21
324.694922
 31
0.0
  0
LINE
  5
F03A
330
EE00
100
AcDbEntity
  8
1
  6
Continuous
100
AcDbLine
 10
461.3748849999998
 20
324.4802809999999
 30
0.0
 11
460.7851639999998
 21
324.694922
 31
0.0
  0
LINE
  5
F03B
330
EE00
100
AcDbEntity
  8
1
  6
Continuous
100
AcDbLine
 10
462.7487679999998
 20
325.452179
 30
0.0
 11
461.9646059999998
 21
324.694922
 31
0.0
  0
LINE
  5
F03C
330
EE00
100
AcDbEntity
  8
1
  6
Continuous
100
AcDbLine
 10
460.001002
 20
325.452179
 30
0.0
 11
460.7851639999998
 21
324.694922
 31
0.0
  0
LINE
  5
F03D
330
EE00
100
AcDbEntity
  8
1
  6
Continuous
100
AcDbLine
 10
459.407032
 20
324.8582089999998
 30
0.0
 11
460.1642889999998
 21
324.0740469999999
 31
0.0
  0
ARC
  5
F03E
330
EE00
100
AcDbEntity
  8
1
  6
Continuous
100
AcDbCircle
 10
450.116555
 20
269.9843259999997
 30
0.0
 40
1.7
100
AcDbArc
 50
93.057137
 51
206.9428629999999
  0
LINE
  5
F03F
330
EE00
100
AcDbEntity
  8
1
  6
Continuous
100
AcDbLine
 10
448.6175339999999
 20
265.9843259999997
 30
0.0
 11
450.354903
 21
265.9843259999997
 31
0.0
  0
LINE
  5
F040
330
EE00
100
AcDbEntity
  8
1
  6
Continuous
100
AcDbLine
 10
457.6748849999996
 20
279.4843259999999
 30
0.0
 11
457.6748849999996
 21
278.6686379999998
 31
0.0
  0
ARC
  5
F041
330
EE00
100
AcDbEntity
  8
1
  6
Continuous
100
AcDbCircle
 10
458.4168449999999
 20
278.9843259999999
 30
0.0
 40
0.5
100
AcDbArc
 50
189.5940679999999
 51
198.745207
  0
LINE
  5
F042
330
EE00
100
AcDbEntity
  8
1
  6
Continuous
100
AcDbLine
 10
457.8748849999998
 20
280.6843259999999
 30
0.0
 11
457.8748849999998
 21
278.784108
 31
0.0
  0
ARC
  5
F043
330
EE00
100
AcDbEntity
  8
1
  6
Continuous
100
AcDbCircle
 10
461.3748849999998
 20
263.4843259999997
 30
0.0
 40
16.12829999999998
100
AcDbArc
 50
102.533468
 51
103.262363
  0
LINE
  5
F044
330
EE00
100
AcDbEntity
  8
1
  6
Continuous
100
AcDbLine
 10
465.0748849999998
 20
279.4843259999999
 30
0.0
 11
465.0748849999998
 21
278.6686379999998
 31
0.0
  0
ARC
  5
F045
330
EE00
100
AcDbEntity
  8
1
  6
Continuous
100
AcDbCircle
 10
464.3329249999998
 20
278.9843259999999
 30
0.0
 40
0.5
100
AcDbArc
 50
341.254793
 51
350.405932
  0
LINE
  5
F046
330
EE00
100
AcDbEntity
  8
1
  6
Continuous
100
AcDbLine
 10
464.8748849999998
 20
280.6843259999999
 30
0.0
 11
464.8748849999998
 21
278.784108
 31
0.0
  0
ARC
  5
F047
330
EE00
100
AcDbEntity
  8
1
  6
Continuous
100
AcDbCircle
 10
461.3748849999998
 20
263.4843259999997
 30
0.0
 40
16.12829999999998
100
AcDbArc
 50
76.73763700000002
 51
77.466532
  0
ARC
  5
F048
330
EE00
100
AcDbEntity
  8
1
  6
Continuous
100
AcDbCircle
 10
472.6332150000001
 20
269.9843259999997
 30
0.0
 40
1.7
100
AcDbArc
 50
333.057137
 51
86.94286299999998
  0
LINE
  5
F049
330
EE00
100
AcDbEntity
  8
1
  6
Continuous
100
AcDbLine
 10
471.943234
 20
267.4843259999997
 30
0.0
 11
473.7442019999998
 21
267.4843259999997
 31
0.0
  0
LINE
  5
F04A
330
EE00
100
AcDbEntity
  8
1
  6
Continuous
100
AcDbLine
 10
205.687276
 20
367.000962
 30
0.0
 11
176.139382
 21
367.000962
 31
0.0
  0
LINE
  5
F04B
330
EE00
100
AcDbEntity
  8
1
  6
Continuous
100
AcDbLine
 10
205.687276
 20
392.000962
 30
0.0
 11
176.139382
 21
392.000962
 31
0.0
  0
LINE
  5
F04C
330
EE00
100
AcDbEntity
  8
4
  6
CENTER
100
AcDbLine
 10
245.054307
 20
379.500962
 30
0.0
 11
167.9077679999998
 21
379.500962
 31
0.0
  0
LINE
  5
F04D
330
EE00
100
AcDbEntity
  8
1
  6
Continuous
100
AcDbLine
 10
174.039026
 20
371.500962
 30
0.0
 11
173.534633
 21
371.500962
 31
0.0
  0
LINE
  5
F04E
330
EE00
100
AcDbEntity
  8
1
  6
Continuous
100
AcDbLine
 10
174.978643
 20
368.750962
 30
0.0
 11
174.4704889999999
 21
368.750962
 31
0.0
  0
LINE
  5
F04F
330
EE00
100
AcDbEntity
  8
1
  6
Continuous
100
AcDbLine
 10
174.039026
 20
387.500962
 30
0.0
 11
173.534633
 21
387.500962
 31
0.0
  0
LINE
  5
F050
330
EE00
100
AcDbEntity
  8
1
  6
Continuous
100
AcDbLine
 10
174.978643
 20
390.250962
 30
0.0
 11
174.4704889999999
 21
390.250962
 31
0.0
  0
LINE
  5
F051
330
EE00
100
AcDbEntity
  8
1
  6
Continuous
100
AcDbLine
 10
218.007768
 20
403.500962
 30
0.0
 11
218.007768
 21
355.500962
 31
0.0
  0
LINE
  5
F052
330
EE00
100
AcDbEntity
  8
1
  6
Continuous
100
AcDbLine
 10
217.007768
 20
403.500962
 30
0.0
 11
217.007768
 21
355.500962
 31
0.0
  0
LINE
  5
F053
330
EE00
100
AcDbEntity
  8
1
  6
Continuous
100
AcDbLine
 10
213.507768
 20
401.5009619999998
 30
0.0
 11
213.507768
 21
357.500962
 31
0.0
  0
LINE
  5
F054
330
EE00
100
AcDbEntity
  8
2
  6
Continuous
100
AcDbLine
 10
230.607768
 20
384.593862
 30
0.0
 11
218.007768
 21
374.4080619999999
 31
0.0
  0
LINE
  5
F055
330
EE00
100
AcDbEntity
  8
2
  6
Continuous
100
AcDbLine
 10
218.007768
 20
384.593862
 30
0.0
 11
230.607768
 21
374.4080619999999
 31
0.0
  0
LINE
  5
F056
330
EE00
100
AcDbEntity
  8
1
  6
Continuous
100
AcDbLine
 10
230.607768
 20
374.4080619999999
 30
0.0
 11
218.007768
 21
374.4080619999999
 31
0.0
  0
LINE
  5
F057
330
EE00
100
AcDbEntity
  8
1
  6
Continuous
100
AcDbLine
 10
230.607768
 20
384.593862
 30
0.0
 11
218.007768
 21
384.593862
 31
0.0
  0
LINE
  5
F058
330
EE00
100
AcDbEntity
  8
2
  6
Continuous
100
AcDbLine
 10
231.4197679999999
 20
369.3129620000001
 30
0.0
 11
219.907768
 21
369.3129620000001
 31
0.0
  0
LINE
  5
F059
330
EE00
100
AcDbEntity
  8
2
  6
Continuous
100
AcDbLine
 10
231.4197679999999
 20
389.6889619999998
 30
0.0
 11
219.907768
 21
389.6889619999998
 31
0.0
  0
LINE
  5
F05A
330
EE00
100
AcDbEntity
  8
1
  6
Continuous
100
AcDbLine
 10
230.607768
 20
368.500962
 30
0.0
 11
219.007768
 21
368.500962
 31
0.0
  0
LINE
  5
F05B
330
EE00
100
AcDbEntity
  8
1
  6
Continuous
100
AcDbLine
 10
230.607768
 20
390.500962
 30
0.0
 11
219.007768
 21
390.500962
 31
0.0
  0
LINE
  5
F05C
330
EE00
100
AcDbEntity
  8
1
  6
Continuous
100
AcDbLine
 10
205.507768
 20
367.000962
 30
0.0
 11
205.507768
 21
392.000962
 31
0.0
  0
LINE
  5
F05D
330
EE00
100
AcDbEntity
  8
1
  6
Continuous
100
AcDbLine
 10
219.907768
 20
374.4080619999999
 30
0.0
 11
219.907768
 21
368.500962
 31
0.0
  0
LINE
  5
F05E
330
EE00
100
AcDbEntity
  8
1
  6
Continuous
100
AcDbLine
 10
205.687276
 20
367.000962
 30
0.0
 11
205.687276
 21
392.000962
 31
0.0
  0
LINE
  5
F05F
330
EE00
100
AcDbEntity
  8
1
  6
Continuous
100
AcDbLine
 10
205.687276
 20
367.000962
 30
0.0
 11
213.507768
 21
363.500962
 31
0.0
  0
ARC
  5
F060
330
EE00
100
AcDbEntity
  8
1
  6
Continuous
100
AcDbCircle
 10
219.007768
 20
367.500962
 30
0.0
 40
1.0
100
AcDbArc
 50
90.0
 51
180.0
  0
LINE
  5
F061
330
EE00
100
AcDbEntity
  8
2
  6
Continuous
100
AcDbLine
 10
218.501342
 20
368.500962
 30
0.0
 11
219.907768
 21
369.3129620000001
 31
0.0
  0
ARC
  5
F062
330
EE00
100
AcDbEntity
  8
1
  6
Continuous
100
AcDbCircle
 10
215.507768
 20
357.500962
 30
0.0
 40
2.0
100
AcDbArc
 50
222.3553149999999
 51
270.0
  0
ARC
  5
F063
330
EE00
100
AcDbEntity
  8
1
  6
Continuous
100
AcDbCircle
 10
215.507768
 20
357.500962
 30
0.0
 40
2.0
100
AcDbArc
 50
180.0
 51
222.3553149999999
  0
LINE
  5
F064
330
EE00
100
AcDbEntity
  8
1
  6
Continuous
100
AcDbLine
 10
218.007768
 20
355.500962
 30
0.0
 11
217.007768
 21
355.500962
 31
0.0
  0
LINE
  5
F065
330
EE00
100
AcDbEntity
  8
1
  6
Continuous
100
AcDbLine
 10
215.507768
 20
355.500962
 30
0.0
 11
217.007768
 21
355.500962
 31
0.0
  0
LINE
  5
F066
330
EE00
100
AcDbEntity
  8
1
  6
Continuous
100
AcDbLine
 10
205.687276
 20
392.000962
 30
0.0
 11
213.507768
 21
395.500962
 31
0.0
  0
ARC
  5
F067
330
EE00
100
AcDbEntity
  8
1
  6
Continuous
100
AcDbCircle
 10
219.007768
 20
391.500962
 30
0.0
 40
1.0
100
AcDbArc
 50
180.0
 51
270.0
  0
LINE
  5
F068
330
EE00
100
AcDbEntity
  8
2
  6
Continuous
100
AcDbLine
 10
218.501342
 20
390.500962
 30
0.0
 11
219.907768
 21
389.6889619999998
 31
0.0
  0
LINE
  5
F069
330
EE00
100
AcDbEntity
  8
1
  6
Continuous
100
AcDbLine
 10
219.907768
 20
390.500962
 30
0.0
 11
219.907768
 21
384.593862
 31
0.0
  0
LINE
  5
F06A
330
EE00
100
AcDbEntity
  8
1
  6
Continuous
100
AcDbLine
 10
219.507768
 20
381.750962
 30
0.0
 11
218.007768
 21
381.750962
 31
0.0
  0
LINE
  5
F06B
330
EE00
100
AcDbEntity
  8
1
  6
Continuous
100
AcDbLine
 10
219.507768
 20
377.250962
 30
0.0
 11
218.007768
 21
377.250962
 31
0.0
  0
LINE
  5
F06C
330
EE00
100
AcDbEntity
  8
1
  6
Continuous
100
AcDbLine
 10
219.507768
 20
377.250962
 30
0.0
 11
219.507768
 21
381.750962
 31
0.0
  0
LINE
  5
F06D
330
EE00
100
AcDbEntity
  8
1
  6
Continuous
100
AcDbLine
 10
230.607768
 20
374.4080619999999
 30
0.0
 11
230.607768
 21
368.500962
 31
0.0
  0
ARC
  5
F06E
330
EE00
100
AcDbEntity
  8
1
  6
Continuous
100
AcDbCircle
 10
237.007768
 20
374.339083
 30
0.0
 40
0.3
100
AcDbArc
 50
270.0
 51
0.0
  0
LINE
  5
F06F
330
EE00
100
AcDbEntity
  8
1
  6
Continuous
100
AcDbLine
 10
232.307768
 20
372.700962
 30
0.0
 11
232.307768
 21
386.300962
 31
0.0
  0
LINE
  5
F070
330
EE00
100
AcDbEntity
  8
1
  6
Continuous
100
AcDbLine
 10
232.107768
 20
389.000962
 30
0.0
 11
232.107768
 21
370.000962
 31
0.0
  0
LINE
  5
F071
330
EE00
100
AcDbEntity
  8
1
  6
Continuous
100
AcDbLine
 10
230.607768
 20
368.500962
 30
0.0
 11
232.107768
 21
370.000962
 31
0.0
  0
ARC
  5
F072
330
EE00
100
AcDbEntity
  8
1
  6
Continuous
100
AcDbCircle
 10
232.107768
 20
372.700962
 30
0.0
 40
0.2
100
AcDbArc
 50
270.0
 51
0.0
  0
ARC
  5
F073
330
EE00
100
AcDbEntity
  8
1
  6
Continuous
100
AcDbCircle
 10
222.711891
 20
379.500962
 30
0.0
 40
9.395877
100
AcDbArc
 50
327.177679
 51
32.822321
  0
LINE
  5
F074
330
EE00
100
AcDbEntity
  8
1
  6
Continuous
100
AcDbLine
 10
230.607768
 20
390.500962
 30
0.0
 11
230.607768
 21
384.593862
 31
0.0
  0
LINE
  5
F075
330
EE00
100
AcDbEntity
  8
1
  6
Continuous
100
AcDbLine
 10
230.607768
 20
390.500962
 30
0.0
 11
232.107768
 21
389.000962
 31
0.0
  0
ARC
  5
F076
330
EE00
100
AcDbEntity
  8
1
  6
Continuous
100
AcDbCircle
 10
232.107768
 20
386.300962
 30
0.0
 40
0.2
100
AcDbArc
 50
0.0
 51
90.0
  0
LINE
  5
F077
330
EE00
100
AcDbEntity
  8
1
  6
Continuous
100
AcDbLine
 10
237.307768
 20
384.662842
 30
0.0
 11
237.307768
 21
374.339083
 31
0.0
  0
ARC
  5
F078
330
EE00
100
AcDbEntity
  8
1
  6
Continuous
100
AcDbCircle
 10
237.007768
 20
384.662842
 30
0.0
 40
0.3
100
AcDbArc
 50
0.0
 51
90.0
  0
LINE
  5
F079
330
EE00
100
AcDbEntity
  8
2
  6
Continuous
100
AcDbLine
 10
237.007768
 20
379.500962
 30
0.0
 11
232.307768
 21
384.9628419999999
 31
0.0
  0
LINE
  5
F07A
330
EE00
100
AcDbEntity
  8
2
  6
Continuous
100
AcDbLine
 10
237.007768
 20
384.9628419999999
 30
0.0
 11
232.307768
 21
379.500962
 31
0.0
  0
LINE
  5
F07B
330
EE00
100
AcDbEntity
  8
1
  6
Continuous
100
AcDbLine
 10
237.007768
 20
374.0390829999999
 30
0.0
 11
232.307768
 21
374.0390829999999
 31
0.0
  0
LINE
  5
F07C
330
EE00
100
AcDbEntity
  8
1
  6
Continuous
100
AcDbLine
 10
237.007768
 20
379.500962
 30
0.0
 11
232.307768
 21
379.500962
 31
0.0
  0
LINE
  5
F07D
330
EE00
100
AcDbEntity
  8
2
  6
Continuous
100
AcDbLine
 10
232.307768
 20
379.500962
 30
0.0
 11
237.007768
 21
374.0390829999999
 31
0.0
  0
LINE
  5
F07E
330
EE00
100
AcDbEntity
  8
2
  6
Continuous
100
AcDbLine
 10
232.307768
 20
374.0390829999999
 30
0.0
 11
237.007768
 21
379.500962
 31
0.0
  0
LINE
  5
F07F
330
EE00
100
AcDbEntity
  8
1
  6
Continuous
100
AcDbLine
 10
237.007768
 20
384.9628419999999
 30
0.0
 11
232.307768
 21
384.9628419999999
 31
0.0
  0
ARC
  5
F080
330
EE00
100
AcDbEntity
  8
1
  6
Continuous
100
AcDbCircle
 10
215.507768
 20
401.5009619999998
 30
0.0
 40
2.0
100
AcDbArc
 50
137.644685
 51
180.0
  0
ARC
  5
F081
330
EE00
100
AcDbEntity
  8
1
  6
Continuous
100
AcDbCircle
 10
215.507768
 20
401.5009619999998
 30
0.0
 40
2.0
100
AcDbArc
 50
90.0
 51
137.644685
  0
LINE
  5
F082
330
EE00
100
AcDbEntity
  8
1
  6
Continuous
100
AcDbLine
 10
218.007768
 20
403.500962
 30
0.0
 11
217.007768
 21
403.500962
 31
0.0
  0
LINE
  5
F083
330
EE00
100
AcDbEntity
  8
1
  6
Continuous
100
AcDbLine
 10
215.507768
 20
403.500962
 30
0.0
 11
217.007768
 21
403.500962
 31
0.0
  0
LINE
  5
F084
330
EE00
100
AcDbEntity
  8
4
  6
CENTER
100
AcDbLine
 10
327.5150779999999
 20
379.500962
 30
0.0
 11
312.876481
 21
379.500962
 31
0.0
  0
ARC
  5
F085
330
EE00
100
AcDbEntity
  8
1
  6
Continuous
100
AcDbCircle
 10
304.959339
 20
372.000962
 30
0.0
 40
32.055667
100
AcDbArc
 50
166.4692029999999
 51
193.530797
  0
ARC
  5
F086
330
EE00
100
AcDbEntity
  8
1
  6
Continuous
100
AcDbCircle
 10
244.848004
 20
372.000962
 30
0.0
 40
32.055667
100
AcDbArc
 50
346.469203
 51
13.530797
  0
LINE
  5
F087
330
EE00
100
AcDbEntity
  8
1
  6
Continuous
100
AcDbLine
 10
271.4036709999999
 20
393.500962
 30
0.0
 11
271.4036709999999
 21
365.500962
 31
0.0
  0
LINE
  5
F088
330
EE00
100
AcDbEntity
  8
1
  6
Continuous
100
AcDbLine
 10
272.9036709999999
 20
364.500962
 30
0.0
 11
272.9036709999999
 21
394.500962
 31
0.0
  0
LINE
  5
F089
330
EE00
100
AcDbEntity
  8
1
  6
Continuous
100
AcDbLine
 10
276.9036709999999
 20
364.500962
 30
0.0
 11
276.9036709999999
 21
394.500962
 31
0.0
  0
LINE
  5
F08A
330
EE00
100
AcDbEntity
  8
1
  6
Continuous
100
AcDbLine
 10
278.4036709999999
 20
365.500962
 30
0.0
 11
278.4036709999999
 21
393.500962
 31
0.0
  0
LINE
  5
F08B
330
EE00
100
AcDbEntity
  8
1
  6
Continuous
100
AcDbLine
 10
276.9036709999999
 20
364.500962
 30
0.0
 11
272.9036709999999
 21
364.500962
 31
0.0
  0
LINE
  5
F08C
330
EE00
100
AcDbEntity
  8
1
  6
Continuous
100
AcDbLine
 10
271.4036709999999
 20
365.500962
 30
0.0
 11
272.9036709999999
 21
365.500962
 31
0.0
  0
LINE
  5
F08D
330
EE00
100
AcDbEntity
  8
1
  6
Continuous
100
AcDbLine
 10
276.9036709999999
 20
365.500962
 30
0.0
 11
278.4036709999999
 21
365.500962
 31
0.0
  0
LINE
  5
F08E
330
EE00
100
AcDbEntity
  8
1
  6
Continuous
100
AcDbLine
 10
278.4036709999999
 20
368.151968
 30
0.0
 11
276.9036709999999
 21
368.151968
 31
0.0
  0
LINE
  5
F08F
330
EE00
100
AcDbEntity
  8
1
  6
Continuous
100
AcDbLine
 10
278.4036709999999
 20
366.5426319999999
 30
0.0
 11
276.9036709999999
 21
366.5426319999999
 31
0.0
  0
LINE
  5
F090
330
EE00
100
AcDbEntity
  8
4
  6
CENTER
100
AcDbLine
 10
266.9036709999999
 20
379.500962
 30
0.0
 11
281.4036709999999
 21
379.500962
 31
0.0
  0
LINE
  5
F091
330
EE00
100
AcDbEntity
  8
1
  6
Continuous
100
AcDbLine
 10
276.9036709999999
 20
394.500962
 30
0.0
 11
272.9036709999999
 21
394.500962
 31
0.0
  0
LINE
  5
F092
330
EE00
100
AcDbEntity
  8
1
  6
Continuous
100
AcDbLine
 10
271.4036709999999
 20
393.500962
 30
0.0
 11
272.9036709999999
 21
393.500962
 31
0.0
  0
LINE
  5
F093
330
EE00
100
AcDbEntity
  8
1
  6
Continuous
100
AcDbLine
 10
276.9036709999999
 20
393.500962
 30
0.0
 11
278.4036709999999
 21
393.500962
 31
0.0
  0
LINE
  5
F094
330
EE00
100
AcDbEntity
  8
1
  6
Continuous
100
AcDbLine
 10
278.4036709999999
 20
392.459292
 30
0.0
 11
276.9036709999999
 21
392.459292
 31
0.0
  0
LINE
  5
F095
330
EE00
100
AcDbEntity
  8
1
  6
Continuous
100
AcDbLine
 10
278.4036709999999
 20
390.8499569999997
 30
0.0
 11
276.9036709999999
 21
390.8499569999997
 31
0.0
  0
LINE
  5
F096
330
EE00
100
AcDbEntity
  8
1
  6
Continuous
100
AcDbLine
 10
273.793399
 20
379.500962
 30
0.0
 11
276.0139429999999
 21
379.500962
 31
0.0
  0
ARC
  5
F097
330
EE00
100
AcDbEntity
  8
1
  6
Continuous
100
AcDbCircle
 10
304.959339
 20
387.000962
 30
0.0
 40
32.055667
100
AcDbArc
 50
166.4692029999999
 51
193.530797
  0
ARC
  5
F098
330
EE00
100
AcDbEntity
  8
1
  6
Continuous
100
AcDbCircle
 10
244.848004
 20
387.000962
 30
0.0
 40
32.055667
100
AcDbArc
 50
346.469203
 51
13.530797
  0
LINE
  5
F099
330
EE00
100
AcDbEntity
  8
1
  6
Continuous
100
AcDbLine
 10
319.076481
 20
388.500962
 30
0.0
 11
319.076481
 21
370.500962
 31
0.0
  0
LINE
  5
F09A
330
EE00
100
AcDbEntity
  8
1
  6
Continuous
100
AcDbLine
 10
315.876481
 20
388.500962
 30
0.0
 11
315.876481
 21
370.500962
 31
0.0
  0
LINE
  5
F09B
330
EE00
100
AcDbEntity
  8
1
  6
Continuous
100
AcDbLine
 10
319.076481
 20
370.500962
 30
0.0
 11
315.876481
 21
370.500962
 31
0.0
  0
LINE
  5
F09C
330
EE00
100
AcDbEntity
  8
1
  6
Continuous
100
AcDbLine
 10
319.076481
 20
388.500962
 30
0.0
 11
315.876481
 21
388.500962
 31
0.0
  0
LINE
  5
F09D
330
EE00
100
AcDbEntity
  8
1
  6
Continuous
100
AcDbLine
 10
324.5150779999999
 20
388.500962
 30
0.0
 11
324.5150779999999
 21
370.500962
 31
0.0
  0
LINE
  5
F09E
330
EE00
100
AcDbEntity
  8
1
  6
Continuous
100
AcDbLine
 10
322.9150779999998
 20
388.500962
 30
0.0
 11
322.9150779999998
 21
370.500962
 31
0.0
  0
LINE
  5
F09F
330
EE00
100
AcDbEntity
  8
1
  6
Continuous
100
AcDbLine
 10
343.104555
 20
387.500962
 30
0.0
 11
343.104555
 21
371.500962
 31
0.0
  0
LINE
  5
F0A0
330
EE00
100
AcDbEntity
  8
1
  6
Continuous
100
AcDbLine
 10
341.9045549999997
 20
387.500962
 30
0.0
 11
341.9045549999997
 21
371.500962
 31
0.0
  0
LINE
  5
F0A1
330
EE00
100
AcDbEntity
  8
1
  6
Continuous
100
AcDbLine
 10
324.5150779999999
 20
370.500962
 30
0.0
 11
322.9150779999998
 21
370.500962
 31
0.0
  0
LINE
  5
F0A2
330
EE00
100
AcDbEntity
  8
1
  6
Continuous
100
AcDbLine
 10
343.104555
 20
371.500962
 30
0.0
 11
341.9045549999997
 21
371.500962
 31
0.0
  0
LINE
  5
F0A3
330
EE00
100
AcDbEntity
  8
1
  6
Continuous
100
AcDbLine
 10
324.5150779999999
 20
388.500962
 30
0.0
 11
322.9150779999998
 21
388.500962
 31
0.0
  0
LINE
  5
F0A4
330
EE00
100
AcDbEntity
  8
1
  6
Continuous
100
AcDbLine
 10
347.9045549999999
 20
383.500962
 30
0.0
 11
344.4045549999998
 21
383.500962
 31
0.0
  0
ARC
  5
F0A5
330
EE00
100
AcDbEntity
  8
1
  6
Continuous
100
AcDbCircle
 10
342.1295779999999
 20
377.500962
 30
0.0
 40
5.774976999999998
100
AcDbArc
 50
339.7375
 51
20.2625
  0
ARC
  5
F0A6
330
EE00
100
AcDbEntity
  8
1
  6
Continuous
100
AcDbCircle
 10
350.1795319999998
 20
377.500962
 30
0.0
 40
5.774976999999998
100
AcDbArc
 50
159.7375
 51
200.2625
  0
LINE
  5
F0A7
330
EE00
100
AcDbEntity
  8
1
  6
Continuous
100
AcDbLine
 10
347.9045549999999
 20
375.500962
 30
0.0
 11
344.4045549999998
 21
375.500962
 31
0.0
  0
LINE
  5
F0A8
330
EE00
100
AcDbEntity
  8
1
  6
Continuous
100
AcDbLine
 10
344.761935
 20
379.500962
 30
0.0
 11
347.547175
 21
379.500962
 31
0.0
  0
LINE
  5
F0A9
330
EE00
100
AcDbEntity
  8
1
  6
Continuous
100
AcDbLine
 10
347.9045549999999
 20
383.500962
 30
0.0
 11
347.9045549999999
 21
375.500962
 31
0.0
  0
ARC
  5
F0AA
330
EE00
100
AcDbEntity
  8
1
  6
Continuous
100
AcDbCircle
 10
350.1795319999998
 20
381.500962
 30
0.0
 40
5.774976999999998
100
AcDbArc
 50
159.7375
 51
200.2625
  0
ARC
  5
F0AB
330
EE00
100
AcDbEntity
  8
1
  6
Continuous
100
AcDbCircle
 10
342.1295779999999
 20
381.500962
 30
0.0
 40
5.774976999999998
100
AcDbArc
 50
339.7375
 51
20.2625
  0
LINE
  5
F0AC
330
EE00
100
AcDbEntity
  8
1
  6
Continuous
100
AcDbLine
 10
343.104555
 20
387.500962
 30
0.0
 11
341.9045549999997
 21
387.500962
 31
0.0
  0
LINE
  5
F0AD
330
EE00
100
AcDbEntity
  8
1
  6
Continuous
100
AcDbLine
 10
344.4045549999998
 20
374.9009619999998
 30
0.0
 11
344.4045549999998
 21
384.1009619999999
 31
0.0
  0
LINE
  5
F0AE
330
EE00
100
AcDbEntity
  8
1
  6
Continuous
100
AcDbLine
 10
344.4045549999998
 20
374.9009619999998
 30
0.0
 11
343.104555
 21
374.9009619999998
 31
0.0
  0
LINE
  5
F0AF
330
EE00
100
AcDbEntity
  8
1
  6
Continuous
100
AcDbLine
 10
344.4045549999998
 20
384.1009619999999
 30
0.0
 11
343.104555
 21
384.1009619999999
 31
0.0
  0
LINE
  5
F0B0
330
EE00
100
AcDbEntity
  8
1
  6
Continuous
100
AcDbLine
 10
344.4045549999998
 20
379.500962
 30
0.0
 11
343.104555
 21
378.200962
 31
0.0
  0
LINE
  5
F0B1
330
EE00
100
AcDbEntity
  8
1
  6
Continuous
100
AcDbLine
 10
344.4045549999998
 20
380.800962
 30
0.0
 11
343.104555
 21
379.500962
 31
0.0
  0
LINE
  5
F0B2
330
EE00
100
AcDbEntity
  8
4
  6
CENTER
100
AcDbLine
 10
350.9045549999997
 20
379.500962
 30
0.0
 11
338.9045549999999
 21
379.500962
 31
0.0
  0
ARC
  5
F0B3
330
EE00
100
AcDbEntity
  8
1
  6
Continuous
100
AcDbCircle
 10
234.007768
 20
379.500962
 30
0.0
 40
61.0
100
AcDbArc
 50
172.4640909999999
 51
187.535909
  0
ARC
  5
F0B4
330
EE00
100
AcDbEntity
  8
1
  6
Continuous
100
AcDbCircle
 10
234.007768
 20
72.553573
 30
0.0
 40
61.0
100
AcDbArc
 50
172.4640909999999
 51
187.535909
  0
ARC
  5
F0B5
330
EE00
100
AcDbEntity
  8
1
  6
Continuous
100
AcDbCircle
 10
234.007768
 20
72.553573
 30
0.0
 40
60.5
100
AcDbArc
 50
169.764998
 51
190.2350019999999
  0
LINE
  5
F0B6
330
EE00
100
AcDbEntity
  8
1
  6
Continuous
100
AcDbLine
 10
174.039026
 20
64.553573
 30
0.0
 11
173.534633
 21
64.553573
 31
0.0
  0
LINE
  5
F0B7
330
EE00
100
AcDbEntity
  8
1
  6
Continuous
100
AcDbLine
 10
174.978643
 20
61.803573
 30
0.0
 11
174.4704889999999
 21
61.803573
 31
0.0
  0
LINE
  5
F0B8
330
EE00
100
AcDbEntity
  8
1
  6
Continuous
100
AcDbLine
 10
174.039026
 20
80.553573
 30
0.0
 11
173.534633
 21
80.553573
 31
0.0
  0
LINE
  5
F0B9
330
EE00
100
AcDbEntity
  8
1
  6
Continuous
100
AcDbLine
 10
174.978643
 20
83.30357300000001
 30
0.0
 11
174.4704889999999
 21
83.30357300000001
 31
0.0
  0
ARC
  5
F0BA
330
EE00
100
AcDbEntity
  8
1
  6
Continuous
100
AcDbCircle
 10
234.007768
 20
72.553573
 30
0.0
 40
60.0
100
AcDbArc
 50
168.760227
 51
191.2397729999999
  0
ARC
  5
F0BB
330
EE00
100
AcDbEntity
  8
1
  6
Continuous
100
AcDbCircle
 10
240.007768
 20
72.553573
 30
0.0
 40
60.0
100
AcDbArc
 50
173.510252
 51
186.4897479999999
  0
ARC
  5
F0BC
330
EE00
100
AcDbEntity
  8
1
  6
Continuous
100
AcDbCircle
 10
181.3858339999999
 20
79.22207299999998
 30
0.0
 40
1.0
100
AcDbArc
 50
90.0
 51
173.510252
  0
ARC
  5
F0BD
330
EE00
100
AcDbEntity
  8
1
  6
Continuous
100
AcDbCircle
 10
181.3858339999999
 20
65.88507299999999
 30
0.0
 40
1.0
100
AcDbArc
 50
186.4897479999999
 51
270.0
  0
ARC
  5
F0BE
330
EE00
100
AcDbEntity
  8
1
  6
Continuous
100
AcDbCircle
 10
234.007768
 20
379.500962
 30
0.0
 40
60.5
100
AcDbArc
 50
169.764998
 51
190.2350019999999
  0
ARC
  5
F0BF
330
EE00
100
AcDbEntity
  8
1
  6
Continuous
100
AcDbCircle
 10
234.007768
 20
379.500962
 30
0.0
 40
60.0
100
AcDbArc
 50
168.760227
 51
169.678776
  0
ARC
  5
F0C0
330
EE00
100
AcDbEntity
  8
1
  6
Continuous
100
AcDbCircle
 10
176.139382
 20
391.000962
 30
0.0
 40
1.0
100
AcDbArc
 50
90.0
 51
168.760227
  0
ARC
  5
F0C1
330
EE00
100
AcDbEntity
  8
1
  6
Continuous
100
AcDbCircle
 10
176.139382
 20
368.000962
 30
0.0
 40
1.0
100
AcDbArc
 50
191.2397729999999
 51
270.0
  0
ARC
  5
F0C2
330
EE00
100
AcDbEntity
  8
1
  6
Continuous
100
AcDbCircle
 10
234.007768
 20
379.500962
 30
0.0
 40
60.0
100
AcDbArc
 50
190.321224
 51
191.2397729999999
  0
ARC
  5
F0C3
330
EE00
100
AcDbEntity
  8
1
  6
Continuous
100
AcDbCircle
 10
176.139382
 20
84.053573
 30
0.0
 40
1.0
100
AcDbArc
 50
90.0
 51
168.760227
  0
ARC
  5
F0C4
330
EE00
100
AcDbEntity
  8
1
  6
Continuous
100
AcDbCircle
 10
176.139382
 20
61.053573
 30
0.0
 40
1.0
100
AcDbArc
 50
191.2397729999999
 51
270.0
  0
LINE
  5
F0C5
330
EE00
100
AcDbEntity
  8
1
  6
Continuous
100
AcDbLine
 10
175.50492
 20
84.826527
 30
0.0
 11
180.7198849999998
 21
79.96807099999998
 31
0.0
  0
LINE
  5
F0C6
330
EE00
100
AcDbEntity
  8
1
  6
Continuous
100
AcDbLine
 10
180.7198849999998
 20
65.139076
 30
0.0
 11
175.50492
 21
60.28061999999999
 31
0.0
  0
LINE
  5
F0C7
330
EE00
100
AcDbEntity
  8
1
  6
Continuous
100
AcDbLine
 10
574.8452150000002
 20
267.484826
 30
0.0
 11
574.8452150000002
 21
259.484826
 31
0.0
  0
ARC
  5
F0C8
330
EE00
100
AcDbEntity
  8
1
  6
Continuous
100
AcDbCircle
 10
570.7041699999997
 20
263.4843259999997
 30
0.0
 40
7.641045
100
AcDbArc
 50
342.4072529999999
 51
17.59274699999998
  0
ARC
  5
F0C9
330
EE00
100
AcDbEntity
  8
1
  6
Continuous
100
AcDbCircle
 10
582.48626
 20
263.4843259999997
 30
0.0
 40
7.641045
100
AcDbArc
 50
162.407253
 51
197.592747
  0
LINE
  5
F0CA
330
EE00
100
AcDbEntity
  8
1
  6
Continuous
100
AcDbLine
 10
578.3452150000001
 20
262.1843259999999
 30
0.0
 11
579.645215
 21
263.4843259999997
 31
0.0
  0
LINE
  5
F0CB
330
EE00
100
AcDbEntity
  8
1
  6
Continuous
100
AcDbLine
 10
578.3452150000001
 20
258.865524
 30
0.0
 11
578.3452150000001
 21
268.1031279999999
 31
0.0
  0
LINE
  5
F0CC
330
EE00
100
AcDbEntity
  8
1
  6
Continuous
100
AcDbLine
 10
580.8452150000001
 20
271.4843259999997
 30
0.0
 11
580.8452150000001
 21
255.4843259999999
 31
0.0
  0
LINE
  5
F0CD
330
EE00
100
AcDbEntity
  8
1
  6
Continuous
100
AcDbLine
 10
579.645215
 20
271.4843259999997
 30
0.0
 11
579.645215
 21
255.4843259999999
 31
0.0
  0
LINE
  5
F0CE
330
EE00
100
AcDbEntity
  8
1
  6
Continuous
100
AcDbLine
 10
599.834692
 20
272.4843259999999
 30
0.0
 11
599.834692
 21
254.4843259999999
 31
0.0
  0
LINE
  5
F0CF
330
EE00
100
AcDbEntity
  8
1
  6
Continuous
100
AcDbLine
 10
598.234692
 20
272.4843259999999
 30
0.0
 11
598.234692
 21
254.4843259999999
 31
0.0
  0
LINE
  5
F0D0
330
EE00
100
AcDbEntity
  8
1
  6
Continuous
100
AcDbLine
 10
606.8732889999997
 20
272.4843259999999
 30
0.0
 11
606.8732889999997
 21
254.4843259999999
 31
0.0
  0
LINE
  5
F0D1
330
EE00
100
AcDbEntity
  8
1
  6
Continuous
100
AcDbLine
 10
603.6732889999998
 20
272.4843259999999
 30
0.0
 11
603.6732889999998
 21
254.4843259999999
 31
0.0
  0
LINE
  5
F0D2
330
EE00
100
AcDbEntity
  8
4
  6
CENTER
100
AcDbLine
 10
595.234692
 20
263.4843259999997
 30
0.0
 11
609.8732889999999
 21
263.4843259999997
 31
0.0
  0
LINE
  5
F0D3
330
EE00
100
AcDbEntity
  8
1
  6
Continuous
100
AcDbLine
 10
603.6732889999998
 20
254.4843259999999
 30
0.0
 11
606.8732889999997
 21
254.4843259999999
 31
0.0
  0
LINE
  5
F0D4
330
EE00
100
AcDbEntity
  8
1
  6
Continuous
100
AcDbLine
 10
598.234692
 20
254.4843259999999
 30
0.0
 11
599.834692
 21
254.4843259999999
 31
0.0
  0
LINE
  5
F0D5
330
EE00
100
AcDbEntity
  8
1
  6
Continuous
100
AcDbLine
 10
574.8452150000002
 20
259.484826
 30
0.0
 11
575.202595
 21
258.8658259999998
 31
0.0
  0
ARC
  5
F0D6
330
EE00
100
AcDbEntity
  8
1
  6
Continuous
100
AcDbCircle
 10
576.890301
 20
260.020826
 30
0.0
 40
2.045087
100
AcDbArc
 50
145.613799
 51
205.613799
  0
LINE
  5
F0D7
330
EE00
100
AcDbEntity
  8
1
  6
Continuous
100
AcDbLine
 10
579.645215
 20
255.4843259999999
 30
0.0
 11
580.8452150000001
 21
255.4843259999999
 31
0.0
  0
ARC
  5
F0D8
330
EE00
100
AcDbEntity
  8
1
  6
Continuous
100
AcDbCircle
 10
576.300128
 20
260.020826
 30
0.0
 40
2.045087
100
AcDbArc
 50
334.3862009999999
 51
34.386201
  0
LINE
  5
F0D9
330
EE00
100
AcDbEntity
  8
1
  6
Continuous
100
AcDbLine
 10
578.3452150000001
 20
259.484826
 30
0.0
 11
577.987835
 21
258.8658259999998
 31
0.0
  0
LINE
  5
F0DA
330
EE00
100
AcDbEntity
  8
1
  6
Continuous
100
AcDbLine
 10
578.3452150000001
 20
263.4843259999997
 30
0.0
 11
579.645215
 21
264.7843259999999
 31
0.0
  0
LINE
  5
F0DB
330
EE00
100
AcDbEntity
  8
1
  6
Continuous
100
AcDbLine
 10
578.3452150000001
 20
258.8843259999998
 30
0.0
 11
579.645215
 21
258.8843259999998
 31
0.0
  0
LINE
  5
F0DC
330
EE00
100
AcDbEntity
  8
4
  6
CENTER
100
AcDbLine
 10
571.8452150000001
 20
263.4843259999997
 30
0.0
 11
583.8452150000001
 21
263.4843259999997
 31
0.0
  0
LINE
  5
F0DD
330
EE00
100
AcDbEntity
  8
1
  6
Continuous
100
AcDbLine
 10
577.987835
 20
261.174826
 30
0.0
 11
575.202595
 21
261.174826
 31
0.0
  0
LINE
  5
F0DE
330
EE00
100
AcDbEntity
  8
1
  6
Continuous
100
AcDbLine
 10
577.987835
 20
258.8658259999998
 30
0.0
 11
575.202595
 21
258.8658259999998
 31
0.0
  0
LINE
  5
F0DF
330
EE00
100
AcDbEntity
  8
1
  6
Continuous
100
AcDbLine
 10
603.6732889999998
 20
272.4843259999999
 30
0.0
 11
606.8732889999997
 21
272.4843259999999
 31
0.0
  0
LINE
  5
F0E0
330
EE00
100
AcDbEntity
  8
1
  6
Continuous
100
AcDbLine
 10
598.234692
 20
272.4843259999999
 30
0.0
 11
599.834692
 21
272.4843259999999
 31
0.0
  0
LINE
  5
F0E1
330
EE00
100
AcDbEntity
  8
1
  6
Continuous
100
AcDbLine
 10
574.8452150000002
 20
267.484826
 30
0.0
 11
575.202595
 21
268.1038259999999
 31
0.0
  0
ARC
  5
F0E2
330
EE00
100
AcDbEntity
  8
1
  6
Continuous
100
AcDbCircle
 10
576.890301
 20
266.948826
 30
0.0
 40
2.045087
100
AcDbArc
 50
154.3862009999998
 51
214.3862009999998
  0
LINE
  5
F0E3
330
EE00
100
AcDbEntity
  8
1
  6
Continuous
100
AcDbLine
 10
579.645215
 20
271.4843259999997
 30
0.0
 11
580.8452150000001
 21
271.4843259999997
 31
0.0
  0
LINE
  5
F0E4
330
EE00
100
AcDbEntity
  8
1
  6
Continuous
100
AcDbLine
 10
578.3452150000001
 20
267.484826
 30
0.0
 11
577.987835
 21
268.1038259999999
 31
0.0
  0
ARC
  5
F0E5
330
EE00
100
AcDbEntity
  8
1
  6
Continuous
100
AcDbCircle
 10
576.300128
 20
266.948826
 30
0.0
 40
2.045087
100
AcDbArc
 50
325.6137989999999
 51
25.61379899999999
  0
LINE
  5
F0E6
330
EE00
100
AcDbEntity
  8
1
  6
Continuous
100
AcDbLine
 10
578.3452150000001
 20
268.0843259999999
 30
0.0
 11
579.645215
 21
268.0843259999999
 31
0.0
  0
LINE
  5
F0E7
330
EE00
100
AcDbEntity
  8
1
  6
Continuous
100
AcDbLine
 10
577.987835
 20
268.1038259999999
 30
0.0
 11
575.202595
 21
268.1038259999999
 31
0.0
  0
LINE
  5
F0E8
330
EE00
100
AcDbEntity
  8
1
  6
Continuous
100
AcDbLine
 10
577.987835
 20
265.7938259999998
 30
0.0
 11
575.202595
 21
265.7938259999998
 31
0.0
  0
LINE
  5
F0E9
330
EE00
100
AcDbEntity
  8
1
  6
Continuous
100
AcDbLine
 10
173.0077679999999
 20
254.9843259999999
 30
0.0
 11
173.507768
 21
254.4843259999999
 31
0.0
  0
LINE
  5
F0EA
330
EE00
100
AcDbEntity
  8
1
  6
Continuous
100
AcDbLine
 10
173.507768
 20
279.4843259999999
 30
0.0
 11
173.507768
 21
246.4843259999999
 31
0.0
  0
LINE
  5
F0EB
330
EE00
100
AcDbEntity
  8
1
  6
Continuous
100
AcDbLine
 10
174.4704899999999
 20
277.942134
 30
0.0
 11
174.4704899999999
 21
246.4843259999999
 31
0.0
  0
LINE
  5
F0EC
330
EE00
100
AcDbEntity
  8
1
  6
Continuous
100
AcDbLine
 10
174.978644
 20
277.942134
 30
0.0
 11
174.978644
 21
246.4843259999999
 31
0.0
  0
LINE
  5
F0ED
330
EE00
100
AcDbEntity
  8
1
  6
Continuous
100
AcDbLine
 10
173.0077679999999
 20
249.984326
 30
0.0
 11
173.507768
 21
249.4843259999999
 31
0.0
  0
LINE
  5
F0EE
330
EE00
100
AcDbEntity
  8
1
  6
Continuous
100
AcDbLine
 10
174.978644
 20
246.4843259999999
 30
0.0
 11
173.507768
 21
246.4843259999999
 31
0.0
  0
LINE
  5
F0EF
330
EE00
100
AcDbEntity
  8
1
  6
Continuous
100
AcDbLine
 10
173.507768
 20
254.4843259999999
 30
0.0
 11
173.0077679999999
 21
253.984326
 31
0.0
  0
LINE
  5
F0F0
330
EE00
100
AcDbEntity
  8
1
  6
Continuous
100
AcDbLine
 10
173.0077679999999
 20
253.984326
 30
0.0
 11
173.507768
 21
253.4843259999999
 31
0.0
  0
LINE
  5
F0F1
330
EE00
100
AcDbEntity
  8
1
  6
Continuous
100
AcDbLine
 10
173.507768
 20
253.4843259999999
 30
0.0
 11
173.0077679999999
 21
252.9843259999999
 31
0.0
  0
LINE
  5
F0F2
330
EE00
100
AcDbEntity
  8
1
  6
Continuous
100
AcDbLine
 10
173.0077679999999
 20
252.9843259999999
 30
0.0
 11
173.507768
 21
252.4843259999999
 31
0.0
  0
LINE
  5
F0F3
330
EE00
100
AcDbEntity
  8
1
  6
Continuous
100
AcDbLine
 10
173.507768
 20
252.4843259999999
 30
0.0
 11
173.0077679999999
 21
251.984326
 31
0.0
  0
LINE
  5
F0F4
330
EE00
100
AcDbEntity
  8
1
  6
Continuous
100
AcDbLine
 10
173.0077679999999
 20
251.984326
 30
0.0
 11
173.507768
 21
251.4843259999999
 31
0.0
  0
LINE
  5
F0F5
330
EE00
100
AcDbEntity
  8
1
  6
Continuous
100
AcDbLine
 10
173.507768
 20
251.4843259999999
 30
0.0
 11
173.0077679999999
 21
250.9843259999999
 31
0.0
  0
LINE
  5
F0F6
330
EE00
100
AcDbEntity
  8
1
  6
Continuous
100
AcDbLine
 10
173.0077679999999
 20
250.9843259999999
 30
0.0
 11
173.507768
 21
250.4843259999999
 31
0.0
  0
LINE
  5
F0F7
330
EE00
100
AcDbEntity
  8
1
  6
Continuous
100
AcDbLine
 10
173.507768
 20
250.4843259999999
 30
0.0
 11
173.0077679999999
 21
249.984326
 31
0.0
  0
ARC
  5
F0F8
330
EE00
100
AcDbEntity
  8
1
  6
Continuous
100
AcDbCircle
 10
176.324295
 20
275.6334989999999
 30
0.0
 40
1.0
100
AcDbArc
 50
90.0
 51
180.0
  0
LINE
  5
F0F9
330
EE00
100
AcDbEntity
  8
1
  6
Continuous
100
AcDbLine
 10
173.507768
 20
260.4843259999999
 30
0.0
 11
173.0077679999999
 21
259.9843259999999
 31
0.0
  0
LINE
  5
F0FA
330
EE00
100
AcDbEntity
  8
1
  6
Continuous
100
AcDbLine
 10
173.0077679999999
 20
259.9843259999999
 30
0.0
 11
173.507768
 21
259.4843259999997
 31
0.0
  0
LINE
  5
F0FB
330
EE00
100
AcDbEntity
  8
1
  6
Continuous
100
AcDbLine
 10
173.507768
 20
259.4843259999997
 30
0.0
 11
173.0077679999999
 21
258.9843259999997
 31
0.0
  0
LINE
  5
F0FC
330
EE00
100
AcDbEntity
  8
1
  6
Continuous
100
AcDbLine
 10
173.0077679999999
 20
258.9843259999997
 30
0.0
 11
173.507768
 21
258.4843259999999
 31
0.0
  0
LINE
  5
F0FD
330
EE00
100
AcDbEntity
  8
1
  6
Continuous
100
AcDbLine
 10
173.507768
 20
258.4843259999999
 30
0.0
 11
173.0077679999999
 21
257.9843259999999
 31
0.0
  0
LINE
  5
F0FE
330
EE00
100
AcDbEntity
  8
1
  6
Continuous
100
AcDbLine
 10
173.0077679999999
 20
257.9843259999999
 30
0.0
 11
173.507768
 21
257.4843259999997
 31
0.0
  0
LINE
  5
F0FF
330
EE00
100
AcDbEntity
  8
1
  6
Continuous
100
AcDbLine
 10
173.507768
 20
257.4843259999997
 30
0.0
 11
173.0077679999999
 21
256.9843259999997
 31
0.0
  0
LINE
  5
F100
330
EE00
100
AcDbEntity
  8
1
  6
Continuous
100
AcDbLine
 10
173.0077679999999
 20
256.9843259999997
 30
0.0
 11
173.507768
 21
256.4843259999999
 31
0.0
  0
LINE
  5
F101
330
EE00
100
AcDbEntity
  8
1
  6
Continuous
100
AcDbLine
 10
173.507768
 20
256.4843259999999
 30
0.0
 11
173.0077679999999
 21
255.984326
 31
0.0
  0
LINE
  5
F102
330
EE00
100
AcDbEntity
  8
1
  6
Continuous
100
AcDbLine
 10
173.0077679999999
 20
255.984326
 30
0.0
 11
173.507768
 21
255.4843259999999
 31
0.0
  0
LINE
  5
F103
330
EE00
100
AcDbEntity
  8
1
  6
Continuous
100
AcDbLine
 10
173.507768
 20
255.4843259999999
 30
0.0
 11
173.0077679999999
 21
254.9843259999999
 31
0.0
  0
LINE
  5
F104
330
EE00
100
AcDbEntity
  8
1
  6
Continuous
100
AcDbLine
 10
173.507768
 20
261.4843259999997
 30
0.0
 11
173.0077679999999
 21
260.9843259999997
 31
0.0
  0
LINE
  5
F105
330
EE00
100
AcDbEntity
  8
1
  6
Continuous
100
AcDbLine
 10
173.0077679999999
 20
260.9843259999997
 30
0.0
 11
173.507768
 21
260.4843259999999
 31
0.0
  0
LINE
  5
F106
330
EE00
100
AcDbEntity
  8
1
  6
Continuous
100
AcDbLine
 10
174.507768
 20
280.4843259999996
 30
0.0
 11
185.2430359999999
 21
280.4843259999996
 31
0.0
  0
LINE
  5
F107
330
EE00
100
AcDbEntity
  8
1
  6
Continuous
100
AcDbLine
 10
174.4704899999999
 20
277.942134
 30
0.0
 11
173.976268
 21
279.6529599999999
 31
0.0
  0
LINE
  5
F108
330
EE00
100
AcDbEntity
  8
1
  6
Continuous
100
AcDbLine
 10
174.978644
 20
277.942134
 30
0.0
 11
175.467096
 21
276.8119459999999
 31
0.0
  0
LINE
  5
F109
330
EE00
100
AcDbEntity
  8
1
  6
Continuous
100
AcDbLine
 10
174.4704899999999
 20
277.942134
 30
0.0
 11
174.978644
 21
277.942134
 31
0.0
  0
ARC
  5
F10A
330
EE00
100
AcDbEntity
  8
1
  6
Continuous
100
AcDbCircle
 10
174.507768
 20
279.4843259999999
 30
0.0
 40
1.0
100
AcDbArc
 50
90.0
 51
180.0
  0
LINE
  5
F10B
330
EE00
100
AcDbEntity
  8
1
  6
Continuous
100
AcDbLine
 10
176.324295
 20
276.6334989999999
 30
0.0
 11
185.2430359999999
 21
276.6334989999999
 31
0.0
  0
ARC
  5
F10C
330
EE00
100
AcDbEntity
  8
1
  6
Continuous
100
AcDbCircle
 10
185.2430359999999
 20
270.4843259999999
 30
0.0
 40
6.149172
100
AcDbArc
 50
81.25383799999999
 51
90.0
  0
ARC
  5
F10D
330
EE00
100
AcDbEntity
  8
1
  6
Continuous
100
AcDbCircle
 10
185.2430359999999
 20
270.4843259999999
 30
0.0
 40
10.0
100
AcDbArc
 50
81.25383799999999
 51
90.0
  0
LINE
  5
F10E
330
EE00
100
AcDbEntity
  8
1
  6
Continuous
100
AcDbLine
 10
742.8892179999997
 20
165.3248659999999
 30
0.0
 11
748.1053000000001
 21
230.538297
 31
0.0
  0
ARC
  5
F10F
330
EE00
100
AcDbEntity
  8
1
  6
Continuous
100
AcDbCircle
 10
736.7420029999997
 20
172.999045
 30
0.0
 40
6.0
100
AcDbArc
 50
135.0
 51
180.0
  0
ARC
  5
F110
330
EE00
100
AcDbEntity
  8
1
  6
Continuous
100
AcDbCircle
 10
737.7420029999997
 20
170.484326
 30
0.0
 40
7.0
100
AcDbArc
 50
180.0
 51
270.0
  0
LINE
  5
F111
330
EE00
100
AcDbEntity
  8
1
  6
Continuous
100
AcDbLine
 10
740.8955849999999
 20
163.484326
 30
0.0
 11
737.7420029999997
 21
163.484326
 31
0.0
  0
ARC
  5
F112
330
EE00
100
AcDbEntity
  8
1
  6
Continuous
100
AcDbCircle
 10
740.8955849999999
 20
165.4843259999998
 30
0.0
 40
2.0
100
AcDbArc
 50
270.0
 51
355.426945
  0
LINE
  5
F113
330
EE00
100
AcDbEntity
  8
1
  6
Continuous
100
AcDbLine
 10
730.7420029999997
 20
172.999045
 30
0.0
 11
730.7420029999997
 21
170.484326
 31
0.0
  0
LINE
  5
F114
330
EE00
100
AcDbEntity
  8
1
  6
Continuous
100
AcDbLine
 10
747.771127
 20
277.942134
 30
0.0
 11
747.771127
 21
246.4843259999999
 31
0.0
  0
LINE
  5
F115
330
EE00
100
AcDbEntity
  8
1
  6
Continuous
100
AcDbLine
 10
748.2792809999997
 20
277.942134
 30
0.0
 11
748.2792809999997
 21
246.4843259999999
 31
0.0
  0
LINE
  5
F116
330
EE00
100
AcDbEntity
  8
1
  6
Continuous
100
AcDbLine
 10
749.2420029999997
 20
279.4843259999999
 30
0.0
 11
749.2420029999997
 21
246.4843259999999
 31
0.0
  0
LINE
  5
F117
330
EE00
100
AcDbEntity
  8
1
  6
Continuous
100
AcDbLine
 10
704.7420029999998
 20
287.4843259999999
 30
0.0
 11
704.7420029999998
 21
239.484326
 31
0.0
  0
LINE
  5
F118
330
EE00
100
AcDbEntity
  8
1
  6
Continuous
100
AcDbLine
 10
705.7420030000002
 20
287.4843259999999
 30
0.0
 11
705.7420030000002
 21
239.484326
 31
0.0
  0
LINE
  5
F119
330
EE00
100
AcDbEntity
  8
1
  6
Continuous
100
AcDbLine
 10
709.2420029999998
 20
285.4843259999999
 30
0.0
 11
709.2420029999998
 21
241.484326
 31
0.0
  0
LINE
  5
F11A
330
EE00
100
AcDbEntity
  8
1
  6
Continuous
100
AcDbLine
 10
717.2420029999998
 20
249.4843259999999
 30
0.0
 11
717.2420029999998
 21
277.4843259999999
 31
0.0
  0
LINE
  5
F11B
330
EE00
100
AcDbEntity
  8
1
  6
Continuous
100
AcDbLine
 10
717.1920029999999
 20
277.2906129999999
 30
0.0
 11
717.1920029999999
 21
249.678039
 31
0.0
  0
LINE
  5
F11C
330
EE00
100
AcDbEntity
  8
1
  6
Continuous
100
AcDbLine
 10
685.4420029999999
 20
268.646206
 30
0.0
 11
685.4420029999999
 21
258.322447
 31
0.0
  0
LINE
  5
F11D
330
EE00
100
AcDbEntity
  8
1
  6
Continuous
100
AcDbLine
 10
690.4420029999997
 20
256.684326
 30
0.0
 11
690.4420029999997
 21
270.2843259999997
 31
0.0
  0
LINE
  5
F11E
330
EE00
100
AcDbEntity
  8
2
  6
Continuous
100
AcDbLine
 10
685.742003
 20
263.4843259999997
 30
0.0
 11
690.4420029999997
 21
268.946206
 31
0.0
  0
LINE
  5
F11F
330
EE00
100
AcDbEntity
  8
2
  6
Continuous
100
AcDbLine
 10
685.742003
 20
268.946206
 30
0.0
 11
690.4420029999997
 21
263.4843259999997
 31
0.0
  0
LINE
  5
F120
330
EE00
100
AcDbEntity
  8
1
  6
Continuous
100
AcDbLine
 10
690.6420030000001
 20
272.9843259999999
 30
0.0
 11
690.6420030000001
 21
253.984326
 31
0.0
  0
LINE
  5
F121
330
EE00
100
AcDbEntity
  8
1
  6
Continuous
100
AcDbLine
 10
735.5303
 20
247.7425839999999
 30
0.0
 11
717.2420029999998
 21
249.4843259999999
 31
0.0
  0
LINE
  5
F122
330
EE00
100
AcDbEntity
  8
4
  6
CENTER
100
AcDbLine
 10
755.4928069999997
 20
263.4843259999997
 30
0.0
 11
681.9160920000001
 21
263.4843259999997
 31
0.0
  0
ARC
  5
F123
330
EE00
100
AcDbEntity
  8
1
  6
Continuous
100
AcDbCircle
 10
729.7420029999997
 20
246.1628339999998
 30
0.0
 40
6.0
100
AcDbArc
 50
0.0
 51
84.559668
  0
LINE
  5
F124
330
EE00
100
AcDbEntity
  8
1
  6
Continuous
100
AcDbLine
 10
735.7420029999997
 20
246.1628339999998
 30
0.0
 11
735.7420029999997
 21
182.9696079999999
 31
0.0
  0
LINE
  5
F125
330
EE00
100
AcDbEntity
  8
1
  6
Continuous
100
AcDbLine
 10
732.499362
 20
177.2416859999999
 30
0.0
 11
733.984643
 21
178.726967
 31
0.0
  0
ARC
  5
F126
330
EE00
100
AcDbEntity
  8
1
  6
Continuous
100
AcDbCircle
 10
729.7420029999997
 20
182.9696079999999
 30
0.0
 40
6.0
100
AcDbArc
 50
315.0
 51
0.0
  0
ARC
  5
F127
330
EE00
100
AcDbEntity
  8
1
  6
Continuous
100
AcDbCircle
 10
548.742003
 20
246.4843259999999
 30
0.0
 40
200.0
100
AcDbArc
 50
355.426945
 51
0.0
  0
LINE
  5
F128
330
EE00
100
AcDbEntity
  8
1
  6
Continuous
100
AcDbLine
 10
747.771127
 20
246.4843259999999
 30
0.0
 11
749.2420029999997
 21
246.4843259999999
 31
0.0
  0
LINE
  5
F129
330
EE00
100
AcDbEntity
  8
1
  6
Continuous
100
AcDbLine
 10
749.7420029999997
 20
260.9843259999997
 30
0.0
 11
749.2420029999997
 21
260.4843259999999
 31
0.0
  0
LINE
  5
F12A
330
EE00
100
AcDbEntity
  8
1
  6
Continuous
100
AcDbLine
 10
749.2420029999997
 20
261.4843259999997
 30
0.0
 11
749.7420029999997
 21
260.9843259999997
 31
0.0
  0
LINE
  5
F12B
330
EE00
100
AcDbEntity
  8
1
  6
Continuous
100
AcDbLine
 10
749.2420029999997
 20
255.4843259999999
 30
0.0
 11
749.7420029999997
 21
254.9843259999999
 31
0.0
  0
LINE
  5
F12C
330
EE00
100
AcDbEntity
  8
1
  6
Continuous
100
AcDbLine
 10
749.7420029999997
 20
255.984326
 30
0.0
 11
749.2420029999997
 21
255.4843259999999
 31
0.0
  0
LINE
  5
F12D
330
EE00
100
AcDbEntity
  8
1
  6
Continuous
100
AcDbLine
 10
749.2420029999997
 20
256.4843259999999
 30
0.0
 11
749.7420029999997
 21
255.984326
 31
0.0
  0
LINE
  5
F12E
330
EE00
100
AcDbEntity
  8
1
  6
Continuous
100
AcDbLine
 10
749.7420029999997
 20
256.9843259999997
 30
0.0
 11
749.2420029999997
 21
256.4843259999999
 31
0.0
  0
LINE
  5
F12F
330
EE00
100
AcDbEntity
  8
1
  6
Continuous
100
AcDbLine
 10
749.2420029999997
 20
257.4843259999997
 30
0.0
 11
749.7420029999997
 21
256.9843259999997
 31
0.0
  0
LINE
  5
F130
330
EE00
100
AcDbEntity
  8
1
  6
Continuous
100
AcDbLine
 10
749.7420029999997
 20
257.9843259999999
 30
0.0
 11
749.2420029999997
 21
257.4843259999997
 31
0.0
  0
LINE
  5
F131
330
EE00
100
AcDbEntity
  8
1
  6
Continuous
100
AcDbLine
 10
749.2420029999997
 20
258.4843259999999
 30
0.0
 11
749.7420029999997
 21
257.9843259999999
 31
0.0
  0
LINE
  5
F132
330
EE00
100
AcDbEntity
  8
1
  6
Continuous
100
AcDbLine
 10
749.7420029999997
 20
258.9843259999997
 30
0.0
 11
749.2420029999997
 21
258.4843259999999
 31
0.0
  0
LINE
  5
F133
330
EE00
100
AcDbEntity
  8
1
  6
Continuous
100
AcDbLine
 10
749.2420029999997
 20
259.4843259999997
 30
0.0
 11
749.7420029999997
 21
258.9843259999997
 31
0.0
  0
LINE
  5
F134
330
EE00
100
AcDbEntity
  8
1
  6
Continuous
100
AcDbLine
 10
749.7420029999997
 20
259.9843259999999
 30
0.0
 11
749.2420029999997
 21
259.4843259999997
 31
0.0
  0
LINE
  5
F135
330
EE00
100
AcDbEntity
  8
1
  6
Continuous
100
AcDbLine
 10
749.2420029999997
 20
260.4843259999999
 30
0.0
 11
749.7420029999997
 21
259.9843259999999
 31
0.0
  0
LINE
  5
F136
330
EE00
100
AcDbEntity
  8
1
  6
Continuous
100
AcDbLine
 10
749.2420029999997
 20
250.4843259999999
 30
0.0
 11
749.7420029999997
 21
249.984326
 31
0.0
  0
LINE
  5
F137
330
EE00
100
AcDbEntity
  8
1
  6
Continuous
100
AcDbLine
 10
749.7420029999997
 20
250.9843259999999
 30
0.0
 11
749.2420029999997
 21
250.4843259999999
 31
0.0
  0
LINE
  5
F138
330
EE00
100
AcDbEntity
  8
1
  6
Continuous
100
AcDbLine
 10
749.2420029999997
 20
251.4843259999999
 30
0.0
 11
749.7420029999997
 21
250.9843259999999
 31
0.0
  0
LINE
  5
F139
330
EE00
100
AcDbEntity
  8
1
  6
Continuous
100
AcDbLine
 10
749.7420029999997
 20
251.984326
 30
0.0
 11
749.2420029999997
 21
251.4843259999999
 31
0.0
  0
LINE
  5
F13A
330
EE00
100
AcDbEntity
  8
1
  6
Continuous
100
AcDbLine
 10
749.2420029999997
 20
252.4843259999999
 30
0.0
 11
749.7420029999997
 21
251.984326
 31
0.0
  0
LINE
  5
F13B
330
EE00
100
AcDbEntity
  8
1
  6
Continuous
100
AcDbLine
 10
749.7420029999997
 20
252.9843259999999
 30
0.0
 11
749.2420029999997
 21
252.4843259999999
 31
0.0
  0
LINE
  5
F13C
330
EE00
100
AcDbEntity
  8
1
  6
Continuous
100
AcDbLine
 10
749.2420029999997
 20
253.4843259999999
 30
0.0
 11
749.7420029999997
 21
252.9843259999999
 31
0.0
  0
LINE
  5
F13D
330
EE00
100
AcDbEntity
  8
1
  6
Continuous
100
AcDbLine
 10
749.7420029999997
 20
253.984326
 30
0.0
 11
749.2420029999997
 21
253.4843259999999
 31
0.0
  0
LINE
  5
F13E
330
EE00
100
AcDbEntity
  8
1
  6
Continuous
100
AcDbLine
 10
749.2420029999997
 20
254.4843259999999
 30
0.0
 11
749.7420029999997
 21
253.984326
 31
0.0
  0
LINE
  5
F13F
330
EE00
100
AcDbEntity
  8
1
  6
Continuous
100
AcDbLine
 10
749.7420029999997
 20
249.984326
 30
0.0
 11
749.2420029999997
 21
249.4843259999999
 31
0.0
  0
LINE
  5
F140
330
EE00
100
AcDbEntity
  8
1
  6
Continuous
100
AcDbLine
 10
749.7420029999997
 20
254.9843259999999
 30
0.0
 11
749.2420029999997
 21
254.4843259999999
 31
0.0
  0
LINE
  5
F141
330
EE00
100
AcDbEntity
  8
1
  6
Continuous
100
AcDbLine
 10
690.8920030000001
 20
253.7343259999999
 30
0.0
 11
704.7420029999998
 21
253.7343259999999
 31
0.0
  0
LINE
  5
F142
330
EE00
100
AcDbEntity
  8
1
  6
Continuous
100
AcDbLine
 10
717.062494
 20
249.342277
 30
0.0
 11
708.723967
 21
240.1412769999998
 31
0.0
  0
ARC
  5
F143
330
EE00
100
AcDbEntity
  8
1
  6
Continuous
100
AcDbCircle
 10
707.2420029999998
 20
241.484326
 30
0.0
 40
2.0
100
AcDbArc
 50
270.0
 51
317.644685
  0
ARC
  5
F144
330
EE00
100
AcDbEntity
  8
1
  6
Continuous
100
AcDbCircle
 10
707.2420029999998
 20
241.484326
 30
0.0
 40
2.0
100
AcDbArc
 50
317.644685
 51
0.0
  0
LINE
  5
F145
330
EE00
100
AcDbEntity
  8
1
  6
Continuous
100
AcDbLine
 10
704.7420029999998
 20
239.484326
 30
0.0
 11
705.7420030000002
 21
239.484326
 31
0.0
  0
LINE
  5
F146
330
EE00
100
AcDbEntity
  8
1
  6
Continuous
100
AcDbLine
 10
707.2420029999998
 20
239.484326
 30
0.0
 11
705.7420030000002
 21
239.484326
 31
0.0
  0
LINE
  5
F147
330
EE00
100
AcDbEntity
  8
1
  6
Continuous
100
AcDbLine
 10
717.1114929999996
 20
253.253462
 30
0.0
 11
713.5816779999997
 21
249.8186529999999
 31
0.0
  0
LINE
  5
F148
330
EE00
100
AcDbEntity
  8
1
  6
Continuous
100
AcDbLine
 10
730.310857
 20
252.135806
 30
0.0
 11
717.609728
 21
253.345438
 31
0.0
  0
LINE
  5
F149
330
EE00
100
AcDbEntity
  8
1
  6
Continuous
100
AcDbLine
 10
717.2420029999998
 20
254.4843259999999
 30
0.0
 11
717.1920029999999
 21
254.4843259999999
 31
0.0
  0
ARC
  5
F14A
330
EE00
100
AcDbEntity
  8
1
  6
Continuous
100
AcDbCircle
 10
716.6920029999999
 20
249.678039
 30
0.0
 40
0.5
100
AcDbArc
 50
317.8151449999999
 51
0.0
  0
LINE
  5
F14B
330
EE00
100
AcDbEntity
  8
1
  6
Continuous
100
AcDbLine
 10
712.936509
 20
249.1908489999999
 30
0.0
 11
710.2420030000001
 21
246.568867
 31
0.0
  0
LINE
  5
F14C
330
EE00
100
AcDbEntity
  8
1
  6
Continuous
100
AcDbLine
 10
703.2420029999998
 20
243.9843259999999
 30
0.0
 11
703.2420029999998
 21
248.4843259999999
 31
0.0
  0
LINE
  5
F14D
330
EE00
100
AcDbEntity
  8
1
  6
Continuous
100
AcDbLine
 10
703.2420029999998
 20
243.9843259999999
 30
0.0
 11
704.7420029999998
 21
243.9843259999999
 31
0.0
  0
LINE
  5
F14E
330
EE00
100
AcDbEntity
  8
1
  6
Continuous
100
AcDbLine
 10
703.2420029999998
 20
248.4843259999999
 30
0.0
 11
704.7420029999998
 21
248.4843259999999
 31
0.0
  0
ARC
  5
F14F
330
EE00
100
AcDbEntity
  8
1
  6
Continuous
100
AcDbCircle
 10
690.6420030000001
 20
256.684326
 30
0.0
 40
0.2
100
AcDbArc
 50
180.0
 51
270.0
  0
LINE
  5
F150
330
EE00
100
AcDbEntity
  8
1
  6
Continuous
100
AcDbLine
 10
690.8920030000001
 20
253.7343259999999
 30
0.0
 11
690.6420030000001
 21
253.984326
 31
0.0
  0
ARC
  5
F151
330
EE00
100
AcDbEntity
  8
1
  6
Continuous
100
AcDbCircle
 10
685.742003
 20
258.322447
 30
0.0
 40
0.3
100
AcDbArc
 50
180.0
 51
270.0
  0
LINE
  5
F152
330
EE00
100
AcDbEntity
  8
1
  6
Continuous
100
AcDbLine
 10
685.742003
 20
258.022447
 30
0.0
 11
690.4420029999997
 21
258.022447
 31
0.0
  0
LINE
  5
F153
330
EE00
100
AcDbEntity
  8
1
  6
Continuous
100
AcDbLine
 10
685.742003
 20
263.4843259999997
 30
0.0
 11
690.4420029999997
 21
263.4843259999997
 31
0.0
  0
LINE
  5
F154
330
EE00
100
AcDbEntity
  8
2
  6
Continuous
100
AcDbLine
 10
690.4420029999997
 20
263.4843259999997
 30
0.0
 11
685.742003
 21
258.022447
 31
0.0
  0
LINE
  5
F155
330
EE00
100
AcDbEntity
  8
2
  6
Continuous
100
AcDbLine
 10
690.4420029999997
 20
258.022447
 30
0.0
 11
685.742003
 21
263.4843259999997
 31
0.0
  0
LINE
  5
F156
330
EE00
100
AcDbEntity
  8
1
  6
Continuous
100
AcDbLine
 10
735.986163
 20
280.368043
 30
0.0
 11
717.2420029999998
 21
277.4843259999999
 31
0.0
  0
LINE
  5
F157
330
EE00
100
AcDbEntity
  8
1
  6
Continuous
100
AcDbLine
 10
736.5717089999996
 20
276.5619939999999
 30
0.0
 11
717.8275489999997
 21
273.678277
 31
0.0
  0
ARC
  5
F158
330
EE00
100
AcDbEntity
  8
1
  6
Continuous
100
AcDbCircle
 10
746.425476
 20
275.6334989999999
 30
0.0
 40
1.0
100
AcDbArc
 50
0.0
 51
90.0
  0
LINE
  5
F159
330
EE00
100
AcDbEntity
  8
1
  6
Continuous
100
AcDbLine
 10
748.2420029999997
 20
280.4843259999996
 30
0.0
 11
737.5067349999997
 21
280.4843259999996
 31
0.0
  0
ARC
  5
F15A
330
EE00
100
AcDbEntity
  8
1
  6
Continuous
100
AcDbCircle
 10
748.2420029999997
 20
279.4843259999999
 30
0.0
 40
1.0
100
AcDbArc
 50
0.0
 51
90.0
  0
LINE
  5
F15B
330
EE00
100
AcDbEntity
  8
1
  6
Continuous
100
AcDbLine
 10
748.2792809999997
 20
277.942134
 30
0.0
 11
747.771127
 21
277.942134
 31
0.0
  0
LINE
  5
F15C
330
EE00
100
AcDbEntity
  8
1
  6
Continuous
100
AcDbLine
 10
747.771127
 20
277.942134
 30
0.0
 11
747.282675
 21
276.8119459999999
 31
0.0
  0
LINE
  5
F15D
330
EE00
100
AcDbEntity
  8
1
  6
Continuous
100
AcDbLine
 10
748.2792809999997
 20
277.942134
 30
0.0
 11
748.773503
 21
279.6529599999999
 31
0.0
  0
ARC
  5
F15E
330
EE00
100
AcDbEntity
  8
1
  6
Continuous
100
AcDbCircle
 10
737.5067349999997
 20
270.4843259999999
 30
0.0
 40
10.0
100
AcDbArc
 50
90.0
 51
98.746162
  0
ARC
  5
F15F
330
EE00
100
AcDbEntity
  8
1
  6
Continuous
100
AcDbCircle
 10
737.5067349999997
 20
270.4843259999999
 30
0.0
 40
6.149172
100
AcDbArc
 50
90.0
 51
98.746162
  0
LINE
  5
F160
330
EE00
100
AcDbEntity
  8
1
  6
Continuous
100
AcDbLine
 10
746.425476
 20
276.6334989999999
 30
0.0
 11
737.5067349999997
 21
276.6334989999999
 31
0.0
  0
LINE
  5
F161
330
EE00
100
AcDbEntity
  8
1
  6
Continuous
100
AcDbLine
 10
690.8920030000001
 20
273.2343259999999
 30
0.0
 11
704.7420029999998
 21
273.2343259999999
 31
0.0
  0
ARC
  5
F162
330
EE00
100
AcDbEntity
  8
1
  6
Continuous
100
AcDbCircle
 10
707.2420029999998
 20
285.4843259999999
 30
0.0
 40
2.0
100
AcDbArc
 50
0.0
 51
42.35531499999999
  0
LINE
  5
F163
330
EE00
100
AcDbEntity
  8
1
  6
Continuous
100
AcDbLine
 10
708.723967
 20
286.8273759999999
 30
0.0
 11
717.062494
 21
277.6263759999998
 31
0.0
  0
LINE
  5
F164
330
EE00
100
AcDbEntity
  8
1
  6
Continuous
100
AcDbLine
 10
713.5816779999997
 20
277.1499989999999
 30
0.0
 11
717.1114929999996
 21
273.71519
 31
0.0
  0
LINE
  5
F165
330
EE00
100
AcDbEntity
  8
1
  6
Continuous
100
AcDbLine
 10
717.1920029999999
 20
274.9843259999999
 30
0.0
 11
717.2420029999998
 21
274.9843259999999
 31
0.0
  0
ARC
  5
F166
330
EE00
100
AcDbEntity
  8
1
  6
Continuous
100
AcDbCircle
 10
716.6920029999999
 20
277.2906129999999
 30
0.0
 40
0.5
100
AcDbArc
 50
0.0
 51
42.18485499999998
  0
LINE
  5
F167
330
EE00
100
AcDbEntity
  8
1
  6
Continuous
100
AcDbLine
 10
710.2420030000001
 20
280.399785
 30
0.0
 11
712.936509
 21
277.7778029999999
 31
0.0
  0
LINE
  5
F168
330
EE00
100
AcDbEntity
  8
1
  6
Continuous
100
AcDbLine
 10
703.2420029999998
 20
282.9843259999999
 30
0.0
 11
703.2420029999998
 21
278.4843259999997
 31
0.0
  0
LINE
  5
F169
330
EE00
100
AcDbEntity
  8
1
  6
Continuous
100
AcDbLine
 10
703.2420029999998
 20
282.9843259999999
 30
0.0
 11
704.7420029999998
 21
282.9843259999999
 31
0.0
  0
LINE
  5
F16A
330
EE00
100
AcDbEntity
  8
1
  6
Continuous
100
AcDbLine
 10
703.2420029999998
 20
278.4843259999997
 30
0.0
 11
704.7420029999998
 21
278.4843259999997
 31
0.0
  0
ARC
  5
F16B
330
EE00
100
AcDbEntity
  8
1
  6
Continuous
100
AcDbCircle
 10
707.2420029999998
 20
285.4843259999999
 30
0.0
 40
2.0
100
AcDbArc
 50
42.35531499999999
 51
90.0
  0
LINE
  5
F16C
330
EE00
100
AcDbEntity
  8
1
  6
Continuous
100
AcDbLine
 10
704.7420029999998
 20
287.4843259999999
 30
0.0
 11
705.7420030000002
 21
287.4843259999999
 31
0.0
  0
LINE
  5
F16D
330
EE00
100
AcDbEntity
  8
1
  6
Continuous
100
AcDbLine
 10
707.2420029999998
 20
287.4843259999999
 30
0.0
 11
705.7420030000002
 21
287.4843259999999
 31
0.0
  0
ARC
  5
F16E
330
EE00
100
AcDbEntity
  8
1
  6
Continuous
100
AcDbCircle
 10
690.6420030000001
 20
270.2843259999997
 30
0.0
 40
0.2
100
AcDbArc
 50
90.0
 51
180.0
  0
LINE
  5
F16F
330
EE00
100
AcDbEntity
  8
1
  6
Continuous
100
AcDbLine
 10
690.6420030000001
 20
272.9843259999999
 30
0.0
 11
690.8920030000001
 21
273.2343259999999
 31
0.0
  0
ARC
  5
F170
330
EE00
100
AcDbEntity
  8
1
  6
Continuous
100
AcDbCircle
 10
685.742003
 20
268.646206
 30
0.0
 40
0.3
100
AcDbArc
 50
90.0
 51
180.0
  0
LINE
  5
F171
330
EE00
100
AcDbEntity
  8
1
  6
Continuous
100
AcDbLine
 10
685.742003
 20
268.946206
 30
0.0
 11
690.4420029999997
 21
268.946206
 31
0.0
  0
ARC
  5
F172
330
EE00
100
AcDbEntity
  8
1
  6
Continuous
100
AcDbCircle
 10
40.338295
 20
246.9843259999999
 30
0.0
 40
0.5
100
AcDbArc
 50
180.0
 51
270.0
  0
ARC
  5
F173
330
EE00
100
AcDbEntity
  8
1
  6
Continuous
100
AcDbCircle
 10
60.838295
 20
246.9843259999999
 30
0.0
 40
0.5
100
AcDbArc
 50
270.0
 51
0.0
  0
LINE
  5
F174
330
EE00
100
AcDbEntity
  8
1
  6
Continuous
100
AcDbLine
 10
271.4036710000085
 20
82.29185308741824
 30
0.0
 11
270.7036710000592
 21
81.7463028346898
 31
0.0
  0
LINE
  5
F175
330
EE00
100
AcDbEntity
  8
1
  6
Continuous
100
AcDbLine
 10
270.7036710000607
 20
87.05357299999937
 30
0.0
 11
270.7036710000583
 21
58.05357299999889
 31
0.0
  0
LINE
  5
F176
330
EE00
100
AcDbEntity
  8
1
  6
Continuous
100
AcDbLine
 10
269.3036709999929
 20
87.05357300000157
 30
0.0
 11
269.3036709999838
 21
58.0535730000011
 31
0.0
  0
LINE
  5
F177
330
EE00
100
AcDbEntity
  8
1
  6
Continuous
100
AcDbLine
 10
271.4036709999999
 20
86.55357299999996
 30
0.0
 11
271.4036709999999
 21
58.55357300000002
 31
0.0
  0
LINE
  5
F178
330
EE00
100
AcDbEntity
  8
1
  6
Continuous
100
AcDbLine
 10
268.6036709999746
 20
60.70195325652514
 30
0.0
 11
268.9464944577612
 21
60.81638792285439
 31
0.0
  0
ARC
  5
F179
330
EE00
100
AcDbEntity
  8
1
  6
Continuous
100
AcDbCircle
 10
263.9437295838461
 20
58.05357300000939
 30
0.0
 40
5.359941416177306
100
AcDbArc
 50
359.9999999999102
 51
29.6108290548139
  0
LINE
  5
F17A
330
EE00
100
AcDbEntity
  8
1
  6
Continuous
100
AcDbLine
 10
270.7036710000583
 20
58.05357299999889
 30
0.0
 11
269.3036709999838
 21
58.0535730000011
 31
0.0
  0
ARC
  5
F17B
330
EE00
100
AcDbEntity
  8
1
  6
Continuous
100
AcDbCircle
 10
246.1591160277853
 20
67.95552012590184
 30
0.0
 40
23.14455497217013
100
AcDbArc
 50
0.0
 51
14.12742288753736
  0
ARC
  5
F17C
330
EE00
100
AcDbEntity
  8
1
  6
Continuous
100
AcDbCircle
 10
271.735254114636
 20
70.52568563995329
 30
0.0
 40
1.031583114680584
100
AcDbArc
 50
108.7495067078217
 51
180.0
  0
ARC
  5
F17D
330
EE00
100
AcDbEntity
  8
1
  6
Continuous
100
AcDbCircle
 10
256.4901720117304
 20
63.36081966066267
 30
0.0
 40
12.81349898822509
100
AcDbArc
 50
0.0
 51
19.02611019247348
  0
ARC
  5
F17E
330
EE00
100
AcDbEntity
  8
1
  6
Continuous
100
AcDbCircle
 10
266.9774666825026
 20
61.15195709420589
 30
0.0
 40
2.32620431752562
100
AcDbArc
 50
353.1575250995761
 51
45.64671286910765
  0
LINE
  5
F17F
330
EE00
100
AcDbEntity
  8
1
  6
Continuous
100
AcDbLine
 10
268.6036710000087
 20
62.81529319353473
 30
0.0
 11
269.3036709999855
 21
63.36081966068594
 31
0.0
  0
LINE
  5
F180
330
EE00
100
AcDbEntity
  8
1
  6
Continuous
100
AcDbLine
 10
268.9464944577616
 20
60.81638792285446
 30
0.0
 11
269.3036709999847
 21
60.87765502119418
 31
0.0
  0
LINE
  5
F181
330
EE00
100
AcDbEntity
  8
1
  6
Continuous
100
AcDbLine
 10
268.6036710000058
 20
67.53800754036086
 30
0.0
 11
269.3036709999868
 21
67.95552012592077
 31
0.0
  0
ARC
  5
F182
330
EE00
100
AcDbEntity
  8
1
  6
Continuous
100
AcDbCircle
 10
272.7210526217011
 20
64.63967442288577
 30
0.0
 40
2.017381621745911
100
AcDbArc
 50
130.7693511336351
 51
180.0
  0
LINE
  5
F183
330
EE00
100
AcDbEntity
  8
1
  6
Continuous
100
AcDbLine
 10
271.4036710000085
 20
62.5436586570732
 30
0.0
 11
270.7036710000585
 21
62.85214222092469
 31
0.0
  0
LINE
  5
F184
330
EE00
100
AcDbEntity
  8
1
  6
Continuous
100
AcDbLine
 10
271.4036710000085
 20
62.5436586570732
 30
0.0
 11
270.7036710000584
 21
61.99810840434421
 31
0.0
  0
LINE
  5
F185
330
EE00
100
AcDbEntity
  8
1
  6
Continuous
100
AcDbLine
 10
271.4036710000048
 20
66.16752725302825
 30
0.0
 11
270.7036710000588
 21
66.95289465313829
 31
0.0
  0
ARC
  5
F186
330
EE00
100
AcDbEntity
  8
1
  6
Continuous
100
AcDbCircle
 10
268.2720878853931
 20
74.58146036004388
 30
0.0
 40
1.031583114680584
100
AcDbArc
 50
288.7495067079116
 51
0.0000000000898481
  0
ARC
  5
F187
330
EE00
100
AcDbEntity
  8
1
  6
Continuous
100
AcDbCircle
 10
267.2862893783186
 20
80.4674715771099
 30
0.0
 40
2.017381621745911
100
AcDbArc
 50
310.769351133725
 51
0.0000000000898481
  0
LINE
  5
F188
330
EE00
100
AcDbEntity
  8
1
  6
Continuous
100
AcDbLine
 10
268.6036710000058
 20
78.93962943360026
 30
0.0
 11
269.3036709999876
 21
78.15425985131873
 31
0.0
  0
ARC
  5
F189
330
EE00
100
AcDbEntity
  8
1
  6
Continuous
100
AcDbCircle
 10
293.8482259722235
 20
77.15162587406081
 30
0.0
 40
23.14455497217013
100
AcDbArc
 50
179.9999999999102
 51
194.1274228874474
  0
ARC
  5
F18A
330
EE00
100
AcDbEntity
  8
1
  6
Continuous
100
AcDbCircle
 10
283.5169659534071
 20
81.7463028346091
 30
0.0
 40
12.8132949534517
100
AcDbArc
 50
180.0
 51
199.0262630835801
  0
LINE
  5
F18B
330
EE00
100
AcDbEntity
  8
1
  6
Continuous
100
AcDbLine
 10
271.4036710000045
 20
77.56914914626765
 30
0.0
 11
270.7036710000592
 21
77.15162120631055
 31
0.0
  0
LINE
  5
F18C
330
EE00
100
AcDbEntity
  8
1
  6
Continuous
100
AcDbLine
 10
268.6036710000087
 20
82.56348762387977
 30
0.0
 11
269.303670999986
 21
82.25500024986546
 31
0.0
  0
LINE
  5
F18D
330
EE00
100
AcDbEntity
  8
1
  6
Continuous
100
AcDbLine
 10
268.6036710000087
 20
82.56348762387977
 30
0.0
 11
269.3036709999871
 21
83.10901409103246
 31
0.0
  0
LINE
  5
F18E
330
EE00
100
AcDbEntity
  8
1
  6
Continuous
100
AcDbLine
 10
271.0608475422523
 20
84.29075807714461
 30
0.0
 11
270.7036710000588
 21
84.22949097881019
 31
0.0
  0
LINE
  5
F18F
330
EE00
100
AcDbEntity
  8
1
  6
Continuous
100
AcDbLine
 10
269.3036709999929
 20
87.05357300000157
 30
0.0
 11
270.7036709999929
 21
87.05357299999826
 31
0.0
  0
LINE
  5
F190
330
EE00
100
AcDbEntity
  8
1
  6
Continuous
100
AcDbLine
 10
270.7036710000607
 20
87.05357299999937
 30
0.0
 11
269.3036710000607
 21
87.05357300000056
 31
0.0
  0
ARC
  5
F191
330
EE00
100
AcDbEntity
  8
1
  6
Continuous
100
AcDbCircle
 10
273.0298753174811
 20
83.95518890579882
 30
0.0
 40
2.32620431752562
100
AcDbArc
 50
173.1575250998436
 51
225.6467128691971
  0
LINE
  5
F192
330
EE00
100
AcDbEntity
  8
1
  6
Continuous
100
AcDbLine
 10
271.4036710000395
 20
84.40519274347362
 30
0.0
 11
271.0608475422523
 21
84.29075807714461
 31
0.0
  0
ARC
  5
F193
330
EE00
100
AcDbEntity
  8
1
  6
Continuous
100
AcDbCircle
 10
276.0636124161703
 20
87.05357299998579
 30
0.0
 40
5.359941416177306
100
AcDbArc
 50
179.9999999998651
 51
209.6108290547688
  0
LINE
  5
F194
330
EE00
100
AcDbEntity
  8
1
  6
Continuous
100
AcDbLine
 10
461.1627534226085
 20
258.1103144629822
 30
0.0
 11
456.0008739199469
 21
263.2721939656438
 31
0.0
  0
LINE
  5
F195
330
EE00
100
AcDbEntity
  8
1
  6
Continuous
100
AcDbLine
 10
456.0008739199469
 20
263.6964580343558
 30
0.0
 11
461.1627534226085
 21
268.8583375370177
 31
0.0
  0
ARC
  5
F196
330
EE00
100
AcDbEntity
  8
1
  6
Continuous
100
AcDbCircle
 10
456.2130059543028
 20
263.4843259999997
 30
0.0
 40
0.3
100
AcDbArc
 50
135.0000000000006
 51
224.9999999999996
  0
CIRCLE
  5
F197
330
EE00
100
AcDbEntity
  8
2
  6
Continuous
100
AcDbCircle
 10
461.3748854569646
 20
263.4843259999997
 30
0.0
 40
2.5
  0
CIRCLE
  5
F198
330
EE00
100
AcDbEntity
  8
1
  6
Continuous
100
AcDbCircle
 10
461.3748854569646
 20
263.4843259999997
 30
0.0
 40
2.066999999999996
  0
LINE
  5
F199
330
EE00
100
AcDbEntity
  8
1
  6
Continuous
100
AcDbLine
 10
466.7488969939824
 20
263.2721939656438
 30
0.0
 11
461.5870174913204
 21
258.1103144629822
 31
0.0
  0
ARC
  5
F19A
330
EE00
100
AcDbEntity
  8
1
  6
Continuous
100
AcDbCircle
 10
461.3748854569646
 20
258.3224464973381
 30
0.0
 40
0.3
100
AcDbArc
 50
225.0000000000003
 51
314.9999999999997
  0
LINE
  5
F19B
330
EE00
100
AcDbEntity
  8
1
  6
Continuous
100
AcDbLine
 10
461.5870174913204
 20
268.8583375370177
 30
0.0
 11
466.7488969939824
 21
263.6964580343558
 31
0.0
  0
ARC
  5
F19C
330
EE00
100
AcDbEntity
  8
1
  6
Continuous
100
AcDbCircle
 10
461.3748854569646
 20
268.6462055026618
 30
0.0
 40
0.3
100
AcDbArc
 50
44.99999999999967
 51
135.0000000000003
  0
ARC
  5
F19D
330
EE00
100
AcDbEntity
  8
1
  6
Continuous
100
AcDbCircle
 10
466.5367649596263
 20
263.4843259999997
 30
0.0
 40
0.3
100
AcDbArc
 50
314.9999999999997
 51
44.99999999999936
  0
ARC
  5
F19E
330
EE00
100
AcDbEntity
  8
1
  6
Continuous
100
AcDbCircle
 10
293.8482259722235
 20
384.0990148740607
 30
0.0
 40
23.14455497217013
100
AcDbArc
 50
179.9999999999102
 51
194.1274228874474
  0
ARC
  5
F19F
330
EE00
100
AcDbEntity
  8
1
  6
Continuous
100
AcDbCircle
 10
246.1591160277853
 20
374.9029091259017
 30
0.0
 40
23.14455497217013
100
AcDbArc
 50
0.0
 51
14.12742288753736
  0
LINE
  5
F1A0
330
EE00
100
AcDbEntity
  8
1
  6
Continuous
100
AcDbLine
 10
269.3036709999929
 20
394.0009620000015
 30
0.0
 11
269.3036709999838
 21
365.0009620000012
 31
0.0
  0
LINE
  5
F1A1
330
EE00
100
AcDbEntity
  8
1
  6
Continuous
100
AcDbLine
 10
270.7036710000607
 20
394.0009619999992
 30
0.0
 11
270.7036710000583
 21
365.0009619999987
 31
0.0
  0
ARC
  5
F1A2
330
EE00
100
AcDbEntity
  8
1
  6
Continuous
100
AcDbCircle
 10
266.9774666825026
 20
368.0993460942057
 30
0.0
 40
2.32620431752562
100
AcDbArc
 50
353.1575250995761
 51
45.64671286910765
  0
LINE
  5
F1A3
330
EE00
100
AcDbEntity
  8
1
  6
Continuous
100
AcDbLine
 10
268.9464944577616
 20
367.7637769228546
 30
0.0
 11
269.3036709999847
 21
367.825044021194
 31
0.0
  0
LINE
  5
F1A4
330
EE00
100
AcDbEntity
  8
1
  6
Continuous
100
AcDbLine
 10
270.7036710000583
 20
365.0009619999987
 30
0.0
 11
269.3036709999838
 21
365.0009620000012
 31
0.0
  0
ARC
  5
F1A5
330
EE00
100
AcDbEntity
  8
1
  6
Continuous
100
AcDbCircle
 10
263.9437295838461
 20
365.0009620000094
 30
0.0
 40
5.359941416177306
100
AcDbArc
 50
359.9999999999102
 51
29.6108290548139
  0
LINE
  5
F1A6
330
EE00
100
AcDbEntity
  8
1
  6
Continuous
100
AcDbLine
 10
268.6036709999746
 20
367.6493422565249
 30
0.0
 11
268.9464944577612
 21
367.7637769228543
 31
0.0
  0
LINE
  5
F1A7
330
EE00
100
AcDbEntity
  8
1
  6
Continuous
100
AcDbLine
 10
271.4036710000048
 20
373.114916253028
 30
0.0
 11
270.7036710000588
 21
373.9002836531382
 31
0.0
  0
LINE
  5
F1A8
330
EE00
100
AcDbEntity
  8
1
  6
Continuous
100
AcDbLine
 10
271.4036710000085
 20
369.4910476570732
 30
0.0
 11
270.7036710000584
 21
368.9454974043441
 31
0.0
  0
LINE
  5
F1A9
330
EE00
100
AcDbEntity
  8
1
  6
Continuous
100
AcDbLine
 10
271.4036710000085
 20
369.4910476570732
 30
0.0
 11
270.7036710000585
 21
369.7995312209247
 31
0.0
  0
ARC
  5
F1AA
330
EE00
100
AcDbEntity
  8
1
  6
Continuous
100
AcDbCircle
 10
272.7210526217011
 20
371.5870634228856
 30
0.0
 40
2.017381621745911
100
AcDbArc
 50
130.7693511336351
 51
180.0
  0
LINE
  5
F1AB
330
EE00
100
AcDbEntity
  8
1
  6
Continuous
100
AcDbLine
 10
268.6036710000058
 20
374.4853965403608
 30
0.0
 11
269.3036709999868
 21
374.9029091259208
 31
0.0
  0
LINE
  5
F1AC
330
EE00
100
AcDbEntity
  8
1
  6
Continuous
100
AcDbLine
 10
268.6036710000087
 20
369.7626821935347
 30
0.0
 11
269.3036709999855
 21
370.3082086606859
 31
0.0
  0
ARC
  5
F1AD
330
EE00
100
AcDbEntity
  8
1
  6
Continuous
100
AcDbCircle
 10
256.4901720117304
 20
370.3082086606626
 30
0.0
 40
12.81349898822509
100
AcDbArc
 50
0.0
 51
19.02611019247348
  0
ARC
  5
F1AE
330
EE00
100
AcDbEntity
  8
1
  6
Continuous
100
AcDbCircle
 10
271.735254114636
 20
377.4730746399534
 30
0.0
 40
1.031583114680584
100
AcDbArc
 50
108.7495067078217
 51
180.0
  0
ARC
  5
F1AF
330
EE00
100
AcDbEntity
  8
1
  6
Continuous
100
AcDbCircle
 10
273.0298753174811
 20
390.9025779057988
 30
0.0
 40
2.32620431752562
100
AcDbArc
 50
173.1575250998436
 51
225.6467128691971
  0
LINE
  5
F1B0
330
EE00
100
AcDbEntity
  8
1
  6
Continuous
100
AcDbLine
 10
268.6036710000087
 20
389.5108766238797
 30
0.0
 11
269.3036709999871
 21
390.0564030910325
 31
0.0
  0
LINE
  5
F1B1
330
EE00
100
AcDbEntity
  8
1
  6
Continuous
100
AcDbLine
 10
268.6036710000087
 20
389.5108766238797
 30
0.0
 11
269.303670999986
 21
389.2023892498655
 31
0.0
  0
LINE
  5
F1B2
330
EE00
100
AcDbEntity
  8
1
  6
Continuous
100
AcDbLine
 10
271.4036710000045
 20
384.5165381462677
 30
0.0
 11
270.7036710000592
 21
384.0990102063106
 31
0.0
  0
ARC
  5
F1B3
330
EE00
100
AcDbEntity
  8
1
  6
Continuous
100
AcDbCircle
 10
283.5169659534071
 20
388.6936918346092
 30
0.0
 40
12.8132949534517
100
AcDbArc
 50
180.0
 51
199.0262630835801
  0
LINE
  5
F1B4
330
EE00
100
AcDbEntity
  8
1
  6
Continuous
100
AcDbLine
 10
268.6036710000058
 20
385.8870184336
 30
0.0
 11
269.3036709999876
 21
385.1016488513187
 31
0.0
  0
ARC
  5
F1B5
330
EE00
100
AcDbEntity
  8
1
  6
Continuous
100
AcDbCircle
 10
267.2862893783186
 20
387.4148605771097
 30
0.0
 40
2.017381621745911
100
AcDbArc
 50
310.769351133725
 51
0.0000000000898481
  0
ARC
  5
F1B6
330
EE00
100
AcDbEntity
  8
1
  6
Continuous
100
AcDbCircle
 10
268.2720878853931
 20
381.5288493600439
 30
0.0
 40
1.031583114680584
100
AcDbArc
 50
288.7495067079116
 51
0.0000000000898481
  0
LINE
  5
F1B7
330
EE00
100
AcDbEntity
  8
1
  6
Continuous
100
AcDbLine
 10
271.4036710000085
 20
389.2392420874183
 30
0.0
 11
270.7036710000592
 21
388.6936918346897
 31
0.0
  0
ARC
  5
F1B8
330
EE00
100
AcDbEntity
  8
1
  6
Continuous
100
AcDbCircle
 10
276.0636124161703
 20
394.0009619999856
 30
0.0
 40
5.359941416177306
100
AcDbArc
 50
179.9999999998651
 51
209.6108290547688
  0
LINE
  5
F1B9
330
EE00
100
AcDbEntity
  8
1
  6
Continuous
100
AcDbLine
 10
271.4036710000395
 20
391.3525817434735
 30
0.0
 11
271.0608475422523
 21
391.2381470771446
 31
0.0
  0
LINE
  5
F1BA
330
EE00
100
AcDbEntity
  8
1
  6
Continuous
100
AcDbLine
 10
270.7036710000607
 20
394.0009619999992
 30
0.0
 11
269.3036710000607
 21
394.0009620000005
 31
0.0
  0
LINE
  5
F1BB
330
EE00
100
AcDbEntity
  8
1
  6
Continuous
100
AcDbLine
 10
269.3036709999929
 20
394.0009620000015
 30
0.0
 11
270.7036709999929
 21
394.0009619999983
 31
0.0
  0
LINE
  5
F1BC
330
EE00
100
AcDbEntity
  8
1
  6
Continuous
100
AcDbLine
 10
271.0608475422523
 20
391.2381470771446
 30
0.0
 11
270.7036710000588
 21
391.17687997881
 31
0.0
  0
ARC
  5
F1BD
330
EE00
100
AcDbEntity
  8
1
  6
Continuous
100
AcDbCircle
 10
293.8482259722235
 20
268.0823788740608
 30
0.0
 40
23.14455497217013
100
AcDbArc
 50
179.9999999999102
 51
194.1274228874474
  0
ARC
  5
F1BE
330
EE00
100
AcDbEntity
  8
1
  6
Continuous
100
AcDbCircle
 10
246.1591160277853
 20
258.8862731259018
 30
0.0
 40
23.14455497217013
100
AcDbArc
 50
0.0
 51
14.12742288753736
  0
LINE
  5
F1BF
330
EE00
100
AcDbEntity
  8
1
  6
Continuous
100
AcDbLine
 10
271.4036709999999
 20
277.4843259999999
 30
0.0
 11
271.4036709999999
 21
249.484326
 31
0.0
  0
LINE
  5
F1C0
330
EE00
100
AcDbEntity
  8
1
  6
Continuous
100
AcDbLine
 10
269.3036709999929
 20
277.9843260000013
 30
0.0
 11
269.3036709999838
 21
248.9843260000009
 31
0.0
  0
LINE
  5
F1C1
330
EE00
100
AcDbEntity
  8
1
  6
Continuous
100
AcDbLine
 10
270.7036710000607
 20
277.9843259999994
 30
0.0
 11
270.7036710000583
 21
248.9843259999988
 31
0.0
  0
ARC
  5
F1C2
330
EE00
100
AcDbEntity
  8
1
  6
Continuous
100
AcDbCircle
 10
266.9774666825026
 20
252.0827100942057
 30
0.0
 40
2.32620431752562
100
AcDbArc
 50
353.1575250995761
 51
45.64671286910765
  0
LINE
  5
F1C3
330
EE00
100
AcDbEntity
  8
1
  6
Continuous
100
AcDbLine
 10
268.9464944577616
 20
251.7471409228544
 30
0.0
 11
269.3036709999847
 21
251.8084080211941
 31
0.0
  0
LINE
  5
F1C4
330
EE00
100
AcDbEntity
  8
1
  6
Continuous
100
AcDbLine
 10
270.7036710000583
 20
248.9843259999988
 30
0.0
 11
269.3036709999838
 21
248.9843260000009
 31
0.0
  0
ARC
  5
F1C5
330
EE00
100
AcDbEntity
  8
1
  6
Continuous
100
AcDbCircle
 10
263.9437295838461
 20
248.9843260000093
 30
0.0
 40
5.359941416177306
100
AcDbArc
 50
359.9999999999102
 51
29.6108290548139
  0
LINE
  5
F1C6
330
EE00
100
AcDbEntity
  8
1
  6
Continuous
100
AcDbLine
 10
268.6036709999746
 20
251.632706256525
 30
0.0
 11
268.9464944577612
 21
251.7471409228543
 31
0.0
  0
LINE
  5
F1C7
330
EE00
100
AcDbEntity
  8
1
  6
Continuous
100
AcDbLine
 10
271.4036710000048
 20
257.0982802530281
 30
0.0
 11
270.7036710000588
 21
257.8836476531382
 31
0.0
  0
LINE
  5
F1C8
330
EE00
100
AcDbEntity
  8
1
  6
Continuous
100
AcDbLine
 10
271.4036710000085
 20
253.4744116570731
 30
0.0
 11
270.7036710000584
 21
252.9288614043441
 31
0.0
  0
LINE
  5
F1C9
330
EE00
100
AcDbEntity
  8
1
  6
Continuous
100
AcDbLine
 10
271.4036710000085
 20
253.4744116570731
 30
0.0
 11
270.7036710000585
 21
253.7828952209244
 31
0.0
  0
ARC
  5
F1CA
330
EE00
100
AcDbEntity
  8
1
  6
Continuous
100
AcDbCircle
 10
272.7210526217011
 20
255.5704274228856
 30
0.0
 40
2.017381621745911
100
AcDbArc
 50
130.7693511336351
 51
180.0
  0
LINE
  5
F1CB
330
EE00
100
AcDbEntity
  8
1
  6
Continuous
100
AcDbLine
 10
268.6036710000058
 20
258.4687605403606
 30
0.0
 11
269.3036709999868
 21
258.8862731259207
 31
0.0
  0
LINE
  5
F1CC
330
EE00
100
AcDbEntity
  8
1
  6
Continuous
100
AcDbLine
 10
268.6036710000087
 20
253.7460461935347
 30
0.0
 11
269.3036709999855
 21
254.2915726606858
 31
0.0
  0
ARC
  5
F1CD
330
EE00
100
AcDbEntity
  8
1
  6
Continuous
100
AcDbCircle
 10
256.4901720117304
 20
254.2915726606624
 30
0.0
 40
12.81349898822509
100
AcDbArc
 50
0.0
 51
19.02611019247348
  0
ARC
  5
F1CE
330
EE00
100
AcDbEntity
  8
1
  6
Continuous
100
AcDbCircle
 10
271.735254114636
 20
261.4564386399532
 30
0.0
 40
1.031583114680584
100
AcDbArc
 50
108.7495067078217
 51
180.0
  0
ARC
  5
F1CF
330
EE00
100
AcDbEntity
  8
1
  6
Continuous
100
AcDbCircle
 10
273.0298753174811
 20
274.8859419057988
 30
0.0
 40
2.32620431752562
100
AcDbArc
 50
173.1575250998436
 51
225.6467128691971
  0
LINE
  5
F1D0
330
EE00
100
AcDbEntity
  8
1
  6
Continuous
100
AcDbLine
 10
268.6036710000087
 20
273.4942406238797
 30
0.0
 11
269.3036709999871
 21
274.0397670910322
 31
0.0
  0
LINE
  5
F1D1
330
EE00
100
AcDbEntity
  8
1
  6
Continuous
100
AcDbLine
 10
268.6036710000087
 20
273.4942406238797
 30
0.0
 11
269.303670999986
 21
273.1857532498654
 31
0.0
  0
LINE
  5
F1D2
330
EE00
100
AcDbEntity
  8
1
  6
Continuous
100
AcDbLine
 10
271.4036710000045
 20
268.4999021462675
 30
0.0
 11
270.7036710000592
 21
268.0823742063104
 31
0.0
  0
ARC
  5
F1D3
330
EE00
100
AcDbEntity
  8
1
  6
Continuous
100
AcDbCircle
 10
283.5169659534071
 20
272.6770558346089
 30
0.0
 40
12.8132949534517
100
AcDbArc
 50
180.0
 51
199.0262630835801
  0
LINE
  5
F1D4
330
EE00
100
AcDbEntity
  8
1
  6
Continuous
100
AcDbLine
 10
268.6036710000058
 20
269.8703824336001
 30
0.0
 11
269.3036709999876
 21
269.0850128513186
 31
0.0
  0
ARC
  5
F1D5
330
EE00
100
AcDbEntity
  8
1
  6
Continuous
100
AcDbCircle
 10
267.2862893783186
 20
271.3982245771096
 30
0.0
 40
2.017381621745911
100
AcDbArc
 50
310.769351133725
 51
0.0000000000898481
  0
ARC
  5
F1D6
330
EE00
100
AcDbEntity
  8
1
  6
Continuous
100
AcDbCircle
 10
268.2720878853931
 20
265.5122133600439
 30
0.0
 40
1.031583114680584
100
AcDbArc
 50
288.7495067079116
 51
0.0000000000898481
  0
LINE
  5
F1D7
330
EE00
100
AcDbEntity
  8
1
  6
Continuous
100
AcDbLine
 10
271.4036710000085
 20
273.2226060874182
 30
0.0
 11
270.7036710000592
 21
272.6770558346895
 31
0.0
  0
ARC
  5
F1D8
330
EE00
100
AcDbEntity
  8
1
  6
Continuous
100
AcDbCircle
 10
276.0636124161703
 20
277.9843259999855
 30
0.0
 40
5.359941416177306
100
AcDbArc
 50
179.9999999998651
 51
209.6108290547688
  0
LINE
  5
F1D9
330
EE00
100
AcDbEntity
  8
1
  6
Continuous
100
AcDbLine
 10
271.4036710000395
 20
275.3359457434734
 30
0.0
 11
271.0608475422523
 21
275.2215110771446
 31
0.0
  0
LINE
  5
F1DA
330
EE00
100
AcDbEntity
  8
1
  6
Continuous
100
AcDbLine
 10
270.7036710000607
 20
277.9843259999994
 30
0.0
 11
269.3036710000607
 21
277.9843260000004
 31
0.0
  0
LINE
  5
F1DB
330
EE00
100
AcDbEntity
  8
1
  6
Continuous
100
AcDbLine
 10
269.3036709999929
 20
277.9843260000013
 30
0.0
 11
270.7036709999929
 21
277.9843259999982
 31
0.0
  0
LINE
  5
F1DC
330
EE00
100
AcDbEntity
  8
1
  6
Continuous
100
AcDbLine
 10
271.0608475422523
 20
275.2215110771446
 30
0.0
 11
270.7036710000588
 21
275.16024397881
 31
0.0
  0
LINE
  5
F1DD
330
EE00
100
AcDbEntity
  8
1
  6
Continuous
100
AcDbLine
 10
651.3460989999916
 20
273.2226060874182
 30
0.0
 11
652.0460989999405
 21
272.6770558346895
 31
0.0
  0
LINE
  5
F1DE
330
EE00
100
AcDbEntity
  8
1
  6
Continuous
100
AcDbLine
 10
652.0460989999393
 20
277.9843259999994
 30
0.0
 11
652.0460989999413
 21
248.9843259999988
 31
0.0
  0
LINE
  5
F1DF
330
EE00
100
AcDbEntity
  8
1
  6
Continuous
100
AcDbLine
 10
653.446099000007
 20
277.9843260000013
 30
0.0
 11
653.446099000016
 21
248.9843260000009
 31
0.0
  0
LINE
  5
F1E0
330
EE00
100
AcDbEntity
  8
1
  6
Continuous
100
AcDbLine
 10
651.3460989999997
 20
277.4843259999999
 30
0.0
 11
651.3460989999997
 21
249.484326
 31
0.0
  0
ARC
  5
F1E1
330
EE00
100
AcDbEntity
  8
1
  6
Continuous
100
AcDbCircle
 10
638.8643119999998
 20
276.4747069999998
 30
0.0
 40
10.98178699999998
100
AcDbArc
 50
336.777628
 51
13.24043099999999
  0
ARC
  5
F1E2
330
EE00
100
AcDbEntity
  8
1
  6
Continuous
100
AcDbCircle
 10
656.8278859999998
 20
276.4747069999998
 30
0.0
 40
10.98178699999998
100
AcDbArc
 50
166.7595529999998
 51
203.222372
  0
LINE
  5
F1E3
330
EE00
100
AcDbEntity
  8
1
  6
Continuous
100
AcDbLine
 10
649.8460989999998
 20
248.4843259999999
 30
0.0
 11
649.8460989999998
 21
278.4843259999997
 31
0.0
  0
LINE
  5
F1E4
330
EE00
100
AcDbEntity
  8
1
  6
Continuous
100
AcDbLine
 10
645.8460989999998
 20
248.484324
 30
0.0
 11
645.8460989999998
 21
278.484328
 31
0.0
  0
LINE
  5
F1E5
330
EE00
100
AcDbEntity
  8
1
  6
Continuous
100
AcDbLine
 10
644.3460989999997
 20
249.4843259999999
 30
0.0
 11
644.3460989999997
 21
277.4843259999999
 31
0.0
  0
LINE
  5
F1E6
330
EE00
100
AcDbEntity
  8
1
  6
Continuous
100
AcDbLine
 10
651.3460989999997
 20
249.4843259999999
 30
0.0
 11
649.8460989999998
 21
249.4843259999999
 31
0.0
  0
LINE
  5
F1E7
330
EE00
100
AcDbEntity
  8
4
  6
CENTER
100
AcDbLine
 10
655.8460989999997
 20
263.4843259999997
 30
0.0
 11
641.3460989999999
 21
263.4843259999997
 31
0.0
  0
LINE
  5
F1E8
330
EE00
100
AcDbEntity
  8
1
  6
Continuous
100
AcDbLine
 10
654.1460990000253
 20
251.632706256525
 30
0.0
 11
653.8032755422383
 21
251.7471409228543
 31
0.0
  0
ARC
  5
F1E9
330
EE00
100
AcDbEntity
  8
1
  6
Continuous
100
AcDbCircle
 10
658.8060404161536
 20
248.9843260000093
 30
0.0
 40
5.359941416177306
100
AcDbArc
 50
150.389170945186
 51
180.0000000000897
  0
LINE
  5
F1EA
330
EE00
100
AcDbEntity
  8
1
  6
Continuous
100
AcDbLine
 10
652.0460989999413
 20
248.9843259999988
 30
0.0
 11
653.446099000016
 21
248.9843260000009
 31
0.0
  0
ARC
  5
F1EB
330
EE00
100
AcDbEntity
  8
1
  6
Continuous
100
AcDbCircle
 10
651.0145158853637
 20
261.4564386399532
 30
0.0
 40
1.031583114680584
100
AcDbArc
 50
0.000000000000007
 51
71.25049329217809
  0
ARC
  5
F1EC
330
EE00
100
AcDbEntity
  8
1
  6
Continuous
100
AcDbCircle
 10
676.5906539722142
 20
258.8862731259018
 30
0.0
 40
23.14455497217013
100
AcDbArc
 50
165.8725771124626
 51
180.0
  0
ARC
  5
F1ED
330
EE00
100
AcDbEntity
  8
1
  6
Continuous
100
AcDbCircle
 10
666.2595979882696
 20
254.2915726606624
 30
0.0
 40
12.81349898822509
100
AcDbArc
 50
160.9738898075264
 51
180.0
  0
LINE
  5
F1EE
330
EE00
100
AcDbEntity
  8
1
  6
Continuous
100
AcDbLine
 10
654.1460989999912
 20
253.7460461935347
 30
0.0
 11
653.4460990000142
 21
254.2915726606858
 31
0.0
  0
LINE
  5
F1EF
330
EE00
100
AcDbEntity
  8
1
  6
Continuous
100
AcDbLine
 10
654.1460989999941
 20
258.4687605403606
 30
0.0
 11
653.446099000013
 21
258.8862731259207
 31
0.0
  0
ARC
  5
F1F0
330
EE00
100
AcDbEntity
  8
1
  6
Continuous
100
AcDbCircle
 10
650.0287173782981
 20
255.5704274228856
 30
0.0
 40
2.017381621745911
100
AcDbArc
 50
0.000000000000007
 51
49.23064886636481
  0
LINE
  5
F1F1
330
EE00
100
AcDbEntity
  8
1
  6
Continuous
100
AcDbLine
 10
651.3460989999916
 20
253.4744116570731
 30
0.0
 11
652.0460989999413
 21
253.7828952209244
 31
0.0
  0
LINE
  5
F1F2
330
EE00
100
AcDbEntity
  8
1
  6
Continuous
100
AcDbLine
 10
651.3460989999916
 20
253.4744116570731
 30
0.0
 11
652.0460989999413
 21
252.9288614043441
 31
0.0
  0
LINE
  5
F1F3
330
EE00
100
AcDbEntity
  8
1
  6
Continuous
100
AcDbLine
 10
651.3460989999948
 20
257.0982802530281
 30
0.0
 11
652.0460989999405
 21
257.8836476531382
 31
0.0
  0
LINE
  5
F1F4
330
EE00
100
AcDbEntity
  8
1
  6
Continuous
100
AcDbLine
 10
653.8032755422382
 20
251.7471409228544
 30
0.0
 11
653.4460990000152
 21
251.8084080211941
 31
0.0
  0
ARC
  5
F1F5
330
EE00
100
AcDbEntity
  8
1
  6
Continuous
100
AcDbCircle
 10
655.7723033174973
 20
252.0827100942057
 30
0.0
 40
2.32620431752562
100
AcDbArc
 50
134.3532871308923
 51
186.8424749004238
  0
ARC
  5
F1F6
330
EE00
100
AcDbEntity
  8
1
  6
Continuous
100
AcDbCircle
 10
654.4776821146067
 20
265.5122133600439
 30
0.0
 40
1.031583114680584
100
AcDbArc
 50
179.99999999991
 51
251.2504932920883
  0
ARC
  5
F1F7
330
EE00
100
AcDbEntity
  8
1
  6
Continuous
100
AcDbCircle
 10
655.4634806216811
 20
271.3982245771096
 30
0.0
 40
2.017381621745911
100
AcDbArc
 50
179.99999999991
 51
229.2306488662747
  0
LINE
  5
F1F8
330
EE00
100
AcDbEntity
  8
1
  6
Continuous
100
AcDbLine
 10
654.1460989999939
 20
269.8703824336001
 30
0.0
 11
653.4460990000122
 21
269.0850128513186
 31
0.0
  0
ARC
  5
F1F9
330
EE00
100
AcDbEntity
  8
1
  6
Continuous
100
AcDbCircle
 10
639.2328040465923
 20
272.6770558346089
 30
0.0
 40
12.8132949534517
100
AcDbArc
 50
340.9737369164199
 51
0.000000000000007
  0
LINE
  5
F1FA
330
EE00
100
AcDbEntity
  8
1
  6
Continuous
100
AcDbLine
 10
651.3460989999948
 20
268.4999021462675
 30
0.0
 11
652.0460989999405
 21
268.0823742063104
 31
0.0
  0
ARC
  5
F1FB
330
EE00
100
AcDbEntity
  8
1
  6
Continuous
100
AcDbCircle
 10
628.9015440277762
 20
268.0823788740608
 30
0.0
 40
23.14455497217013
100
AcDbArc
 50
345.8725771125522
 51
0.000000000089775
  0
ARC
  5
F1FC
330
EE00
100
AcDbEntity
  8
1
  6
Continuous
100
AcDbCircle
 10
638.8643119999998
 20
250.493945
 30
0.0
 40
10.98178699999998
100
AcDbArc
 50
346.759569
 51
23.222372
  0
ARC
  5
F1FD
330
EE00
100
AcDbEntity
  8
1
  6
Continuous
100
AcDbCircle
 10
656.8278859999998
 20
250.493945
 30
0.0
 40
10.98178699999998
100
AcDbArc
 50
156.7776279999999
 51
193.240447
  0
LINE
  5
F1FE
330
EE00
100
AcDbEntity
  8
1
  6
Continuous
100
AcDbLine
 10
645.8460989999998
 20
249.4843259999999
 30
0.0
 11
644.3460989999997
 21
249.4843259999999
 31
0.0
  0
LINE
  5
F1FF
330
EE00
100
AcDbEntity
  8
1
  6
Continuous
100
AcDbLine
 10
644.3460989999997
 20
249.4843259999999
 30
0.0
 11
645.8460989999998
 21
249.4843259999999
 31
0.0
  0
LINE
  5
F200
330
EE00
100
AcDbEntity
  8
1
  6
Continuous
100
AcDbLine
 10
647.1858439999997
 20
246.163818
 30
0.0
 11
648.5063539999996
 21
246.163818
 31
0.0
  0
LINE
  5
F201
330
EE00
100
AcDbEntity
  8
1
  6
Continuous
100
AcDbLine
 10
648.5063529999997
 20
246.163818
 30
0.0
 11
649.8460989999998
 21
248.4843259999999
 31
0.0
  0
LINE
  5
F202
330
EE00
100
AcDbEntity
  8
1
  6
Continuous
100
AcDbLine
 10
647.1858439999997
 20
246.163818
 30
0.0
 11
645.8460979999999
 21
248.4843259999999
 31
0.0
  0
ARC
  5
F203
330
EE00
100
AcDbEntity
  8
1
  6
Continuous
100
AcDbCircle
 10
607.2535439999998
 20
263.4843259999997
 30
0.0
 40
42.592555
100
AcDbArc
 50
348.268368
 51
11.73163200000002
  0
ARC
  5
F204
330
EE00
100
AcDbEntity
  8
1
  6
Continuous
100
AcDbCircle
 10
688.4386549999996
 20
263.4843259999997
 30
0.0
 40
42.592555
100
AcDbArc
 50
168.268368
 51
191.7316319999999
  0
LINE
  5
F205
330
EE00
100
AcDbEntity
  8
1
  6
Continuous
100
AcDbLine
 10
646.7358269999996
 20
254.824072
 30
0.0
 11
648.9563709999996
 21
254.824072
 31
0.0
  0
LINE
  5
F206
330
EE00
100
AcDbEntity
  8
1
  6
Continuous
100
AcDbLine
 10
644.3460989999997
 20
255.286745
 30
0.0
 11
645.8460989999998
 21
255.286745
 31
0.0
  0
LINE
  5
F207
330
EE00
100
AcDbEntity
  8
1
  6
Continuous
100
AcDbLine
 10
644.3460989999997
 20
257.7545989999999
 30
0.0
 11
645.8460989999998
 21
257.7545989999999
 31
0.0
  0
LINE
  5
F208
330
EE00
100
AcDbEntity
  8
1
  6
Continuous
100
AcDbLine
 10
644.3460989999997
 20
269.2140529999999
 30
0.0
 11
645.8460989999998
 21
269.2140529999999
 31
0.0
  0
LINE
  5
F209
330
EE00
100
AcDbEntity
  8
1
  6
Continuous
100
AcDbLine
 10
646.7358269999996
 20
272.1445799999999
 30
0.0
 11
648.9563709999996
 21
272.1445799999999
 31
0.0
  0
LINE
  5
F20A
330
EE00
100
AcDbEntity
  8
1
  6
Continuous
100
AcDbLine
 10
644.3460989999997
 20
271.6819069999999
 30
0.0
 11
645.8460989999998
 21
271.6819069999999
 31
0.0
  0
LINE
  5
F20B
330
EE00
100
AcDbEntity
  8
1
  6
Continuous
100
AcDbLine
 10
651.3460989999997
 20
277.4843259999999
 30
0.0
 11
649.8460989999998
 21
277.4843259999999
 31
0.0
  0
LINE
  5
F20C
330
EE00
100
AcDbEntity
  8
1
  6
Continuous
100
AcDbLine
 10
651.6889224577472
 20
275.2215110771446
 30
0.0
 11
652.0460989999405
 21
275.16024397881
 31
0.0
  0
LINE
  5
F20D
330
EE00
100
AcDbEntity
  8
1
  6
Continuous
100
AcDbLine
 10
653.446099000007
 20
277.9843260000013
 30
0.0
 11
652.0460990000067
 21
277.9843259999982
 31
0.0
  0
LINE
  5
F20E
330
EE00
100
AcDbEntity
  8
1
  6
Continuous
100
AcDbLine
 10
652.0460989999393
 20
277.9843259999994
 30
0.0
 11
653.4460989999391
 21
277.9843260000004
 31
0.0
  0
LINE
  5
F20F
330
EE00
100
AcDbEntity
  8
1
  6
Continuous
100
AcDbLine
 10
651.3460989999603
 20
275.3359457434734
 30
0.0
 11
651.6889224577472
 21
275.2215110771446
 31
0.0
  0
ARC
  5
F210
330
EE00
100
AcDbEntity
  8
1
  6
Continuous
100
AcDbCircle
 10
646.6861575838295
 20
277.9843259999855
 30
0.0
 40
5.359941416177306
100
AcDbArc
 50
330.3891709452312
 51
0.000000000134888
  0
LINE
  5
F211
330
EE00
100
AcDbEntity
  8
1
  6
Continuous
100
AcDbLine
 10
654.1460989999912
 20
273.4942406238797
 30
0.0
 11
653.4460990000138
 21
273.1857532498654
 31
0.0
  0
LINE
  5
F212
330
EE00
100
AcDbEntity
  8
1
  6
Continuous
100
AcDbLine
 10
654.1460989999912
 20
273.4942406238797
 30
0.0
 11
653.4460990000126
 21
274.0397670910322
 31
0.0
  0
ARC
  5
F213
330
EE00
100
AcDbEntity
  8
1
  6
Continuous
100
AcDbCircle
 10
649.7198946825186
 20
274.8859419057988
 30
0.0
 40
2.32620431752562
100
AcDbArc
 50
314.3532871308023
 51
6.842474900156338
  0
LINE
  5
F214
330
EE00
100
AcDbEntity
  8
1
  6
Continuous
100
AcDbLine
 10
648.5063529999997
 20
280.8048339999999
 30
0.0
 11
649.8460989999998
 21
278.4843259999997
 31
0.0
  0
LINE
  5
F215
330
EE00
100
AcDbEntity
  8
1
  6
Continuous
100
AcDbLine
 10
647.1858439999997
 20
280.8048339999999
 30
0.0
 11
645.8460979999999
 21
278.4843259999997
 31
0.0
  0
LINE
  5
F216
330
EE00
100
AcDbEntity
  8
1
  6
Continuous
100
AcDbLine
 10
645.8460989999998
 20
277.4843259999999
 30
0.0
 11
644.3460989999997
 21
277.4843259999999
 31
0.0
  0
LINE
  5
F217
330
EE00
100
AcDbEntity
  8
1
  6
Continuous
100
AcDbLine
 10
644.3460989999997
 20
277.4843259999999
 30
0.0
 11
645.8460989999998
 21
277.4843259999999
 31
0.0
  0
LINE
  5
F218
330
EE00
100
AcDbEntity
  8
1
  6
Continuous
100
AcDbLine
 10
647.1858439999997
 20
280.8048339999999
 30
0.0
 11
648.5063529999997
 21
280.8048339999999
 31
0.0
  0
LINE
  5
F219
330
EE00
100
AcDbEntity
  8
4
  6
CENTER
100
AcDbLine
 10
473.3748849999998
 20
323.4843259999997
 30
0.0
 11
449.3748849999998
 21
323.4843259999997
 31
0.0
  0
LINE
  5
F21A
330
EE00
100
AcDbEntity
  8
4
  6
CENTER
100
AcDbLine
 10
461.3748849999999
 20
335.4843259999999
 30
0.0
 11
461.3748849999999
 21
311.4843259999997
 31
0.0
  0
ENDSEC
  0
SECTION
  2
OBJECTS
  0
DICTIONARY
  5
EDEE
330
0
100
AcDbDictionary
281
     1
  3
ACAD_CIP_PREVIOUS_PRODUCT_INFO
350
F280
  3
ACAD_COLOR
350
F262
  3
ACAD_DETAILVIEWSTYLE
350
F27B
  3
ACAD_GROUP
350
EDEF
  3
ACAD_LAYOUT
350
EDFB
  3
ACAD_MATERIAL
350
F230
  3
ACAD_MLEADERSTYLE
350
F277
  3
ACAD_MLINESTYLE
350
EDF8
  3
ACAD_PLOTSETTINGS
350
EDFA
  3
ACAD_PLOTSTYLENAME
350
F22E
  3
ACAD_SCALELIST
350
F265
  3
ACAD_SECTIONVIEWSTYLE
350
F279
  3
ACAD_TABLESTYLE
350
F263
  3
ACAD_VISUALSTYLE
350
F249
  3
ACDB_RECOMPOSE_DATA
350
F29E
  3
AcDbVariableDictionary
350
F291
  3
DWGPROPS
350
F29F
  0
DICTIONARY
  5
F281
330
EDF2
100
AcDbDictionary
280
     1
281
     1
  3
ADSK_XREC_LAYER_RECONCILED
360
F282
  0
DICTIONARY
  5
F283
330
EE08
100
AcDbDictionary
280
     1
281
     1
  3
ADSK_XREC_LAYER_RECONCILED
360
F284
  0
DICTIONARY
  5
F285
330
EE09
100
AcDbDictionary
280
     1
281
     1
  3
ADSK_XREC_LAYER_RECONCILED
360
F286
  0
DICTIONARY
  5
F287
330
EE0A
100
AcDbDictionary
280
     1
281
     1
  3
ADSK_XREC_LAYER_RECONCILED
360
F288
  0
DICTIONARY
  5
F289
330
EE0B
100
AcDbDictionary
280
     1
281
     1
  3
ADSK_XREC_LAYER_RECONCILED
360
F28A
  0
DICTIONARY
  5
F28B
330
EE0C
100
AcDbDictionary
280
     1
281
     1
  3
ADSK_XREC_LAYER_RECONCILED
360
F28C
  0
DICTIONARY
  5
F28D
330
EE0D
100
AcDbDictionary
280
     1
281
     1
  3
ADSK_XREC_LAYER_RECONCILED
360
F28E
  0
DICTIONARY
  5
F28F
330
EE0E
100
AcDbDictionary
280
     1
281
     1
  3
ADSK_XREC_LAYER_RECONCILED
360
F290
  0
DICTIONARY
  5
F229
330
EE00
100
AcDbDictionary
281
     1
  3
ACAD_LAYOUTSELFREF
350
F22A
  0
DICTIONARY
  5
F227
330
EDFC
100
AcDbDictionary
281
     1
  3
ACAD_LAYOUTSELFREF
350
F228
  0
XRECORD
  5
F280
102
{ACAD_REACTORS
330
EDEE
102
}
330
EDEE
100
AcDbXrecord
280
     1
300
ACDLT
300
2014
300
ACDLT_F_S
  0
DICTIONARY
  5
F262
102
{ACAD_REACTORS
330
EDEE
102
}
330
EDEE
100
AcDbDictionary
281
     1
  0
DICTIONARY
  5
F27B
102
{ACAD_REACTORS
330
EDEE
102
}
330
EDEE
100
AcDbDictionary
281
     1
  3
Imperial24
350
F27C
  0
DICTIONARY
  5
EDEF
102
{ACAD_REACTORS
330
EDEE
102
}
330
EDEE
100
AcDbDictionary
281
     1
  0
DICTIONARY
  5
EDFB
102
{ACAD_REACTORS
330
EDEE
102
}
330
EDEE
100
AcDbDictionary
281
     1
  3
Model
350
F27D
  3
レイアウト1
350
F27E
  0
DICTIONARY
  5
F230
102
{ACAD_REACTORS
330
EDEE
102
}
330
EDEE
100
AcDbDictionary
281
     1
  3
ByBlock
350
F239
  3
ByLayer
350
F231
  3
Global
350
F241
  0
DICTIONARY
  5
F277
102
{ACAD_REACTORS
330
EDEE
102
}
330
EDEE
100
AcDbDictionary
281
     1
  3
Standard
350
F278
  0
DICTIONARY
  5
EDF8
102
{ACAD_REACTORS
330
EDEE
102
}
330
EDEE
100
AcDbDictionary
281
     1
  3
STANDARD
350
EDF9
  0
DICTIONARY
  5
EDFA
102
{ACAD_REACTORS
330
EDEE
102
}
330
EDEE
100
AcDbDictionary
281
     1
  0
ACDBDICTIONARYWDFLT
  5
F22E
102
{ACAD_REACTORS
330
EDEE
102
}
330
EDEE
100
AcDbDictionary
281
     1
  3
Normal
350
F22F
100
AcDbDictionaryWithDefault
340
F22F
  0
DICTIONARY
  5
F265
102
{ACAD_REACTORS
330
EDEE
102
}
330
EDEE
100
AcDbDictionary
281
     1
  3
A0
350
F266
  3
A1
350
F267
  3
A2
350
F268
  3
A3
350
F269
  3
A4
350
F26A
  3
A5
350
F26B
  3
A6
350
F26C
  3
A7
350
F26D
  3
A8
350
F26E
  3
A9
350
F26F
  3
B0
350
F270
  3
B1
350
F271
  3
B2
350
F272
  3
B3
350
F273
  3
B4
350
F274
  3
B5
350
F275
  3
B6
350
F276
  0
DICTIONARY
  5
F279
102
{ACAD_REACTORS
330
EDEE
102
}
330
EDEE
100
AcDbDictionary
281
     1
  3
Imperial24
350
F27A
  0
DICTIONARY
  5
F263
102
{ACAD_REACTORS
330
EDEE
102
}
330
EDEE
100
AcDbDictionary
281
     1
  3
Standard
350
F264
  0
DICTIONARY
  5
F249
102
{ACAD_REACTORS
330
EDEE
102
}
330
EDEE
100
AcDbDictionary
281
     1
  3
2dWireframe
350
F24F
  3
Basic
350
F24E
  3
Brighten
350
F255
  3
ColorChange
350
F259
  3
Conceptual
350
F252
  3
Dim
350
F254
  3
EdgeColorOff
350
F261
  3
Facepattern
350
F258
  3
Flat
350
F24A
  3
FlatWithEdges
350
F24B
  3
Gouraud
350
F24C
  3
GouraudWithEdges
350
F24D
  3
Hidden
350
F251
  3
JitterOff
350
F25F
  3
Linepattern
350
F257
  3
OverhangOff
350
F260
  3
Realistic
350
F253
  3
Shaded
350
F25E
  3
Shaded with edges
350
F25D
  3
Shades of Gray
350
F25A
  3
Sketchy
350
F25B
  3
Thicken
350
F256
  3
Wireframe
350
F250
  3
X-Ray
350
F25C
  0
XRECORD
  5
F29E
102
{ACAD_REACTORS
330
EDEE
102
}
330
EDEE
100
AcDbXrecord
280
     1
 90
        1
330
F264
  0
DICTIONARY
  5
F291
102
{ACAD_REACTORS
330
EDEE
102
}
330
EDEE
100
AcDbDictionary
281
     1
  3
CANNOSCALE
350
F296
  3
CMLEADERSTYLE
350
F293
  3
CTABLESTYLE
350
F292
  3
CVIEWDETAILSTYLE
350
F294
  3
CVIEWSECTIONSTYLE
350
F295
  3
DIMASSOC
350
F299
  3
INDEXCTL
350
F298
  3
SORTENTS
350
F297
  3
XCLIPFRAME
350
F29A
  0
XRECORD
  5
F29F
102
{ACAD_REACTORS
330
EDEE
102
}
330
EDEE
100
AcDbXrecord
280
     1
  1
DWGPROPS COOKIE
  2

  3

  4

  6

  7

  8
Yoshitsune
  9

300
=
301
=
302
=
303
=
304
=
305
=
306
=
307
=
308
=
309
=
 40
0.0139910069444445
 41
2451439.55973588
 42
2457192.64176066
  1

 90
        0
  0
XRECORD
  5
F282
102
{ACAD_REACTORS
330
F281
102
}
330
F281
100
AcDbXrecord
280
     1
290
     1
  0
XRECORD
  5
F284
102
{ACAD_REACTORS
330
F283
102
}
330
F283
100
AcDbXrecord
280
     1
290
     1
  0
XRECORD
  5
F286
102
{ACAD_REACTORS
330
F285
102
}
330
F285
100
AcDbXrecord
280
     1
290
     1
  0
XRECORD
  5
F288
102
{ACAD_REACTORS
330
F287
102
}
330
F287
100
AcDbXrecord
280
     1
290
     1
  0
XRECORD
  5
F28A
102
{ACAD_REACTORS
330
F289
102
}
330
F289
100
AcDbXrecord
280
     1
290
     1
  0
XRECORD
  5
F28C
102
{ACAD_REACTORS
330
F28B
102
}
330
F28B
100
AcDbXrecord
280
     1
290
     1
  0
XRECORD
  5
F28E
102
{ACAD_REACTORS
330
F28D
102
}
330
F28D
100
AcDbXrecord
280
     1
290
     1
  0
XRECORD
  5
F290
102
{ACAD_REACTORS
330
F28F
102
}
330
F28F
100
AcDbXrecord
280
     1
290
     1
  0
XRECORD
  5
F22A
102
{ACAD_REACTORS
330
F229
102
}
330
F229
100
AcDbXrecord
280
     1
340
EE00
  0
XRECORD
  5
F228
102
{ACAD_REACTORS
330
F227
102
}
330
F227
100
AcDbXrecord
280
     1
340
EDFC
  0
ACDBDETAILVIEWSTYLE
  5
F27C
102
{ACAD_XDICTIONARY
360
F2D7
102
}
102
{ACAD_REACTORS
330
F27B
102
}
330
F27B
100
AcDbModelDocViewStyle
 70
     0
  3
Imperial24
290
     0
100
AcDbDetailViewStyle
 70
     0
 71
     0
 90
        3
 71
     1
340
EDF3
 40
0.24
340
0
 40
0.24
300

 40
0.36
280
     3
 71
     2
340
EDF7
 90
       25
 71
     3
340
EDF3
 40
0.24
 90
        1
 40
0.75
 90
        1
300
%<\AcVar ViewType \f "%tc1">% %<\AcVar ViewDetailId>%\PSCALE %<\AcVar ViewScale \f "%sn">%
 71
     4
340
EDF7
 90
       25
340
EDF7
 90
       25
280
     0
  0
LAYOUT
  5
F27D
102
{ACAD_XDICTIONARY
360
F2D9
102
}
102
{ACAD_REACTORS
330
EDFB
102
}
330
EDFB
100
AcDbPlotSettings
  1

  2
Canon LBP9100C
  4

  6

 40
0.0
 41
0.0
 42
0.0
 43
0.0
 44
0.0
 45
0.0
 46
0.0
 47
0.0
 48
0.0
 49
0.0
140
0.0
141
0.0
142
1.0
143
1.0
 70
  1712
 72
     0
 73
     0
 74
     0
  7

 75
     0
147
1.0
148
0.0
149
0.0
100
AcDbLayout
  1
Model
 70
     1
 71
     0
 10
0.0
 20
0.0
 11
12.0
 21
9.0
 12
0.0
 22
0.0
 32
0.0
 14
0.0
 24
0.0
 34
0.0
 15
0.0
 25
0.0
 35
0.0
146
0.0
 13
0.0
 23
0.0
 33
0.0
 16
1.0
 26
0.0
 36
0.0
 17
0.0
 27
1.0
 37
0.0
 76
     0
330
EE00
331
F226
  0
LAYOUT
  5
F27E
102
{ACAD_XDICTIONARY
360
F2DB
102
}
102
{ACAD_REACTORS
330
EDFB
102
}
330
EDFB
100
AcDbPlotSettings
  1

  2
Canon LBP9100C
  4

  6

 40
0.0
 41
0.0
 42
0.0
 43
0.0
 44
0.0
 45
0.0
 46
0.0
 47
0.0
 48
0.0
 49
0.0
140
0.0
141
0.0
142
1.0
143
1.0
 70
   688
 72
     0
 73
     0
 74
     5
  7

 75
    16
147
1.0
148
0.0
149
0.0
100
AcDbLayout
  1
レイアウト1
 70
     0
 71
     1
 10
0.0
 20
0.0
 11
420.0
 21
297.0
 12
0.0
 22
0.0
 32
0.0
 14
1.000000000000000E+20
 24
1.000000000000000E+20
 34
1.000000000000000E+20
 15
-1.000000000000000E+20
 25
-1.000000000000000E+20
 35
-1.000000000000000E+20
146
0.0
 13
0.0
 23
0.0
 33
0.0
 16
1.0
 26
0.0
 36
0.0
 17
0.0
 27
1.0
 37
0.0
 76
     0
330
EDFC
  0
MATERIAL
  5
F239
102
{ACAD_XDICTIONARY
360
F23A
102
}
102
{ACAD_REACTORS
330
F230
102
}
330
F230
100
AcDbMaterial
  1
ByBlock
 72
     0
 43
0.0208333333333333
 43
0.0
 43
0.0
 43
0.0
 43
0.0
 43
0.0208333333333333
 43
0.0
 43
0.0
 43
0.0
 43
0.0
 43
1.0
 43
0.0
 43
0.0
 43
0.0
 43
0.0
 43
1.0
 77
     0
 47
0.0208333333333333
 47
0.0
 47
0.0
 47
0.0
 47
0.0
 47
0.0208333333333333
 47
0.0
 47
0.0
 47
0.0
 47
0.0
 47
1.0
 47
0.0
 47
0.0
 47
0.0
 47
0.0
 47
1.0
171
     0
 49
0.0208333333333333
 49
0.0
 49
0.0
 49
0.0
 49
0.0
 49
0.0208333333333333
 49
0.0
 49
0.0
 49
0.0
 49
0.0
 49
1.0
 49
0.0
 49
0.0
 49
0.0
 49
0.0
 49
1.0
175
     0
142
0.0208333333333333
142
0.0
142
0.0
142
0.0
142
0.0
142
0.0208333333333333
142
0.0
142
0.0
142
0.0
142
0.0
142
1.0
142
0.0
142
0.0
142
0.0
142
0.0
142
1.0
179
     0
144
0.0208333333333333
144
0.0
144
0.0
144
0.0
144
0.0
144
0.0208333333333333
144
0.0
144
0.0
144
0.0
144
0.0
144
1.0
144
0.0
144
0.0
144
0.0
144
0.0
144
1.0
147
0.0208333333333333
147
0.0
147
0.0
147
0.0
147
0.0
147
0.0208333333333333
147
0.0
147
0.0
147
0.0
147
0.0
147
1.0
147
0.0
147
0.0
147
0.0
147
0.0
147
1.0
  0
MATERIAL
  5
F231
102
{ACAD_XDICTIONARY
360
F232
102
}
102
{ACAD_REACTORS
330
F230
102
}
330
F230
100
AcDbMaterial
  1
ByLayer
 72
     0
 43
0.0208333333333333
 43
0.0
 43
0.0
 43
0.0
 43
0.0
 43
0.0208333333333333
 43
0.0
 43
0.0
 43
0.0
 43
0.0
 43
1.0
 43
0.0
 43
0.0
 43
0.0
 43
0.0
 43
1.0
 77
     0
 47
0.0208333333333333
 47
0.0
 47
0.0
 47
0.0
 47
0.0
 47
0.0208333333333333
 47
0.0
 47
0.0
 47
0.0
 47
0.0
 47
1.0
 47
0.0
 47
0.0
 47
0.0
 47
0.0
 47
1.0
171
     0
 49
0.0208333333333333
 49
0.0
 49
0.0
 49
0.0
 49
0.0
 49
0.0208333333333333
 49
0.0
 49
0.0
 49
0.0
 49
0.0
 49
1.0
 49
0.0
 49
0.0
 49
0.0
 49
0.0
 49
1.0
175
     0
142
0.0208333333333333
142
0.0
142
0.0
142
0.0
142
0.0
142
0.0208333333333333
142
0.0
142
0.0
142
0.0
142
0.0
142
1.0
142
0.0
142
0.0
142
0.0
142
0.0
142
1.0
179
     0
144
0.0208333333333333
144
0.0
144
0.0
144
0.0
144
0.0
144
0.0208333333333333
144
0.0
144
0.0
144
0.0
144
0.0
144
1.0
144
0.0
144
0.0
144
0.0
144
0.0
144
1.0
147
0.0208333333333333
147
0.0
147
0.0
147
0.0
147
0.0
147
0.0208333333333333
147
0.0
147
0.0
147
0.0
147
0.0
147
1.0
147
0.0
147
0.0
147
0.0
147
0.0
147
1.0
  0
MATERIAL
  5
F241
102
{ACAD_XDICTIONARY
360
F242
102
}
102
{ACAD_REACTORS
330
F230
102
}
330
F230
100
AcDbMaterial
  1
Global
 72
     0
 43
0.0208333333333333
 43
0.0
 43
0.0
 43
0.0
 43
0.0
 43
0.0208333333333333
 43
0.0
 43
0.0
 43
0.0
 43
0.0
 43
1.0
 43
0.0
 43
0.0
 43
0.0
 43
0.0
 43
1.0
 77
     0
 47
0.0208333333333333
 47
0.0
 47
0.0
 47
0.0
 47
0.0
 47
0.0208333333333333
 47
0.0
 47
0.0
 47
0.0
 47
0.0
 47
1.0
 47
0.0
 47
0.0
 47
0.0
 47
0.0
 47
1.0
171
     0
 49
0.0208333333333333
 49
0.0
 49
0.0
 49
0.0
 49
0.0
 49
0.0208333333333333
 49
0.0
 49
0.0
 49
0.0
 49
0.0
 49
1.0
 49
0.0
 49
0.0
 49
0.0
 49
0.0
 49
1.0
175
     0
142
0.0208333333333333
142
0.0
142
0.0
142
0.0
142
0.0
142
0.0208333333333333
142
0.0
142
0.0
142
0.0
142
0.0
142
1.0
142
0.0
142
0.0
142
0.0
142
0.0
142
1.0
179
     0
144
0.0208333333333333
144
0.0
144
0.0
144
0.0
144
0.0
144
0.0208333333333333
144
0.0
144
0.0
144
0.0
144
0.0
144
1.0
144
0.0
144
0.0
144
0.0
144
0.0
144
1.0
147
0.0208333333333333
147
0.0
147
0.0
147
0.0
147
0.0
147
0.0208333333333333
147
0.0
147
0.0
147
0.0
147
0.0
147
1.0
147
0.0
147
0.0
147
0.0
147
0.0
147
1.0
  0
MLEADERSTYLE
  5
F278
102
{ACAD_REACTORS
330
F277
102
}
330
F277
100
AcDbMLeaderStyle
170
     2
171
     1
172
     0
 90
        2
 40
0.0
 41
0.0
173
     1
 91
-1056964608
340
EDF5
 92
       -2
290
     1
 42
0.09
291
     1
 43
0.36
  3
Standard
 44
0.18
300

342
EDF3
174
     1
178
     6
175
     1
176
     0
 93
-1056964608
 45
0.18
292
     0
297
     0
 46
0.18
 94
-1056964608
 47
1.0
 49
1.0
140
1.0
293
     1
141
0.0
294
     1
177
     0
142
1.0
295
     0
296
     0
143
0.125
1001
ACAD_MLEADERVER
1070
     2
  0
MLINESTYLE
  5
EDF9
102
{ACAD_REACTORS
330
EDF8
102
}
330
EDF8
100
AcDbMlineStyle
  2
STANDARD
 70
     0
  3

 62
   256
 51
90.0
 52
90.0
 71
     2
 49
0.5
 62
   256
  6
BYLAYER
 49
-0.5
 62
   256
  6
BYLAYER
  0
ACDBPLACEHOLDER
  5
F22F
102
{ACAD_REACTORS
330
F22E
102
}
330
F22E
  0
SCALE
  5
F266
102
{ACAD_REACTORS
330
F265
102
}
330
F265
100
AcDbScale
 70
     0
300
1:1
140
1.0
141
1.0
290
     1
  0
SCALE
  5
F267
102
{ACAD_REACTORS
330
F265
102
}
330
F265
100
AcDbScale
 70
     0
300
1/128" = 1'-0"
140
0.0078125
141
12.0
290
     0
  0
SCALE
  5
F268
102
{ACAD_REACTORS
330
F265
102
}
330
F265
100
AcDbScale
 70
     0
300
1/64" = 1'-0"
140
0.015625
141
12.0
290
     0
  0
SCALE
  5
F269
102
{ACAD_REACTORS
330
F265
102
}
330
F265
100
AcDbScale
 70
     0
300
1/32" = 1'-0"
140
0.03125
141
12.0
290
     0
  0
SCALE
  5
F26A
102
{ACAD_REACTORS
330
F265
102
}
330
F265
100
AcDbScale
 70
     0
300
1/16" = 1'-0"
140
0.0625
141
12.0
290
     0
  0
SCALE
  5
F26B
102
{ACAD_REACTORS
330
F265
102
}
330
F265
100
AcDbScale
 70
     0
300
3/32" = 1'-0"
140
0.09375
141
12.0
290
     0
  0
SCALE
  5
F26C
102
{ACAD_REACTORS
330
F265
102
}
330
F265
100
AcDbScale
 70
     0
300
1/8" = 1'-0"
140
0.125
141
12.0
290
     0
  0
SCALE
  5
F26D
102
{ACAD_REACTORS
330
F265
102
}
330
F265
100
AcDbScale
 70
     0
300
3/16" = 1'-0"
140
0.1875
141
12.0
290
     0
  0
SCALE
  5
F26E
102
{ACAD_REACTORS
330
F265
102
}
330
F265
100
AcDbScale
 70
     0
300
1/4" = 1'-0"
140
0.25
141
12.0
290
     0
  0
SCALE
  5
F26F
102
{ACAD_REACTORS
330
F265
102
}
330
F265
100
AcDbScale
 70
     0
300
3/8" = 1'-0"
140
0.375
141
12.0
290
     0
  0
SCALE
  5
F270
102
{ACAD_REACTORS
330
F265
102
}
330
F265
100
AcDbScale
 70
     0
300
1/2" = 1'-0"
140
0.5
141
12.0
290
     0
  0
SCALE
  5
F271
102
{ACAD_REACTORS
330
F265
102
}
330
F265
100
AcDbScale
 70
     0
300
3/4" = 1'-0"
140
0.75
141
12.0
290
     0
  0
SCALE
  5
F272
102
{ACAD_REACTORS
330
F265
102
}
330
F265
100
AcDbScale
 70
     0
300
1" = 1'-0"
140
1.0
141
12.0
290
     0
  0
SCALE
  5
F273
102
{ACAD_REACTORS
330
F265
102
}
330
F265
100
AcDbScale
 70
     0
300
1-1/2" = 1'-0"
140
1.5
141
12.0
290
     0
  0
SCALE
  5
F274
102
{ACAD_REACTORS
330
F265
102
}
330
F265
100
AcDbScale
 70
     0
300
3" = 1'-0"
140
3.0
141
12.0
290
     0
  0
SCALE
  5
F275
102
{ACAD_REACTORS
330
F265
102
}
330
F265
100
AcDbScale
 70
     0
300
6" = 1'-0"
140
6.0
141
12.0
290
     0
  0
SCALE
  5
F276
102
{ACAD_REACTORS
330
F265
102
}
330
F265
100
AcDbScale
 70
     0
300
1'-0" = 1'-0"
140
12.0
141
12.0
290
     0
  0
ACDBSECTIONVIEWSTYLE
  5
F27A
102
{ACAD_XDICTIONARY
360
F2D5
102
}
102
{ACAD_REACTORS
330
F279
102
}
330
F279
100
AcDbModelDocViewStyle
 70
     0
  3
Imperial24
290
     0
100
AcDbSectionViewStyle
 70
     0
 71
     0
 90
       78
 71
     1
340
EDF3
 40
0.24
340
0
340
0
 40
0.24
300
I, O, Q, S, X, Z
 40
0.48
 90
        3
 40
0.18
 90
        1
 71
     2
340
EDF7
 90
       25
340
EDF7
 90
       50
 40
0.24
 40
0.0
 40
0.24
 71
     3
340
EDF3
 40
0.24
 90
        1
 40
0.75
 90
        1
300
%<\AcVar ViewType \f "%tc1">% %<\AcVar ViewSectionStartId>%-%<\AcVar ViewSectionEndId>%\PSCALE %<\AcVar ViewScale \f "%sn">%
 71
     4
300
ANSI31
 40
1.0
 90
        0
290
     0
290
     0
 90
        6
 40
0.0
 40
1.570796326794896
 40
0.2617993877991494
 40
1.308996938995747
 40
-0.2617993877991494
 40
1.832595714594046
  0
TABLESTYLE
  5
F264
102
{ACAD_XDICTIONARY
360
F29C
102
}
102
{ACAD_REACTORS
330
F263
102
}
330
F263
100
AcDbTableStyle
  3
Standard
 70
     0
 71
     0
 40
0.06
 41
0.06
280
     0
281
     0
  7
STANDARD
140
0.18
170
     2
 62
     0
 63
     7
283
     0
274
    -2
284
     1
 64
     0
275
    -2
285
     1
 65
     0
276
    -2
286
     1
 66
     0
277
    -2
287
     1
 67
     0
278
    -2
288
     1
 68
     0
279
    -2
289
     1
 69
     0
  7
STANDARD
140
0.25
170
     5
 62
     0
 63
     7
283
     0
274
    -2
284
     1
 64
     0
275
    -2
285
     1
 65
     0
276
    -2
286
     1
 66
     0
277
    -2
287
     1
 67
     0
278
    -2
288
     1
 68
     0
279
    -2
289
     1
 69
     0
  7
STANDARD
140
0.18
170
     5
 62
     0
 63
     7
283
     0
274
    -2
284
     1
 64
     0
275
    -2
285
     1
 65
     0
276
    -2
286
     1
 66
     0
277
    -2
287
     1
 67
     0
278
    -2
288
     1
 68
     0
279
    -2
289
     1
 69
     0
  0
VISUALSTYLE
  5
F24F
102
{ACAD_XDICTIONARY
360
F2AD
102
}
102
{ACAD_REACTORS
330
F249
102
}
330
F249
100
AcDbVisualStyle
  2
2dWireframe
 70
     4
 71
     0
 72
     2
 73
     0
 90
        0
 40
-0.6
 41
-30.0
 62
     5
 63
     7
 74
     1
 91
        4
 64
     7
 65
   257
 75
     1
175
     1
 42
1.0
 92
        0
 66
   257
 43
1.0
 76
     1
 77
     6
 78
     2
 67
     7
 79
     5
170
     0
171
     0
290
     0
174
     0
 93
        1
 44
0.0
173
     0
291
     0
 45
0.0
1001
ACAD
1000
AcDbSavedByObjectVersion
1070
     0
  0
VISUALSTYLE
  5
F24E
102
{ACAD_XDICTIONARY
360
F2AB
102
}
102
{ACAD_REACTORS
330
F249
102
}
330
F249
100
AcDbVisualStyle
  2
Basic
 70
     7
 71
     1
 72
     0
 73
     1
 90
        0
 40
-0.6
 41
-30.0
 62
     5
 63
     7
 74
     0
 91
        4
 64
     7
 65
   257
 75
     1
175
     1
 42
1.0
 92
        8
 66
     7
 43
1.0
 76
     1
 77
     6
 78
     2
 67
     7
 79
     5
170
     0
171
     0
290
     0
174
     0
 93
        1
 44
0.0
173
     0
291
     1
 45
0.0
1001
ACAD
1000
AcDbSavedByObjectVersion
1070
     0
  0
VISUALSTYLE
  5
F255
102
{ACAD_XDICTIONARY
360
F2B9
102
}
102
{ACAD_REACTORS
330
F249
102
}
330
F249
100
AcDbVisualStyle
  2
Brighten
 70
    12
 71
     2
 72
     2
 73
     0
 90
        0
 40
-0.6
 41
-30.0
 62
     5
 63
     7
 74
     1
 91
        4
 64
     7
 65
   257
 75
     1
175
     1
 42
1.0
 92
        8
 66
     7
 43
1.0
 76
     1
 77
     6
 78
     2
 67
     7
 79
     5
170
     0
171
     0
290
     0
174
     0
 93
        1
 44
50.0
173
     0
291
     1
 45
0.0
1001
ACAD
1000
AcDbSavedByObjectVersion
1070
     0
  0
VISUALSTYLE
  5
F259
102
{ACAD_XDICTIONARY
360
F2C1
102
}
102
{ACAD_REACTORS
330
F249
102
}
330
F249
100
AcDbVisualStyle
  2
ColorChange
 70
    16
 71
     2
 72
     2
 73
     3
 90
        0
 40
-0.6
 41
-30.0
 62
     5
 63
     8
 74
     1
 91
        4
 64
     7
 65
   257
 75
     1
175
     1
 42
1.0
 92
        8
 66
     8
 43
1.0
 76
     1
 77
     6
 78
     2
 67
     7
 79
     5
170
     0
171
     0
290
     0
174
     0
 93
        1
 44
0.0
173
     0
291
     1
 45
0.0
1001
ACAD
1000
AcDbSavedByObjectVersion
1070
     0
  0
VISUALSTYLE
  5
F252
102
{ACAD_XDICTIONARY
360
F2B3
102
}
102
{ACAD_REACTORS
330
F249
102
}
330
F249
100
AcDbVisualStyle
  2
Conceptual
 70
     9
 71
     3
 72
     2
 73
     0
 90
        0
 40
-0.6
 41
-30.0
 62
     5
 63
     7
 74
     2
 91
        2
 64
     7
 65
   257
 75
     1
175
     1
 42
179.0
 92
        8
 66
     7
 43
1.0
 76
     1
 77
     6
 78
     2
 67
     7
 79
     3
170
     0
171
     0
290
     0
174
     0
 93
        1
 44
0.0
173
     0
291
     0
 45
0.0
1001
ACAD
1000
AcDbSavedByObjectVersion
1070
     0
  0
VISUALSTYLE
  5
F254
102
{ACAD_XDICTIONARY
360
F2B7
102
}
102
{ACAD_REACTORS
330
F249
102
}
330
F249
100
AcDbVisualStyle
  2
Dim
 70
    11
 71
     2
 72
     2
 73
     0
 90
        0
 40
-0.6
 41
-30.0
 62
     5
 63
     7
 74
     1
 91
        4
 64
     7
 65
   257
 75
     1
175
     1
 42
1.0
 92
        8
 66
     7
 43
1.0
 76
     1
 77
     6
 78
     2
 67
     7
 79
     5
170
     0
171
     0
290
     0
174
     0
 93
        1
 44
-50.0
173
     0
291
     1
 45
0.0
1001
ACAD
1000
AcDbSavedByObjectVersion
1070
     0
  0
VISUALSTYLE
  5
F261
102
{ACAD_XDICTIONARY
360
F2D1
102
}
102
{ACAD_REACTORS
330
F249
102
}
330
F249
100
AcDbVisualStyle
  2
EdgeColorOff
 70
    22
 71
     2
 72
     2
 73
     0
 90
        0
 40
-0.6
 41
-30.0
 62
     5
 63
     7
 74
     1
 91
        4
 64
     7
 65
   257
 75
     1
175
     1
 42
1.0
 92
        8
 66
     7
 43
1.0
 76
     1
 77
     6
 78
     2
 67
     7
 79
     5
170
     0
171
     0
290
     0
174
     0
 93
        1
 44
0.0
173
     0
291
     1
 45
0.0
1001
ACAD
1000
AcDbSavedByObjectVersion
1070
     0
  0
VISUALSTYLE
  5
F258
102
{ACAD_XDICTIONARY
360
F2BF
102
}
102
{ACAD_REACTORS
330
F249
102
}
330
F249
100
AcDbVisualStyle
  2
Facepattern
 70
    15
 71
     2
 72
     2
 73
     0
 90
        0
 40
-0.6
 41
-30.0
 62
     5
 63
     7
 74
     1
 91
        4
 64
     7
 65
   257
 75
     1
175
     1
 42
1.0
 92
        8
 66
     7
 43
1.0
 76
     1
 77
     6
 78
     2
 67
     7
 79
     5
170
     0
171
     0
290
     0
174
     0
 93
        1
 44
0.0
173
     0
291
     1
 45
0.0
1001
ACAD
1000
AcDbSavedByObjectVersion
1070
     0
  0
VISUALSTYLE
  5
F24A
102
{ACAD_XDICTIONARY
360
F2A3
102
}
102
{ACAD_REACTORS
330
F249
102
}
330
F249
100
AcDbVisualStyle
  2
Flat
 70
     0
 71
     2
 72
     1
 73
     1
 90
        2
 40
-0.6
 41
30.0
 62
     5
 63
     7
 74
     0
 91
        0
 64
     7
 65
   257
 75
     1
175
     1
 42
1.0
 92
        8
 66
     7
 43
1.0
 76
     1
 77
     6
 78
     2
 67
     7
 79
     5
170
     0
171
     0
290
     0
174
     0
 93
       13
 44
0.0
173
     0
291
     1
 45
0.0
1001
ACAD
1000
AcDbSavedByObjectVersion
1070
     0
  0
VISUALSTYLE
  5
F24B
102
{ACAD_XDICTIONARY
360
F2A5
102
}
102
{ACAD_REACTORS
330
F249
102
}
330
F249
100
AcDbVisualStyle
  2
FlatWithEdges
 70
     1
 71
     2
 72
     1
 73
     1
 90
        2
 40
-0.6
 41
30.0
 62
     5
 63
     7
 74
     1
 91
        0
 64
     7
 65
   257
 75
     1
175
     1
 42
1.0
 92
        0
 66
   257
 43
1.0
 76
     1
 77
     6
 78
     2
 67
     7
 79
     5
170
     0
171
     0
290
     0
174
     0
 93
       13
 44
0.0
173
     0
291
     1
 45
0.0
1001
ACAD
1000
AcDbSavedByObjectVersion
1070
     0
  0
VISUALSTYLE
  5
F24C
102
{ACAD_XDICTIONARY
360
F2A7
102
}
102
{ACAD_REACTORS
330
F249
102
}
330
F249
100
AcDbVisualStyle
  2
Gouraud
 70
     2
 71
     2
 72
     2
 73
     1
 90
        2
 40
-0.6
 41
30.0
 62
     5
 63
     7
 74
     0
 91
        0
 64
     7
 65
   257
 75
     1
175
     1
 42
1.0
 92
        0
 66
     7
 43
1.0
 76
     1
 77
     6
 78
     2
 67
     7
 79
     5
170
     0
171
     0
290
     0
174
     0
 93
       13
 44
0.0
173
     0
291
     1
 45
0.0
1001
ACAD
1000
AcDbSavedByObjectVersion
1070
     0
  0
VISUALSTYLE
  5
F24D
102
{ACAD_XDICTIONARY
360
F2A9
102
}
102
{ACAD_REACTORS
330
F249
102
}
330
F249
100
AcDbVisualStyle
  2
GouraudWithEdges
 70
     3
 71
     2
 72
     2
 73
     1
 90
        2
 40
-0.6
 41
30.0
 62
     5
 63
     7
 74
     1
 91
        0
 64
     7
 65
   257
 75
     1
175
     1
 42
1.0
 92
        0
 66
   257
 43
1.0
 76
     1
 77
     6
 78
     2
 67
     7
 79
     5
170
     0
171
     0
290
     0
174
     0
 93
       13
 44
0.0
173
     0
291
     1
 45
0.0
1001
ACAD
1000
AcDbSavedByObjectVersion
1070
     0
  0
VISUALSTYLE
  5
F251
102
{ACAD_XDICTIONARY
360
F2B1
102
}
102
{ACAD_REACTORS
330
F249
102
}
330
F249
100
AcDbVisualStyle
  2
Hidden
 70
     6
 71
     1
 72
     2
 73
     2
 90
        0
 40
-0.6
 41
-30.0
 62
     5
 63
     7
 74
     2
 91
        2
 64
     7
 65
   257
 75
     2
175
     1
 42
40.0
 92
        0
 66
   257
 43
1.0
 76
     1
 77
     6
 78
     2
 67
     7
 79
     3
170
     0
171
     0
290
     0
174
     0
 93
        1
 44
0.0
173
     0
291
     0
 45
0.0
1001
ACAD
1000
AcDbSavedByObjectVersion
1070
     0
  0
VISUALSTYLE
  5
F25F
102
{ACAD_XDICTIONARY
360
F2CD
102
}
102
{ACAD_REACTORS
330
F249
102
}
330
F249
100
AcDbVisualStyle
  2
JitterOff
 70
    20
 71
     2
 72
     2
 73
     0
 90
        0
 40
-0.6
 41
-30.0
 62
     5
 63
     7
 74
     1
 91
        4
 64
     7
 65
   257
 75
     1
175
     1
 42
1.0
 92
       10
 66
     7
 43
1.0
 76
     1
 77
     6
 78
     2
 67
     7
 79
     5
170
     0
171
     0
290
     0
174
     0
 93
        1
 44
0.0
173
     0
291
     1
 45
0.0
1001
ACAD
1000
AcDbSavedByObjectVersion
1070
     0
  0
VISUALSTYLE
  5
F257
102
{ACAD_XDICTIONARY
360
F2BD
102
}
102
{ACAD_REACTORS
330
F249
102
}
330
F249
100
AcDbVisualStyle
  2
Linepattern
 70
    14
 71
     2
 72
     2
 73
     0
 90
        0
 40
-0.6
 41
-30.0
 62
     5
 63
     7
 74
     1
 91
        4
 64
     7
 65
   257
 75
     7
175
     7
 42
1.0
 92
        8
 66
     7
 43
1.0
 76
     1
 77
     6
 78
     2
 67
     7
 79
     5
170
     0
171
     0
290
     0
174
     0
 93
        1
 44
0.0
173
     0
291
     1
 45
0.0
1001
ACAD
1000
AcDbSavedByObjectVersion
1070
     0
  0
VISUALSTYLE
  5
F260
102
{ACAD_XDICTIONARY
360
F2CF
102
}
102
{ACAD_REACTORS
330
F249
102
}
330
F249
100
AcDbVisualStyle
  2
OverhangOff
 70
    21
 71
     2
 72
     2
 73
     0
 90
        0
 40
-0.6
 41
-30.0
 62
     5
 63
     7
 74
     1
 91
        4
 64
     7
 65
   257
 75
     1
175
     1
 42
1.0
 92
        9
 66
     7
 43
1.0
 76
     1
 77
     6
 78
     2
 67
     7
 79
     5
170
     0
171
     0
290
     0
174
     0
 93
        1
 44
0.0
173
     0
291
     1
 45
0.0
1001
ACAD
1000
AcDbSavedByObjectVersion
1070
     0
  0
VISUALSTYLE
  5
F253
102
{ACAD_XDICTIONARY
360
F2B5
102
}
102
{ACAD_REACTORS
330
F249
102
}
330
F249
100
AcDbVisualStyle
  2
Realistic
 70
     8
 71
     2
 72
     3
 73
     0
 90
        2
 40
-0.6
 41
30.0
 62
     5
 63
     7
 74
     0
 91
        0
 64
     7
 65
   257
 75
     1
175
     1
 42
1.0
 92
        8
 66
   257
 43
1.0
 76
     1
 77
     6
 78
     2
 67
     7
 79
     3
170
     0
171
     0
290
     0
174
     0
 93
       13
 44
0.0
173
     0
291
     0
 45
0.0
1001
ACAD
1000
AcDbSavedByObjectVersion
1070
     0
  0
VISUALSTYLE
  5
F25E
102
{ACAD_XDICTIONARY
360
F2CB
102
}
102
{ACAD_REACTORS
330
F249
102
}
330
F249
100
AcDbVisualStyle
  2
Shaded
 70
    27
 71
     2
 72
     2
 73
     1
 90
        2
 40
-0.6
 41
30.0
 62
     5
 63
     7
 74
     0
 91
        4
 64
     7
 65
   257
 75
     1
175
     1
 42
1.0
 92
        8
 66
   257
 43
1.0
 76
     1
 77
     6
 78
     2
 67
     8
 79
     3
170
     0
171
     0
290
     0
174
     0
 93
        5
 44
0.0
173
     0
291
     0
 45
0.0
1001
ACAD
1000
AcDbSavedByObjectVersion
1070
     0
  0
VISUALSTYLE
  5
F25D
102
{ACAD_XDICTIONARY
360
F2C9
102
}
102
{ACAD_REACTORS
330
F249
102
}
330
F249
100
AcDbVisualStyle
  2
Shaded with edges
 70
    26
 71
     2
 72
     2
 73
     1
 90
        2
 40
-0.6
 41
30.0
 62
     5
 63
     7
 74
     1
 91
       10
 64
     7
 65
   257
 75
     2
175
     1
 42
1.0
 92
        8
 66
   257
 43
1.0
 76
     1
 77
     6
 78
     2
 67
     7
 79
     3
170
     0
171
     0
290
     0
174
     0
 93
        5
 44
0.0
173
     0
291
     0
 45
0.0
1001
ACAD
1000
AcDbSavedByObjectVersion
1070
     0
  0
VISUALSTYLE
  5
F25A
102
{ACAD_XDICTIONARY
360
F2C3
102
}
102
{ACAD_REACTORS
330
F249
102
}
330
F249
100
AcDbVisualStyle
  2
Shades of Gray
 70
    23
 71
     2
 72
     2
 73
     3
 90
        0
 40
-0.6
 41
-30.0
 62
     5
 63
     7
 74
     2
 91
        2
 64
     7
 65
     7
 75
     1
175
     1
 42
40.0
 92
        8
 66
     7
 43
1.0
 76
     1
 77
     6
 78
     2
 67
     7
 79
     3
170
     0
171
     0
290
     0
174
     0
 93
        1
 44
0.0
173
     0
291
     0
 45
0.0
1001
ACAD
1000
AcDbSavedByObjectVersion
1070
     0
  0
VISUALSTYLE
  5
F25B
102
{ACAD_XDICTIONARY
360
F2C5
102
}
102
{ACAD_REACTORS
330
F249
102
}
330
F249
100
AcDbVisualStyle
  2
Sketchy
 70
    24
 71
     1
 72
     2
 73
     2
 90
        0
 40
-0.6
 41
-30.0
 62
     5
 63
     7
 74
     2
 91
        2
 64
     7
 65
     7
 75
     1
175
     1
 42
40.0
 92
       11
 66
     7
 43
1.0
 76
     1
 77
     6
 78
     2
 67
     7
 79
     6
170
     0
171
     0
290
     0
174
     0
 93
        1
 44
0.0
173
     0
291
     0
 45
0.0
1001
ACAD
1000
AcDbSavedByObjectVersion
1070
     0
  0
VISUALSTYLE
  5
F256
102
{ACAD_XDICTIONARY
360
F2BB
102
}
102
{ACAD_REACTORS
330
F249
102
}
330
F249
100
AcDbVisualStyle
  2
Thicken
 70
    13
 71
     2
 72
     2
 73
     0
 90
        0
 40
-0.6
 41
-30.0
 62
     5
 63
     7
 74
     1
 91
        4
 64
     7
 65
   257
 75
     1
175
     1
 42
1.0
 92
       12
 66
     7
 43
1.0
 76
     1
 77
     6
 78
     2
 67
     7
 79
     5
170
     0
171
     0
290
     0
174
     0
 93
        1
 44
0.0
173
     0
291
     1
 45
0.0
1001
ACAD
1000
AcDbSavedByObjectVersion
1070
     0
  0
VISUALSTYLE
  5
F250
102
{ACAD_XDICTIONARY
360
F2AF
102
}
102
{ACAD_REACTORS
330
F249
102
}
330
F249
100
AcDbVisualStyle
  2
Wireframe
 70
     5
 71
     0
 72
     2
 73
     0
 90
        0
 40
-0.6
 41
-30.0
 62
     5
 63
     7
 74
     1
 91
        4
 64
     7
 65
   257
 75
     1
175
     1
 42
1.0
 92
        0
 66
   257
 43
1.0
 76
     1
 77
     6
 78
     2
 67
     7
 79
     3
170
     0
171
     0
290
     0
174
     0
 93
        1
 44
0.0
173
     0
291
     0
 45
0.0
1001
ACAD
1000
AcDbSavedByObjectVersion
1070
     0
  0
VISUALSTYLE
  5
F25C
102
{ACAD_XDICTIONARY
360
F2C7
102
}
102
{ACAD_REACTORS
330
F249
102
}
330
F249
100
AcDbVisualStyle
  2
X-Ray
 70
    25
 71
     2
 72
     2
 73
     1
 90
        1
 40
0.5
 41
-30.0
 62
     5
 63
     7
 74
     1
 91
        0
 64
     7
 65
   257
 75
     1
175
     1
 42
1.0
 92
        8
 66
     7
 43
1.0
 76
     1
 77
     6
 78
     2
 67
     7
 79
     3
170
     0
171
     0
290
     0
174
     0
 93
       13
 44
0.0
173
     0
291
     0
 45
0.0
1001
ACAD
1000
AcDbSavedByObjectVersion
1070
     0
  0
DICTIONARYVAR
  5
F296
102
{ACAD_REACTORS
330
F291
102
}
330
F291
100
DictionaryVariables
280
     0
  1
1:1
  0
DICTIONARYVAR
  5
F293
102
{ACAD_REACTORS
330
F291
102
}
330
F291
100
DictionaryVariables
280
     0
  1
STANDARD
  0
DICTIONARYVAR
  5
F292
102
{ACAD_REACTORS
330
F291
102
}
330
F291
100
DictionaryVariables
280
     0
  1
STANDARD
  0
DICTIONARYVAR
  5
F294
102
{ACAD_REACTORS
330
F291
102
}
330
F291
100
DictionaryVariables
280
     0
  1
Imperial24
  0
DICTIONARYVAR
  5
F295
102
{ACAD_REACTORS
330
F291
102
}
330
F291
100
DictionaryVariables
280
     0
  1
Imperial24
  0
DICTIONARYVAR
  5
F299
102
{ACAD_REACTORS
330
F291
102
}
330
F291
100
DictionaryVariables
280
     0
  1
1
  0
DICTIONARYVAR
  5
F298
102
{ACAD_REACTORS
330
F291
102
}
330
F291
100
DictionaryVariables
280
     0
  1
0
  0
DICTIONARYVAR
  5
F297
102
{ACAD_REACTORS
330
F291
102
}
330
F291
100
DictionaryVariables
280
     0
  1
127
  0
DICTIONARYVAR
  5
F29A
102
{ACAD_REACTORS
330
F291
102
}
330
F291
100
DictionaryVariables
280
     0
  1
2
  0
DICTIONARY
  5
F2D7
330
F27C
100
AcDbDictionary
280
     1
281
     1
  3
ACAD_XREC_ROUNDTRIP
360
F2D8
  0
DICTIONARY
  5
F2D9
330
F27D
100
AcDbDictionary
280
     1
281
     1
  3
ACAD_XREC_ROUNDTRIP
360
F2DA
  0
DICTIONARY
  5
F2DB
330
F27E
100
AcDbDictionary
280
     1
281
     1
  3
ACAD_XREC_ROUNDTRIP
360
F2DC
  0
DICTIONARY
  5
F23A
330
F239
100
AcDbDictionary
280
     1
281
     1
  3
ACAD_XREC_ROUNDTRIP
360
F2A1
  3
BUMPTILE
360
F23C
  3
DIFFUSETILE
360
F23B
  3
OPACITYTILE
360
F23F
  3
REFLECTIONTILE
360
F23E
  3
REFRACTIONTILE
360
F240
  3
SPECULARTILE
360
F23D
  0
DICTIONARY
  5
F232
330
F231
100
AcDbDictionary
280
     1
281
     1
  3
ACAD_XREC_ROUNDTRIP
360
F2A0
  3
BUMPTILE
360
F234
  3
DIFFUSETILE
360
F233
  3
OPACITYTILE
360
F237
  3
REFLECTIONTILE
360
F236
  3
REFRACTIONTILE
360
F238
  3
SPECULARTILE
360
F235
  0
DICTIONARY
  5
F242
330
F241
100
AcDbDictionary
280
     1
281
     1
  3
ACAD_XREC_ROUNDTRIP
360
F2A2
  3
BUMPTILE
360
F244
  3
DIFFUSETILE
360
F243
  3
OPACITYTILE
360
F247
  3
REFLECTIONTILE
360
F246
  3
REFRACTIONTILE
360
F248
  3
SPECULARTILE
360
F245
  0
DICTIONARY
  5
F2D5
330
F27A
100
AcDbDictionary
280
     1
281
     1
  3
ACAD_XREC_ROUNDTRIP
360
F2D6
  0
DICTIONARY
  5
F29C
330
F264
100
AcDbDictionary
280
     1
281
     1
  3
ACAD_ROUNDTRIP_2008_TABLESTYLE_CELLSTYLEMAP
360
F29D
  3
ACAD_XREC_ROUNDTRIP
360
F2D3
  0
DICTIONARY
  5
F2AD
330
F24F
100
AcDbDictionary
280
     1
281
     1
  3
ACAD_XREC_ROUNDTRIP
360
F2AE
  0
DICTIONARY
  5
F2AB
330
F24E
100
AcDbDictionary
280
     1
281
     1
  3
ACAD_XREC_ROUNDTRIP
360
F2AC
  0
DICTIONARY
  5
F2B9
330
F255
100
AcDbDictionary
280
     1
281
     1
  3
ACAD_XREC_ROUNDTRIP
360
F2BA
  0
DICTIONARY
  5
F2C1
330
F259
100
AcDbDictionary
280
     1
281
     1
  3
ACAD_XREC_ROUNDTRIP
360
F2C2
  0
DICTIONARY
  5
F2B3
330
F252
100
AcDbDictionary
280
     1
281
     1
  3
ACAD_XREC_ROUNDTRIP
360
F2B4
  0
DICTIONARY
  5
F2B7
330
F254
100
AcDbDictionary
280
     1
281
     1
  3
ACAD_XREC_ROUNDTRIP
360
F2B8
  0
DICTIONARY
  5
F2D1
330
F261
100
AcDbDictionary
280
     1
281
     1
  3
ACAD_XREC_ROUNDTRIP
360
F2D2
  0
DICTIONARY
  5
F2BF
330
F258
100
AcDbDictionary
280
     1
281
     1
  3
ACAD_XREC_ROUNDTRIP
360
F2C0
  0
DICTIONARY
  5
F2A3
330
F24A
100
AcDbDictionary
280
     1
281
     1
  3
ACAD_XREC_ROUNDTRIP
360
F2A4
  0
DICTIONARY
  5
F2A5
330
F24B
100
AcDbDictionary
280
     1
281
     1
  3
ACAD_XREC_ROUNDTRIP
360
F2A6
  0
DICTIONARY
  5
F2A7
330
F24C
100
AcDbDictionary
280
     1
281
     1
  3
ACAD_XREC_ROUNDTRIP
360
F2A8
  0
DICTIONARY
  5
F2A9
330
F24D
100
AcDbDictionary
280
     1
281
     1
  3
ACAD_XREC_ROUNDTRIP
360
F2AA
  0
DICTIONARY
  5
F2B1
330
F251
100
AcDbDictionary
280
     1
281
     1
  3
ACAD_XREC_ROUNDTRIP
360
F2B2
  0
DICTIONARY
  5
F2CD
330
F25F
100
AcDbDictionary
280
     1
281
     1
  3
ACAD_XREC_ROUNDTRIP
360
F2CE
  0
DICTIONARY
  5
F2BD
330
F257
100
AcDbDictionary
280
     1
281
     1
  3
ACAD_XREC_ROUNDTRIP
360
F2BE
  0
DICTIONARY
  5
F2CF
330
F260
100
AcDbDictionary
280
     1
281
     1
  3
ACAD_XREC_ROUNDTRIP
360
F2D0
  0
DICTIONARY
  5
F2B5
330
F253
100
AcDbDictionary
280
     1
281
     1
  3
ACAD_XREC_ROUNDTRIP
360
F2B6
  0
DICTIONARY
  5
F2CB
330
F25E
100
AcDbDictionary
280
     1
281
     1
  3
ACAD_XREC_ROUNDTRIP
360
F2CC
  0
DICTIONARY
  5
F2C9
330
F25D
100
AcDbDictionary
280
     1
281
     1
  3
ACAD_XREC_ROUNDTRIP
360
F2CA
  0
DICTIONARY
  5
F2C3
330
F25A
100
AcDbDictionary
280
     1
281
     1
  3
ACAD_XREC_ROUNDTRIP
360
F2C4
  0
DICTIONARY
  5
F2C5
330
F25B
100
AcDbDictionary
280
     1
281
     1
  3
ACAD_XREC_ROUNDTRIP
360
F2C6
  0
DICTIONARY
  5
F2BB
330
F256
100
AcDbDictionary
280
     1
281
     1
  3
ACAD_XREC_ROUNDTRIP
360
F2BC
  0
DICTIONARY
  5
F2AF
330
F250
100
AcDbDictionary
280
     1
281
     1
  3
ACAD_XREC_ROUNDTRIP
360
F2B0
  0
DICTIONARY
  5
F2C7
330
F25C
100
AcDbDictionary
280
     1
281
     1
  3
ACAD_XREC_ROUNDTRIP
360
F2C8
  0
XRECORD
  5
F2D8
102
{ACAD_REACTORS
330
F2D7
102
}
330
F2D7
100
AcDbXrecord
280
     1
102
DISPLAYNAME
  1
Imperial24
102
FLAGS
 90
        0
  0
XRECORD
  5
F2DA
102
{ACAD_REACTORS
330
F2D9
102
}
330
F2D9
100
AcDbXrecord
280
     1
102
SHADEPLOT
 70
     0
102
SHADEPLOTRESLEVEL
 70
     2
102
SHADEPLOTCUSTOMDPI
 70
   300
  0
XRECORD
  5
F2DC
102
{ACAD_REACTORS
330
F2DB
102
}
330
F2DB
100
AcDbXrecord
280
     1
102
SHADEPLOT
 70
     0
102
SHADEPLOTRESLEVEL
 70
     2
102
SHADEPLOTCUSTOMDPI
 70
   300
  0
XRECORD
  5
F2A1
102
{ACAD_REACTORS
330
F23A
102
}
330
F23A
100
AcDbXrecord
280
     1
102
MATERIAL
148
0.0
149
0.0
149
0.0
 93
        0
 94
      127
282
     0
 72
     0
 77
     0
171
     0
175
     0
179
     0
273
     0
  0
XRECORD
  5
F23C
102
{ACAD_REACTORS
330
F23A
102
}
330
F23A
100
AcDbXrecord
280
     1
270
     1
271
     1
  0
XRECORD
  5
F23B
102
{ACAD_REACTORS
330
F23A
102
}
330
F23A
100
AcDbXrecord
280
     1
270
     1
271
     1
  0
XRECORD
  5
F23F
102
{ACAD_REACTORS
330
F23A
102
}
330
F23A
100
AcDbXrecord
280
     1
270
     1
271
     1
  0
XRECORD
  5
F23E
102
{ACAD_REACTORS
330
F23A
102
}
330
F23A
100
AcDbXrecord
280
     1
270
     1
271
     1
  0
XRECORD
  5
F240
102
{ACAD_REACTORS
330
F23A
102
}
330
F23A
100
AcDbXrecord
280
     1
270
     1
271
     1
  0
XRECORD
  5
F23D
102
{ACAD_REACTORS
330
F23A
102
}
330
F23A
100
AcDbXrecord
280
     1
270
     1
271
     1
  0
XRECORD
  5
F2A0
102
{ACAD_REACTORS
330
F232
102
}
330
F232
100
AcDbXrecord
280
     1
102
MATERIAL
148
0.0
149
0.0
149
0.0
 93
        0
 94
      127
282
     0
 72
     0
 77
     0
171
     0
175
     0
179
     0
273
     0
  0
XRECORD
  5
F234
102
{ACAD_REACTORS
330
F232
102
}
330
F232
100
AcDbXrecord
280
     1
270
     1
271
     1
  0
XRECORD
  5
F233
102
{ACAD_REACTORS
330
F232
102
}
330
F232
100
AcDbXrecord
280
     1
270
     1
271
     1
  0
XRECORD
  5
F237
102
{ACAD_REACTORS
330
F232
102
}
330
F232
100
AcDbXrecord
280
     1
270
     1
271
     1
  0
XRECORD
  5
F236
102
{ACAD_REACTORS
330
F232
102
}
330
F232
100
AcDbXrecord
280
     1
270
     1
271
     1
  0
XRECORD
  5
F238
102
{ACAD_REACTORS
330
F232
102
}
330
F232
100
AcDbXrecord
280
     1
270
     1
271
     1
  0
XRECORD
  5
F235
102
{ACAD_REACTORS
330
F232
102
}
330
F232
100
AcDbXrecord
280
     1
270
     1
271
     1
  0
XRECORD
  5
F2A2
102
{ACAD_REACTORS
330
F242
102
}
330
F242
100
AcDbXrecord
280
     1
102
MATERIAL
148
0.0
149
0.0
149
0.0
 93
        0
 94
      127
282
     0
 72
     0
 77
     0
171
     0
175
     0
179
     0
273
     0
  0
XRECORD
  5
F244
102
{ACAD_REACTORS
330
F242
102
}
330
F242
100
AcDbXrecord
280
     1
270
     1
271
     1
  0
XRECORD
  5
F243
102
{ACAD_REACTORS
330
F242
102
}
330
F242
100
AcDbXrecord
280
     1
270
     1
271
     1
  0
XRECORD
  5
F247
102
{ACAD_REACTORS
330
F242
102
}
330
F242
100
AcDbXrecord
280
     1
270
     1
271
     1
  0
XRECORD
  5
F246
102
{ACAD_REACTORS
330
F242
102
}
330
F242
100
AcDbXrecord
280
     1
270
     1
271
     1
  0
XRECORD
  5
F248
102
{ACAD_REACTORS
330
F242
102
}
330
F242
100
AcDbXrecord
280
     1
270
     1
271
     1
  0
XRECORD
  5
F245
102
{ACAD_REACTORS
330
F242
102
}
330
F242
100
AcDbXrecord
280
     1
270
     1
271
     1
  0
XRECORD
  5
F2D6
102
{ACAD_REACTORS
330
F2D5
102
}
330
F2D5
100
AcDbXrecord
280
     1
102
DISPLAYNAME
  1
Imperial24
102
FLAGS
 90
        0
  0
CELLSTYLEMAP
  5
F29D
102
{ACAD_REACTORS
330
F29C
102
}
330
F29C
100
AcDbCellStyleMap
 90
        3
300
CELLSTYLE
  1
TABLEFORMAT_BEGIN
 90
        5
170
     1
 91
        0
 92
    32768
 62
   257
 93
        1
300
CONTENTFORMAT
  1
CONTENTFORMAT_BEGIN
 90
        0
 91
        0
 92
      512
 93
        0
300

 40
0.0
140
1.0
 94
        5
 62
     0
340
EDF3
144
0.25
309
CONTENTFORMAT_END
171
     0
 94
        0
309
TABLEFORMAT_END
  1
CELLSTYLE_BEGIN
 90
        1
 91
        1
300
_TITLE
309
CELLSTYLE_END
300
CELLSTYLE
  1
TABLEFORMAT_BEGIN
 90
        5
170
     1
 91
        0
 92
        0
 62
   257
 93
        1
300
CONTENTFORMAT
  1
CONTENTFORMAT_BEGIN
 90
        0
 91
        0
 92
      512
 93
        0
300

 40
0.0
140
1.0
 94
        5
 62
     0
340
EDF3
144
0.18
309
CONTENTFORMAT_END
171
     0
 94
        0
309
TABLEFORMAT_END
  1
CELLSTYLE_BEGIN
 90
        2
 91
        1
300
_HEADER
309
CELLSTYLE_END
300
CELLSTYLE
  1
TABLEFORMAT_BEGIN
 90
        5
170
     1
 91
        0
 92
        0
 62
   257
 93
        1
300
CONTENTFORMAT
  1
CONTENTFORMAT_BEGIN
 90
        0
 91
        0
 92
      512
 93
        0
300

 40
0.0
140
1.0
 94
        2
 62
     0
340
EDF3
144
0.18
309
CONTENTFORMAT_END
171
     0
 94
        0
309
TABLEFORMAT_END
  1
CELLSTYLE_BEGIN
 90
        3
 91
        2
300
_DATA
309
CELLSTYLE_END
  0
XRECORD
  5
F2D3
102
{ACAD_REACTORS
330
F29C
102
}
330
F29C
100
AcDbXrecord
280
     1
102
ACAD_ROUNDTRIP_PRE2007_TABLESTYLE
 90
      512
 91
        0
  1

 92
      512
 93
        0
  2

 94
      512
 95
        0
  3

  0
XRECORD
  5
F2AE
102
{ACAD_REACTORS
330
F2AD
102
}
330
F2AD
100
AcDbXrecord
280
     1
102
RTVSPost2010Prop28
280
     1
102
RTVSPost2010PropOp28
 70
     1
102
RTVSPost2010Prop29
280
     1
102
RTVSPost2010PropOp29
 70
     1
102
RTVSPost2010Prop30
280
     0
102
RTVSPost2010PropOp30
 70
     1
102
RTVSPost2010Prop31
280
     0
102
RTVSPost2010PropOp31
 70
     1
102
RTVSPost2010Prop32
280
     0
102
RTVSPost2010PropOp32
 70
     1
102
RTVSPost2010Prop33
280
     0
102
RTVSPost2010PropOp33
 70
     1
102
RTVSPost2010Prop34
280
     0
102
RTVSPost2010PropOp34
 70
     1
102
RTVSPost2010Prop35
280
     0
102
RTVSPost2010PropOp35
 70
     1
102
RTVSPost2010Prop36
280
     0
102
RTVSPost2010PropOp36
 70
     1
102
RTVSPost2010Prop37
 90
       50
102
RTVSPost2010PropOp37
 70
     1
102
RTVSPost2010Prop38
140
0.0
102
RTVSPost2010PropOp38
 70
     1
102
RTVSPost2010Prop39
140
1.0
102
RTVSPost2010PropOp39
 70
     1
102
RTVSPost2010Prop40
 90
        0
102
RTVSPost2010PropOp40
 70
     1
102
RTVSPost2010Prop41ColorIndex
 90
       18
102
RTVSPost2010Prop41ColorRGB
 90
        0
102
RTVSPost2010PropOp41
 70
     1
102
RTVSPost2010Prop42
 90
       50
102
RTVSPost2010PropOp42
 70
     1
102
RTVSPost2010Prop43
 90
        3
102
RTVSPost2010PropOp43
 70
     1
102
RTVSPost2010Prop44ColorIndex
 90
        5
102
RTVSPost2010Prop44ColorRGB
 90
      255
102
RTVSPost2010PropOp44
 70
     1
102
RTVSPost2010Prop45
280
     0
102
RTVSPost2010PropOp45
 70
     1
102
RTVSPost2010Prop46
 90
       50
102
RTVSPost2010PropOp46
 70
     1
102
RTVSPost2010Prop47
 90
       50
102
RTVSPost2010PropOp47
 70
     1
102
RTVSPost2010Prop48
 90
       50
102
RTVSPost2010PropOp48
 70
     1
102
RTVSPost2010Prop49
280
     0
102
RTVSPost2010PropOp49
 70
     1
102
RTVSPost2010Prop50
 90
       50
102
RTVSPost2010PropOp50
 70
     1
102
RTVSPost2010Prop51ColorIndex
 90
      256
102
RTVSPost2010Prop51ColorRGB
 90
-16777216
102
RTVSPost2010PropOp51
 70
     0
102
RTVSPost2010Prop52
140
1.0
102
RTVSPost2010PropOp52
 70
     0
102
RTVSPost2010Prop53
 90
        2
102
RTVSPost2010PropOp53
 70
     1
102
RTVSPost2010Prop54
  1
strokes_ogs.tif
102
RTVSPost2010PropOp54
 70
     1
102
RTVSPost2010Prop55
280
     0
102
RTVSPost2010PropOp55
 70
     1
102
RTVSPost2010Prop56
140
1.0
102
RTVSPost2010PropOp56
 70
     1
102
RTVSPost2010Prop57
140
1.0
102
RTVSPost2010PropOp57
 70
     1
102
RTVSPropertyOp0
 70
     1
102
RTVSPropertyOp1
 70
     1
102
RTVSPropertyOp2
 70
     1
102
RTVSPropertyOp3
 70
     1
102
RTVSPropertyOp4
 70
     1
102
RTVSPropertyOp5
 70
     1
102
RTVSPropertyOp6
 70
     1
102
RTVSPropertyOp7
 70
     1
102
RTVSPropertyOp8
 70
     1
102
RTVSPropertyOp9
 70
     1
102
RTVSPropertyOp10
 70
     1
102
RTVSPropertyOp11
 70
     1
102
RTVSPropertyOp12
 70
     1
102
RTVSPropertyOp13
 70
     1
102
RTVSPropertyOp14
 70
     1
102
RTVSPropertyOp15
 70
     1
102
RTVSPropertyOp16
 70
     1
102
RTVSPropertyOp17
 70
     1
102
RTVSPropertyOp18
 70
     1
102
RTVSPropertyOp19
 70
     1
102
RTVSPropertyOp20
 70
     1
102
RTVSPropertyOp21
 70
     1
102
RTVSPropertyOp22
 70
     1
102
RTVSPropertyOp23
 70
     1
102
RTVSPropertyOp24
 70
     1
102
RTVSPropertyOp25
 70
     1
102
RTVSPropertyOp26
 70
     1
102
RTVSPropertyOp27
 70
     1
102
RTVSPropertyOp28
 70
     1
102
RTVSPropertyOp29
 70
     1
102
RTVSPropertyOp30
 70
     1
102
RTVSPropertyOp31
 70
     1
102
RTVSPropertyOp32
 70
     1
102
RTVSPropertyOp33
 70
     1
102
RTVSPropertyOp34
 70
     1
102
RTVSPropertyOp35
 70
     1
102
RTVSPropertyOp36
 70
     1
102
RTVSPropertyOp37
 70
     1
102
RTVSPropertyOp38
 70
     1
102
RTVSPropertyOp39
 70
     1
102
RTVSPropertyOp40
 70
     1
102
RTVSPropertyOp41
 70
     1
102
RTVSPropertyOp42
 70
     1
102
RTVSPropertyOp43
 70
     1
102
RTVSPropertyOp44
 70
     1
102
RTVSPropertyOp45
 70
     1
102
RTVSPropertyOp46
 70
     1
102
RTVSPropertyOp47
 70
     1
102
RTVSPropertyOp48
 70
     1
102
RTVSPropertyOp49
 70
     1
102
RTVSPropertyOp50
 70
     1
102
RTVSPropertyOp51
 70
     0
102
RTVSPropertyOp52
 70
     0
102
RTVSPropertyOp53
 70
     1
102
RTVSPropertyOp54
 70
     1
102
RTVSPropertyOp55
 70
     1
102
RTVSPropertyOp56
 70
     1
102
RTVSPropertyOp57
 70
     1
102
RTVSPropertyOp58
 70
     1
102
RTVSPropertyOp59
 70
     1
102
RTVSPropertyOp60
 70
     1
102
RTVSPropertyOp61
 70
     1
102
RTVSPropertyOp62
 70
     1
  0
XRECORD
  5
F2AC
102
{ACAD_REACTORS
330
F2AB
102
}
330
F2AB
100
AcDbXrecord
280
     1
102
RTVSPost2010Prop28
280
     0
102
RTVSPost2010PropOp28
 70
     1
102
RTVSPost2010Prop29
280
     1
102
RTVSPost2010PropOp29
 70
     1
102
RTVSPost2010Prop30
280
     1
102
RTVSPost2010PropOp30
 70
     1
102
RTVSPost2010Prop31
280
     0
102
RTVSPost2010PropOp31
 70
     1
102
RTVSPost2010Prop32
280
     0
102
RTVSPost2010PropOp32
 70
     1
102
RTVSPost2010Prop33
280
     0
102
RTVSPost2010PropOp33
 70
     1
102
RTVSPost2010Prop34
280
     0
102
RTVSPost2010PropOp34
 70
     1
102
RTVSPost2010Prop35
280
     0
102
RTVSPost2010PropOp35
 70
     1
102
RTVSPost2010Prop36
280
     0
102
RTVSPost2010PropOp36
 70
     1
102
RTVSPost2010Prop37
 90
       50
102
RTVSPost2010PropOp37
 70
     1
102
RTVSPost2010Prop38
140
0.0
102
RTVSPost2010PropOp38
 70
     1
102
RTVSPost2010Prop39
140
1.0
102
RTVSPost2010PropOp39
 70
     1
102
RTVSPost2010Prop40
 90
        0
102
RTVSPost2010PropOp40
 70
     1
102
RTVSPost2010Prop41ColorIndex
 90
       18
102
RTVSPost2010Prop41ColorRGB
 90
        0
102
RTVSPost2010PropOp41
 70
     1
102
RTVSPost2010Prop42
 90
       50
102
RTVSPost2010PropOp42
 70
     1
102
RTVSPost2010Prop43
 90
        3
102
RTVSPost2010PropOp43
 70
     1
102
RTVSPost2010Prop44ColorIndex
 90
        5
102
RTVSPost2010Prop44ColorRGB
 90
      255
102
RTVSPost2010PropOp44
 70
     1
102
RTVSPost2010Prop45
280
     0
102
RTVSPost2010PropOp45
 70
     1
102
RTVSPost2010Prop46
 90
       50
102
RTVSPost2010PropOp46
 70
     1
102
RTVSPost2010Prop47
 90
       50
102
RTVSPost2010PropOp47
 70
     1
102
RTVSPost2010Prop48
 90
       50
102
RTVSPost2010PropOp48
 70
     1
102
RTVSPost2010Prop49
280
     0
102
RTVSPost2010PropOp49
 70
     1
102
RTVSPost2010Prop50
 90
       50
102
RTVSPost2010PropOp50
 70
     1
102
RTVSPost2010Prop51ColorIndex
 90
      256
102
RTVSPost2010Prop51ColorRGB
 90
-16777216
102
RTVSPost2010PropOp51
 70
     0
102
RTVSPost2010Prop52
140
1.0
102
RTVSPost2010PropOp52
 70
     0
102
RTVSPost2010Prop53
 90
        2
102
RTVSPost2010PropOp53
 70
     1
102
RTVSPost2010Prop54
  1
strokes_ogs.tif
102
RTVSPost2010PropOp54
 70
     1
102
RTVSPost2010Prop55
280
     0
102
RTVSPost2010PropOp55
 70
     1
102
RTVSPost2010Prop56
140
1.0
102
RTVSPost2010PropOp56
 70
     1
102
RTVSPost2010Prop57
140
1.0
102
RTVSPost2010PropOp57
 70
     1
102
RTVSPropertyOp0
 70
     1
102
RTVSPropertyOp1
 70
     1
102
RTVSPropertyOp2
 70
     1
102
RTVSPropertyOp3
 70
     1
102
RTVSPropertyOp4
 70
     1
102
RTVSPropertyOp5
 70
     1
102
RTVSPropertyOp6
 70
     1
102
RTVSPropertyOp7
 70
     1
102
RTVSPropertyOp8
 70
     1
102
RTVSPropertyOp9
 70
     1
102
RTVSPropertyOp10
 70
     1
102
RTVSPropertyOp11
 70
     1
102
RTVSPropertyOp12
 70
     1
102
RTVSPropertyOp13
 70
     1
102
RTVSPropertyOp14
 70
     1
102
RTVSPropertyOp15
 70
     1
102
RTVSPropertyOp16
 70
     1
102
RTVSPropertyOp17
 70
     1
102
RTVSPropertyOp18
 70
     1
102
RTVSPropertyOp19
 70
     1
102
RTVSPropertyOp20
 70
     1
102
RTVSPropertyOp21
 70
     1
102
RTVSPropertyOp22
 70
     1
102
RTVSPropertyOp23
 70
     1
102
RTVSPropertyOp24
 70
     1
102
RTVSPropertyOp25
 70
     1
102
RTVSPropertyOp26
 70
     1
102
RTVSPropertyOp27
 70
     1
102
RTVSPropertyOp28
 70
     1
102
RTVSPropertyOp29
 70
     1
102
RTVSPropertyOp30
 70
     1
102
RTVSPropertyOp31
 70
     1
102
RTVSPropertyOp32
 70
     1
102
RTVSPropertyOp33
 70
     1
102
RTVSPropertyOp34
 70
     1
102
RTVSPropertyOp35
 70
     1
102
RTVSPropertyOp36
 70
     1
102
RTVSPropertyOp37
 70
     1
102
RTVSPropertyOp38
 70
     1
102
RTVSPropertyOp39
 70
     1
102
RTVSPropertyOp40
 70
     1
102
RTVSPropertyOp41
 70
     1
102
RTVSPropertyOp42
 70
     1
102
RTVSPropertyOp43
 70
     1
102
RTVSPropertyOp44
 70
     1
102
RTVSPropertyOp45
 70
     1
102
RTVSPropertyOp46
 70
     1
102
RTVSPropertyOp47
 70
     1
102
RTVSPropertyOp48
 70
     1
102
RTVSPropertyOp49
 70
     1
102
RTVSPropertyOp50
 70
     1
102
RTVSPropertyOp51
 70
     0
102
RTVSPropertyOp52
 70
     0
102
RTVSPropertyOp53
 70
     1
102
RTVSPropertyOp54
 70
     1
102
RTVSPropertyOp55
 70
     1
102
RTVSPropertyOp56
 70
     1
102
RTVSPropertyOp57
 70
     1
102
RTVSPropertyOp58
 70
     1
102
RTVSPropertyOp59
 70
     1
102
RTVSPropertyOp60
 70
     1
102
RTVSPropertyOp61
 70
     1
102
RTVSPropertyOp62
 70
     1
  0
XRECORD
  5
F2BA
102
{ACAD_REACTORS
330
F2B9
102
}
330
F2B9
100
AcDbXrecord
280
     1
102
RTVSPost2010Prop28
280
     0
102
RTVSPost2010PropOp28
 70
     1
102
RTVSPost2010Prop29
280
     1
102
RTVSPost2010PropOp29
 70
     1
102
RTVSPost2010Prop30
280
     1
102
RTVSPost2010PropOp30
 70
     1
102
RTVSPost2010Prop31
280
     0
102
RTVSPost2010PropOp31
 70
     1
102
RTVSPost2010Prop32
280
     0
102
RTVSPost2010PropOp32
 70
     1
102
RTVSPost2010Prop33
280
     0
102
RTVSPost2010PropOp33
 70
     1
102
RTVSPost2010Prop34
280
     0
102
RTVSPost2010PropOp34
 70
     1
102
RTVSPost2010Prop35
280
     0
102
RTVSPost2010PropOp35
 70
     1
102
RTVSPost2010Prop36
280
     0
102
RTVSPost2010PropOp36
 70
     1
102
RTVSPost2010Prop37
 90
       50
102
RTVSPost2010PropOp37
 70
     1
102
RTVSPost2010Prop38
140
0.0
102
RTVSPost2010PropOp38
 70
     1
102
RTVSPost2010Prop39
140
1.0
102
RTVSPost2010PropOp39
 70
     1
102
RTVSPost2010Prop40
 90
        0
102
RTVSPost2010PropOp40
 70
     1
102
RTVSPost2010Prop41ColorIndex
 90
       18
102
RTVSPost2010Prop41ColorRGB
 90
        0
102
RTVSPost2010PropOp41
 70
     1
102
RTVSPost2010Prop42
 90
       50
102
RTVSPost2010PropOp42
 70
     1
102
RTVSPost2010Prop43
 90
        3
102
RTVSPost2010PropOp43
 70
     1
102
RTVSPost2010Prop44ColorIndex
 90
        5
102
RTVSPost2010Prop44ColorRGB
 90
      255
102
RTVSPost2010PropOp44
 70
     1
102
RTVSPost2010Prop45
280
     0
102
RTVSPost2010PropOp45
 70
     1
102
RTVSPost2010Prop46
 90
       50
102
RTVSPost2010PropOp46
 70
     1
102
RTVSPost2010Prop47
 90
       50
102
RTVSPost2010PropOp47
 70
     1
102
RTVSPost2010Prop48
 90
       50
102
RTVSPost2010PropOp48
 70
     1
102
RTVSPost2010Prop49
280
     0
102
RTVSPost2010PropOp49
 70
     1
102
RTVSPost2010Prop50
 90
       50
102
RTVSPost2010PropOp50
 70
     1
102
RTVSPost2010Prop51ColorIndex
 90
      256
102
RTVSPost2010Prop51ColorRGB
 90
-16777216
102
RTVSPost2010PropOp51
 70
     0
102
RTVSPost2010Prop52
140
1.0
102
RTVSPost2010PropOp52
 70
     0
102
RTVSPost2010Prop53
 90
        2
102
RTVSPost2010PropOp53
 70
     1
102
RTVSPost2010Prop54
  1
strokes_ogs.tif
102
RTVSPost2010PropOp54
 70
     1
102
RTVSPost2010Prop55
280
     0
102
RTVSPost2010PropOp55
 70
     1
102
RTVSPost2010Prop56
140
1.0
102
RTVSPost2010PropOp56
 70
     1
102
RTVSPost2010Prop57
140
1.0
102
RTVSPost2010PropOp57
 70
     1
102
RTVSPropertyOp0
 70
     1
102
RTVSPropertyOp1
 70
     1
102
RTVSPropertyOp2
 70
     1
102
RTVSPropertyOp3
 70
     1
102
RTVSPropertyOp4
 70
     1
102
RTVSPropertyOp5
 70
     1
102
RTVSPropertyOp6
 70
     1
102
RTVSPropertyOp7
 70
     1
102
RTVSPropertyOp8
 70
     1
102
RTVSPropertyOp9
 70
     1
102
RTVSPropertyOp10
 70
     1
102
RTVSPropertyOp11
 70
     1
102
RTVSPropertyOp12
 70
     1
102
RTVSPropertyOp13
 70
     1
102
RTVSPropertyOp14
 70
     1
102
RTVSPropertyOp15
 70
     1
102
RTVSPropertyOp16
 70
     1
102
RTVSPropertyOp17
 70
     1
102
RTVSPropertyOp18
 70
     1
102
RTVSPropertyOp19
 70
     1
102
RTVSPropertyOp20
 70
     1
102
RTVSPropertyOp21
 70
     1
102
RTVSPropertyOp22
 70
     1
102
RTVSPropertyOp23
 70
     1
102
RTVSPropertyOp24
 70
     1
102
RTVSPropertyOp25
 70
     1
102
RTVSPropertyOp26
 70
     1
102
RTVSPropertyOp27
 70
     1
102
RTVSPropertyOp28
 70
     1
102
RTVSPropertyOp29
 70
     1
102
RTVSPropertyOp30
 70
     1
102
RTVSPropertyOp31
 70
     1
102
RTVSPropertyOp32
 70
     1
102
RTVSPropertyOp33
 70
     1
102
RTVSPropertyOp34
 70
     1
102
RTVSPropertyOp35
 70
     1
102
RTVSPropertyOp36
 70
     1
102
RTVSPropertyOp37
 70
     1
102
RTVSPropertyOp38
 70
     1
102
RTVSPropertyOp39
 70
     1
102
RTVSPropertyOp40
 70
     1
102
RTVSPropertyOp41
 70
     1
102
RTVSPropertyOp42
 70
     1
102
RTVSPropertyOp43
 70
     1
102
RTVSPropertyOp44
 70
     1
102
RTVSPropertyOp45
 70
     1
102
RTVSPropertyOp46
 70
     1
102
RTVSPropertyOp47
 70
     1
102
RTVSPropertyOp48
 70
     1
102
RTVSPropertyOp49
 70
     1
102
RTVSPropertyOp50
 70
     1
102
RTVSPropertyOp51
 70
     0
102
RTVSPropertyOp52
 70
     0
102
RTVSPropertyOp53
 70
     1
102
RTVSPropertyOp54
 70
     1
102
RTVSPropertyOp55
 70
     1
102
RTVSPropertyOp56
 70
     1
102
RTVSPropertyOp57
 70
     1
102
RTVSPropertyOp58
 70
     1
102
RTVSPropertyOp59
 70
     1
102
RTVSPropertyOp60
 70
     1
102
RTVSPropertyOp61
 70
     1
102
RTVSPropertyOp62
 70
     1
  0
XRECORD
  5
F2C2
102
{ACAD_REACTORS
330
F2C1
102
}
330
F2C1
100
AcDbXrecord
280
     1
102
RTVSPost2010Prop28
280
     0
102
RTVSPost2010PropOp28
 70
     1
102
RTVSPost2010Prop29
280
     1
102
RTVSPost2010PropOp29
 70
     1
102
RTVSPost2010Prop30
280
     1
102
RTVSPost2010PropOp30
 70
     1
102
RTVSPost2010Prop31
280
     0
102
RTVSPost2010PropOp31
 70
     1
102
RTVSPost2010Prop32
280
     0
102
RTVSPost2010PropOp32
 70
     1
102
RTVSPost2010Prop33
280
     0
102
RTVSPost2010PropOp33
 70
     1
102
RTVSPost2010Prop34
280
     0
102
RTVSPost2010PropOp34
 70
     1
102
RTVSPost2010Prop35
280
     0
102
RTVSPost2010PropOp35
 70
     1
102
RTVSPost2010Prop36
280
     0
102
RTVSPost2010PropOp36
 70
     1
102
RTVSPost2010Prop37
 90
       50
102
RTVSPost2010PropOp37
 70
     1
102
RTVSPost2010Prop38
140
0.0
102
RTVSPost2010PropOp38
 70
     1
102
RTVSPost2010Prop39
140
1.0
102
RTVSPost2010PropOp39
 70
     1
102
RTVSPost2010Prop40
 90
        0
102
RTVSPost2010PropOp40
 70
     1
102
RTVSPost2010Prop41ColorIndex
 90
       18
102
RTVSPost2010Prop41ColorRGB
 90
        0
102
RTVSPost2010PropOp41
 70
     1
102
RTVSPost2010Prop42
 90
       50
102
RTVSPost2010PropOp42
 70
     1
102
RTVSPost2010Prop43
 90
        3
102
RTVSPost2010PropOp43
 70
     1
102
RTVSPost2010Prop44ColorIndex
 90
        5
102
RTVSPost2010Prop44ColorRGB
 90
      255
102
RTVSPost2010PropOp44
 70
     1
102
RTVSPost2010Prop45
280
     0
102
RTVSPost2010PropOp45
 70
     1
102
RTVSPost2010Prop46
 90
       50
102
RTVSPost2010PropOp46
 70
     1
102
RTVSPost2010Prop47
 90
       50
102
RTVSPost2010PropOp47
 70
     1
102
RTVSPost2010Prop48
 90
       50
102
RTVSPost2010PropOp48
 70
     1
102
RTVSPost2010Prop49
280
     0
102
RTVSPost2010PropOp49
 70
     1
102
RTVSPost2010Prop50
 90
       50
102
RTVSPost2010PropOp50
 70
     1
102
RTVSPost2010Prop51ColorIndex
 90
      256
102
RTVSPost2010Prop51ColorRGB
 90
-16777216
102
RTVSPost2010PropOp51
 70
     0
102
RTVSPost2010Prop52
140
1.0
102
RTVSPost2010PropOp52
 70
     0
102
RTVSPost2010Prop53
 90
        2
102
RTVSPost2010PropOp53
 70
     1
102
RTVSPost2010Prop54
  1
strokes_ogs.tif
102
RTVSPost2010PropOp54
 70
     1
102
RTVSPost2010Prop55
280
     0
102
RTVSPost2010PropOp55
 70
     1
102
RTVSPost2010Prop56
140
1.0
102
RTVSPost2010PropOp56
 70
     1
102
RTVSPost2010Prop57
140
1.0
102
RTVSPost2010PropOp57
 70
     1
102
RTVSPropertyOp0
 70
     1
102
RTVSPropertyOp1
 70
     1
102
RTVSPropertyOp2
 70
     1
102
RTVSPropertyOp3
 70
     1
102
RTVSPropertyOp4
 70
     1
102
RTVSPropertyOp5
 70
     1
102
RTVSPropertyOp6
 70
     1
102
RTVSPropertyOp7
 70
     1
102
RTVSPropertyOp8
 70
     1
102
RTVSPropertyOp9
 70
     1
102
RTVSPropertyOp10
 70
     1
102
RTVSPropertyOp11
 70
     1
102
RTVSPropertyOp12
 70
     1
102
RTVSPropertyOp13
 70
     1
102
RTVSPropertyOp14
 70
     1
102
RTVSPropertyOp15
 70
     1
102
RTVSPropertyOp16
 70
     1
102
RTVSPropertyOp17
 70
     1
102
RTVSPropertyOp18
 70
     1
102
RTVSPropertyOp19
 70
     1
102
RTVSPropertyOp20
 70
     1
102
RTVSPropertyOp21
 70
     1
102
RTVSPropertyOp22
 70
     1
102
RTVSPropertyOp23
 70
     1
102
RTVSPropertyOp24
 70
     1
102
RTVSPropertyOp25
 70
     1
102
RTVSPropertyOp26
 70
     1
102
RTVSPropertyOp27
 70
     1
102
RTVSPropertyOp28
 70
     1
102
RTVSPropertyOp29
 70
     1
102
RTVSPropertyOp30
 70
     1
102
RTVSPropertyOp31
 70
     1
102
RTVSPropertyOp32
 70
     1
102
RTVSPropertyOp33
 70
     1
102
RTVSPropertyOp34
 70
     1
102
RTVSPropertyOp35
 70
     1
102
RTVSPropertyOp36
 70
     1
102
RTVSPropertyOp37
 70
     1
102
RTVSPropertyOp38
 70
     1
102
RTVSPropertyOp39
 70
     1
102
RTVSPropertyOp40
 70
     1
102
RTVSPropertyOp41
 70
     1
102
RTVSPropertyOp42
 70
     1
102
RTVSPropertyOp43
 70
     1
102
RTVSPropertyOp44
 70
     1
102
RTVSPropertyOp45
 70
     1
102
RTVSPropertyOp46
 70
     1
102
RTVSPropertyOp47
 70
     1
102
RTVSPropertyOp48
 70
     1
102
RTVSPropertyOp49
 70
     1
102
RTVSPropertyOp50
 70
     1
102
RTVSPropertyOp51
 70
     0
102
RTVSPropertyOp52
 70
     0
102
RTVSPropertyOp53
 70
     1
102
RTVSPropertyOp54
 70
     1
102
RTVSPropertyOp55
 70
     1
102
RTVSPropertyOp56
 70
     1
102
RTVSPropertyOp57
 70
     1
102
RTVSPropertyOp58
 70
     1
102
RTVSPropertyOp59
 70
     1
102
RTVSPropertyOp60
 70
     1
102
RTVSPropertyOp61
 70
     1
102
RTVSPropertyOp62
 70
     1
  0
XRECORD
  5
F2B4
102
{ACAD_REACTORS
330
F2B3
102
}
330
F2B3
100
AcDbXrecord
280
     1
102
RTVSPost2010Prop28
280
     0
102
RTVSPost2010PropOp28
 70
     1
102
RTVSPost2010Prop29
280
     1
102
RTVSPost2010PropOp29
 70
     1
102
RTVSPost2010Prop30
280
     1
102
RTVSPost2010PropOp30
 70
     1
102
RTVSPost2010Prop31
280
     0
102
RTVSPost2010PropOp31
 70
     1
102
RTVSPost2010Prop32
280
     0
102
RTVSPost2010PropOp32
 70
     1
102
RTVSPost2010Prop33
280
     0
102
RTVSPost2010PropOp33
 70
     1
102
RTVSPost2010Prop34
280
     0
102
RTVSPost2010PropOp34
 70
     1
102
RTVSPost2010Prop35
280
     0
102
RTVSPost2010PropOp35
 70
     1
102
RTVSPost2010Prop36
280
     0
102
RTVSPost2010PropOp36
 70
     1
102
RTVSPost2010Prop37
 90
       50
102
RTVSPost2010PropOp37
 70
     1
102
RTVSPost2010Prop38
140
0.0
102
RTVSPost2010PropOp38
 70
     1
102
RTVSPost2010Prop39
140
1.0
102
RTVSPost2010PropOp39
 70
     1
102
RTVSPost2010Prop40
 90
        0
102
RTVSPost2010PropOp40
 70
     1
102
RTVSPost2010Prop41ColorIndex
 90
       18
102
RTVSPost2010Prop41ColorRGB
 90
        0
102
RTVSPost2010PropOp41
 70
     1
102
RTVSPost2010Prop42
 90
       50
102
RTVSPost2010PropOp42
 70
     1
102
RTVSPost2010Prop43
 90
        3
102
RTVSPost2010PropOp43
 70
     1
102
RTVSPost2010Prop44ColorIndex
 90
        5
102
RTVSPost2010Prop44ColorRGB
 90
      255
102
RTVSPost2010PropOp44
 70
     1
102
RTVSPost2010Prop45
280
     0
102
RTVSPost2010PropOp45
 70
     1
102
RTVSPost2010Prop46
 90
       50
102
RTVSPost2010PropOp46
 70
     1
102
RTVSPost2010Prop47
 90
       50
102
RTVSPost2010PropOp47
 70
     1
102
RTVSPost2010Prop48
 90
       50
102
RTVSPost2010PropOp48
 70
     1
102
RTVSPost2010Prop49
280
     0
102
RTVSPost2010PropOp49
 70
     1
102
RTVSPost2010Prop50
 90
       50
102
RTVSPost2010PropOp50
 70
     1
102
RTVSPost2010Prop51ColorIndex
 90
      256
102
RTVSPost2010Prop51ColorRGB
 90
-16777216
102
RTVSPost2010PropOp51
 70
     0
102
RTVSPost2010Prop52
140
1.0
102
RTVSPost2010PropOp52
 70
     0
102
RTVSPost2010Prop53
 90
        2
102
RTVSPost2010PropOp53
 70
     1
102
RTVSPost2010Prop54
  1
strokes_ogs.tif
102
RTVSPost2010PropOp54
 70
     1
102
RTVSPost2010Prop55
280
     0
102
RTVSPost2010PropOp55
 70
     1
102
RTVSPost2010Prop56
140
1.0
102
RTVSPost2010PropOp56
 70
     1
102
RTVSPost2010Prop57
140
1.0
102
RTVSPost2010PropOp57
 70
     1
102
RTVSPropertyOp0
 70
     1
102
RTVSPropertyOp1
 70
     1
102
RTVSPropertyOp2
 70
     1
102
RTVSPropertyOp3
 70
     1
102
RTVSPropertyOp4
 70
     1
102
RTVSPropertyOp5
 70
     1
102
RTVSPropertyOp6
 70
     1
102
RTVSPropertyOp7
 70
     1
102
RTVSPropertyOp8
 70
     1
102
RTVSPropertyOp9
 70
     1
102
RTVSPropertyOp10
 70
     1
102
RTVSPropertyOp11
 70
     1
102
RTVSPropertyOp12
 70
     1
102
RTVSPropertyOp13
 70
     1
102
RTVSPropertyOp14
 70
     1
102
RTVSPropertyOp15
 70
     1
102
RTVSPropertyOp16
 70
     1
102
RTVSPropertyOp17
 70
     1
102
RTVSPropertyOp18
 70
     1
102
RTVSPropertyOp19
 70
     1
102
RTVSPropertyOp20
 70
     1
102
RTVSPropertyOp21
 70
     1
102
RTVSPropertyOp22
 70
     1
102
RTVSPropertyOp23
 70
     1
102
RTVSPropertyOp24
 70
     1
102
RTVSPropertyOp25
 70
     1
102
RTVSPropertyOp26
 70
     1
102
RTVSPropertyOp27
 70
     1
102
RTVSPropertyOp28
 70
     1
102
RTVSPropertyOp29
 70
     1
102
RTVSPropertyOp30
 70
     1
102
RTVSPropertyOp31
 70
     1
102
RTVSPropertyOp32
 70
     1
102
RTVSPropertyOp33
 70
     1
102
RTVSPropertyOp34
 70
     1
102
RTVSPropertyOp35
 70
     1
102
RTVSPropertyOp36
 70
     1
102
RTVSPropertyOp37
 70
     1
102
RTVSPropertyOp38
 70
     1
102
RTVSPropertyOp39
 70
     1
102
RTVSPropertyOp40
 70
     1
102
RTVSPropertyOp41
 70
     1
102
RTVSPropertyOp42
 70
     1
102
RTVSPropertyOp43
 70
     1
102
RTVSPropertyOp44
 70
     1
102
RTVSPropertyOp45
 70
     1
102
RTVSPropertyOp46
 70
     1
102
RTVSPropertyOp47
 70
     1
102
RTVSPropertyOp48
 70
     1
102
RTVSPropertyOp49
 70
     1
102
RTVSPropertyOp50
 70
     1
102
RTVSPropertyOp51
 70
     0
102
RTVSPropertyOp52
 70
     0
102
RTVSPropertyOp53
 70
     1
102
RTVSPropertyOp54
 70
     1
102
RTVSPropertyOp55
 70
     1
102
RTVSPropertyOp56
 70
     1
102
RTVSPropertyOp57
 70
     1
102
RTVSPropertyOp58
 70
     1
102
RTVSPropertyOp59
 70
     1
102
RTVSPropertyOp60
 70
     1
102
RTVSPropertyOp61
 70
     1
102
RTVSPropertyOp62
 70
     1
  0
XRECORD
  5
F2B8
102
{ACAD_REACTORS
330
F2B7
102
}
330
F2B7
100
AcDbXrecord
280
     1
102
RTVSPost2010Prop28
280
     0
102
RTVSPost2010PropOp28
 70
     1
102
RTVSPost2010Prop29
280
     1
102
RTVSPost2010PropOp29
 70
     1
102
RTVSPost2010Prop30
280
     1
102
RTVSPost2010PropOp30
 70
     1
102
RTVSPost2010Prop31
280
     0
102
RTVSPost2010PropOp31
 70
     1
102
RTVSPost2010Prop32
280
     0
102
RTVSPost2010PropOp32
 70
     1
102
RTVSPost2010Prop33
280
     0
102
RTVSPost2010PropOp33
 70
     1
102
RTVSPost2010Prop34
280
     0
102
RTVSPost2010PropOp34
 70
     1
102
RTVSPost2010Prop35
280
     0
102
RTVSPost2010PropOp35
 70
     1
102
RTVSPost2010Prop36
280
     0
102
RTVSPost2010PropOp36
 70
     1
102
RTVSPost2010Prop37
 90
       50
102
RTVSPost2010PropOp37
 70
     1
102
RTVSPost2010Prop38
140
0.0
102
RTVSPost2010PropOp38
 70
     1
102
RTVSPost2010Prop39
140
1.0
102
RTVSPost2010PropOp39
 70
     1
102
RTVSPost2010Prop40
 90
        0
102
RTVSPost2010PropOp40
 70
     1
102
RTVSPost2010Prop41ColorIndex
 90
       18
102
RTVSPost2010Prop41ColorRGB
 90
        0
102
RTVSPost2010PropOp41
 70
     1
102
RTVSPost2010Prop42
 90
       50
102
RTVSPost2010PropOp42
 70
     1
102
RTVSPost2010Prop43
 90
        3
102
RTVSPost2010PropOp43
 70
     1
102
RTVSPost2010Prop44ColorIndex
 90
        5
102
RTVSPost2010Prop44ColorRGB
 90
      255
102
RTVSPost2010PropOp44
 70
     1
102
RTVSPost2010Prop45
280
     0
102
RTVSPost2010PropOp45
 70
     1
102
RTVSPost2010Prop46
 90
       50
102
RTVSPost2010PropOp46
 70
     1
102
RTVSPost2010Prop47
 90
       50
102
RTVSPost2010PropOp47
 70
     1
102
RTVSPost2010Prop48
 90
       50
102
RTVSPost2010PropOp48
 70
     1
102
RTVSPost2010Prop49
280
     0
102
RTVSPost2010PropOp49
 70
     1
102
RTVSPost2010Prop50
 90
       50
102
RTVSPost2010PropOp50
 70
     1
102
RTVSPost2010Prop51ColorIndex
 90
      256
102
RTVSPost2010Prop51ColorRGB
 90
-16777216
102
RTVSPost2010PropOp51
 70
     0
102
RTVSPost2010Prop52
140
1.0
102
RTVSPost2010PropOp52
 70
     0
102
RTVSPost2010Prop53
 90
        2
102
RTVSPost2010PropOp53
 70
     1
102
RTVSPost2010Prop54
  1
strokes_ogs.tif
102
RTVSPost2010PropOp54
 70
     1
102
RTVSPost2010Prop55
280
     0
102
RTVSPost2010PropOp55
 70
     1
102
RTVSPost2010Prop56
140
1.0
102
RTVSPost2010PropOp56
 70
     1
102
RTVSPost2010Prop57
140
1.0
102
RTVSPost2010PropOp57
 70
     1
102
RTVSPropertyOp0
 70
     1
102
RTVSPropertyOp1
 70
     1
102
RTVSPropertyOp2
 70
     1
102
RTVSPropertyOp3
 70
     1
102
RTVSPropertyOp4
 70
     1
102
RTVSPropertyOp5
 70
     1
102
RTVSPropertyOp6
 70
     1
102
RTVSPropertyOp7
 70
     1
102
RTVSPropertyOp8
 70
     1
102
RTVSPropertyOp9
 70
     1
102
RTVSPropertyOp10
 70
     1
102
RTVSPropertyOp11
 70
     1
102
RTVSPropertyOp12
 70
     1
102
RTVSPropertyOp13
 70
     1
102
RTVSPropertyOp14
 70
     1
102
RTVSPropertyOp15
 70
     1
102
RTVSPropertyOp16
 70
     1
102
RTVSPropertyOp17
 70
     1
102
RTVSPropertyOp18
 70
     1
102
RTVSPropertyOp19
 70
     1
102
RTVSPropertyOp20
 70
     1
102
RTVSPropertyOp21
 70
     1
102
RTVSPropertyOp22
 70
     1
102
RTVSPropertyOp23
 70
     1
102
RTVSPropertyOp24
 70
     1
102
RTVSPropertyOp25
 70
     1
102
RTVSPropertyOp26
 70
     1
102
RTVSPropertyOp27
 70
     1
102
RTVSPropertyOp28
 70
     1
102
RTVSPropertyOp29
 70
     1
102
RTVSPropertyOp30
 70
     1
102
RTVSPropertyOp31
 70
     1
102
RTVSPropertyOp32
 70
     1
102
RTVSPropertyOp33
 70
     1
102
RTVSPropertyOp34
 70
     1
102
RTVSPropertyOp35
 70
     1
102
RTVSPropertyOp36
 70
     1
102
RTVSPropertyOp37
 70
     1
102
RTVSPropertyOp38
 70
     1
102
RTVSPropertyOp39
 70
     1
102
RTVSPropertyOp40
 70
     1
102
RTVSPropertyOp41
 70
     1
102
RTVSPropertyOp42
 70
     1
102
RTVSPropertyOp43
 70
     1
102
RTVSPropertyOp44
 70
     1
102
RTVSPropertyOp45
 70
     1
102
RTVSPropertyOp46
 70
     1
102
RTVSPropertyOp47
 70
     1
102
RTVSPropertyOp48
 70
     1
102
RTVSPropertyOp49
 70
     1
102
RTVSPropertyOp50
 70
     1
102
RTVSPropertyOp51
 70
     0
102
RTVSPropertyOp52
 70
     0
102
RTVSPropertyOp53
 70
     1
102
RTVSPropertyOp54
 70
     1
102
RTVSPropertyOp55
 70
     1
102
RTVSPropertyOp56
 70
     1
102
RTVSPropertyOp57
 70
     1
102
RTVSPropertyOp58
 70
     1
102
RTVSPropertyOp59
 70
     1
102
RTVSPropertyOp60
 70
     1
102
RTVSPropertyOp61
 70
     1
102
RTVSPropertyOp62
 70
     1
  0
XRECORD
  5
F2D2
102
{ACAD_REACTORS
330
F2D1
102
}
330
F2D1
100
AcDbXrecord
280
     1
102
RTVSPost2010Prop28
280
     0
102
RTVSPost2010PropOp28
 70
     1
102
RTVSPost2010Prop29
280
     1
102
RTVSPost2010PropOp29
 70
     1
102
RTVSPost2010Prop30
280
     1
102
RTVSPost2010PropOp30
 70
     1
102
RTVSPost2010Prop31
280
     0
102
RTVSPost2010PropOp31
 70
     1
102
RTVSPost2010Prop32
280
     0
102
RTVSPost2010PropOp32
 70
     1
102
RTVSPost2010Prop33
280
     0
102
RTVSPost2010PropOp33
 70
     1
102
RTVSPost2010Prop34
280
     0
102
RTVSPost2010PropOp34
 70
     1
102
RTVSPost2010Prop35
280
     0
102
RTVSPost2010PropOp35
 70
     1
102
RTVSPost2010Prop36
280
     0
102
RTVSPost2010PropOp36
 70
     1
102
RTVSPost2010Prop37
 90
       50
102
RTVSPost2010PropOp37
 70
     0
102
RTVSPost2010Prop38
140
0.0
102
RTVSPost2010PropOp38
 70
     0
102
RTVSPost2010Prop39
140
1.0
102
RTVSPost2010PropOp39
 70
     0
102
RTVSPost2010Prop40
 90
        0
102
RTVSPost2010PropOp40
 70
     0
102
RTVSPost2010Prop41ColorIndex
 90
       18
102
RTVSPost2010Prop41ColorRGB
 90
        0
102
RTVSPost2010PropOp41
 70
     0
102
RTVSPost2010Prop42
 90
       50
102
RTVSPost2010PropOp42
 70
     0
102
RTVSPost2010Prop43
 90
        3
102
RTVSPost2010PropOp43
 70
     0
102
RTVSPost2010Prop44ColorIndex
 90
        5
102
RTVSPost2010Prop44ColorRGB
 90
      255
102
RTVSPost2010PropOp44
 70
     0
102
RTVSPost2010Prop45
280
     0
102
RTVSPost2010PropOp45
 70
     1
102
RTVSPost2010Prop46
 90
       50
102
RTVSPost2010PropOp46
 70
     0
102
RTVSPost2010Prop47
 90
       50
102
RTVSPost2010PropOp47
 70
     0
102
RTVSPost2010Prop48
 90
       50
102
RTVSPost2010PropOp48
 70
     0
102
RTVSPost2010Prop49
280
     0
102
RTVSPost2010PropOp49
 70
     1
102
RTVSPost2010Prop50
 90
       50
102
RTVSPost2010PropOp50
 70
     0
102
RTVSPost2010Prop51ColorIndex
 90
      256
102
RTVSPost2010Prop51ColorRGB
 90
-16777216
102
RTVSPost2010PropOp51
 70
     0
102
RTVSPost2010Prop52
140
1.0
102
RTVSPost2010PropOp52
 70
     0
102
RTVSPost2010Prop53
 90
        2
102
RTVSPost2010PropOp53
 70
     0
102
RTVSPost2010Prop54
  1
strokes_ogs.tif
102
RTVSPost2010PropOp54
 70
     0
102
RTVSPost2010Prop55
280
     0
102
RTVSPost2010PropOp55
 70
     1
102
RTVSPost2010Prop56
140
1.0
102
RTVSPost2010PropOp56
 70
     0
102
RTVSPost2010Prop57
140
1.0
102
RTVSPost2010PropOp57
 70
     0
102
RTVSPropertyOp0
 70
     0
102
RTVSPropertyOp1
 70
     0
102
RTVSPropertyOp2
 70
     0
102
RTVSPropertyOp3
 70
     0
102
RTVSPropertyOp4
 70
     0
102
RTVSPropertyOp5
 70
     0
102
RTVSPropertyOp6
 70
     0
102
RTVSPropertyOp7
 70
     0
102
RTVSPropertyOp8
 70
     0
102
RTVSPropertyOp9
 70
     0
102
RTVSPropertyOp10
 70
     0
102
RTVSPropertyOp11
 70
     0
102
RTVSPropertyOp12
 70
     0
102
RTVSPropertyOp13
 70
     0
102
RTVSPropertyOp14
 70
     2
102
RTVSPropertyOp15
 70
     0
102
RTVSPropertyOp16
 70
     0
102
RTVSPropertyOp17
 70
     0
102
RTVSPropertyOp18
 70
     0
102
RTVSPropertyOp19
 70
     0
102
RTVSPropertyOp20
 70
     0
102
RTVSPropertyOp21
 70
     0
102
RTVSPropertyOp22
 70
     0
102
RTVSPropertyOp23
 70
     0
102
RTVSPropertyOp24
 70
     0
102
RTVSPropertyOp25
 70
     0
102
RTVSPropertyOp26
 70
     0
102
RTVSPropertyOp27
 70
     0
102
RTVSPropertyOp28
 70
     1
102
RTVSPropertyOp29
 70
     1
102
RTVSPropertyOp30
 70
     1
102
RTVSPropertyOp31
 70
     1
102
RTVSPropertyOp32
 70
     1
102
RTVSPropertyOp33
 70
     1
102
RTVSPropertyOp34
 70
     1
102
RTVSPropertyOp35
 70
     1
102
RTVSPropertyOp36
 70
     1
102
RTVSPropertyOp37
 70
     0
102
RTVSPropertyOp38
 70
     0
102
RTVSPropertyOp39
 70
     0
102
RTVSPropertyOp40
 70
     0
102
RTVSPropertyOp41
 70
     0
102
RTVSPropertyOp42
 70
     0
102
RTVSPropertyOp43
 70
     0
102
RTVSPropertyOp44
 70
     0
102
RTVSPropertyOp45
 70
     1
102
RTVSPropertyOp46
 70
     0
102
RTVSPropertyOp47
 70
     0
102
RTVSPropertyOp48
 70
     0
102
RTVSPropertyOp49
 70
     1
102
RTVSPropertyOp50
 70
     0
102
RTVSPropertyOp51
 70
     0
102
RTVSPropertyOp52
 70
     0
102
RTVSPropertyOp53
 70
     0
102
RTVSPropertyOp54
 70
     0
102
RTVSPropertyOp55
 70
     1
102
RTVSPropertyOp56
 70
     0
102
RTVSPropertyOp57
 70
     0
102
RTVSPropertyOp58
 70
     0
102
RTVSPropertyOp59
 70
     0
102
RTVSPropertyOp60
 70
     0
102
RTVSPropertyOp61
 70
     0
102
RTVSPropertyOp62
 70
     0
  0
XRECORD
  5
F2C0
102
{ACAD_REACTORS
330
F2BF
102
}
330
F2BF
100
AcDbXrecord
280
     1
102
RTVSPost2010Prop28
280
     0
102
RTVSPost2010PropOp28
 70
     1
102
RTVSPost2010Prop29
280
     1
102
RTVSPost2010PropOp29
 70
     1
102
RTVSPost2010Prop30
280
     1
102
RTVSPost2010PropOp30
 70
     1
102
RTVSPost2010Prop31
280
     0
102
RTVSPost2010PropOp31
 70
     1
102
RTVSPost2010Prop32
280
     0
102
RTVSPost2010PropOp32
 70
     1
102
RTVSPost2010Prop33
280
     0
102
RTVSPost2010PropOp33
 70
     1
102
RTVSPost2010Prop34
280
     0
102
RTVSPost2010PropOp34
 70
     1
102
RTVSPost2010Prop35
280
     0
102
RTVSPost2010PropOp35
 70
     1
102
RTVSPost2010Prop36
280
     0
102
RTVSPost2010PropOp36
 70
     1
102
RTVSPost2010Prop37
 90
       50
102
RTVSPost2010PropOp37
 70
     1
102
RTVSPost2010Prop38
140
0.0
102
RTVSPost2010PropOp38
 70
     1
102
RTVSPost2010Prop39
140
1.0
102
RTVSPost2010PropOp39
 70
     1
102
RTVSPost2010Prop40
 90
        0
102
RTVSPost2010PropOp40
 70
     1
102
RTVSPost2010Prop41ColorIndex
 90
       18
102
RTVSPost2010Prop41ColorRGB
 90
        0
102
RTVSPost2010PropOp41
 70
     1
102
RTVSPost2010Prop42
 90
       50
102
RTVSPost2010PropOp42
 70
     1
102
RTVSPost2010Prop43
 90
        3
102
RTVSPost2010PropOp43
 70
     1
102
RTVSPost2010Prop44ColorIndex
 90
        5
102
RTVSPost2010Prop44ColorRGB
 90
      255
102
RTVSPost2010PropOp44
 70
     1
102
RTVSPost2010Prop45
280
     0
102
RTVSPost2010PropOp45
 70
     1
102
RTVSPost2010Prop46
 90
       50
102
RTVSPost2010PropOp46
 70
     1
102
RTVSPost2010Prop47
 90
       50
102
RTVSPost2010PropOp47
 70
     1
102
RTVSPost2010Prop48
 90
       50
102
RTVSPost2010PropOp48
 70
     1
102
RTVSPost2010Prop49
280
     0
102
RTVSPost2010PropOp49
 70
     1
102
RTVSPost2010Prop50
 90
       50
102
RTVSPost2010PropOp50
 70
     1
102
RTVSPost2010Prop51ColorIndex
 90
      256
102
RTVSPost2010Prop51ColorRGB
 90
-16777216
102
RTVSPost2010PropOp51
 70
     0
102
RTVSPost2010Prop52
140
1.0
102
RTVSPost2010PropOp52
 70
     0
102
RTVSPost2010Prop53
 90
        2
102
RTVSPost2010PropOp53
 70
     1
102
RTVSPost2010Prop54
  1
strokes_ogs.tif
102
RTVSPost2010PropOp54
 70
     1
102
RTVSPost2010Prop55
280
     0
102
RTVSPost2010PropOp55
 70
     1
102
RTVSPost2010Prop56
140
1.0
102
RTVSPost2010PropOp56
 70
     1
102
RTVSPost2010Prop57
140
1.0
102
RTVSPost2010PropOp57
 70
     1
102
RTVSPropertyOp0
 70
     1
102
RTVSPropertyOp1
 70
     1
102
RTVSPropertyOp2
 70
     1
102
RTVSPropertyOp3
 70
     1
102
RTVSPropertyOp4
 70
     1
102
RTVSPropertyOp5
 70
     1
102
RTVSPropertyOp6
 70
     1
102
RTVSPropertyOp7
 70
     1
102
RTVSPropertyOp8
 70
     1
102
RTVSPropertyOp9
 70
     1
102
RTVSPropertyOp10
 70
     1
102
RTVSPropertyOp11
 70
     1
102
RTVSPropertyOp12
 70
     1
102
RTVSPropertyOp13
 70
     1
102
RTVSPropertyOp14
 70
     1
102
RTVSPropertyOp15
 70
     1
102
RTVSPropertyOp16
 70
     1
102
RTVSPropertyOp17
 70
     1
102
RTVSPropertyOp18
 70
     1
102
RTVSPropertyOp19
 70
     1
102
RTVSPropertyOp20
 70
     1
102
RTVSPropertyOp21
 70
     1
102
RTVSPropertyOp22
 70
     1
102
RTVSPropertyOp23
 70
     1
102
RTVSPropertyOp24
 70
     1
102
RTVSPropertyOp25
 70
     1
102
RTVSPropertyOp26
 70
     1
102
RTVSPropertyOp27
 70
     1
102
RTVSPropertyOp28
 70
     1
102
RTVSPropertyOp29
 70
     1
102
RTVSPropertyOp30
 70
     1
102
RTVSPropertyOp31
 70
     1
102
RTVSPropertyOp32
 70
     1
102
RTVSPropertyOp33
 70
     1
102
RTVSPropertyOp34
 70
     1
102
RTVSPropertyOp35
 70
     1
102
RTVSPropertyOp36
 70
     1
102
RTVSPropertyOp37
 70
     1
102
RTVSPropertyOp38
 70
     1
102
RTVSPropertyOp39
 70
     1
102
RTVSPropertyOp40
 70
     1
102
RTVSPropertyOp41
 70
     1
102
RTVSPropertyOp42
 70
     1
102
RTVSPropertyOp43
 70
     1
102
RTVSPropertyOp44
 70
     1
102
RTVSPropertyOp45
 70
     1
102
RTVSPropertyOp46
 70
     1
102
RTVSPropertyOp47
 70
     1
102
RTVSPropertyOp48
 70
     1
102
RTVSPropertyOp49
 70
     1
102
RTVSPropertyOp50
 70
     1
102
RTVSPropertyOp51
 70
     0
102
RTVSPropertyOp52
 70
     0
102
RTVSPropertyOp53
 70
     1
102
RTVSPropertyOp54
 70
     1
102
RTVSPropertyOp55
 70
     1
102
RTVSPropertyOp56
 70
     1
102
RTVSPropertyOp57
 70
     1
102
RTVSPropertyOp58
 70
     1
102
RTVSPropertyOp59
 70
     1
102
RTVSPropertyOp60
 70
     1
102
RTVSPropertyOp61
 70
     1
102
RTVSPropertyOp62
 70
     1
  0
XRECORD
  5
F2A4
102
{ACAD_REACTORS
330
F2A3
102
}
330
F2A3
100
AcDbXrecord
280
     1
102
RTVSPost2010Prop28
280
     0
102
RTVSPost2010PropOp28
 70
     1
102
RTVSPost2010Prop29
280
     1
102
RTVSPost2010PropOp29
 70
     1
102
RTVSPost2010Prop30
280
     1
102
RTVSPost2010PropOp30
 70
     1
102
RTVSPost2010Prop31
280
     0
102
RTVSPost2010PropOp31
 70
     1
102
RTVSPost2010Prop32
280
     0
102
RTVSPost2010PropOp32
 70
     1
102
RTVSPost2010Prop33
280
     0
102
RTVSPost2010PropOp33
 70
     1
102
RTVSPost2010Prop34
280
     0
102
RTVSPost2010PropOp34
 70
     1
102
RTVSPost2010Prop35
280
     0
102
RTVSPost2010PropOp35
 70
     1
102
RTVSPost2010Prop36
280
     0
102
RTVSPost2010PropOp36
 70
     1
102
RTVSPost2010Prop37
 90
       50
102
RTVSPost2010PropOp37
 70
     1
102
RTVSPost2010Prop38
140
0.0
102
RTVSPost2010PropOp38
 70
     1
102
RTVSPost2010Prop39
140
1.0
102
RTVSPost2010PropOp39
 70
     1
102
RTVSPost2010Prop40
 90
        0
102
RTVSPost2010PropOp40
 70
     1
102
RTVSPost2010Prop41ColorIndex
 90
       18
102
RTVSPost2010Prop41ColorRGB
 90
        0
102
RTVSPost2010PropOp41
 70
     1
102
RTVSPost2010Prop42
 90
       50
102
RTVSPost2010PropOp42
 70
     1
102
RTVSPost2010Prop43
 90
        3
102
RTVSPost2010PropOp43
 70
     1
102
RTVSPost2010Prop44ColorIndex
 90
        5
102
RTVSPost2010Prop44ColorRGB
 90
      255
102
RTVSPost2010PropOp44
 70
     1
102
RTVSPost2010Prop45
280
     0
102
RTVSPost2010PropOp45
 70
     1
102
RTVSPost2010Prop46
 90
       50
102
RTVSPost2010PropOp46
 70
     1
102
RTVSPost2010Prop47
 90
       50
102
RTVSPost2010PropOp47
 70
     1
102
RTVSPost2010Prop48
 90
       50
102
RTVSPost2010PropOp48
 70
     1
102
RTVSPost2010Prop49
280
     0
102
RTVSPost2010PropOp49
 70
     1
102
RTVSPost2010Prop50
 90
       50
102
RTVSPost2010PropOp50
 70
     1
102
RTVSPost2010Prop51ColorIndex
 90
      256
102
RTVSPost2010Prop51ColorRGB
 90
-16777216
102
RTVSPost2010PropOp51
 70
     0
102
RTVSPost2010Prop52
140
1.0
102
RTVSPost2010PropOp52
 70
     0
102
RTVSPost2010Prop53
 90
        2
102
RTVSPost2010PropOp53
 70
     1
102
RTVSPost2010Prop54
  1
strokes_ogs.tif
102
RTVSPost2010PropOp54
 70
     1
102
RTVSPost2010Prop55
280
     0
102
RTVSPost2010PropOp55
 70
     1
102
RTVSPost2010Prop56
140
1.0
102
RTVSPost2010PropOp56
 70
     1
102
RTVSPost2010Prop57
140
1.0
102
RTVSPost2010PropOp57
 70
     1
102
RTVSPropertyOp0
 70
     1
102
RTVSPropertyOp1
 70
     1
102
RTVSPropertyOp2
 70
     1
102
RTVSPropertyOp3
 70
     1
102
RTVSPropertyOp4
 70
     1
102
RTVSPropertyOp5
 70
     1
102
RTVSPropertyOp6
 70
     1
102
RTVSPropertyOp7
 70
     1
102
RTVSPropertyOp8
 70
     1
102
RTVSPropertyOp9
 70
     1
102
RTVSPropertyOp10
 70
     1
102
RTVSPropertyOp11
 70
     1
102
RTVSPropertyOp12
 70
     1
102
RTVSPropertyOp13
 70
     1
102
RTVSPropertyOp14
 70
     1
102
RTVSPropertyOp15
 70
     1
102
RTVSPropertyOp16
 70
     1
102
RTVSPropertyOp17
 70
     1
102
RTVSPropertyOp18
 70
     1
102
RTVSPropertyOp19
 70
     1
102
RTVSPropertyOp20
 70
     1
102
RTVSPropertyOp21
 70
     1
102
RTVSPropertyOp22
 70
     1
102
RTVSPropertyOp23
 70
     1
102
RTVSPropertyOp24
 70
     1
102
RTVSPropertyOp25
 70
     1
102
RTVSPropertyOp26
 70
     1
102
RTVSPropertyOp27
 70
     1
102
RTVSPropertyOp28
 70
     1
102
RTVSPropertyOp29
 70
     1
102
RTVSPropertyOp30
 70
     1
102
RTVSPropertyOp31
 70
     1
102
RTVSPropertyOp32
 70
     1
102
RTVSPropertyOp33
 70
     1
102
RTVSPropertyOp34
 70
     1
102
RTVSPropertyOp35
 70
     1
102
RTVSPropertyOp36
 70
     1
102
RTVSPropertyOp37
 70
     1
102
RTVSPropertyOp38
 70
     1
102
RTVSPropertyOp39
 70
     1
102
RTVSPropertyOp40
 70
     1
102
RTVSPropertyOp41
 70
     1
102
RTVSPropertyOp42
 70
     1
102
RTVSPropertyOp43
 70
     1
102
RTVSPropertyOp44
 70
     1
102
RTVSPropertyOp45
 70
     1
102
RTVSPropertyOp46
 70
     1
102
RTVSPropertyOp47
 70
     1
102
RTVSPropertyOp48
 70
     1
102
RTVSPropertyOp49
 70
     1
102
RTVSPropertyOp50
 70
     1
102
RTVSPropertyOp51
 70
     0
102
RTVSPropertyOp52
 70
     0
102
RTVSPropertyOp53
 70
     1
102
RTVSPropertyOp54
 70
     1
102
RTVSPropertyOp55
 70
     1
102
RTVSPropertyOp56
 70
     1
102
RTVSPropertyOp57
 70
     1
102
RTVSPropertyOp58
 70
     1
102
RTVSPropertyOp59
 70
     1
102
RTVSPropertyOp60
 70
     1
102
RTVSPropertyOp61
 70
     1
102
RTVSPropertyOp62
 70
     1
  0
XRECORD
  5
F2A6
102
{ACAD_REACTORS
330
F2A5
102
}
330
F2A5
100
AcDbXrecord
280
     1
102
RTVSPost2010Prop28
280
     0
102
RTVSPost2010PropOp28
 70
     1
102
RTVSPost2010Prop29
280
     1
102
RTVSPost2010PropOp29
 70
     1
102
RTVSPost2010Prop30
280
     1
102
RTVSPost2010PropOp30
 70
     1
102
RTVSPost2010Prop31
280
     0
102
RTVSPost2010PropOp31
 70
     1
102
RTVSPost2010Prop32
280
     0
102
RTVSPost2010PropOp32
 70
     1
102
RTVSPost2010Prop33
280
     0
102
RTVSPost2010PropOp33
 70
     1
102
RTVSPost2010Prop34
280
     0
102
RTVSPost2010PropOp34
 70
     1
102
RTVSPost2010Prop35
280
     0
102
RTVSPost2010PropOp35
 70
     1
102
RTVSPost2010Prop36
280
     0
102
RTVSPost2010PropOp36
 70
     1
102
RTVSPost2010Prop37
 90
       50
102
RTVSPost2010PropOp37
 70
     1
102
RTVSPost2010Prop38
140
0.0
102
RTVSPost2010PropOp38
 70
     1
102
RTVSPost2010Prop39
140
1.0
102
RTVSPost2010PropOp39
 70
     1
102
RTVSPost2010Prop40
 90
        0
102
RTVSPost2010PropOp40
 70
     1
102
RTVSPost2010Prop41ColorIndex
 90
       18
102
RTVSPost2010Prop41ColorRGB
 90
        0
102
RTVSPost2010PropOp41
 70
     1
102
RTVSPost2010Prop42
 90
       50
102
RTVSPost2010PropOp42
 70
     1
102
RTVSPost2010Prop43
 90
        3
102
RTVSPost2010PropOp43
 70
     1
102
RTVSPost2010Prop44ColorIndex
 90
        5
102
RTVSPost2010Prop44ColorRGB
 90
      255
102
RTVSPost2010PropOp44
 70
     1
102
RTVSPost2010Prop45
280
     0
102
RTVSPost2010PropOp45
 70
     1
102
RTVSPost2010Prop46
 90
       50
102
RTVSPost2010PropOp46
 70
     1
102
RTVSPost2010Prop47
 90
       50
102
RTVSPost2010PropOp47
 70
     1
102
RTVSPost2010Prop48
 90
       50
102
RTVSPost2010PropOp48
 70
     1
102
RTVSPost2010Prop49
280
     0
102
RTVSPost2010PropOp49
 70
     1
102
RTVSPost2010Prop50
 90
       50
102
RTVSPost2010PropOp50
 70
     1
102
RTVSPost2010Prop51ColorIndex
 90
      256
102
RTVSPost2010Prop51ColorRGB
 90
-16777216
102
RTVSPost2010PropOp51
 70
     0
102
RTVSPost2010Prop52
140
1.0
102
RTVSPost2010PropOp52
 70
     0
102
RTVSPost2010Prop53
 90
        2
102
RTVSPost2010PropOp53
 70
     1
102
RTVSPost2010Prop54
  1
strokes_ogs.tif
102
RTVSPost2010PropOp54
 70
     1
102
RTVSPost2010Prop55
280
     0
102
RTVSPost2010PropOp55
 70
     1
102
RTVSPost2010Prop56
140
1.0
102
RTVSPost2010PropOp56
 70
     1
102
RTVSPost2010Prop57
140
1.0
102
RTVSPost2010PropOp57
 70
     1
102
RTVSPropertyOp0
 70
     1
102
RTVSPropertyOp1
 70
     1
102
RTVSPropertyOp2
 70
     1
102
RTVSPropertyOp3
 70
     1
102
RTVSPropertyOp4
 70
     1
102
RTVSPropertyOp5
 70
     1
102
RTVSPropertyOp6
 70
     1
102
RTVSPropertyOp7
 70
     1
102
RTVSPropertyOp8
 70
     1
102
RTVSPropertyOp9
 70
     1
102
RTVSPropertyOp10
 70
     1
102
RTVSPropertyOp11
 70
     1
102
RTVSPropertyOp12
 70
     1
102
RTVSPropertyOp13
 70
     1
102
RTVSPropertyOp14
 70
     1
102
RTVSPropertyOp15
 70
     1
102
RTVSPropertyOp16
 70
     1
102
RTVSPropertyOp17
 70
     1
102
RTVSPropertyOp18
 70
     1
102
RTVSPropertyOp19
 70
     1
102
RTVSPropertyOp20
 70
     1
102
RTVSPropertyOp21
 70
     1
102
RTVSPropertyOp22
 70
     1
102
RTVSPropertyOp23
 70
     1
102
RTVSPropertyOp24
 70
     1
102
RTVSPropertyOp25
 70
     1
102
RTVSPropertyOp26
 70
     1
102
RTVSPropertyOp27
 70
     1
102
RTVSPropertyOp28
 70
     1
102
RTVSPropertyOp29
 70
     1
102
RTVSPropertyOp30
 70
     1
102
RTVSPropertyOp31
 70
     1
102
RTVSPropertyOp32
 70
     1
102
RTVSPropertyOp33
 70
     1
102
RTVSPropertyOp34
 70
     1
102
RTVSPropertyOp35
 70
     1
102
RTVSPropertyOp36
 70
     1
102
RTVSPropertyOp37
 70
     1
102
RTVSPropertyOp38
 70
     1
102
RTVSPropertyOp39
 70
     1
102
RTVSPropertyOp40
 70
     1
102
RTVSPropertyOp41
 70
     1
102
RTVSPropertyOp42
 70
     1
102
RTVSPropertyOp43
 70
     1
102
RTVSPropertyOp44
 70
     1
102
RTVSPropertyOp45
 70
     1
102
RTVSPropertyOp46
 70
     1
102
RTVSPropertyOp47
 70
     1
102
RTVSPropertyOp48
 70
     1
102
RTVSPropertyOp49
 70
     1
102
RTVSPropertyOp50
 70
     1
102
RTVSPropertyOp51
 70
     0
102
RTVSPropertyOp52
 70
     0
102
RTVSPropertyOp53
 70
     1
102
RTVSPropertyOp54
 70
     1
102
RTVSPropertyOp55
 70
     1
102
RTVSPropertyOp56
 70
     1
102
RTVSPropertyOp57
 70
     1
102
RTVSPropertyOp58
 70
     1
102
RTVSPropertyOp59
 70
     1
102
RTVSPropertyOp60
 70
     1
102
RTVSPropertyOp61
 70
     1
102
RTVSPropertyOp62
 70
     1
  0
XRECORD
  5
F2A8
102
{ACAD_REACTORS
330
F2A7
102
}
330
F2A7
100
AcDbXrecord
280
     1
102
RTVSPost2010Prop28
280
     0
102
RTVSPost2010PropOp28
 70
     1
102
RTVSPost2010Prop29
280
     1
102
RTVSPost2010PropOp29
 70
     1
102
RTVSPost2010Prop30
280
     1
102
RTVSPost2010PropOp30
 70
     1
102
RTVSPost2010Prop31
280
     0
102
RTVSPost2010PropOp31
 70
     1
102
RTVSPost2010Prop32
280
     0
102
RTVSPost2010PropOp32
 70
     1
102
RTVSPost2010Prop33
280
     0
102
RTVSPost2010PropOp33
 70
     1
102
RTVSPost2010Prop34
280
     0
102
RTVSPost2010PropOp34
 70
     1
102
RTVSPost2010Prop35
280
     0
102
RTVSPost2010PropOp35
 70
     1
102
RTVSPost2010Prop36
280
     0
102
RTVSPost2010PropOp36
 70
     1
102
RTVSPost2010Prop37
 90
       50
102
RTVSPost2010PropOp37
 70
     1
102
RTVSPost2010Prop38
140
0.0
102
RTVSPost2010PropOp38
 70
     1
102
RTVSPost2010Prop39
140
1.0
102
RTVSPost2010PropOp39
 70
     1
102
RTVSPost2010Prop40
 90
        0
102
RTVSPost2010PropOp40
 70
     1
102
RTVSPost2010Prop41ColorIndex
 90
       18
102
RTVSPost2010Prop41ColorRGB
 90
        0
102
RTVSPost2010PropOp41
 70
     1
102
RTVSPost2010Prop42
 90
       50
102
RTVSPost2010PropOp42
 70
     1
102
RTVSPost2010Prop43
 90
        3
102
RTVSPost2010PropOp43
 70
     1
102
RTVSPost2010Prop44ColorIndex
 90
        5
102
RTVSPost2010Prop44ColorRGB
 90
      255
102
RTVSPost2010PropOp44
 70
     1
102
RTVSPost2010Prop45
280
     0
102
RTVSPost2010PropOp45
 70
     1
102
RTVSPost2010Prop46
 90
       50
102
RTVSPost2010PropOp46
 70
     1
102
RTVSPost2010Prop47
 90
       50
102
RTVSPost2010PropOp47
 70
     1
102
RTVSPost2010Prop48
 90
       50
102
RTVSPost2010PropOp48
 70
     1
102
RTVSPost2010Prop49
280
     0
102
RTVSPost2010PropOp49
 70
     1
102
RTVSPost2010Prop50
 90
       50
102
RTVSPost2010PropOp50
 70
     1
102
RTVSPost2010Prop51ColorIndex
 90
      256
102
RTVSPost2010Prop51ColorRGB
 90
-16777216
102
RTVSPost2010PropOp51
 70
     0
102
RTVSPost2010Prop52
140
1.0
102
RTVSPost2010PropOp52
 70
     0
102
RTVSPost2010Prop53
 90
        2
102
RTVSPost2010PropOp53
 70
     1
102
RTVSPost2010Prop54
  1
strokes_ogs.tif
102
RTVSPost2010PropOp54
 70
     1
102
RTVSPost2010Prop55
280
     0
102
RTVSPost2010PropOp55
 70
     1
102
RTVSPost2010Prop56
140
1.0
102
RTVSPost2010PropOp56
 70
     1
102
RTVSPost2010Prop57
140
1.0
102
RTVSPost2010PropOp57
 70
     1
102
RTVSPropertyOp0
 70
     1
102
RTVSPropertyOp1
 70
     1
102
RTVSPropertyOp2
 70
     1
102
RTVSPropertyOp3
 70
     1
102
RTVSPropertyOp4
 70
     1
102
RTVSPropertyOp5
 70
     1
102
RTVSPropertyOp6
 70
     1
102
RTVSPropertyOp7
 70
     1
102
RTVSPropertyOp8
 70
     1
102
RTVSPropertyOp9
 70
     1
102
RTVSPropertyOp10
 70
     1
102
RTVSPropertyOp11
 70
     1
102
RTVSPropertyOp12
 70
     1
102
RTVSPropertyOp13
 70
     1
102
RTVSPropertyOp14
 70
     1
102
RTVSPropertyOp15
 70
     1
102
RTVSPropertyOp16
 70
     1
102
RTVSPropertyOp17
 70
     1
102
RTVSPropertyOp18
 70
     1
102
RTVSPropertyOp19
 70
     1
102
RTVSPropertyOp20
 70
     1
102
RTVSPropertyOp21
 70
     1
102
RTVSPropertyOp22
 70
     1
102
RTVSPropertyOp23
 70
     1
102
RTVSPropertyOp24
 70
     1
102
RTVSPropertyOp25
 70
     1
102
RTVSPropertyOp26
 70
     1
102
RTVSPropertyOp27
 70
     1
102
RTVSPropertyOp28
 70
     1
102
RTVSPropertyOp29
 70
     1
102
RTVSPropertyOp30
 70
     1
102
RTVSPropertyOp31
 70
     1
102
RTVSPropertyOp32
 70
     1
102
RTVSPropertyOp33
 70
     1
102
RTVSPropertyOp34
 70
     1
102
RTVSPropertyOp35
 70
     1
102
RTVSPropertyOp36
 70
     1
102
RTVSPropertyOp37
 70
     1
102
RTVSPropertyOp38
 70
     1
102
RTVSPropertyOp39
 70
     1
102
RTVSPropertyOp40
 70
     1
102
RTVSPropertyOp41
 70
     1
102
RTVSPropertyOp42
 70
     1
102
RTVSPropertyOp43
 70
     1
102
RTVSPropertyOp44
 70
     1
102
RTVSPropertyOp45
 70
     1
102
RTVSPropertyOp46
 70
     1
102
RTVSPropertyOp47
 70
     1
102
RTVSPropertyOp48
 70
     1
102
RTVSPropertyOp49
 70
     1
102
RTVSPropertyOp50
 70
     1
102
RTVSPropertyOp51
 70
     0
102
RTVSPropertyOp52
 70
     0
102
RTVSPropertyOp53
 70
     1
102
RTVSPropertyOp54
 70
     1
102
RTVSPropertyOp55
 70
     1
102
RTVSPropertyOp56
 70
     1
102
RTVSPropertyOp57
 70
     1
102
RTVSPropertyOp58
 70
     1
102
RTVSPropertyOp59
 70
     1
102
RTVSPropertyOp60
 70
     1
102
RTVSPropertyOp61
 70
     1
102
RTVSPropertyOp62
 70
     1
  0
XRECORD
  5
F2AA
102
{ACAD_REACTORS
330
F2A9
102
}
330
F2A9
100
AcDbXrecord
280
     1
102
RTVSPost2010Prop28
280
     0
102
RTVSPost2010PropOp28
 70
     1
102
RTVSPost2010Prop29
280
     1
102
RTVSPost2010PropOp29
 70
     1
102
RTVSPost2010Prop30
280
     1
102
RTVSPost2010PropOp30
 70
     1
102
RTVSPost2010Prop31
280
     0
102
RTVSPost2010PropOp31
 70
     1
102
RTVSPost2010Prop32
280
     0
102
RTVSPost2010PropOp32
 70
     1
102
RTVSPost2010Prop33
280
     0
102
RTVSPost2010PropOp33
 70
     1
102
RTVSPost2010Prop34
280
     0
102
RTVSPost2010PropOp34
 70
     1
102
RTVSPost2010Prop35
280
     0
102
RTVSPost2010PropOp35
 70
     1
102
RTVSPost2010Prop36
280
     0
102
RTVSPost2010PropOp36
 70
     1
102
RTVSPost2010Prop37
 90
       50
102
RTVSPost2010PropOp37
 70
     1
102
RTVSPost2010Prop38
140
0.0
102
RTVSPost2010PropOp38
 70
     1
102
RTVSPost2010Prop39
140
1.0
102
RTVSPost2010PropOp39
 70
     1
102
RTVSPost2010Prop40
 90
        0
102
RTVSPost2010PropOp40
 70
     1
102
RTVSPost2010Prop41ColorIndex
 90
       18
102
RTVSPost2010Prop41ColorRGB
 90
        0
102
RTVSPost2010PropOp41
 70
     1
102
RTVSPost2010Prop42
 90
       50
102
RTVSPost2010PropOp42
 70
     1
102
RTVSPost2010Prop43
 90
        3
102
RTVSPost2010PropOp43
 70
     1
102
RTVSPost2010Prop44ColorIndex
 90
        5
102
RTVSPost2010Prop44ColorRGB
 90
      255
102
RTVSPost2010PropOp44
 70
     1
102
RTVSPost2010Prop45
280
     0
102
RTVSPost2010PropOp45
 70
     1
102
RTVSPost2010Prop46
 90
       50
102
RTVSPost2010PropOp46
 70
     1
102
RTVSPost2010Prop47
 90
       50
102
RTVSPost2010PropOp47
 70
     1
102
RTVSPost2010Prop48
 90
       50
102
RTVSPost2010PropOp48
 70
     1
102
RTVSPost2010Prop49
280
     0
102
RTVSPost2010PropOp49
 70
     1
102
RTVSPost2010Prop50
 90
       50
102
RTVSPost2010PropOp50
 70
     1
102
RTVSPost2010Prop51ColorIndex
 90
      256
102
RTVSPost2010Prop51ColorRGB
 90
-16777216
102
RTVSPost2010PropOp51
 70
     0
102
RTVSPost2010Prop52
140
1.0
102
RTVSPost2010PropOp52
 70
     0
102
RTVSPost2010Prop53
 90
        2
102
RTVSPost2010PropOp53
 70
     1
102
RTVSPost2010Prop54
  1
strokes_ogs.tif
102
RTVSPost2010PropOp54
 70
     1
102
RTVSPost2010Prop55
280
     0
102
RTVSPost2010PropOp55
 70
     1
102
RTVSPost2010Prop56
140
1.0
102
RTVSPost2010PropOp56
 70
     1
102
RTVSPost2010Prop57
140
1.0
102
RTVSPost2010PropOp57
 70
     1
102
RTVSPropertyOp0
 70
     1
102
RTVSPropertyOp1
 70
     1
102
RTVSPropertyOp2
 70
     1
102
RTVSPropertyOp3
 70
     1
102
RTVSPropertyOp4
 70
     1
102
RTVSPropertyOp5
 70
     1
102
RTVSPropertyOp6
 70
     1
102
RTVSPropertyOp7
 70
     1
102
RTVSPropertyOp8
 70
     1
102
RTVSPropertyOp9
 70
     1
102
RTVSPropertyOp10
 70
     1
102
RTVSPropertyOp11
 70
     1
102
RTVSPropertyOp12
 70
     1
102
RTVSPropertyOp13
 70
     1
102
RTVSPropertyOp14
 70
     1
102
RTVSPropertyOp15
 70
     1
102
RTVSPropertyOp16
 70
     1
102
RTVSPropertyOp17
 70
     1
102
RTVSPropertyOp18
 70
     1
102
RTVSPropertyOp19
 70
     1
102
RTVSPropertyOp20
 70
     1
102
RTVSPropertyOp21
 70
     1
102
RTVSPropertyOp22
 70
     1
102
RTVSPropertyOp23
 70
     1
102
RTVSPropertyOp24
 70
     1
102
RTVSPropertyOp25
 70
     1
102
RTVSPropertyOp26
 70
     1
102
RTVSPropertyOp27
 70
     1
102
RTVSPropertyOp28
 70
     1
102
RTVSPropertyOp29
 70
     1
102
RTVSPropertyOp30
 70
     1
102
RTVSPropertyOp31
 70
     1
102
RTVSPropertyOp32
 70
     1
102
RTVSPropertyOp33
 70
     1
102
RTVSPropertyOp34
 70
     1
102
RTVSPropertyOp35
 70
     1
102
RTVSPropertyOp36
 70
     1
102
RTVSPropertyOp37
 70
     1
102
RTVSPropertyOp38
 70
     1
102
RTVSPropertyOp39
 70
     1
102
RTVSPropertyOp40
 70
     1
102
RTVSPropertyOp41
 70
     1
102
RTVSPropertyOp42
 70
     1
102
RTVSPropertyOp43
 70
     1
102
RTVSPropertyOp44
 70
     1
102
RTVSPropertyOp45
 70
     1
102
RTVSPropertyOp46
 70
     1
102
RTVSPropertyOp47
 70
     1
102
RTVSPropertyOp48
 70
     1
102
RTVSPropertyOp49
 70
     1
102
RTVSPropertyOp50
 70
     1
102
RTVSPropertyOp51
 70
     0
102
RTVSPropertyOp52
 70
     0
102
RTVSPropertyOp53
 70
     1
102
RTVSPropertyOp54
 70
     1
102
RTVSPropertyOp55
 70
     1
102
RTVSPropertyOp56
 70
     1
102
RTVSPropertyOp57
 70
     1
102
RTVSPropertyOp58
 70
     1
102
RTVSPropertyOp59
 70
     1
102
RTVSPropertyOp60
 70
     1
102
RTVSPropertyOp61
 70
     1
102
RTVSPropertyOp62
 70
     1
  0
XRECORD
  5
F2B2
102
{ACAD_REACTORS
330
F2B1
102
}
330
F2B1
100
AcDbXrecord
280
     1
102
RTVSPost2010Prop28
280
     0
102
RTVSPost2010PropOp28
 70
     1
102
RTVSPost2010Prop29
280
     1
102
RTVSPost2010PropOp29
 70
     1
102
RTVSPost2010Prop30
280
     1
102
RTVSPost2010PropOp30
 70
     1
102
RTVSPost2010Prop31
280
     0
102
RTVSPost2010PropOp31
 70
     1
102
RTVSPost2010Prop32
280
     0
102
RTVSPost2010PropOp32
 70
     1
102
RTVSPost2010Prop33
280
     0
102
RTVSPost2010PropOp33
 70
     1
102
RTVSPost2010Prop34
280
     0
102
RTVSPost2010PropOp34
 70
     1
102
RTVSPost2010Prop35
280
     0
102
RTVSPost2010PropOp35
 70
     1
102
RTVSPost2010Prop36
280
     0
102
RTVSPost2010PropOp36
 70
     1
102
RTVSPost2010Prop37
 90
       50
102
RTVSPost2010PropOp37
 70
     1
102
RTVSPost2010Prop38
140
0.0
102
RTVSPost2010PropOp38
 70
     1
102
RTVSPost2010Prop39
140
1.0
102
RTVSPost2010PropOp39
 70
     1
102
RTVSPost2010Prop40
 90
        0
102
RTVSPost2010PropOp40
 70
     1
102
RTVSPost2010Prop41ColorIndex
 90
       18
102
RTVSPost2010Prop41ColorRGB
 90
        0
102
RTVSPost2010PropOp41
 70
     1
102
RTVSPost2010Prop42
 90
       50
102
RTVSPost2010PropOp42
 70
     1
102
RTVSPost2010Prop43
 90
        3
102
RTVSPost2010PropOp43
 70
     1
102
RTVSPost2010Prop44ColorIndex
 90
        5
102
RTVSPost2010Prop44ColorRGB
 90
      255
102
RTVSPost2010PropOp44
 70
     1
102
RTVSPost2010Prop45
280
     0
102
RTVSPost2010PropOp45
 70
     1
102
RTVSPost2010Prop46
 90
       50
102
RTVSPost2010PropOp46
 70
     1
102
RTVSPost2010Prop47
 90
       50
102
RTVSPost2010PropOp47
 70
     1
102
RTVSPost2010Prop48
 90
       50
102
RTVSPost2010PropOp48
 70
     1
102
RTVSPost2010Prop49
280
     0
102
RTVSPost2010PropOp49
 70
     1
102
RTVSPost2010Prop50
 90
       50
102
RTVSPost2010PropOp50
 70
     1
102
RTVSPost2010Prop51ColorIndex
 90
      256
102
RTVSPost2010Prop51ColorRGB
 90
-16777216
102
RTVSPost2010PropOp51
 70
     0
102
RTVSPost2010Prop52
140
1.0
102
RTVSPost2010PropOp52
 70
     0
102
RTVSPost2010Prop53
 90
        2
102
RTVSPost2010PropOp53
 70
     1
102
RTVSPost2010Prop54
  1
strokes_ogs.tif
102
RTVSPost2010PropOp54
 70
     1
102
RTVSPost2010Prop55
280
     0
102
RTVSPost2010PropOp55
 70
     1
102
RTVSPost2010Prop56
140
1.0
102
RTVSPost2010PropOp56
 70
     1
102
RTVSPost2010Prop57
140
1.0
102
RTVSPost2010PropOp57
 70
     1
102
RTVSPropertyOp0
 70
     1
102
RTVSPropertyOp1
 70
     1
102
RTVSPropertyOp2
 70
     1
102
RTVSPropertyOp3
 70
     1
102
RTVSPropertyOp4
 70
     1
102
RTVSPropertyOp5
 70
     1
102
RTVSPropertyOp6
 70
     1
102
RTVSPropertyOp7
 70
     1
102
RTVSPropertyOp8
 70
     1
102
RTVSPropertyOp9
 70
     1
102
RTVSPropertyOp10
 70
     1
102
RTVSPropertyOp11
 70
     1
102
RTVSPropertyOp12
 70
     1
102
RTVSPropertyOp13
 70
     1
102
RTVSPropertyOp14
 70
     1
102
RTVSPropertyOp15
 70
     1
102
RTVSPropertyOp16
 70
     1
102
RTVSPropertyOp17
 70
     1
102
RTVSPropertyOp18
 70
     1
102
RTVSPropertyOp19
 70
     1
102
RTVSPropertyOp20
 70
     1
102
RTVSPropertyOp21
 70
     1
102
RTVSPropertyOp22
 70
     1
102
RTVSPropertyOp23
 70
     1
102
RTVSPropertyOp24
 70
     1
102
RTVSPropertyOp25
 70
     1
102
RTVSPropertyOp26
 70
     1
102
RTVSPropertyOp27
 70
     1
102
RTVSPropertyOp28
 70
     1
102
RTVSPropertyOp29
 70
     1
102
RTVSPropertyOp30
 70
     1
102
RTVSPropertyOp31
 70
     1
102
RTVSPropertyOp32
 70
     1
102
RTVSPropertyOp33
 70
     1
102
RTVSPropertyOp34
 70
     1
102
RTVSPropertyOp35
 70
     1
102
RTVSPropertyOp36
 70
     1
102
RTVSPropertyOp37
 70
     1
102
RTVSPropertyOp38
 70
     1
102
RTVSPropertyOp39
 70
     1
102
RTVSPropertyOp40
 70
     1
102
RTVSPropertyOp41
 70
     1
102
RTVSPropertyOp42
 70
     1
102
RTVSPropertyOp43
 70
     1
102
RTVSPropertyOp44
 70
     1
102
RTVSPropertyOp45
 70
     1
102
RTVSPropertyOp46
 70
     1
102
RTVSPropertyOp47
 70
     1
102
RTVSPropertyOp48
 70
     1
102
RTVSPropertyOp49
 70
     1
102
RTVSPropertyOp50
 70
     1
102
RTVSPropertyOp51
 70
     0
102
RTVSPropertyOp52
 70
     0
102
RTVSPropertyOp53
 70
     1
102
RTVSPropertyOp54
 70
     1
102
RTVSPropertyOp55
 70
     1
102
RTVSPropertyOp56
 70
     1
102
RTVSPropertyOp57
 70
     1
102
RTVSPropertyOp58
 70
     1
102
RTVSPropertyOp59
 70
     1
102
RTVSPropertyOp60
 70
     1
102
RTVSPropertyOp61
 70
     1
102
RTVSPropertyOp62
 70
     1
  0
XRECORD
  5
F2CE
102
{ACAD_REACTORS
330
F2CD
102
}
330
F2CD
100
AcDbXrecord
280
     1
102
RTVSPost2010Prop28
280
     0
102
RTVSPost2010PropOp28
 70
     1
102
RTVSPost2010Prop29
280
     1
102
RTVSPost2010PropOp29
 70
     1
102
RTVSPost2010Prop30
280
     1
102
RTVSPost2010PropOp30
 70
     1
102
RTVSPost2010Prop31
280
     0
102
RTVSPost2010PropOp31
 70
     1
102
RTVSPost2010Prop32
280
     0
102
RTVSPost2010PropOp32
 70
     1
102
RTVSPost2010Prop33
280
     0
102
RTVSPost2010PropOp33
 70
     1
102
RTVSPost2010Prop34
280
     0
102
RTVSPost2010PropOp34
 70
     1
102
RTVSPost2010Prop35
280
     0
102
RTVSPost2010PropOp35
 70
     1
102
RTVSPost2010Prop36
280
     0
102
RTVSPost2010PropOp36
 70
     1
102
RTVSPost2010Prop37
 90
       50
102
RTVSPost2010PropOp37
 70
     0
102
RTVSPost2010Prop38
140
0.0
102
RTVSPost2010PropOp38
 70
     0
102
RTVSPost2010Prop39
140
1.0
102
RTVSPost2010PropOp39
 70
     0
102
RTVSPost2010Prop40
 90
        0
102
RTVSPost2010PropOp40
 70
     0
102
RTVSPost2010Prop41ColorIndex
 90
       18
102
RTVSPost2010Prop41ColorRGB
 90
        0
102
RTVSPost2010PropOp41
 70
     0
102
RTVSPost2010Prop42
 90
       50
102
RTVSPost2010PropOp42
 70
     0
102
RTVSPost2010Prop43
 90
        3
102
RTVSPost2010PropOp43
 70
     0
102
RTVSPost2010Prop44ColorIndex
 90
        5
102
RTVSPost2010Prop44ColorRGB
 90
      255
102
RTVSPost2010PropOp44
 70
     0
102
RTVSPost2010Prop45
280
     0
102
RTVSPost2010PropOp45
 70
     1
102
RTVSPost2010Prop46
 90
       50
102
RTVSPost2010PropOp46
 70
     0
102
RTVSPost2010Prop47
 90
       50
102
RTVSPost2010PropOp47
 70
     0
102
RTVSPost2010Prop48
 90
       50
102
RTVSPost2010PropOp48
 70
     0
102
RTVSPost2010Prop49
280
     0
102
RTVSPost2010PropOp49
 70
     1
102
RTVSPost2010Prop50
 90
       50
102
RTVSPost2010PropOp50
 70
     0
102
RTVSPost2010Prop51ColorIndex
 90
      256
102
RTVSPost2010Prop51ColorRGB
 90
-16777216
102
RTVSPost2010PropOp51
 70
     0
102
RTVSPost2010Prop52
140
1.0
102
RTVSPost2010PropOp52
 70
     0
102
RTVSPost2010Prop53
 90
        2
102
RTVSPost2010PropOp53
 70
     0
102
RTVSPost2010Prop54
  1
strokes_ogs.tif
102
RTVSPost2010PropOp54
 70
     0
102
RTVSPost2010Prop55
280
     0
102
RTVSPost2010PropOp55
 70
     1
102
RTVSPost2010Prop56
140
1.0
102
RTVSPost2010PropOp56
 70
     0
102
RTVSPost2010Prop57
140
1.0
102
RTVSPost2010PropOp57
 70
     0
102
RTVSPropertyOp0
 70
     0
102
RTVSPropertyOp1
 70
     0
102
RTVSPropertyOp2
 70
     0
102
RTVSPropertyOp3
 70
     0
102
RTVSPropertyOp4
 70
     0
102
RTVSPropertyOp5
 70
     0
102
RTVSPropertyOp6
 70
     0
102
RTVSPropertyOp7
 70
     0
102
RTVSPropertyOp8
 70
     0
102
RTVSPropertyOp9
 70
     0
102
RTVSPropertyOp10
 70
     0
102
RTVSPropertyOp11
 70
     0
102
RTVSPropertyOp12
 70
     0
102
RTVSPropertyOp13
 70
     0
102
RTVSPropertyOp14
 70
     2
102
RTVSPropertyOp15
 70
     0
102
RTVSPropertyOp16
 70
     0
102
RTVSPropertyOp17
 70
     0
102
RTVSPropertyOp18
 70
     0
102
RTVSPropertyOp19
 70
     0
102
RTVSPropertyOp20
 70
     0
102
RTVSPropertyOp21
 70
     0
102
RTVSPropertyOp22
 70
     0
102
RTVSPropertyOp23
 70
     0
102
RTVSPropertyOp24
 70
     0
102
RTVSPropertyOp25
 70
     0
102
RTVSPropertyOp26
 70
     0
102
RTVSPropertyOp27
 70
     0
102
RTVSPropertyOp28
 70
     1
102
RTVSPropertyOp29
 70
     1
102
RTVSPropertyOp30
 70
     1
102
RTVSPropertyOp31
 70
     1
102
RTVSPropertyOp32
 70
     1
102
RTVSPropertyOp33
 70
     1
102
RTVSPropertyOp34
 70
     1
102
RTVSPropertyOp35
 70
     1
102
RTVSPropertyOp36
 70
     1
102
RTVSPropertyOp37
 70
     0
102
RTVSPropertyOp38
 70
     0
102
RTVSPropertyOp39
 70
     0
102
RTVSPropertyOp40
 70
     0
102
RTVSPropertyOp41
 70
     0
102
RTVSPropertyOp42
 70
     0
102
RTVSPropertyOp43
 70
     0
102
RTVSPropertyOp44
 70
     0
102
RTVSPropertyOp45
 70
     1
102
RTVSPropertyOp46
 70
     0
102
RTVSPropertyOp47
 70
     0
102
RTVSPropertyOp48
 70
     0
102
RTVSPropertyOp49
 70
     1
102
RTVSPropertyOp50
 70
     0
102
RTVSPropertyOp51
 70
     0
102
RTVSPropertyOp52
 70
     0
102
RTVSPropertyOp53
 70
     0
102
RTVSPropertyOp54
 70
     0
102
RTVSPropertyOp55
 70
     1
102
RTVSPropertyOp56
 70
     0
102
RTVSPropertyOp57
 70
     0
102
RTVSPropertyOp58
 70
     0
102
RTVSPropertyOp59
 70
     0
102
RTVSPropertyOp60
 70
     0
102
RTVSPropertyOp61
 70
     0
102
RTVSPropertyOp62
 70
     0
  0
XRECORD
  5
F2BE
102
{ACAD_REACTORS
330
F2BD
102
}
330
F2BD
100
AcDbXrecord
280
     1
102
RTVSPost2010Prop28
280
     0
102
RTVSPost2010PropOp28
 70
     1
102
RTVSPost2010Prop29
280
     1
102
RTVSPost2010PropOp29
 70
     1
102
RTVSPost2010Prop30
280
     1
102
RTVSPost2010PropOp30
 70
     1
102
RTVSPost2010Prop31
280
     0
102
RTVSPost2010PropOp31
 70
     1
102
RTVSPost2010Prop32
280
     0
102
RTVSPost2010PropOp32
 70
     1
102
RTVSPost2010Prop33
280
     0
102
RTVSPost2010PropOp33
 70
     1
102
RTVSPost2010Prop34
280
     0
102
RTVSPost2010PropOp34
 70
     1
102
RTVSPost2010Prop35
280
     0
102
RTVSPost2010PropOp35
 70
     1
102
RTVSPost2010Prop36
280
     0
102
RTVSPost2010PropOp36
 70
     1
102
RTVSPost2010Prop37
 90
       50
102
RTVSPost2010PropOp37
 70
     1
102
RTVSPost2010Prop38
140
0.0
102
RTVSPost2010PropOp38
 70
     1
102
RTVSPost2010Prop39
140
1.0
102
RTVSPost2010PropOp39
 70
     1
102
RTVSPost2010Prop40
 90
        0
102
RTVSPost2010PropOp40
 70
     1
102
RTVSPost2010Prop41ColorIndex
 90
       18
102
RTVSPost2010Prop41ColorRGB
 90
        0
102
RTVSPost2010PropOp41
 70
     1
102
RTVSPost2010Prop42
 90
       50
102
RTVSPost2010PropOp42
 70
     1
102
RTVSPost2010Prop43
 90
        3
102
RTVSPost2010PropOp43
 70
     1
102
RTVSPost2010Prop44ColorIndex
 90
        5
102
RTVSPost2010Prop44ColorRGB
 90
      255
102
RTVSPost2010PropOp44
 70
     1
102
RTVSPost2010Prop45
280
     0
102
RTVSPost2010PropOp45
 70
     1
102
RTVSPost2010Prop46
 90
       50
102
RTVSPost2010PropOp46
 70
     1
102
RTVSPost2010Prop47
 90
       50
102
RTVSPost2010PropOp47
 70
     1
102
RTVSPost2010Prop48
 90
       50
102
RTVSPost2010PropOp48
 70
     1
102
RTVSPost2010Prop49
280
     0
102
RTVSPost2010PropOp49
 70
     1
102
RTVSPost2010Prop50
 90
       50
102
RTVSPost2010PropOp50
 70
     1
102
RTVSPost2010Prop51ColorIndex
 90
      256
102
RTVSPost2010Prop51ColorRGB
 90
-16777216
102
RTVSPost2010PropOp51
 70
     0
102
RTVSPost2010Prop52
140
1.0
102
RTVSPost2010PropOp52
 70
     0
102
RTVSPost2010Prop53
 90
        2
102
RTVSPost2010PropOp53
 70
     1
102
RTVSPost2010Prop54
  1
strokes_ogs.tif
102
RTVSPost2010PropOp54
 70
     1
102
RTVSPost2010Prop55
280
     0
102
RTVSPost2010PropOp55
 70
     1
102
RTVSPost2010Prop56
140
1.0
102
RTVSPost2010PropOp56
 70
     1
102
RTVSPost2010Prop57
140
1.0
102
RTVSPost2010PropOp57
 70
     1
102
RTVSPropertyOp0
 70
     1
102
RTVSPropertyOp1
 70
     1
102
RTVSPropertyOp2
 70
     1
102
RTVSPropertyOp3
 70
     1
102
RTVSPropertyOp4
 70
     1
102
RTVSPropertyOp5
 70
     1
102
RTVSPropertyOp6
 70
     1
102
RTVSPropertyOp7
 70
     1
102
RTVSPropertyOp8
 70
     1
102
RTVSPropertyOp9
 70
     1
102
RTVSPropertyOp10
 70
     1
102
RTVSPropertyOp11
 70
     1
102
RTVSPropertyOp12
 70
     1
102
RTVSPropertyOp13
 70
     1
102
RTVSPropertyOp14
 70
     1
102
RTVSPropertyOp15
 70
     1
102
RTVSPropertyOp16
 70
     1
102
RTVSPropertyOp17
 70
     1
102
RTVSPropertyOp18
 70
     1
102
RTVSPropertyOp19
 70
     1
102
RTVSPropertyOp20
 70
     1
102
RTVSPropertyOp21
 70
     1
102
RTVSPropertyOp22
 70
     1
102
RTVSPropertyOp23
 70
     1
102
RTVSPropertyOp24
 70
     1
102
RTVSPropertyOp25
 70
     1
102
RTVSPropertyOp26
 70
     1
102
RTVSPropertyOp27
 70
     1
102
RTVSPropertyOp28
 70
     1
102
RTVSPropertyOp29
 70
     1
102
RTVSPropertyOp30
 70
     1
102
RTVSPropertyOp31
 70
     1
102
RTVSPropertyOp32
 70
     1
102
RTVSPropertyOp33
 70
     1
102
RTVSPropertyOp34
 70
     1
102
RTVSPropertyOp35
 70
     1
102
RTVSPropertyOp36
 70
     1
102
RTVSPropertyOp37
 70
     1
102
RTVSPropertyOp38
 70
     1
102
RTVSPropertyOp39
 70
     1
102
RTVSPropertyOp40
 70
     1
102
RTVSPropertyOp41
 70
     1
102
RTVSPropertyOp42
 70
     1
102
RTVSPropertyOp43
 70
     1
102
RTVSPropertyOp44
 70
     1
102
RTVSPropertyOp45
 70
     1
102
RTVSPropertyOp46
 70
     1
102
RTVSPropertyOp47
 70
     1
102
RTVSPropertyOp48
 70
     1
102
RTVSPropertyOp49
 70
     1
102
RTVSPropertyOp50
 70
     1
102
RTVSPropertyOp51
 70
     0
102
RTVSPropertyOp52
 70
     0
102
RTVSPropertyOp53
 70
     1
102
RTVSPropertyOp54
 70
     1
102
RTVSPropertyOp55
 70
     1
102
RTVSPropertyOp56
 70
     1
102
RTVSPropertyOp57
 70
     1
102
RTVSPropertyOp58
 70
     1
102
RTVSPropertyOp59
 70
     1
102
RTVSPropertyOp60
 70
     1
102
RTVSPropertyOp61
 70
     1
102
RTVSPropertyOp62
 70
     1
  0
XRECORD
  5
F2D0
102
{ACAD_REACTORS
330
F2CF
102
}
330
F2CF
100
AcDbXrecord
280
     1
102
RTVSPost2010Prop28
280
     0
102
RTVSPost2010PropOp28
 70
     1
102
RTVSPost2010Prop29
280
     1
102
RTVSPost2010PropOp29
 70
     1
102
RTVSPost2010Prop30
280
     1
102
RTVSPost2010PropOp30
 70
     1
102
RTVSPost2010Prop31
280
     0
102
RTVSPost2010PropOp31
 70
     1
102
RTVSPost2010Prop32
280
     0
102
RTVSPost2010PropOp32
 70
     1
102
RTVSPost2010Prop33
280
     0
102
RTVSPost2010PropOp33
 70
     1
102
RTVSPost2010Prop34
280
     0
102
RTVSPost2010PropOp34
 70
     1
102
RTVSPost2010Prop35
280
     0
102
RTVSPost2010PropOp35
 70
     1
102
RTVSPost2010Prop36
280
     0
102
RTVSPost2010PropOp36
 70
     1
102
RTVSPost2010Prop37
 90
       50
102
RTVSPost2010PropOp37
 70
     0
102
RTVSPost2010Prop38
140
0.0
102
RTVSPost2010PropOp38
 70
     0
102
RTVSPost2010Prop39
140
1.0
102
RTVSPost2010PropOp39
 70
     0
102
RTVSPost2010Prop40
 90
        0
102
RTVSPost2010PropOp40
 70
     0
102
RTVSPost2010Prop41ColorIndex
 90
       18
102
RTVSPost2010Prop41ColorRGB
 90
        0
102
RTVSPost2010PropOp41
 70
     0
102
RTVSPost2010Prop42
 90
       50
102
RTVSPost2010PropOp42
 70
     0
102
RTVSPost2010Prop43
 90
        3
102
RTVSPost2010PropOp43
 70
     0
102
RTVSPost2010Prop44ColorIndex
 90
        5
102
RTVSPost2010Prop44ColorRGB
 90
      255
102
RTVSPost2010PropOp44
 70
     0
102
RTVSPost2010Prop45
280
     0
102
RTVSPost2010PropOp45
 70
     1
102
RTVSPost2010Prop46
 90
       50
102
RTVSPost2010PropOp46
 70
     0
102
RTVSPost2010Prop47
 90
       50
102
RTVSPost2010PropOp47
 70
     0
102
RTVSPost2010Prop48
 90
       50
102
RTVSPost2010PropOp48
 70
     0
102
RTVSPost2010Prop49
280
     0
102
RTVSPost2010PropOp49
 70
     1
102
RTVSPost2010Prop50
 90
       50
102
RTVSPost2010PropOp50
 70
     0
102
RTVSPost2010Prop51ColorIndex
 90
      256
102
RTVSPost2010Prop51ColorRGB
 90
-16777216
102
RTVSPost2010PropOp51
 70
     0
102
RTVSPost2010Prop52
140
1.0
102
RTVSPost2010PropOp52
 70
     0
102
RTVSPost2010Prop53
 90
        2
102
RTVSPost2010PropOp53
 70
     0
102
RTVSPost2010Prop54
  1
strokes_ogs.tif
102
RTVSPost2010PropOp54
 70
     0
102
RTVSPost2010Prop55
280
     0
102
RTVSPost2010PropOp55
 70
     1
102
RTVSPost2010Prop56
140
1.0
102
RTVSPost2010PropOp56
 70
     0
102
RTVSPost2010Prop57
140
1.0
102
RTVSPost2010PropOp57
 70
     0
102
RTVSPropertyOp0
 70
     0
102
RTVSPropertyOp1
 70
     0
102
RTVSPropertyOp2
 70
     0
102
RTVSPropertyOp3
 70
     0
102
RTVSPropertyOp4
 70
     0
102
RTVSPropertyOp5
 70
     0
102
RTVSPropertyOp6
 70
     0
102
RTVSPropertyOp7
 70
     0
102
RTVSPropertyOp8
 70
     0
102
RTVSPropertyOp9
 70
     0
102
RTVSPropertyOp10
 70
     0
102
RTVSPropertyOp11
 70
     0
102
RTVSPropertyOp12
 70
     0
102
RTVSPropertyOp13
 70
     0
102
RTVSPropertyOp14
 70
     2
102
RTVSPropertyOp15
 70
     0
102
RTVSPropertyOp16
 70
     0
102
RTVSPropertyOp17
 70
     0
102
RTVSPropertyOp18
 70
     0
102
RTVSPropertyOp19
 70
     0
102
RTVSPropertyOp20
 70
     0
102
RTVSPropertyOp21
 70
     0
102
RTVSPropertyOp22
 70
     0
102
RTVSPropertyOp23
 70
     0
102
RTVSPropertyOp24
 70
     0
102
RTVSPropertyOp25
 70
     0
102
RTVSPropertyOp26
 70
     0
102
RTVSPropertyOp27
 70
     0
102
RTVSPropertyOp28
 70
     1
102
RTVSPropertyOp29
 70
     1
102
RTVSPropertyOp30
 70
     1
102
RTVSPropertyOp31
 70
     1
102
RTVSPropertyOp32
 70
     1
102
RTVSPropertyOp33
 70
     1
102
RTVSPropertyOp34
 70
     1
102
RTVSPropertyOp35
 70
     1
102
RTVSPropertyOp36
 70
     1
102
RTVSPropertyOp37
 70
     0
102
RTVSPropertyOp38
 70
     0
102
RTVSPropertyOp39
 70
     0
102
RTVSPropertyOp40
 70
     0
102
RTVSPropertyOp41
 70
     0
102
RTVSPropertyOp42
 70
     0
102
RTVSPropertyOp43
 70
     0
102
RTVSPropertyOp44
 70
     0
102
RTVSPropertyOp45
 70
     1
102
RTVSPropertyOp46
 70
     0
102
RTVSPropertyOp47
 70
     0
102
RTVSPropertyOp48
 70
     0
102
RTVSPropertyOp49
 70
     1
102
RTVSPropertyOp50
 70
     0
102
RTVSPropertyOp51
 70
     0
102
RTVSPropertyOp52
 70
     0
102
RTVSPropertyOp53
 70
     0
102
RTVSPropertyOp54
 70
     0
102
RTVSPropertyOp55
 70
     1
102
RTVSPropertyOp56
 70
     0
102
RTVSPropertyOp57
 70
     0
102
RTVSPropertyOp58
 70
     0
102
RTVSPropertyOp59
 70
     0
102
RTVSPropertyOp60
 70
     0
102
RTVSPropertyOp61
 70
     0
102
RTVSPropertyOp62
 70
     0
  0
XRECORD
  5
F2B6
102
{ACAD_REACTORS
330
F2B5
102
}
330
F2B5
100
AcDbXrecord
280
     1
102
RTVSPost2010Prop28
280
     0
102
RTVSPost2010PropOp28
 70
     1
102
RTVSPost2010Prop29
280
     1
102
RTVSPost2010PropOp29
 70
     1
102
RTVSPost2010Prop30
280
     1
102
RTVSPost2010PropOp30
 70
     1
102
RTVSPost2010Prop31
280
     0
102
RTVSPost2010PropOp31
 70
     1
102
RTVSPost2010Prop32
280
     0
102
RTVSPost2010PropOp32
 70
     1
102
RTVSPost2010Prop33
280
     0
102
RTVSPost2010PropOp33
 70
     1
102
RTVSPost2010Prop34
280
     0
102
RTVSPost2010PropOp34
 70
     1
102
RTVSPost2010Prop35
280
     0
102
RTVSPost2010PropOp35
 70
     1
102
RTVSPost2010Prop36
280
     0
102
RTVSPost2010PropOp36
 70
     1
102
RTVSPost2010Prop37
 90
       50
102
RTVSPost2010PropOp37
 70
     1
102
RTVSPost2010Prop38
140
0.0
102
RTVSPost2010PropOp38
 70
     1
102
RTVSPost2010Prop39
140
1.0
102
RTVSPost2010PropOp39
 70
     1
102
RTVSPost2010Prop40
 90
        0
102
RTVSPost2010PropOp40
 70
     1
102
RTVSPost2010Prop41ColorIndex
 90
       18
102
RTVSPost2010Prop41ColorRGB
 90
        0
102
RTVSPost2010PropOp41
 70
     1
102
RTVSPost2010Prop42
 90
       50
102
RTVSPost2010PropOp42
 70
     1
102
RTVSPost2010Prop43
 90
        3
102
RTVSPost2010PropOp43
 70
     1
102
RTVSPost2010Prop44ColorIndex
 90
        5
102
RTVSPost2010Prop44ColorRGB
 90
      255
102
RTVSPost2010PropOp44
 70
     1
102
RTVSPost2010Prop45
280
     0
102
RTVSPost2010PropOp45
 70
     1
102
RTVSPost2010Prop46
 90
       50
102
RTVSPost2010PropOp46
 70
     1
102
RTVSPost2010Prop47
 90
       50
102
RTVSPost2010PropOp47
 70
     1
102
RTVSPost2010Prop48
 90
       50
102
RTVSPost2010PropOp48
 70
     1
102
RTVSPost2010Prop49
280
     0
102
RTVSPost2010PropOp49
 70
     1
102
RTVSPost2010Prop50
 90
       50
102
RTVSPost2010PropOp50
 70
     1
102
RTVSPost2010Prop51ColorIndex
 90
      256
102
RTVSPost2010Prop51ColorRGB
 90
-16777216
102
RTVSPost2010PropOp51
 70
     0
102
RTVSPost2010Prop52
140
1.0
102
RTVSPost2010PropOp52
 70
     0
102
RTVSPost2010Prop53
 90
        2
102
RTVSPost2010PropOp53
 70
     1
102
RTVSPost2010Prop54
  1
strokes_ogs.tif
102
RTVSPost2010PropOp54
 70
     1
102
RTVSPost2010Prop55
280
     0
102
RTVSPost2010PropOp55
 70
     1
102
RTVSPost2010Prop56
140
1.0
102
RTVSPost2010PropOp56
 70
     1
102
RTVSPost2010Prop57
140
1.0
102
RTVSPost2010PropOp57
 70
     1
102
RTVSPropertyOp0
 70
     1
102
RTVSPropertyOp1
 70
     1
102
RTVSPropertyOp2
 70
     1
102
RTVSPropertyOp3
 70
     1
102
RTVSPropertyOp4
 70
     1
102
RTVSPropertyOp5
 70
     1
102
RTVSPropertyOp6
 70
     1
102
RTVSPropertyOp7
 70
     1
102
RTVSPropertyOp8
 70
     1
102
RTVSPropertyOp9
 70
     1
102
RTVSPropertyOp10
 70
     1
102
RTVSPropertyOp11
 70
     1
102
RTVSPropertyOp12
 70
     1
102
RTVSPropertyOp13
 70
     1
102
RTVSPropertyOp14
 70
     1
102
RTVSPropertyOp15
 70
     1
102
RTVSPropertyOp16
 70
     1
102
RTVSPropertyOp17
 70
     1
102
RTVSPropertyOp18
 70
     1
102
RTVSPropertyOp19
 70
     1
102
RTVSPropertyOp20
 70
     1
102
RTVSPropertyOp21
 70
     1
102
RTVSPropertyOp22
 70
     1
102
RTVSPropertyOp23
 70
     1
102
RTVSPropertyOp24
 70
     1
102
RTVSPropertyOp25
 70
     1
102
RTVSPropertyOp26
 70
     1
102
RTVSPropertyOp27
 70
     1
102
RTVSPropertyOp28
 70
     1
102
RTVSPropertyOp29
 70
     1
102
RTVSPropertyOp30
 70
     1
102
RTVSPropertyOp31
 70
     1
102
RTVSPropertyOp32
 70
     1
102
RTVSPropertyOp33
 70
     1
102
RTVSPropertyOp34
 70
     1
102
RTVSPropertyOp35
 70
     1
102
RTVSPropertyOp36
 70
     1
102
RTVSPropertyOp37
 70
     1
102
RTVSPropertyOp38
 70
     1
102
RTVSPropertyOp39
 70
     1
102
RTVSPropertyOp40
 70
     1
102
RTVSPropertyOp41
 70
     1
102
RTVSPropertyOp42
 70
     1
102
RTVSPropertyOp43
 70
     1
102
RTVSPropertyOp44
 70
     1
102
RTVSPropertyOp45
 70
     1
102
RTVSPropertyOp46
 70
     1
102
RTVSPropertyOp47
 70
     1
102
RTVSPropertyOp48
 70
     1
102
RTVSPropertyOp49
 70
     1
102
RTVSPropertyOp50
 70
     1
102
RTVSPropertyOp51
 70
     0
102
RTVSPropertyOp52
 70
     0
102
RTVSPropertyOp53
 70
     1
102
RTVSPropertyOp54
 70
     1
102
RTVSPropertyOp55
 70
     1
102
RTVSPropertyOp56
 70
     1
102
RTVSPropertyOp57
 70
     1
102
RTVSPropertyOp58
 70
     1
102
RTVSPropertyOp59
 70
     1
102
RTVSPropertyOp60
 70
     1
102
RTVSPropertyOp61
 70
     1
102
RTVSPropertyOp62
 70
     1
  0
XRECORD
  5
F2CC
102
{ACAD_REACTORS
330
F2CB
102
}
330
F2CB
100
AcDbXrecord
280
     1
102
RTVSPost2010Prop28
280
     0
102
RTVSPost2010PropOp28
 70
     1
102
RTVSPost2010Prop29
280
     1
102
RTVSPost2010PropOp29
 70
     1
102
RTVSPost2010Prop30
280
     1
102
RTVSPost2010PropOp30
 70
     1
102
RTVSPost2010Prop31
280
     0
102
RTVSPost2010PropOp31
 70
     1
102
RTVSPost2010Prop32
280
     0
102
RTVSPost2010PropOp32
 70
     1
102
RTVSPost2010Prop33
280
     0
102
RTVSPost2010PropOp33
 70
     1
102
RTVSPost2010Prop34
280
     0
102
RTVSPost2010PropOp34
 70
     1
102
RTVSPost2010Prop35
280
     0
102
RTVSPost2010PropOp35
 70
     1
102
RTVSPost2010Prop36
280
     0
102
RTVSPost2010PropOp36
 70
     1
102
RTVSPost2010Prop37
 90
       50
102
RTVSPost2010PropOp37
 70
     1
102
RTVSPost2010Prop38
140
0.0
102
RTVSPost2010PropOp38
 70
     1
102
RTVSPost2010Prop39
140
1.0
102
RTVSPost2010PropOp39
 70
     1
102
RTVSPost2010Prop40
 90
        0
102
RTVSPost2010PropOp40
 70
     1
102
RTVSPost2010Prop41ColorIndex
 90
       18
102
RTVSPost2010Prop41ColorRGB
 90
        0
102
RTVSPost2010PropOp41
 70
     1
102
RTVSPost2010Prop42
 90
       50
102
RTVSPost2010PropOp42
 70
     1
102
RTVSPost2010Prop43
 90
        3
102
RTVSPost2010PropOp43
 70
     1
102
RTVSPost2010Prop44ColorIndex
 90
        5
102
RTVSPost2010Prop44ColorRGB
 90
      255
102
RTVSPost2010PropOp44
 70
     1
102
RTVSPost2010Prop45
280
     0
102
RTVSPost2010PropOp45
 70
     1
102
RTVSPost2010Prop46
 90
       50
102
RTVSPost2010PropOp46
 70
     1
102
RTVSPost2010Prop47
 90
       50
102
RTVSPost2010PropOp47
 70
     1
102
RTVSPost2010Prop48
 90
       50
102
RTVSPost2010PropOp48
 70
     1
102
RTVSPost2010Prop49
280
     0
102
RTVSPost2010PropOp49
 70
     1
102
RTVSPost2010Prop50
 90
       50
102
RTVSPost2010PropOp50
 70
     1
102
RTVSPost2010Prop51ColorIndex
 90
      256
102
RTVSPost2010Prop51ColorRGB
 90
-16777216
102
RTVSPost2010PropOp51
 70
     0
102
RTVSPost2010Prop52
140
1.0
102
RTVSPost2010PropOp52
 70
     0
102
RTVSPost2010Prop53
 90
        2
102
RTVSPost2010PropOp53
 70
     1
102
RTVSPost2010Prop54
  1
strokes_ogs.tif
102
RTVSPost2010PropOp54
 70
     1
102
RTVSPost2010Prop55
280
     0
102
RTVSPost2010PropOp55
 70
     1
102
RTVSPost2010Prop56
140
1.0
102
RTVSPost2010PropOp56
 70
     1
102
RTVSPost2010Prop57
140
1.0
102
RTVSPost2010PropOp57
 70
     1
102
RTVSPropertyOp0
 70
     1
102
RTVSPropertyOp1
 70
     1
102
RTVSPropertyOp2
 70
     1
102
RTVSPropertyOp3
 70
     1
102
RTVSPropertyOp4
 70
     1
102
RTVSPropertyOp5
 70
     1
102
RTVSPropertyOp6
 70
     1
102
RTVSPropertyOp7
 70
     1
102
RTVSPropertyOp8
 70
     1
102
RTVSPropertyOp9
 70
     1
102
RTVSPropertyOp10
 70
     1
102
RTVSPropertyOp11
 70
     1
102
RTVSPropertyOp12
 70
     1
102
RTVSPropertyOp13
 70
     1
102
RTVSPropertyOp14
 70
     1
102
RTVSPropertyOp15
 70
     1
102
RTVSPropertyOp16
 70
     1
102
RTVSPropertyOp17
 70
     1
102
RTVSPropertyOp18
 70
     1
102
RTVSPropertyOp19
 70
     1
102
RTVSPropertyOp20
 70
     1
102
RTVSPropertyOp21
 70
     1
102
RTVSPropertyOp22
 70
     1
102
RTVSPropertyOp23
 70
     1
102
RTVSPropertyOp24
 70
     1
102
RTVSPropertyOp25
 70
     1
102
RTVSPropertyOp26
 70
     1
102
RTVSPropertyOp27
 70
     1
102
RTVSPropertyOp28
 70
     1
102
RTVSPropertyOp29
 70
     1
102
RTVSPropertyOp30
 70
     1
102
RTVSPropertyOp31
 70
     1
102
RTVSPropertyOp32
 70
     1
102
RTVSPropertyOp33
 70
     1
102
RTVSPropertyOp34
 70
     1
102
RTVSPropertyOp35
 70
     1
102
RTVSPropertyOp36
 70
     1
102
RTVSPropertyOp37
 70
     1
102
RTVSPropertyOp38
 70
     1
102
RTVSPropertyOp39
 70
     1
102
RTVSPropertyOp40
 70
     1
102
RTVSPropertyOp41
 70
     1
102
RTVSPropertyOp42
 70
     1
102
RTVSPropertyOp43
 70
     1
102
RTVSPropertyOp44
 70
     1
102
RTVSPropertyOp45
 70
     1
102
RTVSPropertyOp46
 70
     1
102
RTVSPropertyOp47
 70
     1
102
RTVSPropertyOp48
 70
     1
102
RTVSPropertyOp49
 70
     1
102
RTVSPropertyOp50
 70
     1
102
RTVSPropertyOp51
 70
     0
102
RTVSPropertyOp52
 70
     0
102
RTVSPropertyOp53
 70
     1
102
RTVSPropertyOp54
 70
     1
102
RTVSPropertyOp55
 70
     1
102
RTVSPropertyOp56
 70
     1
102
RTVSPropertyOp57
 70
     1
102
RTVSPropertyOp58
 70
     1
102
RTVSPropertyOp59
 70
     1
102
RTVSPropertyOp60
 70
     1
102
RTVSPropertyOp61
 70
     1
102
RTVSPropertyOp62
 70
     1
  0
XRECORD
  5
F2CA
102
{ACAD_REACTORS
330
F2C9
102
}
330
F2C9
100
AcDbXrecord
280
     1
102
RTVSPost2010Prop28
280
     0
102
RTVSPost2010PropOp28
 70
     1
102
RTVSPost2010Prop29
280
     1
102
RTVSPost2010PropOp29
 70
     1
102
RTVSPost2010Prop30
280
     1
102
RTVSPost2010PropOp30
 70
     1
102
RTVSPost2010Prop31
280
     0
102
RTVSPost2010PropOp31
 70
     1
102
RTVSPost2010Prop32
280
     0
102
RTVSPost2010PropOp32
 70
     1
102
RTVSPost2010Prop33
280
     0
102
RTVSPost2010PropOp33
 70
     1
102
RTVSPost2010Prop34
280
     0
102
RTVSPost2010PropOp34
 70
     1
102
RTVSPost2010Prop35
280
     0
102
RTVSPost2010PropOp35
 70
     1
102
RTVSPost2010Prop36
280
     0
102
RTVSPost2010PropOp36
 70
     1
102
RTVSPost2010Prop37
 90
       50
102
RTVSPost2010PropOp37
 70
     1
102
RTVSPost2010Prop38
140
0.0
102
RTVSPost2010PropOp38
 70
     1
102
RTVSPost2010Prop39
140
1.0
102
RTVSPost2010PropOp39
 70
     1
102
RTVSPost2010Prop40
 90
        0
102
RTVSPost2010PropOp40
 70
     1
102
RTVSPost2010Prop41ColorIndex
 90
       18
102
RTVSPost2010Prop41ColorRGB
 90
        0
102
RTVSPost2010PropOp41
 70
     1
102
RTVSPost2010Prop42
 90
       50
102
RTVSPost2010PropOp42
 70
     1
102
RTVSPost2010Prop43
 90
        3
102
RTVSPost2010PropOp43
 70
     1
102
RTVSPost2010Prop44ColorIndex
 90
        5
102
RTVSPost2010Prop44ColorRGB
 90
      255
102
RTVSPost2010PropOp44
 70
     1
102
RTVSPost2010Prop45
280
     0
102
RTVSPost2010PropOp45
 70
     1
102
RTVSPost2010Prop46
 90
       50
102
RTVSPost2010PropOp46
 70
     1
102
RTVSPost2010Prop47
 90
       50
102
RTVSPost2010PropOp47
 70
     1
102
RTVSPost2010Prop48
 90
       50
102
RTVSPost2010PropOp48
 70
     1
102
RTVSPost2010Prop49
280
     0
102
RTVSPost2010PropOp49
 70
     1
102
RTVSPost2010Prop50
 90
       50
102
RTVSPost2010PropOp50
 70
     1
102
RTVSPost2010Prop51ColorIndex
 90
      256
102
RTVSPost2010Prop51ColorRGB
 90
-16777216
102
RTVSPost2010PropOp51
 70
     0
102
RTVSPost2010Prop52
140
1.0
102
RTVSPost2010PropOp52
 70
     0
102
RTVSPost2010Prop53
 90
        2
102
RTVSPost2010PropOp53
 70
     1
102
RTVSPost2010Prop54
  1
strokes_ogs.tif
102
RTVSPost2010PropOp54
 70
     1
102
RTVSPost2010Prop55
280
     0
102
RTVSPost2010PropOp55
 70
     1
102
RTVSPost2010Prop56
140
1.0
102
RTVSPost2010PropOp56
 70
     1
102
RTVSPost2010Prop57
140
1.0
102
RTVSPost2010PropOp57
 70
     1
102
RTVSPropertyOp0
 70
     1
102
RTVSPropertyOp1
 70
     1
102
RTVSPropertyOp2
 70
     1
102
RTVSPropertyOp3
 70
     1
102
RTVSPropertyOp4
 70
     1
102
RTVSPropertyOp5
 70
     1
102
RTVSPropertyOp6
 70
     1
102
RTVSPropertyOp7
 70
     1
102
RTVSPropertyOp8
 70
     1
102
RTVSPropertyOp9
 70
     1
102
RTVSPropertyOp10
 70
     1
102
RTVSPropertyOp11
 70
     1
102
RTVSPropertyOp12
 70
     1
102
RTVSPropertyOp13
 70
     1
102
RTVSPropertyOp14
 70
     1
102
RTVSPropertyOp15
 70
     1
102
RTVSPropertyOp16
 70
     1
102
RTVSPropertyOp17
 70
     1
102
RTVSPropertyOp18
 70
     1
102
RTVSPropertyOp19
 70
     1
102
RTVSPropertyOp20
 70
     1
102
RTVSPropertyOp21
 70
     1
102
RTVSPropertyOp22
 70
     1
102
RTVSPropertyOp23
 70
     1
102
RTVSPropertyOp24
 70
     1
102
RTVSPropertyOp25
 70
     1
102
RTVSPropertyOp26
 70
     1
102
RTVSPropertyOp27
 70
     1
102
RTVSPropertyOp28
 70
     1
102
RTVSPropertyOp29
 70
     1
102
RTVSPropertyOp30
 70
     1
102
RTVSPropertyOp31
 70
     1
102
RTVSPropertyOp32
 70
     1
102
RTVSPropertyOp33
 70
     1
102
RTVSPropertyOp34
 70
     1
102
RTVSPropertyOp35
 70
     1
102
RTVSPropertyOp36
 70
     1
102
RTVSPropertyOp37
 70
     1
102
RTVSPropertyOp38
 70
     1
102
RTVSPropertyOp39
 70
     1
102
RTVSPropertyOp40
 70
     1
102
RTVSPropertyOp41
 70
     1
102
RTVSPropertyOp42
 70
     1
102
RTVSPropertyOp43
 70
     1
102
RTVSPropertyOp44
 70
     1
102
RTVSPropertyOp45
 70
     1
102
RTVSPropertyOp46
 70
     1
102
RTVSPropertyOp47
 70
     1
102
RTVSPropertyOp48
 70
     1
102
RTVSPropertyOp49
 70
     1
102
RTVSPropertyOp50
 70
     1
102
RTVSPropertyOp51
 70
     0
102
RTVSPropertyOp52
 70
     0
102
RTVSPropertyOp53
 70
     1
102
RTVSPropertyOp54
 70
     1
102
RTVSPropertyOp55
 70
     1
102
RTVSPropertyOp56
 70
     1
102
RTVSPropertyOp57
 70
     1
102
RTVSPropertyOp58
 70
     1
102
RTVSPropertyOp59
 70
     1
102
RTVSPropertyOp60
 70
     1
102
RTVSPropertyOp61
 70
     1
102
RTVSPropertyOp62
 70
     1
  0
XRECORD
  5
F2C4
102
{ACAD_REACTORS
330
F2C3
102
}
330
F2C3
100
AcDbXrecord
280
     1
102
RTVSPost2010Prop28
280
     0
102
RTVSPost2010PropOp28
 70
     1
102
RTVSPost2010Prop29
280
     1
102
RTVSPost2010PropOp29
 70
     1
102
RTVSPost2010Prop30
280
     1
102
RTVSPost2010PropOp30
 70
     1
102
RTVSPost2010Prop31
280
     0
102
RTVSPost2010PropOp31
 70
     1
102
RTVSPost2010Prop32
280
     0
102
RTVSPost2010PropOp32
 70
     1
102
RTVSPost2010Prop33
280
     0
102
RTVSPost2010PropOp33
 70
     1
102
RTVSPost2010Prop34
280
     0
102
RTVSPost2010PropOp34
 70
     1
102
RTVSPost2010Prop35
280
     0
102
RTVSPost2010PropOp35
 70
     1
102
RTVSPost2010Prop36
280
     0
102
RTVSPost2010PropOp36
 70
     1
102
RTVSPost2010Prop37
 90
       50
102
RTVSPost2010PropOp37
 70
     1
102
RTVSPost2010Prop38
140
0.0
102
RTVSPost2010PropOp38
 70
     1
102
RTVSPost2010Prop39
140
1.0
102
RTVSPost2010PropOp39
 70
     1
102
RTVSPost2010Prop40
 90
        0
102
RTVSPost2010PropOp40
 70
     1
102
RTVSPost2010Prop41ColorIndex
 90
       18
102
RTVSPost2010Prop41ColorRGB
 90
        0
102
RTVSPost2010PropOp41
 70
     1
102
RTVSPost2010Prop42
 90
       50
102
RTVSPost2010PropOp42
 70
     1
102
RTVSPost2010Prop43
 90
        3
102
RTVSPost2010PropOp43
 70
     1
102
RTVSPost2010Prop44ColorIndex
 90
        5
102
RTVSPost2010Prop44ColorRGB
 90
      255
102
RTVSPost2010PropOp44
 70
     1
102
RTVSPost2010Prop45
280
     0
102
RTVSPost2010PropOp45
 70
     1
102
RTVSPost2010Prop46
 90
       50
102
RTVSPost2010PropOp46
 70
     1
102
RTVSPost2010Prop47
 90
       50
102
RTVSPost2010PropOp47
 70
     1
102
RTVSPost2010Prop48
 90
       50
102
RTVSPost2010PropOp48
 70
     1
102
RTVSPost2010Prop49
280
     0
102
RTVSPost2010PropOp49
 70
     1
102
RTVSPost2010Prop50
 90
       50
102
RTVSPost2010PropOp50
 70
     1
102
RTVSPost2010Prop51ColorIndex
 90
      256
102
RTVSPost2010Prop51ColorRGB
 90
-16777216
102
RTVSPost2010PropOp51
 70
     0
102
RTVSPost2010Prop52
140
1.0
102
RTVSPost2010PropOp52
 70
     0
102
RTVSPost2010Prop53
 90
        2
102
RTVSPost2010PropOp53
 70
     1
102
RTVSPost2010Prop54
  1
strokes_ogs.tif
102
RTVSPost2010PropOp54
 70
     1
102
RTVSPost2010Prop55
280
     0
102
RTVSPost2010PropOp55
 70
     1
102
RTVSPost2010Prop56
140
1.0
102
RTVSPost2010PropOp56
 70
     1
102
RTVSPost2010Prop57
140
1.0
102
RTVSPost2010PropOp57
 70
     1
102
RTVSPropertyOp0
 70
     1
102
RTVSPropertyOp1
 70
     1
102
RTVSPropertyOp2
 70
     1
102
RTVSPropertyOp3
 70
     1
102
RTVSPropertyOp4
 70
     1
102
RTVSPropertyOp5
 70
     1
102
RTVSPropertyOp6
 70
     1
102
RTVSPropertyOp7
 70
     1
102
RTVSPropertyOp8
 70
     1
102
RTVSPropertyOp9
 70
     1
102
RTVSPropertyOp10
 70
     1
102
RTVSPropertyOp11
 70
     1
102
RTVSPropertyOp12
 70
     1
102
RTVSPropertyOp13
 70
     1
102
RTVSPropertyOp14
 70
     1
102
RTVSPropertyOp15
 70
     1
102
RTVSPropertyOp16
 70
     1
102
RTVSPropertyOp17
 70
     1
102
RTVSPropertyOp18
 70
     1
102
RTVSPropertyOp19
 70
     1
102
RTVSPropertyOp20
 70
     1
102
RTVSPropertyOp21
 70
     1
102
RTVSPropertyOp22
 70
     1
102
RTVSPropertyOp23
 70
     1
102
RTVSPropertyOp24
 70
     1
102
RTVSPropertyOp25
 70
     1
102
RTVSPropertyOp26
 70
     1
102
RTVSPropertyOp27
 70
     1
102
RTVSPropertyOp28
 70
     1
102
RTVSPropertyOp29
 70
     1
102
RTVSPropertyOp30
 70
     1
102
RTVSPropertyOp31
 70
     1
102
RTVSPropertyOp32
 70
     1
102
RTVSPropertyOp33
 70
     1
102
RTVSPropertyOp34
 70
     1
102
RTVSPropertyOp35
 70
     1
102
RTVSPropertyOp36
 70
     1
102
RTVSPropertyOp37
 70
     1
102
RTVSPropertyOp38
 70
     1
102
RTVSPropertyOp39
 70
     1
102
RTVSPropertyOp40
 70
     1
102
RTVSPropertyOp41
 70
     1
102
RTVSPropertyOp42
 70
     1
102
RTVSPropertyOp43
 70
     1
102
RTVSPropertyOp44
 70
     1
102
RTVSPropertyOp45
 70
     1
102
RTVSPropertyOp46
 70
     1
102
RTVSPropertyOp47
 70
     1
102
RTVSPropertyOp48
 70
     1
102
RTVSPropertyOp49
 70
     1
102
RTVSPropertyOp50
 70
     1
102
RTVSPropertyOp51
 70
     0
102
RTVSPropertyOp52
 70
     0
102
RTVSPropertyOp53
 70
     1
102
RTVSPropertyOp54
 70
     1
102
RTVSPropertyOp55
 70
     1
102
RTVSPropertyOp56
 70
     1
102
RTVSPropertyOp57
 70
     1
102
RTVSPropertyOp58
 70
     1
102
RTVSPropertyOp59
 70
     1
102
RTVSPropertyOp60
 70
     1
102
RTVSPropertyOp61
 70
     1
102
RTVSPropertyOp62
 70
     1
  0
XRECORD
  5
F2C6
102
{ACAD_REACTORS
330
F2C5
102
}
330
F2C5
100
AcDbXrecord
280
     1
102
RTVSPost2010Prop28
280
     0
102
RTVSPost2010PropOp28
 70
     1
102
RTVSPost2010Prop29
280
     1
102
RTVSPost2010PropOp29
 70
     1
102
RTVSPost2010Prop30
280
     1
102
RTVSPost2010PropOp30
 70
     1
102
RTVSPost2010Prop31
280
     0
102
RTVSPost2010PropOp31
 70
     1
102
RTVSPost2010Prop32
280
     0
102
RTVSPost2010PropOp32
 70
     1
102
RTVSPost2010Prop33
280
     0
102
RTVSPost2010PropOp33
 70
     1
102
RTVSPost2010Prop34
280
     0
102
RTVSPost2010PropOp34
 70
     1
102
RTVSPost2010Prop35
280
     0
102
RTVSPost2010PropOp35
 70
     1
102
RTVSPost2010Prop36
280
     0
102
RTVSPost2010PropOp36
 70
     1
102
RTVSPost2010Prop37
 90
       50
102
RTVSPost2010PropOp37
 70
     1
102
RTVSPost2010Prop38
140
0.0
102
RTVSPost2010PropOp38
 70
     1
102
RTVSPost2010Prop39
140
1.0
102
RTVSPost2010PropOp39
 70
     1
102
RTVSPost2010Prop40
 90
        0
102
RTVSPost2010PropOp40
 70
     1
102
RTVSPost2010Prop41ColorIndex
 90
       18
102
RTVSPost2010Prop41ColorRGB
 90
        0
102
RTVSPost2010PropOp41
 70
     1
102
RTVSPost2010Prop42
 90
       50
102
RTVSPost2010PropOp42
 70
     1
102
RTVSPost2010Prop43
 90
        3
102
RTVSPost2010PropOp43
 70
     1
102
RTVSPost2010Prop44ColorIndex
 90
        5
102
RTVSPost2010Prop44ColorRGB
 90
      255
102
RTVSPost2010PropOp44
 70
     1
102
RTVSPost2010Prop45
280
     0
102
RTVSPost2010PropOp45
 70
     1
102
RTVSPost2010Prop46
 90
       50
102
RTVSPost2010PropOp46
 70
     1
102
RTVSPost2010Prop47
 90
       50
102
RTVSPost2010PropOp47
 70
     1
102
RTVSPost2010Prop48
 90
       50
102
RTVSPost2010PropOp48
 70
     1
102
RTVSPost2010Prop49
280
     0
102
RTVSPost2010PropOp49
 70
     1
102
RTVSPost2010Prop50
 90
       50
102
RTVSPost2010PropOp50
 70
     1
102
RTVSPost2010Prop51ColorIndex
 90
      256
102
RTVSPost2010Prop51ColorRGB
 90
-16777216
102
RTVSPost2010PropOp51
 70
     0
102
RTVSPost2010Prop52
140
1.0
102
RTVSPost2010PropOp52
 70
     0
102
RTVSPost2010Prop53
 90
        2
102
RTVSPost2010PropOp53
 70
     1
102
RTVSPost2010Prop54
  1
strokes_ogs.tif
102
RTVSPost2010PropOp54
 70
     1
102
RTVSPost2010Prop55
280
     0
102
RTVSPost2010PropOp55
 70
     1
102
RTVSPost2010Prop56
140
1.0
102
RTVSPost2010PropOp56
 70
     1
102
RTVSPost2010Prop57
140
1.0
102
RTVSPost2010PropOp57
 70
     1
102
RTVSPropertyOp0
 70
     1
102
RTVSPropertyOp1
 70
     1
102
RTVSPropertyOp2
 70
     1
102
RTVSPropertyOp3
 70
     1
102
RTVSPropertyOp4
 70
     1
102
RTVSPropertyOp5
 70
     1
102
RTVSPropertyOp6
 70
     1
102
RTVSPropertyOp7
 70
     1
102
RTVSPropertyOp8
 70
     1
102
RTVSPropertyOp9
 70
     1
102
RTVSPropertyOp10
 70
     1
102
RTVSPropertyOp11
 70
     1
102
RTVSPropertyOp12
 70
     1
102
RTVSPropertyOp13
 70
     1
102
RTVSPropertyOp14
 70
     1
102
RTVSPropertyOp15
 70
     1
102
RTVSPropertyOp16
 70
     1
102
RTVSPropertyOp17
 70
     1
102
RTVSPropertyOp18
 70
     1
102
RTVSPropertyOp19
 70
     1
102
RTVSPropertyOp20
 70
     1
102
RTVSPropertyOp21
 70
     1
102
RTVSPropertyOp22
 70
     1
102
RTVSPropertyOp23
 70
     1
102
RTVSPropertyOp24
 70
     1
102
RTVSPropertyOp25
 70
     1
102
RTVSPropertyOp26
 70
     1
102
RTVSPropertyOp27
 70
     1
102
RTVSPropertyOp28
 70
     1
102
RTVSPropertyOp29
 70
     1
102
RTVSPropertyOp30
 70
     1
102
RTVSPropertyOp31
 70
     1
102
RTVSPropertyOp32
 70
     1
102
RTVSPropertyOp33
 70
     1
102
RTVSPropertyOp34
 70
     1
102
RTVSPropertyOp35
 70
     1
102
RTVSPropertyOp36
 70
     1
102
RTVSPropertyOp37
 70
     1
102
RTVSPropertyOp38
 70
     1
102
RTVSPropertyOp39
 70
     1
102
RTVSPropertyOp40
 70
     1
102
RTVSPropertyOp41
 70
     1
102
RTVSPropertyOp42
 70
     1
102
RTVSPropertyOp43
 70
     1
102
RTVSPropertyOp44
 70
     1
102
RTVSPropertyOp45
 70
     1
102
RTVSPropertyOp46
 70
     1
102
RTVSPropertyOp47
 70
     1
102
RTVSPropertyOp48
 70
     1
102
RTVSPropertyOp49
 70
     1
102
RTVSPropertyOp50
 70
     1
102
RTVSPropertyOp51
 70
     0
102
RTVSPropertyOp52
 70
     0
102
RTVSPropertyOp53
 70
     1
102
RTVSPropertyOp54
 70
     1
102
RTVSPropertyOp55
 70
     1
102
RTVSPropertyOp56
 70
     1
102
RTVSPropertyOp57
 70
     1
102
RTVSPropertyOp58
 70
     1
102
RTVSPropertyOp59
 70
     1
102
RTVSPropertyOp60
 70
     1
102
RTVSPropertyOp61
 70
     1
102
RTVSPropertyOp62
 70
     1
  0
XRECORD
  5
F2BC
102
{ACAD_REACTORS
330
F2BB
102
}
330
F2BB
100
AcDbXrecord
280
     1
102
RTVSPost2010Prop28
280
     0
102
RTVSPost2010PropOp28
 70
     1
102
RTVSPost2010Prop29
280
     1
102
RTVSPost2010PropOp29
 70
     1
102
RTVSPost2010Prop30
280
     1
102
RTVSPost2010PropOp30
 70
     1
102
RTVSPost2010Prop31
280
     0
102
RTVSPost2010PropOp31
 70
     1
102
RTVSPost2010Prop32
280
     0
102
RTVSPost2010PropOp32
 70
     1
102
RTVSPost2010Prop33
280
     0
102
RTVSPost2010PropOp33
 70
     1
102
RTVSPost2010Prop34
280
     0
102
RTVSPost2010PropOp34
 70
     1
102
RTVSPost2010Prop35
280
     0
102
RTVSPost2010PropOp35
 70
     1
102
RTVSPost2010Prop36
280
     0
102
RTVSPost2010PropOp36
 70
     1
102
RTVSPost2010Prop37
 90
       50
102
RTVSPost2010PropOp37
 70
     1
102
RTVSPost2010Prop38
140
0.0
102
RTVSPost2010PropOp38
 70
     1
102
RTVSPost2010Prop39
140
1.0
102
RTVSPost2010PropOp39
 70
     1
102
RTVSPost2010Prop40
 90
        0
102
RTVSPost2010PropOp40
 70
     1
102
RTVSPost2010Prop41ColorIndex
 90
       18
102
RTVSPost2010Prop41ColorRGB
 90
        0
102
RTVSPost2010PropOp41
 70
     1
102
RTVSPost2010Prop42
 90
       50
102
RTVSPost2010PropOp42
 70
     1
102
RTVSPost2010Prop43
 90
        3
102
RTVSPost2010PropOp43
 70
     1
102
RTVSPost2010Prop44ColorIndex
 90
        5
102
RTVSPost2010Prop44ColorRGB
 90
      255
102
RTVSPost2010PropOp44
 70
     1
102
RTVSPost2010Prop45
280
     0
102
RTVSPost2010PropOp45
 70
     1
102
RTVSPost2010Prop46
 90
       50
102
RTVSPost2010PropOp46
 70
     1
102
RTVSPost2010Prop47
 90
       50
102
RTVSPost2010PropOp47
 70
     1
102
RTVSPost2010Prop48
 90
       50
102
RTVSPost2010PropOp48
 70
     1
102
RTVSPost2010Prop49
280
     0
102
RTVSPost2010PropOp49
 70
     1
102
RTVSPost2010Prop50
 90
       50
102
RTVSPost2010PropOp50
 70
     1
102
RTVSPost2010Prop51ColorIndex
 90
      256
102
RTVSPost2010Prop51ColorRGB
 90
-16777216
102
RTVSPost2010PropOp51
 70
     0
102
RTVSPost2010Prop52
140
1.0
102
RTVSPost2010PropOp52
 70
     0
102
RTVSPost2010Prop53
 90
        2
102
RTVSPost2010PropOp53
 70
     1
102
RTVSPost2010Prop54
  1
strokes_ogs.tif
102
RTVSPost2010PropOp54
 70
     1
102
RTVSPost2010Prop55
280
     0
102
RTVSPost2010PropOp55
 70
     1
102
RTVSPost2010Prop56
140
1.0
102
RTVSPost2010PropOp56
 70
     1
102
RTVSPost2010Prop57
140
1.0
102
RTVSPost2010PropOp57
 70
     1
102
RTVSPropertyOp0
 70
     1
102
RTVSPropertyOp1
 70
     1
102
RTVSPropertyOp2
 70
     1
102
RTVSPropertyOp3
 70
     1
102
RTVSPropertyOp4
 70
     1
102
RTVSPropertyOp5
 70
     1
102
RTVSPropertyOp6
 70
     1
102
RTVSPropertyOp7
 70
     1
102
RTVSPropertyOp8
 70
     1
102
RTVSPropertyOp9
 70
     1
102
RTVSPropertyOp10
 70
     1
102
RTVSPropertyOp11
 70
     1
102
RTVSPropertyOp12
 70
     1
102
RTVSPropertyOp13
 70
     1
102
RTVSPropertyOp14
 70
     1
102
RTVSPropertyOp15
 70
     1
102
RTVSPropertyOp16
 70
     1
102
RTVSPropertyOp17
 70
     1
102
RTVSPropertyOp18
 70
     1
102
RTVSPropertyOp19
 70
     1
102
RTVSPropertyOp20
 70
     1
102
RTVSPropertyOp21
 70
     1
102
RTVSPropertyOp22
 70
     1
102
RTVSPropertyOp23
 70
     1
102
RTVSPropertyOp24
 70
     1
102
RTVSPropertyOp25
 70
     1
102
RTVSPropertyOp26
 70
     1
102
RTVSPropertyOp27
 70
     1
102
RTVSPropertyOp28
 70
     1
102
RTVSPropertyOp29
 70
     1
102
RTVSPropertyOp30
 70
     1
102
RTVSPropertyOp31
 70
     1
102
RTVSPropertyOp32
 70
     1
102
RTVSPropertyOp33
 70
     1
102
RTVSPropertyOp34
 70
     1
102
RTVSPropertyOp35
 70
     1
102
RTVSPropertyOp36
 70
     1
102
RTVSPropertyOp37
 70
     1
102
RTVSPropertyOp38
 70
     1
102
RTVSPropertyOp39
 70
     1
102
RTVSPropertyOp40
 70
     1
102
RTVSPropertyOp41
 70
     1
102
RTVSPropertyOp42
 70
     1
102
RTVSPropertyOp43
 70
     1
102
RTVSPropertyOp44
 70
     1
102
RTVSPropertyOp45
 70
     1
102
RTVSPropertyOp46
 70
     1
102
RTVSPropertyOp47
 70
     1
102
RTVSPropertyOp48
 70
     1
102
RTVSPropertyOp49
 70
     1
102
RTVSPropertyOp50
 70
     1
102
RTVSPropertyOp51
 70
     0
102
RTVSPropertyOp52
 70
     0
102
RTVSPropertyOp53
 70
     1
102
RTVSPropertyOp54
 70
     1
102
RTVSPropertyOp55
 70
     1
102
RTVSPropertyOp56
 70
     1
102
RTVSPropertyOp57
 70
     1
102
RTVSPropertyOp58
 70
     1
102
RTVSPropertyOp59
 70
     1
102
RTVSPropertyOp60
 70
     1
102
RTVSPropertyOp61
 70
     1
102
RTVSPropertyOp62
 70
     1
  0
XRECORD
  5
F2B0
102
{ACAD_REACTORS
330
F2AF
102
}
330
F2AF
100
AcDbXrecord
280
     1
102
RTVSPost2010Prop28
280
     0
102
RTVSPost2010PropOp28
 70
     1
102
RTVSPost2010Prop29
280
     1
102
RTVSPost2010PropOp29
 70
     1
102
RTVSPost2010Prop30
280
     1
102
RTVSPost2010PropOp30
 70
     1
102
RTVSPost2010Prop31
280
     0
102
RTVSPost2010PropOp31
 70
     1
102
RTVSPost2010Prop32
280
     0
102
RTVSPost2010PropOp32
 70
     1
102
RTVSPost2010Prop33
280
     0
102
RTVSPost2010PropOp33
 70
     1
102
RTVSPost2010Prop34
280
     0
102
RTVSPost2010PropOp34
 70
     1
102
RTVSPost2010Prop35
280
     0
102
RTVSPost2010PropOp35
 70
     1
102
RTVSPost2010Prop36
280
     0
102
RTVSPost2010PropOp36
 70
     1
102
RTVSPost2010Prop37
 90
       50
102
RTVSPost2010PropOp37
 70
     1
102
RTVSPost2010Prop38
140
0.0
102
RTVSPost2010PropOp38
 70
     1
102
RTVSPost2010Prop39
140
1.0
102
RTVSPost2010PropOp39
 70
     1
102
RTVSPost2010Prop40
 90
        0
102
RTVSPost2010PropOp40
 70
     1
102
RTVSPost2010Prop41ColorIndex
 90
       18
102
RTVSPost2010Prop41ColorRGB
 90
        0
102
RTVSPost2010PropOp41
 70
     1
102
RTVSPost2010Prop42
 90
       50
102
RTVSPost2010PropOp42
 70
     1
102
RTVSPost2010Prop43
 90
        3
102
RTVSPost2010PropOp43
 70
     1
102
RTVSPost2010Prop44ColorIndex
 90
        5
102
RTVSPost2010Prop44ColorRGB
 90
      255
102
RTVSPost2010PropOp44
 70
     1
102
RTVSPost2010Prop45
280
     0
102
RTVSPost2010PropOp45
 70
     1
102
RTVSPost2010Prop46
 90
       50
102
RTVSPost2010PropOp46
 70
     1
102
RTVSPost2010Prop47
 90
       50
102
RTVSPost2010PropOp47
 70
     1
102
RTVSPost2010Prop48
 90
       50
102
RTVSPost2010PropOp48
 70
     1
102
RTVSPost2010Prop49
280
     0
102
RTVSPost2010PropOp49
 70
     1
102
RTVSPost2010Prop50
 90
       50
102
RTVSPost2010PropOp50
 70
     1
102
RTVSPost2010Prop51ColorIndex
 90
      256
102
RTVSPost2010Prop51ColorRGB
 90
-16777216
102
RTVSPost2010PropOp51
 70
     0
102
RTVSPost2010Prop52
140
1.0
102
RTVSPost2010PropOp52
 70
     0
102
RTVSPost2010Prop53
 90
        2
102
RTVSPost2010PropOp53
 70
     1
102
RTVSPost2010Prop54
  1
strokes_ogs.tif
102
RTVSPost2010PropOp54
 70
     1
102
RTVSPost2010Prop55
280
     0
102
RTVSPost2010PropOp55
 70
     1
102
RTVSPost2010Prop56
140
1.0
102
RTVSPost2010PropOp56
 70
     1
102
RTVSPost2010Prop57
140
1.0
102
RTVSPost2010PropOp57
 70
     1
102
RTVSPropertyOp0
 70
     1
102
RTVSPropertyOp1
 70
     1
102
RTVSPropertyOp2
 70
     1
102
RTVSPropertyOp3
 70
     1
102
RTVSPropertyOp4
 70
     1
102
RTVSPropertyOp5
 70
     1
102
RTVSPropertyOp6
 70
     1
102
RTVSPropertyOp7
 70
     1
102
RTVSPropertyOp8
 70
     1
102
RTVSPropertyOp9
 70
     1
102
RTVSPropertyOp10
 70
     1
102
RTVSPropertyOp11
 70
     1
102
RTVSPropertyOp12
 70
     1
102
RTVSPropertyOp13
 70
     1
102
RTVSPropertyOp14
 70
     1
102
RTVSPropertyOp15
 70
     1
102
RTVSPropertyOp16
 70
     1
102
RTVSPropertyOp17
 70
     1
102
RTVSPropertyOp18
 70
     1
102
RTVSPropertyOp19
 70
     1
102
RTVSPropertyOp20
 70
     1
102
RTVSPropertyOp21
 70
     1
102
RTVSPropertyOp22
 70
     1
102
RTVSPropertyOp23
 70
     1
102
RTVSPropertyOp24
 70
     1
102
RTVSPropertyOp25
 70
     1
102
RTVSPropertyOp26
 70
     1
102
RTVSPropertyOp27
 70
     1
102
RTVSPropertyOp28
 70
     1
102
RTVSPropertyOp29
 70
     1
102
RTVSPropertyOp30
 70
     1
102
RTVSPropertyOp31
 70
     1
102
RTVSPropertyOp32
 70
     1
102
RTVSPropertyOp33
 70
     1
102
RTVSPropertyOp34
 70
     1
102
RTVSPropertyOp35
 70
     1
102
RTVSPropertyOp36
 70
     1
102
RTVSPropertyOp37
 70
     1
102
RTVSPropertyOp38
 70
     1
102
RTVSPropertyOp39
 70
     1
102
RTVSPropertyOp40
 70
     1
102
RTVSPropertyOp41
 70
     1
102
RTVSPropertyOp42
 70
     1
102
RTVSPropertyOp43
 70
     1
102
RTVSPropertyOp44
 70
     1
102
RTVSPropertyOp45
 70
     1
102
RTVSPropertyOp46
 70
     1
102
RTVSPropertyOp47
 70
     1
102
RTVSPropertyOp48
 70
     1
102
RTVSPropertyOp49
 70
     1
102
RTVSPropertyOp50
 70
     1
102
RTVSPropertyOp51
 70
     0
102
RTVSPropertyOp52
 70
     0
102
RTVSPropertyOp53
 70
     1
102
RTVSPropertyOp54
 70
     1
102
RTVSPropertyOp55
 70
     1
102
RTVSPropertyOp56
 70
     1
102
RTVSPropertyOp57
 70
     1
102
RTVSPropertyOp58
 70
     1
102
RTVSPropertyOp59
 70
     1
102
RTVSPropertyOp60
 70
     1
102
RTVSPropertyOp61
 70
     1
102
RTVSPropertyOp62
 70
     1
  0
XRECORD
  5
F2C8
102
{ACAD_REACTORS
330
F2C7
102
}
330
F2C7
100
AcDbXrecord
280
     1
102
RTVSPost2010Prop28
280
     0
102
RTVSPost2010PropOp28
 70
     1
102
RTVSPost2010Prop29
280
     1
102
RTVSPost2010PropOp29
 70
     1
102
RTVSPost2010Prop30
280
     1
102
RTVSPost2010PropOp30
 70
     1
102
RTVSPost2010Prop31
280
     0
102
RTVSPost2010PropOp31
 70
     1
102
RTVSPost2010Prop32
280
     0
102
RTVSPost2010PropOp32
 70
     1
102
RTVSPost2010Prop33
280
     0
102
RTVSPost2010PropOp33
 70
     1
102
RTVSPost2010Prop34
280
     0
102
RTVSPost2010PropOp34
 70
     1
102
RTVSPost2010Prop35
280
     0
102
RTVSPost2010PropOp35
 70
     1
102
RTVSPost2010Prop36
280
     0
102
RTVSPost2010PropOp36
 70
     1
102
RTVSPost2010Prop37
 90
       50
102
RTVSPost2010PropOp37
 70
     1
102
RTVSPost2010Prop38
140
0.0
102
RTVSPost2010PropOp38
 70
     1
102
RTVSPost2010Prop39
140
1.0
102
RTVSPost2010PropOp39
 70
     1
102
RTVSPost2010Prop40
 90
        0
102
RTVSPost2010PropOp40
 70
     1
102
RTVSPost2010Prop41ColorIndex
 90
       18
102
RTVSPost2010Prop41ColorRGB
 90
        0
102
RTVSPost2010PropOp41
 70
     1
102
RTVSPost2010Prop42
 90
       50
102
RTVSPost2010PropOp42
 70
     1
102
RTVSPost2010Prop43
 90
        3
102
RTVSPost2010PropOp43
 70
     1
102
RTVSPost2010Prop44ColorIndex
 90
        5
102
RTVSPost2010Prop44ColorRGB
 90
      255
102
RTVSPost2010PropOp44
 70
     1
102
RTVSPost2010Prop45
280
     0
102
RTVSPost2010PropOp45
 70
     1
102
RTVSPost2010Prop46
 90
       50
102
RTVSPost2010PropOp46
 70
     1
102
RTVSPost2010Prop47
 90
       50
102
RTVSPost2010PropOp47
 70
     1
102
RTVSPost2010Prop48
 90
       50
102
RTVSPost2010PropOp48
 70
     1
102
RTVSPost2010Prop49
280
     0
102
RTVSPost2010PropOp49
 70
     1
102
RTVSPost2010Prop50
 90
       50
102
RTVSPost2010PropOp50
 70
     1
102
RTVSPost2010Prop51ColorIndex
 90
      256
102
RTVSPost2010Prop51ColorRGB
 90
-16777216
102
RTVSPost2010PropOp51
 70
     0
102
RTVSPost2010Prop52
140
1.0
102
RTVSPost2010PropOp52
 70
     0
102
RTVSPost2010Prop53
 90
        2
102
RTVSPost2010PropOp53
 70
     1
102
RTVSPost2010Prop54
  1
strokes_ogs.tif
102
RTVSPost2010PropOp54
 70
     1
102
RTVSPost2010Prop55
280
     0
102
RTVSPost2010PropOp55
 70
     1
102
RTVSPost2010Prop56
140
1.0
102
RTVSPost2010PropOp56
 70
     1
102
RTVSPost2010Prop57
140
1.0
102
RTVSPost2010PropOp57
 70
     1
102
RTVSPropertyOp0
 70
     1
102
RTVSPropertyOp1
 70
     1
102
RTVSPropertyOp2
 70
     1
102
RTVSPropertyOp3
 70
     1
102
RTVSPropertyOp4
 70
     1
102
RTVSPropertyOp5
 70
     1
102
RTVSPropertyOp6
 70
     1
102
RTVSPropertyOp7
 70
     1
102
RTVSPropertyOp8
 70
     1
102
RTVSPropertyOp9
 70
     1
102
RTVSPropertyOp10
 70
     1
102
RTVSPropertyOp11
 70
     1
102
RTVSPropertyOp12
 70
     1
102
RTVSPropertyOp13
 70
     1
102
RTVSPropertyOp14
 70
     1
102
RTVSPropertyOp15
 70
     1
102
RTVSPropertyOp16
 70
     1
102
RTVSPropertyOp17
 70
     1
102
RTVSPropertyOp18
 70
     1
102
RTVSPropertyOp19
 70
     1
102
RTVSPropertyOp20
 70
     1
102
RTVSPropertyOp21
 70
     1
102
RTVSPropertyOp22
 70
     1
102
RTVSPropertyOp23
 70
     1
102
RTVSPropertyOp24
 70
     1
102
RTVSPropertyOp25
 70
     1
102
RTVSPropertyOp26
 70
     1
102
RTVSPropertyOp27
 70
     1
102
RTVSPropertyOp28
 70
     1
102
RTVSPropertyOp29
 70
     1
102
RTVSPropertyOp30
 70
     1
102
RTVSPropertyOp31
 70
     1
102
RTVSPropertyOp32
 70
     1
102
RTVSPropertyOp33
 70
     1
102
RTVSPropertyOp34
 70
     1
102
RTVSPropertyOp35
 70
     1
102
RTVSPropertyOp36
 70
     1
102
RTVSPropertyOp37
 70
     1
102
RTVSPropertyOp38
 70
     1
102
RTVSPropertyOp39
 70
     1
102
RTVSPropertyOp40
 70
     1
102
RTVSPropertyOp41
 70
     1
102
RTVSPropertyOp42
 70
     1
102
RTVSPropertyOp43
 70
     1
102
RTVSPropertyOp44
 70
     1
102
RTVSPropertyOp45
 70
     1
102
RTVSPropertyOp46
 70
     1
102
RTVSPropertyOp47
 70
     1
102
RTVSPropertyOp48
 70
     1
102
RTVSPropertyOp49
 70
     1
102
RTVSPropertyOp50
 70
     1
102
RTVSPropertyOp51
 70
     0
102
RTVSPropertyOp52
 70
     0
102
RTVSPropertyOp53
 70
     1
102
RTVSPropertyOp54
 70
     1
102
RTVSPropertyOp55
 70
     1
102
RTVSPropertyOp56
 70
     1
102
RTVSPropertyOp57
 70
     1
102
RTVSPropertyOp58
 70
     1
102
RTVSPropertyOp59
 70
     1
102
RTVSPropertyOp60
 70
     1
102
RTVSPropertyOp61
 70
     1
102
RTVSPropertyOp62
 70
     1
  0
ENDSEC
  0
EOF
