  0
SECTION
  2
HEADER
  9
$ACADVER
  1
AC1015
  9
$ACADMAINTVER
 70
    20
  9
$DWGCODEPAGE
  3
ANSI_932
  9
$INSBASE
 10
0.0
 20
0.0
 30
0.0
  9
$EXTMIN
 10
9.999999
 20
10.000001
 30
0.0
  9
$EXTMAX
 10
754.842002
 20
402.500962
 30
0.0
  9
$LIMMIN
 10
0.0
 20
0.0
  9
$LIMMAX
 10
792.0
 20
546.0
  9
$ORTHOMODE
 70
     1
  9
$REGENMODE
 70
     1
  9
$FILLMODE
 70
     1
  9
$QTEXTMODE
 70
     0
  9
$MIRRTEXT
 70
     1
  9
$LTSCALE
 40
20.0
  9
$ATTMODE
 70
     1
  9
$TEXTSIZE
 40
5.0
  9
$TRACEWID
 40
1.0
  9
$TEXTSTYLE
  7
STANDARD
  9
$CLAYER
  8
0
  9
$CELTYPE
  6
BYLAYER
  9
$CECOLOR
 62
   256
  9
$CELTSCALE
 40
1.0
  9
$DISPSILH
 70
     0
  9
$DIMSCALE
 40
1.0
  9
$DIMASZ
 40
2.5
  9
$DIMEXO
 40
1.0
  9
$DIMDLI
 40
10.0
  9
$DIMRND
 40
0.0
  9
$DIMDLE
 40
0.0
  9
$DIMEXE
 40
1.0
  9
$DIMTP
 40
0.0
  9
$DIMTM
 40
0.0
  9
$DIMTXT
 40
3.2
  9
$DIMCEN
 40
0.0
  9
$DIMTSZ
 40
0.0
  9
$DIMTOL
 70
     0
  9
$DIMLIM
 70
     0
  9
$DIMTIH
 70
     0
  9
$DIMTOH
 70
     0
  9
$DIMSE1
 70
     0
  9
$DIMSE2
 70
     0
  9
$DIMTAD
 70
     3
  9
$DIMZIN
 70
     8
  9
$DIMBLK
  1

  9
$DIMASO
 70
     1
  9
$DIMSHO
 70
     1
  9
$DIMPOST
  1

  9
$DIMAPOST
  1

  9
$DIMALT
 70
     0
  9
$DIMALTD
 70
     2
  9
$DIMALTF
 40
25.4
  9
$DIMLFAC
 40
1.0
  9
$DIMTOFL
 70
     1
  9
$DIMTVP
 40
0.0
  9
$DIMTIX
 70
     0
  9
$DIMSOXD
 70
     0
  9
$DIMSAH
 70
     1
  9
$DIMBLK1
  1

  9
$DIMBLK2
  1

  9
$DIMSTYLE
  2
STANDARD
  9
$DIMCLRD
 70
     0
  9
$DIMCLRE
 70
     0
  9
$DIMCLRT
 70
     0
  9
$DIMTFAC
 40
1.0
  9
$DIMGAP
 40
1.0
  9
$DIMJUST
 70
     0
  9
$DIMSD1
 70
     0
  9
$DIMSD2
 70
     0
  9
$DIMTOLJ
 70
     1
  9
$DIMTZIN
 70
     0
  9
$DIMALTZ
 70
     0
  9
$DIMALTTZ
 70
     0
  9
$DIMUPT
 70
     0
  9
$DIMDEC
 70
     4
  9
$DIMTDEC
 70
     4
  9
$DIMALTU
 70
     2
  9
$DIMALTTD
 70
     2
  9
$DIMTXSTY
  7
STANDARD
  9
$DIMAUNIT
 70
     0
  9
$DIMADEC
 70
     0
  9
$DIMALTRND
 40
0.0
  9
$DIMAZIN
 70
     0
  9
$DIMDSEP
 70
    46
  9
$DIMATFIT
 70
     3
  9
$DIMFRAC
 70
     0
  9
$DIMLDRBLK
  1

  9
$DIMLUNIT
 70
     2
  9
$DIMLWD
 70
    -2
  9
$DIMLWE
 70
    -2
  9
$DIMTMOVE
 70
     0
  9
$LUNITS
 70
     2
  9
$LUPREC
 70
     4
  9
$SKETCHINC
 40
1.0
  9
$FILLETRAD
 40
0.5
  9
$AUNITS
 70
     0
  9
$AUPREC
 70
     2
  9
$MENU
  1
.
  9
$ELEVATION
 40
0.0
  9
$PELEVATION
 40
0.0
  9
$THICKNESS
 40
0.0
  9
$LIMCHECK
 70
     0
  9
$CHAMFERA
 40
10.0
  9
$CHAMFERB
 40
10.0
  9
$CHAMFERC
 40
0.0
  9
$CHAMFERD
 40
0.0
  9
$SKPOLY
 70
     0
  9
$TDCREATE
 40
2451439.578398495
  9
$TDUCREATE
 40
2451439.203398495
  9
$TDUPDATE
 40
2457192.641793935
  9
$TDUUPDATE
 40
2457192.266793935
  9
$TDINDWG
 40
0.0082921759
  9
$TDUSRTIMER
 40
0.0082918519
  9
$USRTIMER
 70
     1
  9
$ANGBASE
 50
0.0
  9
$ANGDIR
 70
     0
  9
$PDMODE
 70
     0
  9
$PDSIZE
 40
0.0
  9
$PLINEWID
 40
0.0
  9
$SPLFRAME
 70
     0
  9
$SPLINETYPE
 70
     6
  9
$SPLINESEGS
 70
     8
  9
$HANDSEED
  5
C7A4
  9
$SURFTAB1
 70
     6
  9
$SURFTAB2
 70
     6
  9
$SURFTYPE
 70
     6
  9
$SURFU
 70
     6
  9
$SURFV
 70
     6
  9
$UCSBASE
  2

  9
$UCSNAME
  2

  9
$UCSORG
 10
0.0
 20
0.0
 30
0.0
  9
$UCSXDIR
 10
1.0
 20
0.0
 30
0.0
  9
$UCSYDIR
 10
0.0
 20
1.0
 30
0.0
  9
$UCSORTHOREF
  2

  9
$UCSORTHOVIEW
 70
     0
  9
$UCSORGTOP
 10
0.0
 20
0.0
 30
0.0
  9
$UCSORGBOTTOM
 10
0.0
 20
0.0
 30
0.0
  9
$UCSORGLEFT
 10
0.0
 20
0.0
 30
0.0
  9
$UCSORGRIGHT
 10
0.0
 20
0.0
 30
0.0
  9
$UCSORGFRONT
 10
0.0
 20
0.0
 30
0.0
  9
$UCSORGBACK
 10
0.0
 20
0.0
 30
0.0
  9
$PUCSBASE
  2

  9
$PUCSNAME
  2

  9
$PUCSORG
 10
0.0
 20
0.0
 30
0.0
  9
$PUCSXDIR
 10
1.0
 20
0.0
 30
0.0
  9
$PUCSYDIR
 10
0.0
 20
1.0
 30
0.0
  9
$PUCSORTHOREF
  2

  9
$PUCSORTHOVIEW
 70
     0
  9
$PUCSORGTOP
 10
0.0
 20
0.0
 30
0.0
  9
$PUCSORGBOTTOM
 10
0.0
 20
0.0
 30
0.0
  9
$PUCSORGLEFT
 10
0.0
 20
0.0
 30
0.0
  9
$PUCSORGRIGHT
 10
0.0
 20
0.0
 30
0.0
  9
$PUCSORGFRONT
 10
0.0
 20
0.0
 30
0.0
  9
$PUCSORGBACK
 10
0.0
 20
0.0
 30
0.0
  9
$USERI1
 70
     0
  9
$USERI2
 70
     0
  9
$USERI3
 70
     0
  9
$USERI4
 70
     0
  9
$USERI5
 70
     0
  9
$USERR1
 40
0.0
  9
$USERR2
 40
0.0
  9
$USERR3
 40
0.0
  9
$USERR4
 40
0.0
  9
$USERR5
 40
0.0
  9
$WORLDVIEW
 70
     1
  9
$SHADEDGE
 70
     3
  9
$SHADEDIF
 70
    70
  9
$TILEMODE
 70
     1
  9
$MAXACTVP
 70
    16
  9
$PINSBASE
 10
0.0
 20
0.0
 30
0.0
  9
$PLIMCHECK
 70
     0
  9
$PEXTMIN
 10
1.000000000000000E+20
 20
1.000000000000000E+20
 30
1.000000000000000E+20
  9
$PEXTMAX
 10
-1.000000000000000E+20
 20
-1.000000000000000E+20
 30
-1.000000000000000E+20
  9
$PLIMMIN
 10
0.0
 20
0.0
  9
$PLIMMAX
 10
420.0
 20
297.0
  9
$UNITMODE
 70
     0
  9
$VISRETAIN
 70
     0
  9
$PLINEGEN
 70
     0
  9
$PSLTSCALE
 70
     0
  9
$TREEDEPTH
 70
  3020
  9
$CMLSTYLE
  2
STANDARD
  9
$CMLJUST
 70
     0
  9
$CMLSCALE
 40
1.0
  9
$PROXYGRAPHICS
 70
     1
  9
$MEASUREMENT
 70
     0
  9
$CELWEIGHT
370
    -1
  9
$ENDCAPS
280
     0
  9
$JOINSTYLE
280
     0
  9
$LWDISPLAY
290
     0
  9
$INSUNITS
 70
     0
  9
$HYPERLINKBASE
  1

  9
$STYLESHEET
  1

  9
$XEDIT
290
     1
  9
$CEPSNTYPE
380
     0
  9
$PSTYLEMODE
290
     1
  9
$FINGERPRINTGUID
  2
{9D064E62-EB3F-462D-AD9E-E159B27A64B6}
  9
$VERSIONGUID
  2
{23C5ECFA-BA12-4EE9-9D9C-79045EFBE54C}
  9
$EXTNAMES
290
     1
  9
$PSVPSCALE
 40
0.0
  9
$OLESTARTUP
290
     0
  0
ENDSEC
  0
SECTION
  2
CLASSES
  0
CLASS
  1
ACDBDICTIONARYWDFLT
  2
AcDbDictionaryWithDefault
  3
ObjectDBX Classes
 90
        0
280
     0
281
     0
  0
CLASS
  1
ACDBPLACEHOLDER
  2
AcDbPlaceHolder
  3
ObjectDBX Classes
 90
        0
280
     0
281
     0
  0
CLASS
  1
LAYOUT
  2
AcDbLayout
  3
ObjectDBX Classes
 90
        0
280
     0
281
     0
  0
CLASS
  1
DICTIONARYVAR
  2
AcDbDictionaryVar
  3
ObjectDBX Classes
 90
        0
280
     0
281
     0
  0
CLASS
  1
MATERIAL
  2
AcDbMaterial
  3
ObjectDBX Classes
 90
     1153
280
     0
281
     0
  0
CLASS
  1
VISUALSTYLE
  2
AcDbVisualStyle
  3
ObjectDBX Classes
 90
     4095
280
     0
281
     0
  0
CLASS
  1
TABLESTYLE
  2
AcDbTableStyle
  3
ObjectDBX Classes
 90
     4095
280
     0
281
     0
  0
CLASS
  1
SCALE
  2
AcDbScale
  3
ObjectDBX Classes
 90
     1153
280
     0
281
     0
  0
CLASS
  1
MLEADERSTYLE
  2
AcDbMLeaderStyle
  3
ACDB_MLEADERSTYLE_CLASS
 90
     4095
280
     0
281
     0
  0
CLASS
  1
ACDBSECTIONVIEWSTYLE
  2
AcDbSectionViewStyle
  3
ObjectDBX Classes
 90
     1025
280
     0
281
     0
  0
CLASS
  1
ACDBDETAILVIEWSTYLE
  2
AcDbDetailViewStyle
  3
ObjectDBX Classes
 90
     1025
280
     0
281
     0
  0
CLASS
  1
CELLSTYLEMAP
  2
AcDbCellStyleMap
  3
ObjectDBX Classes
 90
     1152
280
     0
281
     0
  0
ENDSEC
  0
SECTION
  2
TABLES
  0
TABLE
  2
VPORT
  5
C2C4
330
0
100
AcDbSymbolTable
 70
     1
  0
VPORT
  5
C6ED
330
C2C4
100
AcDbSymbolTableRecord
100
AcDbViewportTableRecord
  2
*ACTIVE
 70
     0
 10
0.0
 20
0.0
 11
1.0
 21
1.0
 12
510.6593234310224
 22
206.2454693331911
 13
0.0
 23
0.0
 14
10.0
 24
10.0
 15
10.0
 25
10.0
 16
0.0
 26
0.0
 36
1.0
 17
0.0
 27
0.0
 37
0.0
 40
428.1845008486397
 41
1.899603698811096
 42
50.0
 43
0.0
 44
0.0
 50
0.0
 51
0.0
 71
     0
 72
   100
 73
     1
 74
     0
 75
     0
 76
     0
 77
     0
 78
     0
281
     0
 65
     1
110
0.0
120
0.0
130
0.0
111
1.0
121
0.0
131
0.0
112
0.0
122
1.0
132
0.0
 79
     0
146
0.0
1001
ACAD_NAV_VCDISPLAY
1070
     3
  0
ENDTAB
  0
TABLE
  2
LTYPE
  5
C2C1
330
0
100
AcDbSymbolTable
 70
     4
  0
LTYPE
  5
C2CF
330
C2C1
100
AcDbSymbolTableRecord
100
AcDbLinetypeTableRecord
  2
BYBLOCK
 70
     0
  3

 72
    65
 73
     0
 40
0.0
  0
LTYPE
  5
C2D0
330
C2C1
100
AcDbSymbolTableRecord
100
AcDbLinetypeTableRecord
  2
BYLAYER
 70
     0
  3

 72
    65
 73
     0
 40
0.0
  0
LTYPE
  5
C2D1
330
C2C1
100
AcDbSymbolTableRecord
100
AcDbLinetypeTableRecord
  2
CONTINUOUS
 70
     0
  3
Solid line
 72
    65
 73
     0
 40
0.0
  0
LTYPE
  5
C2DF
330
C2C1
100
AcDbSymbolTableRecord
100
AcDbLinetypeTableRecord
  2
DASHED
 70
     0
  3
__ __ __ __ __ __ __ __ __ __ __ __ __ __ __ __
 72
    65
 73
     2
 40
0.75
 49
0.5
 74
     0
 49
-0.25
 74
     0
  0
LTYPE
  5
C2E0
330
C2C1
100
AcDbSymbolTableRecord
100
AcDbLinetypeTableRecord
  2
CENTER
 70
     0
  3
____ _ ____ _ ____ _ ____ _ ____ _ ____ _ ____ 
 72
    65
 73
     4
 40
2.0
 49
1.25
 74
     0
 49
-0.25
 74
     0
 49
0.25
 74
     0
 49
-0.25
 74
     0
  0
LTYPE
  5
C2E1
330
C2C1
100
AcDbSymbolTableRecord
100
AcDbLinetypeTableRecord
  2
PHANTOM
 70
     0
  3
______  __  __  ______  __  __  ______  __  __ 
 72
    65
 73
     6
 40
2.5
 49
1.25
 74
     0
 49
-0.25
 74
     0
 49
0.25
 74
     0
 49
-0.25
 74
     0
 49
0.25
 74
     0
 49
-0.25
 74
     0
  0
ENDTAB
  0
TABLE
  2
LAYER
  5
C2BE
330
0
100
AcDbSymbolTable
 70
     8
  0
LAYER
  5
C2CC
102
{ACAD_XDICTIONARY
360
C748
102
}
330
C2BE
100
AcDbSymbolTableRecord
100
AcDbLayerTableRecord
  2
0
 70
     0
 62
     7
  6
CONTINUOUS
370
    -3
390
C6F6
  0
LAYER
  5
C2E2
102
{ACAD_XDICTIONARY
360
C74A
102
}
330
C2BE
100
AcDbSymbolTableRecord
100
AcDbLayerTableRecord
  2
7
 70
     0
 62
     3
  6
CONTINUOUS
370
    -3
390
C6F6
  0
LAYER
  5
C2E3
102
{ACAD_XDICTIONARY
360
C74C
102
}
330
C2BE
100
AcDbSymbolTableRecord
100
AcDbLayerTableRecord
  2
4
 70
     0
 62
     1
  6
CENTER
370
    -3
390
C6F6
  0
LAYER
  5
C2E4
102
{ACAD_XDICTIONARY
360
C74E
102
}
330
C2BE
100
AcDbSymbolTableRecord
100
AcDbLayerTableRecord
  2
5
 70
     0
 62
     6
  6
PHANTOM
370
    -3
390
C6F6
  0
LAYER
  5
C2E5
102
{ACAD_XDICTIONARY
360
C750
102
}
330
C2BE
100
AcDbSymbolTableRecord
100
AcDbLayerTableRecord
  2
1
 70
     0
 62
     7
  6
CONTINUOUS
370
    -3
390
C6F6
  0
LAYER
  5
C2E6
102
{ACAD_XDICTIONARY
360
C752
102
}
330
C2BE
100
AcDbSymbolTableRecord
100
AcDbLayerTableRecord
  2
2
 70
     0
 62
     4
  6
CONTINUOUS
370
    -3
390
C6F6
  0
LAYER
  5
C2E7
102
{ACAD_XDICTIONARY
360
C754
102
}
330
C2BE
100
AcDbSymbolTableRecord
100
AcDbLayerTableRecord
  2
3
 70
     0
 62
     2
  6
DASHED
370
    -3
390
C6F6
  0
LAYER
  5
C2E8
102
{ACAD_XDICTIONARY
360
C756
102
}
330
C2BE
100
AcDbSymbolTableRecord
100
AcDbLayerTableRecord
  2
6
 70
     0
 62
     5
  6
CONTINUOUS
370
    -3
390
C6F6
  0
ENDTAB
  0
TABLE
  2
STYLE
  5
C2BF
330
0
100
AcDbSymbolTable
 70
     1
  0
STYLE
  5
C2CD
330
C2BF
100
AcDbSymbolTableRecord
100
AcDbTextStyleTableRecord
  2
STANDARD
 70
     0
 40
0.0
 41
1.0
 50
0.0
 71
     0
 42
5.0
  3
txt
  4

  0
ENDTAB
  0
TABLE
  2
VIEW
  5
C2C2
330
0
100
AcDbSymbolTable
 70
     0
  0
ENDTAB
  0
TABLE
  2
UCS
  5
C2C3
330
0
100
AcDbSymbolTable
 70
     0
  0
ENDTAB
  0
TABLE
  2
APPID
  5
C2C5
330
0
100
AcDbSymbolTable
 70
     3
  0
APPID
  5
C2CE
330
C2C5
100
AcDbSymbolTableRecord
100
AcDbRegAppTableRecord
  2
ACAD
 70
     0
  0
APPID
  5
C762
330
C2C5
100
AcDbSymbolTableRecord
100
AcDbRegAppTableRecord
  2
ACAD_NAV_VCDISPLAY
 70
     0
  0
APPID
  5
C79B
330
C2C5
100
AcDbSymbolTableRecord
100
AcDbRegAppTableRecord
  2
ACAD_MLEADERVER
 70
     0
  0
ENDTAB
  0
TABLE
  2
DIMSTYLE
  5
C2C6
330
0
100
AcDbSymbolTable
 70
     1
100
AcDbDimStyleTable
 71
     0
  0
DIMSTYLE
105
C2EA
330
C2C6
100
AcDbSymbolTableRecord
100
AcDbDimStyleTableRecord
  2
STANDARD
 70
     0
 41
2.5
 42
1.0
 43
10.0
 44
1.0
 73
     0
 74
     0
 77
     3
 78
     8
140
3.2
141
0.0
147
1.0
172
     1
173
     1
284
     8
285
     8
286
     8
340
C2CD
  0
ENDTAB
  0
TABLE
  2
BLOCK_RECORD
  5
C2BD
330
0
100
AcDbSymbolTable
 70
     0
  0
BLOCK_RECORD
  5
C2DA
102
{ACAD_XDICTIONARY
360
C6F0
102
}
330
C2BD
100
AcDbSymbolTableRecord
100
AcDbBlockTableRecord
  2
*MODEL_SPACE
340
C744
  0
BLOCK_RECORD
  5
C2D6
102
{ACAD_XDICTIONARY
360
C6EE
102
}
330
C2BD
100
AcDbSymbolTableRecord
100
AcDbBlockTableRecord
  2
*PAPER_SPACE
340
C745
  0
ENDTAB
  0
ENDSEC
  0
SECTION
  2
BLOCKS
  0
BLOCK
  5
C2DB
330
C2DA
100
AcDbEntity
  8
0
100
AcDbBlockBegin
  2
*MODEL_SPACE
 70
     0
 10
0.0
 20
0.0
 30
0.0
  3
*MODEL_SPACE
  1

  0
ENDBLK
  5
C2DC
330
C2DA
100
AcDbEntity
  8
0
100
AcDbBlockEnd
  0
BLOCK
  5
C2D7
330
C2D6
100
AcDbEntity
 67
     1
  8
0
100
AcDbBlockBegin
  2
*PAPER_SPACE
 70
     0
 10
0.0
 20
0.0
 30
0.0
  3
*PAPER_SPACE
  1

  0
ENDBLK
  5
C2D8
330
C2D6
100
AcDbEntity
 67
     1
  8
0
100
AcDbBlockEnd
  0
ENDSEC
  0
SECTION
  2
ENTITIES
  0
TEXT
  5
C2F2
330
C2DA
100
AcDbEntity
  8
7
  6
Continuous
100
AcDbText
 10
9.999999
 20
26.000001
 30
0.0
 40
3.0
  1
CODE No.13093
100
AcDbText
  0
TEXT
  5
C2F3
330
C2DA
100
AcDbEntity
  8
7
  6
Continuous
100
AcDbText
 10
9.999999
 20
18.000001
 30
0.0
 40
3.0
  1
TYPE No.THA-330-3
100
AcDbText
  0
TEXT
  5
C2F4
330
C2DA
100
AcDbEntity
  8
1
  6
Continuous
100
AcDbText
 10
9.999999
 20
10.000001
 30
0.0
 40
1.399999999999999
  1
LAYER
100
AcDbText
  0
TEXT
  5
C2F5
330
C2DA
100
AcDbEntity
  8
5
  6
PHANTOM
100
AcDbText
 10
25.97951
 20
10.048738
 30
0.0
 40
1.399999999999999
  1
5
100
AcDbText
  0
TEXT
  5
C2F6
330
C2DA
100
AcDbEntity
  8
6
  6
Continuous
100
AcDbText
 10
27.97950999999999
 20
10.048738
 30
0.0
 40
1.399999999999999
  1
6
100
AcDbText
  0
TEXT
  5
C2F7
330
C2DA
100
AcDbEntity
  8
2
  6
Continuous
100
AcDbText
 10
19.97951
 20
10.048738
 30
0.0
 40
1.399999999999999
  1
2
100
AcDbText
  0
TEXT
  5
C2F8
330
C2DA
100
AcDbEntity
  8
3
  6
DASHED
100
AcDbText
 10
21.97951
 20
10.048738
 30
0.0
 40
1.399999999999999
  1
3
100
AcDbText
  0
TEXT
  5
C2F9
330
C2DA
100
AcDbEntity
  8
4
  6
CENTER
100
AcDbText
 10
23.97951
 20
10.048738
 30
0.0
 40
1.399999999999999
  1
4
100
AcDbText
  0
TEXT
  5
C2FA
330
C2DA
100
AcDbEntity
  8
7
  6
Continuous
100
AcDbText
 10
29.97951
 20
10.048738
 30
0.0
 40
1.399999999999999
  1
7
100
AcDbText
  0
TEXT
  5
C2FB
330
C2DA
100
AcDbEntity
  8
1
  6
Continuous
100
AcDbText
 10
17.97951
 20
10.048738
 30
0.0
 40
1.399999999999999
  1
1
100
AcDbText
  0
LINE
  5
C2FC
330
C2DA
100
AcDbEntity
  8
1
  6
Continuous
100
AcDbLine
 10
217.5077669999998
 20
95.553562
 30
0.0
 11
217.5077669999998
 21
49.553562
 31
0.0
  0
LINE
  5
C2FD
330
C2DA
100
AcDbEntity
  8
1
  6
Continuous
100
AcDbLine
 10
216.507767
 20
95.553562
 30
0.0
 11
216.507767
 21
49.553562
 31
0.0
  0
LINE
  5
C2FE
330
C2DA
100
AcDbEntity
  8
1
  6
Continuous
100
AcDbLine
 10
213.0077669999999
 20
93.55356200000001
 30
0.0
 11
213.0077669999999
 21
51.55356199999999
 31
0.0
  0
LINE
  5
C2FF
330
C2DA
100
AcDbEntity
  8
1
  6
Continuous
100
AcDbLine
 10
205.187276
 20
84.05356199999998
 30
0.0
 11
175.3496059999999
 21
84.05356199999998
 31
0.0
  0
LINE
  5
C300
330
C2DA
100
AcDbEntity
  8
1
  6
Continuous
100
AcDbLine
 10
205.187276
 20
61.053562
 30
0.0
 11
175.3496059999999
 21
61.053562
 31
0.0
  0
LINE
  5
C301
330
C2DA
100
AcDbEntity
  8
4
  6
CENTER
100
AcDbLine
 10
245.054306
 20
72.553573
 30
0.0
 11
167.9077669999998
 21
72.553573
 31
0.0
  0
LINE
  5
C302
330
C2DA
100
AcDbEntity
  8
1
  6
Continuous
100
AcDbLine
 10
185.007767
 20
66.35013599999999
 30
0.0
 11
185.007767
 21
61.053562
 31
0.0
  0
ARC
  5
C303
330
C2DA
100
AcDbEntity
  8
1
  6
Continuous
100
AcDbCircle
 10
184.507767
 20
71.325073
 30
0.0
 40
5.0
100
AcDbArc
 50
270.0
 51
0.0
  0
LINE
  5
C304
330
C2DA
100
AcDbEntity
  8
1
  6
Continuous
100
AcDbLine
 10
185.007767
 20
76.553573
 30
0.0
 11
185.007767
 21
68.553573
 31
0.0
  0
ARC
  5
C305
330
C2DA
100
AcDbEntity
  8
1
  6
Continuous
100
AcDbCircle
 10
184.507767
 20
73.78207299999998
 30
0.0
 40
5.0
100
AcDbArc
 50
0.0
 51
90.0
  0
LINE
  5
C306
330
C2DA
100
AcDbEntity
  8
1
  6
Continuous
100
AcDbLine
 10
184.507767
 20
66.325073
 30
0.0
 11
180.7662949999999
 21
66.325073
 31
0.0
  0
LINE
  5
C307
330
C2DA
100
AcDbEntity
  8
1
  6
Continuous
100
AcDbLine
 10
184.507767
 20
78.78207299999998
 30
0.0
 11
180.7662949999999
 21
78.78207299999998
 31
0.0
  0
LINE
  5
C308
330
C2DA
100
AcDbEntity
  8
1
  6
Continuous
100
AcDbLine
 10
185.007767
 20
84.05356199999998
 30
0.0
 11
185.007767
 21
78.757011
 31
0.0
  0
LINE
  5
C309
330
C2DA
100
AcDbEntity
  8
1
  6
Continuous
100
AcDbLine
 10
189.507767
 20
73.78207299999998
 30
0.0
 11
189.507767
 21
71.325073
 31
0.0
  0
LINE
  5
C30A
330
C2DA
100
AcDbEntity
  8
1
  6
Continuous
100
AcDbLine
 10
230.7077669999999
 20
83.55356200000001
 30
0.0
 11
218.507767
 21
83.55356200000001
 31
0.0
  0
LINE
  5
C30B
330
C2DA
100
AcDbEntity
  8
1
  6
Continuous
100
AcDbLine
 10
230.7077669999999
 20
61.55356199999999
 30
0.0
 11
218.507767
 21
61.55356199999999
 31
0.0
  0
LINE
  5
C30C
330
C2DA
100
AcDbEntity
  8
2
  6
Continuous
100
AcDbLine
 10
231.5197669999998
 20
82.741562
 30
0.0
 11
219.4077669999999
 21
82.741562
 31
0.0
  0
LINE
  5
C30D
330
C2DA
100
AcDbEntity
  8
2
  6
Continuous
100
AcDbLine
 10
231.5197669999998
 20
62.36556199999998
 30
0.0
 11
219.4077669999999
 21
62.36556199999998
 31
0.0
  0
LINE
  5
C30E
330
C2DA
100
AcDbEntity
  8
1
  6
Continuous
100
AcDbLine
 10
230.7077669999999
 20
77.646462
 30
0.0
 11
217.5077669999998
 21
77.646462
 31
0.0
  0
LINE
  5
C30F
330
C2DA
100
AcDbEntity
  8
1
  6
Continuous
100
AcDbLine
 10
230.7077669999999
 20
67.460662
 30
0.0
 11
217.5077669999998
 21
67.460662
 31
0.0
  0
LINE
  5
C310
330
C2DA
100
AcDbEntity
  8
2
  6
Continuous
100
AcDbLine
 10
217.5077669999998
 20
77.646462
 30
0.0
 11
230.7077669999999
 21
67.460662
 31
0.0
  0
LINE
  5
C311
330
C2DA
100
AcDbEntity
  8
2
  6
Continuous
100
AcDbLine
 10
230.7077669999999
 20
77.646462
 30
0.0
 11
217.5077669999998
 21
67.460662
 31
0.0
  0
LINE
  5
C312
330
C2DA
100
AcDbEntity
  8
1
  6
Continuous
100
AcDbLine
 10
219.4077669999999
 20
67.460662
 30
0.0
 11
219.4077669999999
 21
61.55356199999999
 31
0.0
  0
LINE
  5
C313
330
C2DA
100
AcDbEntity
  8
1
  6
Continuous
100
AcDbLine
 10
205.057767
 20
84.05356199999998
 30
0.0
 11
205.057767
 21
61.053562
 31
0.0
  0
LINE
  5
C314
330
C2DA
100
AcDbEntity
  8
1
  6
Continuous
100
AcDbLine
 10
205.0077669999998
 20
61.053562
 30
0.0
 11
205.0077669999998
 21
84.05356199999998
 31
0.0
  0
LINE
  5
C315
330
C2DA
100
AcDbEntity
  8
1
  6
Continuous
100
AcDbLine
 10
205.187276
 20
61.053562
 30
0.0
 11
213.0077669999999
 21
57.553562
 31
0.0
  0
ARC
  5
C316
330
C2DA
100
AcDbEntity
  8
1
  6
Continuous
100
AcDbCircle
 10
218.507767
 20
60.553562
 30
0.0
 40
1.0
100
AcDbArc
 50
90.0
 51
180.0
  0
LINE
  5
C317
330
C2DA
100
AcDbEntity
  8
2
  6
Continuous
100
AcDbLine
 10
218.001341
 20
61.55356199999999
 30
0.0
 11
219.4077669999999
 21
62.36556199999998
 31
0.0
  0
ARC
  5
C318
330
C2DA
100
AcDbEntity
  8
1
  6
Continuous
100
AcDbCircle
 10
215.0077669999999
 20
51.55356199999999
 30
0.0
 40
2.0
100
AcDbArc
 50
180.0
 51
270.0
  0
LINE
  5
C319
330
C2DA
100
AcDbEntity
  8
1
  6
Continuous
100
AcDbLine
 10
215.0077669999999
 20
49.553562
 30
0.0
 11
217.5077669999998
 21
49.553562
 31
0.0
  0
LINE
  5
C31A
330
C2DA
100
AcDbEntity
  8
1
  6
Continuous
100
AcDbLine
 10
205.187276
 20
84.05356199999998
 30
0.0
 11
213.0077669999999
 21
87.55356199999999
 31
0.0
  0
ARC
  5
C31B
330
C2DA
100
AcDbEntity
  8
1
  6
Continuous
100
AcDbCircle
 10
218.507767
 20
84.553562
 30
0.0
 40
1.0
100
AcDbArc
 50
180.0
 51
270.0
  0
LINE
  5
C31C
330
C2DA
100
AcDbEntity
  8
2
  6
Continuous
100
AcDbLine
 10
218.001341
 20
83.55356200000001
 30
0.0
 11
219.4077669999999
 21
82.741562
 31
0.0
  0
LINE
  5
C31D
330
C2DA
100
AcDbEntity
  8
1
  6
Continuous
100
AcDbLine
 10
219.4077669999999
 20
83.55356200000001
 30
0.0
 11
219.4077669999999
 21
77.646462
 31
0.0
  0
LINE
  5
C31E
330
C2DA
100
AcDbEntity
  8
1
  6
Continuous
100
AcDbLine
 10
219.0077669999999
 20
74.803562
 30
0.0
 11
217.5077669999998
 21
74.803562
 31
0.0
  0
LINE
  5
C31F
330
C2DA
100
AcDbEntity
  8
1
  6
Continuous
100
AcDbLine
 10
219.0077669999999
 20
70.30356199999999
 30
0.0
 11
217.5077669999998
 21
70.30356199999999
 31
0.0
  0
LINE
  5
C320
330
C2DA
100
AcDbEntity
  8
1
  6
Continuous
100
AcDbLine
 10
219.0077669999999
 20
70.30356199999999
 30
0.0
 11
219.0077669999999
 21
74.803562
 31
0.0
  0
LINE
  5
C321
330
C2DA
100
AcDbEntity
  8
1
  6
Continuous
100
AcDbLine
 10
232.207767
 20
82.053562
 30
0.0
 11
232.207767
 21
63.053562
 31
0.0
  0
LINE
  5
C322
330
C2DA
100
AcDbEntity
  8
1
  6
Continuous
100
AcDbLine
 10
232.3077669999999
 20
65.753562
 30
0.0
 11
232.3077669999999
 21
79.35356199999998
 31
0.0
  0
LINE
  5
C323
330
C2DA
100
AcDbEntity
  8
1
  6
Continuous
100
AcDbLine
 10
230.7077669999999
 20
67.460662
 30
0.0
 11
230.7077669999999
 21
61.55356199999999
 31
0.0
  0
ARC
  5
C324
330
C2DA
100
AcDbEntity
  8
1
  6
Continuous
100
AcDbCircle
 10
232.107767
 20
65.753562
 30
0.0
 40
0.2
100
AcDbArc
 50
300.0
 51
0.0
  0
LINE
  5
C325
330
C2DA
100
AcDbEntity
  8
1
  6
Continuous
100
AcDbLine
 10
230.7077669999999
 20
61.55356199999999
 30
0.0
 11
232.207767
 21
63.053562
 31
0.0
  0
LINE
  5
C326
330
C2DA
100
AcDbEntity
  8
1
  6
Continuous
100
AcDbLine
 10
237.007767
 20
78.01544199999998
 30
0.0
 11
232.3077669999999
 21
78.01544199999998
 31
0.0
  0
LINE
  5
C327
330
C2DA
100
AcDbEntity
  8
2
  6
Continuous
100
AcDbLine
 10
232.3077669999999
 20
67.09168299999999
 30
0.0
 11
237.007767
 21
72.553562
 31
0.0
  0
LINE
  5
C328
330
C2DA
100
AcDbEntity
  8
2
  6
Continuous
100
AcDbLine
 10
232.3077669999999
 20
72.553562
 30
0.0
 11
237.007767
 21
67.09168299999999
 31
0.0
  0
LINE
  5
C329
330
C2DA
100
AcDbEntity
  8
1
  6
Continuous
100
AcDbLine
 10
237.007767
 20
72.553562
 30
0.0
 11
232.3077669999999
 21
72.553562
 31
0.0
  0
LINE
  5
C32A
330
C2DA
100
AcDbEntity
  8
1
  6
Continuous
100
AcDbLine
 10
237.007767
 20
67.09168299999999
 30
0.0
 11
232.3077669999999
 21
67.09168299999999
 31
0.0
  0
LINE
  5
C32B
330
C2DA
100
AcDbEntity
  8
2
  6
Continuous
100
AcDbLine
 10
237.007767
 20
78.01544199999998
 30
0.0
 11
232.3077669999999
 21
72.553562
 31
0.0
  0
LINE
  5
C32C
330
C2DA
100
AcDbEntity
  8
2
  6
Continuous
100
AcDbLine
 10
237.007767
 20
72.553562
 30
0.0
 11
232.3077669999999
 21
78.01544199999998
 31
0.0
  0
ARC
  5
C32D
330
C2DA
100
AcDbEntity
  8
1
  6
Continuous
100
AcDbCircle
 10
237.007767
 20
77.71544200000002
 30
0.0
 40
0.3
100
AcDbArc
 50
0.0
 51
90.0
  0
ARC
  5
C32E
330
C2DA
100
AcDbEntity
  8
1
  6
Continuous
100
AcDbCircle
 10
237.007767
 20
67.391683
 30
0.0
 40
0.3
100
AcDbArc
 50
270.0
 51
0.0
  0
LINE
  5
C32F
330
C2DA
100
AcDbEntity
  8
1
  6
Continuous
100
AcDbLine
 10
237.3077669999999
 20
77.71544200000002
 30
0.0
 11
237.3077669999999
 21
67.391683
 31
0.0
  0
ARC
  5
C330
330
C2DA
100
AcDbEntity
  8
1
  6
Continuous
100
AcDbCircle
 10
232.107767
 20
79.35356199999998
 30
0.0
 40
0.2
100
AcDbArc
 50
0.0
 51
60.0
  0
LINE
  5
C331
330
C2DA
100
AcDbEntity
  8
1
  6
Continuous
100
AcDbLine
 10
230.7077669999999
 20
83.55356200000001
 30
0.0
 11
232.207767
 21
82.053562
 31
0.0
  0
LINE
  5
C332
330
C2DA
100
AcDbEntity
  8
1
  6
Continuous
100
AcDbLine
 10
230.7077669999999
 20
83.55356200000001
 30
0.0
 11
230.7077669999999
 21
77.646462
 31
0.0
  0
ARC
  5
C333
330
C2DA
100
AcDbEntity
  8
1
  6
Continuous
100
AcDbCircle
 10
222.8118899999997
 20
72.553562
 30
0.0
 40
9.395877
100
AcDbArc
 50
327.177679
 51
32.822321
  0
LINE
  5
C334
330
C2DA
100
AcDbEntity
  8
1
  6
Continuous
100
AcDbLine
 10
215.0077669999999
 20
95.553562
 30
0.0
 11
217.5077669999998
 21
95.553562
 31
0.0
  0
ARC
  5
C335
330
C2DA
100
AcDbEntity
  8
1
  6
Continuous
100
AcDbCircle
 10
215.0077669999999
 20
93.55356200000001
 30
0.0
 40
2.0
100
AcDbArc
 50
90.0
 51
180.0
  0
LINE
  5
C336
330
C2DA
100
AcDbEntity
  8
4
  6
CENTER
100
AcDbLine
 10
124.2004529999999
 20
220.9843259999999
 30
0.0
 11
26.339583
 21
277.4843259999999
 31
0.0
  0
LINE
  5
C337
330
C2DA
100
AcDbEntity
  8
1
  6
Continuous
100
AcDbLine
 10
65.58829399999999
 20
279.9767489999999
 30
0.0
 11
65.58829399999999
 21
246.991904
 31
0.0
  0
LINE
  5
C338
330
C2DA
100
AcDbEntity
  8
1
  6
Continuous
100
AcDbLine
 10
62.08829399999999
 20
246.4843259999999
 30
0.0
 11
62.08829399999999
 21
276.3274609999999
 31
0.0
  0
LINE
  5
C339
330
C2DA
100
AcDbEntity
  8
1
  6
Continuous
100
AcDbLine
 10
60.338294
 20
278.4146129999999
 30
0.0
 11
60.338294
 21
246.9843259999999
 31
0.0
  0
LINE
  5
C33A
330
C2DA
100
AcDbEntity
  8
1
  6
Continuous
100
AcDbLine
 10
35.588294
 20
279.9767489999999
 30
0.0
 11
35.588294
 21
246.991904
 31
0.0
  0
LINE
  5
C33B
330
C2DA
100
AcDbEntity
  8
1
  6
Continuous
100
AcDbLine
 10
39.088294
 20
246.4843259999999
 30
0.0
 11
39.088294
 21
276.3274609999999
 31
0.0
  0
LINE
  5
C33C
330
C2DA
100
AcDbEntity
  8
1
  6
Continuous
100
AcDbLine
 10
40.83829399999999
 20
278.4146129999999
 30
0.0
 11
40.83829399999999
 21
246.9843259999999
 31
0.0
  0
ARC
  5
C33D
330
C2DA
100
AcDbEntity
  8
1
  6
Continuous
100
AcDbCircle
 10
50.588294
 20
263.4843259999997
 30
0.0
 40
23.0
100
AcDbArc
 50
299.938239
 51
240.0617609999999
  0
LINE
  5
C33E
330
C2DA
100
AcDbEntity
  8
4
  6
CENTER
100
AcDbLine
 10
50.588294
 20
178.484326
 30
0.0
 11
50.588294
 21
291.4843259999999
 31
0.0
  0
ARC
  5
C33F
330
C2DA
100
AcDbEntity
  8
5
  6
PHANTOM
100
AcDbCircle
 10
159.5607259999999
 20
418.2301149999998
 30
0.0
 40
200.0
100
AcDbArc
 50
240.839691
 51
245.973223
  0
LINE
  5
C340
330
C2DA
100
AcDbEntity
  8
1
  6
Continuous
100
AcDbLine
 10
62.08829399999999
 20
254.121258
 30
0.0
 11
65.310046
 21
246.690492
 31
0.0
  0
LINE
  5
C341
330
C2DA
100
AcDbEntity
  8
4
  6
CENTER
100
AcDbLine
 10
78.58829399999997
 20
263.4843259999997
 30
0.0
 11
22.588294
 21
263.4843259999997
 31
0.0
  0
LINE
  5
C342
330
C2DA
100
AcDbEntity
  8
1
  6
Continuous
100
AcDbLine
 10
56.81701799999999
 20
185.6703159999999
 30
0.0
 11
61.002422
 21
225.671593
 31
0.0
  0
LINE
  5
C343
330
C2DA
100
AcDbEntity
  8
1
  6
Continuous
100
AcDbLine
 10
40.174167
 20
225.671593
 30
0.0
 11
44.35957
 21
185.6703159999999
 31
0.0
  0
ARC
  5
C344
330
C2DA
100
AcDbEntity
  8
1
  6
Continuous
100
AcDbCircle
 10
50.588294
 20
208.4843259999999
 30
0.0
 40
25.0
100
AcDbArc
 50
259.3779459999999
 51
280.6220539999998
  0
ARC
  5
C345
330
C2DA
100
AcDbEntity
  8
1
  6
Continuous
100
AcDbCircle
 10
46.348711
 20
185.878443
 30
0.0
 40
2.0
100
AcDbArc
 50
185.9732229999999
 51
259.3779459999999
  0
ARC
  5
C346
330
C2DA
100
AcDbEntity
  8
1
  6
Continuous
100
AcDbCircle
 10
54.827877
 20
185.878443
 30
0.0
 40
2.0
100
AcDbArc
 50
280.6220539999998
 51
354.0267769999999
  0
ARC
  5
C347
330
C2DA
100
AcDbEntity
  8
1
  6
Continuous
100
AcDbCircle
 10
-137.911706
 20
246.4843259999999
 30
0.0
 40
200.0
100
AcDbArc
 50
354.0267769999999
 51
0.0
  0
ARC
  5
C348
330
C2DA
100
AcDbEntity
  8
1
  6
Continuous
100
AcDbCircle
 10
239.088294
 20
246.4843259999999
 30
0.0
 40
200.0
100
AcDbArc
 50
180.0
 51
185.9732229999999
  0
LINE
  5
C349
330
C2DA
100
AcDbEntity
  8
1
  6
Continuous
100
AcDbLine
 10
47.701543
 20
256.4843259999999
 30
0.0
 11
53.47504499999999
 21
256.4843259999999
 31
0.0
  0
LINE
  5
C34A
330
C2DA
100
AcDbEntity
  8
1
  6
Continuous
100
AcDbLine
 10
47.412868
 20
255.984326
 30
0.0
 11
53.763721
 21
255.984326
 31
0.0
  0
LINE
  5
C34B
330
C2DA
100
AcDbEntity
  8
1
  6
Continuous
100
AcDbLine
 10
47.124192
 20
255.4843259999999
 30
0.0
 11
54.05239599999998
 21
255.4843259999999
 31
0.0
  0
LINE
  5
C34C
330
C2DA
100
AcDbEntity
  8
1
  6
Continuous
100
AcDbLine
 10
46.83551699999997
 20
254.9843259999999
 30
0.0
 11
54.341071
 21
254.9843259999999
 31
0.0
  0
LINE
  5
C34D
330
C2DA
100
AcDbEntity
  8
1
  6
Continuous
100
AcDbLine
 10
46.546842
 20
254.4843259999999
 30
0.0
 11
54.62974599999999
 21
254.4843259999999
 31
0.0
  0
LINE
  5
C34E
330
C2DA
100
AcDbEntity
  8
1
  6
Continuous
100
AcDbLine
 10
46.258167
 20
253.984326
 30
0.0
 11
54.91842099999999
 21
253.984326
 31
0.0
  0
LINE
  5
C34F
330
C2DA
100
AcDbEntity
  8
1
  6
Continuous
100
AcDbLine
 10
45.969492
 20
253.4843259999999
 30
0.0
 11
50.588294
 21
253.4843259999999
 31
0.0
  0
ARC
  5
C350
330
C2DA
100
AcDbEntity
  8
1
  6
Continuous
100
AcDbCircle
 10
50.588294
 20
245.484326
 30
0.0
 40
8.0
100
AcDbArc
 50
12.83958799999999
 51
167.160412
  0
LINE
  5
C351
330
C2DA
100
AcDbEntity
  8
1
  6
Continuous
100
AcDbLine
 10
43.66009099999998
 20
249.4843259999999
 30
0.0
 11
50.588294
 21
261.4843259999997
 31
0.0
  0
LINE
  5
C352
330
C2DA
100
AcDbEntity
  8
1
  6
Continuous
100
AcDbLine
 10
45.68081699999999
 20
252.9843259999999
 30
0.0
 11
47.804412
 21
252.9843259999999
 31
0.0
  0
LINE
  5
C353
330
C2DA
100
AcDbEntity
  8
1
  6
Continuous
100
AcDbLine
 10
45.39214199999999
 20
252.4843259999999
 30
0.0
 11
46.715311
 21
252.4843259999999
 31
0.0
  0
LINE
  5
C354
330
C2DA
100
AcDbEntity
  8
1
  6
Continuous
100
AcDbLine
 10
45.10346699999998
 20
251.984326
 30
0.0
 11
45.924605
 21
251.984326
 31
0.0
  0
ARC
  5
C355
330
C2DA
100
AcDbEntity
  8
1
  6
Continuous
100
AcDbCircle
 10
41.81333
 20
247.4843259999999
 30
0.0
 40
1.0
100
AcDbArc
 50
270.0
 51
347.160412
  0
ARC
  5
C356
330
C2DA
100
AcDbEntity
  8
1
  6
Continuous
100
AcDbCircle
 10
37.58829399999999
 20
246.991904
 30
0.0
 40
2.0
100
AcDbArc
 50
180.0
 51
231.75338
  0
LINE
  5
C357
330
C2DA
100
AcDbEntity
  8
1
  6
Continuous
100
AcDbLine
 10
41.33829399999997
 20
246.4843259999999
 30
0.0
 11
41.81333
 21
246.4843259999999
 31
0.0
  0
LINE
  5
C358
330
C2DA
100
AcDbEntity
  8
1
  6
Continuous
100
AcDbLine
 10
44.814791
 20
251.4843259999999
 30
0.0
 11
45.296791
 21
251.4843259999999
 31
0.0
  0
LINE
  5
C359
330
C2DA
100
AcDbEntity
  8
1
  6
Continuous
100
AcDbLine
 10
44.526116
 20
250.9843259999999
 30
0.0
 11
44.77881899999998
 21
250.9843259999999
 31
0.0
  0
LINE
  5
C35A
330
C2DA
100
AcDbEntity
  8
1
  6
Continuous
100
AcDbLine
 10
44.23744099999999
 20
250.4843259999999
 30
0.0
 11
44.343296
 21
250.4843259999999
 31
0.0
  0
LINE
  5
C35B
330
C2DA
100
AcDbEntity
  8
1
  6
Continuous
100
AcDbLine
 10
43.94876599999999
 20
249.984326
 30
0.0
 11
43.97391599999997
 21
249.984326
 31
0.0
  0
LINE
  5
C35C
330
C2DA
100
AcDbEntity
  8
1
  6
Continuous
100
AcDbLine
 10
39.088294
 20
254.121258
 30
0.0
 11
35.86654199999999
 21
246.690492
 31
0.0
  0
LINE
  5
C35D
330
C2DA
100
AcDbEntity
  8
1
  6
Continuous
100
AcDbLine
 10
50.29961899999999
 20
260.9843259999997
 30
0.0
 11
50.876969
 21
260.9843259999997
 31
0.0
  0
LINE
  5
C35E
330
C2DA
100
AcDbEntity
  8
1
  6
Continuous
100
AcDbLine
 10
50.010944
 20
260.4843259999999
 30
0.0
 11
51.165644
 21
260.4843259999999
 31
0.0
  0
LINE
  5
C35F
330
C2DA
100
AcDbEntity
  8
1
  6
Continuous
100
AcDbLine
 10
49.72226899999999
 20
259.9843259999999
 30
0.0
 11
51.454319
 21
259.9843259999999
 31
0.0
  0
LINE
  5
C360
330
C2DA
100
AcDbEntity
  8
1
  6
Continuous
100
AcDbLine
 10
49.433594
 20
259.4843259999997
 30
0.0
 11
51.742995
 21
259.4843259999997
 31
0.0
  0
LINE
  5
C361
330
C2DA
100
AcDbEntity
  8
1
  6
Continuous
100
AcDbLine
 10
49.144918
 20
258.9843259999997
 30
0.0
 11
52.03167
 21
258.9843259999997
 31
0.0
  0
LINE
  5
C362
330
C2DA
100
AcDbEntity
  8
1
  6
Continuous
100
AcDbLine
 10
48.85624299999999
 20
258.4843259999999
 30
0.0
 11
52.32034500000001
 21
258.4843259999999
 31
0.0
  0
LINE
  5
C363
330
C2DA
100
AcDbEntity
  8
1
  6
Continuous
100
AcDbLine
 10
48.567568
 20
257.9843259999999
 30
0.0
 11
52.60901999999999
 21
257.9843259999999
 31
0.0
  0
LINE
  5
C364
330
C2DA
100
AcDbEntity
  8
1
  6
Continuous
100
AcDbLine
 10
48.27889299999998
 20
257.4843259999997
 30
0.0
 11
52.897695
 21
257.4843259999997
 31
0.0
  0
LINE
  5
C365
330
C2DA
100
AcDbEntity
  8
1
  6
Continuous
100
AcDbLine
 10
47.990218
 20
256.9843259999997
 30
0.0
 11
53.18636999999998
 21
256.9843259999997
 31
0.0
  0
LINE
  5
C366
330
C2DA
100
AcDbEntity
  8
1
  6
Continuous
100
AcDbLine
 10
50.588294
 20
253.4843259999999
 30
0.0
 11
55.20709599999999
 21
253.4843259999999
 31
0.0
  0
LINE
  5
C367
330
C2DA
100
AcDbEntity
  8
1
  6
Continuous
100
AcDbLine
 10
53.372176
 20
252.9843259999999
 30
0.0
 11
55.495771
 21
252.9843259999999
 31
0.0
  0
LINE
  5
C368
330
C2DA
100
AcDbEntity
  8
1
  6
Continuous
100
AcDbLine
 10
54.461277
 20
252.4843259999999
 30
0.0
 11
55.784447
 21
252.4843259999999
 31
0.0
  0
LINE
  5
C369
330
C2DA
100
AcDbEntity
  8
1
  6
Continuous
100
AcDbLine
 10
55.251984
 20
251.984326
 30
0.0
 11
56.07312199999999
 21
251.984326
 31
0.0
  0
LINE
  5
C36A
330
C2DA
100
AcDbEntity
  8
1
  6
Continuous
100
AcDbLine
 10
59.36325799999998
 20
246.4843259999999
 30
0.0
 11
59.838294
 21
246.4843259999999
 31
0.0
  0
ARC
  5
C36B
330
C2DA
100
AcDbEntity
  8
1
  6
Continuous
100
AcDbCircle
 10
59.36325799999998
 20
247.4843259999999
 30
0.0
 40
1.0
100
AcDbArc
 50
192.839588
 51
270.0
  0
LINE
  5
C36C
330
C2DA
100
AcDbEntity
  8
1
  6
Continuous
100
AcDbLine
 10
55.87979699999999
 20
251.4843259999999
 30
0.0
 11
56.36179699999999
 21
251.4843259999999
 31
0.0
  0
LINE
  5
C36D
330
C2DA
100
AcDbEntity
  8
1
  6
Continuous
100
AcDbLine
 10
56.397769
 20
250.9843259999999
 30
0.0
 11
56.650472
 21
250.9843259999999
 31
0.0
  0
LINE
  5
C36E
330
C2DA
100
AcDbEntity
  8
1
  6
Continuous
100
AcDbLine
 10
56.83329200000001
 20
250.4843259999999
 30
0.0
 11
56.939147
 21
250.4843259999999
 31
0.0
  0
LINE
  5
C36F
330
C2DA
100
AcDbEntity
  8
1
  6
Continuous
100
AcDbLine
 10
57.202672
 20
249.984326
 30
0.0
 11
57.22782200000001
 21
249.984326
 31
0.0
  0
LINE
  5
C370
330
C2DA
100
AcDbEntity
  8
1
  6
Continuous
100
AcDbLine
 10
57.36601499999999
 20
249.734326
 30
0.0
 11
57.37216
 21
249.734326
 31
0.0
  0
LINE
  5
C371
330
C2DA
100
AcDbEntity
  8
5
  6
PHANTOM
100
AcDbLine
 10
78.12801800000002
 20
235.5590609999999
 30
0.0
 11
114.8628409999999
 21
219.1830879999999
 31
0.0
  0
ARC
  5
C372
330
C2DA
100
AcDbEntity
  8
5
  6
PHANTOM
100
AcDbCircle
 10
98.219691
 20
235.9843259999999
 30
0.0
 40
25.0
100
AcDbArc
 50
319.377946
 51
340.622054
  0
ARC
  5
C373
330
C2DA
100
AcDbEntity
  8
5
  6
PHANTOM
100
AcDbCircle
 10
115.677169
 20
221.009798
 30
0.0
 40
2.0
100
AcDbArc
 50
245.973223
 51
319.377946
  0
LINE
  5
C374
330
C2DA
100
AcDbEntity
  8
5
  6
PHANTOM
100
AcDbLine
 10
121.091565
 20
229.971554
 30
0.0
 11
88.54214499999995
 21
253.5968589999999
 31
0.0
  0
ARC
  5
C375
330
C2DA
100
AcDbEntity
  8
5
  6
PHANTOM
100
AcDbCircle
 10
-28.93927399999999
 20
91.738537
 30
0.0
 40
200.0
100
AcDbArc
 50
54.026777
 51
59.16030899999999
  0
ARC
  5
C376
330
C2DA
100
AcDbEntity
  8
1
  6
Continuous
100
AcDbCircle
 10
63.588294
 20
246.991904
 30
0.0
 40
2.0
100
AcDbArc
 50
308.24662
 51
0.0
  0
ARC
  5
C377
330
C2DA
100
AcDbEntity
  8
5
  6
PHANTOM
100
AcDbCircle
 10
119.916752
 20
228.3529709999999
 30
0.0
 40
2.0
100
AcDbArc
 50
340.622054
 51
54.026777
  0
LINE
  5
C378
330
C2DA
100
AcDbEntity
  8
1
  6
Continuous
100
AcDbLine
 10
62.08829399999999
 20
272.847394
 30
0.0
 11
65.310046
 21
280.27816
 31
0.0
  0
ARC
  5
C379
330
C2DA
100
AcDbEntity
  8
1
  6
Continuous
100
AcDbCircle
 10
50.588294
 20
256.4843259999999
 30
0.0
 40
24.0
100
AcDbArc
 50
64.41699799999999
 51
115.583002
  0
ARC
  5
C37A
330
C2DA
100
AcDbEntity
  8
1
  6
Continuous
100
AcDbCircle
 10
37.58829399999999
 20
279.9767489999999
 30
0.0
 40
2.0
100
AcDbArc
 50
128.24662
 51
180.0
  0
ARC
  5
C37B
330
C2DA
100
AcDbEntity
  8
1
  6
Continuous
100
AcDbCircle
 10
41.088294
 20
276.3274609999999
 30
0.0
 40
2.0
100
AcDbArc
 50
115.583002
 51
180.0
  0
LINE
  5
C37C
330
C2DA
100
AcDbEntity
  8
1
  6
Continuous
100
AcDbLine
 10
39.088294
 20
272.847394
 30
0.0
 11
35.86654199999999
 21
280.27816
 31
0.0
  0
ARC
  5
C37D
330
C2DA
100
AcDbEntity
  8
1
  6
Continuous
100
AcDbCircle
 10
60.08829399999999
 20
276.3274609999999
 30
0.0
 40
2.0
100
AcDbArc
 50
0.0
 51
64.41699799999999
  0
ARC
  5
C37E
330
C2DA
100
AcDbEntity
  8
1
  6
Continuous
100
AcDbCircle
 10
63.588294
 20
279.9767489999999
 30
0.0
 40
2.0
100
AcDbArc
 50
0.0
 51
51.75337999999999
  0
LINE
  5
C37F
330
C2DA
100
AcDbEntity
  8
1
  6
Continuous
100
AcDbLine
 10
232.207767
 20
272.9843259999999
 30
0.0
 11
232.207767
 21
253.984326
 31
0.0
  0
LINE
  5
C380
330
C2DA
100
AcDbEntity
  8
1
  6
Continuous
100
AcDbLine
 10
232.3077669999999
 20
256.684326
 30
0.0
 11
232.3077669999999
 21
270.2843259999997
 31
0.0
  0
LINE
  5
C381
330
C2DA
100
AcDbEntity
  8
1
  6
Continuous
100
AcDbLine
 10
205.057767
 20
276.291455
 30
0.0
 11
205.057767
 21
250.6771969999999
 31
0.0
  0
LINE
  5
C382
330
C2DA
100
AcDbEntity
  8
1
  6
Continuous
100
AcDbLine
 10
205.0077669999998
 20
250.4843259999999
 30
0.0
 11
205.0077669999998
 21
276.4843259999997
 31
0.0
  0
LINE
  5
C383
330
C2DA
100
AcDbEntity
  8
1
  6
Continuous
100
AcDbLine
 10
213.0077669999999
 20
284.4843259999997
 30
0.0
 11
213.0077669999999
 21
242.4843259999999
 31
0.0
  0
LINE
  5
C384
330
C2DA
100
AcDbEntity
  8
1
  6
Continuous
100
AcDbLine
 10
216.507767
 20
286.4843259999997
 30
0.0
 11
216.507767
 21
240.4843259999999
 31
0.0
  0
LINE
  5
C385
330
C2DA
100
AcDbEntity
  8
1
  6
Continuous
100
AcDbLine
 10
217.5077669999998
 20
286.4843259999997
 30
0.0
 11
217.5077669999998
 21
240.4843259999999
 31
0.0
  0
LINE
  5
C386
330
C2DA
100
AcDbEntity
  8
2
  6
Continuous
100
AcDbLine
 10
237.007767
 20
268.946206
 30
0.0
 11
232.3077669999999
 21
263.4843259999997
 31
0.0
  0
LINE
  5
C387
330
C2DA
100
AcDbEntity
  8
2
  6
Continuous
100
AcDbLine
 10
237.007767
 20
263.4843259999997
 30
0.0
 11
232.3077669999999
 21
268.946206
 31
0.0
  0
LINE
  5
C388
330
C2DA
100
AcDbEntity
  8
1
  6
Continuous
100
AcDbLine
 10
237.3077669999999
 20
268.646206
 30
0.0
 11
237.3077669999999
 21
258.322447
 31
0.0
  0
LINE
  5
C389
330
C2DA
100
AcDbEntity
  8
1
  6
Continuous
100
AcDbLine
 10
189.377905
 20
252.1365139999999
 30
0.0
 11
204.5532639999999
 21
254.063543
 31
0.0
  0
LINE
  5
C38A
330
C2DA
100
AcDbEntity
  8
1
  6
Continuous
100
AcDbLine
 10
185.0683509999998
 20
247.9523369999999
 30
0.0
 11
205.0077669999998
 21
250.4843259999999
 31
0.0
  0
LINE
  5
C38B
330
C2DA
100
AcDbEntity
  8
4
  6
CENTER
100
AcDbLine
 10
167.9077669999998
 20
263.4843259999997
 30
0.0
 11
240.8336779999999
 21
263.4843259999997
 31
0.0
  0
LINE
  5
C38C
330
C2DA
100
AcDbEntity
  8
1
  6
Continuous
100
AcDbLine
 10
179.301221
 20
185.2522439999999
 30
0.0
 11
174.8588819999999
 21
223.2761329999999
 31
0.0
  0
LINE
  5
C38D
330
C2DA
100
AcDbEntity
  8
1
  6
Continuous
100
AcDbLine
 10
185.007767
 20
247.176345
 30
0.0
 11
185.007767
 21
197.6411799999999
 31
0.0
  0
LINE
  5
C38E
330
C2DA
100
AcDbEntity
  8
1
  6
Continuous
100
AcDbLine
 10
189.507767
 20
189.827472
 30
0.0
 11
189.507767
 21
188.484326
 31
0.0
  0
ARC
  5
C38F
330
C2DA
100
AcDbEntity
  8
1
  6
Continuous
100
AcDbCircle
 10
185.507767
 20
189.827472
 30
0.0
 40
4.0
100
AcDbArc
 50
0.0
 51
45.0
  0
ARC
  5
C390
330
C2DA
100
AcDbEntity
  8
1
  6
Continuous
100
AcDbCircle
 10
189.007767
 20
197.6411799999999
 30
0.0
 40
4.0
100
AcDbArc
 50
180.0
 51
225.0
  0
LINE
  5
C391
330
C2DA
100
AcDbEntity
  8
1
  6
Continuous
100
AcDbLine
 10
188.336195
 20
192.655899
 30
0.0
 11
186.1793399999999
 21
194.8127529999999
 31
0.0
  0
ARC
  5
C392
330
C2DA
100
AcDbEntity
  8
1
  6
Continuous
100
AcDbCircle
 10
181.28771
 20
185.484326
 30
0.0
 40
2.0
100
AcDbArc
 50
186.6636699999999
 51
270.0
  0
LINE
  5
C393
330
C2DA
100
AcDbEntity
  8
1
  6
Continuous
100
AcDbLine
 10
181.28771
 20
183.484326
 30
0.0
 11
184.507767
 21
183.484326
 31
0.0
  0
ARC
  5
C394
330
C2DA
100
AcDbEntity
  8
1
  6
Continuous
100
AcDbCircle
 10
184.507767
 20
188.484326
 30
0.0
 40
5.0
100
AcDbArc
 50
270.0
 51
0.0
  0
ARC
  5
C395
330
C2DA
100
AcDbEntity
  8
1
  6
Continuous
100
AcDbCircle
 10
373.5077669999999
 20
246.4843259999999
 30
0.0
 40
200.0
100
AcDbArc
 50
180.0
 51
186.6636699999999
  0
ARC
  5
C396
330
C2DA
100
AcDbEntity
  8
1
  6
Continuous
100
AcDbCircle
 10
190.0077669999998
 20
247.176345
 30
0.0
 40
5.0
100
AcDbArc
 50
97.23692200000002
 51
180.0
  0
LINE
  5
C397
330
C2DA
100
AcDbEntity
  8
1
  6
Continuous
100
AcDbLine
 10
231.957767
 20
253.7343259999999
 30
0.0
 11
217.5077669999998
 21
253.7343259999999
 31
0.0
  0
LINE
  5
C398
330
C2DA
100
AcDbEntity
  8
1
  6
Continuous
100
AcDbLine
 10
213.5258639999999
 20
241.1412089999998
 30
0.0
 11
205.187292
 21
250.341418
 31
0.0
  0
ARC
  5
C399
330
C2DA
100
AcDbEntity
  8
1
  6
Continuous
100
AcDbCircle
 10
215.0077669999999
 20
242.4843259999999
 30
0.0
 40
2.0
100
AcDbArc
 50
180.0
 51
270.0
  0
LINE
  5
C39A
330
C2DA
100
AcDbEntity
  8
1
  6
Continuous
100
AcDbLine
 10
215.0077669999999
 20
240.4843259999999
 30
0.0
 11
217.5077669999998
 21
240.4843259999999
 31
0.0
  0
LINE
  5
C39B
330
C2DA
100
AcDbEntity
  8
1
  6
Continuous
100
AcDbLine
 10
205.0077669999998
 20
254.4843259999999
 30
0.0
 11
205.057767
 21
254.4843259999999
 31
0.0
  0
ARC
  5
C39C
330
C2DA
100
AcDbEntity
  8
1
  6
Continuous
100
AcDbCircle
 10
205.5577669999999
 20
250.6771969999999
 30
0.0
 40
0.5
100
AcDbArc
 50
180.0
 51
222.187464
  0
LINE
  5
C39D
330
C2DA
100
AcDbEntity
  8
1
  6
Continuous
100
AcDbLine
 10
219.0077669999999
 20
243.9843259999999
 30
0.0
 11
219.0077669999999
 21
248.4843259999999
 31
0.0
  0
LINE
  5
C39E
330
C2DA
100
AcDbEntity
  8
1
  6
Continuous
100
AcDbLine
 10
219.0077669999999
 20
243.9843259999999
 30
0.0
 11
217.5077669999998
 21
243.9843259999999
 31
0.0
  0
LINE
  5
C39F
330
C2DA
100
AcDbEntity
  8
1
  6
Continuous
100
AcDbLine
 10
219.0077669999999
 20
248.4843259999999
 30
0.0
 11
217.5077669999998
 21
248.4843259999999
 31
0.0
  0
ARC
  5
C3A0
330
C2DA
100
AcDbEntity
  8
1
  6
Continuous
100
AcDbCircle
 10
237.007767
 20
258.322447
 30
0.0
 40
0.3
100
AcDbArc
 50
270.0
 51
0.0
  0
LINE
  5
C3A1
330
C2DA
100
AcDbEntity
  8
1
  6
Continuous
100
AcDbLine
 10
231.957767
 20
253.7343259999999
 30
0.0
 11
232.207767
 21
253.984326
 31
0.0
  0
ARC
  5
C3A2
330
C2DA
100
AcDbEntity
  8
1
  6
Continuous
100
AcDbCircle
 10
232.107767
 20
256.684326
 30
0.0
 40
0.2
100
AcDbArc
 50
300.0
 51
0.0
  0
LINE
  5
C3A3
330
C2DA
100
AcDbEntity
  8
2
  6
Continuous
100
AcDbLine
 10
232.3077669999999
 20
258.022447
 30
0.0
 11
237.007767
 21
263.4843259999997
 31
0.0
  0
LINE
  5
C3A4
330
C2DA
100
AcDbEntity
  8
2
  6
Continuous
100
AcDbLine
 10
232.3077669999999
 20
263.4843259999997
 30
0.0
 11
237.007767
 21
258.022447
 31
0.0
  0
LINE
  5
C3A5
330
C2DA
100
AcDbEntity
  8
1
  6
Continuous
100
AcDbLine
 10
237.007767
 20
263.4843259999997
 30
0.0
 11
232.3077669999999
 21
263.4843259999997
 31
0.0
  0
LINE
  5
C3A6
330
C2DA
100
AcDbEntity
  8
1
  6
Continuous
100
AcDbLine
 10
237.007767
 20
258.022447
 30
0.0
 11
232.3077669999999
 21
258.022447
 31
0.0
  0
LINE
  5
C3A7
330
C2DA
100
AcDbEntity
  8
1
  6
Continuous
100
AcDbLine
 10
205.0077669999998
 20
276.4843259999997
 30
0.0
 11
186.7789169999998
 21
280.2748919999999
 31
0.0
  0
LINE
  5
C3A8
330
C2DA
100
AcDbEntity
  8
1
  6
Continuous
100
AcDbLine
 10
204.5611189999999
 20
273.5798019999999
 30
0.0
 11
186.181462
 21
277.4017279999998
 31
0.0
  0
LINE
  5
C3A9
330
C2DA
100
AcDbEntity
  8
1
  6
Continuous
100
AcDbLine
 10
231.957767
 20
273.2343259999999
 30
0.0
 11
217.5077669999998
 21
273.2343259999999
 31
0.0
  0
ARC
  5
C3AA
330
C2DA
100
AcDbEntity
  8
1
  6
Continuous
100
AcDbCircle
 10
215.0077669999999
 20
284.4843259999997
 30
0.0
 40
2.0
100
AcDbArc
 50
90.0
 51
180.0
  0
LINE
  5
C3AB
330
C2DA
100
AcDbEntity
  8
1
  6
Continuous
100
AcDbLine
 10
213.5258639999999
 20
285.827443
 30
0.0
 11
205.187292
 21
276.6272339999998
 31
0.0
  0
ARC
  5
C3AC
330
C2DA
100
AcDbEntity
  8
1
  6
Continuous
100
AcDbCircle
 10
205.5577669999999
 20
276.291455
 30
0.0
 40
0.5
100
AcDbArc
 50
137.812536
 51
180.0
  0
LINE
  5
C3AD
330
C2DA
100
AcDbEntity
  8
1
  6
Continuous
100
AcDbLine
 10
205.057767
 20
274.8343259999999
 30
0.0
 11
205.0077669999998
 21
274.8343259999999
 31
0.0
  0
LINE
  5
C3AE
330
C2DA
100
AcDbEntity
  8
1
  6
Continuous
100
AcDbLine
 10
219.0077669999999
 20
282.9843259999999
 30
0.0
 11
219.0077669999999
 21
278.4843259999997
 31
0.0
  0
LINE
  5
C3AF
330
C2DA
100
AcDbEntity
  8
1
  6
Continuous
100
AcDbLine
 10
219.0077669999999
 20
278.4843259999997
 30
0.0
 11
217.5077669999998
 21
278.4843259999997
 31
0.0
  0
LINE
  5
C3B0
330
C2DA
100
AcDbEntity
  8
1
  6
Continuous
100
AcDbLine
 10
219.0077669999999
 20
282.9843259999999
 30
0.0
 11
217.5077669999998
 21
282.9843259999999
 31
0.0
  0
LINE
  5
C3B1
330
C2DA
100
AcDbEntity
  8
1
  6
Continuous
100
AcDbLine
 10
215.0077669999999
 20
286.4843259999997
 30
0.0
 11
217.5077669999998
 21
286.4843259999997
 31
0.0
  0
ARC
  5
C3B2
330
C2DA
100
AcDbEntity
  8
1
  6
Continuous
100
AcDbCircle
 10
237.007767
 20
268.646206
 30
0.0
 40
0.3
100
AcDbArc
 50
0.0
 51
90.0
  0
LINE
  5
C3B3
330
C2DA
100
AcDbEntity
  8
1
  6
Continuous
100
AcDbLine
 10
232.207767
 20
272.9843259999999
 30
0.0
 11
231.957767
 21
273.2343259999999
 31
0.0
  0
ARC
  5
C3B4
330
C2DA
100
AcDbEntity
  8
1
  6
Continuous
100
AcDbCircle
 10
232.107767
 20
270.2843259999997
 30
0.0
 40
0.2
100
AcDbArc
 50
0.0
 51
60.0
  0
LINE
  5
C3B5
330
C2DA
100
AcDbEntity
  8
1
  6
Continuous
100
AcDbLine
 10
237.007767
 20
268.946206
 30
0.0
 11
232.3077669999999
 21
268.946206
 31
0.0
  0
LINE
  5
C3B6
330
C2DA
100
AcDbEntity
  8
4
  6
CENTER
100
AcDbLine
 10
317.515077
 20
72.553574
 30
0.0
 11
302.8764799999997
 21
72.553574
 31
0.0
  0
ARC
  5
C3B7
330
C2DA
100
AcDbEntity
  8
1
  6
Continuous
100
AcDbCircle
 10
304.959338
 20
65.053574
 30
0.0
 40
32.055667
100
AcDbArc
 50
166.4692029999999
 51
193.530797
  0
ARC
  5
C3B8
330
C2DA
100
AcDbEntity
  8
1
  6
Continuous
100
AcDbCircle
 10
244.8480029999998
 20
65.053574
 30
0.0
 40
32.055667
100
AcDbArc
 50
346.469203
 51
13.530797
  0
LINE
  5
C3B9
330
C2DA
100
AcDbEntity
  8
1
  6
Continuous
100
AcDbLine
 10
272.9036699999999
 20
57.553574
 30
0.0
 11
272.9036699999999
 21
87.55357399999999
 31
0.0
  0
LINE
  5
C3BA
330
C2DA
100
AcDbEntity
  8
1
  6
Continuous
100
AcDbLine
 10
276.90367
 20
57.553574
 30
0.0
 11
276.90367
 21
87.55357399999999
 31
0.0
  0
LINE
  5
C3BB
330
C2DA
100
AcDbEntity
  8
1
  6
Continuous
100
AcDbLine
 10
278.4036699999999
 20
58.55357399999999
 30
0.0
 11
278.4036699999999
 21
86.55357399999996
 31
0.0
  0
LINE
  5
C3BC
330
C2DA
100
AcDbEntity
  8
1
  6
Continuous
100
AcDbLine
 10
276.90367
 20
58.55357399999999
 30
0.0
 11
278.4036699999999
 21
58.55357399999999
 31
0.0
  0
LINE
  5
C3BD
330
C2DA
100
AcDbEntity
  8
1
  6
Continuous
100
AcDbLine
 10
278.4036699999999
 20
61.20458000000001
 30
0.0
 11
276.90367
 21
61.20458000000001
 31
0.0
  0
LINE
  5
C3BE
330
C2DA
100
AcDbEntity
  8
1
  6
Continuous
100
AcDbLine
 10
278.4036699999999
 20
59.59524399999999
 30
0.0
 11
276.90367
 21
59.59524399999999
 31
0.0
  0
LINE
  5
C3BF
330
C2DA
100
AcDbEntity
  8
1
  6
Continuous
100
AcDbLine
 10
276.90367
 20
57.553574
 30
0.0
 11
272.9036699999999
 21
57.553574
 31
0.0
  0
LINE
  5
C3C0
330
C2DA
100
AcDbEntity
  8
1
  6
Continuous
100
AcDbLine
 10
271.4036699999999
 20
58.55357399999999
 30
0.0
 11
272.9036699999999
 21
58.55357399999999
 31
0.0
  0
LINE
  5
C3C1
330
C2DA
100
AcDbEntity
  8
4
  6
CENTER
100
AcDbLine
 10
266.9036699999999
 20
72.553573
 30
0.0
 11
281.4036699999999
 21
72.553573
 31
0.0
  0
LINE
  5
C3C2
330
C2DA
100
AcDbEntity
  8
1
  6
Continuous
100
AcDbLine
 10
276.90367
 20
86.55357399999996
 30
0.0
 11
278.4036699999999
 21
86.55357399999996
 31
0.0
  0
LINE
  5
C3C3
330
C2DA
100
AcDbEntity
  8
1
  6
Continuous
100
AcDbLine
 10
278.4036699999999
 20
85.51190400000001
 30
0.0
 11
276.90367
 21
85.51190400000001
 31
0.0
  0
LINE
  5
C3C4
330
C2DA
100
AcDbEntity
  8
1
  6
Continuous
100
AcDbLine
 10
278.4036699999999
 20
83.902569
 30
0.0
 11
276.90367
 21
83.902569
 31
0.0
  0
LINE
  5
C3C5
330
C2DA
100
AcDbEntity
  8
1
  6
Continuous
100
AcDbLine
 10
276.90367
 20
87.55357399999999
 30
0.0
 11
272.9036699999999
 21
87.55357399999999
 31
0.0
  0
LINE
  5
C3C6
330
C2DA
100
AcDbEntity
  8
1
  6
Continuous
100
AcDbLine
 10
271.4036699999999
 20
86.55357399999996
 30
0.0
 11
272.9036699999999
 21
86.55357399999996
 31
0.0
  0
LINE
  5
C3C7
330
C2DA
100
AcDbEntity
  8
1
  6
Continuous
100
AcDbLine
 10
273.793398
 20
72.553573
 30
0.0
 11
276.0139419999998
 21
72.553574
 31
0.0
  0
ARC
  5
C3C8
330
C2DA
100
AcDbEntity
  8
1
  6
Continuous
100
AcDbCircle
 10
304.959338
 20
80.05357399999999
 30
0.0
 40
32.055667
100
AcDbArc
 50
166.4692029999999
 51
193.530797
  0
ARC
  5
C3C9
330
C2DA
100
AcDbEntity
  8
1
  6
Continuous
100
AcDbCircle
 10
244.8480029999998
 20
80.05357399999999
 30
0.0
 40
32.055667
100
AcDbArc
 50
346.469203
 51
13.530797
  0
LINE
  5
C3CA
330
C2DA
100
AcDbEntity
  8
1
  6
Continuous
100
AcDbLine
 10
309.07648
 20
81.55357399999997
 30
0.0
 11
309.07648
 21
63.55357399999999
 31
0.0
  0
LINE
  5
C3CB
330
C2DA
100
AcDbEntity
  8
1
  6
Continuous
100
AcDbLine
 10
305.8764799999999
 20
81.55357399999997
 30
0.0
 11
305.8764799999999
 21
63.55357399999999
 31
0.0
  0
LINE
  5
C3CC
330
C2DA
100
AcDbEntity
  8
1
  6
Continuous
100
AcDbLine
 10
309.07648
 20
63.55357399999999
 30
0.0
 11
305.8764799999999
 21
63.55357399999999
 31
0.0
  0
LINE
  5
C3CD
330
C2DA
100
AcDbEntity
  8
1
  6
Continuous
100
AcDbLine
 10
309.07648
 20
81.55357399999997
 30
0.0
 11
305.8764799999999
 21
81.55357399999997
 31
0.0
  0
LINE
  5
C3CE
330
C2DA
100
AcDbEntity
  8
1
  6
Continuous
100
AcDbLine
 10
333.104554
 20
80.553574
 30
0.0
 11
333.104554
 21
64.553574
 31
0.0
  0
LINE
  5
C3CF
330
C2DA
100
AcDbEntity
  8
1
  6
Continuous
100
AcDbLine
 10
331.904554
 20
80.553574
 30
0.0
 11
331.904554
 21
64.553574
 31
0.0
  0
LINE
  5
C3D0
330
C2DA
100
AcDbEntity
  8
1
  6
Continuous
100
AcDbLine
 10
314.515077
 20
81.55357399999997
 30
0.0
 11
314.515077
 21
63.55357399999999
 31
0.0
  0
LINE
  5
C3D1
330
C2DA
100
AcDbEntity
  8
1
  6
Continuous
100
AcDbLine
 10
312.9150769999998
 20
81.55357399999997
 30
0.0
 11
312.9150769999998
 21
63.55357399999999
 31
0.0
  0
LINE
  5
C3D2
330
C2DA
100
AcDbEntity
  8
1
  6
Continuous
100
AcDbLine
 10
314.515077
 20
63.55357399999999
 30
0.0
 11
312.9150769999998
 21
63.55357399999999
 31
0.0
  0
LINE
  5
C3D3
330
C2DA
100
AcDbEntity
  8
1
  6
Continuous
100
AcDbLine
 10
333.104554
 20
64.553574
 30
0.0
 11
331.904554
 21
64.553574
 31
0.0
  0
LINE
  5
C3D4
330
C2DA
100
AcDbEntity
  8
1
  6
Continuous
100
AcDbLine
 10
314.515077
 20
81.55357399999997
 30
0.0
 11
312.9150769999998
 21
81.55357399999997
 31
0.0
  0
LINE
  5
C3D5
330
C2DA
100
AcDbEntity
  8
1
  6
Continuous
100
AcDbLine
 10
337.904554
 20
76.55357399999998
 30
0.0
 11
334.404554
 21
76.55357399999998
 31
0.0
  0
ARC
  5
C3D6
330
C2DA
100
AcDbEntity
  8
1
  6
Continuous
100
AcDbCircle
 10
332.1295779999999
 20
70.553574
 30
0.0
 40
5.774976999999998
100
AcDbArc
 50
339.7375
 51
20.2625
  0
ARC
  5
C3D7
330
C2DA
100
AcDbEntity
  8
1
  6
Continuous
100
AcDbCircle
 10
340.179531
 20
70.553574
 30
0.0
 40
5.774976999999998
100
AcDbArc
 50
159.7375
 51
200.2625
  0
LINE
  5
C3D8
330
C2DA
100
AcDbEntity
  8
1
  6
Continuous
100
AcDbLine
 10
337.904554
 20
68.55357399999999
 30
0.0
 11
334.404554
 21
68.55357399999999
 31
0.0
  0
LINE
  5
C3D9
330
C2DA
100
AcDbEntity
  8
1
  6
Continuous
100
AcDbLine
 10
334.761934
 20
72.553574
 30
0.0
 11
337.5471749999999
 21
72.553574
 31
0.0
  0
LINE
  5
C3DA
330
C2DA
100
AcDbEntity
  8
1
  6
Continuous
100
AcDbLine
 10
337.904554
 20
76.55357399999998
 30
0.0
 11
337.904554
 21
68.55357399999999
 31
0.0
  0
ARC
  5
C3DB
330
C2DA
100
AcDbEntity
  8
1
  6
Continuous
100
AcDbCircle
 10
340.179531
 20
74.553574
 30
0.0
 40
5.774976999999998
100
AcDbArc
 50
159.7375
 51
200.2625
  0
ARC
  5
C3DC
330
C2DA
100
AcDbEntity
  8
1
  6
Continuous
100
AcDbCircle
 10
332.1295779999999
 20
74.553574
 30
0.0
 40
5.774976999999998
100
AcDbArc
 50
339.7375
 51
20.2625
  0
LINE
  5
C3DD
330
C2DA
100
AcDbEntity
  8
1
  6
Continuous
100
AcDbLine
 10
333.104554
 20
80.553574
 30
0.0
 11
331.904554
 21
80.553574
 31
0.0
  0
LINE
  5
C3DE
330
C2DA
100
AcDbEntity
  8
1
  6
Continuous
100
AcDbLine
 10
334.404554
 20
77.15357400000002
 30
0.0
 11
333.104554
 21
77.15357400000002
 31
0.0
  0
LINE
  5
C3DF
330
C2DA
100
AcDbEntity
  8
1
  6
Continuous
100
AcDbLine
 10
334.404554
 20
73.85357399999998
 30
0.0
 11
333.104554
 21
72.553574
 31
0.0
  0
LINE
  5
C3E0
330
C2DA
100
AcDbEntity
  8
4
  6
CENTER
100
AcDbLine
 10
340.904554
 20
72.553574
 30
0.0
 11
328.904554
 21
72.553574
 31
0.0
  0
LINE
  5
C3E1
330
C2DA
100
AcDbEntity
  8
1
  6
Continuous
100
AcDbLine
 10
334.404554
 20
67.953574
 30
0.0
 11
333.104554
 21
67.953574
 31
0.0
  0
LINE
  5
C3E2
330
C2DA
100
AcDbEntity
  8
1
  6
Continuous
100
AcDbLine
 10
334.404554
 20
67.953574
 30
0.0
 11
334.404554
 21
77.15357400000002
 31
0.0
  0
LINE
  5
C3E3
330
C2DA
100
AcDbEntity
  8
1
  6
Continuous
100
AcDbLine
 10
334.404554
 20
72.553574
 30
0.0
 11
333.104554
 21
71.253574
 31
0.0
  0
ARC
  5
C3E4
330
C2DA
100
AcDbEntity
  8
1
  6
Continuous
100
AcDbCircle
 10
330.2635089999997
 20
263.4843259999997
 30
0.0
 40
7.641045
100
AcDbArc
 50
342.4072529999999
 51
17.59274699999998
  0
ARC
  5
C3E5
330
C2DA
100
AcDbEntity
  8
1
  6
Continuous
100
AcDbCircle
 10
342.0455989999999
 20
263.4843259999997
 30
0.0
 40
7.641045
100
AcDbArc
 50
162.407253
 51
197.592747
  0
LINE
  5
C3E6
330
C2DA
100
AcDbEntity
  8
1
  6
Continuous
100
AcDbLine
 10
337.904554
 20
267.484826
 30
0.0
 11
337.904554
 21
259.484826
 31
0.0
  0
ARC
  5
C3E7
330
C2DA
100
AcDbEntity
  8
1
  6
Continuous
100
AcDbCircle
 10
234.3111149999999
 20
263.4843259999997
 30
0.0
 40
42.592555
100
AcDbArc
 50
348.268368
 51
11.731632
  0
ARC
  5
C3E8
330
C2DA
100
AcDbEntity
  8
1
  6
Continuous
100
AcDbCircle
 10
315.496225
 20
263.4843259999997
 30
0.0
 40
42.592555
100
AcDbArc
 50
168.2683679999998
 51
191.7316319999999
  0
LINE
  5
C3E9
330
C2DA
100
AcDbEntity
  8
1
  6
Continuous
100
AcDbLine
 10
276.90367
 20
248.484324
 30
0.0
 11
276.90367
 21
278.484328
 31
0.0
  0
LINE
  5
C3EA
330
C2DA
100
AcDbEntity
  8
1
  6
Continuous
100
AcDbLine
 10
272.9036699999999
 20
248.4843259999999
 30
0.0
 11
272.9036699999999
 21
278.4843259999997
 31
0.0
  0
LINE
  5
C3EB
330
C2DA
100
AcDbEntity
  8
1
  6
Continuous
100
AcDbLine
 10
278.4036699999999
 20
249.4843259999999
 30
0.0
 11
278.4036699999999
 21
277.4843259999999
 31
0.0
  0
LINE
  5
C3EC
330
C2DA
100
AcDbEntity
  8
1
  6
Continuous
100
AcDbLine
 10
334.404554
 20
264.7843259999999
 30
0.0
 11
333.104554
 21
263.4843259999997
 31
0.0
  0
LINE
  5
C3ED
330
C2DA
100
AcDbEntity
  8
1
  6
Continuous
100
AcDbLine
 10
334.404554
 20
258.8843259999998
 30
0.0
 11
334.404554
 21
268.0843259999999
 31
0.0
  0
LINE
  5
C3EE
330
C2DA
100
AcDbEntity
  8
1
  6
Continuous
100
AcDbLine
 10
331.904554
 20
271.4843259999997
 30
0.0
 11
331.904554
 21
255.4843259999999
 31
0.0
  0
LINE
  5
C3EF
330
C2DA
100
AcDbEntity
  8
1
  6
Continuous
100
AcDbLine
 10
333.104554
 20
271.4843259999997
 30
0.0
 11
333.104554
 21
255.4843259999999
 31
0.0
  0
LINE
  5
C3F0
330
C2DA
100
AcDbEntity
  8
1
  6
Continuous
100
AcDbLine
 10
312.9150769999998
 20
272.4843259999999
 30
0.0
 11
312.9150769999998
 21
254.4843259999999
 31
0.0
  0
LINE
  5
C3F1
330
C2DA
100
AcDbEntity
  8
1
  6
Continuous
100
AcDbLine
 10
314.515077
 20
272.4843259999999
 30
0.0
 11
314.515077
 21
254.4843259999999
 31
0.0
  0
LINE
  5
C3F2
330
C2DA
100
AcDbEntity
  8
1
  6
Continuous
100
AcDbLine
 10
305.8764799999999
 20
272.4843259999999
 30
0.0
 11
305.8764799999999
 21
254.4843259999999
 31
0.0
  0
LINE
  5
C3F3
330
C2DA
100
AcDbEntity
  8
1
  6
Continuous
100
AcDbLine
 10
309.07648
 20
272.4843259999999
 30
0.0
 11
309.07648
 21
254.4843259999999
 31
0.0
  0
LINE
  5
C3F4
330
C2DA
100
AcDbEntity
  8
4
  6
CENTER
100
AcDbLine
 10
317.515077
 20
263.4843259999997
 30
0.0
 11
302.8764799999997
 21
263.4843259999997
 31
0.0
  0
LINE
  5
C3F5
330
C2DA
100
AcDbEntity
  8
4
  6
CENTER
100
AcDbLine
 10
266.9036699999999
 20
263.4843259999997
 30
0.0
 11
281.4036699999999
 21
263.4843259999997
 31
0.0
  0
LINE
  5
C3F6
330
C2DA
100
AcDbEntity
  8
1
  6
Continuous
100
AcDbLine
 10
278.4036699999999
 20
257.7545989999999
 30
0.0
 11
276.90367
 21
257.7545989999999
 31
0.0
  0
LINE
  5
C3F7
330
C2DA
100
AcDbEntity
  8
1
  6
Continuous
100
AcDbLine
 10
278.4036699999999
 20
255.286745
 30
0.0
 11
276.90367
 21
255.286745
 31
0.0
  0
LINE
  5
C3F8
330
C2DA
100
AcDbEntity
  8
1
  6
Continuous
100
AcDbLine
 10
276.0139419999998
 20
254.824072
 30
0.0
 11
273.793398
 21
254.824072
 31
0.0
  0
LINE
  5
C3F9
330
C2DA
100
AcDbEntity
  8
1
  6
Continuous
100
AcDbLine
 10
275.5639249999999
 20
246.163818
 30
0.0
 11
276.9036709999999
 21
248.4843259999999
 31
0.0
  0
LINE
  5
C3FA
330
C2DA
100
AcDbEntity
  8
1
  6
Continuous
100
AcDbLine
 10
274.243416
 20
246.163818
 30
0.0
 11
272.9036699999999
 21
248.4843259999999
 31
0.0
  0
LINE
  5
C3FB
330
C2DA
100
AcDbEntity
  8
1
  6
Continuous
100
AcDbLine
 10
275.5639249999999
 20
246.163818
 30
0.0
 11
274.243416
 21
246.163818
 31
0.0
  0
LINE
  5
C3FC
330
C2DA
100
AcDbEntity
  8
1
  6
Continuous
100
AcDbLine
 10
278.4036699999999
 20
249.4843259999999
 30
0.0
 11
276.90367
 21
249.4843259999999
 31
0.0
  0
LINE
  5
C3FD
330
C2DA
100
AcDbEntity
  8
1
  6
Continuous
100
AcDbLine
 10
276.90367
 20
249.4843259999999
 30
0.0
 11
278.4036699999999
 21
249.4843259999999
 31
0.0
  0
LINE
  5
C3FE
330
C2DA
100
AcDbEntity
  8
1
  6
Continuous
100
AcDbLine
 10
271.4036699999999
 20
249.4843259999999
 30
0.0
 11
272.9036699999999
 21
249.4843259999999
 31
0.0
  0
ARC
  5
C3FF
330
C2DA
100
AcDbEntity
  8
1
  6
Continuous
100
AcDbCircle
 10
265.9218829999999
 20
250.493945
 30
0.0
 40
10.98178699999998
100
AcDbArc
 50
346.759553
 51
23.222372
  0
ARC
  5
C400
330
C2DA
100
AcDbEntity
  8
1
  6
Continuous
100
AcDbCircle
 10
283.8854569999999
 20
250.493945
 30
0.0
 40
10.98178699999998
100
AcDbArc
 50
156.7776279999999
 51
193.240431
  0
LINE
  5
C401
330
C2DA
100
AcDbEntity
  8
1
  6
Continuous
100
AcDbLine
 10
309.07648
 20
254.4843259999999
 30
0.0
 11
305.8764799999999
 21
254.4843259999999
 31
0.0
  0
LINE
  5
C402
330
C2DA
100
AcDbEntity
  8
1
  6
Continuous
100
AcDbLine
 10
314.515077
 20
254.4843259999999
 30
0.0
 11
312.9150769999998
 21
254.4843259999999
 31
0.0
  0
ARC
  5
C403
330
C2DA
100
AcDbEntity
  8
1
  6
Continuous
100
AcDbCircle
 10
335.8594679999999
 20
260.020826
 30
0.0
 40
2.045087
100
AcDbArc
 50
334.3862009999999
 51
34.386201
  0
LINE
  5
C404
330
C2DA
100
AcDbEntity
  8
1
  6
Continuous
100
AcDbLine
 10
337.904554
 20
259.484826
 30
0.0
 11
337.5471749999999
 21
258.8658259999998
 31
0.0
  0
LINE
  5
C405
330
C2DA
100
AcDbEntity
  8
1
  6
Continuous
100
AcDbLine
 10
334.404554
 20
259.484826
 30
0.0
 11
334.761934
 21
258.8658259999998
 31
0.0
  0
LINE
  5
C406
330
C2DA
100
AcDbEntity
  8
1
  6
Continuous
100
AcDbLine
 10
334.761934
 20
258.8658259999998
 30
0.0
 11
337.5471749999999
 21
258.8658259999998
 31
0.0
  0
LINE
  5
C407
330
C2DA
100
AcDbEntity
  8
1
  6
Continuous
100
AcDbLine
 10
334.761934
 20
261.174826
 30
0.0
 11
337.5471749999999
 21
261.174826
 31
0.0
  0
ARC
  5
C408
330
C2DA
100
AcDbEntity
  8
1
  6
Continuous
100
AcDbCircle
 10
336.449641
 20
260.020826
 30
0.0
 40
2.045087
100
AcDbArc
 50
145.613799
 51
205.613799
  0
LINE
  5
C409
330
C2DA
100
AcDbEntity
  8
1
  6
Continuous
100
AcDbLine
 10
334.404554
 20
263.4843259999997
 30
0.0
 11
333.104554
 21
262.1843259999999
 31
0.0
  0
LINE
  5
C40A
330
C2DA
100
AcDbEntity
  8
1
  6
Continuous
100
AcDbLine
 10
334.404554
 20
258.8843259999998
 30
0.0
 11
333.104554
 21
258.8843259999998
 31
0.0
  0
LINE
  5
C40B
330
C2DA
100
AcDbEntity
  8
1
  6
Continuous
100
AcDbLine
 10
333.104554
 20
255.4843259999999
 30
0.0
 11
331.904554
 21
255.4843259999999
 31
0.0
  0
LINE
  5
C40C
330
C2DA
100
AcDbEntity
  8
4
  6
CENTER
100
AcDbLine
 10
340.904554
 20
263.4843259999997
 30
0.0
 11
328.904554
 21
263.4843259999997
 31
0.0
  0
LINE
  5
C40D
330
C2DA
100
AcDbEntity
  8
1
  6
Continuous
100
AcDbLine
 10
275.5639249999999
 20
280.8048339999999
 30
0.0
 11
276.9036709999999
 21
278.4843259999997
 31
0.0
  0
LINE
  5
C40E
330
C2DA
100
AcDbEntity
  8
1
  6
Continuous
100
AcDbLine
 10
274.243416
 20
280.8048339999999
 30
0.0
 11
272.9036699999999
 21
278.4843259999997
 31
0.0
  0
LINE
  5
C40F
330
C2DA
100
AcDbEntity
  8
1
  6
Continuous
100
AcDbLine
 10
275.5639249999999
 20
280.8048339999999
 30
0.0
 11
274.243416
 21
280.8048339999999
 31
0.0
  0
LINE
  5
C410
330
C2DA
100
AcDbEntity
  8
1
  6
Continuous
100
AcDbLine
 10
278.4036699999999
 20
277.4843259999999
 30
0.0
 11
276.90367
 21
277.4843259999999
 31
0.0
  0
LINE
  5
C411
330
C2DA
100
AcDbEntity
  8
1
  6
Continuous
100
AcDbLine
 10
276.90367
 20
277.4843259999999
 30
0.0
 11
278.4036699999999
 21
277.4843259999999
 31
0.0
  0
LINE
  5
C412
330
C2DA
100
AcDbEntity
  8
1
  6
Continuous
100
AcDbLine
 10
271.4036699999999
 20
277.4843259999999
 30
0.0
 11
272.9036699999999
 21
277.4843259999999
 31
0.0
  0
LINE
  5
C413
330
C2DA
100
AcDbEntity
  8
1
  6
Continuous
100
AcDbLine
 10
278.4036699999999
 20
271.6819069999999
 30
0.0
 11
276.90367
 21
271.6819069999999
 31
0.0
  0
LINE
  5
C414
330
C2DA
100
AcDbEntity
  8
1
  6
Continuous
100
AcDbLine
 10
276.0139419999998
 20
272.1445799999999
 30
0.0
 11
273.793398
 21
272.1445799999999
 31
0.0
  0
LINE
  5
C415
330
C2DA
100
AcDbEntity
  8
1
  6
Continuous
100
AcDbLine
 10
278.4036699999999
 20
269.2140529999999
 30
0.0
 11
276.90367
 21
269.2140529999999
 31
0.0
  0
ARC
  5
C416
330
C2DA
100
AcDbEntity
  8
1
  6
Continuous
100
AcDbCircle
 10
265.9218829999999
 20
276.4747069999998
 30
0.0
 40
10.98178699999998
100
AcDbArc
 50
336.777628
 51
13.24044699999999
  0
ARC
  5
C417
330
C2DA
100
AcDbEntity
  8
1
  6
Continuous
100
AcDbCircle
 10
283.8854569999999
 20
276.4747069999998
 30
0.0
 40
10.98178699999998
100
AcDbArc
 50
166.7595689999999
 51
203.222372
  0
LINE
  5
C418
330
C2DA
100
AcDbEntity
  8
1
  6
Continuous
100
AcDbLine
 10
309.07648
 20
272.4843259999999
 30
0.0
 11
305.8764799999999
 21
272.4843259999999
 31
0.0
  0
LINE
  5
C419
330
C2DA
100
AcDbEntity
  8
1
  6
Continuous
100
AcDbLine
 10
314.515077
 20
272.4843259999999
 30
0.0
 11
312.9150769999998
 21
272.4843259999999
 31
0.0
  0
ARC
  5
C41A
330
C2DA
100
AcDbEntity
  8
1
  6
Continuous
100
AcDbCircle
 10
335.8594679999999
 20
266.948826
 30
0.0
 40
2.045087
100
AcDbArc
 50
325.6137989999999
 51
25.61379899999999
  0
LINE
  5
C41B
330
C2DA
100
AcDbEntity
  8
1
  6
Continuous
100
AcDbLine
 10
337.904554
 20
267.484826
 30
0.0
 11
337.5471749999999
 21
268.1038259999999
 31
0.0
  0
LINE
  5
C41C
330
C2DA
100
AcDbEntity
  8
1
  6
Continuous
100
AcDbLine
 10
334.761934
 20
265.7938259999998
 30
0.0
 11
337.5471749999999
 21
265.7938259999998
 31
0.0
  0
LINE
  5
C41D
330
C2DA
100
AcDbEntity
  8
1
  6
Continuous
100
AcDbLine
 10
334.761934
 20
268.1038259999999
 30
0.0
 11
337.5471749999999
 21
268.1038259999999
 31
0.0
  0
ARC
  5
C41E
330
C2DA
100
AcDbEntity
  8
1
  6
Continuous
100
AcDbCircle
 10
336.449641
 20
266.948826
 30
0.0
 40
2.045087
100
AcDbArc
 50
154.3862009999998
 51
214.3862009999998
  0
LINE
  5
C41F
330
C2DA
100
AcDbEntity
  8
1
  6
Continuous
100
AcDbLine
 10
334.404554
 20
267.484826
 30
0.0
 11
334.761934
 21
268.1038259999999
 31
0.0
  0
LINE
  5
C420
330
C2DA
100
AcDbEntity
  8
1
  6
Continuous
100
AcDbLine
 10
334.404554
 20
268.0843259999999
 30
0.0
 11
333.104554
 21
268.0843259999999
 31
0.0
  0
LINE
  5
C421
330
C2DA
100
AcDbEntity
  8
1
  6
Continuous
100
AcDbLine
 10
333.104554
 20
271.4843259999997
 30
0.0
 11
331.904554
 21
271.4843259999997
 31
0.0
  0
LINE
  5
C422
330
C2DA
100
AcDbEntity
  8
1
  6
Continuous
100
AcDbLine
 10
462.3708399999999
 20
323.4843259999997
 30
0.0
 11
462.5854799999998
 21
324.0740469999999
 31
0.0
  0
LINE
  5
C423
330
C2DA
100
AcDbEntity
  8
1
  6
Continuous
100
AcDbLine
 10
460.378929
 20
323.4843259999997
 30
0.0
 11
460.1642879999998
 21
324.0740469999999
 31
0.0
  0
LINE
  5
C424
330
C2DA
100
AcDbEntity
  8
1
  6
Continuous
100
AcDbLine
 10
457.374884
 20
321.1743259999999
 30
0.0
 11
457.374884
 21
325.7933259999999
 31
0.0
  0
LINE
  5
C425
330
C2DA
100
AcDbEntity
  8
1
  6
Continuous
100
AcDbLine
 10
465.374884
 20
321.1743259999999
 30
0.0
 11
465.374884
 21
325.7933259999999
 31
0.0
  0
CIRCLE
  5
C426
330
C2DA
100
AcDbEntity
  8
1
  6
Continuous
100
AcDbCircle
 10
461.374884
 20
323.4843259999997
 30
0.0
 40
4.0
  0
CIRCLE
  5
C427
330
C2DA
100
AcDbEntity
  8
1
  6
Continuous
100
AcDbCircle
 10
461.374884
 20
323.4843259999997
 30
0.0
 40
3.1
  0
CIRCLE
  5
C428
330
C2DA
100
AcDbEntity
  8
1
  6
Continuous
100
AcDbCircle
 10
461.374884
 20
263.4843259999997
 30
0.0
 40
15.0
  0
LINE
  5
C429
330
C2DA
100
AcDbEntity
  8
4
  6
CENTER
100
AcDbLine
 10
387.762725
 20
220.9843259999999
 30
0.0
 11
485.623596
 21
277.4843259999999
 31
0.0
  0
CIRCLE
  5
C42A
330
C2DA
100
AcDbEntity
  8
1
  6
Continuous
100
AcDbCircle
 10
461.374884
 20
263.4843259999997
 30
0.0
 40
23.0
  0
CIRCLE
  5
C42B
330
C2DA
100
AcDbEntity
  8
1
  6
Continuous
100
AcDbCircle
 10
461.374884
 20
323.4843259999997
 30
0.0
 40
9.0
  0
CIRCLE
  5
C42C
330
C2DA
100
AcDbEntity
  8
1
  6
Continuous
100
AcDbCircle
 10
461.374884
 20
323.4843259999997
 30
0.0
 40
8.0
  0
ARC
  5
C42D
330
C2DA
100
AcDbEntity
  8
1
  6
Continuous
100
AcDbCircle
 10
461.374884
 20
263.4843259999997
 30
0.0
 40
13.0
100
AcDbArc
 50
168.9125109999999
 51
191.087489
  0
ARC
  5
C42E
330
C2DA
100
AcDbEntity
  8
1
  6
Continuous
100
AcDbCircle
 10
461.374884
 20
263.4843259999997
 30
0.0
 40
11.3
100
AcDbArc
 50
167.218188
 51
192.7818119999997
  0
LINE
  5
C42F
330
C2DA
100
AcDbEntity
  8
1
  6
Continuous
100
AcDbLine
 10
446.374884
 20
254.824072
 30
0.0
 11
446.374884
 21
272.1445799999999
 31
0.0
  0
ARC
  5
C430
330
C2DA
100
AcDbEntity
  8
1
  6
Continuous
100
AcDbCircle
 10
461.374884
 20
263.4843259999997
 30
0.0
 40
14.0
100
AcDbArc
 50
155.841252
 51
204.158748
  0
ARC
  5
C431
330
C2DA
100
AcDbEntity
  8
1
  6
Continuous
100
AcDbCircle
 10
461.374884
 20
263.4843259999997
 30
0.0
 40
13.0
100
AcDbArc
 50
342.079787
 51
17.920213
  0
ARC
  5
C432
330
C2DA
100
AcDbEntity
  8
1
  6
Continuous
100
AcDbCircle
 10
461.374884
 20
263.4843259999997
 30
0.0
 40
11.3
100
AcDbArc
 50
339.2689149999998
 51
20.731085
  0
LINE
  5
C433
330
C2DA
100
AcDbEntity
  8
1
  6
Continuous
100
AcDbLine
 10
476.3748839999998
 20
254.824072
 30
0.0
 11
476.3748839999998
 21
272.1445799999999
 31
0.0
  0
ARC
  5
C434
330
C2DA
100
AcDbEntity
  8
1
  6
Continuous
100
AcDbCircle
 10
461.374884
 20
263.4843259999997
 30
0.0
 40
14.0
100
AcDbArc
 50
335.8412519999999
 51
24.158748
  0
ARC
  5
C435
330
C2DA
100
AcDbEntity
  8
1
  6
Continuous
100
AcDbCircle
 10
461.374884
 20
263.4843259999997
 30
0.0
 40
11.0
100
AcDbArc
 50
297.5801989999999
 51
62.419801
  0
ARC
  5
C436
330
C2DA
100
AcDbEntity
  8
2
  6
Continuous
100
AcDbCircle
 10
461.374884
 20
263.4843259999997
 30
0.0
 40
10.18799999999999
100
AcDbArc
 50
286.8615909999999
 51
73.13840899999998
  0
ARC
  5
C437
330
C2DA
100
AcDbEntity
  8
1
  6
Continuous
100
AcDbCircle
 10
461.374884
 20
263.4843259999997
 30
0.0
 40
11.0
100
AcDbArc
 50
117.5801989999998
 51
242.419801
  0
ARC
  5
C438
330
C2DA
100
AcDbEntity
  8
2
  6
Continuous
100
AcDbCircle
 10
461.374884
 20
263.4843259999997
 30
0.0
 40
10.18799999999999
100
AcDbArc
 50
106.8615909999999
 51
253.1384089999999
  0
LINE
  5
C439
330
C2DA
100
AcDbEntity
  8
4
  6
CENTER
100
AcDbLine
 10
461.374884
 20
291.4843259999999
 30
0.0
 11
461.374884
 21
178.484326
 31
0.0
  0
ARC
  5
C43A
330
C2DA
100
AcDbEntity
  8
5
  6
PHANTOM
100
AcDbCircle
 10
352.4024519999999
 20
418.2301149999998
 30
0.0
 40
200.0
100
AcDbArc
 50
294.0267769999999
 51
299.1603089999999
  0
LINE
  5
C43B
330
C2DA
100
AcDbEntity
  8
4
  6
CENTER
100
AcDbLine
 10
489.3748839999998
 20
263.4843259999997
 30
0.0
 11
433.374884
 21
263.4843259999997
 31
0.0
  0
LINE
  5
C43C
330
C2DA
100
AcDbEntity
  8
1
  6
Continuous
100
AcDbLine
 10
446.374884
 20
254.824072
 30
0.0
 11
461.374884
 21
246.163818
 31
0.0
  0
ARC
  5
C43D
330
C2DA
100
AcDbEntity
  8
5
  6
PHANTOM
100
AcDbCircle
 10
413.7434869999998
 20
235.9843259999999
 30
0.0
 40
25.0
100
AcDbArc
 50
199.377946
 51
220.6220539999999
  0
LINE
  5
C43E
330
C2DA
100
AcDbEntity
  8
5
  6
PHANTOM
100
AcDbLine
 10
433.83516
 20
235.5590609999999
 30
0.0
 11
397.100337
 21
219.1830879999999
 31
0.0
  0
ARC
  5
C43F
330
C2DA
100
AcDbEntity
  8
5
  6
PHANTOM
100
AcDbCircle
 10
396.2860099999998
 20
221.009798
 30
0.0
 40
2.0
100
AcDbArc
 50
220.6220539999999
 51
294.0267769999999
  0
LINE
  5
C440
330
C2DA
100
AcDbEntity
  8
5
  6
PHANTOM
100
AcDbLine
 10
390.8716129999999
 20
229.971554
 30
0.0
 11
423.421033
 21
253.5968589999999
 31
0.0
  0
ARC
  5
C441
330
C2DA
100
AcDbEntity
  8
5
  6
PHANTOM
100
AcDbCircle
 10
392.046427
 20
228.3529709999999
 30
0.0
 40
2.0
100
AcDbArc
 50
125.973223
 51
199.377946
  0
ARC
  5
C442
330
C2DA
100
AcDbEntity
  8
5
  6
PHANTOM
100
AcDbCircle
 10
540.9024519999998
 20
91.738537
 30
0.0
 40
200.0
100
AcDbArc
 50
120.8396909999999
 51
125.973223
  0
ARC
  5
C443
330
C2DA
100
AcDbEntity
  8
1
  6
Continuous
100
AcDbCircle
 10
460.4708269999998
 20
220.35586
 30
0.0
 40
0.6253750000000001
100
AcDbArc
 50
212.8499999999999
 51
222.8699999999999
  0
ARC
  5
C444
330
C2DA
100
AcDbEntity
  8
1
  6
Continuous
100
AcDbCircle
 10
460.3200769999999
 20
220.35586
 30
0.0
 40
0.6253750000000001
100
AcDbArc
 50
317.1304
 51
42.86999999999999
  0
ARC
  5
C445
330
C2DA
100
AcDbEntity
  8
1
  6
Continuous
100
AcDbCircle
 10
459.5708269999998
 20
220.35586
 30
0.0
 40
0.6253750000000001
100
AcDbArc
 50
137.1299999999999
 51
222.8699999999999
  0
ARC
  5
C446
330
C2DA
100
AcDbEntity
  8
1
  6
Continuous
100
AcDbCircle
 10
459.4200749999997
 20
220.35586
 30
0.0
 40
0.6253750000000001
100
AcDbArc
 50
317.1304
 51
327.1503
  0
LINE
  5
C447
330
C2DA
100
AcDbEntity
  8
1
  6
Continuous
100
AcDbLine
 10
466.234036
 20
196.6046259999999
 30
0.0
 11
469.3025849999997
 21
225.9317519999999
 31
0.0
  0
LINE
  5
C448
330
C2DA
100
AcDbEntity
  8
1
  6
Continuous
100
AcDbLine
 10
453.447183
 20
225.9317519999999
 30
0.0
 11
456.515731
 21
196.6046259999999
 31
0.0
  0
LINE
  5
C449
330
C2DA
100
AcDbEntity
  8
1
  6
Continuous
100
AcDbLine
 10
450.9607559999998
 20
225.671593
 30
0.0
 11
455.1461599999996
 21
185.6703159999999
 31
0.0
  0
LINE
  5
C44A
330
C2DA
100
AcDbEntity
  8
1
  6
Continuous
100
AcDbLine
 10
467.603608
 20
185.6703159999999
 30
0.0
 11
471.7890109999998
 21
225.671593
 31
0.0
  0
LINE
  5
C44B
330
C2DA
100
AcDbEntity
  8
1
  6
Continuous
100
AcDbLine
 10
458.853132
 20
191.4843259999999
 30
0.0
 11
463.896636
 21
191.4843259999999
 31
0.0
  0
LINE
  5
C44C
330
C2DA
100
AcDbEntity
  8
1
  6
Continuous
100
AcDbLine
 10
458.5048729999998
 20
194.8127529999999
 30
0.0
 11
464.244895
 21
194.8127529999999
 31
0.0
  0
ARC
  5
C44D
330
C2DA
100
AcDbEntity
  8
1
  6
Continuous
100
AcDbCircle
 10
461.374884
 20
208.4843259999999
 30
0.0
 40
25.0
100
AcDbArc
 50
259.3779459999999
 51
280.6220539999998
  0
ARC
  5
C44E
330
C2DA
100
AcDbEntity
  8
1
  6
Continuous
100
AcDbCircle
 10
458.853132
 20
193.484326
 30
0.0
 40
2.0
100
AcDbArc
 50
185.9732229999999
 51
270.0
  0
ARC
  5
C44F
330
C2DA
100
AcDbEntity
  8
1
  6
Continuous
100
AcDbCircle
 10
458.5048729999998
 20
196.8127529999999
 30
0.0
 40
2.0
100
AcDbArc
 50
185.9732229999999
 51
270.0
  0
ARC
  5
C450
330
C2DA
100
AcDbEntity
  8
1
  6
Continuous
100
AcDbCircle
 10
457.135301
 20
185.878443
 30
0.0
 40
2.0
100
AcDbArc
 50
185.9732229999999
 51
259.3779459999999
  0
ARC
  5
C451
330
C2DA
100
AcDbEntity
  8
1
  6
Continuous
100
AcDbCircle
 10
463.896636
 20
193.484326
 30
0.0
 40
2.0
100
AcDbArc
 50
270.0
 51
354.0267769999999
  0
ARC
  5
C452
330
C2DA
100
AcDbEntity
  8
1
  6
Continuous
100
AcDbCircle
 10
464.244895
 20
196.8127529999999
 30
0.0
 40
2.0
100
AcDbArc
 50
270.0
 51
354.0267769999999
  0
ARC
  5
C453
330
C2DA
100
AcDbEntity
  8
1
  6
Continuous
100
AcDbCircle
 10
465.6144659999998
 20
185.878443
 30
0.0
 40
2.0
100
AcDbArc
 50
280.6220539999998
 51
354.0267769999999
  0
LINE
  5
C454
330
C2DA
100
AcDbEntity
  8
1
  6
Continuous
100
AcDbLine
 10
464.1852919999998
 20
216.7288319999999
 30
0.0
 11
462.138172
 21
215.971532
 31
0.0
  0
LINE
  5
C455
330
C2DA
100
AcDbEntity
  8
1
  6
Continuous
100
AcDbLine
 10
464.1816969999998
 20
216.7288319999999
 30
0.0
 11
462.1381769999998
 21
217.522282
 31
0.0
  0
LINE
  5
C456
330
C2DA
100
AcDbEntity
  8
1
  6
Continuous
100
AcDbLine
 10
463.072967
 20
218.5947319999999
 30
0.0
 11
462.1309769999998
 21
218.5947319999999
 31
0.0
  0
LINE
  5
C457
330
C2DA
100
AcDbEntity
  8
1
  6
Continuous
100
AcDbLine
 10
464.232417
 20
219.9932819999999
 30
0.0
 11
462.1309769999998
 21
219.9932819999999
 31
0.0
  0
LINE
  5
C458
330
C2DA
100
AcDbEntity
  8
1
  6
Continuous
100
AcDbLine
 10
456.214423
 20
199.484326
 30
0.0
 11
466.535344
 21
199.484326
 31
0.0
  0
LINE
  5
C459
330
C2DA
100
AcDbEntity
  8
1
  6
Continuous
100
AcDbLine
 10
455.5866329999998
 20
205.484326
 30
0.0
 11
467.1631349999996
 21
205.484326
 31
0.0
  0
LINE
  5
C45A
330
C2DA
100
AcDbEntity
  8
1
  6
Continuous
100
AcDbLine
 10
458.347495
 20
209.484326
 30
0.0
 11
458.8172949999998
 21
209.484326
 31
0.0
  0
ARC
  5
C45B
330
C2DA
100
AcDbEntity
  8
1
  6
Continuous
100
AcDbCircle
 10
458.8172949999998
 20
208.844326
 30
0.0
 40
0.6400000000000004
100
AcDbArc
 50
222.7718659999999
 51
90.0
  0
LINE
  5
C45C
330
C2DA
100
AcDbEntity
  8
1
  6
Continuous
100
AcDbLine
 10
458.347495
 20
209.484326
 30
0.0
 11
458.347495
 21
207.484326
 31
0.0
  0
LINE
  5
C45D
330
C2DA
100
AcDbEntity
  8
1
  6
Continuous
100
AcDbLine
 10
459.7722099999998
 20
208.089526
 30
0.0
 11
460.8257099999996
 21
208.089526
 31
0.0
  0
LINE
  5
C45E
330
C2DA
100
AcDbEntity
  8
1
  6
Continuous
100
AcDbLine
 10
460.30771
 20
209.486081
 30
0.0
 11
461.04756
 21
207.4860759999999
 31
0.0
  0
LINE
  5
C45F
330
C2DA
100
AcDbEntity
  8
1
  6
Continuous
100
AcDbLine
 10
460.30771
 20
209.482566
 30
0.0
 11
459.53241
 21
207.4860759999999
 31
0.0
  0
LINE
  5
C460
330
C2DA
100
AcDbEntity
  8
1
  6
Continuous
100
AcDbLine
 10
461.9145459999998
 20
209.484326
 30
0.0
 11
461.9145459999998
 21
207.484326
 31
0.0
  0
LINE
  5
C461
330
C2DA
100
AcDbEntity
  8
1
  6
Continuous
100
AcDbLine
 10
461.1305409999998
 20
209.484326
 30
0.0
 11
462.705516
 21
209.484326
 31
0.0
  0
ARC
  5
C462
330
C2DA
100
AcDbEntity
  8
1
  6
Continuous
100
AcDbCircle
 10
459.4954519999998
 20
214.8559399999999
 30
0.0
 40
0.5225300000000001
100
AcDbArc
 50
103.0139999999999
 51
137.1299999999999
  0
ARC
  5
C463
330
C2DA
100
AcDbEntity
  8
1
  6
Continuous
100
AcDbCircle
 10
459.4954519999998
 20
214.7159999999999
 30
0.0
 40
0.5225300000000001
100
AcDbArc
 50
222.8699999999999
 51
317.1304
  0
ARC
  5
C464
330
C2DA
100
AcDbEntity
  8
1
  6
Continuous
100
AcDbCircle
 10
459.4200749999997
 20
214.78597
 30
0.0
 40
0.6253750000000001
100
AcDbArc
 50
317.1304
 51
327.1503
  0
ARC
  5
C465
330
C2DA
100
AcDbEntity
  8
1
  6
Continuous
100
AcDbCircle
 10
459.5708269999998
 20
214.78597
 30
0.0
 40
0.6253750000000001
100
AcDbArc
 50
137.1299999999999
 51
222.8699999999999
  0
ARC
  5
C466
330
C2DA
100
AcDbEntity
  8
1
  6
Continuous
100
AcDbCircle
 10
460.395452
 20
214.8559399999999
 30
0.0
 40
0.5225300000000001
100
AcDbArc
 50
42.86999999999999
 51
108.2079999999999
  0
ARC
  5
C467
330
C2DA
100
AcDbEntity
  8
1
  6
Continuous
100
AcDbCircle
 10
460.395452
 20
214.7159999999999
 30
0.0
 40
0.5225300000000001
100
AcDbArc
 50
222.8699999999999
 51
317.1304
  0
ARC
  5
C468
330
C2DA
100
AcDbEntity
  8
1
  6
Continuous
100
AcDbCircle
 10
460.3200769999999
 20
214.78597
 30
0.0
 40
0.6253750000000001
100
AcDbArc
 50
317.1304
 51
42.86999999999999
  0
ARC
  5
C469
330
C2DA
100
AcDbEntity
  8
1
  6
Continuous
100
AcDbCircle
 10
460.4708269999998
 20
214.78597
 30
0.0
 40
0.6253750000000001
100
AcDbArc
 50
212.8499999999999
 51
222.8699999999999
  0
LINE
  5
C46A
330
C2DA
100
AcDbEntity
  8
1
  6
Continuous
100
AcDbLine
 10
459.9454519999999
 20
214.73945
 30
0.0
 11
459.9454519999999
 21
214.4467399999999
 31
0.0
  0
LINE
  5
C46B
330
C2DA
100
AcDbEntity
  8
1
  6
Continuous
100
AcDbLine
 10
462.7396069999998
 20
217.2831319999999
 30
0.0
 11
462.7396069999998
 21
216.1925819999999
 31
0.0
  0
ARC
  5
C46C
330
C2DA
100
AcDbEntity
  8
1
  6
Continuous
100
AcDbCircle
 10
460.395452
 20
220.2858899999998
 30
0.0
 40
0.5225300000000001
100
AcDbArc
 50
222.8699999999999
 51
317.1304
  0
ARC
  5
C46D
330
C2DA
100
AcDbEntity
  8
1
  6
Continuous
100
AcDbCircle
 10
459.4954519999998
 20
220.2858899999998
 30
0.0
 40
0.5225300000000001
100
AcDbArc
 50
222.8699999999999
 51
317.1304
  0
ARC
  5
C46E
330
C2DA
100
AcDbEntity
  8
1
  6
Continuous
100
AcDbCircle
 10
459.5575519999998
 20
218.489835
 30
0.0
 40
0.62634
100
AcDbArc
 50
225.9269999999999
 51
270.0
  0
ARC
  5
C46F
330
C2DA
100
AcDbEntity
  8
1
  6
Continuous
100
AcDbCircle
 10
460.3333519999998
 20
218.489835
 30
0.0
 40
0.62634
100
AcDbArc
 50
270.0
 51
314.0724999999998
  0
LINE
  5
C470
330
C2DA
100
AcDbEntity
  8
1
  6
Continuous
100
AcDbLine
 10
460.3333519999998
 20
217.8634849999999
 30
0.0
 11
459.5575519999998
 21
217.8634849999999
 31
0.0
  0
ARC
  5
C471
330
C2DA
100
AcDbEntity
  8
1
  6
Continuous
100
AcDbCircle
 10
459.524792
 20
218.4559849999998
 30
0.0
 40
0.57924
100
AcDbArc
 50
134.072
 51
225.9269999999999
  0
ARC
  5
C472
330
C2DA
100
AcDbEntity
  8
1
  6
Continuous
100
AcDbCircle
 10
459.5575519999998
 20
218.422135
 30
0.0
 40
0.62634
100
AcDbArc
 50
90.0
 51
134.072
  0
ARC
  5
C473
330
C2DA
100
AcDbEntity
  8
1
  6
Continuous
100
AcDbCircle
 10
460.3661119999999
 20
218.4559849999998
 30
0.0
 40
0.57924
100
AcDbArc
 50
314.0724999999998
 51
45.92799999999999
  0
ARC
  5
C474
330
C2DA
100
AcDbEntity
  8
1
  6
Continuous
100
AcDbCircle
 10
460.3333519999998
 20
218.422135
 30
0.0
 40
0.62634
100
AcDbArc
 50
45.92799999999999
 51
90.0
  0
LINE
  5
C475
330
C2DA
100
AcDbEntity
  8
1
  6
Continuous
100
AcDbLine
 10
460.3333519999998
 20
219.048485
 30
0.0
 11
459.5575519999998
 21
219.048485
 31
0.0
  0
LINE
  5
C476
330
C2DA
100
AcDbEntity
  8
1
  6
Continuous
100
AcDbLine
 10
459.9454519999999
 20
216.650783
 30
0.0
 11
459.9454519999999
 21
216.0242329999999
 31
0.0
  0
CIRCLE
  5
C477
330
C2DA
100
AcDbEntity
  8
1
  6
Continuous
100
AcDbCircle
 10
463.6974109999998
 20
207.524326
 30
0.0
 40
0.04
  0
LINE
  5
C478
330
C2DA
100
AcDbEntity
  8
1
  6
Continuous
100
AcDbLine
 10
464.4243469999998
 20
209.484326
 30
0.0
 11
464.4243469999998
 21
207.484326
 31
0.0
  0
LINE
  5
C479
330
C2DA
100
AcDbEntity
  8
1
  6
Continuous
100
AcDbLine
 10
464.4243469999998
 20
209.484326
 30
0.0
 11
464.8941479999998
 21
209.484326
 31
0.0
  0
ARC
  5
C47A
330
C2DA
100
AcDbEntity
  8
1
  6
Continuous
100
AcDbCircle
 10
464.8941479999998
 20
208.844326
 30
0.0
 40
0.6400000000000004
100
AcDbArc
 50
222.7718659999999
 51
90.0
  0
LINE
  5
C47B
330
C2DA
100
AcDbEntity
  8
1
  6
Continuous
100
AcDbLine
 10
463.072962
 20
218.5947319999999
 30
0.0
 11
464.248312
 21
217.9161319999999
 31
0.0
  0
LINE
  5
C47C
330
C2DA
100
AcDbEntity
  8
1
  6
Continuous
100
AcDbLine
 10
463.076572
 20
218.5947319999999
 30
0.0
 11
464.2470519999998
 21
219.268432
 31
0.0
  0
ARC
  5
C47D
330
C2DA
100
AcDbEntity
  8
1
  6
Continuous
100
AcDbCircle
 10
649.8748839999998
 20
246.4843259999999
 30
0.0
 40
200.0
100
AcDbArc
 50
180.8396909999999
 51
185.9732229999999
  0
ARC
  5
C47E
330
C2DA
100
AcDbEntity
  8
1
  6
Continuous
100
AcDbCircle
 10
272.874884
 20
246.4843259999999
 30
0.0
 40
200.0
100
AcDbArc
 50
354.0267769999999
 51
359.1603089999999
  0
ARC
  5
C47F
330
C2DA
100
AcDbEntity
  8
1
  6
Continuous
100
AcDbCircle
 10
649.8748839999998
 20
246.4843259999999
 30
0.0
 40
197.5
100
AcDbArc
 50
181.2141259999999
 51
185.9732229999999
  0
ARC
  5
C480
330
C2DA
100
AcDbEntity
  8
1
  6
Continuous
100
AcDbCircle
 10
272.874884
 20
246.4843259999999
 30
0.0
 40
197.5
100
AcDbArc
 50
354.0267769999999
 51
358.7858739999999
  0
ARC
  5
C481
330
C2DA
100
AcDbEntity
  8
1
  6
Continuous
100
AcDbCircle
 10
463.11026
 20
233.615272
 30
0.0
 40
1.145318999999998
100
AcDbArc
 50
242.2499999999998
 51
324.4619999999998
  0
LINE
  5
C482
330
C2DA
100
AcDbEntity
  8
1
  6
Continuous
100
AcDbLine
 10
462.278416
 20
233.6116629999999
 30
0.0
 11
464.1514189999998
 21
233.1091279999998
 31
0.0
  0
LINE
  5
C483
330
C2DA
100
AcDbEntity
  8
1
  6
Continuous
100
AcDbLine
 10
464.1454519999999
 20
230.4208169999999
 30
0.0
 11
462.1454519999998
 21
230.4208169999999
 31
0.0
  0
LINE
  5
C484
330
C2DA
100
AcDbEntity
  8
1
  6
Continuous
100
AcDbLine
 10
464.5709489999998
 20
234.7268029999999
 30
0.0
 11
461.788512
 21
234.7268029999999
 31
0.0
  0
LINE
  5
C485
330
C2DA
100
AcDbEntity
  8
1
  6
Continuous
100
AcDbLine
 10
461.855276
 20
235.170694
 30
0.0
 11
463.11026
 21
235.170694
 31
0.0
  0
LINE
  5
C486
330
C2DA
100
AcDbEntity
  8
1
  6
Continuous
100
AcDbLine
 10
463.11026
 20
234.0600649999999
 30
0.0
 11
462.04384
 21
234.0600649999999
 31
0.0
  0
LINE
  5
C487
330
C2DA
100
AcDbEntity
  8
1
  6
Continuous
100
AcDbLine
 10
464.572754
 20
235.615487
 30
0.0
 11
461.6468639999998
 21
235.615487
 31
0.0
  0
LINE
  5
C488
330
C2DA
100
AcDbEntity
  8
1
  6
Continuous
100
AcDbLine
 10
464.660269
 20
236.0593779999999
 30
0.0
 11
461.559349
 21
236.0593779999999
 31
0.0
  0
LINE
  5
C489
330
C2DA
100
AcDbEntity
  8
1
  6
Continuous
100
AcDbLine
 10
464.660269
 20
236.5041709999999
 30
0.0
 11
461.559349
 21
236.5041709999999
 31
0.0
  0
LINE
  5
C48A
330
C2DA
100
AcDbEntity
  8
1
  6
Continuous
100
AcDbLine
 10
464.623278
 20
236.948061
 30
0.0
 11
461.59634
 21
236.948061
 31
0.0
  0
LINE
  5
C48B
330
C2DA
100
AcDbEntity
  8
1
  6
Continuous
100
AcDbLine
 10
464.2641959999998
 20
237.837647
 30
0.0
 11
461.955422
 21
237.837647
 31
0.0
  0
ARC
  5
C48C
330
C2DA
100
AcDbEntity
  8
1
  6
Continuous
100
AcDbCircle
 10
463.11026
 20
238.9482769999999
 30
0.0
 40
1.145318999999998
100
AcDbArc
 50
90.0
 51
144.462
  0
LINE
  5
C48D
330
C2DA
100
AcDbEntity
  8
1
  6
Continuous
100
AcDbLine
 10
464.2064539999998
 20
238.2815379999999
 30
0.0
 11
462.014066
 21
238.2815379999999
 31
0.0
  0
LINE
  5
C48E
330
C2DA
100
AcDbEntity
  8
1
  6
Continuous
100
AcDbLine
 10
462.2901449999998
 20
238.7263309999999
 30
0.0
 11
463.9294729999998
 21
238.7263309999999
 31
0.0
  0
LINE
  5
C48F
330
C2DA
100
AcDbEntity
  8
1
  6
Continuous
100
AcDbLine
 10
464.3291549999998
 20
239.170222
 30
0.0
 11
462.412846
 21
239.170222
 31
0.0
  0
LINE
  5
C490
330
C2DA
100
AcDbEntity
  8
1
  6
Continuous
100
AcDbLine
 10
464.232417
 20
224.9135319999997
 30
0.0
 11
462.1309769999998
 21
224.9135319999997
 31
0.0
  0
LINE
  5
C491
330
C2DA
100
AcDbEntity
  8
1
  6
Continuous
100
AcDbLine
 10
464.232417
 20
223.616532
 30
0.0
 11
462.1309769999998
 21
223.616532
 31
0.0
  0
LINE
  5
C492
330
C2DA
100
AcDbEntity
  8
1
  6
Continuous
100
AcDbLine
 10
464.232417
 20
222.9135319999997
 30
0.0
 11
462.1309769999998
 21
222.9135319999997
 31
0.0
  0
LINE
  5
C493
330
C2DA
100
AcDbEntity
  8
1
  6
Continuous
100
AcDbLine
 10
462.782182
 20
220.572982
 30
0.0
 11
462.1454519999998
 21
220.572982
 31
0.0
  0
ARC
  5
C494
330
C2DA
100
AcDbEntity
  8
1
  6
Continuous
100
AcDbCircle
 10
463.1785119999998
 20
221.055882
 30
0.0
 40
1.067529999999997
100
AcDbArc
 50
48.932
 51
131.0679999999997
  0
ARC
  5
C495
330
C2DA
100
AcDbEntity
  8
1
  6
Continuous
100
AcDbCircle
 10
462.934812
 20
221.2781319999999
 30
0.0
 40
0.72
100
AcDbArc
 50
179.5819999999999
 51
281.6541
  0
ARC
  5
C496
330
C2DA
100
AcDbEntity
  8
1
  6
Continuous
100
AcDbCircle
 10
463.214812
 20
226.1042819999999
 30
0.0
 40
1.067529999999997
100
AcDbArc
 50
48.932
 51
131.0679999999997
  0
ARC
  5
C497
330
C2DA
100
AcDbEntity
  8
1
  6
Continuous
100
AcDbCircle
 10
463.204212
 20
228.657987
 30
0.0
 40
1.067529999999997
100
AcDbArc
 50
228.932
 51
311.0679
  0
ARC
  5
C498
330
C2DA
100
AcDbEntity
  8
1
  6
Continuous
100
AcDbCircle
 10
463.204212
 20
228.2029319999999
 30
0.0
 40
1.067529999999997
100
AcDbArc
 50
48.932
 51
131.0679999999997
  0
ARC
  5
C499
330
C2DA
100
AcDbEntity
  8
1
  6
Continuous
100
AcDbCircle
 10
466.842732
 20
236.282225
 30
0.0
 40
5.732929999999998
100
AcDbArc
 50
144.462
 51
215.5379999999999
  0
ARC
  5
C49A
330
C2DA
100
AcDbEntity
  8
1
  6
Continuous
100
AcDbCircle
 10
463.11026
 20
233.615272
 30
0.0
 40
1.145318999999998
100
AcDbArc
 50
215.5379999999999
 51
225.699
  0
LINE
  5
C49B
330
C2DA
100
AcDbEntity
  8
1
  6
Continuous
100
AcDbLine
 10
460.9454519999999
 20
230.2048269999999
 30
0.0
 11
458.9454519999998
 21
230.2048269999999
 31
0.0
  0
ARC
  5
C49C
330
C2DA
100
AcDbEntity
  8
1
  6
Continuous
100
AcDbCircle
 10
466.842732
 20
236.282225
 30
0.0
 40
5.288524999999999
100
AcDbArc
 50
187.793
 51
190.1039999999999
  0
ARC
  5
C49D
330
C2DA
100
AcDbEntity
  8
1
  6
Continuous
100
AcDbCircle
 10
461.6468639999998
 20
235.5703759999999
 30
0.0
 40
0.044452
100
AcDbArc
 50
90.0
 51
187.793
  0
ARC
  5
C49E
330
C2DA
100
AcDbEntity
  8
1
  6
Continuous
100
AcDbCircle
 10
461.855276
 20
235.392639
 30
0.0
 40
0.222261
100
AcDbArc
 50
190.1039999999999
 51
270.0
  0
ARC
  5
C49F
330
C2DA
100
AcDbEntity
  8
1
  6
Continuous
100
AcDbCircle
 10
466.842732
 20
236.282225
 30
0.0
 40
5.288524999999999
100
AcDbArc
 50
153.986
 51
157.056
  0
ARC
  5
C4A0
330
C2DA
100
AcDbEntity
  8
1
  6
Continuous
100
AcDbCircle
 10
462.014066
 20
238.325747
 30
0.0
 40
0.044452
100
AcDbArc
 50
157.056
 51
270.0
  0
LINE
  5
C4A1
330
C2DA
100
AcDbEntity
  8
1
  6
Continuous
100
AcDbLine
 10
461.7280639999997
 20
237.392854
 30
0.0
 11
462.5770499999998
 21
237.392854
 31
0.0
  0
ARC
  5
C4A2
330
C2DA
100
AcDbEntity
  8
1
  6
Continuous
100
AcDbCircle
 10
461.7280639999997
 20
237.437063
 30
0.0
 40
0.044452
100
AcDbArc
 50
167.2709999999999
 51
270.0
  0
ARC
  5
C4A3
330
C2DA
100
AcDbEntity
  8
1
  6
Continuous
100
AcDbCircle
 10
466.842732
 20
236.282225
 30
0.0
 40
5.288524999999999
100
AcDbArc
 50
164.794
 51
167.2709999999999
  0
ARC
  5
C4A4
330
C2DA
100
AcDbEntity
  8
1
  6
Continuous
100
AcDbCircle
 10
466.842732
 20
236.282225
 30
0.0
 40
5.288524999999999
100
AcDbArc
 50
164.7419999999998
 51
164.794
  0
ARC
  5
C4A5
330
C2DA
100
AcDbEntity
  8
1
  6
Continuous
100
AcDbCircle
 10
461.955422
 20
237.6148
 30
0.0
 40
0.222261
100
AcDbArc
 50
90.0
 51
164.7419999999998
  0
ARC
  5
C4A6
330
C2DA
100
AcDbEntity
  8
1
  6
Continuous
100
AcDbCircle
 10
462.2901449999998
 20
238.5034839999999
 30
0.0
 40
0.222261
100
AcDbArc
 50
90.0
 51
153.986
  0
LINE
  5
C4A7
330
C2DA
100
AcDbEntity
  8
1
  6
Continuous
100
AcDbLine
 10
459.5506519999998
 20
226.740332
 30
0.0
 11
459.5506519999998
 21
225.6868319999999
 31
0.0
  0
LINE
  5
C4A8
330
C2DA
100
AcDbEntity
  8
1
  6
Continuous
100
AcDbLine
 10
460.9472069999998
 20
226.2048319999999
 30
0.0
 11
458.9472019999998
 21
225.464982
 31
0.0
  0
ARC
  5
C4A9
330
C2DA
100
AcDbEntity
  8
1
  6
Continuous
100
AcDbCircle
 10
462.7779969999998
 20
226.248782
 30
0.0
 40
0.513145
100
AcDbArc
 50
199.193
 51
264.341
  0
LINE
  5
C4AA
330
C2DA
100
AcDbEntity
  8
1
  6
Continuous
100
AcDbLine
 10
459.9454519999999
 20
224.5180819999999
 30
0.0
 11
459.9454519999999
 21
223.8915319999999
 31
0.0
  0
ARC
  5
C4AB
330
C2DA
100
AcDbEntity
  8
1
  6
Continuous
100
AcDbCircle
 10
462.9802469999998
 20
221.2833819999999
 30
0.0
 40
0.76574
100
AcDbArc
 50
131.0679999999997
 51
186.5909999999999
  0
ARC
  5
C4AC
330
C2DA
100
AcDbEntity
  8
1
  6
Continuous
100
AcDbCircle
 10
459.4954519999998
 20
222.274802
 30
0.0
 40
0.5225300000000001
100
AcDbArc
 50
103.0139999999999
 51
137.1299999999999
  0
ARC
  5
C4AD
330
C2DA
100
AcDbEntity
  8
1
  6
Continuous
100
AcDbCircle
 10
459.4954519999998
 20
222.134862
 30
0.0
 40
0.5225300000000001
100
AcDbArc
 50
222.8699999999999
 51
317.1304
  0
ARC
  5
C4AE
330
C2DA
100
AcDbEntity
  8
1
  6
Continuous
100
AcDbCircle
 10
459.4200749999997
 20
222.2048319999999
 30
0.0
 40
0.6253750000000001
100
AcDbArc
 50
317.1304
 51
327.1503
  0
ARC
  5
C4AF
330
C2DA
100
AcDbEntity
  8
1
  6
Continuous
100
AcDbCircle
 10
459.5708269999998
 20
222.2048319999999
 30
0.0
 40
0.6253750000000001
100
AcDbArc
 50
137.1299999999999
 51
222.8699999999999
  0
ARC
  5
C4B0
330
C2DA
100
AcDbEntity
  8
1
  6
Continuous
100
AcDbCircle
 10
460.395452
 20
222.274802
 30
0.0
 40
0.5225300000000001
100
AcDbArc
 50
42.86999999999999
 51
108.2079999999999
  0
ARC
  5
C4B1
330
C2DA
100
AcDbEntity
  8
1
  6
Continuous
100
AcDbCircle
 10
460.395452
 20
222.134862
 30
0.0
 40
0.5225300000000001
100
AcDbArc
 50
222.8699999999999
 51
317.1304
  0
ARC
  5
C4B2
330
C2DA
100
AcDbEntity
  8
1
  6
Continuous
100
AcDbCircle
 10
460.3200769999999
 20
222.2048319999999
 30
0.0
 40
0.6253750000000001
100
AcDbArc
 50
317.1304
 51
42.86999999999999
  0
ARC
  5
C4B3
330
C2DA
100
AcDbEntity
  8
1
  6
Continuous
100
AcDbCircle
 10
460.4708269999998
 20
222.2048319999999
 30
0.0
 40
0.6253750000000001
100
AcDbArc
 50
212.8499999999999
 51
222.8699999999999
  0
LINE
  5
C4B4
330
C2DA
100
AcDbEntity
  8
1
  6
Continuous
100
AcDbLine
 10
459.9454519999999
 20
222.158312
 30
0.0
 11
459.9454519999999
 21
221.865602
 31
0.0
  0
LINE
  5
C4B5
330
C2DA
100
AcDbEntity
  8
1
  6
Continuous
100
AcDbLine
 10
459.9454519999999
 20
220.3093399999999
 30
0.0
 11
459.9454519999999
 21
220.0166299999999
 31
0.0
  0
ARC
  5
C4B6
330
C2DA
100
AcDbEntity
  8
1
  6
Continuous
100
AcDbCircle
 10
460.395452
 20
220.4258299999999
 30
0.0
 40
0.5225300000000001
100
AcDbArc
 50
42.86999999999999
 51
108.2079999999999
  0
ARC
  5
C4B7
330
C2DA
100
AcDbEntity
  8
1
  6
Continuous
100
AcDbCircle
 10
459.4954519999998
 20
220.4258299999999
 30
0.0
 40
0.5225300000000001
100
AcDbArc
 50
103.0139999999999
 51
137.1299999999999
  0
LINE
  5
C4B8
330
C2DA
100
AcDbEntity
  8
1
  6
Continuous
100
AcDbLine
 10
459.9454519999999
 20
228.831312
 30
0.0
 11
459.9454519999999
 21
227.5783319999999
 31
0.0
  0
LINE
  5
C4B9
330
C2DA
100
AcDbEntity
  8
1
  6
Continuous
100
AcDbLine
 10
460.9604069999998
 20
227.5783319999999
 30
0.0
 11
458.9604019999998
 21
227.5783319999999
 31
0.0
  0
LINE
  5
C4BA
330
C2DA
100
AcDbEntity
  8
1
  6
Continuous
100
AcDbLine
 10
460.943692
 20
226.2048319999999
 30
0.0
 11
458.9472019999998
 21
226.9801319999999
 31
0.0
  0
LINE
  5
C4BB
330
C2DA
100
AcDbEntity
  8
1
  6
Continuous
100
AcDbLine
 10
460.9604069999998
 20
228.831312
 30
0.0
 11
458.9604019999998
 21
228.831312
 31
0.0
  0
ARC
  5
C4BC
330
C2DA
100
AcDbEntity
  8
1
  6
Continuous
100
AcDbCircle
 10
463.0165519999998
 20
226.3318319999999
 30
0.0
 40
0.76574
100
AcDbArc
 50
131.0679999999997
 51
199.193
  0
ARC
  5
C4BD
330
C2DA
100
AcDbEntity
  8
1
  6
Continuous
100
AcDbCircle
 10
463.0059519999998
 20
228.4304569999999
 30
0.0
 40
0.76574
100
AcDbArc
 50
131.0679999999997
 51
228.932
  0
LINE
  5
C4BE
330
C2DA
100
AcDbEntity
  8
1
  6
Continuous
100
AcDbLine
 10
460.9454519999999
 20
230.9888319999997
 30
0.0
 11
460.9454519999999
 21
229.4138569999998
 31
0.0
  0
ARC
  5
C4BF
330
C2DA
100
AcDbEntity
  8
1
  6
Continuous
100
AcDbCircle
 10
459.3768859999998
 20
236.282225
 30
0.0
 40
5.732929999999998
100
AcDbArc
 50
324.4619999999998
 51
35.5377
  0
ARC
  5
C4C0
330
C2DA
100
AcDbEntity
  8
1
  6
Continuous
100
AcDbCircle
 10
463.332206
 20
234.0600649999999
 30
0.0
 40
0.222261
100
AcDbArc
 50
90.0
 51
270.0
  0
LINE
  5
C4C1
330
C2DA
100
AcDbEntity
  8
1
  6
Continuous
100
AcDbLine
 10
463.11026
 20
232.4703579999999
 30
0.0
 11
463.11026
 21
233.3888149999999
 31
0.0
  0
LINE
  5
C4C2
330
C2DA
100
AcDbEntity
  8
1
  6
Continuous
100
AcDbLine
 10
463.332206
 20
233.8372169999999
 30
0.0
 11
464.2813379999998
 21
233.8372169999999
 31
0.0
  0
LINE
  5
C4C3
330
C2DA
100
AcDbEntity
  8
1
  6
Continuous
100
AcDbLine
 10
464.361635
 20
234.28201
 30
0.0
 11
463.332206
 21
234.28201
 31
0.0
  0
LINE
  5
C4C4
330
C2DA
100
AcDbEntity
  8
1
  6
Continuous
100
AcDbLine
 10
463.6434699999998
 20
235.170694
 30
0.0
 11
464.364342
 21
235.170694
 31
0.0
  0
ARC
  5
C4C5
330
C2DA
100
AcDbEntity
  8
1
  6
Continuous
100
AcDbCircle
 10
464.572754
 20
235.5703759999999
 30
0.0
 40
0.044452
100
AcDbArc
 50
352.2069999999998
 51
90.0
  0
ARC
  5
C4C6
330
C2DA
100
AcDbEntity
  8
1
  6
Continuous
100
AcDbCircle
 10
459.3768859999998
 20
236.282225
 30
0.0
 40
5.288524999999999
100
AcDbArc
 50
349.8959999999998
 51
352.2069999999998
  0
ARC
  5
C4C7
330
C2DA
100
AcDbEntity
  8
1
  6
Continuous
100
AcDbCircle
 10
464.364342
 20
235.392639
 30
0.0
 40
0.222261
100
AcDbArc
 50
270.0
 51
349.8959999999998
  0
LINE
  5
C4C8
330
C2DA
100
AcDbEntity
  8
1
  6
Continuous
100
AcDbLine
 10
463.11026
 20
235.170694
 30
0.0
 11
463.11026
 21
235.392639
 31
0.0
  0
ARC
  5
C4C9
330
C2DA
100
AcDbEntity
  8
1
  6
Continuous
100
AcDbCircle
 10
464.2641959999998
 20
237.6148
 30
0.0
 40
0.222261
100
AcDbArc
 50
15.2575
 51
90.0
  0
ARC
  5
C4CA
330
C2DA
100
AcDbEntity
  8
1
  6
Continuous
100
AcDbCircle
 10
459.3768859999998
 20
236.282225
 30
0.0
 40
5.288524999999999
100
AcDbArc
 50
13.2681
 51
15.2575
  0
ARC
  5
C4CB
330
C2DA
100
AcDbEntity
  8
1
  6
Continuous
100
AcDbCircle
 10
459.3768859999998
 20
236.282225
 30
0.0
 40
5.288524999999999
100
AcDbArc
 50
12.7289
 51
13.2681
  0
ARC
  5
C4CC
330
C2DA
100
AcDbEntity
  8
1
  6
Continuous
100
AcDbCircle
 10
464.491554
 20
237.437063
 30
0.0
 40
0.044452
100
AcDbArc
 50
270.0
 51
12.7289
  0
ARC
  5
C4CD
330
C2DA
100
AcDbEntity
  8
1
  6
Continuous
100
AcDbCircle
 10
464.2064539999998
 20
238.325747
 30
0.0
 40
0.044452
100
AcDbArc
 50
270.0
 51
22.94399999999999
  0
ARC
  5
C4CE
330
C2DA
100
AcDbEntity
  8
1
  6
Continuous
100
AcDbCircle
 10
459.3768859999998
 20
236.282225
 30
0.0
 40
5.288524999999999
100
AcDbArc
 50
22.94399999999999
 51
26.0144
  0
ARC
  5
C4CF
330
C2DA
100
AcDbEntity
  8
1
  6
Continuous
100
AcDbCircle
 10
463.9294729999998
 20
238.5034839999999
 30
0.0
 40
0.222261
100
AcDbArc
 50
26.0144
 51
90.0
  0
ARC
  5
C4D0
330
C2DA
100
AcDbEntity
  8
1
  6
Continuous
100
AcDbCircle
 10
463.11026
 20
238.9482769999999
 30
0.0
 40
1.145318999999998
100
AcDbArc
 50
35.5377
 51
76.5374
  0
LINE
  5
C4D1
330
C2DA
100
AcDbEntity
  8
1
  6
Continuous
100
AcDbLine
 10
463.11026
 20
236.5041709999999
 30
0.0
 11
463.11026
 21
236.948061
 31
0.0
  0
LINE
  5
C4D2
330
C2DA
100
AcDbEntity
  8
1
  6
Continuous
100
AcDbLine
 10
463.6434699999998
 20
237.392854
 30
0.0
 11
464.491554
 21
237.392854
 31
0.0
  0
ARC
  5
C4D3
330
C2DA
100
AcDbEntity
  8
1
  6
Continuous
100
AcDbCircle
 10
463.6516269999998
 20
226.248782
 30
0.0
 40
0.513145
100
AcDbArc
 50
275.65924
 51
340.8072
  0
LINE
  5
C4D4
330
C2DA
100
AcDbEntity
  8
1
  6
Continuous
100
AcDbLine
 10
463.181697
 20
224.9135319999997
 30
0.0
 11
463.181697
 21
223.616532
 31
0.0
  0
LINE
  5
C4D5
330
C2DA
100
AcDbEntity
  8
1
  6
Continuous
100
AcDbLine
 10
463.080257
 20
221.2758819999999
 30
0.0
 11
463.080257
 21
220.572982
 31
0.0
  0
ARC
  5
C4D6
330
C2DA
100
AcDbEntity
  8
1
  6
Continuous
100
AcDbCircle
 10
463.615327
 20
221.2003319999999
 30
0.0
 40
0.513145
100
AcDbArc
 50
275.65924
 51
340.8072
  0
ARC
  5
C4D7
330
C2DA
100
AcDbEntity
  8
1
  6
Continuous
100
AcDbCircle
 10
463.3767719999998
 20
221.2833819999999
 30
0.0
 40
0.76574
100
AcDbArc
 50
340.8072
 51
48.932
  0
ARC
  5
C4D8
330
C2DA
100
AcDbEntity
  8
1
  6
Continuous
100
AcDbCircle
 10
463.4130719999998
 20
226.3318319999999
 30
0.0
 40
0.76574
100
AcDbArc
 50
340.8072
 51
48.932
  0
ARC
  5
C4D9
330
C2DA
100
AcDbEntity
  8
1
  6
Continuous
100
AcDbCircle
 10
463.402472
 20
228.4304569999999
 30
0.0
 40
0.76574
100
AcDbArc
 50
311.0679
 51
48.932
  0
LINE
  5
C4DA
330
C2DA
100
AcDbEntity
  8
1
  6
Continuous
100
AcDbLine
 10
464.1454519999999
 20
231.232437
 30
0.0
 11
464.1454519999999
 21
229.6020169999999
 31
0.0
  0
LINE
  5
C4DB
330
C2DA
100
AcDbEntity
  8
1
  6
Continuous
100
AcDbLine
 10
465.374884
 20
321.175326
 30
0.0
 11
461.374884
 21
318.8653259999999
 31
0.0
  0
LINE
  5
C4DC
330
C2DA
100
AcDbEntity
  8
1
  6
Continuous
100
AcDbLine
 10
463.3427369999998
 20
322.110443
 30
0.0
 11
462.5854799999998
 21
322.8946049999997
 31
0.0
  0
ARC
  5
C4DD
330
C2DA
100
AcDbEntity
  8
1
  6
Continuous
100
AcDbCircle
 10
461.374884
 20
323.4843259999997
 30
0.0
 40
2.399999999999999
100
AcDbArc
 50
304.921342
 51
325.078658
  0
ARC
  5
C4DE
330
C2DA
100
AcDbEntity
  8
1
  6
Continuous
100
AcDbCircle
 10
461.374884
 20
263.4843259999997
 30
0.0
 40
11.5
100
AcDbArc
 50
192.555858
 51
339.645594
  0
LINE
  5
C4DF
330
C2DA
100
AcDbEntity
  8
4
  6
CENTER
100
AcDbLine
 10
466.870905
 20
247.4843259999999
 30
0.0
 11
456.374884
 21
247.4843259999999
 31
0.0
  0
ARC
  5
C4E0
330
C2DA
100
AcDbEntity
  8
1
  6
Continuous
100
AcDbCircle
 10
461.374884
 20
247.4843259999999
 30
0.0
 40
3.7
100
AcDbArc
 50
180.0
 51
0.0
  0
ARC
  5
C4E1
330
C2DA
100
AcDbEntity
  8
1
  6
Continuous
100
AcDbCircle
 10
461.374884
 20
263.4843259999997
 30
0.0
 40
10.18799999999999
100
AcDbArc
 50
253.1384089999999
 51
286.8615909999999
  0
ARC
  5
C4E2
330
C2DA
100
AcDbEntity
  8
2
  6
Continuous
100
AcDbCircle
 10
461.374884
 20
263.4843259999997
 30
0.0
 40
11.0
100
AcDbArc
 50
242.419801
 51
297.5801989999999
  0
LINE
  5
C4E3
330
C2DA
100
AcDbEntity
  8
1
  6
Continuous
100
AcDbLine
 10
466.4677709999998
 20
253.7343259999999
 30
0.0
 11
456.2819959999997
 21
253.7343259999999
 31
0.0
  0
ARC
  5
C4E4
330
C2DA
100
AcDbEntity
  8
1
  6
Continuous
100
AcDbCircle
 10
461.374884
 20
247.4843259999999
 30
0.0
 40
3.5
100
AcDbArc
 50
170.4059319999998
 51
9.594068
  0
ARC
  5
C4E5
330
C2DA
100
AcDbEntity
  8
1
  6
Continuous
100
AcDbCircle
 10
461.374884
 20
263.4843259999997
 30
0.0
 40
14.0
100
AcDbArc
 50
215.841252
 51
324.158748
  0
LINE
  5
C4E6
330
C2DA
100
AcDbEntity
  8
1
  6
Continuous
100
AcDbLine
 10
476.3748839999998
 20
254.824072
 30
0.0
 11
461.374884
 21
246.163818
 31
0.0
  0
LINE
  5
C4E7
330
C2DA
100
AcDbEntity
  8
1
  6
Continuous
100
AcDbLine
 10
462.7487669999998
 20
321.516473
 30
0.0
 11
461.964605
 21
322.2737299999999
 31
0.0
  0
LINE
  5
C4E8
330
C2DA
100
AcDbEntity
  8
1
  6
Continuous
100
AcDbLine
 10
462.3708399999999
 20
323.4843259999997
 30
0.0
 11
462.5854799999998
 21
322.8946049999997
 31
0.0
  0
LINE
  5
C4E9
330
C2DA
100
AcDbEntity
  8
1
  6
Continuous
100
AcDbLine
 10
461.374884
 20
322.4883709999998
 30
0.0
 11
461.964605
 21
322.2737299999999
 31
0.0
  0
LINE
  5
C4EA
330
C2DA
100
AcDbEntity
  8
1
  6
Continuous
100
AcDbLine
 10
460.001001
 20
321.516473
 30
0.0
 11
460.7851629999998
 21
322.2737299999999
 31
0.0
  0
LINE
  5
C4EB
330
C2DA
100
AcDbEntity
  8
1
  6
Continuous
100
AcDbLine
 10
460.378929
 20
323.4843259999997
 30
0.0
 11
460.1642879999998
 21
322.8946049999997
 31
0.0
  0
LINE
  5
C4EC
330
C2DA
100
AcDbEntity
  8
1
  6
Continuous
100
AcDbLine
 10
459.4070309999998
 20
322.110443
 30
0.0
 11
460.1642879999998
 21
322.8946049999997
 31
0.0
  0
ARC
  5
C4ED
330
C2DA
100
AcDbEntity
  8
1
  6
Continuous
100
AcDbCircle
 10
461.374884
 20
323.4843259999997
 30
0.0
 40
2.399999999999999
100
AcDbArc
 50
214.921342
 51
235.0786579999998
  0
LINE
  5
C4EE
330
C2DA
100
AcDbEntity
  8
1
  6
Continuous
100
AcDbLine
 10
461.374884
 20
322.4883709999998
 30
0.0
 11
460.7851629999998
 21
322.2737299999999
 31
0.0
  0
LINE
  5
C4EF
330
C2DA
100
AcDbEntity
  8
1
  6
Continuous
100
AcDbLine
 10
457.374884
 20
321.1743259999999
 30
0.0
 11
461.374884
 21
318.8653259999999
 31
0.0
  0
LINE
  5
C4F0
330
C2DA
100
AcDbEntity
  8
1
  6
Continuous
100
AcDbLine
 10
448.617533
 20
260.9843259999997
 30
0.0
 11
450.354902
 21
260.9843259999997
 31
0.0
  0
ARC
  5
C4F1
330
C2DA
100
AcDbEntity
  8
1
  6
Continuous
100
AcDbCircle
 10
450.116554
 20
256.9843259999997
 30
0.0
 40
1.7
100
AcDbArc
 50
153.057137
 51
266.942863
  0
LINE
  5
C4F2
330
C2DA
100
AcDbEntity
  8
1
  6
Continuous
100
AcDbLine
 10
457.6748839999998
 20
247.4843259999999
 30
0.0
 11
457.6748839999998
 21
248.300014
 31
0.0
  0
ARC
  5
C4F3
330
C2DA
100
AcDbEntity
  8
1
  6
Continuous
100
AcDbCircle
 10
458.416844
 20
247.9843259999999
 30
0.0
 40
0.5
100
AcDbArc
 50
161.254793
 51
170.4059319999998
  0
LINE
  5
C4F4
330
C2DA
100
AcDbEntity
  8
1
  6
Continuous
100
AcDbLine
 10
457.874884
 20
246.2843259999999
 30
0.0
 11
457.874884
 21
248.1845439999999
 31
0.0
  0
ARC
  5
C4F5
330
C2DA
100
AcDbEntity
  8
1
  6
Continuous
100
AcDbCircle
 10
461.374884
 20
263.4843259999997
 30
0.0
 40
16.12829999999998
100
AcDbArc
 50
256.737637
 51
257.4665319999999
  0
LINE
  5
C4F6
330
C2DA
100
AcDbEntity
  8
1
  6
Continuous
100
AcDbLine
 10
465.074884
 20
247.4843259999999
 30
0.0
 11
465.074884
 21
248.300014
 31
0.0
  0
ARC
  5
C4F7
330
C2DA
100
AcDbEntity
  8
1
  6
Continuous
100
AcDbCircle
 10
464.3329239999998
 20
247.9843259999999
 30
0.0
 40
0.5
100
AcDbArc
 50
9.594068
 51
18.745207
  0
LINE
  5
C4F8
330
C2DA
100
AcDbEntity
  8
1
  6
Continuous
100
AcDbLine
 10
464.874884
 20
246.2843259999999
 30
0.0
 11
464.874884
 21
248.1845439999999
 31
0.0
  0
ARC
  5
C4F9
330
C2DA
100
AcDbEntity
  8
1
  6
Continuous
100
AcDbCircle
 10
461.374884
 20
263.4843259999997
 30
0.0
 40
16.12829999999998
100
AcDbArc
 50
282.533468
 51
283.262363
  0
LINE
  5
C4FA
330
C2DA
100
AcDbEntity
  8
1
  6
Continuous
100
AcDbLine
 10
471.943233
 20
259.4843259999997
 30
0.0
 11
473.7442009999998
 21
259.4843259999997
 31
0.0
  0
ARC
  5
C4FB
330
C2DA
100
AcDbEntity
  8
1
  6
Continuous
100
AcDbCircle
 10
472.6332139999996
 20
256.9843259999997
 30
0.0
 40
1.7
100
AcDbArc
 50
273.057137
 51
26.942863
  0
LINE
  5
C4FC
330
C2DA
100
AcDbEntity
  8
1
  6
Continuous
100
AcDbLine
 10
461.374884
 20
280.8048339999999
 30
0.0
 11
446.374884
 21
272.1445799999999
 31
0.0
  0
LINE
  5
C4FD
330
C2DA
100
AcDbEntity
  8
1
  6
Continuous
100
AcDbLine
 10
461.374884
 20
328.103326
 30
0.0
 11
465.374884
 21
325.7933259999999
 31
0.0
  0
ARC
  5
C4FE
330
C2DA
100
AcDbEntity
  8
1
  6
Continuous
100
AcDbCircle
 10
461.374884
 20
323.4843259999997
 30
0.0
 40
2.399999999999999
100
AcDbArc
 50
34.92134199999998
 51
55.078658
  0
LINE
  5
C4FF
330
C2DA
100
AcDbEntity
  8
1
  6
Continuous
100
AcDbLine
 10
463.3427369999998
 20
324.8582089999998
 30
0.0
 11
462.5854799999998
 21
324.0740469999999
 31
0.0
  0
ARC
  5
C500
330
C2DA
100
AcDbEntity
  8
1
  6
Continuous
100
AcDbCircle
 10
461.374884
 20
263.4843259999997
 30
0.0
 40
11.5
100
AcDbArc
 50
20.354406
 51
167.4441419999999
  0
LINE
  5
C501
330
C2DA
100
AcDbEntity
  8
4
  6
CENTER
100
AcDbLine
 10
466.374884
 20
279.4843259999999
 30
0.0
 11
455.91299
 21
279.4843259999999
 31
0.0
  0
ARC
  5
C502
330
C2DA
100
AcDbEntity
  8
1
  6
Continuous
100
AcDbCircle
 10
461.374884
 20
279.4843259999999
 30
0.0
 40
3.7
100
AcDbArc
 50
0.0
 51
180.0
  0
ARC
  5
C503
330
C2DA
100
AcDbEntity
  8
1
  6
Continuous
100
AcDbCircle
 10
461.374884
 20
263.4843259999997
 30
0.0
 40
10.18799999999999
100
AcDbArc
 50
73.13840899999998
 51
106.8615909999999
  0
ARC
  5
C504
330
C2DA
100
AcDbEntity
  8
2
  6
Continuous
100
AcDbCircle
 10
461.374884
 20
263.4843259999997
 30
0.0
 40
11.0
100
AcDbArc
 50
62.419801
 51
117.5801989999998
  0
LINE
  5
C505
330
C2DA
100
AcDbEntity
  8
1
  6
Continuous
100
AcDbLine
 10
466.4677709999998
 20
273.2343259999999
 30
0.0
 11
456.2819959999997
 21
273.2343259999999
 31
0.0
  0
ARC
  5
C506
330
C2DA
100
AcDbEntity
  8
1
  6
Continuous
100
AcDbCircle
 10
461.374884
 20
279.4843259999999
 30
0.0
 40
3.5
100
AcDbArc
 50
350.405932
 51
189.5940679999999
  0
ARC
  5
C507
330
C2DA
100
AcDbEntity
  8
1
  6
Continuous
100
AcDbCircle
 10
461.374884
 20
263.4843259999997
 30
0.0
 40
14.0
100
AcDbArc
 50
35.84125199999999
 51
144.158748
  0
LINE
  5
C508
330
C2DA
100
AcDbEntity
  8
1
  6
Continuous
100
AcDbLine
 10
461.374884
 20
280.8048339999999
 30
0.0
 11
476.3748839999998
 21
272.1445799999999
 31
0.0
  0
ARC
  5
C509
330
C2DA
100
AcDbEntity
  8
1
  6
Continuous
100
AcDbCircle
 10
461.374884
 20
323.4843259999997
 30
0.0
 40
2.399999999999999
100
AcDbArc
 50
124.921342
 51
145.0786579999999
  0
LINE
  5
C50A
330
C2DA
100
AcDbEntity
  8
1
  6
Continuous
100
AcDbLine
 10
461.374884
 20
328.103326
 30
0.0
 11
457.374884
 21
325.7933259999999
 31
0.0
  0
LINE
  5
C50B
330
C2DA
100
AcDbEntity
  8
1
  6
Continuous
100
AcDbLine
 10
461.374884
 20
324.4802809999999
 30
0.0
 11
461.964605
 21
324.694922
 31
0.0
  0
LINE
  5
C50C
330
C2DA
100
AcDbEntity
  8
1
  6
Continuous
100
AcDbLine
 10
461.374884
 20
324.4802809999999
 30
0.0
 11
460.7851629999998
 21
324.694922
 31
0.0
  0
LINE
  5
C50D
330
C2DA
100
AcDbEntity
  8
1
  6
Continuous
100
AcDbLine
 10
462.7487669999998
 20
325.452179
 30
0.0
 11
461.964605
 21
324.694922
 31
0.0
  0
LINE
  5
C50E
330
C2DA
100
AcDbEntity
  8
1
  6
Continuous
100
AcDbLine
 10
460.001001
 20
325.452179
 30
0.0
 11
460.7851629999998
 21
324.694922
 31
0.0
  0
LINE
  5
C50F
330
C2DA
100
AcDbEntity
  8
1
  6
Continuous
100
AcDbLine
 10
459.4070309999998
 20
324.8582089999998
 30
0.0
 11
460.1642879999998
 21
324.0740469999999
 31
0.0
  0
ARC
  5
C510
330
C2DA
100
AcDbEntity
  8
1
  6
Continuous
100
AcDbCircle
 10
450.116554
 20
269.9843259999997
 30
0.0
 40
1.7
100
AcDbArc
 50
93.057137
 51
206.9428629999999
  0
LINE
  5
C511
330
C2DA
100
AcDbEntity
  8
1
  6
Continuous
100
AcDbLine
 10
448.617533
 20
265.9843259999997
 30
0.0
 11
450.354902
 21
265.9843259999997
 31
0.0
  0
LINE
  5
C512
330
C2DA
100
AcDbEntity
  8
1
  6
Continuous
100
AcDbLine
 10
457.6748839999998
 20
279.4843259999999
 30
0.0
 11
457.6748839999998
 21
278.6686379999998
 31
0.0
  0
ARC
  5
C513
330
C2DA
100
AcDbEntity
  8
1
  6
Continuous
100
AcDbCircle
 10
458.416844
 20
278.9843259999999
 30
0.0
 40
0.5
100
AcDbArc
 50
189.5940679999999
 51
198.745207
  0
LINE
  5
C514
330
C2DA
100
AcDbEntity
  8
1
  6
Continuous
100
AcDbLine
 10
457.874884
 20
280.6843259999999
 30
0.0
 11
457.874884
 21
278.784108
 31
0.0
  0
ARC
  5
C515
330
C2DA
100
AcDbEntity
  8
1
  6
Continuous
100
AcDbCircle
 10
461.374884
 20
263.4843259999997
 30
0.0
 40
16.12829999999998
100
AcDbArc
 50
102.533468
 51
103.262363
  0
LINE
  5
C516
330
C2DA
100
AcDbEntity
  8
1
  6
Continuous
100
AcDbLine
 10
465.074884
 20
279.4843259999999
 30
0.0
 11
465.074884
 21
278.6686379999998
 31
0.0
  0
ARC
  5
C517
330
C2DA
100
AcDbEntity
  8
1
  6
Continuous
100
AcDbCircle
 10
464.3329239999998
 20
278.9843259999999
 30
0.0
 40
0.5
100
AcDbArc
 50
341.254793
 51
350.405932
  0
LINE
  5
C518
330
C2DA
100
AcDbEntity
  8
1
  6
Continuous
100
AcDbLine
 10
464.874884
 20
280.6843259999999
 30
0.0
 11
464.874884
 21
278.784108
 31
0.0
  0
ARC
  5
C519
330
C2DA
100
AcDbEntity
  8
1
  6
Continuous
100
AcDbCircle
 10
461.374884
 20
263.4843259999997
 30
0.0
 40
16.12829999999998
100
AcDbArc
 50
76.73763700000002
 51
77.466532
  0
ARC
  5
C51A
330
C2DA
100
AcDbEntity
  8
1
  6
Continuous
100
AcDbCircle
 10
472.6332139999996
 20
269.9843259999997
 30
0.0
 40
1.7
100
AcDbArc
 50
333.057137
 51
86.94286299999998
  0
LINE
  5
C51B
330
C2DA
100
AcDbEntity
  8
1
  6
Continuous
100
AcDbLine
 10
471.943233
 20
267.4843259999997
 30
0.0
 11
473.7442009999998
 21
267.4843259999997
 31
0.0
  0
LINE
  5
C51C
330
C2DA
100
AcDbEntity
  8
1
  6
Continuous
100
AcDbLine
 10
205.187276
 20
368.000962
 30
0.0
 11
175.4496059999999
 21
368.000962
 31
0.0
  0
LINE
  5
C51D
330
C2DA
100
AcDbEntity
  8
1
  6
Continuous
100
AcDbLine
 10
205.187276
 20
391.000962
 30
0.0
 11
175.4496059999999
 21
391.000962
 31
0.0
  0
LINE
  5
C51E
330
C2DA
100
AcDbEntity
  8
4
  6
CENTER
100
AcDbLine
 10
245.154306
 20
379.500962
 30
0.0
 11
167.4077669999998
 21
379.500962
 31
0.0
  0
LINE
  5
C51F
330
C2DA
100
AcDbEntity
  8
1
  6
Continuous
100
AcDbLine
 10
173.4140899999999
 20
372.500962
 30
0.0
 11
172.910737
 21
372.500962
 31
0.0
  0
LINE
  5
C520
330
C2DA
100
AcDbEntity
  8
1
  6
Continuous
100
AcDbLine
 10
174.3052539999999
 20
369.750962
 30
0.0
 11
173.7985759999999
 21
369.750962
 31
0.0
  0
LINE
  5
C521
330
C2DA
100
AcDbEntity
  8
1
  6
Continuous
100
AcDbLine
 10
173.4140899999999
 20
386.500962
 30
0.0
 11
172.910737
 21
386.500962
 31
0.0
  0
LINE
  5
C522
330
C2DA
100
AcDbEntity
  8
1
  6
Continuous
100
AcDbLine
 10
174.3052539999999
 20
389.250962
 30
0.0
 11
173.7985759999999
 21
389.250962
 31
0.0
  0
LINE
  5
C523
330
C2DA
100
AcDbEntity
  8
1
  6
Continuous
100
AcDbLine
 10
213.0077669999999
 20
400.500962
 30
0.0
 11
213.0077669999999
 21
358.500962
 31
0.0
  0
LINE
  5
C524
330
C2DA
100
AcDbEntity
  8
1
  6
Continuous
100
AcDbLine
 10
216.507767
 20
402.500962
 30
0.0
 11
216.507767
 21
356.500962
 31
0.0
  0
LINE
  5
C525
330
C2DA
100
AcDbEntity
  8
1
  6
Continuous
100
AcDbLine
 10
217.5077669999998
 20
402.500962
 30
0.0
 11
217.5077669999998
 21
356.500962
 31
0.0
  0
LINE
  5
C526
330
C2DA
100
AcDbEntity
  8
2
  6
Continuous
100
AcDbLine
 10
230.7077669999999
 20
384.593862
 30
0.0
 11
217.5077669999998
 21
374.4080619999999
 31
0.0
  0
LINE
  5
C527
330
C2DA
100
AcDbEntity
  8
2
  6
Continuous
100
AcDbLine
 10
217.5077669999998
 20
384.593862
 30
0.0
 11
230.7077669999999
 21
374.4080619999999
 31
0.0
  0
LINE
  5
C528
330
C2DA
100
AcDbEntity
  8
1
  6
Continuous
100
AcDbLine
 10
230.7077669999999
 20
374.4080619999999
 30
0.0
 11
217.5077669999998
 21
374.4080619999999
 31
0.0
  0
LINE
  5
C529
330
C2DA
100
AcDbEntity
  8
1
  6
Continuous
100
AcDbLine
 10
230.7077669999999
 20
384.593862
 30
0.0
 11
217.5077669999998
 21
384.593862
 31
0.0
  0
LINE
  5
C52A
330
C2DA
100
AcDbEntity
  8
2
  6
Continuous
100
AcDbLine
 10
231.5197669999998
 20
369.3129620000001
 30
0.0
 11
219.4077669999999
 21
369.3129620000001
 31
0.0
  0
LINE
  5
C52B
330
C2DA
100
AcDbEntity
  8
2
  6
Continuous
100
AcDbLine
 10
231.5197669999998
 20
389.6889619999998
 30
0.0
 11
219.4077669999999
 21
389.6889619999998
 31
0.0
  0
LINE
  5
C52C
330
C2DA
100
AcDbEntity
  8
1
  6
Continuous
100
AcDbLine
 10
230.7077669999999
 20
368.500962
 30
0.0
 11
218.507767
 21
368.500962
 31
0.0
  0
LINE
  5
C52D
330
C2DA
100
AcDbEntity
  8
1
  6
Continuous
100
AcDbLine
 10
230.7077669999999
 20
390.500962
 30
0.0
 11
218.507767
 21
390.500962
 31
0.0
  0
LINE
  5
C52E
330
C2DA
100
AcDbEntity
  8
1
  6
Continuous
100
AcDbLine
 10
205.0077669999998
 20
368.000962
 30
0.0
 11
205.0077669999998
 21
391.000962
 31
0.0
  0
LINE
  5
C52F
330
C2DA
100
AcDbEntity
  8
1
  6
Continuous
100
AcDbLine
 10
205.057767
 20
391.000962
 30
0.0
 11
205.057767
 21
368.000962
 31
0.0
  0
LINE
  5
C530
330
C2DA
100
AcDbEntity
  8
1
  6
Continuous
100
AcDbLine
 10
219.4077669999999
 20
374.4080619999999
 30
0.0
 11
219.4077669999999
 21
368.500962
 31
0.0
  0
LINE
  5
C531
330
C2DA
100
AcDbEntity
  8
1
  6
Continuous
100
AcDbLine
 10
205.187276
 20
368.000962
 30
0.0
 11
213.0077669999999
 21
364.500962
 31
0.0
  0
LINE
  5
C532
330
C2DA
100
AcDbEntity
  8
1
  6
Continuous
100
AcDbLine
 10
215.0077669999999
 20
356.500962
 30
0.0
 11
217.5077669999998
 21
356.500962
 31
0.0
  0
ARC
  5
C533
330
C2DA
100
AcDbEntity
  8
1
  6
Continuous
100
AcDbCircle
 10
215.0077669999999
 20
358.500962
 30
0.0
 40
2.0
100
AcDbArc
 50
180.0
 51
270.0
  0
ARC
  5
C534
330
C2DA
100
AcDbEntity
  8
1
  6
Continuous
100
AcDbCircle
 10
218.507767
 20
367.500962
 30
0.0
 40
1.0
100
AcDbArc
 50
90.0
 51
180.0
  0
LINE
  5
C535
330
C2DA
100
AcDbEntity
  8
2
  6
Continuous
100
AcDbLine
 10
218.001341
 20
368.500962
 30
0.0
 11
219.4077669999999
 21
369.3129620000001
 31
0.0
  0
LINE
  5
C536
330
C2DA
100
AcDbEntity
  8
1
  6
Continuous
100
AcDbLine
 10
205.187276
 20
391.000962
 30
0.0
 11
213.0077669999999
 21
394.500962
 31
0.0
  0
ARC
  5
C537
330
C2DA
100
AcDbEntity
  8
1
  6
Continuous
100
AcDbCircle
 10
218.507767
 20
391.500962
 30
0.0
 40
1.0
100
AcDbArc
 50
180.0
 51
270.0
  0
LINE
  5
C538
330
C2DA
100
AcDbEntity
  8
2
  6
Continuous
100
AcDbLine
 10
218.001341
 20
390.500962
 30
0.0
 11
219.4077669999999
 21
389.6889619999998
 31
0.0
  0
LINE
  5
C539
330
C2DA
100
AcDbEntity
  8
1
  6
Continuous
100
AcDbLine
 10
219.4077669999999
 20
390.500962
 30
0.0
 11
219.4077669999999
 21
384.593862
 31
0.0
  0
LINE
  5
C53A
330
C2DA
100
AcDbEntity
  8
1
  6
Continuous
100
AcDbLine
 10
219.0077669999999
 20
381.750962
 30
0.0
 11
217.5077669999998
 21
381.750962
 31
0.0
  0
LINE
  5
C53B
330
C2DA
100
AcDbEntity
  8
1
  6
Continuous
100
AcDbLine
 10
219.0077669999999
 20
377.250962
 30
0.0
 11
217.5077669999998
 21
377.250962
 31
0.0
  0
LINE
  5
C53C
330
C2DA
100
AcDbEntity
  8
1
  6
Continuous
100
AcDbLine
 10
219.0077669999999
 20
377.250962
 30
0.0
 11
219.0077669999999
 21
381.750962
 31
0.0
  0
LINE
  5
C53D
330
C2DA
100
AcDbEntity
  8
1
  6
Continuous
100
AcDbLine
 10
230.7077669999999
 20
374.4080619999999
 30
0.0
 11
230.7077669999999
 21
368.500962
 31
0.0
  0
ARC
  5
C53E
330
C2DA
100
AcDbEntity
  8
1
  6
Continuous
100
AcDbCircle
 10
237.007767
 20
374.339083
 30
0.0
 40
0.3
100
AcDbArc
 50
270.0
 51
0.0
  0
LINE
  5
C53F
330
C2DA
100
AcDbEntity
  8
1
  6
Continuous
100
AcDbLine
 10
232.3077669999999
 20
372.700962
 30
0.0
 11
232.3077669999999
 21
386.300962
 31
0.0
  0
LINE
  5
C540
330
C2DA
100
AcDbEntity
  8
1
  6
Continuous
100
AcDbLine
 10
232.207767
 20
389.000962
 30
0.0
 11
232.207767
 21
370.000962
 31
0.0
  0
LINE
  5
C541
330
C2DA
100
AcDbEntity
  8
1
  6
Continuous
100
AcDbLine
 10
230.7077669999999
 20
368.500962
 30
0.0
 11
232.207767
 21
370.000962
 31
0.0
  0
ARC
  5
C542
330
C2DA
100
AcDbEntity
  8
1
  6
Continuous
100
AcDbCircle
 10
232.107767
 20
372.700962
 30
0.0
 40
0.2
100
AcDbArc
 50
300.0
 51
0.0
  0
ARC
  5
C543
330
C2DA
100
AcDbEntity
  8
1
  6
Continuous
100
AcDbCircle
 10
222.8118899999997
 20
379.500962
 30
0.0
 40
9.395877
100
AcDbArc
 50
327.177679
 51
32.822321
  0
LINE
  5
C544
330
C2DA
100
AcDbEntity
  8
1
  6
Continuous
100
AcDbLine
 10
230.7077669999999
 20
390.500962
 30
0.0
 11
230.7077669999999
 21
384.593862
 31
0.0
  0
LINE
  5
C545
330
C2DA
100
AcDbEntity
  8
1
  6
Continuous
100
AcDbLine
 10
230.7077669999999
 20
390.500962
 30
0.0
 11
232.207767
 21
389.000962
 31
0.0
  0
ARC
  5
C546
330
C2DA
100
AcDbEntity
  8
1
  6
Continuous
100
AcDbCircle
 10
232.107767
 20
386.300962
 30
0.0
 40
0.2
100
AcDbArc
 50
0.0
 51
60.0
  0
LINE
  5
C547
330
C2DA
100
AcDbEntity
  8
1
  6
Continuous
100
AcDbLine
 10
237.3077669999999
 20
384.662842
 30
0.0
 11
237.3077669999999
 21
374.339083
 31
0.0
  0
ARC
  5
C548
330
C2DA
100
AcDbEntity
  8
1
  6
Continuous
100
AcDbCircle
 10
237.007767
 20
384.662842
 30
0.0
 40
0.3
100
AcDbArc
 50
0.0
 51
90.0
  0
LINE
  5
C549
330
C2DA
100
AcDbEntity
  8
2
  6
Continuous
100
AcDbLine
 10
237.007767
 20
379.500962
 30
0.0
 11
232.3077669999999
 21
384.9628419999999
 31
0.0
  0
LINE
  5
C54A
330
C2DA
100
AcDbEntity
  8
2
  6
Continuous
100
AcDbLine
 10
237.007767
 20
384.9628419999999
 30
0.0
 11
232.3077669999999
 21
379.500962
 31
0.0
  0
LINE
  5
C54B
330
C2DA
100
AcDbEntity
  8
1
  6
Continuous
100
AcDbLine
 10
237.007767
 20
374.0390829999999
 30
0.0
 11
232.3077669999999
 21
374.0390829999999
 31
0.0
  0
LINE
  5
C54C
330
C2DA
100
AcDbEntity
  8
1
  6
Continuous
100
AcDbLine
 10
237.007767
 20
379.500962
 30
0.0
 11
232.3077669999999
 21
379.500962
 31
0.0
  0
LINE
  5
C54D
330
C2DA
100
AcDbEntity
  8
2
  6
Continuous
100
AcDbLine
 10
232.3077669999999
 20
379.500962
 30
0.0
 11
237.007767
 21
374.0390829999999
 31
0.0
  0
LINE
  5
C54E
330
C2DA
100
AcDbEntity
  8
2
  6
Continuous
100
AcDbLine
 10
232.3077669999999
 20
374.0390829999999
 30
0.0
 11
237.007767
 21
379.500962
 31
0.0
  0
LINE
  5
C54F
330
C2DA
100
AcDbEntity
  8
1
  6
Continuous
100
AcDbLine
 10
237.007767
 20
384.9628419999999
 30
0.0
 11
232.3077669999999
 21
384.9628419999999
 31
0.0
  0
ARC
  5
C550
330
C2DA
100
AcDbEntity
  8
1
  6
Continuous
100
AcDbCircle
 10
215.0077669999999
 20
400.500962
 30
0.0
 40
2.0
100
AcDbArc
 50
90.0
 51
180.0
  0
LINE
  5
C551
330
C2DA
100
AcDbEntity
  8
1
  6
Continuous
100
AcDbLine
 10
215.0077669999999
 20
402.500962
 30
0.0
 11
217.5077669999998
 21
402.500962
 31
0.0
  0
LINE
  5
C552
330
C2DA
100
AcDbEntity
  8
4
  6
CENTER
100
AcDbLine
 10
317.515077
 20
379.500962
 30
0.0
 11
302.8764799999997
 21
379.500962
 31
0.0
  0
ARC
  5
C553
330
C2DA
100
AcDbEntity
  8
1
  6
Continuous
100
AcDbCircle
 10
304.959338
 20
372.000962
 30
0.0
 40
32.055667
100
AcDbArc
 50
166.4692029999999
 51
193.530797
  0
ARC
  5
C554
330
C2DA
100
AcDbEntity
  8
1
  6
Continuous
100
AcDbCircle
 10
244.8480029999998
 20
372.000962
 30
0.0
 40
32.055667
100
AcDbArc
 50
346.469203
 51
13.530797
  0
LINE
  5
C555
330
C2DA
100
AcDbEntity
  8
1
  6
Continuous
100
AcDbLine
 10
272.9036699999999
 20
364.500962
 30
0.0
 11
272.9036699999999
 21
394.500962
 31
0.0
  0
LINE
  5
C556
330
C2DA
100
AcDbEntity
  8
1
  6
Continuous
100
AcDbLine
 10
276.90367
 20
364.500962
 30
0.0
 11
276.90367
 21
394.500962
 31
0.0
  0
LINE
  5
C557
330
C2DA
100
AcDbEntity
  8
1
  6
Continuous
100
AcDbLine
 10
278.4036699999999
 20
365.500962
 30
0.0
 11
278.4036699999999
 21
393.500962
 31
0.0
  0
LINE
  5
C558
330
C2DA
100
AcDbEntity
  8
1
  6
Continuous
100
AcDbLine
 10
276.90367
 20
364.500962
 30
0.0
 11
272.9036699999999
 21
364.500962
 31
0.0
  0
LINE
  5
C559
330
C2DA
100
AcDbEntity
  8
1
  6
Continuous
100
AcDbLine
 10
271.4036699999999
 20
365.500962
 30
0.0
 11
272.9036699999999
 21
365.500962
 31
0.0
  0
LINE
  5
C55A
330
C2DA
100
AcDbEntity
  8
1
  6
Continuous
100
AcDbLine
 10
276.90367
 20
365.500962
 30
0.0
 11
278.4036699999999
 21
365.500962
 31
0.0
  0
LINE
  5
C55B
330
C2DA
100
AcDbEntity
  8
1
  6
Continuous
100
AcDbLine
 10
278.4036699999999
 20
368.151968
 30
0.0
 11
276.90367
 21
368.151968
 31
0.0
  0
LINE
  5
C55C
330
C2DA
100
AcDbEntity
  8
1
  6
Continuous
100
AcDbLine
 10
278.4036699999999
 20
366.5426319999999
 30
0.0
 11
276.90367
 21
366.5426319999999
 31
0.0
  0
LINE
  5
C55D
330
C2DA
100
AcDbEntity
  8
4
  6
CENTER
100
AcDbLine
 10
266.9036699999999
 20
379.500962
 30
0.0
 11
281.4036699999999
 21
379.500962
 31
0.0
  0
LINE
  5
C55E
330
C2DA
100
AcDbEntity
  8
1
  6
Continuous
100
AcDbLine
 10
276.90367
 20
394.500962
 30
0.0
 11
272.9036699999999
 21
394.500962
 31
0.0
  0
LINE
  5
C55F
330
C2DA
100
AcDbEntity
  8
1
  6
Continuous
100
AcDbLine
 10
271.4036699999999
 20
393.500962
 30
0.0
 11
272.9036699999999
 21
393.500962
 31
0.0
  0
LINE
  5
C560
330
C2DA
100
AcDbEntity
  8
1
  6
Continuous
100
AcDbLine
 10
276.90367
 20
393.500962
 30
0.0
 11
278.4036699999999
 21
393.500962
 31
0.0
  0
LINE
  5
C561
330
C2DA
100
AcDbEntity
  8
1
  6
Continuous
100
AcDbLine
 10
278.4036699999999
 20
392.459292
 30
0.0
 11
276.90367
 21
392.459292
 31
0.0
  0
LINE
  5
C562
330
C2DA
100
AcDbEntity
  8
1
  6
Continuous
100
AcDbLine
 10
278.4036699999999
 20
390.8499569999997
 30
0.0
 11
276.90367
 21
390.8499569999997
 31
0.0
  0
LINE
  5
C563
330
C2DA
100
AcDbEntity
  8
1
  6
Continuous
100
AcDbLine
 10
273.793398
 20
379.500962
 30
0.0
 11
276.0139419999998
 21
379.500962
 31
0.0
  0
ARC
  5
C564
330
C2DA
100
AcDbEntity
  8
1
  6
Continuous
100
AcDbCircle
 10
304.959338
 20
387.000962
 30
0.0
 40
32.055667
100
AcDbArc
 50
166.4692029999999
 51
193.530797
  0
ARC
  5
C565
330
C2DA
100
AcDbEntity
  8
1
  6
Continuous
100
AcDbCircle
 10
244.8480029999998
 20
387.000962
 30
0.0
 40
32.055667
100
AcDbArc
 50
346.469203
 51
13.530797
  0
LINE
  5
C566
330
C2DA
100
AcDbEntity
  8
1
  6
Continuous
100
AcDbLine
 10
309.07648
 20
388.500962
 30
0.0
 11
309.07648
 21
370.500962
 31
0.0
  0
LINE
  5
C567
330
C2DA
100
AcDbEntity
  8
1
  6
Continuous
100
AcDbLine
 10
305.8764799999999
 20
388.500962
 30
0.0
 11
305.8764799999999
 21
370.500962
 31
0.0
  0
LINE
  5
C568
330
C2DA
100
AcDbEntity
  8
1
  6
Continuous
100
AcDbLine
 10
309.07648
 20
370.500962
 30
0.0
 11
305.8764799999999
 21
370.500962
 31
0.0
  0
LINE
  5
C569
330
C2DA
100
AcDbEntity
  8
1
  6
Continuous
100
AcDbLine
 10
309.07648
 20
388.500962
 30
0.0
 11
305.8764799999999
 21
388.500962
 31
0.0
  0
LINE
  5
C56A
330
C2DA
100
AcDbEntity
  8
1
  6
Continuous
100
AcDbLine
 10
314.515077
 20
388.500962
 30
0.0
 11
314.515077
 21
370.500962
 31
0.0
  0
LINE
  5
C56B
330
C2DA
100
AcDbEntity
  8
1
  6
Continuous
100
AcDbLine
 10
312.9150769999998
 20
388.500962
 30
0.0
 11
312.9150769999998
 21
370.500962
 31
0.0
  0
LINE
  5
C56C
330
C2DA
100
AcDbEntity
  8
1
  6
Continuous
100
AcDbLine
 10
333.104554
 20
387.500962
 30
0.0
 11
333.104554
 21
371.500962
 31
0.0
  0
LINE
  5
C56D
330
C2DA
100
AcDbEntity
  8
1
  6
Continuous
100
AcDbLine
 10
331.904554
 20
387.500962
 30
0.0
 11
331.904554
 21
371.500962
 31
0.0
  0
LINE
  5
C56E
330
C2DA
100
AcDbEntity
  8
1
  6
Continuous
100
AcDbLine
 10
314.515077
 20
370.500962
 30
0.0
 11
312.9150769999998
 21
370.500962
 31
0.0
  0
LINE
  5
C56F
330
C2DA
100
AcDbEntity
  8
1
  6
Continuous
100
AcDbLine
 10
333.104554
 20
371.500962
 30
0.0
 11
331.904554
 21
371.500962
 31
0.0
  0
LINE
  5
C570
330
C2DA
100
AcDbEntity
  8
1
  6
Continuous
100
AcDbLine
 10
314.515077
 20
388.500962
 30
0.0
 11
312.9150769999998
 21
388.500962
 31
0.0
  0
LINE
  5
C571
330
C2DA
100
AcDbEntity
  8
1
  6
Continuous
100
AcDbLine
 10
337.904554
 20
383.500962
 30
0.0
 11
334.404554
 21
383.500962
 31
0.0
  0
ARC
  5
C572
330
C2DA
100
AcDbEntity
  8
1
  6
Continuous
100
AcDbCircle
 10
332.1295779999999
 20
377.500962
 30
0.0
 40
5.774976999999998
100
AcDbArc
 50
339.7375
 51
20.2625
  0
ARC
  5
C573
330
C2DA
100
AcDbEntity
  8
1
  6
Continuous
100
AcDbCircle
 10
340.179531
 20
377.500962
 30
0.0
 40
5.774976999999998
100
AcDbArc
 50
159.7375
 51
200.2625
  0
LINE
  5
C574
330
C2DA
100
AcDbEntity
  8
1
  6
Continuous
100
AcDbLine
 10
337.904554
 20
375.500962
 30
0.0
 11
334.404554
 21
375.500962
 31
0.0
  0
LINE
  5
C575
330
C2DA
100
AcDbEntity
  8
1
  6
Continuous
100
AcDbLine
 10
334.761934
 20
379.500962
 30
0.0
 11
337.5471749999999
 21
379.500962
 31
0.0
  0
LINE
  5
C576
330
C2DA
100
AcDbEntity
  8
1
  6
Continuous
100
AcDbLine
 10
337.904554
 20
383.500962
 30
0.0
 11
337.904554
 21
375.500962
 31
0.0
  0
ARC
  5
C577
330
C2DA
100
AcDbEntity
  8
1
  6
Continuous
100
AcDbCircle
 10
340.179531
 20
381.500962
 30
0.0
 40
5.774976999999998
100
AcDbArc
 50
159.7375
 51
200.2625
  0
ARC
  5
C578
330
C2DA
100
AcDbEntity
  8
1
  6
Continuous
100
AcDbCircle
 10
332.1295779999999
 20
381.500962
 30
0.0
 40
5.774976999999998
100
AcDbArc
 50
339.7375
 51
20.2625
  0
LINE
  5
C579
330
C2DA
100
AcDbEntity
  8
1
  6
Continuous
100
AcDbLine
 10
333.104554
 20
387.500962
 30
0.0
 11
331.904554
 21
387.500962
 31
0.0
  0
LINE
  5
C57A
330
C2DA
100
AcDbEntity
  8
1
  6
Continuous
100
AcDbLine
 10
334.404554
 20
374.9009619999998
 30
0.0
 11
334.404554
 21
384.1009619999999
 31
0.0
  0
LINE
  5
C57B
330
C2DA
100
AcDbEntity
  8
1
  6
Continuous
100
AcDbLine
 10
334.404554
 20
374.9009619999998
 30
0.0
 11
333.104554
 21
374.9009619999998
 31
0.0
  0
LINE
  5
C57C
330
C2DA
100
AcDbEntity
  8
1
  6
Continuous
100
AcDbLine
 10
334.404554
 20
384.1009619999999
 30
0.0
 11
333.104554
 21
384.1009619999999
 31
0.0
  0
LINE
  5
C57D
330
C2DA
100
AcDbEntity
  8
1
  6
Continuous
100
AcDbLine
 10
334.404554
 20
379.500962
 30
0.0
 11
333.104554
 21
378.200962
 31
0.0
  0
LINE
  5
C57E
330
C2DA
100
AcDbEntity
  8
1
  6
Continuous
100
AcDbLine
 10
334.404554
 20
380.800962
 30
0.0
 11
333.104554
 21
379.500962
 31
0.0
  0
LINE
  5
C57F
330
C2DA
100
AcDbEntity
  8
4
  6
CENTER
100
AcDbLine
 10
340.904554
 20
379.500962
 30
0.0
 11
328.904554
 21
379.500962
 31
0.0
  0
ARC
  5
C580
330
C2DA
100
AcDbEntity
  8
1
  6
Continuous
100
AcDbCircle
 10
233.5077669999999
 20
379.500962
 30
0.0
 40
61.0
100
AcDbArc
 50
173.410558
 51
186.589442
  0
ARC
  5
C581
330
C2DA
100
AcDbEntity
  8
1
  6
Continuous
100
AcDbCircle
 10
233.5077669999999
 20
379.500962
 30
0.0
 40
60.5
100
AcDbArc
 50
170.7259399999998
 51
189.2740599999999
  0
ARC
  5
C582
330
C2DA
100
AcDbEntity
  8
1
  6
Continuous
100
AcDbCircle
 10
233.5077669999999
 20
379.500962
 30
0.0
 40
60.0
100
AcDbArc
 50
169.7486869999998
 51
170.647965
  0
ARC
  5
C583
330
C2DA
100
AcDbEntity
  8
1
  6
Continuous
100
AcDbCircle
 10
175.4496059999999
 20
390.000962
 30
0.0
 40
1.0
100
AcDbArc
 50
90.0
 51
169.7486869999998
  0
ARC
  5
C584
330
C2DA
100
AcDbEntity
  8
1
  6
Continuous
100
AcDbCircle
 10
175.4496059999999
 20
369.000962
 30
0.0
 40
1.0
100
AcDbArc
 50
190.2513129999999
 51
270.0
  0
ARC
  5
C585
330
C2DA
100
AcDbEntity
  8
1
  6
Continuous
100
AcDbCircle
 10
233.5077669999999
 20
379.500962
 30
0.0
 40
60.0
100
AcDbArc
 50
189.352035
 51
190.2513129999999
  0
ARC
  5
C586
330
C2DA
100
AcDbEntity
  8
1
  6
Continuous
100
AcDbCircle
 10
233.5077669999999
 20
72.553562
 30
0.0
 40
60.5
100
AcDbArc
 50
170.7259399999998
 51
189.2740599999999
  0
ARC
  5
C587
330
C2DA
100
AcDbEntity
  8
1
  6
Continuous
100
AcDbCircle
 10
233.5077669999999
 20
72.553562
 30
0.0
 40
61.0
100
AcDbArc
 50
173.410558
 51
186.589442
  0
LINE
  5
C588
330
C2DA
100
AcDbEntity
  8
1
  6
Continuous
100
AcDbLine
 10
173.4140899999999
 20
65.553562
 30
0.0
 11
172.910737
 21
65.553562
 31
0.0
  0
LINE
  5
C589
330
C2DA
100
AcDbEntity
  8
1
  6
Continuous
100
AcDbLine
 10
174.3052539999999
 20
62.80356199999999
 30
0.0
 11
173.7985759999999
 21
62.80356199999999
 31
0.0
  0
LINE
  5
C58A
330
C2DA
100
AcDbEntity
  8
1
  6
Continuous
100
AcDbLine
 10
173.4140899999999
 20
79.553562
 30
0.0
 11
172.910737
 21
79.553562
 31
0.0
  0
LINE
  5
C58B
330
C2DA
100
AcDbEntity
  8
1
  6
Continuous
100
AcDbLine
 10
174.3052539999999
 20
82.30356200000001
 30
0.0
 11
173.7985759999999
 21
82.30356200000001
 31
0.0
  0
ARC
  5
C58C
330
C2DA
100
AcDbEntity
  8
1
  6
Continuous
100
AcDbCircle
 10
233.5077669999999
 20
72.553573
 30
0.0
 40
60.0
100
AcDbArc
 50
169.7486979999998
 51
190.251325
  0
ARC
  5
C58D
330
C2DA
100
AcDbEntity
  8
1
  6
Continuous
100
AcDbCircle
 10
175.449604
 20
83.053562
 30
0.0
 40
1.0
100
AcDbArc
 50
90.0
 51
169.7486979999998
  0
ARC
  5
C58E
330
C2DA
100
AcDbEntity
  8
1
  6
Continuous
100
AcDbCircle
 10
175.449608
 20
62.053562
 30
0.0
 40
1.0
100
AcDbArc
 50
190.251325
 51
270.0
  0
ARC
  5
C58F
330
C2DA
100
AcDbEntity
  8
1
  6
Continuous
100
AcDbCircle
 10
233.5077669999999
 20
72.553573
 30
0.0
 40
54.0
100
AcDbArc
 50
174.338509
 51
185.661491
  0
ARC
  5
C590
330
C2DA
100
AcDbEntity
  8
1
  6
Continuous
100
AcDbCircle
 10
180.7662949999999
 20
77.78207299999998
 30
0.0
 40
1.0
100
AcDbArc
 50
90.0
 51
174.338509
  0
ARC
  5
C591
330
C2DA
100
AcDbEntity
  8
1
  6
Continuous
100
AcDbCircle
 10
180.7662949999999
 20
67.325073
 30
0.0
 40
1.0
100
AcDbArc
 50
185.661491
 51
270.0
  0
LINE
  5
C592
330
C2DA
100
AcDbEntity
  8
1
  6
Continuous
100
AcDbLine
 10
174.8084979999999
 20
83.82101400000001
 30
0.0
 11
180.094973
 21
78.523238
 31
0.0
  0
LINE
  5
C593
330
C2DA
100
AcDbEntity
  8
1
  6
Continuous
100
AcDbLine
 10
174.8084979999999
 20
61.28613299999999
 30
0.0
 11
180.094973
 21
66.58390899999999
 31
0.0
  0
LINE
  5
C594
330
C2DA
100
AcDbEntity
  8
1
  6
Continuous
100
AcDbLine
 10
174.3052539999999
 20
278.4146129999999
 30
0.0
 11
174.3052539999999
 21
246.4843259999999
 31
0.0
  0
LINE
  5
C595
330
C2DA
100
AcDbEntity
  8
1
  6
Continuous
100
AcDbLine
 10
173.7985759999999
 20
278.4146129999999
 30
0.0
 11
173.7985759999999
 21
246.4843259999999
 31
0.0
  0
LINE
  5
C596
330
C2DA
100
AcDbEntity
  8
1
  6
Continuous
100
AcDbLine
 10
173.007767
 20
279.4843259999999
 30
0.0
 11
173.007767
 21
246.4843259999999
 31
0.0
  0
LINE
  5
C597
330
C2DA
100
AcDbEntity
  8
1
  6
Continuous
100
AcDbLine
 10
172.507767
 20
254.9843259999999
 30
0.0
 11
173.007767
 21
254.4843259999999
 31
0.0
  0
LINE
  5
C598
330
C2DA
100
AcDbEntity
  8
1
  6
Continuous
100
AcDbLine
 10
174.3052539999999
 20
246.4843259999999
 30
0.0
 11
173.007767
 21
246.4843259999999
 31
0.0
  0
LINE
  5
C599
330
C2DA
100
AcDbEntity
  8
1
  6
Continuous
100
AcDbLine
 10
173.007767
 20
254.4843259999999
 30
0.0
 11
172.507767
 21
253.984326
 31
0.0
  0
LINE
  5
C59A
330
C2DA
100
AcDbEntity
  8
1
  6
Continuous
100
AcDbLine
 10
172.507767
 20
253.984326
 30
0.0
 11
173.007767
 21
253.4843259999999
 31
0.0
  0
LINE
  5
C59B
330
C2DA
100
AcDbEntity
  8
1
  6
Continuous
100
AcDbLine
 10
173.007767
 20
253.4843259999999
 30
0.0
 11
172.507767
 21
252.9843259999999
 31
0.0
  0
LINE
  5
C59C
330
C2DA
100
AcDbEntity
  8
1
  6
Continuous
100
AcDbLine
 10
172.507767
 20
252.9843259999999
 30
0.0
 11
173.007767
 21
252.4843259999999
 31
0.0
  0
LINE
  5
C59D
330
C2DA
100
AcDbEntity
  8
1
  6
Continuous
100
AcDbLine
 10
173.007767
 20
252.4843259999999
 30
0.0
 11
172.507767
 21
251.984326
 31
0.0
  0
LINE
  5
C59E
330
C2DA
100
AcDbEntity
  8
1
  6
Continuous
100
AcDbLine
 10
172.507767
 20
251.984326
 30
0.0
 11
173.007767
 21
251.4843259999999
 31
0.0
  0
LINE
  5
C59F
330
C2DA
100
AcDbEntity
  8
1
  6
Continuous
100
AcDbLine
 10
173.007767
 20
251.4843259999999
 30
0.0
 11
172.507767
 21
250.9843259999999
 31
0.0
  0
LINE
  5
C5A0
330
C2DA
100
AcDbEntity
  8
1
  6
Continuous
100
AcDbLine
 10
172.507767
 20
250.9843259999999
 30
0.0
 11
173.007767
 21
250.4843259999999
 31
0.0
  0
LINE
  5
C5A1
330
C2DA
100
AcDbEntity
  8
1
  6
Continuous
100
AcDbLine
 10
172.507767
 20
249.984326
 30
0.0
 11
173.007767
 21
249.4843259999999
 31
0.0
  0
LINE
  5
C5A2
330
C2DA
100
AcDbEntity
  8
1
  6
Continuous
100
AcDbLine
 10
173.007767
 20
250.4843259999999
 30
0.0
 11
172.507767
 21
249.984326
 31
0.0
  0
LINE
  5
C5A3
330
C2DA
100
AcDbEntity
  8
1
  6
Continuous
100
AcDbLine
 10
172.507767
 20
259.9843259999999
 30
0.0
 11
173.007767
 21
259.4843259999997
 31
0.0
  0
LINE
  5
C5A4
330
C2DA
100
AcDbEntity
  8
1
  6
Continuous
100
AcDbLine
 10
173.007767
 20
259.4843259999997
 30
0.0
 11
172.507767
 21
258.9843259999997
 31
0.0
  0
LINE
  5
C5A5
330
C2DA
100
AcDbEntity
  8
1
  6
Continuous
100
AcDbLine
 10
172.507767
 20
258.9843259999997
 30
0.0
 11
173.007767
 21
258.4843259999999
 31
0.0
  0
LINE
  5
C5A6
330
C2DA
100
AcDbEntity
  8
1
  6
Continuous
100
AcDbLine
 10
173.007767
 20
258.4843259999999
 30
0.0
 11
172.507767
 21
257.9843259999999
 31
0.0
  0
LINE
  5
C5A7
330
C2DA
100
AcDbEntity
  8
1
  6
Continuous
100
AcDbLine
 10
172.507767
 20
257.9843259999999
 30
0.0
 11
173.007767
 21
257.4843259999997
 31
0.0
  0
LINE
  5
C5A8
330
C2DA
100
AcDbEntity
  8
1
  6
Continuous
100
AcDbLine
 10
173.007767
 20
257.4843259999997
 30
0.0
 11
172.507767
 21
256.9843259999997
 31
0.0
  0
LINE
  5
C5A9
330
C2DA
100
AcDbEntity
  8
1
  6
Continuous
100
AcDbLine
 10
172.507767
 20
256.9843259999997
 30
0.0
 11
173.007767
 21
256.4843259999999
 31
0.0
  0
LINE
  5
C5AA
330
C2DA
100
AcDbEntity
  8
1
  6
Continuous
100
AcDbLine
 10
173.007767
 20
256.4843259999999
 30
0.0
 11
172.507767
 21
255.984326
 31
0.0
  0
LINE
  5
C5AB
330
C2DA
100
AcDbEntity
  8
1
  6
Continuous
100
AcDbLine
 10
172.507767
 20
255.984326
 30
0.0
 11
173.007767
 21
255.4843259999999
 31
0.0
  0
LINE
  5
C5AC
330
C2DA
100
AcDbEntity
  8
1
  6
Continuous
100
AcDbLine
 10
173.007767
 20
255.4843259999999
 30
0.0
 11
172.507767
 21
254.9843259999999
 31
0.0
  0
LINE
  5
C5AD
330
C2DA
100
AcDbEntity
  8
1
  6
Continuous
100
AcDbLine
 10
173.007767
 20
261.4843259999997
 30
0.0
 11
172.507767
 21
260.9843259999997
 31
0.0
  0
LINE
  5
C5AE
330
C2DA
100
AcDbEntity
  8
1
  6
Continuous
100
AcDbLine
 10
172.507767
 20
260.9843259999997
 30
0.0
 11
173.007767
 21
260.4843259999999
 31
0.0
  0
LINE
  5
C5AF
330
C2DA
100
AcDbEntity
  8
1
  6
Continuous
100
AcDbLine
 10
173.007767
 20
260.4843259999999
 30
0.0
 11
172.507767
 21
259.9843259999999
 31
0.0
  0
LINE
  5
C5B0
330
C2DA
100
AcDbEntity
  8
1
  6
Continuous
100
AcDbLine
 10
175.6201619999999
 20
277.5497009999999
 30
0.0
 11
184.7430349999999
 21
277.5497009999999
 31
0.0
  0
LINE
  5
C5B1
330
C2DA
100
AcDbEntity
  8
1
  6
Continuous
100
AcDbLine
 10
174.0077669999998
 20
280.4843259999996
 30
0.0
 11
184.7430349999999
 21
280.4843259999996
 31
0.0
  0
ARC
  5
C5B2
330
C2DA
100
AcDbEntity
  8
1
  6
Continuous
100
AcDbCircle
 10
174.0077669999998
 20
279.4843259999999
 30
0.0
 40
1.0
100
AcDbArc
 50
90.0
 51
180.0
  0
LINE
  5
C5B3
330
C2DA
100
AcDbEntity
  8
1
  6
Continuous
100
AcDbLine
 10
174.3052539999999
 20
278.4146129999999
 30
0.0
 11
174.8290989999999
 21
277.5816869999998
 31
0.0
  0
LINE
  5
C5B4
330
C2DA
100
AcDbEntity
  8
1
  6
Continuous
100
AcDbLine
 10
173.7985759999999
 20
278.4146129999999
 30
0.0
 11
173.628201
 21
279.8945279999999
 31
0.0
  0
LINE
  5
C5B5
330
C2DA
100
AcDbEntity
  8
1
  6
Continuous
100
AcDbLine
 10
173.7985759999999
 20
278.4146129999999
 30
0.0
 11
174.3052539999999
 21
278.4146129999999
 31
0.0
  0
ARC
  5
C5B6
330
C2DA
100
AcDbEntity
  8
1
  6
Continuous
100
AcDbCircle
 10
175.6201619999999
 20
276.5497009999999
 30
0.0
 40
1.0
100
AcDbArc
 50
90.0
 51
180.0
  0
ARC
  5
C5B7
330
C2DA
100
AcDbEntity
  8
1
  6
Continuous
100
AcDbCircle
 10
184.7430349999999
 20
270.4843259999999
 30
0.0
 40
7.065374
100
AcDbArc
 50
78.253134
 51
90.0
  0
ARC
  5
C5B8
330
C2DA
100
AcDbEntity
  8
1
  6
Continuous
100
AcDbCircle
 10
184.7430349999999
 20
270.4843259999999
 30
0.0
 40
10.0
100
AcDbArc
 50
78.253134
 51
90.0
  0
LINE
  5
C5B9
330
C2DA
100
AcDbEntity
  8
1
  6
Continuous
100
AcDbLine
 10
57.51649699999999
 20
249.4843259999999
 30
0.0
 11
50.588294
 21
261.4843259999997
 31
0.0
  0
LINE
  5
C5BA
330
C2DA
100
AcDbEntity
  8
1
  6
Continuous
100
AcDbLine
 10
748.4445149999997
 20
278.4146129999999
 30
0.0
 11
748.4445149999997
 21
246.4843259999999
 31
0.0
  0
LINE
  5
C5BB
330
C2DA
100
AcDbEntity
  8
1
  6
Continuous
100
AcDbLine
 10
748.9511929999999
 20
278.4146129999999
 30
0.0
 11
748.9511929999999
 21
246.4843259999999
 31
0.0
  0
LINE
  5
C5BC
330
C2DA
100
AcDbEntity
  8
1
  6
Continuous
100
AcDbLine
 10
749.7420019999997
 20
279.4843259999999
 30
0.0
 11
749.7420019999997
 21
246.4843259999999
 31
0.0
  0
LINE
  5
C5BD
330
C2DA
100
AcDbEntity
  8
1
  6
Continuous
100
AcDbLine
 10
685.442002
 20
268.646206
 30
0.0
 11
685.442002
 21
258.322447
 31
0.0
  0
LINE
  5
C5BE
330
C2DA
100
AcDbEntity
  8
2
  6
Continuous
100
AcDbLine
 10
685.7420019999998
 20
263.4843259999997
 30
0.0
 11
690.4420019999996
 21
268.946206
 31
0.0
  0
LINE
  5
C5BF
330
C2DA
100
AcDbEntity
  8
2
  6
Continuous
100
AcDbLine
 10
685.7420019999998
 20
268.946206
 30
0.0
 11
690.4420019999996
 21
263.4843259999997
 31
0.0
  0
LINE
  5
C5C0
330
C2DA
100
AcDbEntity
  8
1
  6
Continuous
100
AcDbLine
 10
705.2420019999998
 20
286.4843259999997
 30
0.0
 11
705.2420019999998
 21
240.4843259999999
 31
0.0
  0
LINE
  5
C5C1
330
C2DA
100
AcDbEntity
  8
1
  6
Continuous
100
AcDbLine
 10
706.2420019999998
 20
286.4843259999997
 30
0.0
 11
706.2420019999998
 21
240.4843259999999
 31
0.0
  0
LINE
  5
C5C2
330
C2DA
100
AcDbEntity
  8
1
  6
Continuous
100
AcDbLine
 10
709.7420019999998
 20
284.4843259999997
 30
0.0
 11
709.7420019999998
 21
242.4843259999999
 31
0.0
  0
LINE
  5
C5C3
330
C2DA
100
AcDbEntity
  8
1
  6
Continuous
100
AcDbLine
 10
717.7420019999998
 20
250.4843259999999
 30
0.0
 11
717.7420019999998
 21
276.4843259999997
 31
0.0
  0
LINE
  5
C5C4
330
C2DA
100
AcDbEntity
  8
1
  6
Continuous
100
AcDbLine
 10
717.6920019999997
 20
276.291455
 30
0.0
 11
717.6920019999997
 21
250.6771969999999
 31
0.0
  0
LINE
  5
C5C5
330
C2DA
100
AcDbEntity
  8
1
  6
Continuous
100
AcDbLine
 10
690.4420019999996
 20
256.684326
 30
0.0
 11
690.4420019999996
 21
270.2843259999997
 31
0.0
  0
LINE
  5
C5C6
330
C2DA
100
AcDbEntity
  8
1
  6
Continuous
100
AcDbLine
 10
690.5420019999996
 20
272.9843259999999
 30
0.0
 11
690.5420019999996
 21
253.984326
 31
0.0
  0
LINE
  5
C5C7
330
C2DA
100
AcDbEntity
  8
4
  6
CENTER
100
AcDbLine
 10
754.842002
 20
263.4843259999997
 30
0.0
 11
681.9160910000001
 21
263.4843259999997
 31
0.0
  0
LINE
  5
C5C8
330
C2DA
100
AcDbEntity
  8
1
  6
Continuous
100
AcDbLine
 10
737.681418
 20
247.9523369999999
 30
0.0
 11
717.7420019999998
 21
250.4843259999999
 31
0.0
  0
LINE
  5
C5C9
330
C2DA
100
AcDbEntity
  8
1
  6
Continuous
100
AcDbLine
 10
733.3718639999997
 20
252.1365139999999
 30
0.0
 11
718.196505
 21
254.063543
 31
0.0
  0
LINE
  5
C5CA
330
C2DA
100
AcDbEntity
  8
1
  6
Continuous
100
AcDbLine
 10
737.7420019999997
 20
247.176345
 30
0.0
 11
737.7420019999997
 21
197.6411799999999
 31
0.0
  0
LINE
  5
C5CB
330
C2DA
100
AcDbEntity
  8
1
  6
Continuous
100
AcDbLine
 10
743.4485479999997
 20
185.2522439999999
 30
0.0
 11
747.890887
 21
223.2761329999999
 31
0.0
  0
ARC
  5
C5CC
330
C2DA
100
AcDbEntity
  8
1
  6
Continuous
100
AcDbCircle
 10
738.2420019999997
 20
188.484326
 30
0.0
 40
5.0
100
AcDbArc
 50
180.0
 51
270.0
  0
LINE
  5
C5CD
330
C2DA
100
AcDbEntity
  8
1
  6
Continuous
100
AcDbLine
 10
741.4620589999997
 20
183.484326
 30
0.0
 11
738.2420019999997
 21
183.484326
 31
0.0
  0
ARC
  5
C5CE
330
C2DA
100
AcDbEntity
  8
1
  6
Continuous
100
AcDbCircle
 10
741.4620589999997
 20
185.484326
 30
0.0
 40
2.0
100
AcDbArc
 50
270.0
 51
353.3363299999999
  0
LINE
  5
C5CF
330
C2DA
100
AcDbEntity
  8
1
  6
Continuous
100
AcDbLine
 10
734.413574
 20
192.655899
 30
0.0
 11
736.570429
 21
194.8127529999999
 31
0.0
  0
ARC
  5
C5D0
330
C2DA
100
AcDbEntity
  8
1
  6
Continuous
100
AcDbCircle
 10
733.7420019999997
 20
197.6411799999999
 30
0.0
 40
4.0
100
AcDbArc
 50
315.0
 51
0.0
  0
ARC
  5
C5D1
330
C2DA
100
AcDbEntity
  8
1
  6
Continuous
100
AcDbCircle
 10
737.2420019999997
 20
189.827472
 30
0.0
 40
4.0
100
AcDbArc
 50
135.0
 51
180.0
  0
LINE
  5
C5D2
330
C2DA
100
AcDbEntity
  8
1
  6
Continuous
100
AcDbLine
 10
733.2420019999997
 20
189.827472
 30
0.0
 11
733.2420019999997
 21
188.484326
 31
0.0
  0
ARC
  5
C5D3
330
C2DA
100
AcDbEntity
  8
1
  6
Continuous
100
AcDbCircle
 10
549.2420019999998
 20
246.4843259999999
 30
0.0
 40
200.0
100
AcDbArc
 50
353.3363299999999
 51
0.0
  0
LINE
  5
C5D4
330
C2DA
100
AcDbEntity
  8
1
  6
Continuous
100
AcDbLine
 10
750.2420019999997
 20
259.9843259999999
 30
0.0
 11
749.7420019999997
 21
259.4843259999997
 31
0.0
  0
LINE
  5
C5D5
330
C2DA
100
AcDbEntity
  8
1
  6
Continuous
100
AcDbLine
 10
749.7420019999997
 20
259.4843259999997
 30
0.0
 11
750.2420019999997
 21
258.9843259999997
 31
0.0
  0
LINE
  5
C5D6
330
C2DA
100
AcDbEntity
  8
1
  6
Continuous
100
AcDbLine
 10
750.2420019999997
 20
258.9843259999997
 30
0.0
 11
749.7420019999997
 21
258.4843259999999
 31
0.0
  0
LINE
  5
C5D7
330
C2DA
100
AcDbEntity
  8
1
  6
Continuous
100
AcDbLine
 10
749.7420019999997
 20
258.4843259999999
 30
0.0
 11
750.2420019999997
 21
257.9843259999999
 31
0.0
  0
LINE
  5
C5D8
330
C2DA
100
AcDbEntity
  8
1
  6
Continuous
100
AcDbLine
 10
750.2420019999997
 20
257.9843259999999
 30
0.0
 11
749.7420019999997
 21
257.4843259999997
 31
0.0
  0
LINE
  5
C5D9
330
C2DA
100
AcDbEntity
  8
1
  6
Continuous
100
AcDbLine
 10
749.7420019999997
 20
257.4843259999997
 30
0.0
 11
750.2420019999997
 21
256.9843259999997
 31
0.0
  0
LINE
  5
C5DA
330
C2DA
100
AcDbEntity
  8
1
  6
Continuous
100
AcDbLine
 10
750.2420019999997
 20
256.9843259999997
 30
0.0
 11
749.7420019999997
 21
256.4843259999999
 31
0.0
  0
LINE
  5
C5DB
330
C2DA
100
AcDbEntity
  8
1
  6
Continuous
100
AcDbLine
 10
749.7420019999997
 20
261.4843259999997
 30
0.0
 11
750.2420019999997
 21
260.9843259999997
 31
0.0
  0
LINE
  5
C5DC
330
C2DA
100
AcDbEntity
  8
1
  6
Continuous
100
AcDbLine
 10
750.2420019999997
 20
260.9843259999997
 30
0.0
 11
749.7420019999997
 21
260.4843259999999
 31
0.0
  0
LINE
  5
C5DD
330
C2DA
100
AcDbEntity
  8
1
  6
Continuous
100
AcDbLine
 10
749.7420019999997
 20
260.4843259999999
 30
0.0
 11
750.2420019999997
 21
259.9843259999999
 31
0.0
  0
LINE
  5
C5DE
330
C2DA
100
AcDbEntity
  8
1
  6
Continuous
100
AcDbLine
 10
750.2420019999997
 20
254.9843259999999
 30
0.0
 11
749.7420019999997
 21
254.4843259999999
 31
0.0
  0
LINE
  5
C5DF
330
C2DA
100
AcDbEntity
  8
1
  6
Continuous
100
AcDbLine
 10
748.4445149999997
 20
246.4843259999999
 30
0.0
 11
749.7420019999997
 21
246.4843259999999
 31
0.0
  0
LINE
  5
C5E0
330
C2DA
100
AcDbEntity
  8
1
  6
Continuous
100
AcDbLine
 10
749.7420019999997
 20
254.4843259999999
 30
0.0
 11
750.2420019999997
 21
253.984326
 31
0.0
  0
LINE
  5
C5E1
330
C2DA
100
AcDbEntity
  8
1
  6
Continuous
100
AcDbLine
 10
750.2420019999997
 20
253.984326
 30
0.0
 11
749.7420019999997
 21
253.4843259999999
 31
0.0
  0
LINE
  5
C5E2
330
C2DA
100
AcDbEntity
  8
1
  6
Continuous
100
AcDbLine
 10
749.7420019999997
 20
253.4843259999999
 30
0.0
 11
750.2420019999997
 21
252.9843259999999
 31
0.0
  0
LINE
  5
C5E3
330
C2DA
100
AcDbEntity
  8
1
  6
Continuous
100
AcDbLine
 10
750.2420019999997
 20
252.9843259999999
 30
0.0
 11
749.7420019999997
 21
252.4843259999999
 31
0.0
  0
LINE
  5
C5E4
330
C2DA
100
AcDbEntity
  8
1
  6
Continuous
100
AcDbLine
 10
749.7420019999997
 20
252.4843259999999
 30
0.0
 11
750.2420019999997
 21
251.984326
 31
0.0
  0
LINE
  5
C5E5
330
C2DA
100
AcDbEntity
  8
1
  6
Continuous
100
AcDbLine
 10
750.2420019999997
 20
251.984326
 30
0.0
 11
749.7420019999997
 21
251.4843259999999
 31
0.0
  0
LINE
  5
C5E6
330
C2DA
100
AcDbEntity
  8
1
  6
Continuous
100
AcDbLine
 10
749.7420019999997
 20
251.4843259999999
 30
0.0
 11
750.2420019999997
 21
250.9843259999999
 31
0.0
  0
LINE
  5
C5E7
330
C2DA
100
AcDbEntity
  8
1
  6
Continuous
100
AcDbLine
 10
750.2420019999997
 20
250.9843259999999
 30
0.0
 11
749.7420019999997
 21
250.4843259999999
 31
0.0
  0
LINE
  5
C5E8
330
C2DA
100
AcDbEntity
  8
1
  6
Continuous
100
AcDbLine
 10
750.2420019999997
 20
249.984326
 30
0.0
 11
749.7420019999997
 21
249.4843259999999
 31
0.0
  0
LINE
  5
C5E9
330
C2DA
100
AcDbEntity
  8
1
  6
Continuous
100
AcDbLine
 10
749.7420019999997
 20
250.4843259999999
 30
0.0
 11
750.2420019999997
 21
249.984326
 31
0.0
  0
LINE
  5
C5EA
330
C2DA
100
AcDbEntity
  8
1
  6
Continuous
100
AcDbLine
 10
750.2420019999997
 20
255.984326
 30
0.0
 11
749.7420019999997
 21
255.4843259999999
 31
0.0
  0
LINE
  5
C5EB
330
C2DA
100
AcDbEntity
  8
1
  6
Continuous
100
AcDbLine
 10
749.7420019999997
 20
255.4843259999999
 30
0.0
 11
750.2420019999997
 21
254.9843259999999
 31
0.0
  0
LINE
  5
C5EC
330
C2DA
100
AcDbEntity
  8
1
  6
Continuous
100
AcDbLine
 10
749.7420019999997
 20
256.4843259999999
 30
0.0
 11
750.2420019999997
 21
255.984326
 31
0.0
  0
ARC
  5
C5ED
330
C2DA
100
AcDbEntity
  8
1
  6
Continuous
100
AcDbCircle
 10
732.7420019999997
 20
247.176345
 30
0.0
 40
5.0
100
AcDbArc
 50
0.0
 51
82.76307799999996
  0
LINE
  5
C5EE
330
C2DA
100
AcDbEntity
  8
1
  6
Continuous
100
AcDbLine
 10
690.7920019999997
 20
253.7343259999999
 30
0.0
 11
705.2420019999998
 21
253.7343259999999
 31
0.0
  0
ARC
  5
C5EF
330
C2DA
100
AcDbEntity
  8
1
  6
Continuous
100
AcDbCircle
 10
707.7420019999998
 20
242.4843259999999
 30
0.0
 40
2.0
100
AcDbArc
 50
270.0
 51
0.0
  0
LINE
  5
C5F0
330
C2DA
100
AcDbEntity
  8
1
  6
Continuous
100
AcDbLine
 10
709.2239049999998
 20
241.1412089999998
 30
0.0
 11
717.5624769999998
 21
250.341418
 31
0.0
  0
LINE
  5
C5F1
330
C2DA
100
AcDbEntity
  8
1
  6
Continuous
100
AcDbLine
 10
707.7420019999998
 20
240.4843259999999
 30
0.0
 11
705.2420019999998
 21
240.4843259999999
 31
0.0
  0
ARC
  5
C5F2
330
C2DA
100
AcDbEntity
  8
1
  6
Continuous
100
AcDbCircle
 10
717.1920019999999
 20
250.6771969999999
 30
0.0
 40
0.5
100
AcDbArc
 50
317.8125359999999
 51
0.0
  0
LINE
  5
C5F3
330
C2DA
100
AcDbEntity
  8
1
  6
Continuous
100
AcDbLine
 10
717.7420019999998
 20
254.4843259999999
 30
0.0
 11
717.6920019999997
 21
254.4843259999999
 31
0.0
  0
LINE
  5
C5F4
330
C2DA
100
AcDbEntity
  8
1
  6
Continuous
100
AcDbLine
 10
703.7420019999998
 20
248.4843259999999
 30
0.0
 11
705.2420019999998
 21
248.4843259999999
 31
0.0
  0
LINE
  5
C5F5
330
C2DA
100
AcDbEntity
  8
1
  6
Continuous
100
AcDbLine
 10
703.7420019999998
 20
243.9843259999999
 30
0.0
 11
705.2420019999998
 21
243.9843259999999
 31
0.0
  0
LINE
  5
C5F6
330
C2DA
100
AcDbEntity
  8
1
  6
Continuous
100
AcDbLine
 10
703.7420019999998
 20
243.9843259999999
 30
0.0
 11
703.7420019999998
 21
248.4843259999999
 31
0.0
  0
LINE
  5
C5F7
330
C2DA
100
AcDbEntity
  8
1
  6
Continuous
100
AcDbLine
 10
685.7420019999998
 20
258.022447
 30
0.0
 11
690.4420019999996
 21
258.022447
 31
0.0
  0
LINE
  5
C5F8
330
C2DA
100
AcDbEntity
  8
1
  6
Continuous
100
AcDbLine
 10
685.7420019999998
 20
263.4843259999997
 30
0.0
 11
690.4420019999996
 21
263.4843259999997
 31
0.0
  0
LINE
  5
C5F9
330
C2DA
100
AcDbEntity
  8
2
  6
Continuous
100
AcDbLine
 10
690.4420019999996
 20
263.4843259999997
 30
0.0
 11
685.7420019999998
 21
258.022447
 31
0.0
  0
LINE
  5
C5FA
330
C2DA
100
AcDbEntity
  8
2
  6
Continuous
100
AcDbLine
 10
690.4420019999996
 20
258.022447
 30
0.0
 11
685.7420019999998
 21
263.4843259999997
 31
0.0
  0
ARC
  5
C5FB
330
C2DA
100
AcDbEntity
  8
1
  6
Continuous
100
AcDbCircle
 10
690.6420019999996
 20
256.684326
 30
0.0
 40
0.2
100
AcDbArc
 50
180.0
 51
239.9999999999999
  0
LINE
  5
C5FC
330
C2DA
100
AcDbEntity
  8
1
  6
Continuous
100
AcDbLine
 10
690.7920019999997
 20
253.7343259999999
 30
0.0
 11
690.5420019999996
 21
253.984326
 31
0.0
  0
ARC
  5
C5FD
330
C2DA
100
AcDbEntity
  8
1
  6
Continuous
100
AcDbCircle
 10
685.7420019999998
 20
258.322447
 30
0.0
 40
0.3
100
AcDbArc
 50
180.0
 51
270.0
  0
LINE
  5
C5FE
330
C2DA
100
AcDbEntity
  8
1
  6
Continuous
100
AcDbLine
 10
718.1886500000001
 20
273.5798019999999
 30
0.0
 11
736.568307
 21
277.4017279999998
 31
0.0
  0
LINE
  5
C5FF
330
C2DA
100
AcDbEntity
  8
1
  6
Continuous
100
AcDbLine
 10
717.7420019999998
 20
276.4843259999997
 30
0.0
 11
735.9708519999997
 21
280.2748919999999
 31
0.0
  0
LINE
  5
C600
330
C2DA
100
AcDbEntity
  8
1
  6
Continuous
100
AcDbLine
 10
748.7420019999997
 20
280.4843259999996
 30
0.0
 11
738.0067339999997
 21
280.4843259999996
 31
0.0
  0
ARC
  5
C601
330
C2DA
100
AcDbEntity
  8
1
  6
Continuous
100
AcDbCircle
 10
747.1296069999997
 20
276.5497009999999
 30
0.0
 40
1.0
100
AcDbArc
 50
0.0
 51
90.0
  0
ARC
  5
C602
330
C2DA
100
AcDbEntity
  8
1
  6
Continuous
100
AcDbCircle
 10
748.7420019999997
 20
279.4843259999999
 30
0.0
 40
1.0
100
AcDbArc
 50
0.0
 51
90.0
  0
LINE
  5
C603
330
C2DA
100
AcDbEntity
  8
1
  6
Continuous
100
AcDbLine
 10
748.9511929999999
 20
278.4146129999999
 30
0.0
 11
749.121568
 21
279.8945279999999
 31
0.0
  0
LINE
  5
C604
330
C2DA
100
AcDbEntity
  8
1
  6
Continuous
100
AcDbLine
 10
748.9511929999999
 20
278.4146129999999
 30
0.0
 11
748.4445149999997
 21
278.4146129999999
 31
0.0
  0
LINE
  5
C605
330
C2DA
100
AcDbEntity
  8
1
  6
Continuous
100
AcDbLine
 10
748.4445149999997
 20
278.4146129999999
 30
0.0
 11
747.9206699999997
 21
277.5816869999998
 31
0.0
  0
ARC
  5
C606
330
C2DA
100
AcDbEntity
  8
1
  6
Continuous
100
AcDbCircle
 10
738.0067339999997
 20
270.4843259999999
 30
0.0
 40
10.0
100
AcDbArc
 50
90.0
 51
101.746866
  0
ARC
  5
C607
330
C2DA
100
AcDbEntity
  8
1
  6
Continuous
100
AcDbCircle
 10
738.0067339999997
 20
270.4843259999999
 30
0.0
 40
7.065374
100
AcDbArc
 50
90.0
 51
101.746866
  0
LINE
  5
C608
330
C2DA
100
AcDbEntity
  8
1
  6
Continuous
100
AcDbLine
 10
747.1296069999997
 20
277.5497009999999
 30
0.0
 11
738.0067339999997
 21
277.5497009999999
 31
0.0
  0
LINE
  5
C609
330
C2DA
100
AcDbEntity
  8
1
  6
Continuous
100
AcDbLine
 10
690.7920019999997
 20
273.2343259999999
 30
0.0
 11
705.2420019999998
 21
273.2343259999999
 31
0.0
  0
ARC
  5
C60A
330
C2DA
100
AcDbEntity
  8
1
  6
Continuous
100
AcDbCircle
 10
707.7420019999998
 20
284.4843259999997
 30
0.0
 40
2.0
100
AcDbArc
 50
0.0
 51
90.0
  0
LINE
  5
C60B
330
C2DA
100
AcDbEntity
  8
1
  6
Continuous
100
AcDbLine
 10
709.2239049999998
 20
285.827443
 30
0.0
 11
717.5624769999998
 21
276.6272339999998
 31
0.0
  0
LINE
  5
C60C
330
C2DA
100
AcDbEntity
  8
1
  6
Continuous
100
AcDbLine
 10
717.6920019999997
 20
274.8343259999999
 30
0.0
 11
717.7420019999998
 21
274.8343259999999
 31
0.0
  0
ARC
  5
C60D
330
C2DA
100
AcDbEntity
  8
1
  6
Continuous
100
AcDbCircle
 10
717.1920019999999
 20
276.291455
 30
0.0
 40
0.5
100
AcDbArc
 50
0.0
 51
42.18746399999999
  0
LINE
  5
C60E
330
C2DA
100
AcDbEntity
  8
1
  6
Continuous
100
AcDbLine
 10
703.7420019999998
 20
282.9843259999999
 30
0.0
 11
705.2420019999998
 21
282.9843259999999
 31
0.0
  0
LINE
  5
C60F
330
C2DA
100
AcDbEntity
  8
1
  6
Continuous
100
AcDbLine
 10
703.7420019999998
 20
278.4843259999997
 30
0.0
 11
705.2420019999998
 21
278.4843259999997
 31
0.0
  0
LINE
  5
C610
330
C2DA
100
AcDbEntity
  8
1
  6
Continuous
100
AcDbLine
 10
703.7420019999998
 20
282.9843259999999
 30
0.0
 11
703.7420019999998
 21
278.4843259999997
 31
0.0
  0
LINE
  5
C611
330
C2DA
100
AcDbEntity
  8
1
  6
Continuous
100
AcDbLine
 10
707.7420019999998
 20
286.4843259999997
 30
0.0
 11
705.2420019999998
 21
286.4843259999997
 31
0.0
  0
LINE
  5
C612
330
C2DA
100
AcDbEntity
  8
1
  6
Continuous
100
AcDbLine
 10
685.7420019999998
 20
268.946206
 30
0.0
 11
690.4420019999996
 21
268.946206
 31
0.0
  0
ARC
  5
C613
330
C2DA
100
AcDbEntity
  8
1
  6
Continuous
100
AcDbCircle
 10
690.6420019999996
 20
270.2843259999997
 30
0.0
 40
0.2
100
AcDbArc
 50
119.9999999999999
 51
180.0
  0
LINE
  5
C614
330
C2DA
100
AcDbEntity
  8
1
  6
Continuous
100
AcDbLine
 10
690.5420019999996
 20
272.9843259999999
 30
0.0
 11
690.7920019999997
 21
273.2343259999999
 31
0.0
  0
ARC
  5
C615
330
C2DA
100
AcDbEntity
  8
1
  6
Continuous
100
AcDbCircle
 10
685.7420019999998
 20
268.646206
 30
0.0
 40
0.3
100
AcDbArc
 50
90.0
 51
180.0
  0
LINE
  5
C616
330
C2DA
100
AcDbEntity
  8
1
  6
Continuous
100
AcDbLine
 10
613.6732879999998
 20
272.4843259999999
 30
0.0
 11
613.6732879999998
 21
254.4843259999999
 31
0.0
  0
LINE
  5
C617
330
C2DA
100
AcDbEntity
  8
1
  6
Continuous
100
AcDbLine
 10
616.873288
 20
272.4843259999999
 30
0.0
 11
616.873288
 21
254.4843259999999
 31
0.0
  0
LINE
  5
C618
330
C2DA
100
AcDbEntity
  8
1
  6
Continuous
100
AcDbLine
 10
608.234691
 20
272.4843259999999
 30
0.0
 11
608.234691
 21
254.4843259999999
 31
0.0
  0
LINE
  5
C619
330
C2DA
100
AcDbEntity
  8
1
  6
Continuous
100
AcDbLine
 10
609.834691
 20
272.4843259999999
 30
0.0
 11
609.834691
 21
254.4843259999999
 31
0.0
  0
LINE
  5
C61A
330
C2DA
100
AcDbEntity
  8
1
  6
Continuous
100
AcDbLine
 10
589.645214
 20
271.4843259999997
 30
0.0
 11
589.645214
 21
255.4843259999999
 31
0.0
  0
LINE
  5
C61B
330
C2DA
100
AcDbEntity
  8
1
  6
Continuous
100
AcDbLine
 10
590.8452140000001
 20
271.4843259999997
 30
0.0
 11
590.8452140000001
 21
255.4843259999999
 31
0.0
  0
LINE
  5
C61C
330
C2DA
100
AcDbEntity
  8
1
  6
Continuous
100
AcDbLine
 10
588.3452140000001
 20
258.8843259999998
 30
0.0
 11
588.3452140000001
 21
268.0843259999999
 31
0.0
  0
LINE
  5
C61D
330
C2DA
100
AcDbEntity
  8
1
  6
Continuous
100
AcDbLine
 10
588.3452140000001
 20
262.1843259999999
 30
0.0
 11
589.645214
 21
263.4843259999997
 31
0.0
  0
LINE
  5
C61E
330
C2DA
100
AcDbEntity
  8
1
  6
Continuous
100
AcDbLine
 10
584.8452140000001
 20
267.484826
 30
0.0
 11
584.8452140000001
 21
259.484826
 31
0.0
  0
ARC
  5
C61F
330
C2DA
100
AcDbEntity
  8
1
  6
Continuous
100
AcDbCircle
 10
580.7041690000001
 20
263.4843259999997
 30
0.0
 40
7.641045
100
AcDbArc
 50
342.4072529999999
 51
17.59274699999998
  0
ARC
  5
C620
330
C2DA
100
AcDbEntity
  8
1
  6
Continuous
100
AcDbCircle
 10
592.486259
 20
263.4843259999997
 30
0.0
 40
7.641045
100
AcDbArc
 50
162.407253
 51
197.592747
  0
LINE
  5
C621
330
C2DA
100
AcDbEntity
  8
4
  6
CENTER
100
AcDbLine
 10
605.2346909999998
 20
263.4843259999997
 30
0.0
 11
619.873288
 21
263.4843259999997
 31
0.0
  0
LINE
  5
C622
330
C2DA
100
AcDbEntity
  8
1
  6
Continuous
100
AcDbLine
 10
613.6732879999998
 20
254.4843259999999
 30
0.0
 11
616.873288
 21
254.4843259999999
 31
0.0
  0
LINE
  5
C623
330
C2DA
100
AcDbEntity
  8
1
  6
Continuous
100
AcDbLine
 10
608.234691
 20
254.4843259999999
 30
0.0
 11
609.834691
 21
254.4843259999999
 31
0.0
  0
LINE
  5
C624
330
C2DA
100
AcDbEntity
  8
4
  6
CENTER
100
AcDbLine
 10
581.8452140000001
 20
263.4843259999997
 30
0.0
 11
593.8452140000001
 21
263.4843259999997
 31
0.0
  0
LINE
  5
C625
330
C2DA
100
AcDbEntity
  8
1
  6
Continuous
100
AcDbLine
 10
589.645214
 20
255.4843259999999
 30
0.0
 11
590.8452140000001
 21
255.4843259999999
 31
0.0
  0
LINE
  5
C626
330
C2DA
100
AcDbEntity
  8
1
  6
Continuous
100
AcDbLine
 10
588.3452140000001
 20
258.8843259999998
 30
0.0
 11
589.645214
 21
258.8843259999998
 31
0.0
  0
LINE
  5
C627
330
C2DA
100
AcDbEntity
  8
1
  6
Continuous
100
AcDbLine
 10
588.3452140000001
 20
263.4843259999997
 30
0.0
 11
589.645214
 21
264.7843259999999
 31
0.0
  0
ARC
  5
C628
330
C2DA
100
AcDbEntity
  8
1
  6
Continuous
100
AcDbCircle
 10
586.3001269999997
 20
260.020826
 30
0.0
 40
2.045087
100
AcDbArc
 50
334.3862009999999
 51
34.386201
  0
LINE
  5
C629
330
C2DA
100
AcDbEntity
  8
1
  6
Continuous
100
AcDbLine
 10
587.987834
 20
261.174826
 30
0.0
 11
585.2025939999997
 21
261.174826
 31
0.0
  0
LINE
  5
C62A
330
C2DA
100
AcDbEntity
  8
1
  6
Continuous
100
AcDbLine
 10
587.987834
 20
258.8658259999998
 30
0.0
 11
585.2025939999997
 21
258.8658259999998
 31
0.0
  0
LINE
  5
C62B
330
C2DA
100
AcDbEntity
  8
1
  6
Continuous
100
AcDbLine
 10
588.3452140000001
 20
259.484826
 30
0.0
 11
587.987834
 21
258.8658259999998
 31
0.0
  0
LINE
  5
C62C
330
C2DA
100
AcDbEntity
  8
1
  6
Continuous
100
AcDbLine
 10
584.8452140000001
 20
259.484826
 30
0.0
 11
585.2025939999997
 21
258.8658259999998
 31
0.0
  0
ARC
  5
C62D
330
C2DA
100
AcDbEntity
  8
1
  6
Continuous
100
AcDbCircle
 10
586.890301
 20
260.020826
 30
0.0
 40
2.045087
100
AcDbArc
 50
145.613799
 51
205.613799
  0
LINE
  5
C62E
330
C2DA
100
AcDbEntity
  8
1
  6
Continuous
100
AcDbLine
 10
613.6732879999998
 20
272.4843259999999
 30
0.0
 11
616.873288
 21
272.4843259999999
 31
0.0
  0
LINE
  5
C62F
330
C2DA
100
AcDbEntity
  8
1
  6
Continuous
100
AcDbLine
 10
608.234691
 20
272.4843259999999
 30
0.0
 11
609.834691
 21
272.4843259999999
 31
0.0
  0
LINE
  5
C630
330
C2DA
100
AcDbEntity
  8
1
  6
Continuous
100
AcDbLine
 10
589.645214
 20
271.4843259999997
 30
0.0
 11
590.8452140000001
 21
271.4843259999997
 31
0.0
  0
LINE
  5
C631
330
C2DA
100
AcDbEntity
  8
1
  6
Continuous
100
AcDbLine
 10
588.3452140000001
 20
268.0843259999999
 30
0.0
 11
589.645214
 21
268.0843259999999
 31
0.0
  0
LINE
  5
C632
330
C2DA
100
AcDbEntity
  8
1
  6
Continuous
100
AcDbLine
 10
588.3452140000001
 20
267.484826
 30
0.0
 11
587.987834
 21
268.1038259999999
 31
0.0
  0
ARC
  5
C633
330
C2DA
100
AcDbEntity
  8
1
  6
Continuous
100
AcDbCircle
 10
586.3001269999997
 20
266.948826
 30
0.0
 40
2.045087
100
AcDbArc
 50
325.6137989999999
 51
25.61379899999999
  0
LINE
  5
C634
330
C2DA
100
AcDbEntity
  8
1
  6
Continuous
100
AcDbLine
 10
587.987834
 20
268.1038259999999
 30
0.0
 11
585.2025939999997
 21
268.1038259999999
 31
0.0
  0
LINE
  5
C635
330
C2DA
100
AcDbEntity
  8
1
  6
Continuous
100
AcDbLine
 10
587.987834
 20
265.7938259999998
 30
0.0
 11
585.2025939999997
 21
265.7938259999998
 31
0.0
  0
LINE
  5
C636
330
C2DA
100
AcDbEntity
  8
1
  6
Continuous
100
AcDbLine
 10
584.8452140000001
 20
267.484826
 30
0.0
 11
585.2025939999997
 21
268.1038259999999
 31
0.0
  0
ARC
  5
C637
330
C2DA
100
AcDbEntity
  8
1
  6
Continuous
100
AcDbCircle
 10
586.890301
 20
266.948826
 30
0.0
 40
2.045087
100
AcDbArc
 50
154.3862009999998
 51
214.3862009999998
  0
ARC
  5
C638
330
C2DA
100
AcDbEntity
  8
1
  6
Continuous
100
AcDbCircle
 10
41.33829399999997
 20
246.9843259999999
 30
0.0
 40
0.5
100
AcDbArc
 50
180.0
 51
270.0
  0
ARC
  5
C639
330
C2DA
100
AcDbEntity
  8
1
  6
Continuous
100
AcDbCircle
 10
59.838294
 20
246.9843259999999
 30
0.0
 40
0.5
100
AcDbArc
 50
270.0
 51
0.0
  0
LINE
  5
C63A
330
C2DA
100
AcDbEntity
  8
1
  6
Continuous
100
AcDbLine
 10
271.4036700000085
 20
82.29185308741827
 30
0.0
 11
270.7036700000592
 21
81.74630283468982
 31
0.0
  0
LINE
  5
C63B
330
C2DA
100
AcDbEntity
  8
1
  6
Continuous
100
AcDbLine
 10
270.7036700000608
 20
87.05357299999944
 30
0.0
 11
270.7036700000583
 21
58.05357299999892
 31
0.0
  0
LINE
  5
C63C
330
C2DA
100
AcDbEntity
  8
1
  6
Continuous
100
AcDbLine
 10
269.3036699999928
 20
87.05357300000157
 30
0.0
 11
269.3036699999839
 21
58.05357300000114
 31
0.0
  0
LINE
  5
C63D
330
C2DA
100
AcDbEntity
  8
1
  6
Continuous
100
AcDbLine
 10
271.4036699999999
 20
86.553573
 30
0.0
 11
271.4036699999999
 21
58.55357300000002
 31
0.0
  0
LINE
  5
C63E
330
C2DA
100
AcDbEntity
  8
1
  6
Continuous
100
AcDbLine
 10
268.6036699999746
 20
60.70195325652517
 30
0.0
 11
268.9464934577615
 21
60.81638792285443
 31
0.0
  0
ARC
  5
C63F
330
C2DA
100
AcDbEntity
  8
1
  6
Continuous
100
AcDbCircle
 10
263.943728583846
 20
58.05357300000943
 30
0.0
 40
5.359941416177306
100
AcDbArc
 50
359.9999999999102
 51
29.6108290548139
  0
LINE
  5
C640
330
C2DA
100
AcDbEntity
  8
1
  6
Continuous
100
AcDbLine
 10
270.7036700000583
 20
58.05357299999892
 30
0.0
 11
269.3036699999839
 21
58.05357300000114
 31
0.0
  0
ARC
  5
C641
330
C2DA
100
AcDbEntity
  8
1
  6
Continuous
100
AcDbCircle
 10
246.1591150277854
 20
67.95552012590187
 30
0.0
 40
23.14455497217013
100
AcDbArc
 50
0.0
 51
14.12742288753736
  0
ARC
  5
C642
330
C2DA
100
AcDbEntity
  8
1
  6
Continuous
100
AcDbCircle
 10
271.735253114636
 20
70.52568563995338
 30
0.0
 40
1.031583114680584
100
AcDbArc
 50
108.7495067078217
 51
180.0
  0
ARC
  5
C643
330
C2DA
100
AcDbEntity
  8
1
  6
Continuous
100
AcDbCircle
 10
256.4901710117303
 20
63.3608196606627
 30
0.0
 40
12.81349898822509
100
AcDbArc
 50
0.0
 51
19.02611019247348
  0
ARC
  5
C644
330
C2DA
100
AcDbEntity
  8
1
  6
Continuous
100
AcDbCircle
 10
266.9774656825026
 20
61.15195709420593
 30
0.0
 40
2.32620431752562
100
AcDbArc
 50
353.1575250995761
 51
45.64671286910765
  0
LINE
  5
C645
330
C2DA
100
AcDbEntity
  8
1
  6
Continuous
100
AcDbLine
 10
268.6036700000087
 20
62.81529319353476
 30
0.0
 11
269.3036699999855
 21
63.36081966068596
 31
0.0
  0
LINE
  5
C646
330
C2DA
100
AcDbEntity
  8
1
  6
Continuous
100
AcDbLine
 10
268.9464934577616
 20
60.81638792285449
 30
0.0
 11
269.3036699999847
 21
60.8776550211942
 31
0.0
  0
LINE
  5
C647
330
C2DA
100
AcDbEntity
  8
1
  6
Continuous
100
AcDbLine
 10
268.6036700000058
 20
67.53800754036089
 30
0.0
 11
269.3036699999868
 21
67.9555201259208
 31
0.0
  0
ARC
  5
C648
330
C2DA
100
AcDbEntity
  8
1
  6
Continuous
100
AcDbCircle
 10
272.7210516217013
 20
64.63967442288581
 30
0.0
 40
2.017381621745911
100
AcDbArc
 50
130.7693511336351
 51
180.0
  0
LINE
  5
C649
330
C2DA
100
AcDbEntity
  8
1
  6
Continuous
100
AcDbLine
 10
271.4036700000085
 20
62.54365865707322
 30
0.0
 11
270.7036700000586
 21
62.85214222092472
 31
0.0
  0
LINE
  5
C64A
330
C2DA
100
AcDbEntity
  8
1
  6
Continuous
100
AcDbLine
 10
271.4036700000085
 20
62.54365865707322
 30
0.0
 11
270.7036700000585
 21
61.99810840434427
 31
0.0
  0
LINE
  5
C64B
330
C2DA
100
AcDbEntity
  8
1
  6
Continuous
100
AcDbLine
 10
271.4036700000048
 20
66.16752725302828
 30
0.0
 11
270.7036700000591
 21
66.95289465313833
 31
0.0
  0
ARC
  5
C64C
330
C2DA
100
AcDbEntity
  8
1
  6
Continuous
100
AcDbCircle
 10
268.2720868853929
 20
74.5814603600439
 30
0.0
 40
1.031583114680584
100
AcDbArc
 50
288.7495067079116
 51
0.0000000000898481
  0
ARC
  5
C64D
330
C2DA
100
AcDbEntity
  8
1
  6
Continuous
100
AcDbCircle
 10
267.2862883783186
 20
80.46747157710994
 30
0.0
 40
2.017381621745911
100
AcDbArc
 50
310.769351133725
 51
0.0000000000898481
  0
LINE
  5
C64E
330
C2DA
100
AcDbEntity
  8
1
  6
Continuous
100
AcDbLine
 10
268.6036700000058
 20
78.93962943360029
 30
0.0
 11
269.3036699999876
 21
78.15425985131875
 31
0.0
  0
ARC
  5
C64F
330
C2DA
100
AcDbEntity
  8
1
  6
Continuous
100
AcDbCircle
 10
293.8482249722235
 20
77.15162587406081
 30
0.0
 40
23.14455497217013
100
AcDbArc
 50
179.9999999999102
 51
194.1274228874474
  0
ARC
  5
C650
330
C2DA
100
AcDbEntity
  8
1
  6
Continuous
100
AcDbCircle
 10
283.5169649534074
 20
81.74630283460912
 30
0.0
 40
12.8132949534517
100
AcDbArc
 50
180.0
 51
199.0262630835801
  0
LINE
  5
C651
330
C2DA
100
AcDbEntity
  8
1
  6
Continuous
100
AcDbLine
 10
271.4036700000048
 20
77.56914914626765
 30
0.0
 11
270.7036700000592
 21
77.15162120631058
 31
0.0
  0
LINE
  5
C652
330
C2DA
100
AcDbEntity
  8
1
  6
Continuous
100
AcDbLine
 10
268.6036700000087
 20
82.56348762387981
 30
0.0
 11
269.303669999986
 21
82.25500024986549
 31
0.0
  0
LINE
  5
C653
330
C2DA
100
AcDbEntity
  8
1
  6
Continuous
100
AcDbLine
 10
268.6036700000087
 20
82.56348762387981
 30
0.0
 11
269.3036699999871
 21
83.1090140910325
 31
0.0
  0
LINE
  5
C654
330
C2DA
100
AcDbEntity
  8
1
  6
Continuous
100
AcDbLine
 10
271.0608465422523
 20
84.29075807714466
 30
0.0
 11
270.7036700000591
 21
84.22949097881021
 31
0.0
  0
LINE
  5
C655
330
C2DA
100
AcDbEntity
  8
1
  6
Continuous
100
AcDbLine
 10
269.3036699999928
 20
87.05357300000157
 30
0.0
 11
270.703669999993
 21
87.0535729999983
 31
0.0
  0
LINE
  5
C656
330
C2DA
100
AcDbEntity
  8
1
  6
Continuous
100
AcDbLine
 10
270.7036700000608
 20
87.05357299999944
 30
0.0
 11
269.3036700000607
 21
87.05357300000056
 31
0.0
  0
ARC
  5
C657
330
C2DA
100
AcDbEntity
  8
1
  6
Continuous
100
AcDbCircle
 10
273.0298743174813
 20
83.95518890579882
 30
0.0
 40
2.32620431752562
100
AcDbArc
 50
173.1575250998436
 51
225.6467128691971
  0
LINE
  5
C658
330
C2DA
100
AcDbEntity
  8
1
  6
Continuous
100
AcDbLine
 10
271.4036700000395
 20
84.40519274347371
 30
0.0
 11
271.0608465422524
 21
84.29075807714466
 31
0.0
  0
ARC
  5
C659
330
C2DA
100
AcDbEntity
  8
1
  6
Continuous
100
AcDbCircle
 10
276.0636114161703
 20
87.05357299998579
 30
0.0
 40
5.359941416177306
100
AcDbArc
 50
179.9999999998651
 51
209.6108290547688
  0
LINE
  5
C65A
330
C2DA
100
AcDbEntity
  8
1
  6
Continuous
100
AcDbLine
 10
461.1627524226086
 20
258.1103144629822
 30
0.0
 11
456.0008729199469
 21
263.2721939656438
 31
0.0
  0
LINE
  5
C65B
330
C2DA
100
AcDbEntity
  8
1
  6
Continuous
100
AcDbLine
 10
456.0008729199469
 20
263.6964580343558
 30
0.0
 11
461.1627524226086
 21
268.8583375370177
 31
0.0
  0
ARC
  5
C65C
330
C2DA
100
AcDbEntity
  8
1
  6
Continuous
100
AcDbCircle
 10
456.2130049543029
 20
263.4843259999997
 30
0.0
 40
0.3
100
AcDbArc
 50
135.0000000000006
 51
224.9999999999996
  0
CIRCLE
  5
C65D
330
C2DA
100
AcDbEntity
  8
2
  6
Continuous
100
AcDbCircle
 10
461.3748844569647
 20
263.4843259999997
 30
0.0
 40
2.5
  0
CIRCLE
  5
C65E
330
C2DA
100
AcDbEntity
  8
1
  6
Continuous
100
AcDbCircle
 10
461.3748844569647
 20
263.4843259999997
 30
0.0
 40
2.066999999999996
  0
LINE
  5
C65F
330
C2DA
100
AcDbEntity
  8
1
  6
Continuous
100
AcDbLine
 10
466.7488959939824
 20
263.2721939656438
 30
0.0
 11
461.5870164913205
 21
258.1103144629822
 31
0.0
  0
ARC
  5
C660
330
C2DA
100
AcDbEntity
  8
1
  6
Continuous
100
AcDbCircle
 10
461.3748844569647
 20
258.3224464973381
 30
0.0
 40
0.3
100
AcDbArc
 50
225.0000000000003
 51
314.9999999999997
  0
LINE
  5
C661
330
C2DA
100
AcDbEntity
  8
1
  6
Continuous
100
AcDbLine
 10
461.5870164913205
 20
268.8583375370177
 30
0.0
 11
466.7488959939824
 21
263.6964580343558
 31
0.0
  0
ARC
  5
C662
330
C2DA
100
AcDbEntity
  8
1
  6
Continuous
100
AcDbCircle
 10
461.3748844569647
 20
268.6462055026618
 30
0.0
 40
0.3
100
AcDbArc
 50
44.99999999999967
 51
135.0000000000003
  0
ARC
  5
C663
330
C2DA
100
AcDbEntity
  8
1
  6
Continuous
100
AcDbCircle
 10
466.5367639596262
 20
263.4843259999997
 30
0.0
 40
0.3
100
AcDbArc
 50
314.9999999999997
 51
44.99999999999936
  0
LINE
  5
C664
330
C2DA
100
AcDbEntity
  8
4
  6
CENTER
100
AcDbLine
 10
473.374884
 20
323.4843259999997
 30
0.0
 11
449.374884
 21
323.4843259999997
 31
0.0
  0
LINE
  5
C665
330
C2DA
100
AcDbEntity
  8
4
  6
CENTER
100
AcDbLine
 10
461.374884
 20
335.4843259999999
 30
0.0
 11
461.374884
 21
311.4843259999997
 31
0.0
  0
ARC
  5
C666
330
C2DA
100
AcDbEntity
  8
1
  6
Continuous
100
AcDbCircle
 10
293.8482249722235
 20
268.0823788740608
 30
0.0
 40
23.14455497217013
100
AcDbArc
 50
179.9999999999102
 51
194.1274228874474
  0
LINE
  5
C667
330
C2DA
100
AcDbEntity
  8
1
  6
Continuous
100
AcDbLine
 10
271.4036699999999
 20
277.4843259999999
 30
0.0
 11
271.4036699999999
 21
249.4843259999999
 31
0.0
  0
LINE
  5
C668
330
C2DA
100
AcDbEntity
  8
1
  6
Continuous
100
AcDbLine
 10
269.3036699999928
 20
277.9843260000013
 30
0.0
 11
269.3036699999839
 21
248.9843260000009
 31
0.0
  0
LINE
  5
C669
330
C2DA
100
AcDbEntity
  8
1
  6
Continuous
100
AcDbLine
 10
270.7036700000608
 20
277.9843259999994
 30
0.0
 11
270.7036700000583
 21
248.9843259999988
 31
0.0
  0
ARC
  5
C66A
330
C2DA
100
AcDbEntity
  8
1
  6
Continuous
100
AcDbCircle
 10
256.4901710117303
 20
254.2915726606624
 30
0.0
 40
12.81349898822509
100
AcDbArc
 50
0.0
 51
19.02611019247348
  0
LINE
  5
C66B
330
C2DA
100
AcDbEntity
  8
1
  6
Continuous
100
AcDbLine
 10
268.6036700000087
 20
253.7460461935347
 30
0.0
 11
269.3036699999855
 21
254.2915726606858
 31
0.0
  0
ARC
  5
C66C
330
C2DA
100
AcDbEntity
  8
1
  6
Continuous
100
AcDbCircle
 10
266.9774656825026
 20
252.0827100942057
 30
0.0
 40
2.32620431752562
100
AcDbArc
 50
353.1575250995761
 51
45.64671286910765
  0
ARC
  5
C66D
330
C2DA
100
AcDbEntity
  8
1
  6
Continuous
100
AcDbCircle
 10
263.943728583846
 20
248.9843260000093
 30
0.0
 40
5.359941416177306
100
AcDbArc
 50
359.9999999999102
 51
29.6108290548139
  0
LINE
  5
C66E
330
C2DA
100
AcDbEntity
  8
1
  6
Continuous
100
AcDbLine
 10
268.6036699999746
 20
251.632706256525
 30
0.0
 11
268.9464934577615
 21
251.7471409228543
 31
0.0
  0
LINE
  5
C66F
330
C2DA
100
AcDbEntity
  8
1
  6
Continuous
100
AcDbLine
 10
271.4036700000085
 20
253.4744116570731
 30
0.0
 11
270.7036700000585
 21
252.9288614043441
 31
0.0
  0
LINE
  5
C670
330
C2DA
100
AcDbEntity
  8
1
  6
Continuous
100
AcDbLine
 10
271.4036700000085
 20
253.4744116570731
 30
0.0
 11
270.7036700000586
 21
253.7828952209244
 31
0.0
  0
LINE
  5
C671
330
C2DA
100
AcDbEntity
  8
1
  6
Continuous
100
AcDbLine
 10
268.9464934577616
 20
251.7471409228544
 30
0.0
 11
269.3036699999847
 21
251.8084080211941
 31
0.0
  0
LINE
  5
C672
330
C2DA
100
AcDbEntity
  8
1
  6
Continuous
100
AcDbLine
 10
270.7036700000583
 20
248.9843259999988
 30
0.0
 11
269.3036699999839
 21
248.9843260000009
 31
0.0
  0
ARC
  5
C673
330
C2DA
100
AcDbEntity
  8
1
  6
Continuous
100
AcDbCircle
 10
268.2720868853929
 20
265.5122133600439
 30
0.0
 40
1.031583114680584
100
AcDbArc
 50
288.7495067079116
 51
0.0000000000898481
  0
LINE
  5
C674
330
C2DA
100
AcDbEntity
  8
1
  6
Continuous
100
AcDbLine
 10
268.6036700000058
 20
258.4687605403606
 30
0.0
 11
269.3036699999868
 21
258.8862731259207
 31
0.0
  0
ARC
  5
C675
330
C2DA
100
AcDbEntity
  8
1
  6
Continuous
100
AcDbCircle
 10
246.1591150277854
 20
258.8862731259018
 30
0.0
 40
23.14455497217013
100
AcDbArc
 50
0.0
 51
14.12742288753736
  0
LINE
  5
C676
330
C2DA
100
AcDbEntity
  8
1
  6
Continuous
100
AcDbLine
 10
271.4036700000048
 20
257.0982802530281
 30
0.0
 11
270.7036700000591
 21
257.8836476531382
 31
0.0
  0
ARC
  5
C677
330
C2DA
100
AcDbEntity
  8
1
  6
Continuous
100
AcDbCircle
 10
272.7210516217013
 20
255.5704274228856
 30
0.0
 40
2.017381621745911
100
AcDbArc
 50
130.7693511336351
 51
180.0
  0
ARC
  5
C678
330
C2DA
100
AcDbEntity
  8
1
  6
Continuous
100
AcDbCircle
 10
271.735253114636
 20
261.4564386399532
 30
0.0
 40
1.031583114680584
100
AcDbArc
 50
108.7495067078217
 51
180.0
  0
ARC
  5
C679
330
C2DA
100
AcDbEntity
  8
1
  6
Continuous
100
AcDbCircle
 10
276.0636114161703
 20
277.9843259999855
 30
0.0
 40
5.359941416177306
100
AcDbArc
 50
179.9999999998651
 51
209.6108290547688
  0
LINE
  5
C67A
330
C2DA
100
AcDbEntity
  8
1
  6
Continuous
100
AcDbLine
 10
268.6036700000087
 20
273.4942406238797
 30
0.0
 11
269.3036699999871
 21
274.0397670910322
 31
0.0
  0
LINE
  5
C67B
330
C2DA
100
AcDbEntity
  8
1
  6
Continuous
100
AcDbLine
 10
268.6036700000087
 20
273.4942406238797
 30
0.0
 11
269.303669999986
 21
273.1857532498654
 31
0.0
  0
LINE
  5
C67C
330
C2DA
100
AcDbEntity
  8
1
  6
Continuous
100
AcDbLine
 10
268.6036700000058
 20
269.8703824336001
 30
0.0
 11
269.3036699999876
 21
269.0850128513186
 31
0.0
  0
ARC
  5
C67D
330
C2DA
100
AcDbEntity
  8
1
  6
Continuous
100
AcDbCircle
 10
267.2862883783186
 20
271.3982245771096
 30
0.0
 40
2.017381621745911
100
AcDbArc
 50
310.769351133725
 51
0.0000000000898481
  0
LINE
  5
C67E
330
C2DA
100
AcDbEntity
  8
1
  6
Continuous
100
AcDbLine
 10
271.4036700000395
 20
275.3359457434734
 30
0.0
 11
271.0608465422524
 21
275.2215110771446
 31
0.0
  0
ARC
  5
C67F
330
C2DA
100
AcDbEntity
  8
1
  6
Continuous
100
AcDbCircle
 10
273.0298743174813
 20
274.8859419057988
 30
0.0
 40
2.32620431752562
100
AcDbArc
 50
173.1575250998436
 51
225.6467128691971
  0
LINE
  5
C680
330
C2DA
100
AcDbEntity
  8
1
  6
Continuous
100
AcDbLine
 10
271.0608465422523
 20
275.2215110771446
 30
0.0
 11
270.7036700000591
 21
275.16024397881
 31
0.0
  0
LINE
  5
C681
330
C2DA
100
AcDbEntity
  8
1
  6
Continuous
100
AcDbLine
 10
271.4036700000048
 20
268.4999021462675
 30
0.0
 11
270.7036700000592
 21
268.0823742063104
 31
0.0
  0
ARC
  5
C682
330
C2DA
100
AcDbEntity
  8
1
  6
Continuous
100
AcDbCircle
 10
283.5169649534074
 20
272.6770558346089
 30
0.0
 40
12.8132949534517
100
AcDbArc
 50
180.0
 51
199.0262630835801
  0
LINE
  5
C683
330
C2DA
100
AcDbEntity
  8
1
  6
Continuous
100
AcDbLine
 10
271.4036700000085
 20
273.2226060874182
 30
0.0
 11
270.7036700000592
 21
272.6770558346895
 31
0.0
  0
LINE
  5
C684
330
C2DA
100
AcDbEntity
  8
1
  6
Continuous
100
AcDbLine
 10
270.7036700000608
 20
277.9843259999994
 30
0.0
 11
269.3036700000607
 21
277.9843260000004
 31
0.0
  0
LINE
  5
C685
330
C2DA
100
AcDbEntity
  8
1
  6
Continuous
100
AcDbLine
 10
269.3036699999928
 20
277.9843260000013
 30
0.0
 11
270.703669999993
 21
277.9843259999982
 31
0.0
  0
ARC
  5
C686
330
C2DA
100
AcDbEntity
  8
1
  6
Continuous
100
AcDbCircle
 10
293.8482249722235
 20
384.0990148740607
 30
0.0
 40
23.14455497217013
100
AcDbArc
 50
179.9999999999102
 51
194.1274228874474
  0
LINE
  5
C687
330
C2DA
100
AcDbEntity
  8
1
  6
Continuous
100
AcDbLine
 10
271.4036699999999
 20
393.500962
 30
0.0
 11
271.4036699999999
 21
365.500962
 31
0.0
  0
LINE
  5
C688
330
C2DA
100
AcDbEntity
  8
1
  6
Continuous
100
AcDbLine
 10
269.3036699999928
 20
394.0009620000015
 30
0.0
 11
269.3036699999839
 21
365.0009620000012
 31
0.0
  0
LINE
  5
C689
330
C2DA
100
AcDbEntity
  8
1
  6
Continuous
100
AcDbLine
 10
270.7036700000608
 20
394.0009619999992
 30
0.0
 11
270.7036700000583
 21
365.0009619999987
 31
0.0
  0
ARC
  5
C68A
330
C2DA
100
AcDbEntity
  8
1
  6
Continuous
100
AcDbCircle
 10
256.4901710117303
 20
370.3082086606626
 30
0.0
 40
12.81349898822509
100
AcDbArc
 50
0.0
 51
19.02611019247348
  0
LINE
  5
C68B
330
C2DA
100
AcDbEntity
  8
1
  6
Continuous
100
AcDbLine
 10
268.6036700000087
 20
369.7626821935347
 30
0.0
 11
269.3036699999855
 21
370.3082086606859
 31
0.0
  0
ARC
  5
C68C
330
C2DA
100
AcDbEntity
  8
1
  6
Continuous
100
AcDbCircle
 10
266.9774656825026
 20
368.0993460942057
 30
0.0
 40
2.32620431752562
100
AcDbArc
 50
353.1575250995761
 51
45.64671286910765
  0
ARC
  5
C68D
330
C2DA
100
AcDbEntity
  8
1
  6
Continuous
100
AcDbCircle
 10
263.943728583846
 20
365.0009620000094
 30
0.0
 40
5.359941416177306
100
AcDbArc
 50
359.9999999999102
 51
29.6108290548139
  0
LINE
  5
C68E
330
C2DA
100
AcDbEntity
  8
1
  6
Continuous
100
AcDbLine
 10
268.6036699999746
 20
367.6493422565249
 30
0.0
 11
268.9464934577615
 21
367.7637769228543
 31
0.0
  0
LINE
  5
C68F
330
C2DA
100
AcDbEntity
  8
1
  6
Continuous
100
AcDbLine
 10
271.4036700000085
 20
369.4910476570732
 30
0.0
 11
270.7036700000585
 21
368.9454974043441
 31
0.0
  0
LINE
  5
C690
330
C2DA
100
AcDbEntity
  8
1
  6
Continuous
100
AcDbLine
 10
271.4036700000085
 20
369.4910476570732
 30
0.0
 11
270.7036700000586
 21
369.7995312209247
 31
0.0
  0
LINE
  5
C691
330
C2DA
100
AcDbEntity
  8
1
  6
Continuous
100
AcDbLine
 10
268.9464934577616
 20
367.7637769228546
 30
0.0
 11
269.3036699999847
 21
367.825044021194
 31
0.0
  0
LINE
  5
C692
330
C2DA
100
AcDbEntity
  8
1
  6
Continuous
100
AcDbLine
 10
270.7036700000583
 20
365.0009619999987
 30
0.0
 11
269.3036699999839
 21
365.0009620000012
 31
0.0
  0
ARC
  5
C693
330
C2DA
100
AcDbEntity
  8
1
  6
Continuous
100
AcDbCircle
 10
268.2720868853929
 20
381.5288493600439
 30
0.0
 40
1.031583114680584
100
AcDbArc
 50
288.7495067079116
 51
0.0000000000898481
  0
LINE
  5
C694
330
C2DA
100
AcDbEntity
  8
1
  6
Continuous
100
AcDbLine
 10
268.6036700000058
 20
374.4853965403608
 30
0.0
 11
269.3036699999868
 21
374.9029091259208
 31
0.0
  0
ARC
  5
C695
330
C2DA
100
AcDbEntity
  8
1
  6
Continuous
100
AcDbCircle
 10
246.1591150277854
 20
374.9029091259017
 30
0.0
 40
23.14455497217013
100
AcDbArc
 50
0.0
 51
14.12742288753736
  0
LINE
  5
C696
330
C2DA
100
AcDbEntity
  8
1
  6
Continuous
100
AcDbLine
 10
271.4036700000048
 20
373.114916253028
 30
0.0
 11
270.7036700000591
 21
373.9002836531382
 31
0.0
  0
ARC
  5
C697
330
C2DA
100
AcDbEntity
  8
1
  6
Continuous
100
AcDbCircle
 10
272.7210516217013
 20
371.5870634228856
 30
0.0
 40
2.017381621745911
100
AcDbArc
 50
130.7693511336351
 51
180.0
  0
ARC
  5
C698
330
C2DA
100
AcDbEntity
  8
1
  6
Continuous
100
AcDbCircle
 10
271.735253114636
 20
377.4730746399534
 30
0.0
 40
1.031583114680584
100
AcDbArc
 50
108.7495067078217
 51
180.0
  0
ARC
  5
C699
330
C2DA
100
AcDbEntity
  8
1
  6
Continuous
100
AcDbCircle
 10
276.0636114161703
 20
394.0009619999856
 30
0.0
 40
5.359941416177306
100
AcDbArc
 50
179.9999999998651
 51
209.6108290547688
  0
LINE
  5
C69A
330
C2DA
100
AcDbEntity
  8
1
  6
Continuous
100
AcDbLine
 10
268.6036700000087
 20
389.5108766238797
 30
0.0
 11
269.3036699999871
 21
390.0564030910325
 31
0.0
  0
LINE
  5
C69B
330
C2DA
100
AcDbEntity
  8
1
  6
Continuous
100
AcDbLine
 10
268.6036700000087
 20
389.5108766238797
 30
0.0
 11
269.303669999986
 21
389.2023892498655
 31
0.0
  0
LINE
  5
C69C
330
C2DA
100
AcDbEntity
  8
1
  6
Continuous
100
AcDbLine
 10
268.6036700000058
 20
385.8870184336
 30
0.0
 11
269.3036699999876
 21
385.1016488513187
 31
0.0
  0
ARC
  5
C69D
330
C2DA
100
AcDbEntity
  8
1
  6
Continuous
100
AcDbCircle
 10
267.2862883783186
 20
387.4148605771097
 30
0.0
 40
2.017381621745911
100
AcDbArc
 50
310.769351133725
 51
0.0000000000898481
  0
LINE
  5
C69E
330
C2DA
100
AcDbEntity
  8
1
  6
Continuous
100
AcDbLine
 10
271.4036700000395
 20
391.3525817434735
 30
0.0
 11
271.0608465422524
 21
391.2381470771446
 31
0.0
  0
ARC
  5
C69F
330
C2DA
100
AcDbEntity
  8
1
  6
Continuous
100
AcDbCircle
 10
273.0298743174813
 20
390.9025779057988
 30
0.0
 40
2.32620431752562
100
AcDbArc
 50
173.1575250998436
 51
225.6467128691971
  0
LINE
  5
C6A0
330
C2DA
100
AcDbEntity
  8
1
  6
Continuous
100
AcDbLine
 10
271.0608465422523
 20
391.2381470771446
 30
0.0
 11
270.7036700000591
 21
391.17687997881
 31
0.0
  0
LINE
  5
C6A1
330
C2DA
100
AcDbEntity
  8
1
  6
Continuous
100
AcDbLine
 10
271.4036700000048
 20
384.5165381462677
 30
0.0
 11
270.7036700000592
 21
384.0990102063106
 31
0.0
  0
ARC
  5
C6A2
330
C2DA
100
AcDbEntity
  8
1
  6
Continuous
100
AcDbCircle
 10
283.5169649534074
 20
388.6936918346092
 30
0.0
 40
12.8132949534517
100
AcDbArc
 50
180.0
 51
199.0262630835801
  0
LINE
  5
C6A3
330
C2DA
100
AcDbEntity
  8
1
  6
Continuous
100
AcDbLine
 10
271.4036700000085
 20
389.2392420874183
 30
0.0
 11
270.7036700000592
 21
388.6936918346897
 31
0.0
  0
LINE
  5
C6A4
330
C2DA
100
AcDbEntity
  8
1
  6
Continuous
100
AcDbLine
 10
270.7036700000608
 20
394.0009619999992
 30
0.0
 11
269.3036700000607
 21
394.0009620000005
 31
0.0
  0
LINE
  5
C6A5
330
C2DA
100
AcDbEntity
  8
1
  6
Continuous
100
AcDbLine
 10
269.3036699999928
 20
394.0009620000015
 30
0.0
 11
270.703669999993
 21
394.0009619999983
 31
0.0
  0
LINE
  5
C6A6
330
C2DA
100
AcDbEntity
  8
1
  6
Continuous
100
AcDbLine
 10
651.3460979999912
 20
273.2226060874182
 30
0.0
 11
652.0460979999405
 21
272.6770558346895
 31
0.0
  0
LINE
  5
C6A7
330
C2DA
100
AcDbEntity
  8
1
  6
Continuous
100
AcDbLine
 10
652.046097999939
 20
277.9843259999994
 30
0.0
 11
652.0460979999413
 21
248.9843259999988
 31
0.0
  0
LINE
  5
C6A8
330
C2DA
100
AcDbEntity
  8
1
  6
Continuous
100
AcDbLine
 10
653.446098000007
 20
277.9843260000013
 30
0.0
 11
653.446098000016
 21
248.9843260000009
 31
0.0
  0
LINE
  5
C6A9
330
C2DA
100
AcDbEntity
  8
1
  6
Continuous
100
AcDbLine
 10
651.3460979999997
 20
277.4843259999999
 30
0.0
 11
651.3460979999997
 21
249.4843259999999
 31
0.0
  0
ARC
  5
C6AA
330
C2DA
100
AcDbEntity
  8
1
  6
Continuous
100
AcDbCircle
 10
638.864311
 20
276.4747069999998
 30
0.0
 40
10.98178699999998
100
AcDbArc
 50
336.777628
 51
13.24043099999999
  0
ARC
  5
C6AB
330
C2DA
100
AcDbEntity
  8
1
  6
Continuous
100
AcDbCircle
 10
656.8278849999999
 20
276.4747069999998
 30
0.0
 40
10.98178699999998
100
AcDbArc
 50
166.7595529999998
 51
203.222372
  0
LINE
  5
C6AC
330
C2DA
100
AcDbEntity
  8
1
  6
Continuous
100
AcDbLine
 10
644.3460980000001
 20
249.4843259999999
 30
0.0
 11
644.3460980000001
 21
277.4843259999999
 31
0.0
  0
LINE
  5
C6AD
330
C2DA
100
AcDbEntity
  8
1
  6
Continuous
100
AcDbLine
 10
649.8460979999999
 20
248.4843259999999
 30
0.0
 11
649.8460979999999
 21
278.4843259999997
 31
0.0
  0
LINE
  5
C6AE
330
C2DA
100
AcDbEntity
  8
1
  6
Continuous
100
AcDbLine
 10
645.8460979999999
 20
248.484324
 30
0.0
 11
645.8460979999999
 21
278.484328
 31
0.0
  0
LINE
  5
C6AF
330
C2DA
100
AcDbEntity
  8
1
  6
Continuous
100
AcDbLine
 10
651.3460979999997
 20
249.4843259999999
 30
0.0
 11
649.8460979999999
 21
249.4843259999999
 31
0.0
  0
LINE
  5
C6B0
330
C2DA
100
AcDbEntity
  8
4
  6
CENTER
100
AcDbLine
 10
655.8460979999997
 20
263.4843259999997
 30
0.0
 11
641.3460979999999
 21
263.4843259999997
 31
0.0
  0
LINE
  5
C6B1
330
C2DA
100
AcDbEntity
  8
1
  6
Continuous
100
AcDbLine
 10
654.1460980000254
 20
251.632706256525
 30
0.0
 11
653.8032745422383
 21
251.7471409228543
 31
0.0
  0
ARC
  5
C6B2
330
C2DA
100
AcDbEntity
  8
1
  6
Continuous
100
AcDbCircle
 10
658.8060394161539
 20
248.9843260000093
 30
0.0
 40
5.359941416177306
100
AcDbArc
 50
150.389170945186
 51
180.0000000000897
  0
LINE
  5
C6B3
330
C2DA
100
AcDbEntity
  8
1
  6
Continuous
100
AcDbLine
 10
652.0460979999413
 20
248.9843259999988
 30
0.0
 11
653.446098000016
 21
248.9843260000009
 31
0.0
  0
ARC
  5
C6B4
330
C2DA
100
AcDbEntity
  8
1
  6
Continuous
100
AcDbCircle
 10
651.0145148853637
 20
261.4564386399532
 30
0.0
 40
1.031583114680584
100
AcDbArc
 50
0.000000000000007
 51
71.25049329217809
  0
ARC
  5
C6B5
330
C2DA
100
AcDbEntity
  8
1
  6
Continuous
100
AcDbCircle
 10
676.5906529722142
 20
258.8862731259018
 30
0.0
 40
23.14455497217013
100
AcDbArc
 50
165.8725771124626
 51
180.0
  0
ARC
  5
C6B6
330
C2DA
100
AcDbEntity
  8
1
  6
Continuous
100
AcDbCircle
 10
650.0287163782981
 20
255.5704274228856
 30
0.0
 40
2.017381621745911
100
AcDbArc
 50
0.000000000000007
 51
49.23064886636481
  0
LINE
  5
C6B7
330
C2DA
100
AcDbEntity
  8
1
  6
Continuous
100
AcDbLine
 10
651.3460979999953
 20
257.0982802530281
 30
0.0
 11
652.0460979999409
 21
257.8836476531382
 31
0.0
  0
LINE
  5
C6B8
330
C2DA
100
AcDbEntity
  8
1
  6
Continuous
100
AcDbLine
 10
654.1460979999941
 20
258.4687605403606
 30
0.0
 11
653.446098000013
 21
258.8862731259207
 31
0.0
  0
LINE
  5
C6B9
330
C2DA
100
AcDbEntity
  8
1
  6
Continuous
100
AcDbLine
 10
653.8032745422382
 20
251.7471409228544
 30
0.0
 11
653.4460980000152
 21
251.8084080211941
 31
0.0
  0
LINE
  5
C6BA
330
C2DA
100
AcDbEntity
  8
1
  6
Continuous
100
AcDbLine
 10
651.3460979999912
 20
253.4744116570731
 30
0.0
 11
652.0460979999413
 21
253.7828952209244
 31
0.0
  0
LINE
  5
C6BB
330
C2DA
100
AcDbEntity
  8
1
  6
Continuous
100
AcDbLine
 10
651.3460979999912
 20
253.4744116570731
 30
0.0
 11
652.0460979999413
 21
252.9288614043441
 31
0.0
  0
ARC
  5
C6BC
330
C2DA
100
AcDbEntity
  8
1
  6
Continuous
100
AcDbCircle
 10
655.7723023174975
 20
252.0827100942057
 30
0.0
 40
2.32620431752562
100
AcDbArc
 50
134.3532871308923
 51
186.8424749004238
  0
LINE
  5
C6BD
330
C2DA
100
AcDbEntity
  8
1
  6
Continuous
100
AcDbLine
 10
654.1460979999912
 20
253.7460461935347
 30
0.0
 11
653.4460980000142
 21
254.2915726606858
 31
0.0
  0
ARC
  5
C6BE
330
C2DA
100
AcDbEntity
  8
1
  6
Continuous
100
AcDbCircle
 10
666.2595969882696
 20
254.2915726606624
 30
0.0
 40
12.81349898822509
100
AcDbArc
 50
160.9738898075264
 51
180.0
  0
ARC
  5
C6BF
330
C2DA
100
AcDbEntity
  8
1
  6
Continuous
100
AcDbCircle
 10
639.2328030465924
 20
272.6770558346089
 30
0.0
 40
12.8132949534517
100
AcDbArc
 50
340.9737369164199
 51
0.000000000000007
  0
LINE
  5
C6C0
330
C2DA
100
AcDbEntity
  8
1
  6
Continuous
100
AcDbLine
 10
651.3460979999953
 20
268.4999021462675
 30
0.0
 11
652.0460979999405
 21
268.0823742063104
 31
0.0
  0
ARC
  5
C6C1
330
C2DA
100
AcDbEntity
  8
1
  6
Continuous
100
AcDbCircle
 10
655.4634796216812
 20
271.3982245771096
 30
0.0
 40
2.017381621745911
100
AcDbArc
 50
179.99999999991
 51
229.2306488662747
  0
LINE
  5
C6C2
330
C2DA
100
AcDbEntity
  8
1
  6
Continuous
100
AcDbLine
 10
654.146097999994
 20
269.8703824336001
 30
0.0
 11
653.4460980000122
 21
269.0850128513186
 31
0.0
  0
ARC
  5
C6C3
330
C2DA
100
AcDbEntity
  8
1
  6
Continuous
100
AcDbCircle
 10
654.4776811146069
 20
265.5122133600439
 30
0.0
 40
1.031583114680584
100
AcDbArc
 50
179.99999999991
 51
251.2504932920883
  0
ARC
  5
C6C4
330
C2DA
100
AcDbEntity
  8
1
  6
Continuous
100
AcDbCircle
 10
628.9015430277762
 20
268.0823788740608
 30
0.0
 40
23.14455497217013
100
AcDbArc
 50
345.8725771125522
 51
0.000000000089775
  0
ARC
  5
C6C5
330
C2DA
100
AcDbEntity
  8
1
  6
Continuous
100
AcDbCircle
 10
638.864311
 20
250.493945
 30
0.0
 40
10.98178699999998
100
AcDbArc
 50
346.759569
 51
23.222372
  0
ARC
  5
C6C6
330
C2DA
100
AcDbEntity
  8
1
  6
Continuous
100
AcDbCircle
 10
656.8278849999999
 20
250.493945
 30
0.0
 40
10.98178699999998
100
AcDbArc
 50
156.7776279999999
 51
193.240447
  0
LINE
  5
C6C7
330
C2DA
100
AcDbEntity
  8
1
  6
Continuous
100
AcDbLine
 10
645.8460979999999
 20
249.4843259999999
 30
0.0
 11
644.3460980000001
 21
249.4843259999999
 31
0.0
  0
LINE
  5
C6C8
330
C2DA
100
AcDbEntity
  8
1
  6
Continuous
100
AcDbLine
 10
644.3460980000001
 20
249.4843259999999
 30
0.0
 11
645.8460979999999
 21
249.4843259999999
 31
0.0
  0
LINE
  5
C6C9
330
C2DA
100
AcDbEntity
  8
1
  6
Continuous
100
AcDbLine
 10
647.185843
 20
246.163818
 30
0.0
 11
648.5063519999997
 21
246.163818
 31
0.0
  0
LINE
  5
C6CA
330
C2DA
100
AcDbEntity
  8
1
  6
Continuous
100
AcDbLine
 10
648.5063519999997
 20
246.163818
 30
0.0
 11
649.8460979999999
 21
248.4843259999999
 31
0.0
  0
LINE
  5
C6CB
330
C2DA
100
AcDbEntity
  8
1
  6
Continuous
100
AcDbLine
 10
647.185843
 20
246.163818
 30
0.0
 11
645.8460969999999
 21
248.4843259999999
 31
0.0
  0
ARC
  5
C6CC
330
C2DA
100
AcDbEntity
  8
1
  6
Continuous
100
AcDbCircle
 10
607.2535429999999
 20
263.4843259999997
 30
0.0
 40
42.592555
100
AcDbArc
 50
348.268368
 51
11.73163200000002
  0
ARC
  5
C6CD
330
C2DA
100
AcDbEntity
  8
1
  6
Continuous
100
AcDbCircle
 10
688.438653
 20
263.4843259999997
 30
0.0
 40
42.592555
100
AcDbArc
 50
168.268368
 51
191.7316319999999
  0
LINE
  5
C6CE
330
C2DA
100
AcDbEntity
  8
1
  6
Continuous
100
AcDbLine
 10
646.7358260000001
 20
254.824072
 30
0.0
 11
648.9563699999997
 21
254.824072
 31
0.0
  0
LINE
  5
C6CF
330
C2DA
100
AcDbEntity
  8
1
  6
Continuous
100
AcDbLine
 10
644.3460980000001
 20
255.286745
 30
0.0
 11
645.8460979999999
 21
255.286745
 31
0.0
  0
LINE
  5
C6D0
330
C2DA
100
AcDbEntity
  8
1
  6
Continuous
100
AcDbLine
 10
644.3460980000001
 20
257.7545989999999
 30
0.0
 11
645.8460979999999
 21
257.7545989999999
 31
0.0
  0
LINE
  5
C6D1
330
C2DA
100
AcDbEntity
  8
1
  6
Continuous
100
AcDbLine
 10
644.3460980000001
 20
269.2140529999999
 30
0.0
 11
645.8460979999999
 21
269.2140529999999
 31
0.0
  0
LINE
  5
C6D2
330
C2DA
100
AcDbEntity
  8
1
  6
Continuous
100
AcDbLine
 10
646.7358260000001
 20
272.1445799999999
 30
0.0
 11
648.9563699999997
 21
272.1445799999999
 31
0.0
  0
LINE
  5
C6D3
330
C2DA
100
AcDbEntity
  8
1
  6
Continuous
100
AcDbLine
 10
644.3460980000001
 20
271.6819069999999
 30
0.0
 11
645.8460979999999
 21
271.6819069999999
 31
0.0
  0
LINE
  5
C6D4
330
C2DA
100
AcDbEntity
  8
1
  6
Continuous
100
AcDbLine
 10
651.3460979999997
 20
277.4843259999999
 30
0.0
 11
649.8460979999999
 21
277.4843259999999
 31
0.0
  0
LINE
  5
C6D5
330
C2DA
100
AcDbEntity
  8
1
  6
Continuous
100
AcDbLine
 10
653.446098000007
 20
277.9843260000013
 30
0.0
 11
652.0460980000071
 21
277.9843259999982
 31
0.0
  0
LINE
  5
C6D6
330
C2DA
100
AcDbEntity
  8
1
  6
Continuous
100
AcDbLine
 10
652.046097999939
 20
277.9843259999994
 30
0.0
 11
653.4460979999392
 21
277.9843260000004
 31
0.0
  0
LINE
  5
C6D7
330
C2DA
100
AcDbEntity
  8
1
  6
Continuous
100
AcDbLine
 10
651.6889214577473
 20
275.2215110771446
 30
0.0
 11
652.0460979999409
 21
275.16024397881
 31
0.0
  0
ARC
  5
C6D8
330
C2DA
100
AcDbEntity
  8
1
  6
Continuous
100
AcDbCircle
 10
649.7198936825184
 20
274.8859419057988
 30
0.0
 40
2.32620431752562
100
AcDbArc
 50
314.3532871308023
 51
6.842474900156338
  0
LINE
  5
C6D9
330
C2DA
100
AcDbEntity
  8
1
  6
Continuous
100
AcDbLine
 10
651.3460979999604
 20
275.3359457434734
 30
0.0
 11
651.6889214577473
 21
275.2215110771446
 31
0.0
  0
LINE
  5
C6DA
330
C2DA
100
AcDbEntity
  8
1
  6
Continuous
100
AcDbLine
 10
654.1460979999912
 20
273.4942406238797
 30
0.0
 11
653.4460980000138
 21
273.1857532498654
 31
0.0
  0
LINE
  5
C6DB
330
C2DA
100
AcDbEntity
  8
1
  6
Continuous
100
AcDbLine
 10
654.1460979999912
 20
273.4942406238797
 30
0.0
 11
653.4460980000126
 21
274.0397670910322
 31
0.0
  0
ARC
  5
C6DC
330
C2DA
100
AcDbEntity
  8
1
  6
Continuous
100
AcDbCircle
 10
646.6861565838296
 20
277.9843259999855
 30
0.0
 40
5.359941416177306
100
AcDbArc
 50
330.3891709452312
 51
0.000000000134888
  0
LINE
  5
C6DD
330
C2DA
100
AcDbEntity
  8
1
  6
Continuous
100
AcDbLine
 10
645.8460979999999
 20
277.4843259999999
 30
0.0
 11
644.3460980000001
 21
277.4843259999999
 31
0.0
  0
LINE
  5
C6DE
330
C2DA
100
AcDbEntity
  8
1
  6
Continuous
100
AcDbLine
 10
644.3460980000001
 20
277.4843259999999
 30
0.0
 11
645.8460979999999
 21
277.4843259999999
 31
0.0
  0
LINE
  5
C6DF
330
C2DA
100
AcDbEntity
  8
1
  6
Continuous
100
AcDbLine
 10
647.185843
 20
280.8048339999999
 30
0.0
 11
648.5063519999997
 21
280.8048339999999
 31
0.0
  0
LINE
  5
C6E0
330
C2DA
100
AcDbEntity
  8
1
  6
Continuous
100
AcDbLine
 10
648.5063519999997
 20
280.8048339999999
 30
0.0
 11
649.8460979999999
 21
278.4843259999997
 31
0.0
  0
LINE
  5
C6E1
330
C2DA
100
AcDbEntity
  8
1
  6
Continuous
100
AcDbLine
 10
647.185843
 20
280.8048339999999
 30
0.0
 11
645.8460969999999
 21
278.4843259999997
 31
0.0
  0
ENDSEC
  0
SECTION
  2
OBJECTS
  0
DICTIONARY
  5
C2C8
330
0
100
AcDbDictionary
281
     1
  3
ACAD_CIP_PREVIOUS_PRODUCT_INFO
350
C747
  3
ACAD_COLOR
350
C729
  3
ACAD_DETAILVIEWSTYLE
350
C742
  3
ACAD_GROUP
350
C2C9
  3
ACAD_LAYOUT
350
C2D5
  3
ACAD_MATERIAL
350
C6F7
  3
ACAD_MLEADERSTYLE
350
C73E
  3
ACAD_MLINESTYLE
350
C2D2
  3
ACAD_PLOTSETTINGS
350
C2D4
  3
ACAD_PLOTSTYLENAME
350
C6F5
  3
ACAD_SCALELIST
350
C72C
  3
ACAD_SECTIONVIEWSTYLE
350
C740
  3
ACAD_TABLESTYLE
350
C72A
  3
ACAD_VISUALSTYLE
350
C710
  3
ACDB_RECOMPOSE_DATA
350
C765
  3
AcDbVariableDictionary
350
C758
  3
DWGPROPS
350
C766
  0
DICTIONARY
  5
C748
330
C2CC
100
AcDbDictionary
280
     1
281
     1
  3
ADSK_XREC_LAYER_RECONCILED
360
C749
  0
DICTIONARY
  5
C74A
330
C2E2
100
AcDbDictionary
280
     1
281
     1
  3
ADSK_XREC_LAYER_RECONCILED
360
C74B
  0
DICTIONARY
  5
C74C
330
C2E3
100
AcDbDictionary
280
     1
281
     1
  3
ADSK_XREC_LAYER_RECONCILED
360
C74D
  0
DICTIONARY
  5
C74E
330
C2E4
100
AcDbDictionary
280
     1
281
     1
  3
ADSK_XREC_LAYER_RECONCILED
360
C74F
  0
DICTIONARY
  5
C750
330
C2E5
100
AcDbDictionary
280
     1
281
     1
  3
ADSK_XREC_LAYER_RECONCILED
360
C751
  0
DICTIONARY
  5
C752
330
C2E6
100
AcDbDictionary
280
     1
281
     1
  3
ADSK_XREC_LAYER_RECONCILED
360
C753
  0
DICTIONARY
  5
C754
330
C2E7
100
AcDbDictionary
280
     1
281
     1
  3
ADSK_XREC_LAYER_RECONCILED
360
C755
  0
DICTIONARY
  5
C756
330
C2E8
100
AcDbDictionary
280
     1
281
     1
  3
ADSK_XREC_LAYER_RECONCILED
360
C757
  0
DICTIONARY
  5
C6F0
330
C2DA
100
AcDbDictionary
281
     1
  3
ACAD_LAYOUTSELFREF
350
C6F1
  0
DICTIONARY
  5
C6EE
330
C2D6
100
AcDbDictionary
281
     1
  3
ACAD_LAYOUTSELFREF
350
C6EF
  0
XRECORD
  5
C747
102
{ACAD_REACTORS
330
C2C8
102
}
330
C2C8
100
AcDbXrecord
280
     1
300
ACDLT
300
2014
300
ACDLT_F_S
  0
DICTIONARY
  5
C729
102
{ACAD_REACTORS
330
C2C8
102
}
330
C2C8
100
AcDbDictionary
281
     1
  0
DICTIONARY
  5
C742
102
{ACAD_REACTORS
330
C2C8
102
}
330
C2C8
100
AcDbDictionary
281
     1
  3
Imperial24
350
C743
  0
DICTIONARY
  5
C2C9
102
{ACAD_REACTORS
330
C2C8
102
}
330
C2C8
100
AcDbDictionary
281
     1
  0
DICTIONARY
  5
C2D5
102
{ACAD_REACTORS
330
C2C8
102
}
330
C2C8
100
AcDbDictionary
281
     1
  3
Model
350
C744
  3
レイアウト1
350
C745
  0
DICTIONARY
  5
C6F7
102
{ACAD_REACTORS
330
C2C8
102
}
330
C2C8
100
AcDbDictionary
281
     1
  3
ByBlock
350
C700
  3
ByLayer
350
C6F8
  3
Global
350
C708
  0
DICTIONARY
  5
C73E
102
{ACAD_REACTORS
330
C2C8
102
}
330
C2C8
100
AcDbDictionary
281
     1
  3
Standard
350
C73F
  0
DICTIONARY
  5
C2D2
102
{ACAD_REACTORS
330
C2C8
102
}
330
C2C8
100
AcDbDictionary
281
     1
  3
STANDARD
350
C2D3
  0
DICTIONARY
  5
C2D4
102
{ACAD_REACTORS
330
C2C8
102
}
330
C2C8
100
AcDbDictionary
281
     1
  0
ACDBDICTIONARYWDFLT
  5
C6F5
102
{ACAD_REACTORS
330
C2C8
102
}
330
C2C8
100
AcDbDictionary
281
     1
  3
Normal
350
C6F6
100
AcDbDictionaryWithDefault
340
C6F6
  0
DICTIONARY
  5
C72C
102
{ACAD_REACTORS
330
C2C8
102
}
330
C2C8
100
AcDbDictionary
281
     1
  3
A0
350
C72D
  3
A1
350
C72E
  3
A2
350
C72F
  3
A3
350
C730
  3
A4
350
C731
  3
A5
350
C732
  3
A6
350
C733
  3
A7
350
C734
  3
A8
350
C735
  3
A9
350
C736
  3
B0
350
C737
  3
B1
350
C738
  3
B2
350
C739
  3
B3
350
C73A
  3
B4
350
C73B
  3
B5
350
C73C
  3
B6
350
C73D
  0
DICTIONARY
  5
C740
102
{ACAD_REACTORS
330
C2C8
102
}
330
C2C8
100
AcDbDictionary
281
     1
  3
Imperial24
350
C741
  0
DICTIONARY
  5
C72A
102
{ACAD_REACTORS
330
C2C8
102
}
330
C2C8
100
AcDbDictionary
281
     1
  3
Standard
350
C72B
  0
DICTIONARY
  5
C710
102
{ACAD_REACTORS
330
C2C8
102
}
330
C2C8
100
AcDbDictionary
281
     1
  3
2dWireframe
350
C716
  3
Basic
350
C715
  3
Brighten
350
C71C
  3
ColorChange
350
C720
  3
Conceptual
350
C719
  3
Dim
350
C71B
  3
EdgeColorOff
350
C728
  3
Facepattern
350
C71F
  3
Flat
350
C711
  3
FlatWithEdges
350
C712
  3
Gouraud
350
C713
  3
GouraudWithEdges
350
C714
  3
Hidden
350
C718
  3
JitterOff
350
C726
  3
Linepattern
350
C71E
  3
OverhangOff
350
C727
  3
Realistic
350
C71A
  3
Shaded
350
C725
  3
Shaded with edges
350
C724
  3
Shades of Gray
350
C721
  3
Sketchy
350
C722
  3
Thicken
350
C71D
  3
Wireframe
350
C717
  3
X-Ray
350
C723
  0
XRECORD
  5
C765
102
{ACAD_REACTORS
330
C2C8
102
}
330
C2C8
100
AcDbXrecord
280
     1
 90
        1
330
C72B
  0
DICTIONARY
  5
C758
102
{ACAD_REACTORS
330
C2C8
102
}
330
C2C8
100
AcDbDictionary
281
     1
  3
CANNOSCALE
350
C75D
  3
CMLEADERSTYLE
350
C75A
  3
CTABLESTYLE
350
C759
  3
CVIEWDETAILSTYLE
350
C75B
  3
CVIEWSECTIONSTYLE
350
C75C
  3
DIMASSOC
350
C760
  3
INDEXCTL
350
C75F
  3
SORTENTS
350
C75E
  3
XCLIPFRAME
350
C761
  0
XRECORD
  5
C766
102
{ACAD_REACTORS
330
C2C8
102
}
330
C2C8
100
AcDbXrecord
280
     1
  1
DWGPROPS COOKIE
  2

  3

  4

  6

  7

  8
Yoshitsune
  9

300
=
301
=
302
=
303
=
304
=
305
=
306
=
307
=
308
=
309
=
 40
0.0082914583333333
 41
2451439.578398495
 42
2457192.641793935
  1

 90
        0
  0
XRECORD
  5
C749
102
{ACAD_REACTORS
330
C748
102
}
330
C748
100
AcDbXrecord
280
     1
290
     1
  0
XRECORD
  5
C74B
102
{ACAD_REACTORS
330
C74A
102
}
330
C74A
100
AcDbXrecord
280
     1
290
     1
  0
XRECORD
  5
C74D
102
{ACAD_REACTORS
330
C74C
102
}
330
C74C
100
AcDbXrecord
280
     1
290
     1
  0
XRECORD
  5
C74F
102
{ACAD_REACTORS
330
C74E
102
}
330
C74E
100
AcDbXrecord
280
     1
290
     1
  0
XRECORD
  5
C751
102
{ACAD_REACTORS
330
C750
102
}
330
C750
100
AcDbXrecord
280
     1
290
     1
  0
XRECORD
  5
C753
102
{ACAD_REACTORS
330
C752
102
}
330
C752
100
AcDbXrecord
280
     1
290
     1
  0
XRECORD
  5
C755
102
{ACAD_REACTORS
330
C754
102
}
330
C754
100
AcDbXrecord
280
     1
290
     1
  0
XRECORD
  5
C757
102
{ACAD_REACTORS
330
C756
102
}
330
C756
100
AcDbXrecord
280
     1
290
     1
  0
XRECORD
  5
C6F1
102
{ACAD_REACTORS
330
C6F0
102
}
330
C6F0
100
AcDbXrecord
280
     1
340
C2DA
  0
XRECORD
  5
C6EF
102
{ACAD_REACTORS
330
C6EE
102
}
330
C6EE
100
AcDbXrecord
280
     1
340
C2D6
  0
ACDBDETAILVIEWSTYLE
  5
C743
102
{ACAD_XDICTIONARY
360
C79E
102
}
102
{ACAD_REACTORS
330
C742
102
}
330
C742
100
AcDbModelDocViewStyle
 70
     0
  3
Imperial24
290
     0
100
AcDbDetailViewStyle
 70
     0
 71
     0
 90
        3
 71
     1
340
C2CD
 40
0.24
340
0
 40
0.24
300

 40
0.36
280
     3
 71
     2
340
C2D1
 90
       25
 71
     3
340
C2CD
 40
0.24
 90
        1
 40
0.75
 90
        1
300
%<\AcVar ViewType \f "%tc1">% %<\AcVar ViewDetailId>%\PSCALE %<\AcVar ViewScale \f "%sn">%
 71
     4
340
C2D1
 90
       25
340
C2D1
 90
       25
280
     0
  0
LAYOUT
  5
C744
102
{ACAD_XDICTIONARY
360
C7A0
102
}
102
{ACAD_REACTORS
330
C2D5
102
}
330
C2D5
100
AcDbPlotSettings
  1

  2
Canon LBP9100C
  4

  6

 40
0.0
 41
0.0
 42
0.0
 43
0.0
 44
0.0
 45
0.0
 46
0.0
 47
0.0
 48
0.0
 49
0.0
140
0.0
141
0.0
142
1.0
143
1.0
 70
  1712
 72
     0
 73
     0
 74
     0
  7

 75
     0
147
1.0
148
0.0
149
0.0
100
AcDbLayout
  1
Model
 70
     1
 71
     0
 10
0.0
 20
0.0
 11
12.0
 21
9.0
 12
0.0
 22
0.0
 32
0.0
 14
0.0
 24
0.0
 34
0.0
 15
0.0
 25
0.0
 35
0.0
146
0.0
 13
0.0
 23
0.0
 33
0.0
 16
1.0
 26
0.0
 36
0.0
 17
0.0
 27
1.0
 37
0.0
 76
     0
330
C2DA
331
C6ED
  0
LAYOUT
  5
C745
102
{ACAD_XDICTIONARY
360
C7A2
102
}
102
{ACAD_REACTORS
330
C2D5
102
}
330
C2D5
100
AcDbPlotSettings
  1

  2
Canon LBP9100C
  4

  6

 40
0.0
 41
0.0
 42
0.0
 43
0.0
 44
0.0
 45
0.0
 46
0.0
 47
0.0
 48
0.0
 49
0.0
140
0.0
141
0.0
142
1.0
143
1.0
 70
   688
 72
     0
 73
     0
 74
     5
  7

 75
    16
147
1.0
148
0.0
149
0.0
100
AcDbLayout
  1
レイアウト1
 70
     0
 71
     1
 10
0.0
 20
0.0
 11
420.0
 21
297.0
 12
0.0
 22
0.0
 32
0.0
 14
1.000000000000000E+20
 24
1.000000000000000E+20
 34
1.000000000000000E+20
 15
-1.000000000000000E+20
 25
-1.000000000000000E+20
 35
-1.000000000000000E+20
146
0.0
 13
0.0
 23
0.0
 33
0.0
 16
1.0
 26
0.0
 36
0.0
 17
0.0
 27
1.0
 37
0.0
 76
     0
330
C2D6
  0
MATERIAL
  5
C700
102
{ACAD_XDICTIONARY
360
C701
102
}
102
{ACAD_REACTORS
330
C6F7
102
}
330
C6F7
100
AcDbMaterial
  1
ByBlock
 72
     0
 43
0.0208333333333333
 43
0.0
 43
0.0
 43
0.0
 43
0.0
 43
0.0208333333333333
 43
0.0
 43
0.0
 43
0.0
 43
0.0
 43
1.0
 43
0.0
 43
0.0
 43
0.0
 43
0.0
 43
1.0
 77
     0
 47
0.0208333333333333
 47
0.0
 47
0.0
 47
0.0
 47
0.0
 47
0.0208333333333333
 47
0.0
 47
0.0
 47
0.0
 47
0.0
 47
1.0
 47
0.0
 47
0.0
 47
0.0
 47
0.0
 47
1.0
171
     0
 49
0.0208333333333333
 49
0.0
 49
0.0
 49
0.0
 49
0.0
 49
0.0208333333333333
 49
0.0
 49
0.0
 49
0.0
 49
0.0
 49
1.0
 49
0.0
 49
0.0
 49
0.0
 49
0.0
 49
1.0
175
     0
142
0.0208333333333333
142
0.0
142
0.0
142
0.0
142
0.0
142
0.0208333333333333
142
0.0
142
0.0
142
0.0
142
0.0
142
1.0
142
0.0
142
0.0
142
0.0
142
0.0
142
1.0
179
     0
144
0.0208333333333333
144
0.0
144
0.0
144
0.0
144
0.0
144
0.0208333333333333
144
0.0
144
0.0
144
0.0
144
0.0
144
1.0
144
0.0
144
0.0
144
0.0
144
0.0
144
1.0
147
0.0208333333333333
147
0.0
147
0.0
147
0.0
147
0.0
147
0.0208333333333333
147
0.0
147
0.0
147
0.0
147
0.0
147
1.0
147
0.0
147
0.0
147
0.0
147
0.0
147
1.0
  0
MATERIAL
  5
C6F8
102
{ACAD_XDICTIONARY
360
C6F9
102
}
102
{ACAD_REACTORS
330
C6F7
102
}
330
C6F7
100
AcDbMaterial
  1
ByLayer
 72
     0
 43
0.0208333333333333
 43
0.0
 43
0.0
 43
0.0
 43
0.0
 43
0.0208333333333333
 43
0.0
 43
0.0
 43
0.0
 43
0.0
 43
1.0
 43
0.0
 43
0.0
 43
0.0
 43
0.0
 43
1.0
 77
     0
 47
0.0208333333333333
 47
0.0
 47
0.0
 47
0.0
 47
0.0
 47
0.0208333333333333
 47
0.0
 47
0.0
 47
0.0
 47
0.0
 47
1.0
 47
0.0
 47
0.0
 47
0.0
 47
0.0
 47
1.0
171
     0
 49
0.0208333333333333
 49
0.0
 49
0.0
 49
0.0
 49
0.0
 49
0.0208333333333333
 49
0.0
 49
0.0
 49
0.0
 49
0.0
 49
1.0
 49
0.0
 49
0.0
 49
0.0
 49
0.0
 49
1.0
175
     0
142
0.0208333333333333
142
0.0
142
0.0
142
0.0
142
0.0
142
0.0208333333333333
142
0.0
142
0.0
142
0.0
142
0.0
142
1.0
142
0.0
142
0.0
142
0.0
142
0.0
142
1.0
179
     0
144
0.0208333333333333
144
0.0
144
0.0
144
0.0
144
0.0
144
0.0208333333333333
144
0.0
144
0.0
144
0.0
144
0.0
144
1.0
144
0.0
144
0.0
144
0.0
144
0.0
144
1.0
147
0.0208333333333333
147
0.0
147
0.0
147
0.0
147
0.0
147
0.0208333333333333
147
0.0
147
0.0
147
0.0
147
0.0
147
1.0
147
0.0
147
0.0
147
0.0
147
0.0
147
1.0
  0
MATERIAL
  5
C708
102
{ACAD_XDICTIONARY
360
C709
102
}
102
{ACAD_REACTORS
330
C6F7
102
}
330
C6F7
100
AcDbMaterial
  1
Global
 72
     0
 43
0.0208333333333333
 43
0.0
 43
0.0
 43
0.0
 43
0.0
 43
0.0208333333333333
 43
0.0
 43
0.0
 43
0.0
 43
0.0
 43
1.0
 43
0.0
 43
0.0
 43
0.0
 43
0.0
 43
1.0
 77
     0
 47
0.0208333333333333
 47
0.0
 47
0.0
 47
0.0
 47
0.0
 47
0.0208333333333333
 47
0.0
 47
0.0
 47
0.0
 47
0.0
 47
1.0
 47
0.0
 47
0.0
 47
0.0
 47
0.0
 47
1.0
171
     0
 49
0.0208333333333333
 49
0.0
 49
0.0
 49
0.0
 49
0.0
 49
0.0208333333333333
 49
0.0
 49
0.0
 49
0.0
 49
0.0
 49
1.0
 49
0.0
 49
0.0
 49
0.0
 49
0.0
 49
1.0
175
     0
142
0.0208333333333333
142
0.0
142
0.0
142
0.0
142
0.0
142
0.0208333333333333
142
0.0
142
0.0
142
0.0
142
0.0
142
1.0
142
0.0
142
0.0
142
0.0
142
0.0
142
1.0
179
     0
144
0.0208333333333333
144
0.0
144
0.0
144
0.0
144
0.0
144
0.0208333333333333
144
0.0
144
0.0
144
0.0
144
0.0
144
1.0
144
0.0
144
0.0
144
0.0
144
0.0
144
1.0
147
0.0208333333333333
147
0.0
147
0.0
147
0.0
147
0.0
147
0.0208333333333333
147
0.0
147
0.0
147
0.0
147
0.0
147
1.0
147
0.0
147
0.0
147
0.0
147
0.0
147
1.0
  0
MLEADERSTYLE
  5
C73F
102
{ACAD_REACTORS
330
C73E
102
}
330
C73E
100
AcDbMLeaderStyle
170
     2
171
     1
172
     0
 90
        2
 40
0.0
 41
0.0
173
     1
 91
-1056964608
340
C2CF
 92
       -2
290
     1
 42
0.09
291
     1
 43
0.36
  3
Standard
 44
0.18
300

342
C2CD
174
     1
178
     6
175
     1
176
     0
 93
-1056964608
 45
0.18
292
     0
297
     0
 46
0.18
 94
-1056964608
 47
1.0
 49
1.0
140
1.0
293
     1
141
0.0
294
     1
177
     0
142
1.0
295
     0
296
     0
143
0.125
1001
ACAD_MLEADERVER
1070
     2
  0
MLINESTYLE
  5
C2D3
102
{ACAD_REACTORS
330
C2D2
102
}
330
C2D2
100
AcDbMlineStyle
  2
STANDARD
 70
     0
  3

 62
   256
 51
90.0
 52
90.0
 71
     2
 49
0.5
 62
   256
  6
BYLAYER
 49
-0.5
 62
   256
  6
BYLAYER
  0
ACDBPLACEHOLDER
  5
C6F6
102
{ACAD_REACTORS
330
C6F5
102
}
330
C6F5
  0
SCALE
  5
C72D
102
{ACAD_REACTORS
330
C72C
102
}
330
C72C
100
AcDbScale
 70
     0
300
1:1
140
1.0
141
1.0
290
     1
  0
SCALE
  5
C72E
102
{ACAD_REACTORS
330
C72C
102
}
330
C72C
100
AcDbScale
 70
     0
300
1/128" = 1'-0"
140
0.0078125
141
12.0
290
     0
  0
SCALE
  5
C72F
102
{ACAD_REACTORS
330
C72C
102
}
330
C72C
100
AcDbScale
 70
     0
300
1/64" = 1'-0"
140
0.015625
141
12.0
290
     0
  0
SCALE
  5
C730
102
{ACAD_REACTORS
330
C72C
102
}
330
C72C
100
AcDbScale
 70
     0
300
1/32" = 1'-0"
140
0.03125
141
12.0
290
     0
  0
SCALE
  5
C731
102
{ACAD_REACTORS
330
C72C
102
}
330
C72C
100
AcDbScale
 70
     0
300
1/16" = 1'-0"
140
0.0625
141
12.0
290
     0
  0
SCALE
  5
C732
102
{ACAD_REACTORS
330
C72C
102
}
330
C72C
100
AcDbScale
 70
     0
300
3/32" = 1'-0"
140
0.09375
141
12.0
290
     0
  0
SCALE
  5
C733
102
{ACAD_REACTORS
330
C72C
102
}
330
C72C
100
AcDbScale
 70
     0
300
1/8" = 1'-0"
140
0.125
141
12.0
290
     0
  0
SCALE
  5
C734
102
{ACAD_REACTORS
330
C72C
102
}
330
C72C
100
AcDbScale
 70
     0
300
3/16" = 1'-0"
140
0.1875
141
12.0
290
     0
  0
SCALE
  5
C735
102
{ACAD_REACTORS
330
C72C
102
}
330
C72C
100
AcDbScale
 70
     0
300
1/4" = 1'-0"
140
0.25
141
12.0
290
     0
  0
SCALE
  5
C736
102
{ACAD_REACTORS
330
C72C
102
}
330
C72C
100
AcDbScale
 70
     0
300
3/8" = 1'-0"
140
0.375
141
12.0
290
     0
  0
SCALE
  5
C737
102
{ACAD_REACTORS
330
C72C
102
}
330
C72C
100
AcDbScale
 70
     0
300
1/2" = 1'-0"
140
0.5
141
12.0
290
     0
  0
SCALE
  5
C738
102
{ACAD_REACTORS
330
C72C
102
}
330
C72C
100
AcDbScale
 70
     0
300
3/4" = 1'-0"
140
0.75
141
12.0
290
     0
  0
SCALE
  5
C739
102
{ACAD_REACTORS
330
C72C
102
}
330
C72C
100
AcDbScale
 70
     0
300
1" = 1'-0"
140
1.0
141
12.0
290
     0
  0
SCALE
  5
C73A
102
{ACAD_REACTORS
330
C72C
102
}
330
C72C
100
AcDbScale
 70
     0
300
1-1/2" = 1'-0"
140
1.5
141
12.0
290
     0
  0
SCALE
  5
C73B
102
{ACAD_REACTORS
330
C72C
102
}
330
C72C
100
AcDbScale
 70
     0
300
3" = 1'-0"
140
3.0
141
12.0
290
     0
  0
SCALE
  5
C73C
102
{ACAD_REACTORS
330
C72C
102
}
330
C72C
100
AcDbScale
 70
     0
300
6" = 1'-0"
140
6.0
141
12.0
290
     0
  0
SCALE
  5
C73D
102
{ACAD_REACTORS
330
C72C
102
}
330
C72C
100
AcDbScale
 70
     0
300
1'-0" = 1'-0"
140
12.0
141
12.0
290
     0
  0
ACDBSECTIONVIEWSTYLE
  5
C741
102
{ACAD_XDICTIONARY
360
C79C
102
}
102
{ACAD_REACTORS
330
C740
102
}
330
C740
100
AcDbModelDocViewStyle
 70
     0
  3
Imperial24
290
     0
100
AcDbSectionViewStyle
 70
     0
 71
     0
 90
       78
 71
     1
340
C2CD
 40
0.24
340
0
340
0
 40
0.24
300
I, O, Q, S, X, Z
 40
0.48
 90
        3
 40
0.18
 90
        1
 71
     2
340
C2D1
 90
       25
340
C2D1
 90
       50
 40
0.24
 40
0.0
 40
0.24
 71
     3
340
C2CD
 40
0.24
 90
        1
 40
0.75
 90
        1
300
%<\AcVar ViewType \f "%tc1">% %<\AcVar ViewSectionStartId>%-%<\AcVar ViewSectionEndId>%\PSCALE %<\AcVar ViewScale \f "%sn">%
 71
     4
300
ANSI31
 40
1.0
 90
        0
290
     0
290
     0
 90
        6
 40
0.0
 40
1.570796326794896
 40
0.2617993877991494
 40
1.308996938995747
 40
-0.2617993877991494
 40
1.832595714594046
  0
TABLESTYLE
  5
C72B
102
{ACAD_XDICTIONARY
360
C763
102
}
102
{ACAD_REACTORS
330
C72A
102
}
330
C72A
100
AcDbTableStyle
  3
Standard
 70
     0
 71
     0
 40
0.06
 41
0.06
280
     0
281
     0
  7
STANDARD
140
0.18
170
     2
 62
     0
 63
     7
283
     0
274
    -2
284
     1
 64
     0
275
    -2
285
     1
 65
     0
276
    -2
286
     1
 66
     0
277
    -2
287
     1
 67
     0
278
    -2
288
     1
 68
     0
279
    -2
289
     1
 69
     0
  7
STANDARD
140
0.25
170
     5
 62
     0
 63
     7
283
     0
274
    -2
284
     1
 64
     0
275
    -2
285
     1
 65
     0
276
    -2
286
     1
 66
     0
277
    -2
287
     1
 67
     0
278
    -2
288
     1
 68
     0
279
    -2
289
     1
 69
     0
  7
STANDARD
140
0.18
170
     5
 62
     0
 63
     7
283
     0
274
    -2
284
     1
 64
     0
275
    -2
285
     1
 65
     0
276
    -2
286
     1
 66
     0
277
    -2
287
     1
 67
     0
278
    -2
288
     1
 68
     0
279
    -2
289
     1
 69
     0
  0
VISUALSTYLE
  5
C716
102
{ACAD_XDICTIONARY
360
C774
102
}
102
{ACAD_REACTORS
330
C710
102
}
330
C710
100
AcDbVisualStyle
  2
2dWireframe
 70
     4
 71
     0
 72
     2
 73
     0
 90
        0
 40
-0.6
 41
-30.0
 62
     5
 63
     7
 74
     1
 91
        4
 64
     7
 65
   257
 75
     1
175
     1
 42
1.0
 92
        0
 66
   257
 43
1.0
 76
     1
 77
     6
 78
     2
 67
     7
 79
     5
170
     0
171
     0
290
     0
174
     0
 93
        1
 44
0.0
173
     0
291
     0
 45
0.0
1001
ACAD
1000
AcDbSavedByObjectVersion
1070
     0
  0
VISUALSTYLE
  5
C715
102
{ACAD_XDICTIONARY
360
C772
102
}
102
{ACAD_REACTORS
330
C710
102
}
330
C710
100
AcDbVisualStyle
  2
Basic
 70
     7
 71
     1
 72
     0
 73
     1
 90
        0
 40
-0.6
 41
-30.0
 62
     5
 63
     7
 74
     0
 91
        4
 64
     7
 65
   257
 75
     1
175
     1
 42
1.0
 92
        8
 66
     7
 43
1.0
 76
     1
 77
     6
 78
     2
 67
     7
 79
     5
170
     0
171
     0
290
     0
174
     0
 93
        1
 44
0.0
173
     0
291
     1
 45
0.0
1001
ACAD
1000
AcDbSavedByObjectVersion
1070
     0
  0
VISUALSTYLE
  5
C71C
102
{ACAD_XDICTIONARY
360
C780
102
}
102
{ACAD_REACTORS
330
C710
102
}
330
C710
100
AcDbVisualStyle
  2
Brighten
 70
    12
 71
     2
 72
     2
 73
     0
 90
        0
 40
-0.6
 41
-30.0
 62
     5
 63
     7
 74
     1
 91
        4
 64
     7
 65
   257
 75
     1
175
     1
 42
1.0
 92
        8
 66
     7
 43
1.0
 76
     1
 77
     6
 78
     2
 67
     7
 79
     5
170
     0
171
     0
290
     0
174
     0
 93
        1
 44
50.0
173
     0
291
     1
 45
0.0
1001
ACAD
1000
AcDbSavedByObjectVersion
1070
     0
  0
VISUALSTYLE
  5
C720
102
{ACAD_XDICTIONARY
360
C788
102
}
102
{ACAD_REACTORS
330
C710
102
}
330
C710
100
AcDbVisualStyle
  2
ColorChange
 70
    16
 71
     2
 72
     2
 73
     3
 90
        0
 40
-0.6
 41
-30.0
 62
     5
 63
     8
 74
     1
 91
        4
 64
     7
 65
   257
 75
     1
175
     1
 42
1.0
 92
        8
 66
     8
 43
1.0
 76
     1
 77
     6
 78
     2
 67
     7
 79
     5
170
     0
171
     0
290
     0
174
     0
 93
        1
 44
0.0
173
     0
291
     1
 45
0.0
1001
ACAD
1000
AcDbSavedByObjectVersion
1070
     0
  0
VISUALSTYLE
  5
C719
102
{ACAD_XDICTIONARY
360
C77A
102
}
102
{ACAD_REACTORS
330
C710
102
}
330
C710
100
AcDbVisualStyle
  2
Conceptual
 70
     9
 71
     3
 72
     2
 73
     0
 90
        0
 40
-0.6
 41
-30.0
 62
     5
 63
     7
 74
     2
 91
        2
 64
     7
 65
   257
 75
     1
175
     1
 42
179.0
 92
        8
 66
     7
 43
1.0
 76
     1
 77
     6
 78
     2
 67
     7
 79
     3
170
     0
171
     0
290
     0
174
     0
 93
        1
 44
0.0
173
     0
291
     0
 45
0.0
1001
ACAD
1000
AcDbSavedByObjectVersion
1070
     0
  0
VISUALSTYLE
  5
C71B
102
{ACAD_XDICTIONARY
360
C77E
102
}
102
{ACAD_REACTORS
330
C710
102
}
330
C710
100
AcDbVisualStyle
  2
Dim
 70
    11
 71
     2
 72
     2
 73
     0
 90
        0
 40
-0.6
 41
-30.0
 62
     5
 63
     7
 74
     1
 91
        4
 64
     7
 65
   257
 75
     1
175
     1
 42
1.0
 92
        8
 66
     7
 43
1.0
 76
     1
 77
     6
 78
     2
 67
     7
 79
     5
170
     0
171
     0
290
     0
174
     0
 93
        1
 44
-50.0
173
     0
291
     1
 45
0.0
1001
ACAD
1000
AcDbSavedByObjectVersion
1070
     0
  0
VISUALSTYLE
  5
C728
102
{ACAD_XDICTIONARY
360
C798
102
}
102
{ACAD_REACTORS
330
C710
102
}
330
C710
100
AcDbVisualStyle
  2
EdgeColorOff
 70
    22
 71
     2
 72
     2
 73
     0
 90
        0
 40
-0.6
 41
-30.0
 62
     5
 63
     7
 74
     1
 91
        4
 64
     7
 65
   257
 75
     1
175
     1
 42
1.0
 92
        8
 66
     7
 43
1.0
 76
     1
 77
     6
 78
     2
 67
     7
 79
     5
170
     0
171
     0
290
     0
174
     0
 93
        1
 44
0.0
173
     0
291
     1
 45
0.0
1001
ACAD
1000
AcDbSavedByObjectVersion
1070
     0
  0
VISUALSTYLE
  5
C71F
102
{ACAD_XDICTIONARY
360
C786
102
}
102
{ACAD_REACTORS
330
C710
102
}
330
C710
100
AcDbVisualStyle
  2
Facepattern
 70
    15
 71
     2
 72
     2
 73
     0
 90
        0
 40
-0.6
 41
-30.0
 62
     5
 63
     7
 74
     1
 91
        4
 64
     7
 65
   257
 75
     1
175
     1
 42
1.0
 92
        8
 66
     7
 43
1.0
 76
     1
 77
     6
 78
     2
 67
     7
 79
     5
170
     0
171
     0
290
     0
174
     0
 93
        1
 44
0.0
173
     0
291
     1
 45
0.0
1001
ACAD
1000
AcDbSavedByObjectVersion
1070
     0
  0
VISUALSTYLE
  5
C711
102
{ACAD_XDICTIONARY
360
C76A
102
}
102
{ACAD_REACTORS
330
C710
102
}
330
C710
100
AcDbVisualStyle
  2
Flat
 70
     0
 71
     2
 72
     1
 73
     1
 90
        2
 40
-0.6
 41
30.0
 62
     5
 63
     7
 74
     0
 91
        0
 64
     7
 65
   257
 75
     1
175
     1
 42
1.0
 92
        8
 66
     7
 43
1.0
 76
     1
 77
     6
 78
     2
 67
     7
 79
     5
170
     0
171
     0
290
     0
174
     0
 93
       13
 44
0.0
173
     0
291
     1
 45
0.0
1001
ACAD
1000
AcDbSavedByObjectVersion
1070
     0
  0
VISUALSTYLE
  5
C712
102
{ACAD_XDICTIONARY
360
C76C
102
}
102
{ACAD_REACTORS
330
C710
102
}
330
C710
100
AcDbVisualStyle
  2
FlatWithEdges
 70
     1
 71
     2
 72
     1
 73
     1
 90
        2
 40
-0.6
 41
30.0
 62
     5
 63
     7
 74
     1
 91
        0
 64
     7
 65
   257
 75
     1
175
     1
 42
1.0
 92
        0
 66
   257
 43
1.0
 76
     1
 77
     6
 78
     2
 67
     7
 79
     5
170
     0
171
     0
290
     0
174
     0
 93
       13
 44
0.0
173
     0
291
     1
 45
0.0
1001
ACAD
1000
AcDbSavedByObjectVersion
1070
     0
  0
VISUALSTYLE
  5
C713
102
{ACAD_XDICTIONARY
360
C76E
102
}
102
{ACAD_REACTORS
330
C710
102
}
330
C710
100
AcDbVisualStyle
  2
Gouraud
 70
     2
 71
     2
 72
     2
 73
     1
 90
        2
 40
-0.6
 41
30.0
 62
     5
 63
     7
 74
     0
 91
        0
 64
     7
 65
   257
 75
     1
175
     1
 42
1.0
 92
        0
 66
     7
 43
1.0
 76
     1
 77
     6
 78
     2
 67
     7
 79
     5
170
     0
171
     0
290
     0
174
     0
 93
       13
 44
0.0
173
     0
291
     1
 45
0.0
1001
ACAD
1000
AcDbSavedByObjectVersion
1070
     0
  0
VISUALSTYLE
  5
C714
102
{ACAD_XDICTIONARY
360
C770
102
}
102
{ACAD_REACTORS
330
C710
102
}
330
C710
100
AcDbVisualStyle
  2
GouraudWithEdges
 70
     3
 71
     2
 72
     2
 73
     1
 90
        2
 40
-0.6
 41
30.0
 62
     5
 63
     7
 74
     1
 91
        0
 64
     7
 65
   257
 75
     1
175
     1
 42
1.0
 92
        0
 66
   257
 43
1.0
 76
     1
 77
     6
 78
     2
 67
     7
 79
     5
170
     0
171
     0
290
     0
174
     0
 93
       13
 44
0.0
173
     0
291
     1
 45
0.0
1001
ACAD
1000
AcDbSavedByObjectVersion
1070
     0
  0
VISUALSTYLE
  5
C718
102
{ACAD_XDICTIONARY
360
C778
102
}
102
{ACAD_REACTORS
330
C710
102
}
330
C710
100
AcDbVisualStyle
  2
Hidden
 70
     6
 71
     1
 72
     2
 73
     2
 90
        0
 40
-0.6
 41
-30.0
 62
     5
 63
     7
 74
     2
 91
        2
 64
     7
 65
   257
 75
     2
175
     1
 42
40.0
 92
        0
 66
   257
 43
1.0
 76
     1
 77
     6
 78
     2
 67
     7
 79
     3
170
     0
171
     0
290
     0
174
     0
 93
        1
 44
0.0
173
     0
291
     0
 45
0.0
1001
ACAD
1000
AcDbSavedByObjectVersion
1070
     0
  0
VISUALSTYLE
  5
C726
102
{ACAD_XDICTIONARY
360
C794
102
}
102
{ACAD_REACTORS
330
C710
102
}
330
C710
100
AcDbVisualStyle
  2
JitterOff
 70
    20
 71
     2
 72
     2
 73
     0
 90
        0
 40
-0.6
 41
-30.0
 62
     5
 63
     7
 74
     1
 91
        4
 64
     7
 65
   257
 75
     1
175
     1
 42
1.0
 92
       10
 66
     7
 43
1.0
 76
     1
 77
     6
 78
     2
 67
     7
 79
     5
170
     0
171
     0
290
     0
174
     0
 93
        1
 44
0.0
173
     0
291
     1
 45
0.0
1001
ACAD
1000
AcDbSavedByObjectVersion
1070
     0
  0
VISUALSTYLE
  5
C71E
102
{ACAD_XDICTIONARY
360
C784
102
}
102
{ACAD_REACTORS
330
C710
102
}
330
C710
100
AcDbVisualStyle
  2
Linepattern
 70
    14
 71
     2
 72
     2
 73
     0
 90
        0
 40
-0.6
 41
-30.0
 62
     5
 63
     7
 74
     1
 91
        4
 64
     7
 65
   257
 75
     7
175
     7
 42
1.0
 92
        8
 66
     7
 43
1.0
 76
     1
 77
     6
 78
     2
 67
     7
 79
     5
170
     0
171
     0
290
     0
174
     0
 93
        1
 44
0.0
173
     0
291
     1
 45
0.0
1001
ACAD
1000
AcDbSavedByObjectVersion
1070
     0
  0
VISUALSTYLE
  5
C727
102
{ACAD_XDICTIONARY
360
C796
102
}
102
{ACAD_REACTORS
330
C710
102
}
330
C710
100
AcDbVisualStyle
  2
OverhangOff
 70
    21
 71
     2
 72
     2
 73
     0
 90
        0
 40
-0.6
 41
-30.0
 62
     5
 63
     7
 74
     1
 91
        4
 64
     7
 65
   257
 75
     1
175
     1
 42
1.0
 92
        9
 66
     7
 43
1.0
 76
     1
 77
     6
 78
     2
 67
     7
 79
     5
170
     0
171
     0
290
     0
174
     0
 93
        1
 44
0.0
173
     0
291
     1
 45
0.0
1001
ACAD
1000
AcDbSavedByObjectVersion
1070
     0
  0
VISUALSTYLE
  5
C71A
102
{ACAD_XDICTIONARY
360
C77C
102
}
102
{ACAD_REACTORS
330
C710
102
}
330
C710
100
AcDbVisualStyle
  2
Realistic
 70
     8
 71
     2
 72
     3
 73
     0
 90
        2
 40
-0.6
 41
30.0
 62
     5
 63
     7
 74
     0
 91
        0
 64
     7
 65
   257
 75
     1
175
     1
 42
1.0
 92
        8
 66
   257
 43
1.0
 76
     1
 77
     6
 78
     2
 67
     7
 79
     3
170
     0
171
     0
290
     0
174
     0
 93
       13
 44
0.0
173
     0
291
     0
 45
0.0
1001
ACAD
1000
AcDbSavedByObjectVersion
1070
     0
  0
VISUALSTYLE
  5
C725
102
{ACAD_XDICTIONARY
360
C792
102
}
102
{ACAD_REACTORS
330
C710
102
}
330
C710
100
AcDbVisualStyle
  2
Shaded
 70
    27
 71
     2
 72
     2
 73
     1
 90
        2
 40
-0.6
 41
30.0
 62
     5
 63
     7
 74
     0
 91
        4
 64
     7
 65
   257
 75
     1
175
     1
 42
1.0
 92
        8
 66
   257
 43
1.0
 76
     1
 77
     6
 78
     2
 67
     8
 79
     3
170
     0
171
     0
290
     0
174
     0
 93
        5
 44
0.0
173
     0
291
     0
 45
0.0
1001
ACAD
1000
AcDbSavedByObjectVersion
1070
     0
  0
VISUALSTYLE
  5
C724
102
{ACAD_XDICTIONARY
360
C790
102
}
102
{ACAD_REACTORS
330
C710
102
}
330
C710
100
AcDbVisualStyle
  2
Shaded with edges
 70
    26
 71
     2
 72
     2
 73
     1
 90
        2
 40
-0.6
 41
30.0
 62
     5
 63
     7
 74
     1
 91
       10
 64
     7
 65
   257
 75
     2
175
     1
 42
1.0
 92
        8
 66
   257
 43
1.0
 76
     1
 77
     6
 78
     2
 67
     7
 79
     3
170
     0
171
     0
290
     0
174
     0
 93
        5
 44
0.0
173
     0
291
     0
 45
0.0
1001
ACAD
1000
AcDbSavedByObjectVersion
1070
     0
  0
VISUALSTYLE
  5
C721
102
{ACAD_XDICTIONARY
360
C78A
102
}
102
{ACAD_REACTORS
330
C710
102
}
330
C710
100
AcDbVisualStyle
  2
Shades of Gray
 70
    23
 71
     2
 72
     2
 73
     3
 90
        0
 40
-0.6
 41
-30.0
 62
     5
 63
     7
 74
     2
 91
        2
 64
     7
 65
     7
 75
     1
175
     1
 42
40.0
 92
        8
 66
     7
 43
1.0
 76
     1
 77
     6
 78
     2
 67
     7
 79
     3
170
     0
171
     0
290
     0
174
     0
 93
        1
 44
0.0
173
     0
291
     0
 45
0.0
1001
ACAD
1000
AcDbSavedByObjectVersion
1070
     0
  0
VISUALSTYLE
  5
C722
102
{ACAD_XDICTIONARY
360
C78C
102
}
102
{ACAD_REACTORS
330
C710
102
}
330
C710
100
AcDbVisualStyle
  2
Sketchy
 70
    24
 71
     1
 72
     2
 73
     2
 90
        0
 40
-0.6
 41
-30.0
 62
     5
 63
     7
 74
     2
 91
        2
 64
     7
 65
     7
 75
     1
175
     1
 42
40.0
 92
       11
 66
     7
 43
1.0
 76
     1
 77
     6
 78
     2
 67
     7
 79
     6
170
     0
171
     0
290
     0
174
     0
 93
        1
 44
0.0
173
     0
291
     0
 45
0.0
1001
ACAD
1000
AcDbSavedByObjectVersion
1070
     0
  0
VISUALSTYLE
  5
C71D
102
{ACAD_XDICTIONARY
360
C782
102
}
102
{ACAD_REACTORS
330
C710
102
}
330
C710
100
AcDbVisualStyle
  2
Thicken
 70
    13
 71
     2
 72
     2
 73
     0
 90
        0
 40
-0.6
 41
-30.0
 62
     5
 63
     7
 74
     1
 91
        4
 64
     7
 65
   257
 75
     1
175
     1
 42
1.0
 92
       12
 66
     7
 43
1.0
 76
     1
 77
     6
 78
     2
 67
     7
 79
     5
170
     0
171
     0
290
     0
174
     0
 93
        1
 44
0.0
173
     0
291
     1
 45
0.0
1001
ACAD
1000
AcDbSavedByObjectVersion
1070
     0
  0
VISUALSTYLE
  5
C717
102
{ACAD_XDICTIONARY
360
C776
102
}
102
{ACAD_REACTORS
330
C710
102
}
330
C710
100
AcDbVisualStyle
  2
Wireframe
 70
     5
 71
     0
 72
     2
 73
     0
 90
        0
 40
-0.6
 41
-30.0
 62
     5
 63
     7
 74
     1
 91
        4
 64
     7
 65
   257
 75
     1
175
     1
 42
1.0
 92
        0
 66
   257
 43
1.0
 76
     1
 77
     6
 78
     2
 67
     7
 79
     3
170
     0
171
     0
290
     0
174
     0
 93
        1
 44
0.0
173
     0
291
     0
 45
0.0
1001
ACAD
1000
AcDbSavedByObjectVersion
1070
     0
  0
VISUALSTYLE
  5
C723
102
{ACAD_XDICTIONARY
360
C78E
102
}
102
{ACAD_REACTORS
330
C710
102
}
330
C710
100
AcDbVisualStyle
  2
X-Ray
 70
    25
 71
     2
 72
     2
 73
     1
 90
        1
 40
0.5
 41
-30.0
 62
     5
 63
     7
 74
     1
 91
        0
 64
     7
 65
   257
 75
     1
175
     1
 42
1.0
 92
        8
 66
     7
 43
1.0
 76
     1
 77
     6
 78
     2
 67
     7
 79
     3
170
     0
171
     0
290
     0
174
     0
 93
       13
 44
0.0
173
     0
291
     0
 45
0.0
1001
ACAD
1000
AcDbSavedByObjectVersion
1070
     0
  0
DICTIONARYVAR
  5
C75D
102
{ACAD_REACTORS
330
C758
102
}
330
C758
100
DictionaryVariables
280
     0
  1
1:1
  0
DICTIONARYVAR
  5
C75A
102
{ACAD_REACTORS
330
C758
102
}
330
C758
100
DictionaryVariables
280
     0
  1
STANDARD
  0
DICTIONARYVAR
  5
C759
102
{ACAD_REACTORS
330
C758
102
}
330
C758
100
DictionaryVariables
280
     0
  1
STANDARD
  0
DICTIONARYVAR
  5
C75B
102
{ACAD_REACTORS
330
C758
102
}
330
C758
100
DictionaryVariables
280
     0
  1
Imperial24
  0
DICTIONARYVAR
  5
C75C
102
{ACAD_REACTORS
330
C758
102
}
330
C758
100
DictionaryVariables
280
     0
  1
Imperial24
  0
DICTIONARYVAR
  5
C760
102
{ACAD_REACTORS
330
C758
102
}
330
C758
100
DictionaryVariables
280
     0
  1
1
  0
DICTIONARYVAR
  5
C75F
102
{ACAD_REACTORS
330
C758
102
}
330
C758
100
DictionaryVariables
280
     0
  1
0
  0
DICTIONARYVAR
  5
C75E
102
{ACAD_REACTORS
330
C758
102
}
330
C758
100
DictionaryVariables
280
     0
  1
127
  0
DICTIONARYVAR
  5
C761
102
{ACAD_REACTORS
330
C758
102
}
330
C758
100
DictionaryVariables
280
     0
  1
2
  0
DICTIONARY
  5
C79E
330
C743
100
AcDbDictionary
280
     1
281
     1
  3
ACAD_XREC_ROUNDTRIP
360
C79F
  0
DICTIONARY
  5
C7A0
330
C744
100
AcDbDictionary
280
     1
281
     1
  3
ACAD_XREC_ROUNDTRIP
360
C7A1
  0
DICTIONARY
  5
C7A2
330
C745
100
AcDbDictionary
280
     1
281
     1
  3
ACAD_XREC_ROUNDTRIP
360
C7A3
  0
DICTIONARY
  5
C701
330
C700
100
AcDbDictionary
280
     1
281
     1
  3
ACAD_XREC_ROUNDTRIP
360
C768
  3
BUMPTILE
360
C703
  3
DIFFUSETILE
360
C702
  3
OPACITYTILE
360
C706
  3
REFLECTIONTILE
360
C705
  3
REFRACTIONTILE
360
C707
  3
SPECULARTILE
360
C704
  0
DICTIONARY
  5
C6F9
330
C6F8
100
AcDbDictionary
280
     1
281
     1
  3
ACAD_XREC_ROUNDTRIP
360
C767
  3
BUMPTILE
360
C6FB
  3
DIFFUSETILE
360
C6FA
  3
OPACITYTILE
360
C6FE
  3
REFLECTIONTILE
360
C6FD
  3
REFRACTIONTILE
360
C6FF
  3
SPECULARTILE
360
C6FC
  0
DICTIONARY
  5
C709
330
C708
100
AcDbDictionary
280
     1
281
     1
  3
ACAD_XREC_ROUNDTRIP
360
C769
  3
BUMPTILE
360
C70B
  3
DIFFUSETILE
360
C70A
  3
OPACITYTILE
360
C70E
  3
REFLECTIONTILE
360
C70D
  3
REFRACTIONTILE
360
C70F
  3
SPECULARTILE
360
C70C
  0
DICTIONARY
  5
C79C
330
C741
100
AcDbDictionary
280
     1
281
     1
  3
ACAD_XREC_ROUNDTRIP
360
C79D
  0
DICTIONARY
  5
C763
330
C72B
100
AcDbDictionary
280
     1
281
     1
  3
ACAD_ROUNDTRIP_2008_TABLESTYLE_CELLSTYLEMAP
360
C764
  3
ACAD_XREC_ROUNDTRIP
360
C79A
  0
DICTIONARY
  5
C774
330
C716
100
AcDbDictionary
280
     1
281
     1
  3
ACAD_XREC_ROUNDTRIP
360
C775
  0
DICTIONARY
  5
C772
330
C715
100
AcDbDictionary
280
     1
281
     1
  3
ACAD_XREC_ROUNDTRIP
360
C773
  0
DICTIONARY
  5
C780
330
C71C
100
AcDbDictionary
280
     1
281
     1
  3
ACAD_XREC_ROUNDTRIP
360
C781
  0
DICTIONARY
  5
C788
330
C720
100
AcDbDictionary
280
     1
281
     1
  3
ACAD_XREC_ROUNDTRIP
360
C789
  0
DICTIONARY
  5
C77A
330
C719
100
AcDbDictionary
280
     1
281
     1
  3
ACAD_XREC_ROUNDTRIP
360
C77B
  0
DICTIONARY
  5
C77E
330
C71B
100
AcDbDictionary
280
     1
281
     1
  3
ACAD_XREC_ROUNDTRIP
360
C77F
  0
DICTIONARY
  5
C798
330
C728
100
AcDbDictionary
280
     1
281
     1
  3
ACAD_XREC_ROUNDTRIP
360
C799
  0
DICTIONARY
  5
C786
330
C71F
100
AcDbDictionary
280
     1
281
     1
  3
ACAD_XREC_ROUNDTRIP
360
C787
  0
DICTIONARY
  5
C76A
330
C711
100
AcDbDictionary
280
     1
281
     1
  3
ACAD_XREC_ROUNDTRIP
360
C76B
  0
DICTIONARY
  5
C76C
330
C712
100
AcDbDictionary
280
     1
281
     1
  3
ACAD_XREC_ROUNDTRIP
360
C76D
  0
DICTIONARY
  5
C76E
330
C713
100
AcDbDictionary
280
     1
281
     1
  3
ACAD_XREC_ROUNDTRIP
360
C76F
  0
DICTIONARY
  5
C770
330
C714
100
AcDbDictionary
280
     1
281
     1
  3
ACAD_XREC_ROUNDTRIP
360
C771
  0
DICTIONARY
  5
C778
330
C718
100
AcDbDictionary
280
     1
281
     1
  3
ACAD_XREC_ROUNDTRIP
360
C779
  0
DICTIONARY
  5
C794
330
C726
100
AcDbDictionary
280
     1
281
     1
  3
ACAD_XREC_ROUNDTRIP
360
C795
  0
DICTIONARY
  5
C784
330
C71E
100
AcDbDictionary
280
     1
281
     1
  3
ACAD_XREC_ROUNDTRIP
360
C785
  0
DICTIONARY
  5
C796
330
C727
100
AcDbDictionary
280
     1
281
     1
  3
ACAD_XREC_ROUNDTRIP
360
C797
  0
DICTIONARY
  5
C77C
330
C71A
100
AcDbDictionary
280
     1
281
     1
  3
ACAD_XREC_ROUNDTRIP
360
C77D
  0
DICTIONARY
  5
C792
330
C725
100
AcDbDictionary
280
     1
281
     1
  3
ACAD_XREC_ROUNDTRIP
360
C793
  0
DICTIONARY
  5
C790
330
C724
100
AcDbDictionary
280
     1
281
     1
  3
ACAD_XREC_ROUNDTRIP
360
C791
  0
DICTIONARY
  5
C78A
330
C721
100
AcDbDictionary
280
     1
281
     1
  3
ACAD_XREC_ROUNDTRIP
360
C78B
  0
DICTIONARY
  5
C78C
330
C722
100
AcDbDictionary
280
     1
281
     1
  3
ACAD_XREC_ROUNDTRIP
360
C78D
  0
DICTIONARY
  5
C782
330
C71D
100
AcDbDictionary
280
     1
281
     1
  3
ACAD_XREC_ROUNDTRIP
360
C783
  0
DICTIONARY
  5
C776
330
C717
100
AcDbDictionary
280
     1
281
     1
  3
ACAD_XREC_ROUNDTRIP
360
C777
  0
DICTIONARY
  5
C78E
330
C723
100
AcDbDictionary
280
     1
281
     1
  3
ACAD_XREC_ROUNDTRIP
360
C78F
  0
XRECORD
  5
C79F
102
{ACAD_REACTORS
330
C79E
102
}
330
C79E
100
AcDbXrecord
280
     1
102
DISPLAYNAME
  1
Imperial24
102
FLAGS
 90
        0
  0
XRECORD
  5
C7A1
102
{ACAD_REACTORS
330
C7A0
102
}
330
C7A0
100
AcDbXrecord
280
     1
102
SHADEPLOT
 70
     0
102
SHADEPLOTRESLEVEL
 70
     2
102
SHADEPLOTCUSTOMDPI
 70
   300
  0
XRECORD
  5
C7A3
102
{ACAD_REACTORS
330
C7A2
102
}
330
C7A2
100
AcDbXrecord
280
     1
102
SHADEPLOT
 70
     0
102
SHADEPLOTRESLEVEL
 70
     2
102
SHADEPLOTCUSTOMDPI
 70
   300
  0
XRECORD
  5
C768
102
{ACAD_REACTORS
330
C701
102
}
330
C701
100
AcDbXrecord
280
     1
102
MATERIAL
148
0.0
149
0.0
149
0.0
 93
        0
 94
      127
282
     0
 72
     0
 77
     0
171
     0
175
     0
179
     0
273
     0
  0
XRECORD
  5
C703
102
{ACAD_REACTORS
330
C701
102
}
330
C701
100
AcDbXrecord
280
     1
270
     1
271
     1
  0
XRECORD
  5
C702
102
{ACAD_REACTORS
330
C701
102
}
330
C701
100
AcDbXrecord
280
     1
270
     1
271
     1
  0
XRECORD
  5
C706
102
{ACAD_REACTORS
330
C701
102
}
330
C701
100
AcDbXrecord
280
     1
270
     1
271
     1
  0
XRECORD
  5
C705
102
{ACAD_REACTORS
330
C701
102
}
330
C701
100
AcDbXrecord
280
     1
270
     1
271
     1
  0
XRECORD
  5
C707
102
{ACAD_REACTORS
330
C701
102
}
330
C701
100
AcDbXrecord
280
     1
270
     1
271
     1
  0
XRECORD
  5
C704
102
{ACAD_REACTORS
330
C701
102
}
330
C701
100
AcDbXrecord
280
     1
270
     1
271
     1
  0
XRECORD
  5
C767
102
{ACAD_REACTORS
330
C6F9
102
}
330
C6F9
100
AcDbXrecord
280
     1
102
MATERIAL
148
0.0
149
0.0
149
0.0
 93
        0
 94
      127
282
     0
 72
     0
 77
     0
171
     0
175
     0
179
     0
273
     0
  0
XRECORD
  5
C6FB
102
{ACAD_REACTORS
330
C6F9
102
}
330
C6F9
100
AcDbXrecord
280
     1
270
     1
271
     1
  0
XRECORD
  5
C6FA
102
{ACAD_REACTORS
330
C6F9
102
}
330
C6F9
100
AcDbXrecord
280
     1
270
     1
271
     1
  0
XRECORD
  5
C6FE
102
{ACAD_REACTORS
330
C6F9
102
}
330
C6F9
100
AcDbXrecord
280
     1
270
     1
271
     1
  0
XRECORD
  5
C6FD
102
{ACAD_REACTORS
330
C6F9
102
}
330
C6F9
100
AcDbXrecord
280
     1
270
     1
271
     1
  0
XRECORD
  5
C6FF
102
{ACAD_REACTORS
330
C6F9
102
}
330
C6F9
100
AcDbXrecord
280
     1
270
     1
271
     1
  0
XRECORD
  5
C6FC
102
{ACAD_REACTORS
330
C6F9
102
}
330
C6F9
100
AcDbXrecord
280
     1
270
     1
271
     1
  0
XRECORD
  5
C769
102
{ACAD_REACTORS
330
C709
102
}
330
C709
100
AcDbXrecord
280
     1
102
MATERIAL
148
0.0
149
0.0
149
0.0
 93
        0
 94
      127
282
     0
 72
     0
 77
     0
171
     0
175
     0
179
     0
273
     0
  0
XRECORD
  5
C70B
102
{ACAD_REACTORS
330
C709
102
}
330
C709
100
AcDbXrecord
280
     1
270
     1
271
     1
  0
XRECORD
  5
C70A
102
{ACAD_REACTORS
330
C709
102
}
330
C709
100
AcDbXrecord
280
     1
270
     1
271
     1
  0
XRECORD
  5
C70E
102
{ACAD_REACTORS
330
C709
102
}
330
C709
100
AcDbXrecord
280
     1
270
     1
271
     1
  0
XRECORD
  5
C70D
102
{ACAD_REACTORS
330
C709
102
}
330
C709
100
AcDbXrecord
280
     1
270
     1
271
     1
  0
XRECORD
  5
C70F
102
{ACAD_REACTORS
330
C709
102
}
330
C709
100
AcDbXrecord
280
     1
270
     1
271
     1
  0
XRECORD
  5
C70C
102
{ACAD_REACTORS
330
C709
102
}
330
C709
100
AcDbXrecord
280
     1
270
     1
271
     1
  0
XRECORD
  5
C79D
102
{ACAD_REACTORS
330
C79C
102
}
330
C79C
100
AcDbXrecord
280
     1
102
DISPLAYNAME
  1
Imperial24
102
FLAGS
 90
        0
  0
CELLSTYLEMAP
  5
C764
102
{ACAD_REACTORS
330
C763
102
}
330
C763
100
AcDbCellStyleMap
 90
        3
300
CELLSTYLE
  1
TABLEFORMAT_BEGIN
 90
        5
170
     1
 91
        0
 92
    32768
 62
   257
 93
        1
300
CONTENTFORMAT
  1
CONTENTFORMAT_BEGIN
 90
        0
 91
        0
 92
      512
 93
        0
300

 40
0.0
140
1.0
 94
        5
 62
     0
340
C2CD
144
0.25
309
CONTENTFORMAT_END
171
     0
 94
        0
309
TABLEFORMAT_END
  1
CELLSTYLE_BEGIN
 90
        1
 91
        1
300
_TITLE
309
CELLSTYLE_END
300
CELLSTYLE
  1
TABLEFORMAT_BEGIN
 90
        5
170
     1
 91
        0
 92
        0
 62
   257
 93
        1
300
CONTENTFORMAT
  1
CONTENTFORMAT_BEGIN
 90
        0
 91
        0
 92
      512
 93
        0
300

 40
0.0
140
1.0
 94
        5
 62
     0
340
C2CD
144
0.18
309
CONTENTFORMAT_END
171
     0
 94
        0
309
TABLEFORMAT_END
  1
CELLSTYLE_BEGIN
 90
        2
 91
        1
300
_HEADER
309
CELLSTYLE_END
300
CELLSTYLE
  1
TABLEFORMAT_BEGIN
 90
        5
170
     1
 91
        0
 92
        0
 62
   257
 93
        1
300
CONTENTFORMAT
  1
CONTENTFORMAT_BEGIN
 90
        0
 91
        0
 92
      512
 93
        0
300

 40
0.0
140
1.0
 94
        2
 62
     0
340
C2CD
144
0.18
309
CONTENTFORMAT_END
171
     0
 94
        0
309
TABLEFORMAT_END
  1
CELLSTYLE_BEGIN
 90
        3
 91
        2
300
_DATA
309
CELLSTYLE_END
  0
XRECORD
  5
C79A
102
{ACAD_REACTORS
330
C763
102
}
330
C763
100
AcDbXrecord
280
     1
102
ACAD_ROUNDTRIP_PRE2007_TABLESTYLE
 90
      512
 91
        0
  1

 92
      512
 93
        0
  2

 94
      512
 95
        0
  3

  0
XRECORD
  5
C775
102
{ACAD_REACTORS
330
C774
102
}
330
C774
100
AcDbXrecord
280
     1
102
RTVSPost2010Prop28
280
     1
102
RTVSPost2010PropOp28
 70
     1
102
RTVSPost2010Prop29
280
     1
102
RTVSPost2010PropOp29
 70
     1
102
RTVSPost2010Prop30
280
     0
102
RTVSPost2010PropOp30
 70
     1
102
RTVSPost2010Prop31
280
     0
102
RTVSPost2010PropOp31
 70
     1
102
RTVSPost2010Prop32
280
     0
102
RTVSPost2010PropOp32
 70
     1
102
RTVSPost2010Prop33
280
     0
102
RTVSPost2010PropOp33
 70
     1
102
RTVSPost2010Prop34
280
     0
102
RTVSPost2010PropOp34
 70
     1
102
RTVSPost2010Prop35
280
     0
102
RTVSPost2010PropOp35
 70
     1
102
RTVSPost2010Prop36
280
     0
102
RTVSPost2010PropOp36
 70
     1
102
RTVSPost2010Prop37
 90
       50
102
RTVSPost2010PropOp37
 70
     1
102
RTVSPost2010Prop38
140
0.0
102
RTVSPost2010PropOp38
 70
     1
102
RTVSPost2010Prop39
140
1.0
102
RTVSPost2010PropOp39
 70
     1
102
RTVSPost2010Prop40
 90
        0
102
RTVSPost2010PropOp40
 70
     1
102
RTVSPost2010Prop41ColorIndex
 90
       18
102
RTVSPost2010Prop41ColorRGB
 90
        0
102
RTVSPost2010PropOp41
 70
     1
102
RTVSPost2010Prop42
 90
       50
102
RTVSPost2010PropOp42
 70
     1
102
RTVSPost2010Prop43
 90
        3
102
RTVSPost2010PropOp43
 70
     1
102
RTVSPost2010Prop44ColorIndex
 90
        5
102
RTVSPost2010Prop44ColorRGB
 90
      255
102
RTVSPost2010PropOp44
 70
     1
102
RTVSPost2010Prop45
280
     0
102
RTVSPost2010PropOp45
 70
     1
102
RTVSPost2010Prop46
 90
       50
102
RTVSPost2010PropOp46
 70
     1
102
RTVSPost2010Prop47
 90
       50
102
RTVSPost2010PropOp47
 70
     1
102
RTVSPost2010Prop48
 90
       50
102
RTVSPost2010PropOp48
 70
     1
102
RTVSPost2010Prop49
280
     0
102
RTVSPost2010PropOp49
 70
     1
102
RTVSPost2010Prop50
 90
       50
102
RTVSPost2010PropOp50
 70
     1
102
RTVSPost2010Prop51ColorIndex
 90
      256
102
RTVSPost2010Prop51ColorRGB
 90
-16777216
102
RTVSPost2010PropOp51
 70
     0
102
RTVSPost2010Prop52
140
1.0
102
RTVSPost2010PropOp52
 70
     0
102
RTVSPost2010Prop53
 90
        2
102
RTVSPost2010PropOp53
 70
     1
102
RTVSPost2010Prop54
  1
strokes_ogs.tif
102
RTVSPost2010PropOp54
 70
     1
102
RTVSPost2010Prop55
280
     0
102
RTVSPost2010PropOp55
 70
     1
102
RTVSPost2010Prop56
140
1.0
102
RTVSPost2010PropOp56
 70
     1
102
RTVSPost2010Prop57
140
1.0
102
RTVSPost2010PropOp57
 70
     1
102
RTVSPropertyOp0
 70
     1
102
RTVSPropertyOp1
 70
     1
102
RTVSPropertyOp2
 70
     1
102
RTVSPropertyOp3
 70
     1
102
RTVSPropertyOp4
 70
     1
102
RTVSPropertyOp5
 70
     1
102
RTVSPropertyOp6
 70
     1
102
RTVSPropertyOp7
 70
     1
102
RTVSPropertyOp8
 70
     1
102
RTVSPropertyOp9
 70
     1
102
RTVSPropertyOp10
 70
     1
102
RTVSPropertyOp11
 70
     1
102
RTVSPropertyOp12
 70
     1
102
RTVSPropertyOp13
 70
     1
102
RTVSPropertyOp14
 70
     1
102
RTVSPropertyOp15
 70
     1
102
RTVSPropertyOp16
 70
     1
102
RTVSPropertyOp17
 70
     1
102
RTVSPropertyOp18
 70
     1
102
RTVSPropertyOp19
 70
     1
102
RTVSPropertyOp20
 70
     1
102
RTVSPropertyOp21
 70
     1
102
RTVSPropertyOp22
 70
     1
102
RTVSPropertyOp23
 70
     1
102
RTVSPropertyOp24
 70
     1
102
RTVSPropertyOp25
 70
     1
102
RTVSPropertyOp26
 70
     1
102
RTVSPropertyOp27
 70
     1
102
RTVSPropertyOp28
 70
     1
102
RTVSPropertyOp29
 70
     1
102
RTVSPropertyOp30
 70
     1
102
RTVSPropertyOp31
 70
     1
102
RTVSPropertyOp32
 70
     1
102
RTVSPropertyOp33
 70
     1
102
RTVSPropertyOp34
 70
     1
102
RTVSPropertyOp35
 70
     1
102
RTVSPropertyOp36
 70
     1
102
RTVSPropertyOp37
 70
     1
102
RTVSPropertyOp38
 70
     1
102
RTVSPropertyOp39
 70
     1
102
RTVSPropertyOp40
 70
     1
102
RTVSPropertyOp41
 70
     1
102
RTVSPropertyOp42
 70
     1
102
RTVSPropertyOp43
 70
     1
102
RTVSPropertyOp44
 70
     1
102
RTVSPropertyOp45
 70
     1
102
RTVSPropertyOp46
 70
     1
102
RTVSPropertyOp47
 70
     1
102
RTVSPropertyOp48
 70
     1
102
RTVSPropertyOp49
 70
     1
102
RTVSPropertyOp50
 70
     1
102
RTVSPropertyOp51
 70
     0
102
RTVSPropertyOp52
 70
     0
102
RTVSPropertyOp53
 70
     1
102
RTVSPropertyOp54
 70
     1
102
RTVSPropertyOp55
 70
     1
102
RTVSPropertyOp56
 70
     1
102
RTVSPropertyOp57
 70
     1
102
RTVSPropertyOp58
 70
     1
102
RTVSPropertyOp59
 70
     1
102
RTVSPropertyOp60
 70
     1
102
RTVSPropertyOp61
 70
     1
102
RTVSPropertyOp62
 70
     1
  0
XRECORD
  5
C773
102
{ACAD_REACTORS
330
C772
102
}
330
C772
100
AcDbXrecord
280
     1
102
RTVSPost2010Prop28
280
     0
102
RTVSPost2010PropOp28
 70
     1
102
RTVSPost2010Prop29
280
     1
102
RTVSPost2010PropOp29
 70
     1
102
RTVSPost2010Prop30
280
     1
102
RTVSPost2010PropOp30
 70
     1
102
RTVSPost2010Prop31
280
     0
102
RTVSPost2010PropOp31
 70
     1
102
RTVSPost2010Prop32
280
     0
102
RTVSPost2010PropOp32
 70
     1
102
RTVSPost2010Prop33
280
     0
102
RTVSPost2010PropOp33
 70
     1
102
RTVSPost2010Prop34
280
     0
102
RTVSPost2010PropOp34
 70
     1
102
RTVSPost2010Prop35
280
     0
102
RTVSPost2010PropOp35
 70
     1
102
RTVSPost2010Prop36
280
     0
102
RTVSPost2010PropOp36
 70
     1
102
RTVSPost2010Prop37
 90
       50
102
RTVSPost2010PropOp37
 70
     1
102
RTVSPost2010Prop38
140
0.0
102
RTVSPost2010PropOp38
 70
     1
102
RTVSPost2010Prop39
140
1.0
102
RTVSPost2010PropOp39
 70
     1
102
RTVSPost2010Prop40
 90
        0
102
RTVSPost2010PropOp40
 70
     1
102
RTVSPost2010Prop41ColorIndex
 90
       18
102
RTVSPost2010Prop41ColorRGB
 90
        0
102
RTVSPost2010PropOp41
 70
     1
102
RTVSPost2010Prop42
 90
       50
102
RTVSPost2010PropOp42
 70
     1
102
RTVSPost2010Prop43
 90
        3
102
RTVSPost2010PropOp43
 70
     1
102
RTVSPost2010Prop44ColorIndex
 90
        5
102
RTVSPost2010Prop44ColorRGB
 90
      255
102
RTVSPost2010PropOp44
 70
     1
102
RTVSPost2010Prop45
280
     0
102
RTVSPost2010PropOp45
 70
     1
102
RTVSPost2010Prop46
 90
       50
102
RTVSPost2010PropOp46
 70
     1
102
RTVSPost2010Prop47
 90
       50
102
RTVSPost2010PropOp47
 70
     1
102
RTVSPost2010Prop48
 90
       50
102
RTVSPost2010PropOp48
 70
     1
102
RTVSPost2010Prop49
280
     0
102
RTVSPost2010PropOp49
 70
     1
102
RTVSPost2010Prop50
 90
       50
102
RTVSPost2010PropOp50
 70
     1
102
RTVSPost2010Prop51ColorIndex
 90
      256
102
RTVSPost2010Prop51ColorRGB
 90
-16777216
102
RTVSPost2010PropOp51
 70
     0
102
RTVSPost2010Prop52
140
1.0
102
RTVSPost2010PropOp52
 70
     0
102
RTVSPost2010Prop53
 90
        2
102
RTVSPost2010PropOp53
 70
     1
102
RTVSPost2010Prop54
  1
strokes_ogs.tif
102
RTVSPost2010PropOp54
 70
     1
102
RTVSPost2010Prop55
280
     0
102
RTVSPost2010PropOp55
 70
     1
102
RTVSPost2010Prop56
140
1.0
102
RTVSPost2010PropOp56
 70
     1
102
RTVSPost2010Prop57
140
1.0
102
RTVSPost2010PropOp57
 70
     1
102
RTVSPropertyOp0
 70
     1
102
RTVSPropertyOp1
 70
     1
102
RTVSPropertyOp2
 70
     1
102
RTVSPropertyOp3
 70
     1
102
RTVSPropertyOp4
 70
     1
102
RTVSPropertyOp5
 70
     1
102
RTVSPropertyOp6
 70
     1
102
RTVSPropertyOp7
 70
     1
102
RTVSPropertyOp8
 70
     1
102
RTVSPropertyOp9
 70
     1
102
RTVSPropertyOp10
 70
     1
102
RTVSPropertyOp11
 70
     1
102
RTVSPropertyOp12
 70
     1
102
RTVSPropertyOp13
 70
     1
102
RTVSPropertyOp14
 70
     1
102
RTVSPropertyOp15
 70
     1
102
RTVSPropertyOp16
 70
     1
102
RTVSPropertyOp17
 70
     1
102
RTVSPropertyOp18
 70
     1
102
RTVSPropertyOp19
 70
     1
102
RTVSPropertyOp20
 70
     1
102
RTVSPropertyOp21
 70
     1
102
RTVSPropertyOp22
 70
     1
102
RTVSPropertyOp23
 70
     1
102
RTVSPropertyOp24
 70
     1
102
RTVSPropertyOp25
 70
     1
102
RTVSPropertyOp26
 70
     1
102
RTVSPropertyOp27
 70
     1
102
RTVSPropertyOp28
 70
     1
102
RTVSPropertyOp29
 70
     1
102
RTVSPropertyOp30
 70
     1
102
RTVSPropertyOp31
 70
     1
102
RTVSPropertyOp32
 70
     1
102
RTVSPropertyOp33
 70
     1
102
RTVSPropertyOp34
 70
     1
102
RTVSPropertyOp35
 70
     1
102
RTVSPropertyOp36
 70
     1
102
RTVSPropertyOp37
 70
     1
102
RTVSPropertyOp38
 70
     1
102
RTVSPropertyOp39
 70
     1
102
RTVSPropertyOp40
 70
     1
102
RTVSPropertyOp41
 70
     1
102
RTVSPropertyOp42
 70
     1
102
RTVSPropertyOp43
 70
     1
102
RTVSPropertyOp44
 70
     1
102
RTVSPropertyOp45
 70
     1
102
RTVSPropertyOp46
 70
     1
102
RTVSPropertyOp47
 70
     1
102
RTVSPropertyOp48
 70
     1
102
RTVSPropertyOp49
 70
     1
102
RTVSPropertyOp50
 70
     1
102
RTVSPropertyOp51
 70
     0
102
RTVSPropertyOp52
 70
     0
102
RTVSPropertyOp53
 70
     1
102
RTVSPropertyOp54
 70
     1
102
RTVSPropertyOp55
 70
     1
102
RTVSPropertyOp56
 70
     1
102
RTVSPropertyOp57
 70
     1
102
RTVSPropertyOp58
 70
     1
102
RTVSPropertyOp59
 70
     1
102
RTVSPropertyOp60
 70
     1
102
RTVSPropertyOp61
 70
     1
102
RTVSPropertyOp62
 70
     1
  0
XRECORD
  5
C781
102
{ACAD_REACTORS
330
C780
102
}
330
C780
100
AcDbXrecord
280
     1
102
RTVSPost2010Prop28
280
     0
102
RTVSPost2010PropOp28
 70
     1
102
RTVSPost2010Prop29
280
     1
102
RTVSPost2010PropOp29
 70
     1
102
RTVSPost2010Prop30
280
     1
102
RTVSPost2010PropOp30
 70
     1
102
RTVSPost2010Prop31
280
     0
102
RTVSPost2010PropOp31
 70
     1
102
RTVSPost2010Prop32
280
     0
102
RTVSPost2010PropOp32
 70
     1
102
RTVSPost2010Prop33
280
     0
102
RTVSPost2010PropOp33
 70
     1
102
RTVSPost2010Prop34
280
     0
102
RTVSPost2010PropOp34
 70
     1
102
RTVSPost2010Prop35
280
     0
102
RTVSPost2010PropOp35
 70
     1
102
RTVSPost2010Prop36
280
     0
102
RTVSPost2010PropOp36
 70
     1
102
RTVSPost2010Prop37
 90
       50
102
RTVSPost2010PropOp37
 70
     1
102
RTVSPost2010Prop38
140
0.0
102
RTVSPost2010PropOp38
 70
     1
102
RTVSPost2010Prop39
140
1.0
102
RTVSPost2010PropOp39
 70
     1
102
RTVSPost2010Prop40
 90
        0
102
RTVSPost2010PropOp40
 70
     1
102
RTVSPost2010Prop41ColorIndex
 90
       18
102
RTVSPost2010Prop41ColorRGB
 90
        0
102
RTVSPost2010PropOp41
 70
     1
102
RTVSPost2010Prop42
 90
       50
102
RTVSPost2010PropOp42
 70
     1
102
RTVSPost2010Prop43
 90
        3
102
RTVSPost2010PropOp43
 70
     1
102
RTVSPost2010Prop44ColorIndex
 90
        5
102
RTVSPost2010Prop44ColorRGB
 90
      255
102
RTVSPost2010PropOp44
 70
     1
102
RTVSPost2010Prop45
280
     0
102
RTVSPost2010PropOp45
 70
     1
102
RTVSPost2010Prop46
 90
       50
102
RTVSPost2010PropOp46
 70
     1
102
RTVSPost2010Prop47
 90
       50
102
RTVSPost2010PropOp47
 70
     1
102
RTVSPost2010Prop48
 90
       50
102
RTVSPost2010PropOp48
 70
     1
102
RTVSPost2010Prop49
280
     0
102
RTVSPost2010PropOp49
 70
     1
102
RTVSPost2010Prop50
 90
       50
102
RTVSPost2010PropOp50
 70
     1
102
RTVSPost2010Prop51ColorIndex
 90
      256
102
RTVSPost2010Prop51ColorRGB
 90
-16777216
102
RTVSPost2010PropOp51
 70
     0
102
RTVSPost2010Prop52
140
1.0
102
RTVSPost2010PropOp52
 70
     0
102
RTVSPost2010Prop53
 90
        2
102
RTVSPost2010PropOp53
 70
     1
102
RTVSPost2010Prop54
  1
strokes_ogs.tif
102
RTVSPost2010PropOp54
 70
     1
102
RTVSPost2010Prop55
280
     0
102
RTVSPost2010PropOp55
 70
     1
102
RTVSPost2010Prop56
140
1.0
102
RTVSPost2010PropOp56
 70
     1
102
RTVSPost2010Prop57
140
1.0
102
RTVSPost2010PropOp57
 70
     1
102
RTVSPropertyOp0
 70
     1
102
RTVSPropertyOp1
 70
     1
102
RTVSPropertyOp2
 70
     1
102
RTVSPropertyOp3
 70
     1
102
RTVSPropertyOp4
 70
     1
102
RTVSPropertyOp5
 70
     1
102
RTVSPropertyOp6
 70
     1
102
RTVSPropertyOp7
 70
     1
102
RTVSPropertyOp8
 70
     1
102
RTVSPropertyOp9
 70
     1
102
RTVSPropertyOp10
 70
     1
102
RTVSPropertyOp11
 70
     1
102
RTVSPropertyOp12
 70
     1
102
RTVSPropertyOp13
 70
     1
102
RTVSPropertyOp14
 70
     1
102
RTVSPropertyOp15
 70
     1
102
RTVSPropertyOp16
 70
     1
102
RTVSPropertyOp17
 70
     1
102
RTVSPropertyOp18
 70
     1
102
RTVSPropertyOp19
 70
     1
102
RTVSPropertyOp20
 70
     1
102
RTVSPropertyOp21
 70
     1
102
RTVSPropertyOp22
 70
     1
102
RTVSPropertyOp23
 70
     1
102
RTVSPropertyOp24
 70
     1
102
RTVSPropertyOp25
 70
     1
102
RTVSPropertyOp26
 70
     1
102
RTVSPropertyOp27
 70
     1
102
RTVSPropertyOp28
 70
     1
102
RTVSPropertyOp29
 70
     1
102
RTVSPropertyOp30
 70
     1
102
RTVSPropertyOp31
 70
     1
102
RTVSPropertyOp32
 70
     1
102
RTVSPropertyOp33
 70
     1
102
RTVSPropertyOp34
 70
     1
102
RTVSPropertyOp35
 70
     1
102
RTVSPropertyOp36
 70
     1
102
RTVSPropertyOp37
 70
     1
102
RTVSPropertyOp38
 70
     1
102
RTVSPropertyOp39
 70
     1
102
RTVSPropertyOp40
 70
     1
102
RTVSPropertyOp41
 70
     1
102
RTVSPropertyOp42
 70
     1
102
RTVSPropertyOp43
 70
     1
102
RTVSPropertyOp44
 70
     1
102
RTVSPropertyOp45
 70
     1
102
RTVSPropertyOp46
 70
     1
102
RTVSPropertyOp47
 70
     1
102
RTVSPropertyOp48
 70
     1
102
RTVSPropertyOp49
 70
     1
102
RTVSPropertyOp50
 70
     1
102
RTVSPropertyOp51
 70
     0
102
RTVSPropertyOp52
 70
     0
102
RTVSPropertyOp53
 70
     1
102
RTVSPropertyOp54
 70
     1
102
RTVSPropertyOp55
 70
     1
102
RTVSPropertyOp56
 70
     1
102
RTVSPropertyOp57
 70
     1
102
RTVSPropertyOp58
 70
     1
102
RTVSPropertyOp59
 70
     1
102
RTVSPropertyOp60
 70
     1
102
RTVSPropertyOp61
 70
     1
102
RTVSPropertyOp62
 70
     1
  0
XRECORD
  5
C789
102
{ACAD_REACTORS
330
C788
102
}
330
C788
100
AcDbXrecord
280
     1
102
RTVSPost2010Prop28
280
     0
102
RTVSPost2010PropOp28
 70
     1
102
RTVSPost2010Prop29
280
     1
102
RTVSPost2010PropOp29
 70
     1
102
RTVSPost2010Prop30
280
     1
102
RTVSPost2010PropOp30
 70
     1
102
RTVSPost2010Prop31
280
     0
102
RTVSPost2010PropOp31
 70
     1
102
RTVSPost2010Prop32
280
     0
102
RTVSPost2010PropOp32
 70
     1
102
RTVSPost2010Prop33
280
     0
102
RTVSPost2010PropOp33
 70
     1
102
RTVSPost2010Prop34
280
     0
102
RTVSPost2010PropOp34
 70
     1
102
RTVSPost2010Prop35
280
     0
102
RTVSPost2010PropOp35
 70
     1
102
RTVSPost2010Prop36
280
     0
102
RTVSPost2010PropOp36
 70
     1
102
RTVSPost2010Prop37
 90
       50
102
RTVSPost2010PropOp37
 70
     1
102
RTVSPost2010Prop38
140
0.0
102
RTVSPost2010PropOp38
 70
     1
102
RTVSPost2010Prop39
140
1.0
102
RTVSPost2010PropOp39
 70
     1
102
RTVSPost2010Prop40
 90
        0
102
RTVSPost2010PropOp40
 70
     1
102
RTVSPost2010Prop41ColorIndex
 90
       18
102
RTVSPost2010Prop41ColorRGB
 90
        0
102
RTVSPost2010PropOp41
 70
     1
102
RTVSPost2010Prop42
 90
       50
102
RTVSPost2010PropOp42
 70
     1
102
RTVSPost2010Prop43
 90
        3
102
RTVSPost2010PropOp43
 70
     1
102
RTVSPost2010Prop44ColorIndex
 90
        5
102
RTVSPost2010Prop44ColorRGB
 90
      255
102
RTVSPost2010PropOp44
 70
     1
102
RTVSPost2010Prop45
280
     0
102
RTVSPost2010PropOp45
 70
     1
102
RTVSPost2010Prop46
 90
       50
102
RTVSPost2010PropOp46
 70
     1
102
RTVSPost2010Prop47
 90
       50
102
RTVSPost2010PropOp47
 70
     1
102
RTVSPost2010Prop48
 90
       50
102
RTVSPost2010PropOp48
 70
     1
102
RTVSPost2010Prop49
280
     0
102
RTVSPost2010PropOp49
 70
     1
102
RTVSPost2010Prop50
 90
       50
102
RTVSPost2010PropOp50
 70
     1
102
RTVSPost2010Prop51ColorIndex
 90
      256
102
RTVSPost2010Prop51ColorRGB
 90
-16777216
102
RTVSPost2010PropOp51
 70
     0
102
RTVSPost2010Prop52
140
1.0
102
RTVSPost2010PropOp52
 70
     0
102
RTVSPost2010Prop53
 90
        2
102
RTVSPost2010PropOp53
 70
     1
102
RTVSPost2010Prop54
  1
strokes_ogs.tif
102
RTVSPost2010PropOp54
 70
     1
102
RTVSPost2010Prop55
280
     0
102
RTVSPost2010PropOp55
 70
     1
102
RTVSPost2010Prop56
140
1.0
102
RTVSPost2010PropOp56
 70
     1
102
RTVSPost2010Prop57
140
1.0
102
RTVSPost2010PropOp57
 70
     1
102
RTVSPropertyOp0
 70
     1
102
RTVSPropertyOp1
 70
     1
102
RTVSPropertyOp2
 70
     1
102
RTVSPropertyOp3
 70
     1
102
RTVSPropertyOp4
 70
     1
102
RTVSPropertyOp5
 70
     1
102
RTVSPropertyOp6
 70
     1
102
RTVSPropertyOp7
 70
     1
102
RTVSPropertyOp8
 70
     1
102
RTVSPropertyOp9
 70
     1
102
RTVSPropertyOp10
 70
     1
102
RTVSPropertyOp11
 70
     1
102
RTVSPropertyOp12
 70
     1
102
RTVSPropertyOp13
 70
     1
102
RTVSPropertyOp14
 70
     1
102
RTVSPropertyOp15
 70
     1
102
RTVSPropertyOp16
 70
     1
102
RTVSPropertyOp17
 70
     1
102
RTVSPropertyOp18
 70
     1
102
RTVSPropertyOp19
 70
     1
102
RTVSPropertyOp20
 70
     1
102
RTVSPropertyOp21
 70
     1
102
RTVSPropertyOp22
 70
     1
102
RTVSPropertyOp23
 70
     1
102
RTVSPropertyOp24
 70
     1
102
RTVSPropertyOp25
 70
     1
102
RTVSPropertyOp26
 70
     1
102
RTVSPropertyOp27
 70
     1
102
RTVSPropertyOp28
 70
     1
102
RTVSPropertyOp29
 70
     1
102
RTVSPropertyOp30
 70
     1
102
RTVSPropertyOp31
 70
     1
102
RTVSPropertyOp32
 70
     1
102
RTVSPropertyOp33
 70
     1
102
RTVSPropertyOp34
 70
     1
102
RTVSPropertyOp35
 70
     1
102
RTVSPropertyOp36
 70
     1
102
RTVSPropertyOp37
 70
     1
102
RTVSPropertyOp38
 70
     1
102
RTVSPropertyOp39
 70
     1
102
RTVSPropertyOp40
 70
     1
102
RTVSPropertyOp41
 70
     1
102
RTVSPropertyOp42
 70
     1
102
RTVSPropertyOp43
 70
     1
102
RTVSPropertyOp44
 70
     1
102
RTVSPropertyOp45
 70
     1
102
RTVSPropertyOp46
 70
     1
102
RTVSPropertyOp47
 70
     1
102
RTVSPropertyOp48
 70
     1
102
RTVSPropertyOp49
 70
     1
102
RTVSPropertyOp50
 70
     1
102
RTVSPropertyOp51
 70
     0
102
RTVSPropertyOp52
 70
     0
102
RTVSPropertyOp53
 70
     1
102
RTVSPropertyOp54
 70
     1
102
RTVSPropertyOp55
 70
     1
102
RTVSPropertyOp56
 70
     1
102
RTVSPropertyOp57
 70
     1
102
RTVSPropertyOp58
 70
     1
102
RTVSPropertyOp59
 70
     1
102
RTVSPropertyOp60
 70
     1
102
RTVSPropertyOp61
 70
     1
102
RTVSPropertyOp62
 70
     1
  0
XRECORD
  5
C77B
102
{ACAD_REACTORS
330
C77A
102
}
330
C77A
100
AcDbXrecord
280
     1
102
RTVSPost2010Prop28
280
     0
102
RTVSPost2010PropOp28
 70
     1
102
RTVSPost2010Prop29
280
     1
102
RTVSPost2010PropOp29
 70
     1
102
RTVSPost2010Prop30
280
     1
102
RTVSPost2010PropOp30
 70
     1
102
RTVSPost2010Prop31
280
     0
102
RTVSPost2010PropOp31
 70
     1
102
RTVSPost2010Prop32
280
     0
102
RTVSPost2010PropOp32
 70
     1
102
RTVSPost2010Prop33
280
     0
102
RTVSPost2010PropOp33
 70
     1
102
RTVSPost2010Prop34
280
     0
102
RTVSPost2010PropOp34
 70
     1
102
RTVSPost2010Prop35
280
     0
102
RTVSPost2010PropOp35
 70
     1
102
RTVSPost2010Prop36
280
     0
102
RTVSPost2010PropOp36
 70
     1
102
RTVSPost2010Prop37
 90
       50
102
RTVSPost2010PropOp37
 70
     1
102
RTVSPost2010Prop38
140
0.0
102
RTVSPost2010PropOp38
 70
     1
102
RTVSPost2010Prop39
140
1.0
102
RTVSPost2010PropOp39
 70
     1
102
RTVSPost2010Prop40
 90
        0
102
RTVSPost2010PropOp40
 70
     1
102
RTVSPost2010Prop41ColorIndex
 90
       18
102
RTVSPost2010Prop41ColorRGB
 90
        0
102
RTVSPost2010PropOp41
 70
     1
102
RTVSPost2010Prop42
 90
       50
102
RTVSPost2010PropOp42
 70
     1
102
RTVSPost2010Prop43
 90
        3
102
RTVSPost2010PropOp43
 70
     1
102
RTVSPost2010Prop44ColorIndex
 90
        5
102
RTVSPost2010Prop44ColorRGB
 90
      255
102
RTVSPost2010PropOp44
 70
     1
102
RTVSPost2010Prop45
280
     0
102
RTVSPost2010PropOp45
 70
     1
102
RTVSPost2010Prop46
 90
       50
102
RTVSPost2010PropOp46
 70
     1
102
RTVSPost2010Prop47
 90
       50
102
RTVSPost2010PropOp47
 70
     1
102
RTVSPost2010Prop48
 90
       50
102
RTVSPost2010PropOp48
 70
     1
102
RTVSPost2010Prop49
280
     0
102
RTVSPost2010PropOp49
 70
     1
102
RTVSPost2010Prop50
 90
       50
102
RTVSPost2010PropOp50
 70
     1
102
RTVSPost2010Prop51ColorIndex
 90
      256
102
RTVSPost2010Prop51ColorRGB
 90
-16777216
102
RTVSPost2010PropOp51
 70
     0
102
RTVSPost2010Prop52
140
1.0
102
RTVSPost2010PropOp52
 70
     0
102
RTVSPost2010Prop53
 90
        2
102
RTVSPost2010PropOp53
 70
     1
102
RTVSPost2010Prop54
  1
strokes_ogs.tif
102
RTVSPost2010PropOp54
 70
     1
102
RTVSPost2010Prop55
280
     0
102
RTVSPost2010PropOp55
 70
     1
102
RTVSPost2010Prop56
140
1.0
102
RTVSPost2010PropOp56
 70
     1
102
RTVSPost2010Prop57
140
1.0
102
RTVSPost2010PropOp57
 70
     1
102
RTVSPropertyOp0
 70
     1
102
RTVSPropertyOp1
 70
     1
102
RTVSPropertyOp2
 70
     1
102
RTVSPropertyOp3
 70
     1
102
RTVSPropertyOp4
 70
     1
102
RTVSPropertyOp5
 70
     1
102
RTVSPropertyOp6
 70
     1
102
RTVSPropertyOp7
 70
     1
102
RTVSPropertyOp8
 70
     1
102
RTVSPropertyOp9
 70
     1
102
RTVSPropertyOp10
 70
     1
102
RTVSPropertyOp11
 70
     1
102
RTVSPropertyOp12
 70
     1
102
RTVSPropertyOp13
 70
     1
102
RTVSPropertyOp14
 70
     1
102
RTVSPropertyOp15
 70
     1
102
RTVSPropertyOp16
 70
     1
102
RTVSPropertyOp17
 70
     1
102
RTVSPropertyOp18
 70
     1
102
RTVSPropertyOp19
 70
     1
102
RTVSPropertyOp20
 70
     1
102
RTVSPropertyOp21
 70
     1
102
RTVSPropertyOp22
 70
     1
102
RTVSPropertyOp23
 70
     1
102
RTVSPropertyOp24
 70
     1
102
RTVSPropertyOp25
 70
     1
102
RTVSPropertyOp26
 70
     1
102
RTVSPropertyOp27
 70
     1
102
RTVSPropertyOp28
 70
     1
102
RTVSPropertyOp29
 70
     1
102
RTVSPropertyOp30
 70
     1
102
RTVSPropertyOp31
 70
     1
102
RTVSPropertyOp32
 70
     1
102
RTVSPropertyOp33
 70
     1
102
RTVSPropertyOp34
 70
     1
102
RTVSPropertyOp35
 70
     1
102
RTVSPropertyOp36
 70
     1
102
RTVSPropertyOp37
 70
     1
102
RTVSPropertyOp38
 70
     1
102
RTVSPropertyOp39
 70
     1
102
RTVSPropertyOp40
 70
     1
102
RTVSPropertyOp41
 70
     1
102
RTVSPropertyOp42
 70
     1
102
RTVSPropertyOp43
 70
     1
102
RTVSPropertyOp44
 70
     1
102
RTVSPropertyOp45
 70
     1
102
RTVSPropertyOp46
 70
     1
102
RTVSPropertyOp47
 70
     1
102
RTVSPropertyOp48
 70
     1
102
RTVSPropertyOp49
 70
     1
102
RTVSPropertyOp50
 70
     1
102
RTVSPropertyOp51
 70
     0
102
RTVSPropertyOp52
 70
     0
102
RTVSPropertyOp53
 70
     1
102
RTVSPropertyOp54
 70
     1
102
RTVSPropertyOp55
 70
     1
102
RTVSPropertyOp56
 70
     1
102
RTVSPropertyOp57
 70
     1
102
RTVSPropertyOp58
 70
     1
102
RTVSPropertyOp59
 70
     1
102
RTVSPropertyOp60
 70
     1
102
RTVSPropertyOp61
 70
     1
102
RTVSPropertyOp62
 70
     1
  0
XRECORD
  5
C77F
102
{ACAD_REACTORS
330
C77E
102
}
330
C77E
100
AcDbXrecord
280
     1
102
RTVSPost2010Prop28
280
     0
102
RTVSPost2010PropOp28
 70
     1
102
RTVSPost2010Prop29
280
     1
102
RTVSPost2010PropOp29
 70
     1
102
RTVSPost2010Prop30
280
     1
102
RTVSPost2010PropOp30
 70
     1
102
RTVSPost2010Prop31
280
     0
102
RTVSPost2010PropOp31
 70
     1
102
RTVSPost2010Prop32
280
     0
102
RTVSPost2010PropOp32
 70
     1
102
RTVSPost2010Prop33
280
     0
102
RTVSPost2010PropOp33
 70
     1
102
RTVSPost2010Prop34
280
     0
102
RTVSPost2010PropOp34
 70
     1
102
RTVSPost2010Prop35
280
     0
102
RTVSPost2010PropOp35
 70
     1
102
RTVSPost2010Prop36
280
     0
102
RTVSPost2010PropOp36
 70
     1
102
RTVSPost2010Prop37
 90
       50
102
RTVSPost2010PropOp37
 70
     1
102
RTVSPost2010Prop38
140
0.0
102
RTVSPost2010PropOp38
 70
     1
102
RTVSPost2010Prop39
140
1.0
102
RTVSPost2010PropOp39
 70
     1
102
RTVSPost2010Prop40
 90
        0
102
RTVSPost2010PropOp40
 70
     1
102
RTVSPost2010Prop41ColorIndex
 90
       18
102
RTVSPost2010Prop41ColorRGB
 90
        0
102
RTVSPost2010PropOp41
 70
     1
102
RTVSPost2010Prop42
 90
       50
102
RTVSPost2010PropOp42
 70
     1
102
RTVSPost2010Prop43
 90
        3
102
RTVSPost2010PropOp43
 70
     1
102
RTVSPost2010Prop44ColorIndex
 90
        5
102
RTVSPost2010Prop44ColorRGB
 90
      255
102
RTVSPost2010PropOp44
 70
     1
102
RTVSPost2010Prop45
280
     0
102
RTVSPost2010PropOp45
 70
     1
102
RTVSPost2010Prop46
 90
       50
102
RTVSPost2010PropOp46
 70
     1
102
RTVSPost2010Prop47
 90
       50
102
RTVSPost2010PropOp47
 70
     1
102
RTVSPost2010Prop48
 90
       50
102
RTVSPost2010PropOp48
 70
     1
102
RTVSPost2010Prop49
280
     0
102
RTVSPost2010PropOp49
 70
     1
102
RTVSPost2010Prop50
 90
       50
102
RTVSPost2010PropOp50
 70
     1
102
RTVSPost2010Prop51ColorIndex
 90
      256
102
RTVSPost2010Prop51ColorRGB
 90
-16777216
102
RTVSPost2010PropOp51
 70
     0
102
RTVSPost2010Prop52
140
1.0
102
RTVSPost2010PropOp52
 70
     0
102
RTVSPost2010Prop53
 90
        2
102
RTVSPost2010PropOp53
 70
     1
102
RTVSPost2010Prop54
  1
strokes_ogs.tif
102
RTVSPost2010PropOp54
 70
     1
102
RTVSPost2010Prop55
280
     0
102
RTVSPost2010PropOp55
 70
     1
102
RTVSPost2010Prop56
140
1.0
102
RTVSPost2010PropOp56
 70
     1
102
RTVSPost2010Prop57
140
1.0
102
RTVSPost2010PropOp57
 70
     1
102
RTVSPropertyOp0
 70
     1
102
RTVSPropertyOp1
 70
     1
102
RTVSPropertyOp2
 70
     1
102
RTVSPropertyOp3
 70
     1
102
RTVSPropertyOp4
 70
     1
102
RTVSPropertyOp5
 70
     1
102
RTVSPropertyOp6
 70
     1
102
RTVSPropertyOp7
 70
     1
102
RTVSPropertyOp8
 70
     1
102
RTVSPropertyOp9
 70
     1
102
RTVSPropertyOp10
 70
     1
102
RTVSPropertyOp11
 70
     1
102
RTVSPropertyOp12
 70
     1
102
RTVSPropertyOp13
 70
     1
102
RTVSPropertyOp14
 70
     1
102
RTVSPropertyOp15
 70
     1
102
RTVSPropertyOp16
 70
     1
102
RTVSPropertyOp17
 70
     1
102
RTVSPropertyOp18
 70
     1
102
RTVSPropertyOp19
 70
     1
102
RTVSPropertyOp20
 70
     1
102
RTVSPropertyOp21
 70
     1
102
RTVSPropertyOp22
 70
     1
102
RTVSPropertyOp23
 70
     1
102
RTVSPropertyOp24
 70
     1
102
RTVSPropertyOp25
 70
     1
102
RTVSPropertyOp26
 70
     1
102
RTVSPropertyOp27
 70
     1
102
RTVSPropertyOp28
 70
     1
102
RTVSPropertyOp29
 70
     1
102
RTVSPropertyOp30
 70
     1
102
RTVSPropertyOp31
 70
     1
102
RTVSPropertyOp32
 70
     1
102
RTVSPropertyOp33
 70
     1
102
RTVSPropertyOp34
 70
     1
102
RTVSPropertyOp35
 70
     1
102
RTVSPropertyOp36
 70
     1
102
RTVSPropertyOp37
 70
     1
102
RTVSPropertyOp38
 70
     1
102
RTVSPropertyOp39
 70
     1
102
RTVSPropertyOp40
 70
     1
102
RTVSPropertyOp41
 70
     1
102
RTVSPropertyOp42
 70
     1
102
RTVSPropertyOp43
 70
     1
102
RTVSPropertyOp44
 70
     1
102
RTVSPropertyOp45
 70
     1
102
RTVSPropertyOp46
 70
     1
102
RTVSPropertyOp47
 70
     1
102
RTVSPropertyOp48
 70
     1
102
RTVSPropertyOp49
 70
     1
102
RTVSPropertyOp50
 70
     1
102
RTVSPropertyOp51
 70
     0
102
RTVSPropertyOp52
 70
     0
102
RTVSPropertyOp53
 70
     1
102
RTVSPropertyOp54
 70
     1
102
RTVSPropertyOp55
 70
     1
102
RTVSPropertyOp56
 70
     1
102
RTVSPropertyOp57
 70
     1
102
RTVSPropertyOp58
 70
     1
102
RTVSPropertyOp59
 70
     1
102
RTVSPropertyOp60
 70
     1
102
RTVSPropertyOp61
 70
     1
102
RTVSPropertyOp62
 70
     1
  0
XRECORD
  5
C799
102
{ACAD_REACTORS
330
C798
102
}
330
C798
100
AcDbXrecord
280
     1
102
RTVSPost2010Prop28
280
     0
102
RTVSPost2010PropOp28
 70
     1
102
RTVSPost2010Prop29
280
     1
102
RTVSPost2010PropOp29
 70
     1
102
RTVSPost2010Prop30
280
     1
102
RTVSPost2010PropOp30
 70
     1
102
RTVSPost2010Prop31
280
     0
102
RTVSPost2010PropOp31
 70
     1
102
RTVSPost2010Prop32
280
     0
102
RTVSPost2010PropOp32
 70
     1
102
RTVSPost2010Prop33
280
     0
102
RTVSPost2010PropOp33
 70
     1
102
RTVSPost2010Prop34
280
     0
102
RTVSPost2010PropOp34
 70
     1
102
RTVSPost2010Prop35
280
     0
102
RTVSPost2010PropOp35
 70
     1
102
RTVSPost2010Prop36
280
     0
102
RTVSPost2010PropOp36
 70
     1
102
RTVSPost2010Prop37
 90
       50
102
RTVSPost2010PropOp37
 70
     0
102
RTVSPost2010Prop38
140
0.0
102
RTVSPost2010PropOp38
 70
     0
102
RTVSPost2010Prop39
140
1.0
102
RTVSPost2010PropOp39
 70
     0
102
RTVSPost2010Prop40
 90
        0
102
RTVSPost2010PropOp40
 70
     0
102
RTVSPost2010Prop41ColorIndex
 90
       18
102
RTVSPost2010Prop41ColorRGB
 90
        0
102
RTVSPost2010PropOp41
 70
     0
102
RTVSPost2010Prop42
 90
       50
102
RTVSPost2010PropOp42
 70
     0
102
RTVSPost2010Prop43
 90
        3
102
RTVSPost2010PropOp43
 70
     0
102
RTVSPost2010Prop44ColorIndex
 90
        5
102
RTVSPost2010Prop44ColorRGB
 90
      255
102
RTVSPost2010PropOp44
 70
     0
102
RTVSPost2010Prop45
280
     0
102
RTVSPost2010PropOp45
 70
     1
102
RTVSPost2010Prop46
 90
       50
102
RTVSPost2010PropOp46
 70
     0
102
RTVSPost2010Prop47
 90
       50
102
RTVSPost2010PropOp47
 70
     0
102
RTVSPost2010Prop48
 90
       50
102
RTVSPost2010PropOp48
 70
     0
102
RTVSPost2010Prop49
280
     0
102
RTVSPost2010PropOp49
 70
     1
102
RTVSPost2010Prop50
 90
       50
102
RTVSPost2010PropOp50
 70
     0
102
RTVSPost2010Prop51ColorIndex
 90
      256
102
RTVSPost2010Prop51ColorRGB
 90
-16777216
102
RTVSPost2010PropOp51
 70
     0
102
RTVSPost2010Prop52
140
1.0
102
RTVSPost2010PropOp52
 70
     0
102
RTVSPost2010Prop53
 90
        2
102
RTVSPost2010PropOp53
 70
     0
102
RTVSPost2010Prop54
  1
strokes_ogs.tif
102
RTVSPost2010PropOp54
 70
     0
102
RTVSPost2010Prop55
280
     0
102
RTVSPost2010PropOp55
 70
     1
102
RTVSPost2010Prop56
140
1.0
102
RTVSPost2010PropOp56
 70
     0
102
RTVSPost2010Prop57
140
1.0
102
RTVSPost2010PropOp57
 70
     0
102
RTVSPropertyOp0
 70
     0
102
RTVSPropertyOp1
 70
     0
102
RTVSPropertyOp2
 70
     0
102
RTVSPropertyOp3
 70
     0
102
RTVSPropertyOp4
 70
     0
102
RTVSPropertyOp5
 70
     0
102
RTVSPropertyOp6
 70
     0
102
RTVSPropertyOp7
 70
     0
102
RTVSPropertyOp8
 70
     0
102
RTVSPropertyOp9
 70
     0
102
RTVSPropertyOp10
 70
     0
102
RTVSPropertyOp11
 70
     0
102
RTVSPropertyOp12
 70
     0
102
RTVSPropertyOp13
 70
     0
102
RTVSPropertyOp14
 70
     2
102
RTVSPropertyOp15
 70
     0
102
RTVSPropertyOp16
 70
     0
102
RTVSPropertyOp17
 70
     0
102
RTVSPropertyOp18
 70
     0
102
RTVSPropertyOp19
 70
     0
102
RTVSPropertyOp20
 70
     0
102
RTVSPropertyOp21
 70
     0
102
RTVSPropertyOp22
 70
     0
102
RTVSPropertyOp23
 70
     0
102
RTVSPropertyOp24
 70
     0
102
RTVSPropertyOp25
 70
     0
102
RTVSPropertyOp26
 70
     0
102
RTVSPropertyOp27
 70
     0
102
RTVSPropertyOp28
 70
     1
102
RTVSPropertyOp29
 70
     1
102
RTVSPropertyOp30
 70
     1
102
RTVSPropertyOp31
 70
     1
102
RTVSPropertyOp32
 70
     1
102
RTVSPropertyOp33
 70
     1
102
RTVSPropertyOp34
 70
     1
102
RTVSPropertyOp35
 70
     1
102
RTVSPropertyOp36
 70
     1
102
RTVSPropertyOp37
 70
     0
102
RTVSPropertyOp38
 70
     0
102
RTVSPropertyOp39
 70
     0
102
RTVSPropertyOp40
 70
     0
102
RTVSPropertyOp41
 70
     0
102
RTVSPropertyOp42
 70
     0
102
RTVSPropertyOp43
 70
     0
102
RTVSPropertyOp44
 70
     0
102
RTVSPropertyOp45
 70
     1
102
RTVSPropertyOp46
 70
     0
102
RTVSPropertyOp47
 70
     0
102
RTVSPropertyOp48
 70
     0
102
RTVSPropertyOp49
 70
     1
102
RTVSPropertyOp50
 70
     0
102
RTVSPropertyOp51
 70
     0
102
RTVSPropertyOp52
 70
     0
102
RTVSPropertyOp53
 70
     0
102
RTVSPropertyOp54
 70
     0
102
RTVSPropertyOp55
 70
     1
102
RTVSPropertyOp56
 70
     0
102
RTVSPropertyOp57
 70
     0
102
RTVSPropertyOp58
 70
     0
102
RTVSPropertyOp59
 70
     0
102
RTVSPropertyOp60
 70
     0
102
RTVSPropertyOp61
 70
     0
102
RTVSPropertyOp62
 70
     0
  0
XRECORD
  5
C787
102
{ACAD_REACTORS
330
C786
102
}
330
C786
100
AcDbXrecord
280
     1
102
RTVSPost2010Prop28
280
     0
102
RTVSPost2010PropOp28
 70
     1
102
RTVSPost2010Prop29
280
     1
102
RTVSPost2010PropOp29
 70
     1
102
RTVSPost2010Prop30
280
     1
102
RTVSPost2010PropOp30
 70
     1
102
RTVSPost2010Prop31
280
     0
102
RTVSPost2010PropOp31
 70
     1
102
RTVSPost2010Prop32
280
     0
102
RTVSPost2010PropOp32
 70
     1
102
RTVSPost2010Prop33
280
     0
102
RTVSPost2010PropOp33
 70
     1
102
RTVSPost2010Prop34
280
     0
102
RTVSPost2010PropOp34
 70
     1
102
RTVSPost2010Prop35
280
     0
102
RTVSPost2010PropOp35
 70
     1
102
RTVSPost2010Prop36
280
     0
102
RTVSPost2010PropOp36
 70
     1
102
RTVSPost2010Prop37
 90
       50
102
RTVSPost2010PropOp37
 70
     1
102
RTVSPost2010Prop38
140
0.0
102
RTVSPost2010PropOp38
 70
     1
102
RTVSPost2010Prop39
140
1.0
102
RTVSPost2010PropOp39
 70
     1
102
RTVSPost2010Prop40
 90
        0
102
RTVSPost2010PropOp40
 70
     1
102
RTVSPost2010Prop41ColorIndex
 90
       18
102
RTVSPost2010Prop41ColorRGB
 90
        0
102
RTVSPost2010PropOp41
 70
     1
102
RTVSPost2010Prop42
 90
       50
102
RTVSPost2010PropOp42
 70
     1
102
RTVSPost2010Prop43
 90
        3
102
RTVSPost2010PropOp43
 70
     1
102
RTVSPost2010Prop44ColorIndex
 90
        5
102
RTVSPost2010Prop44ColorRGB
 90
      255
102
RTVSPost2010PropOp44
 70
     1
102
RTVSPost2010Prop45
280
     0
102
RTVSPost2010PropOp45
 70
     1
102
RTVSPost2010Prop46
 90
       50
102
RTVSPost2010PropOp46
 70
     1
102
RTVSPost2010Prop47
 90
       50
102
RTVSPost2010PropOp47
 70
     1
102
RTVSPost2010Prop48
 90
       50
102
RTVSPost2010PropOp48
 70
     1
102
RTVSPost2010Prop49
280
     0
102
RTVSPost2010PropOp49
 70
     1
102
RTVSPost2010Prop50
 90
       50
102
RTVSPost2010PropOp50
 70
     1
102
RTVSPost2010Prop51ColorIndex
 90
      256
102
RTVSPost2010Prop51ColorRGB
 90
-16777216
102
RTVSPost2010PropOp51
 70
     0
102
RTVSPost2010Prop52
140
1.0
102
RTVSPost2010PropOp52
 70
     0
102
RTVSPost2010Prop53
 90
        2
102
RTVSPost2010PropOp53
 70
     1
102
RTVSPost2010Prop54
  1
strokes_ogs.tif
102
RTVSPost2010PropOp54
 70
     1
102
RTVSPost2010Prop55
280
     0
102
RTVSPost2010PropOp55
 70
     1
102
RTVSPost2010Prop56
140
1.0
102
RTVSPost2010PropOp56
 70
     1
102
RTVSPost2010Prop57
140
1.0
102
RTVSPost2010PropOp57
 70
     1
102
RTVSPropertyOp0
 70
     1
102
RTVSPropertyOp1
 70
     1
102
RTVSPropertyOp2
 70
     1
102
RTVSPropertyOp3
 70
     1
102
RTVSPropertyOp4
 70
     1
102
RTVSPropertyOp5
 70
     1
102
RTVSPropertyOp6
 70
     1
102
RTVSPropertyOp7
 70
     1
102
RTVSPropertyOp8
 70
     1
102
RTVSPropertyOp9
 70
     1
102
RTVSPropertyOp10
 70
     1
102
RTVSPropertyOp11
 70
     1
102
RTVSPropertyOp12
 70
     1
102
RTVSPropertyOp13
 70
     1
102
RTVSPropertyOp14
 70
     1
102
RTVSPropertyOp15
 70
     1
102
RTVSPropertyOp16
 70
     1
102
RTVSPropertyOp17
 70
     1
102
RTVSPropertyOp18
 70
     1
102
RTVSPropertyOp19
 70
     1
102
RTVSPropertyOp20
 70
     1
102
RTVSPropertyOp21
 70
     1
102
RTVSPropertyOp22
 70
     1
102
RTVSPropertyOp23
 70
     1
102
RTVSPropertyOp24
 70
     1
102
RTVSPropertyOp25
 70
     1
102
RTVSPropertyOp26
 70
     1
102
RTVSPropertyOp27
 70
     1
102
RTVSPropertyOp28
 70
     1
102
RTVSPropertyOp29
 70
     1
102
RTVSPropertyOp30
 70
     1
102
RTVSPropertyOp31
 70
     1
102
RTVSPropertyOp32
 70
     1
102
RTVSPropertyOp33
 70
     1
102
RTVSPropertyOp34
 70
     1
102
RTVSPropertyOp35
 70
     1
102
RTVSPropertyOp36
 70
     1
102
RTVSPropertyOp37
 70
     1
102
RTVSPropertyOp38
 70
     1
102
RTVSPropertyOp39
 70
     1
102
RTVSPropertyOp40
 70
     1
102
RTVSPropertyOp41
 70
     1
102
RTVSPropertyOp42
 70
     1
102
RTVSPropertyOp43
 70
     1
102
RTVSPropertyOp44
 70
     1
102
RTVSPropertyOp45
 70
     1
102
RTVSPropertyOp46
 70
     1
102
RTVSPropertyOp47
 70
     1
102
RTVSPropertyOp48
 70
     1
102
RTVSPropertyOp49
 70
     1
102
RTVSPropertyOp50
 70
     1
102
RTVSPropertyOp51
 70
     0
102
RTVSPropertyOp52
 70
     0
102
RTVSPropertyOp53
 70
     1
102
RTVSPropertyOp54
 70
     1
102
RTVSPropertyOp55
 70
     1
102
RTVSPropertyOp56
 70
     1
102
RTVSPropertyOp57
 70
     1
102
RTVSPropertyOp58
 70
     1
102
RTVSPropertyOp59
 70
     1
102
RTVSPropertyOp60
 70
     1
102
RTVSPropertyOp61
 70
     1
102
RTVSPropertyOp62
 70
     1
  0
XRECORD
  5
C76B
102
{ACAD_REACTORS
330
C76A
102
}
330
C76A
100
AcDbXrecord
280
     1
102
RTVSPost2010Prop28
280
     0
102
RTVSPost2010PropOp28
 70
     1
102
RTVSPost2010Prop29
280
     1
102
RTVSPost2010PropOp29
 70
     1
102
RTVSPost2010Prop30
280
     1
102
RTVSPost2010PropOp30
 70
     1
102
RTVSPost2010Prop31
280
     0
102
RTVSPost2010PropOp31
 70
     1
102
RTVSPost2010Prop32
280
     0
102
RTVSPost2010PropOp32
 70
     1
102
RTVSPost2010Prop33
280
     0
102
RTVSPost2010PropOp33
 70
     1
102
RTVSPost2010Prop34
280
     0
102
RTVSPost2010PropOp34
 70
     1
102
RTVSPost2010Prop35
280
     0
102
RTVSPost2010PropOp35
 70
     1
102
RTVSPost2010Prop36
280
     0
102
RTVSPost2010PropOp36
 70
     1
102
RTVSPost2010Prop37
 90
       50
102
RTVSPost2010PropOp37
 70
     1
102
RTVSPost2010Prop38
140
0.0
102
RTVSPost2010PropOp38
 70
     1
102
RTVSPost2010Prop39
140
1.0
102
RTVSPost2010PropOp39
 70
     1
102
RTVSPost2010Prop40
 90
        0
102
RTVSPost2010PropOp40
 70
     1
102
RTVSPost2010Prop41ColorIndex
 90
       18
102
RTVSPost2010Prop41ColorRGB
 90
        0
102
RTVSPost2010PropOp41
 70
     1
102
RTVSPost2010Prop42
 90
       50
102
RTVSPost2010PropOp42
 70
     1
102
RTVSPost2010Prop43
 90
        3
102
RTVSPost2010PropOp43
 70
     1
102
RTVSPost2010Prop44ColorIndex
 90
        5
102
RTVSPost2010Prop44ColorRGB
 90
      255
102
RTVSPost2010PropOp44
 70
     1
102
RTVSPost2010Prop45
280
     0
102
RTVSPost2010PropOp45
 70
     1
102
RTVSPost2010Prop46
 90
       50
102
RTVSPost2010PropOp46
 70
     1
102
RTVSPost2010Prop47
 90
       50
102
RTVSPost2010PropOp47
 70
     1
102
RTVSPost2010Prop48
 90
       50
102
RTVSPost2010PropOp48
 70
     1
102
RTVSPost2010Prop49
280
     0
102
RTVSPost2010PropOp49
 70
     1
102
RTVSPost2010Prop50
 90
       50
102
RTVSPost2010PropOp50
 70
     1
102
RTVSPost2010Prop51ColorIndex
 90
      256
102
RTVSPost2010Prop51ColorRGB
 90
-16777216
102
RTVSPost2010PropOp51
 70
     0
102
RTVSPost2010Prop52
140
1.0
102
RTVSPost2010PropOp52
 70
     0
102
RTVSPost2010Prop53
 90
        2
102
RTVSPost2010PropOp53
 70
     1
102
RTVSPost2010Prop54
  1
strokes_ogs.tif
102
RTVSPost2010PropOp54
 70
     1
102
RTVSPost2010Prop55
280
     0
102
RTVSPost2010PropOp55
 70
     1
102
RTVSPost2010Prop56
140
1.0
102
RTVSPost2010PropOp56
 70
     1
102
RTVSPost2010Prop57
140
1.0
102
RTVSPost2010PropOp57
 70
     1
102
RTVSPropertyOp0
 70
     1
102
RTVSPropertyOp1
 70
     1
102
RTVSPropertyOp2
 70
     1
102
RTVSPropertyOp3
 70
     1
102
RTVSPropertyOp4
 70
     1
102
RTVSPropertyOp5
 70
     1
102
RTVSPropertyOp6
 70
     1
102
RTVSPropertyOp7
 70
     1
102
RTVSPropertyOp8
 70
     1
102
RTVSPropertyOp9
 70
     1
102
RTVSPropertyOp10
 70
     1
102
RTVSPropertyOp11
 70
     1
102
RTVSPropertyOp12
 70
     1
102
RTVSPropertyOp13
 70
     1
102
RTVSPropertyOp14
 70
     1
102
RTVSPropertyOp15
 70
     1
102
RTVSPropertyOp16
 70
     1
102
RTVSPropertyOp17
 70
     1
102
RTVSPropertyOp18
 70
     1
102
RTVSPropertyOp19
 70
     1
102
RTVSPropertyOp20
 70
     1
102
RTVSPropertyOp21
 70
     1
102
RTVSPropertyOp22
 70
     1
102
RTVSPropertyOp23
 70
     1
102
RTVSPropertyOp24
 70
     1
102
RTVSPropertyOp25
 70
     1
102
RTVSPropertyOp26
 70
     1
102
RTVSPropertyOp27
 70
     1
102
RTVSPropertyOp28
 70
     1
102
RTVSPropertyOp29
 70
     1
102
RTVSPropertyOp30
 70
     1
102
RTVSPropertyOp31
 70
     1
102
RTVSPropertyOp32
 70
     1
102
RTVSPropertyOp33
 70
     1
102
RTVSPropertyOp34
 70
     1
102
RTVSPropertyOp35
 70
     1
102
RTVSPropertyOp36
 70
     1
102
RTVSPropertyOp37
 70
     1
102
RTVSPropertyOp38
 70
     1
102
RTVSPropertyOp39
 70
     1
102
RTVSPropertyOp40
 70
     1
102
RTVSPropertyOp41
 70
     1
102
RTVSPropertyOp42
 70
     1
102
RTVSPropertyOp43
 70
     1
102
RTVSPropertyOp44
 70
     1
102
RTVSPropertyOp45
 70
     1
102
RTVSPropertyOp46
 70
     1
102
RTVSPropertyOp47
 70
     1
102
RTVSPropertyOp48
 70
     1
102
RTVSPropertyOp49
 70
     1
102
RTVSPropertyOp50
 70
     1
102
RTVSPropertyOp51
 70
     0
102
RTVSPropertyOp52
 70
     0
102
RTVSPropertyOp53
 70
     1
102
RTVSPropertyOp54
 70
     1
102
RTVSPropertyOp55
 70
     1
102
RTVSPropertyOp56
 70
     1
102
RTVSPropertyOp57
 70
     1
102
RTVSPropertyOp58
 70
     1
102
RTVSPropertyOp59
 70
     1
102
RTVSPropertyOp60
 70
     1
102
RTVSPropertyOp61
 70
     1
102
RTVSPropertyOp62
 70
     1
  0
XRECORD
  5
C76D
102
{ACAD_REACTORS
330
C76C
102
}
330
C76C
100
AcDbXrecord
280
     1
102
RTVSPost2010Prop28
280
     0
102
RTVSPost2010PropOp28
 70
     1
102
RTVSPost2010Prop29
280
     1
102
RTVSPost2010PropOp29
 70
     1
102
RTVSPost2010Prop30
280
     1
102
RTVSPost2010PropOp30
 70
     1
102
RTVSPost2010Prop31
280
     0
102
RTVSPost2010PropOp31
 70
     1
102
RTVSPost2010Prop32
280
     0
102
RTVSPost2010PropOp32
 70
     1
102
RTVSPost2010Prop33
280
     0
102
RTVSPost2010PropOp33
 70
     1
102
RTVSPost2010Prop34
280
     0
102
RTVSPost2010PropOp34
 70
     1
102
RTVSPost2010Prop35
280
     0
102
RTVSPost2010PropOp35
 70
     1
102
RTVSPost2010Prop36
280
     0
102
RTVSPost2010PropOp36
 70
     1
102
RTVSPost2010Prop37
 90
       50
102
RTVSPost2010PropOp37
 70
     1
102
RTVSPost2010Prop38
140
0.0
102
RTVSPost2010PropOp38
 70
     1
102
RTVSPost2010Prop39
140
1.0
102
RTVSPost2010PropOp39
 70
     1
102
RTVSPost2010Prop40
 90
        0
102
RTVSPost2010PropOp40
 70
     1
102
RTVSPost2010Prop41ColorIndex
 90
       18
102
RTVSPost2010Prop41ColorRGB
 90
        0
102
RTVSPost2010PropOp41
 70
     1
102
RTVSPost2010Prop42
 90
       50
102
RTVSPost2010PropOp42
 70
     1
102
RTVSPost2010Prop43
 90
        3
102
RTVSPost2010PropOp43
 70
     1
102
RTVSPost2010Prop44ColorIndex
 90
        5
102
RTVSPost2010Prop44ColorRGB
 90
      255
102
RTVSPost2010PropOp44
 70
     1
102
RTVSPost2010Prop45
280
     0
102
RTVSPost2010PropOp45
 70
     1
102
RTVSPost2010Prop46
 90
       50
102
RTVSPost2010PropOp46
 70
     1
102
RTVSPost2010Prop47
 90
       50
102
RTVSPost2010PropOp47
 70
     1
102
RTVSPost2010Prop48
 90
       50
102
RTVSPost2010PropOp48
 70
     1
102
RTVSPost2010Prop49
280
     0
102
RTVSPost2010PropOp49
 70
     1
102
RTVSPost2010Prop50
 90
       50
102
RTVSPost2010PropOp50
 70
     1
102
RTVSPost2010Prop51ColorIndex
 90
      256
102
RTVSPost2010Prop51ColorRGB
 90
-16777216
102
RTVSPost2010PropOp51
 70
     0
102
RTVSPost2010Prop52
140
1.0
102
RTVSPost2010PropOp52
 70
     0
102
RTVSPost2010Prop53
 90
        2
102
RTVSPost2010PropOp53
 70
     1
102
RTVSPost2010Prop54
  1
strokes_ogs.tif
102
RTVSPost2010PropOp54
 70
     1
102
RTVSPost2010Prop55
280
     0
102
RTVSPost2010PropOp55
 70
     1
102
RTVSPost2010Prop56
140
1.0
102
RTVSPost2010PropOp56
 70
     1
102
RTVSPost2010Prop57
140
1.0
102
RTVSPost2010PropOp57
 70
     1
102
RTVSPropertyOp0
 70
     1
102
RTVSPropertyOp1
 70
     1
102
RTVSPropertyOp2
 70
     1
102
RTVSPropertyOp3
 70
     1
102
RTVSPropertyOp4
 70
     1
102
RTVSPropertyOp5
 70
     1
102
RTVSPropertyOp6
 70
     1
102
RTVSPropertyOp7
 70
     1
102
RTVSPropertyOp8
 70
     1
102
RTVSPropertyOp9
 70
     1
102
RTVSPropertyOp10
 70
     1
102
RTVSPropertyOp11
 70
     1
102
RTVSPropertyOp12
 70
     1
102
RTVSPropertyOp13
 70
     1
102
RTVSPropertyOp14
 70
     1
102
RTVSPropertyOp15
 70
     1
102
RTVSPropertyOp16
 70
     1
102
RTVSPropertyOp17
 70
     1
102
RTVSPropertyOp18
 70
     1
102
RTVSPropertyOp19
 70
     1
102
RTVSPropertyOp20
 70
     1
102
RTVSPropertyOp21
 70
     1
102
RTVSPropertyOp22
 70
     1
102
RTVSPropertyOp23
 70
     1
102
RTVSPropertyOp24
 70
     1
102
RTVSPropertyOp25
 70
     1
102
RTVSPropertyOp26
 70
     1
102
RTVSPropertyOp27
 70
     1
102
RTVSPropertyOp28
 70
     1
102
RTVSPropertyOp29
 70
     1
102
RTVSPropertyOp30
 70
     1
102
RTVSPropertyOp31
 70
     1
102
RTVSPropertyOp32
 70
     1
102
RTVSPropertyOp33
 70
     1
102
RTVSPropertyOp34
 70
     1
102
RTVSPropertyOp35
 70
     1
102
RTVSPropertyOp36
 70
     1
102
RTVSPropertyOp37
 70
     1
102
RTVSPropertyOp38
 70
     1
102
RTVSPropertyOp39
 70
     1
102
RTVSPropertyOp40
 70
     1
102
RTVSPropertyOp41
 70
     1
102
RTVSPropertyOp42
 70
     1
102
RTVSPropertyOp43
 70
     1
102
RTVSPropertyOp44
 70
     1
102
RTVSPropertyOp45
 70
     1
102
RTVSPropertyOp46
 70
     1
102
RTVSPropertyOp47
 70
     1
102
RTVSPropertyOp48
 70
     1
102
RTVSPropertyOp49
 70
     1
102
RTVSPropertyOp50
 70
     1
102
RTVSPropertyOp51
 70
     0
102
RTVSPropertyOp52
 70
     0
102
RTVSPropertyOp53
 70
     1
102
RTVSPropertyOp54
 70
     1
102
RTVSPropertyOp55
 70
     1
102
RTVSPropertyOp56
 70
     1
102
RTVSPropertyOp57
 70
     1
102
RTVSPropertyOp58
 70
     1
102
RTVSPropertyOp59
 70
     1
102
RTVSPropertyOp60
 70
     1
102
RTVSPropertyOp61
 70
     1
102
RTVSPropertyOp62
 70
     1
  0
XRECORD
  5
C76F
102
{ACAD_REACTORS
330
C76E
102
}
330
C76E
100
AcDbXrecord
280
     1
102
RTVSPost2010Prop28
280
     0
102
RTVSPost2010PropOp28
 70
     1
102
RTVSPost2010Prop29
280
     1
102
RTVSPost2010PropOp29
 70
     1
102
RTVSPost2010Prop30
280
     1
102
RTVSPost2010PropOp30
 70
     1
102
RTVSPost2010Prop31
280
     0
102
RTVSPost2010PropOp31
 70
     1
102
RTVSPost2010Prop32
280
     0
102
RTVSPost2010PropOp32
 70
     1
102
RTVSPost2010Prop33
280
     0
102
RTVSPost2010PropOp33
 70
     1
102
RTVSPost2010Prop34
280
     0
102
RTVSPost2010PropOp34
 70
     1
102
RTVSPost2010Prop35
280
     0
102
RTVSPost2010PropOp35
 70
     1
102
RTVSPost2010Prop36
280
     0
102
RTVSPost2010PropOp36
 70
     1
102
RTVSPost2010Prop37
 90
       50
102
RTVSPost2010PropOp37
 70
     1
102
RTVSPost2010Prop38
140
0.0
102
RTVSPost2010PropOp38
 70
     1
102
RTVSPost2010Prop39
140
1.0
102
RTVSPost2010PropOp39
 70
     1
102
RTVSPost2010Prop40
 90
        0
102
RTVSPost2010PropOp40
 70
     1
102
RTVSPost2010Prop41ColorIndex
 90
       18
102
RTVSPost2010Prop41ColorRGB
 90
        0
102
RTVSPost2010PropOp41
 70
     1
102
RTVSPost2010Prop42
 90
       50
102
RTVSPost2010PropOp42
 70
     1
102
RTVSPost2010Prop43
 90
        3
102
RTVSPost2010PropOp43
 70
     1
102
RTVSPost2010Prop44ColorIndex
 90
        5
102
RTVSPost2010Prop44ColorRGB
 90
      255
102
RTVSPost2010PropOp44
 70
     1
102
RTVSPost2010Prop45
280
     0
102
RTVSPost2010PropOp45
 70
     1
102
RTVSPost2010Prop46
 90
       50
102
RTVSPost2010PropOp46
 70
     1
102
RTVSPost2010Prop47
 90
       50
102
RTVSPost2010PropOp47
 70
     1
102
RTVSPost2010Prop48
 90
       50
102
RTVSPost2010PropOp48
 70
     1
102
RTVSPost2010Prop49
280
     0
102
RTVSPost2010PropOp49
 70
     1
102
RTVSPost2010Prop50
 90
       50
102
RTVSPost2010PropOp50
 70
     1
102
RTVSPost2010Prop51ColorIndex
 90
      256
102
RTVSPost2010Prop51ColorRGB
 90
-16777216
102
RTVSPost2010PropOp51
 70
     0
102
RTVSPost2010Prop52
140
1.0
102
RTVSPost2010PropOp52
 70
     0
102
RTVSPost2010Prop53
 90
        2
102
RTVSPost2010PropOp53
 70
     1
102
RTVSPost2010Prop54
  1
strokes_ogs.tif
102
RTVSPost2010PropOp54
 70
     1
102
RTVSPost2010Prop55
280
     0
102
RTVSPost2010PropOp55
 70
     1
102
RTVSPost2010Prop56
140
1.0
102
RTVSPost2010PropOp56
 70
     1
102
RTVSPost2010Prop57
140
1.0
102
RTVSPost2010PropOp57
 70
     1
102
RTVSPropertyOp0
 70
     1
102
RTVSPropertyOp1
 70
     1
102
RTVSPropertyOp2
 70
     1
102
RTVSPropertyOp3
 70
     1
102
RTVSPropertyOp4
 70
     1
102
RTVSPropertyOp5
 70
     1
102
RTVSPropertyOp6
 70
     1
102
RTVSPropertyOp7
 70
     1
102
RTVSPropertyOp8
 70
     1
102
RTVSPropertyOp9
 70
     1
102
RTVSPropertyOp10
 70
     1
102
RTVSPropertyOp11
 70
     1
102
RTVSPropertyOp12
 70
     1
102
RTVSPropertyOp13
 70
     1
102
RTVSPropertyOp14
 70
     1
102
RTVSPropertyOp15
 70
     1
102
RTVSPropertyOp16
 70
     1
102
RTVSPropertyOp17
 70
     1
102
RTVSPropertyOp18
 70
     1
102
RTVSPropertyOp19
 70
     1
102
RTVSPropertyOp20
 70
     1
102
RTVSPropertyOp21
 70
     1
102
RTVSPropertyOp22
 70
     1
102
RTVSPropertyOp23
 70
     1
102
RTVSPropertyOp24
 70
     1
102
RTVSPropertyOp25
 70
     1
102
RTVSPropertyOp26
 70
     1
102
RTVSPropertyOp27
 70
     1
102
RTVSPropertyOp28
 70
     1
102
RTVSPropertyOp29
 70
     1
102
RTVSPropertyOp30
 70
     1
102
RTVSPropertyOp31
 70
     1
102
RTVSPropertyOp32
 70
     1
102
RTVSPropertyOp33
 70
     1
102
RTVSPropertyOp34
 70
     1
102
RTVSPropertyOp35
 70
     1
102
RTVSPropertyOp36
 70
     1
102
RTVSPropertyOp37
 70
     1
102
RTVSPropertyOp38
 70
     1
102
RTVSPropertyOp39
 70
     1
102
RTVSPropertyOp40
 70
     1
102
RTVSPropertyOp41
 70
     1
102
RTVSPropertyOp42
 70
     1
102
RTVSPropertyOp43
 70
     1
102
RTVSPropertyOp44
 70
     1
102
RTVSPropertyOp45
 70
     1
102
RTVSPropertyOp46
 70
     1
102
RTVSPropertyOp47
 70
     1
102
RTVSPropertyOp48
 70
     1
102
RTVSPropertyOp49
 70
     1
102
RTVSPropertyOp50
 70
     1
102
RTVSPropertyOp51
 70
     0
102
RTVSPropertyOp52
 70
     0
102
RTVSPropertyOp53
 70
     1
102
RTVSPropertyOp54
 70
     1
102
RTVSPropertyOp55
 70
     1
102
RTVSPropertyOp56
 70
     1
102
RTVSPropertyOp57
 70
     1
102
RTVSPropertyOp58
 70
     1
102
RTVSPropertyOp59
 70
     1
102
RTVSPropertyOp60
 70
     1
102
RTVSPropertyOp61
 70
     1
102
RTVSPropertyOp62
 70
     1
  0
XRECORD
  5
C771
102
{ACAD_REACTORS
330
C770
102
}
330
C770
100
AcDbXrecord
280
     1
102
RTVSPost2010Prop28
280
     0
102
RTVSPost2010PropOp28
 70
     1
102
RTVSPost2010Prop29
280
     1
102
RTVSPost2010PropOp29
 70
     1
102
RTVSPost2010Prop30
280
     1
102
RTVSPost2010PropOp30
 70
     1
102
RTVSPost2010Prop31
280
     0
102
RTVSPost2010PropOp31
 70
     1
102
RTVSPost2010Prop32
280
     0
102
RTVSPost2010PropOp32
 70
     1
102
RTVSPost2010Prop33
280
     0
102
RTVSPost2010PropOp33
 70
     1
102
RTVSPost2010Prop34
280
     0
102
RTVSPost2010PropOp34
 70
     1
102
RTVSPost2010Prop35
280
     0
102
RTVSPost2010PropOp35
 70
     1
102
RTVSPost2010Prop36
280
     0
102
RTVSPost2010PropOp36
 70
     1
102
RTVSPost2010Prop37
 90
       50
102
RTVSPost2010PropOp37
 70
     1
102
RTVSPost2010Prop38
140
0.0
102
RTVSPost2010PropOp38
 70
     1
102
RTVSPost2010Prop39
140
1.0
102
RTVSPost2010PropOp39
 70
     1
102
RTVSPost2010Prop40
 90
        0
102
RTVSPost2010PropOp40
 70
     1
102
RTVSPost2010Prop41ColorIndex
 90
       18
102
RTVSPost2010Prop41ColorRGB
 90
        0
102
RTVSPost2010PropOp41
 70
     1
102
RTVSPost2010Prop42
 90
       50
102
RTVSPost2010PropOp42
 70
     1
102
RTVSPost2010Prop43
 90
        3
102
RTVSPost2010PropOp43
 70
     1
102
RTVSPost2010Prop44ColorIndex
 90
        5
102
RTVSPost2010Prop44ColorRGB
 90
      255
102
RTVSPost2010PropOp44
 70
     1
102
RTVSPost2010Prop45
280
     0
102
RTVSPost2010PropOp45
 70
     1
102
RTVSPost2010Prop46
 90
       50
102
RTVSPost2010PropOp46
 70
     1
102
RTVSPost2010Prop47
 90
       50
102
RTVSPost2010PropOp47
 70
     1
102
RTVSPost2010Prop48
 90
       50
102
RTVSPost2010PropOp48
 70
     1
102
RTVSPost2010Prop49
280
     0
102
RTVSPost2010PropOp49
 70
     1
102
RTVSPost2010Prop50
 90
       50
102
RTVSPost2010PropOp50
 70
     1
102
RTVSPost2010Prop51ColorIndex
 90
      256
102
RTVSPost2010Prop51ColorRGB
 90
-16777216
102
RTVSPost2010PropOp51
 70
     0
102
RTVSPost2010Prop52
140
1.0
102
RTVSPost2010PropOp52
 70
     0
102
RTVSPost2010Prop53
 90
        2
102
RTVSPost2010PropOp53
 70
     1
102
RTVSPost2010Prop54
  1
strokes_ogs.tif
102
RTVSPost2010PropOp54
 70
     1
102
RTVSPost2010Prop55
280
     0
102
RTVSPost2010PropOp55
 70
     1
102
RTVSPost2010Prop56
140
1.0
102
RTVSPost2010PropOp56
 70
     1
102
RTVSPost2010Prop57
140
1.0
102
RTVSPost2010PropOp57
 70
     1
102
RTVSPropertyOp0
 70
     1
102
RTVSPropertyOp1
 70
     1
102
RTVSPropertyOp2
 70
     1
102
RTVSPropertyOp3
 70
     1
102
RTVSPropertyOp4
 70
     1
102
RTVSPropertyOp5
 70
     1
102
RTVSPropertyOp6
 70
     1
102
RTVSPropertyOp7
 70
     1
102
RTVSPropertyOp8
 70
     1
102
RTVSPropertyOp9
 70
     1
102
RTVSPropertyOp10
 70
     1
102
RTVSPropertyOp11
 70
     1
102
RTVSPropertyOp12
 70
     1
102
RTVSPropertyOp13
 70
     1
102
RTVSPropertyOp14
 70
     1
102
RTVSPropertyOp15
 70
     1
102
RTVSPropertyOp16
 70
     1
102
RTVSPropertyOp17
 70
     1
102
RTVSPropertyOp18
 70
     1
102
RTVSPropertyOp19
 70
     1
102
RTVSPropertyOp20
 70
     1
102
RTVSPropertyOp21
 70
     1
102
RTVSPropertyOp22
 70
     1
102
RTVSPropertyOp23
 70
     1
102
RTVSPropertyOp24
 70
     1
102
RTVSPropertyOp25
 70
     1
102
RTVSPropertyOp26
 70
     1
102
RTVSPropertyOp27
 70
     1
102
RTVSPropertyOp28
 70
     1
102
RTVSPropertyOp29
 70
     1
102
RTVSPropertyOp30
 70
     1
102
RTVSPropertyOp31
 70
     1
102
RTVSPropertyOp32
 70
     1
102
RTVSPropertyOp33
 70
     1
102
RTVSPropertyOp34
 70
     1
102
RTVSPropertyOp35
 70
     1
102
RTVSPropertyOp36
 70
     1
102
RTVSPropertyOp37
 70
     1
102
RTVSPropertyOp38
 70
     1
102
RTVSPropertyOp39
 70
     1
102
RTVSPropertyOp40
 70
     1
102
RTVSPropertyOp41
 70
     1
102
RTVSPropertyOp42
 70
     1
102
RTVSPropertyOp43
 70
     1
102
RTVSPropertyOp44
 70
     1
102
RTVSPropertyOp45
 70
     1
102
RTVSPropertyOp46
 70
     1
102
RTVSPropertyOp47
 70
     1
102
RTVSPropertyOp48
 70
     1
102
RTVSPropertyOp49
 70
     1
102
RTVSPropertyOp50
 70
     1
102
RTVSPropertyOp51
 70
     0
102
RTVSPropertyOp52
 70
     0
102
RTVSPropertyOp53
 70
     1
102
RTVSPropertyOp54
 70
     1
102
RTVSPropertyOp55
 70
     1
102
RTVSPropertyOp56
 70
     1
102
RTVSPropertyOp57
 70
     1
102
RTVSPropertyOp58
 70
     1
102
RTVSPropertyOp59
 70
     1
102
RTVSPropertyOp60
 70
     1
102
RTVSPropertyOp61
 70
     1
102
RTVSPropertyOp62
 70
     1
  0
XRECORD
  5
C779
102
{ACAD_REACTORS
330
C778
102
}
330
C778
100
AcDbXrecord
280
     1
102
RTVSPost2010Prop28
280
     0
102
RTVSPost2010PropOp28
 70
     1
102
RTVSPost2010Prop29
280
     1
102
RTVSPost2010PropOp29
 70
     1
102
RTVSPost2010Prop30
280
     1
102
RTVSPost2010PropOp30
 70
     1
102
RTVSPost2010Prop31
280
     0
102
RTVSPost2010PropOp31
 70
     1
102
RTVSPost2010Prop32
280
     0
102
RTVSPost2010PropOp32
 70
     1
102
RTVSPost2010Prop33
280
     0
102
RTVSPost2010PropOp33
 70
     1
102
RTVSPost2010Prop34
280
     0
102
RTVSPost2010PropOp34
 70
     1
102
RTVSPost2010Prop35
280
     0
102
RTVSPost2010PropOp35
 70
     1
102
RTVSPost2010Prop36
280
     0
102
RTVSPost2010PropOp36
 70
     1
102
RTVSPost2010Prop37
 90
       50
102
RTVSPost2010PropOp37
 70
     1
102
RTVSPost2010Prop38
140
0.0
102
RTVSPost2010PropOp38
 70
     1
102
RTVSPost2010Prop39
140
1.0
102
RTVSPost2010PropOp39
 70
     1
102
RTVSPost2010Prop40
 90
        0
102
RTVSPost2010PropOp40
 70
     1
102
RTVSPost2010Prop41ColorIndex
 90
       18
102
RTVSPost2010Prop41ColorRGB
 90
        0
102
RTVSPost2010PropOp41
 70
     1
102
RTVSPost2010Prop42
 90
       50
102
RTVSPost2010PropOp42
 70
     1
102
RTVSPost2010Prop43
 90
        3
102
RTVSPost2010PropOp43
 70
     1
102
RTVSPost2010Prop44ColorIndex
 90
        5
102
RTVSPost2010Prop44ColorRGB
 90
      255
102
RTVSPost2010PropOp44
 70
     1
102
RTVSPost2010Prop45
280
     0
102
RTVSPost2010PropOp45
 70
     1
102
RTVSPost2010Prop46
 90
       50
102
RTVSPost2010PropOp46
 70
     1
102
RTVSPost2010Prop47
 90
       50
102
RTVSPost2010PropOp47
 70
     1
102
RTVSPost2010Prop48
 90
       50
102
RTVSPost2010PropOp48
 70
     1
102
RTVSPost2010Prop49
280
     0
102
RTVSPost2010PropOp49
 70
     1
102
RTVSPost2010Prop50
 90
       50
102
RTVSPost2010PropOp50
 70
     1
102
RTVSPost2010Prop51ColorIndex
 90
      256
102
RTVSPost2010Prop51ColorRGB
 90
-16777216
102
RTVSPost2010PropOp51
 70
     0
102
RTVSPost2010Prop52
140
1.0
102
RTVSPost2010PropOp52
 70
     0
102
RTVSPost2010Prop53
 90
        2
102
RTVSPost2010PropOp53
 70
     1
102
RTVSPost2010Prop54
  1
strokes_ogs.tif
102
RTVSPost2010PropOp54
 70
     1
102
RTVSPost2010Prop55
280
     0
102
RTVSPost2010PropOp55
 70
     1
102
RTVSPost2010Prop56
140
1.0
102
RTVSPost2010PropOp56
 70
     1
102
RTVSPost2010Prop57
140
1.0
102
RTVSPost2010PropOp57
 70
     1
102
RTVSPropertyOp0
 70
     1
102
RTVSPropertyOp1
 70
     1
102
RTVSPropertyOp2
 70
     1
102
RTVSPropertyOp3
 70
     1
102
RTVSPropertyOp4
 70
     1
102
RTVSPropertyOp5
 70
     1
102
RTVSPropertyOp6
 70
     1
102
RTVSPropertyOp7
 70
     1
102
RTVSPropertyOp8
 70
     1
102
RTVSPropertyOp9
 70
     1
102
RTVSPropertyOp10
 70
     1
102
RTVSPropertyOp11
 70
     1
102
RTVSPropertyOp12
 70
     1
102
RTVSPropertyOp13
 70
     1
102
RTVSPropertyOp14
 70
     1
102
RTVSPropertyOp15
 70
     1
102
RTVSPropertyOp16
 70
     1
102
RTVSPropertyOp17
 70
     1
102
RTVSPropertyOp18
 70
     1
102
RTVSPropertyOp19
 70
     1
102
RTVSPropertyOp20
 70
     1
102
RTVSPropertyOp21
 70
     1
102
RTVSPropertyOp22
 70
     1
102
RTVSPropertyOp23
 70
     1
102
RTVSPropertyOp24
 70
     1
102
RTVSPropertyOp25
 70
     1
102
RTVSPropertyOp26
 70
     1
102
RTVSPropertyOp27
 70
     1
102
RTVSPropertyOp28
 70
     1
102
RTVSPropertyOp29
 70
     1
102
RTVSPropertyOp30
 70
     1
102
RTVSPropertyOp31
 70
     1
102
RTVSPropertyOp32
 70
     1
102
RTVSPropertyOp33
 70
     1
102
RTVSPropertyOp34
 70
     1
102
RTVSPropertyOp35
 70
     1
102
RTVSPropertyOp36
 70
     1
102
RTVSPropertyOp37
 70
     1
102
RTVSPropertyOp38
 70
     1
102
RTVSPropertyOp39
 70
     1
102
RTVSPropertyOp40
 70
     1
102
RTVSPropertyOp41
 70
     1
102
RTVSPropertyOp42
 70
     1
102
RTVSPropertyOp43
 70
     1
102
RTVSPropertyOp44
 70
     1
102
RTVSPropertyOp45
 70
     1
102
RTVSPropertyOp46
 70
     1
102
RTVSPropertyOp47
 70
     1
102
RTVSPropertyOp48
 70
     1
102
RTVSPropertyOp49
 70
     1
102
RTVSPropertyOp50
 70
     1
102
RTVSPropertyOp51
 70
     0
102
RTVSPropertyOp52
 70
     0
102
RTVSPropertyOp53
 70
     1
102
RTVSPropertyOp54
 70
     1
102
RTVSPropertyOp55
 70
     1
102
RTVSPropertyOp56
 70
     1
102
RTVSPropertyOp57
 70
     1
102
RTVSPropertyOp58
 70
     1
102
RTVSPropertyOp59
 70
     1
102
RTVSPropertyOp60
 70
     1
102
RTVSPropertyOp61
 70
     1
102
RTVSPropertyOp62
 70
     1
  0
XRECORD
  5
C795
102
{ACAD_REACTORS
330
C794
102
}
330
C794
100
AcDbXrecord
280
     1
102
RTVSPost2010Prop28
280
     0
102
RTVSPost2010PropOp28
 70
     1
102
RTVSPost2010Prop29
280
     1
102
RTVSPost2010PropOp29
 70
     1
102
RTVSPost2010Prop30
280
     1
102
RTVSPost2010PropOp30
 70
     1
102
RTVSPost2010Prop31
280
     0
102
RTVSPost2010PropOp31
 70
     1
102
RTVSPost2010Prop32
280
     0
102
RTVSPost2010PropOp32
 70
     1
102
RTVSPost2010Prop33
280
     0
102
RTVSPost2010PropOp33
 70
     1
102
RTVSPost2010Prop34
280
     0
102
RTVSPost2010PropOp34
 70
     1
102
RTVSPost2010Prop35
280
     0
102
RTVSPost2010PropOp35
 70
     1
102
RTVSPost2010Prop36
280
     0
102
RTVSPost2010PropOp36
 70
     1
102
RTVSPost2010Prop37
 90
       50
102
RTVSPost2010PropOp37
 70
     0
102
RTVSPost2010Prop38
140
0.0
102
RTVSPost2010PropOp38
 70
     0
102
RTVSPost2010Prop39
140
1.0
102
RTVSPost2010PropOp39
 70
     0
102
RTVSPost2010Prop40
 90
        0
102
RTVSPost2010PropOp40
 70
     0
102
RTVSPost2010Prop41ColorIndex
 90
       18
102
RTVSPost2010Prop41ColorRGB
 90
        0
102
RTVSPost2010PropOp41
 70
     0
102
RTVSPost2010Prop42
 90
       50
102
RTVSPost2010PropOp42
 70
     0
102
RTVSPost2010Prop43
 90
        3
102
RTVSPost2010PropOp43
 70
     0
102
RTVSPost2010Prop44ColorIndex
 90
        5
102
RTVSPost2010Prop44ColorRGB
 90
      255
102
RTVSPost2010PropOp44
 70
     0
102
RTVSPost2010Prop45
280
     0
102
RTVSPost2010PropOp45
 70
     1
102
RTVSPost2010Prop46
 90
       50
102
RTVSPost2010PropOp46
 70
     0
102
RTVSPost2010Prop47
 90
       50
102
RTVSPost2010PropOp47
 70
     0
102
RTVSPost2010Prop48
 90
       50
102
RTVSPost2010PropOp48
 70
     0
102
RTVSPost2010Prop49
280
     0
102
RTVSPost2010PropOp49
 70
     1
102
RTVSPost2010Prop50
 90
       50
102
RTVSPost2010PropOp50
 70
     0
102
RTVSPost2010Prop51ColorIndex
 90
      256
102
RTVSPost2010Prop51ColorRGB
 90
-16777216
102
RTVSPost2010PropOp51
 70
     0
102
RTVSPost2010Prop52
140
1.0
102
RTVSPost2010PropOp52
 70
     0
102
RTVSPost2010Prop53
 90
        2
102
RTVSPost2010PropOp53
 70
     0
102
RTVSPost2010Prop54
  1
strokes_ogs.tif
102
RTVSPost2010PropOp54
 70
     0
102
RTVSPost2010Prop55
280
     0
102
RTVSPost2010PropOp55
 70
     1
102
RTVSPost2010Prop56
140
1.0
102
RTVSPost2010PropOp56
 70
     0
102
RTVSPost2010Prop57
140
1.0
102
RTVSPost2010PropOp57
 70
     0
102
RTVSPropertyOp0
 70
     0
102
RTVSPropertyOp1
 70
     0
102
RTVSPropertyOp2
 70
     0
102
RTVSPropertyOp3
 70
     0
102
RTVSPropertyOp4
 70
     0
102
RTVSPropertyOp5
 70
     0
102
RTVSPropertyOp6
 70
     0
102
RTVSPropertyOp7
 70
     0
102
RTVSPropertyOp8
 70
     0
102
RTVSPropertyOp9
 70
     0
102
RTVSPropertyOp10
 70
     0
102
RTVSPropertyOp11
 70
     0
102
RTVSPropertyOp12
 70
     0
102
RTVSPropertyOp13
 70
     0
102
RTVSPropertyOp14
 70
     2
102
RTVSPropertyOp15
 70
     0
102
RTVSPropertyOp16
 70
     0
102
RTVSPropertyOp17
 70
     0
102
RTVSPropertyOp18
 70
     0
102
RTVSPropertyOp19
 70
     0
102
RTVSPropertyOp20
 70
     0
102
RTVSPropertyOp21
 70
     0
102
RTVSPropertyOp22
 70
     0
102
RTVSPropertyOp23
 70
     0
102
RTVSPropertyOp24
 70
     0
102
RTVSPropertyOp25
 70
     0
102
RTVSPropertyOp26
 70
     0
102
RTVSPropertyOp27
 70
     0
102
RTVSPropertyOp28
 70
     1
102
RTVSPropertyOp29
 70
     1
102
RTVSPropertyOp30
 70
     1
102
RTVSPropertyOp31
 70
     1
102
RTVSPropertyOp32
 70
     1
102
RTVSPropertyOp33
 70
     1
102
RTVSPropertyOp34
 70
     1
102
RTVSPropertyOp35
 70
     1
102
RTVSPropertyOp36
 70
     1
102
RTVSPropertyOp37
 70
     0
102
RTVSPropertyOp38
 70
     0
102
RTVSPropertyOp39
 70
     0
102
RTVSPropertyOp40
 70
     0
102
RTVSPropertyOp41
 70
     0
102
RTVSPropertyOp42
 70
     0
102
RTVSPropertyOp43
 70
     0
102
RTVSPropertyOp44
 70
     0
102
RTVSPropertyOp45
 70
     1
102
RTVSPropertyOp46
 70
     0
102
RTVSPropertyOp47
 70
     0
102
RTVSPropertyOp48
 70
     0
102
RTVSPropertyOp49
 70
     1
102
RTVSPropertyOp50
 70
     0
102
RTVSPropertyOp51
 70
     0
102
RTVSPropertyOp52
 70
     0
102
RTVSPropertyOp53
 70
     0
102
RTVSPropertyOp54
 70
     0
102
RTVSPropertyOp55
 70
     1
102
RTVSPropertyOp56
 70
     0
102
RTVSPropertyOp57
 70
     0
102
RTVSPropertyOp58
 70
     0
102
RTVSPropertyOp59
 70
     0
102
RTVSPropertyOp60
 70
     0
102
RTVSPropertyOp61
 70
     0
102
RTVSPropertyOp62
 70
     0
  0
XRECORD
  5
C785
102
{ACAD_REACTORS
330
C784
102
}
330
C784
100
AcDbXrecord
280
     1
102
RTVSPost2010Prop28
280
     0
102
RTVSPost2010PropOp28
 70
     1
102
RTVSPost2010Prop29
280
     1
102
RTVSPost2010PropOp29
 70
     1
102
RTVSPost2010Prop30
280
     1
102
RTVSPost2010PropOp30
 70
     1
102
RTVSPost2010Prop31
280
     0
102
RTVSPost2010PropOp31
 70
     1
102
RTVSPost2010Prop32
280
     0
102
RTVSPost2010PropOp32
 70
     1
102
RTVSPost2010Prop33
280
     0
102
RTVSPost2010PropOp33
 70
     1
102
RTVSPost2010Prop34
280
     0
102
RTVSPost2010PropOp34
 70
     1
102
RTVSPost2010Prop35
280
     0
102
RTVSPost2010PropOp35
 70
     1
102
RTVSPost2010Prop36
280
     0
102
RTVSPost2010PropOp36
 70
     1
102
RTVSPost2010Prop37
 90
       50
102
RTVSPost2010PropOp37
 70
     1
102
RTVSPost2010Prop38
140
0.0
102
RTVSPost2010PropOp38
 70
     1
102
RTVSPost2010Prop39
140
1.0
102
RTVSPost2010PropOp39
 70
     1
102
RTVSPost2010Prop40
 90
        0
102
RTVSPost2010PropOp40
 70
     1
102
RTVSPost2010Prop41ColorIndex
 90
       18
102
RTVSPost2010Prop41ColorRGB
 90
        0
102
RTVSPost2010PropOp41
 70
     1
102
RTVSPost2010Prop42
 90
       50
102
RTVSPost2010PropOp42
 70
     1
102
RTVSPost2010Prop43
 90
        3
102
RTVSPost2010PropOp43
 70
     1
102
RTVSPost2010Prop44ColorIndex
 90
        5
102
RTVSPost2010Prop44ColorRGB
 90
      255
102
RTVSPost2010PropOp44
 70
     1
102
RTVSPost2010Prop45
280
     0
102
RTVSPost2010PropOp45
 70
     1
102
RTVSPost2010Prop46
 90
       50
102
RTVSPost2010PropOp46
 70
     1
102
RTVSPost2010Prop47
 90
       50
102
RTVSPost2010PropOp47
 70
     1
102
RTVSPost2010Prop48
 90
       50
102
RTVSPost2010PropOp48
 70
     1
102
RTVSPost2010Prop49
280
     0
102
RTVSPost2010PropOp49
 70
     1
102
RTVSPost2010Prop50
 90
       50
102
RTVSPost2010PropOp50
 70
     1
102
RTVSPost2010Prop51ColorIndex
 90
      256
102
RTVSPost2010Prop51ColorRGB
 90
-16777216
102
RTVSPost2010PropOp51
 70
     0
102
RTVSPost2010Prop52
140
1.0
102
RTVSPost2010PropOp52
 70
     0
102
RTVSPost2010Prop53
 90
        2
102
RTVSPost2010PropOp53
 70
     1
102
RTVSPost2010Prop54
  1
strokes_ogs.tif
102
RTVSPost2010PropOp54
 70
     1
102
RTVSPost2010Prop55
280
     0
102
RTVSPost2010PropOp55
 70
     1
102
RTVSPost2010Prop56
140
1.0
102
RTVSPost2010PropOp56
 70
     1
102
RTVSPost2010Prop57
140
1.0
102
RTVSPost2010PropOp57
 70
     1
102
RTVSPropertyOp0
 70
     1
102
RTVSPropertyOp1
 70
     1
102
RTVSPropertyOp2
 70
     1
102
RTVSPropertyOp3
 70
     1
102
RTVSPropertyOp4
 70
     1
102
RTVSPropertyOp5
 70
     1
102
RTVSPropertyOp6
 70
     1
102
RTVSPropertyOp7
 70
     1
102
RTVSPropertyOp8
 70
     1
102
RTVSPropertyOp9
 70
     1
102
RTVSPropertyOp10
 70
     1
102
RTVSPropertyOp11
 70
     1
102
RTVSPropertyOp12
 70
     1
102
RTVSPropertyOp13
 70
     1
102
RTVSPropertyOp14
 70
     1
102
RTVSPropertyOp15
 70
     1
102
RTVSPropertyOp16
 70
     1
102
RTVSPropertyOp17
 70
     1
102
RTVSPropertyOp18
 70
     1
102
RTVSPropertyOp19
 70
     1
102
RTVSPropertyOp20
 70
     1
102
RTVSPropertyOp21
 70
     1
102
RTVSPropertyOp22
 70
     1
102
RTVSPropertyOp23
 70
     1
102
RTVSPropertyOp24
 70
     1
102
RTVSPropertyOp25
 70
     1
102
RTVSPropertyOp26
 70
     1
102
RTVSPropertyOp27
 70
     1
102
RTVSPropertyOp28
 70
     1
102
RTVSPropertyOp29
 70
     1
102
RTVSPropertyOp30
 70
     1
102
RTVSPropertyOp31
 70
     1
102
RTVSPropertyOp32
 70
     1
102
RTVSPropertyOp33
 70
     1
102
RTVSPropertyOp34
 70
     1
102
RTVSPropertyOp35
 70
     1
102
RTVSPropertyOp36
 70
     1
102
RTVSPropertyOp37
 70
     1
102
RTVSPropertyOp38
 70
     1
102
RTVSPropertyOp39
 70
     1
102
RTVSPropertyOp40
 70
     1
102
RTVSPropertyOp41
 70
     1
102
RTVSPropertyOp42
 70
     1
102
RTVSPropertyOp43
 70
     1
102
RTVSPropertyOp44
 70
     1
102
RTVSPropertyOp45
 70
     1
102
RTVSPropertyOp46
 70
     1
102
RTVSPropertyOp47
 70
     1
102
RTVSPropertyOp48
 70
     1
102
RTVSPropertyOp49
 70
     1
102
RTVSPropertyOp50
 70
     1
102
RTVSPropertyOp51
 70
     0
102
RTVSPropertyOp52
 70
     0
102
RTVSPropertyOp53
 70
     1
102
RTVSPropertyOp54
 70
     1
102
RTVSPropertyOp55
 70
     1
102
RTVSPropertyOp56
 70
     1
102
RTVSPropertyOp57
 70
     1
102
RTVSPropertyOp58
 70
     1
102
RTVSPropertyOp59
 70
     1
102
RTVSPropertyOp60
 70
     1
102
RTVSPropertyOp61
 70
     1
102
RTVSPropertyOp62
 70
     1
  0
XRECORD
  5
C797
102
{ACAD_REACTORS
330
C796
102
}
330
C796
100
AcDbXrecord
280
     1
102
RTVSPost2010Prop28
280
     0
102
RTVSPost2010PropOp28
 70
     1
102
RTVSPost2010Prop29
280
     1
102
RTVSPost2010PropOp29
 70
     1
102
RTVSPost2010Prop30
280
     1
102
RTVSPost2010PropOp30
 70
     1
102
RTVSPost2010Prop31
280
     0
102
RTVSPost2010PropOp31
 70
     1
102
RTVSPost2010Prop32
280
     0
102
RTVSPost2010PropOp32
 70
     1
102
RTVSPost2010Prop33
280
     0
102
RTVSPost2010PropOp33
 70
     1
102
RTVSPost2010Prop34
280
     0
102
RTVSPost2010PropOp34
 70
     1
102
RTVSPost2010Prop35
280
     0
102
RTVSPost2010PropOp35
 70
     1
102
RTVSPost2010Prop36
280
     0
102
RTVSPost2010PropOp36
 70
     1
102
RTVSPost2010Prop37
 90
       50
102
RTVSPost2010PropOp37
 70
     0
102
RTVSPost2010Prop38
140
0.0
102
RTVSPost2010PropOp38
 70
     0
102
RTVSPost2010Prop39
140
1.0
102
RTVSPost2010PropOp39
 70
     0
102
RTVSPost2010Prop40
 90
        0
102
RTVSPost2010PropOp40
 70
     0
102
RTVSPost2010Prop41ColorIndex
 90
       18
102
RTVSPost2010Prop41ColorRGB
 90
        0
102
RTVSPost2010PropOp41
 70
     0
102
RTVSPost2010Prop42
 90
       50
102
RTVSPost2010PropOp42
 70
     0
102
RTVSPost2010Prop43
 90
        3
102
RTVSPost2010PropOp43
 70
     0
102
RTVSPost2010Prop44ColorIndex
 90
        5
102
RTVSPost2010Prop44ColorRGB
 90
      255
102
RTVSPost2010PropOp44
 70
     0
102
RTVSPost2010Prop45
280
     0
102
RTVSPost2010PropOp45
 70
     1
102
RTVSPost2010Prop46
 90
       50
102
RTVSPost2010PropOp46
 70
     0
102
RTVSPost2010Prop47
 90
       50
102
RTVSPost2010PropOp47
 70
     0
102
RTVSPost2010Prop48
 90
       50
102
RTVSPost2010PropOp48
 70
     0
102
RTVSPost2010Prop49
280
     0
102
RTVSPost2010PropOp49
 70
     1
102
RTVSPost2010Prop50
 90
       50
102
RTVSPost2010PropOp50
 70
     0
102
RTVSPost2010Prop51ColorIndex
 90
      256
102
RTVSPost2010Prop51ColorRGB
 90
-16777216
102
RTVSPost2010PropOp51
 70
     0
102
RTVSPost2010Prop52
140
1.0
102
RTVSPost2010PropOp52
 70
     0
102
RTVSPost2010Prop53
 90
        2
102
RTVSPost2010PropOp53
 70
     0
102
RTVSPost2010Prop54
  1
strokes_ogs.tif
102
RTVSPost2010PropOp54
 70
     0
102
RTVSPost2010Prop55
280
     0
102
RTVSPost2010PropOp55
 70
     1
102
RTVSPost2010Prop56
140
1.0
102
RTVSPost2010PropOp56
 70
     0
102
RTVSPost2010Prop57
140
1.0
102
RTVSPost2010PropOp57
 70
     0
102
RTVSPropertyOp0
 70
     0
102
RTVSPropertyOp1
 70
     0
102
RTVSPropertyOp2
 70
     0
102
RTVSPropertyOp3
 70
     0
102
RTVSPropertyOp4
 70
     0
102
RTVSPropertyOp5
 70
     0
102
RTVSPropertyOp6
 70
     0
102
RTVSPropertyOp7
 70
     0
102
RTVSPropertyOp8
 70
     0
102
RTVSPropertyOp9
 70
     0
102
RTVSPropertyOp10
 70
     0
102
RTVSPropertyOp11
 70
     0
102
RTVSPropertyOp12
 70
     0
102
RTVSPropertyOp13
 70
     0
102
RTVSPropertyOp14
 70
     2
102
RTVSPropertyOp15
 70
     0
102
RTVSPropertyOp16
 70
     0
102
RTVSPropertyOp17
 70
     0
102
RTVSPropertyOp18
 70
     0
102
RTVSPropertyOp19
 70
     0
102
RTVSPropertyOp20
 70
     0
102
RTVSPropertyOp21
 70
     0
102
RTVSPropertyOp22
 70
     0
102
RTVSPropertyOp23
 70
     0
102
RTVSPropertyOp24
 70
     0
102
RTVSPropertyOp25
 70
     0
102
RTVSPropertyOp26
 70
     0
102
RTVSPropertyOp27
 70
     0
102
RTVSPropertyOp28
 70
     1
102
RTVSPropertyOp29
 70
     1
102
RTVSPropertyOp30
 70
     1
102
RTVSPropertyOp31
 70
     1
102
RTVSPropertyOp32
 70
     1
102
RTVSPropertyOp33
 70
     1
102
RTVSPropertyOp34
 70
     1
102
RTVSPropertyOp35
 70
     1
102
RTVSPropertyOp36
 70
     1
102
RTVSPropertyOp37
 70
     0
102
RTVSPropertyOp38
 70
     0
102
RTVSPropertyOp39
 70
     0
102
RTVSPropertyOp40
 70
     0
102
RTVSPropertyOp41
 70
     0
102
RTVSPropertyOp42
 70
     0
102
RTVSPropertyOp43
 70
     0
102
RTVSPropertyOp44
 70
     0
102
RTVSPropertyOp45
 70
     1
102
RTVSPropertyOp46
 70
     0
102
RTVSPropertyOp47
 70
     0
102
RTVSPropertyOp48
 70
     0
102
RTVSPropertyOp49
 70
     1
102
RTVSPropertyOp50
 70
     0
102
RTVSPropertyOp51
 70
     0
102
RTVSPropertyOp52
 70
     0
102
RTVSPropertyOp53
 70
     0
102
RTVSPropertyOp54
 70
     0
102
RTVSPropertyOp55
 70
     1
102
RTVSPropertyOp56
 70
     0
102
RTVSPropertyOp57
 70
     0
102
RTVSPropertyOp58
 70
     0
102
RTVSPropertyOp59
 70
     0
102
RTVSPropertyOp60
 70
     0
102
RTVSPropertyOp61
 70
     0
102
RTVSPropertyOp62
 70
     0
  0
XRECORD
  5
C77D
102
{ACAD_REACTORS
330
C77C
102
}
330
C77C
100
AcDbXrecord
280
     1
102
RTVSPost2010Prop28
280
     0
102
RTVSPost2010PropOp28
 70
     1
102
RTVSPost2010Prop29
280
     1
102
RTVSPost2010PropOp29
 70
     1
102
RTVSPost2010Prop30
280
     1
102
RTVSPost2010PropOp30
 70
     1
102
RTVSPost2010Prop31
280
     0
102
RTVSPost2010PropOp31
 70
     1
102
RTVSPost2010Prop32
280
     0
102
RTVSPost2010PropOp32
 70
     1
102
RTVSPost2010Prop33
280
     0
102
RTVSPost2010PropOp33
 70
     1
102
RTVSPost2010Prop34
280
     0
102
RTVSPost2010PropOp34
 70
     1
102
RTVSPost2010Prop35
280
     0
102
RTVSPost2010PropOp35
 70
     1
102
RTVSPost2010Prop36
280
     0
102
RTVSPost2010PropOp36
 70
     1
102
RTVSPost2010Prop37
 90
       50
102
RTVSPost2010PropOp37
 70
     1
102
RTVSPost2010Prop38
140
0.0
102
RTVSPost2010PropOp38
 70
     1
102
RTVSPost2010Prop39
140
1.0
102
RTVSPost2010PropOp39
 70
     1
102
RTVSPost2010Prop40
 90
        0
102
RTVSPost2010PropOp40
 70
     1
102
RTVSPost2010Prop41ColorIndex
 90
       18
102
RTVSPost2010Prop41ColorRGB
 90
        0
102
RTVSPost2010PropOp41
 70
     1
102
RTVSPost2010Prop42
 90
       50
102
RTVSPost2010PropOp42
 70
     1
102
RTVSPost2010Prop43
 90
        3
102
RTVSPost2010PropOp43
 70
     1
102
RTVSPost2010Prop44ColorIndex
 90
        5
102
RTVSPost2010Prop44ColorRGB
 90
      255
102
RTVSPost2010PropOp44
 70
     1
102
RTVSPost2010Prop45
280
     0
102
RTVSPost2010PropOp45
 70
     1
102
RTVSPost2010Prop46
 90
       50
102
RTVSPost2010PropOp46
 70
     1
102
RTVSPost2010Prop47
 90
       50
102
RTVSPost2010PropOp47
 70
     1
102
RTVSPost2010Prop48
 90
       50
102
RTVSPost2010PropOp48
 70
     1
102
RTVSPost2010Prop49
280
     0
102
RTVSPost2010PropOp49
 70
     1
102
RTVSPost2010Prop50
 90
       50
102
RTVSPost2010PropOp50
 70
     1
102
RTVSPost2010Prop51ColorIndex
 90
      256
102
RTVSPost2010Prop51ColorRGB
 90
-16777216
102
RTVSPost2010PropOp51
 70
     0
102
RTVSPost2010Prop52
140
1.0
102
RTVSPost2010PropOp52
 70
     0
102
RTVSPost2010Prop53
 90
        2
102
RTVSPost2010PropOp53
 70
     1
102
RTVSPost2010Prop54
  1
strokes_ogs.tif
102
RTVSPost2010PropOp54
 70
     1
102
RTVSPost2010Prop55
280
     0
102
RTVSPost2010PropOp55
 70
     1
102
RTVSPost2010Prop56
140
1.0
102
RTVSPost2010PropOp56
 70
     1
102
RTVSPost2010Prop57
140
1.0
102
RTVSPost2010PropOp57
 70
     1
102
RTVSPropertyOp0
 70
     1
102
RTVSPropertyOp1
 70
     1
102
RTVSPropertyOp2
 70
     1
102
RTVSPropertyOp3
 70
     1
102
RTVSPropertyOp4
 70
     1
102
RTVSPropertyOp5
 70
     1
102
RTVSPropertyOp6
 70
     1
102
RTVSPropertyOp7
 70
     1
102
RTVSPropertyOp8
 70
     1
102
RTVSPropertyOp9
 70
     1
102
RTVSPropertyOp10
 70
     1
102
RTVSPropertyOp11
 70
     1
102
RTVSPropertyOp12
 70
     1
102
RTVSPropertyOp13
 70
     1
102
RTVSPropertyOp14
 70
     1
102
RTVSPropertyOp15
 70
     1
102
RTVSPropertyOp16
 70
     1
102
RTVSPropertyOp17
 70
     1
102
RTVSPropertyOp18
 70
     1
102
RTVSPropertyOp19
 70
     1
102
RTVSPropertyOp20
 70
     1
102
RTVSPropertyOp21
 70
     1
102
RTVSPropertyOp22
 70
     1
102
RTVSPropertyOp23
 70
     1
102
RTVSPropertyOp24
 70
     1
102
RTVSPropertyOp25
 70
     1
102
RTVSPropertyOp26
 70
     1
102
RTVSPropertyOp27
 70
     1
102
RTVSPropertyOp28
 70
     1
102
RTVSPropertyOp29
 70
     1
102
RTVSPropertyOp30
 70
     1
102
RTVSPropertyOp31
 70
     1
102
RTVSPropertyOp32
 70
     1
102
RTVSPropertyOp33
 70
     1
102
RTVSPropertyOp34
 70
     1
102
RTVSPropertyOp35
 70
     1
102
RTVSPropertyOp36
 70
     1
102
RTVSPropertyOp37
 70
     1
102
RTVSPropertyOp38
 70
     1
102
RTVSPropertyOp39
 70
     1
102
RTVSPropertyOp40
 70
     1
102
RTVSPropertyOp41
 70
     1
102
RTVSPropertyOp42
 70
     1
102
RTVSPropertyOp43
 70
     1
102
RTVSPropertyOp44
 70
     1
102
RTVSPropertyOp45
 70
     1
102
RTVSPropertyOp46
 70
     1
102
RTVSPropertyOp47
 70
     1
102
RTVSPropertyOp48
 70
     1
102
RTVSPropertyOp49
 70
     1
102
RTVSPropertyOp50
 70
     1
102
RTVSPropertyOp51
 70
     0
102
RTVSPropertyOp52
 70
     0
102
RTVSPropertyOp53
 70
     1
102
RTVSPropertyOp54
 70
     1
102
RTVSPropertyOp55
 70
     1
102
RTVSPropertyOp56
 70
     1
102
RTVSPropertyOp57
 70
     1
102
RTVSPropertyOp58
 70
     1
102
RTVSPropertyOp59
 70
     1
102
RTVSPropertyOp60
 70
     1
102
RTVSPropertyOp61
 70
     1
102
RTVSPropertyOp62
 70
     1
  0
XRECORD
  5
C793
102
{ACAD_REACTORS
330
C792
102
}
330
C792
100
AcDbXrecord
280
     1
102
RTVSPost2010Prop28
280
     0
102
RTVSPost2010PropOp28
 70
     1
102
RTVSPost2010Prop29
280
     1
102
RTVSPost2010PropOp29
 70
     1
102
RTVSPost2010Prop30
280
     1
102
RTVSPost2010PropOp30
 70
     1
102
RTVSPost2010Prop31
280
     0
102
RTVSPost2010PropOp31
 70
     1
102
RTVSPost2010Prop32
280
     0
102
RTVSPost2010PropOp32
 70
     1
102
RTVSPost2010Prop33
280
     0
102
RTVSPost2010PropOp33
 70
     1
102
RTVSPost2010Prop34
280
     0
102
RTVSPost2010PropOp34
 70
     1
102
RTVSPost2010Prop35
280
     0
102
RTVSPost2010PropOp35
 70
     1
102
RTVSPost2010Prop36
280
     0
102
RTVSPost2010PropOp36
 70
     1
102
RTVSPost2010Prop37
 90
       50
102
RTVSPost2010PropOp37
 70
     1
102
RTVSPost2010Prop38
140
0.0
102
RTVSPost2010PropOp38
 70
     1
102
RTVSPost2010Prop39
140
1.0
102
RTVSPost2010PropOp39
 70
     1
102
RTVSPost2010Prop40
 90
        0
102
RTVSPost2010PropOp40
 70
     1
102
RTVSPost2010Prop41ColorIndex
 90
       18
102
RTVSPost2010Prop41ColorRGB
 90
        0
102
RTVSPost2010PropOp41
 70
     1
102
RTVSPost2010Prop42
 90
       50
102
RTVSPost2010PropOp42
 70
     1
102
RTVSPost2010Prop43
 90
        3
102
RTVSPost2010PropOp43
 70
     1
102
RTVSPost2010Prop44ColorIndex
 90
        5
102
RTVSPost2010Prop44ColorRGB
 90
      255
102
RTVSPost2010PropOp44
 70
     1
102
RTVSPost2010Prop45
280
     0
102
RTVSPost2010PropOp45
 70
     1
102
RTVSPost2010Prop46
 90
       50
102
RTVSPost2010PropOp46
 70
     1
102
RTVSPost2010Prop47
 90
       50
102
RTVSPost2010PropOp47
 70
     1
102
RTVSPost2010Prop48
 90
       50
102
RTVSPost2010PropOp48
 70
     1
102
RTVSPost2010Prop49
280
     0
102
RTVSPost2010PropOp49
 70
     1
102
RTVSPost2010Prop50
 90
       50
102
RTVSPost2010PropOp50
 70
     1
102
RTVSPost2010Prop51ColorIndex
 90
      256
102
RTVSPost2010Prop51ColorRGB
 90
-16777216
102
RTVSPost2010PropOp51
 70
     0
102
RTVSPost2010Prop52
140
1.0
102
RTVSPost2010PropOp52
 70
     0
102
RTVSPost2010Prop53
 90
        2
102
RTVSPost2010PropOp53
 70
     1
102
RTVSPost2010Prop54
  1
strokes_ogs.tif
102
RTVSPost2010PropOp54
 70
     1
102
RTVSPost2010Prop55
280
     0
102
RTVSPost2010PropOp55
 70
     1
102
RTVSPost2010Prop56
140
1.0
102
RTVSPost2010PropOp56
 70
     1
102
RTVSPost2010Prop57
140
1.0
102
RTVSPost2010PropOp57
 70
     1
102
RTVSPropertyOp0
 70
     1
102
RTVSPropertyOp1
 70
     1
102
RTVSPropertyOp2
 70
     1
102
RTVSPropertyOp3
 70
     1
102
RTVSPropertyOp4
 70
     1
102
RTVSPropertyOp5
 70
     1
102
RTVSPropertyOp6
 70
     1
102
RTVSPropertyOp7
 70
     1
102
RTVSPropertyOp8
 70
     1
102
RTVSPropertyOp9
 70
     1
102
RTVSPropertyOp10
 70
     1
102
RTVSPropertyOp11
 70
     1
102
RTVSPropertyOp12
 70
     1
102
RTVSPropertyOp13
 70
     1
102
RTVSPropertyOp14
 70
     1
102
RTVSPropertyOp15
 70
     1
102
RTVSPropertyOp16
 70
     1
102
RTVSPropertyOp17
 70
     1
102
RTVSPropertyOp18
 70
     1
102
RTVSPropertyOp19
 70
     1
102
RTVSPropertyOp20
 70
     1
102
RTVSPropertyOp21
 70
     1
102
RTVSPropertyOp22
 70
     1
102
RTVSPropertyOp23
 70
     1
102
RTVSPropertyOp24
 70
     1
102
RTVSPropertyOp25
 70
     1
102
RTVSPropertyOp26
 70
     1
102
RTVSPropertyOp27
 70
     1
102
RTVSPropertyOp28
 70
     1
102
RTVSPropertyOp29
 70
     1
102
RTVSPropertyOp30
 70
     1
102
RTVSPropertyOp31
 70
     1
102
RTVSPropertyOp32
 70
     1
102
RTVSPropertyOp33
 70
     1
102
RTVSPropertyOp34
 70
     1
102
RTVSPropertyOp35
 70
     1
102
RTVSPropertyOp36
 70
     1
102
RTVSPropertyOp37
 70
     1
102
RTVSPropertyOp38
 70
     1
102
RTVSPropertyOp39
 70
     1
102
RTVSPropertyOp40
 70
     1
102
RTVSPropertyOp41
 70
     1
102
RTVSPropertyOp42
 70
     1
102
RTVSPropertyOp43
 70
     1
102
RTVSPropertyOp44
 70
     1
102
RTVSPropertyOp45
 70
     1
102
RTVSPropertyOp46
 70
     1
102
RTVSPropertyOp47
 70
     1
102
RTVSPropertyOp48
 70
     1
102
RTVSPropertyOp49
 70
     1
102
RTVSPropertyOp50
 70
     1
102
RTVSPropertyOp51
 70
     0
102
RTVSPropertyOp52
 70
     0
102
RTVSPropertyOp53
 70
     1
102
RTVSPropertyOp54
 70
     1
102
RTVSPropertyOp55
 70
     1
102
RTVSPropertyOp56
 70
     1
102
RTVSPropertyOp57
 70
     1
102
RTVSPropertyOp58
 70
     1
102
RTVSPropertyOp59
 70
     1
102
RTVSPropertyOp60
 70
     1
102
RTVSPropertyOp61
 70
     1
102
RTVSPropertyOp62
 70
     1
  0
XRECORD
  5
C791
102
{ACAD_REACTORS
330
C790
102
}
330
C790
100
AcDbXrecord
280
     1
102
RTVSPost2010Prop28
280
     0
102
RTVSPost2010PropOp28
 70
     1
102
RTVSPost2010Prop29
280
     1
102
RTVSPost2010PropOp29
 70
     1
102
RTVSPost2010Prop30
280
     1
102
RTVSPost2010PropOp30
 70
     1
102
RTVSPost2010Prop31
280
     0
102
RTVSPost2010PropOp31
 70
     1
102
RTVSPost2010Prop32
280
     0
102
RTVSPost2010PropOp32
 70
     1
102
RTVSPost2010Prop33
280
     0
102
RTVSPost2010PropOp33
 70
     1
102
RTVSPost2010Prop34
280
     0
102
RTVSPost2010PropOp34
 70
     1
102
RTVSPost2010Prop35
280
     0
102
RTVSPost2010PropOp35
 70
     1
102
RTVSPost2010Prop36
280
     0
102
RTVSPost2010PropOp36
 70
     1
102
RTVSPost2010Prop37
 90
       50
102
RTVSPost2010PropOp37
 70
     1
102
RTVSPost2010Prop38
140
0.0
102
RTVSPost2010PropOp38
 70
     1
102
RTVSPost2010Prop39
140
1.0
102
RTVSPost2010PropOp39
 70
     1
102
RTVSPost2010Prop40
 90
        0
102
RTVSPost2010PropOp40
 70
     1
102
RTVSPost2010Prop41ColorIndex
 90
       18
102
RTVSPost2010Prop41ColorRGB
 90
        0
102
RTVSPost2010PropOp41
 70
     1
102
RTVSPost2010Prop42
 90
       50
102
RTVSPost2010PropOp42
 70
     1
102
RTVSPost2010Prop43
 90
        3
102
RTVSPost2010PropOp43
 70
     1
102
RTVSPost2010Prop44ColorIndex
 90
        5
102
RTVSPost2010Prop44ColorRGB
 90
      255
102
RTVSPost2010PropOp44
 70
     1
102
RTVSPost2010Prop45
280
     0
102
RTVSPost2010PropOp45
 70
     1
102
RTVSPost2010Prop46
 90
       50
102
RTVSPost2010PropOp46
 70
     1
102
RTVSPost2010Prop47
 90
       50
102
RTVSPost2010PropOp47
 70
     1
102
RTVSPost2010Prop48
 90
       50
102
RTVSPost2010PropOp48
 70
     1
102
RTVSPost2010Prop49
280
     0
102
RTVSPost2010PropOp49
 70
     1
102
RTVSPost2010Prop50
 90
       50
102
RTVSPost2010PropOp50
 70
     1
102
RTVSPost2010Prop51ColorIndex
 90
      256
102
RTVSPost2010Prop51ColorRGB
 90
-16777216
102
RTVSPost2010PropOp51
 70
     0
102
RTVSPost2010Prop52
140
1.0
102
RTVSPost2010PropOp52
 70
     0
102
RTVSPost2010Prop53
 90
        2
102
RTVSPost2010PropOp53
 70
     1
102
RTVSPost2010Prop54
  1
strokes_ogs.tif
102
RTVSPost2010PropOp54
 70
     1
102
RTVSPost2010Prop55
280
     0
102
RTVSPost2010PropOp55
 70
     1
102
RTVSPost2010Prop56
140
1.0
102
RTVSPost2010PropOp56
 70
     1
102
RTVSPost2010Prop57
140
1.0
102
RTVSPost2010PropOp57
 70
     1
102
RTVSPropertyOp0
 70
     1
102
RTVSPropertyOp1
 70
     1
102
RTVSPropertyOp2
 70
     1
102
RTVSPropertyOp3
 70
     1
102
RTVSPropertyOp4
 70
     1
102
RTVSPropertyOp5
 70
     1
102
RTVSPropertyOp6
 70
     1
102
RTVSPropertyOp7
 70
     1
102
RTVSPropertyOp8
 70
     1
102
RTVSPropertyOp9
 70
     1
102
RTVSPropertyOp10
 70
     1
102
RTVSPropertyOp11
 70
     1
102
RTVSPropertyOp12
 70
     1
102
RTVSPropertyOp13
 70
     1
102
RTVSPropertyOp14
 70
     1
102
RTVSPropertyOp15
 70
     1
102
RTVSPropertyOp16
 70
     1
102
RTVSPropertyOp17
 70
     1
102
RTVSPropertyOp18
 70
     1
102
RTVSPropertyOp19
 70
     1
102
RTVSPropertyOp20
 70
     1
102
RTVSPropertyOp21
 70
     1
102
RTVSPropertyOp22
 70
     1
102
RTVSPropertyOp23
 70
     1
102
RTVSPropertyOp24
 70
     1
102
RTVSPropertyOp25
 70
     1
102
RTVSPropertyOp26
 70
     1
102
RTVSPropertyOp27
 70
     1
102
RTVSPropertyOp28
 70
     1
102
RTVSPropertyOp29
 70
     1
102
RTVSPropertyOp30
 70
     1
102
RTVSPropertyOp31
 70
     1
102
RTVSPropertyOp32
 70
     1
102
RTVSPropertyOp33
 70
     1
102
RTVSPropertyOp34
 70
     1
102
RTVSPropertyOp35
 70
     1
102
RTVSPropertyOp36
 70
     1
102
RTVSPropertyOp37
 70
     1
102
RTVSPropertyOp38
 70
     1
102
RTVSPropertyOp39
 70
     1
102
RTVSPropertyOp40
 70
     1
102
RTVSPropertyOp41
 70
     1
102
RTVSPropertyOp42
 70
     1
102
RTVSPropertyOp43
 70
     1
102
RTVSPropertyOp44
 70
     1
102
RTVSPropertyOp45
 70
     1
102
RTVSPropertyOp46
 70
     1
102
RTVSPropertyOp47
 70
     1
102
RTVSPropertyOp48
 70
     1
102
RTVSPropertyOp49
 70
     1
102
RTVSPropertyOp50
 70
     1
102
RTVSPropertyOp51
 70
     0
102
RTVSPropertyOp52
 70
     0
102
RTVSPropertyOp53
 70
     1
102
RTVSPropertyOp54
 70
     1
102
RTVSPropertyOp55
 70
     1
102
RTVSPropertyOp56
 70
     1
102
RTVSPropertyOp57
 70
     1
102
RTVSPropertyOp58
 70
     1
102
RTVSPropertyOp59
 70
     1
102
RTVSPropertyOp60
 70
     1
102
RTVSPropertyOp61
 70
     1
102
RTVSPropertyOp62
 70
     1
  0
XRECORD
  5
C78B
102
{ACAD_REACTORS
330
C78A
102
}
330
C78A
100
AcDbXrecord
280
     1
102
RTVSPost2010Prop28
280
     0
102
RTVSPost2010PropOp28
 70
     1
102
RTVSPost2010Prop29
280
     1
102
RTVSPost2010PropOp29
 70
     1
102
RTVSPost2010Prop30
280
     1
102
RTVSPost2010PropOp30
 70
     1
102
RTVSPost2010Prop31
280
     0
102
RTVSPost2010PropOp31
 70
     1
102
RTVSPost2010Prop32
280
     0
102
RTVSPost2010PropOp32
 70
     1
102
RTVSPost2010Prop33
280
     0
102
RTVSPost2010PropOp33
 70
     1
102
RTVSPost2010Prop34
280
     0
102
RTVSPost2010PropOp34
 70
     1
102
RTVSPost2010Prop35
280
     0
102
RTVSPost2010PropOp35
 70
     1
102
RTVSPost2010Prop36
280
     0
102
RTVSPost2010PropOp36
 70
     1
102
RTVSPost2010Prop37
 90
       50
102
RTVSPost2010PropOp37
 70
     1
102
RTVSPost2010Prop38
140
0.0
102
RTVSPost2010PropOp38
 70
     1
102
RTVSPost2010Prop39
140
1.0
102
RTVSPost2010PropOp39
 70
     1
102
RTVSPost2010Prop40
 90
        0
102
RTVSPost2010PropOp40
 70
     1
102
RTVSPost2010Prop41ColorIndex
 90
       18
102
RTVSPost2010Prop41ColorRGB
 90
        0
102
RTVSPost2010PropOp41
 70
     1
102
RTVSPost2010Prop42
 90
       50
102
RTVSPost2010PropOp42
 70
     1
102
RTVSPost2010Prop43
 90
        3
102
RTVSPost2010PropOp43
 70
     1
102
RTVSPost2010Prop44ColorIndex
 90
        5
102
RTVSPost2010Prop44ColorRGB
 90
      255
102
RTVSPost2010PropOp44
 70
     1
102
RTVSPost2010Prop45
280
     0
102
RTVSPost2010PropOp45
 70
     1
102
RTVSPost2010Prop46
 90
       50
102
RTVSPost2010PropOp46
 70
     1
102
RTVSPost2010Prop47
 90
       50
102
RTVSPost2010PropOp47
 70
     1
102
RTVSPost2010Prop48
 90
       50
102
RTVSPost2010PropOp48
 70
     1
102
RTVSPost2010Prop49
280
     0
102
RTVSPost2010PropOp49
 70
     1
102
RTVSPost2010Prop50
 90
       50
102
RTVSPost2010PropOp50
 70
     1
102
RTVSPost2010Prop51ColorIndex
 90
      256
102
RTVSPost2010Prop51ColorRGB
 90
-16777216
102
RTVSPost2010PropOp51
 70
     0
102
RTVSPost2010Prop52
140
1.0
102
RTVSPost2010PropOp52
 70
     0
102
RTVSPost2010Prop53
 90
        2
102
RTVSPost2010PropOp53
 70
     1
102
RTVSPost2010Prop54
  1
strokes_ogs.tif
102
RTVSPost2010PropOp54
 70
     1
102
RTVSPost2010Prop55
280
     0
102
RTVSPost2010PropOp55
 70
     1
102
RTVSPost2010Prop56
140
1.0
102
RTVSPost2010PropOp56
 70
     1
102
RTVSPost2010Prop57
140
1.0
102
RTVSPost2010PropOp57
 70
     1
102
RTVSPropertyOp0
 70
     1
102
RTVSPropertyOp1
 70
     1
102
RTVSPropertyOp2
 70
     1
102
RTVSPropertyOp3
 70
     1
102
RTVSPropertyOp4
 70
     1
102
RTVSPropertyOp5
 70
     1
102
RTVSPropertyOp6
 70
     1
102
RTVSPropertyOp7
 70
     1
102
RTVSPropertyOp8
 70
     1
102
RTVSPropertyOp9
 70
     1
102
RTVSPropertyOp10
 70
     1
102
RTVSPropertyOp11
 70
     1
102
RTVSPropertyOp12
 70
     1
102
RTVSPropertyOp13
 70
     1
102
RTVSPropertyOp14
 70
     1
102
RTVSPropertyOp15
 70
     1
102
RTVSPropertyOp16
 70
     1
102
RTVSPropertyOp17
 70
     1
102
RTVSPropertyOp18
 70
     1
102
RTVSPropertyOp19
 70
     1
102
RTVSPropertyOp20
 70
     1
102
RTVSPropertyOp21
 70
     1
102
RTVSPropertyOp22
 70
     1
102
RTVSPropertyOp23
 70
     1
102
RTVSPropertyOp24
 70
     1
102
RTVSPropertyOp25
 70
     1
102
RTVSPropertyOp26
 70
     1
102
RTVSPropertyOp27
 70
     1
102
RTVSPropertyOp28
 70
     1
102
RTVSPropertyOp29
 70
     1
102
RTVSPropertyOp30
 70
     1
102
RTVSPropertyOp31
 70
     1
102
RTVSPropertyOp32
 70
     1
102
RTVSPropertyOp33
 70
     1
102
RTVSPropertyOp34
 70
     1
102
RTVSPropertyOp35
 70
     1
102
RTVSPropertyOp36
 70
     1
102
RTVSPropertyOp37
 70
     1
102
RTVSPropertyOp38
 70
     1
102
RTVSPropertyOp39
 70
     1
102
RTVSPropertyOp40
 70
     1
102
RTVSPropertyOp41
 70
     1
102
RTVSPropertyOp42
 70
     1
102
RTVSPropertyOp43
 70
     1
102
RTVSPropertyOp44
 70
     1
102
RTVSPropertyOp45
 70
     1
102
RTVSPropertyOp46
 70
     1
102
RTVSPropertyOp47
 70
     1
102
RTVSPropertyOp48
 70
     1
102
RTVSPropertyOp49
 70
     1
102
RTVSPropertyOp50
 70
     1
102
RTVSPropertyOp51
 70
     0
102
RTVSPropertyOp52
 70
     0
102
RTVSPropertyOp53
 70
     1
102
RTVSPropertyOp54
 70
     1
102
RTVSPropertyOp55
 70
     1
102
RTVSPropertyOp56
 70
     1
102
RTVSPropertyOp57
 70
     1
102
RTVSPropertyOp58
 70
     1
102
RTVSPropertyOp59
 70
     1
102
RTVSPropertyOp60
 70
     1
102
RTVSPropertyOp61
 70
     1
102
RTVSPropertyOp62
 70
     1
  0
XRECORD
  5
C78D
102
{ACAD_REACTORS
330
C78C
102
}
330
C78C
100
AcDbXrecord
280
     1
102
RTVSPost2010Prop28
280
     0
102
RTVSPost2010PropOp28
 70
     1
102
RTVSPost2010Prop29
280
     1
102
RTVSPost2010PropOp29
 70
     1
102
RTVSPost2010Prop30
280
     1
102
RTVSPost2010PropOp30
 70
     1
102
RTVSPost2010Prop31
280
     0
102
RTVSPost2010PropOp31
 70
     1
102
RTVSPost2010Prop32
280
     0
102
RTVSPost2010PropOp32
 70
     1
102
RTVSPost2010Prop33
280
     0
102
RTVSPost2010PropOp33
 70
     1
102
RTVSPost2010Prop34
280
     0
102
RTVSPost2010PropOp34
 70
     1
102
RTVSPost2010Prop35
280
     0
102
RTVSPost2010PropOp35
 70
     1
102
RTVSPost2010Prop36
280
     0
102
RTVSPost2010PropOp36
 70
     1
102
RTVSPost2010Prop37
 90
       50
102
RTVSPost2010PropOp37
 70
     1
102
RTVSPost2010Prop38
140
0.0
102
RTVSPost2010PropOp38
 70
     1
102
RTVSPost2010Prop39
140
1.0
102
RTVSPost2010PropOp39
 70
     1
102
RTVSPost2010Prop40
 90
        0
102
RTVSPost2010PropOp40
 70
     1
102
RTVSPost2010Prop41ColorIndex
 90
       18
102
RTVSPost2010Prop41ColorRGB
 90
        0
102
RTVSPost2010PropOp41
 70
     1
102
RTVSPost2010Prop42
 90
       50
102
RTVSPost2010PropOp42
 70
     1
102
RTVSPost2010Prop43
 90
        3
102
RTVSPost2010PropOp43
 70
     1
102
RTVSPost2010Prop44ColorIndex
 90
        5
102
RTVSPost2010Prop44ColorRGB
 90
      255
102
RTVSPost2010PropOp44
 70
     1
102
RTVSPost2010Prop45
280
     0
102
RTVSPost2010PropOp45
 70
     1
102
RTVSPost2010Prop46
 90
       50
102
RTVSPost2010PropOp46
 70
     1
102
RTVSPost2010Prop47
 90
       50
102
RTVSPost2010PropOp47
 70
     1
102
RTVSPost2010Prop48
 90
       50
102
RTVSPost2010PropOp48
 70
     1
102
RTVSPost2010Prop49
280
     0
102
RTVSPost2010PropOp49
 70
     1
102
RTVSPost2010Prop50
 90
       50
102
RTVSPost2010PropOp50
 70
     1
102
RTVSPost2010Prop51ColorIndex
 90
      256
102
RTVSPost2010Prop51ColorRGB
 90
-16777216
102
RTVSPost2010PropOp51
 70
     0
102
RTVSPost2010Prop52
140
1.0
102
RTVSPost2010PropOp52
 70
     0
102
RTVSPost2010Prop53
 90
        2
102
RTVSPost2010PropOp53
 70
     1
102
RTVSPost2010Prop54
  1
strokes_ogs.tif
102
RTVSPost2010PropOp54
 70
     1
102
RTVSPost2010Prop55
280
     0
102
RTVSPost2010PropOp55
 70
     1
102
RTVSPost2010Prop56
140
1.0
102
RTVSPost2010PropOp56
 70
     1
102
RTVSPost2010Prop57
140
1.0
102
RTVSPost2010PropOp57
 70
     1
102
RTVSPropertyOp0
 70
     1
102
RTVSPropertyOp1
 70
     1
102
RTVSPropertyOp2
 70
     1
102
RTVSPropertyOp3
 70
     1
102
RTVSPropertyOp4
 70
     1
102
RTVSPropertyOp5
 70
     1
102
RTVSPropertyOp6
 70
     1
102
RTVSPropertyOp7
 70
     1
102
RTVSPropertyOp8
 70
     1
102
RTVSPropertyOp9
 70
     1
102
RTVSPropertyOp10
 70
     1
102
RTVSPropertyOp11
 70
     1
102
RTVSPropertyOp12
 70
     1
102
RTVSPropertyOp13
 70
     1
102
RTVSPropertyOp14
 70
     1
102
RTVSPropertyOp15
 70
     1
102
RTVSPropertyOp16
 70
     1
102
RTVSPropertyOp17
 70
     1
102
RTVSPropertyOp18
 70
     1
102
RTVSPropertyOp19
 70
     1
102
RTVSPropertyOp20
 70
     1
102
RTVSPropertyOp21
 70
     1
102
RTVSPropertyOp22
 70
     1
102
RTVSPropertyOp23
 70
     1
102
RTVSPropertyOp24
 70
     1
102
RTVSPropertyOp25
 70
     1
102
RTVSPropertyOp26
 70
     1
102
RTVSPropertyOp27
 70
     1
102
RTVSPropertyOp28
 70
     1
102
RTVSPropertyOp29
 70
     1
102
RTVSPropertyOp30
 70
     1
102
RTVSPropertyOp31
 70
     1
102
RTVSPropertyOp32
 70
     1
102
RTVSPropertyOp33
 70
     1
102
RTVSPropertyOp34
 70
     1
102
RTVSPropertyOp35
 70
     1
102
RTVSPropertyOp36
 70
     1
102
RTVSPropertyOp37
 70
     1
102
RTVSPropertyOp38
 70
     1
102
RTVSPropertyOp39
 70
     1
102
RTVSPropertyOp40
 70
     1
102
RTVSPropertyOp41
 70
     1
102
RTVSPropertyOp42
 70
     1
102
RTVSPropertyOp43
 70
     1
102
RTVSPropertyOp44
 70
     1
102
RTVSPropertyOp45
 70
     1
102
RTVSPropertyOp46
 70
     1
102
RTVSPropertyOp47
 70
     1
102
RTVSPropertyOp48
 70
     1
102
RTVSPropertyOp49
 70
     1
102
RTVSPropertyOp50
 70
     1
102
RTVSPropertyOp51
 70
     0
102
RTVSPropertyOp52
 70
     0
102
RTVSPropertyOp53
 70
     1
102
RTVSPropertyOp54
 70
     1
102
RTVSPropertyOp55
 70
     1
102
RTVSPropertyOp56
 70
     1
102
RTVSPropertyOp57
 70
     1
102
RTVSPropertyOp58
 70
     1
102
RTVSPropertyOp59
 70
     1
102
RTVSPropertyOp60
 70
     1
102
RTVSPropertyOp61
 70
     1
102
RTVSPropertyOp62
 70
     1
  0
XRECORD
  5
C783
102
{ACAD_REACTORS
330
C782
102
}
330
C782
100
AcDbXrecord
280
     1
102
RTVSPost2010Prop28
280
     0
102
RTVSPost2010PropOp28
 70
     1
102
RTVSPost2010Prop29
280
     1
102
RTVSPost2010PropOp29
 70
     1
102
RTVSPost2010Prop30
280
     1
102
RTVSPost2010PropOp30
 70
     1
102
RTVSPost2010Prop31
280
     0
102
RTVSPost2010PropOp31
 70
     1
102
RTVSPost2010Prop32
280
     0
102
RTVSPost2010PropOp32
 70
     1
102
RTVSPost2010Prop33
280
     0
102
RTVSPost2010PropOp33
 70
     1
102
RTVSPost2010Prop34
280
     0
102
RTVSPost2010PropOp34
 70
     1
102
RTVSPost2010Prop35
280
     0
102
RTVSPost2010PropOp35
 70
     1
102
RTVSPost2010Prop36
280
     0
102
RTVSPost2010PropOp36
 70
     1
102
RTVSPost2010Prop37
 90
       50
102
RTVSPost2010PropOp37
 70
     1
102
RTVSPost2010Prop38
140
0.0
102
RTVSPost2010PropOp38
 70
     1
102
RTVSPost2010Prop39
140
1.0
102
RTVSPost2010PropOp39
 70
     1
102
RTVSPost2010Prop40
 90
        0
102
RTVSPost2010PropOp40
 70
     1
102
RTVSPost2010Prop41ColorIndex
 90
       18
102
RTVSPost2010Prop41ColorRGB
 90
        0
102
RTVSPost2010PropOp41
 70
     1
102
RTVSPost2010Prop42
 90
       50
102
RTVSPost2010PropOp42
 70
     1
102
RTVSPost2010Prop43
 90
        3
102
RTVSPost2010PropOp43
 70
     1
102
RTVSPost2010Prop44ColorIndex
 90
        5
102
RTVSPost2010Prop44ColorRGB
 90
      255
102
RTVSPost2010PropOp44
 70
     1
102
RTVSPost2010Prop45
280
     0
102
RTVSPost2010PropOp45
 70
     1
102
RTVSPost2010Prop46
 90
       50
102
RTVSPost2010PropOp46
 70
     1
102
RTVSPost2010Prop47
 90
       50
102
RTVSPost2010PropOp47
 70
     1
102
RTVSPost2010Prop48
 90
       50
102
RTVSPost2010PropOp48
 70
     1
102
RTVSPost2010Prop49
280
     0
102
RTVSPost2010PropOp49
 70
     1
102
RTVSPost2010Prop50
 90
       50
102
RTVSPost2010PropOp50
 70
     1
102
RTVSPost2010Prop51ColorIndex
 90
      256
102
RTVSPost2010Prop51ColorRGB
 90
-16777216
102
RTVSPost2010PropOp51
 70
     0
102
RTVSPost2010Prop52
140
1.0
102
RTVSPost2010PropOp52
 70
     0
102
RTVSPost2010Prop53
 90
        2
102
RTVSPost2010PropOp53
 70
     1
102
RTVSPost2010Prop54
  1
strokes_ogs.tif
102
RTVSPost2010PropOp54
 70
     1
102
RTVSPost2010Prop55
280
     0
102
RTVSPost2010PropOp55
 70
     1
102
RTVSPost2010Prop56
140
1.0
102
RTVSPost2010PropOp56
 70
     1
102
RTVSPost2010Prop57
140
1.0
102
RTVSPost2010PropOp57
 70
     1
102
RTVSPropertyOp0
 70
     1
102
RTVSPropertyOp1
 70
     1
102
RTVSPropertyOp2
 70
     1
102
RTVSPropertyOp3
 70
     1
102
RTVSPropertyOp4
 70
     1
102
RTVSPropertyOp5
 70
     1
102
RTVSPropertyOp6
 70
     1
102
RTVSPropertyOp7
 70
     1
102
RTVSPropertyOp8
 70
     1
102
RTVSPropertyOp9
 70
     1
102
RTVSPropertyOp10
 70
     1
102
RTVSPropertyOp11
 70
     1
102
RTVSPropertyOp12
 70
     1
102
RTVSPropertyOp13
 70
     1
102
RTVSPropertyOp14
 70
     1
102
RTVSPropertyOp15
 70
     1
102
RTVSPropertyOp16
 70
     1
102
RTVSPropertyOp17
 70
     1
102
RTVSPropertyOp18
 70
     1
102
RTVSPropertyOp19
 70
     1
102
RTVSPropertyOp20
 70
     1
102
RTVSPropertyOp21
 70
     1
102
RTVSPropertyOp22
 70
     1
102
RTVSPropertyOp23
 70
     1
102
RTVSPropertyOp24
 70
     1
102
RTVSPropertyOp25
 70
     1
102
RTVSPropertyOp26
 70
     1
102
RTVSPropertyOp27
 70
     1
102
RTVSPropertyOp28
 70
     1
102
RTVSPropertyOp29
 70
     1
102
RTVSPropertyOp30
 70
     1
102
RTVSPropertyOp31
 70
     1
102
RTVSPropertyOp32
 70
     1
102
RTVSPropertyOp33
 70
     1
102
RTVSPropertyOp34
 70
     1
102
RTVSPropertyOp35
 70
     1
102
RTVSPropertyOp36
 70
     1
102
RTVSPropertyOp37
 70
     1
102
RTVSPropertyOp38
 70
     1
102
RTVSPropertyOp39
 70
     1
102
RTVSPropertyOp40
 70
     1
102
RTVSPropertyOp41
 70
     1
102
RTVSPropertyOp42
 70
     1
102
RTVSPropertyOp43
 70
     1
102
RTVSPropertyOp44
 70
     1
102
RTVSPropertyOp45
 70
     1
102
RTVSPropertyOp46
 70
     1
102
RTVSPropertyOp47
 70
     1
102
RTVSPropertyOp48
 70
     1
102
RTVSPropertyOp49
 70
     1
102
RTVSPropertyOp50
 70
     1
102
RTVSPropertyOp51
 70
     0
102
RTVSPropertyOp52
 70
     0
102
RTVSPropertyOp53
 70
     1
102
RTVSPropertyOp54
 70
     1
102
RTVSPropertyOp55
 70
     1
102
RTVSPropertyOp56
 70
     1
102
RTVSPropertyOp57
 70
     1
102
RTVSPropertyOp58
 70
     1
102
RTVSPropertyOp59
 70
     1
102
RTVSPropertyOp60
 70
     1
102
RTVSPropertyOp61
 70
     1
102
RTVSPropertyOp62
 70
     1
  0
XRECORD
  5
C777
102
{ACAD_REACTORS
330
C776
102
}
330
C776
100
AcDbXrecord
280
     1
102
RTVSPost2010Prop28
280
     0
102
RTVSPost2010PropOp28
 70
     1
102
RTVSPost2010Prop29
280
     1
102
RTVSPost2010PropOp29
 70
     1
102
RTVSPost2010Prop30
280
     1
102
RTVSPost2010PropOp30
 70
     1
102
RTVSPost2010Prop31
280
     0
102
RTVSPost2010PropOp31
 70
     1
102
RTVSPost2010Prop32
280
     0
102
RTVSPost2010PropOp32
 70
     1
102
RTVSPost2010Prop33
280
     0
102
RTVSPost2010PropOp33
 70
     1
102
RTVSPost2010Prop34
280
     0
102
RTVSPost2010PropOp34
 70
     1
102
RTVSPost2010Prop35
280
     0
102
RTVSPost2010PropOp35
 70
     1
102
RTVSPost2010Prop36
280
     0
102
RTVSPost2010PropOp36
 70
     1
102
RTVSPost2010Prop37
 90
       50
102
RTVSPost2010PropOp37
 70
     1
102
RTVSPost2010Prop38
140
0.0
102
RTVSPost2010PropOp38
 70
     1
102
RTVSPost2010Prop39
140
1.0
102
RTVSPost2010PropOp39
 70
     1
102
RTVSPost2010Prop40
 90
        0
102
RTVSPost2010PropOp40
 70
     1
102
RTVSPost2010Prop41ColorIndex
 90
       18
102
RTVSPost2010Prop41ColorRGB
 90
        0
102
RTVSPost2010PropOp41
 70
     1
102
RTVSPost2010Prop42
 90
       50
102
RTVSPost2010PropOp42
 70
     1
102
RTVSPost2010Prop43
 90
        3
102
RTVSPost2010PropOp43
 70
     1
102
RTVSPost2010Prop44ColorIndex
 90
        5
102
RTVSPost2010Prop44ColorRGB
 90
      255
102
RTVSPost2010PropOp44
 70
     1
102
RTVSPost2010Prop45
280
     0
102
RTVSPost2010PropOp45
 70
     1
102
RTVSPost2010Prop46
 90
       50
102
RTVSPost2010PropOp46
 70
     1
102
RTVSPost2010Prop47
 90
       50
102
RTVSPost2010PropOp47
 70
     1
102
RTVSPost2010Prop48
 90
       50
102
RTVSPost2010PropOp48
 70
     1
102
RTVSPost2010Prop49
280
     0
102
RTVSPost2010PropOp49
 70
     1
102
RTVSPost2010Prop50
 90
       50
102
RTVSPost2010PropOp50
 70
     1
102
RTVSPost2010Prop51ColorIndex
 90
      256
102
RTVSPost2010Prop51ColorRGB
 90
-16777216
102
RTVSPost2010PropOp51
 70
     0
102
RTVSPost2010Prop52
140
1.0
102
RTVSPost2010PropOp52
 70
     0
102
RTVSPost2010Prop53
 90
        2
102
RTVSPost2010PropOp53
 70
     1
102
RTVSPost2010Prop54
  1
strokes_ogs.tif
102
RTVSPost2010PropOp54
 70
     1
102
RTVSPost2010Prop55
280
     0
102
RTVSPost2010PropOp55
 70
     1
102
RTVSPost2010Prop56
140
1.0
102
RTVSPost2010PropOp56
 70
     1
102
RTVSPost2010Prop57
140
1.0
102
RTVSPost2010PropOp57
 70
     1
102
RTVSPropertyOp0
 70
     1
102
RTVSPropertyOp1
 70
     1
102
RTVSPropertyOp2
 70
     1
102
RTVSPropertyOp3
 70
     1
102
RTVSPropertyOp4
 70
     1
102
RTVSPropertyOp5
 70
     1
102
RTVSPropertyOp6
 70
     1
102
RTVSPropertyOp7
 70
     1
102
RTVSPropertyOp8
 70
     1
102
RTVSPropertyOp9
 70
     1
102
RTVSPropertyOp10
 70
     1
102
RTVSPropertyOp11
 70
     1
102
RTVSPropertyOp12
 70
     1
102
RTVSPropertyOp13
 70
     1
102
RTVSPropertyOp14
 70
     1
102
RTVSPropertyOp15
 70
     1
102
RTVSPropertyOp16
 70
     1
102
RTVSPropertyOp17
 70
     1
102
RTVSPropertyOp18
 70
     1
102
RTVSPropertyOp19
 70
     1
102
RTVSPropertyOp20
 70
     1
102
RTVSPropertyOp21
 70
     1
102
RTVSPropertyOp22
 70
     1
102
RTVSPropertyOp23
 70
     1
102
RTVSPropertyOp24
 70
     1
102
RTVSPropertyOp25
 70
     1
102
RTVSPropertyOp26
 70
     1
102
RTVSPropertyOp27
 70
     1
102
RTVSPropertyOp28
 70
     1
102
RTVSPropertyOp29
 70
     1
102
RTVSPropertyOp30
 70
     1
102
RTVSPropertyOp31
 70
     1
102
RTVSPropertyOp32
 70
     1
102
RTVSPropertyOp33
 70
     1
102
RTVSPropertyOp34
 70
     1
102
RTVSPropertyOp35
 70
     1
102
RTVSPropertyOp36
 70
     1
102
RTVSPropertyOp37
 70
     1
102
RTVSPropertyOp38
 70
     1
102
RTVSPropertyOp39
 70
     1
102
RTVSPropertyOp40
 70
     1
102
RTVSPropertyOp41
 70
     1
102
RTVSPropertyOp42
 70
     1
102
RTVSPropertyOp43
 70
     1
102
RTVSPropertyOp44
 70
     1
102
RTVSPropertyOp45
 70
     1
102
RTVSPropertyOp46
 70
     1
102
RTVSPropertyOp47
 70
     1
102
RTVSPropertyOp48
 70
     1
102
RTVSPropertyOp49
 70
     1
102
RTVSPropertyOp50
 70
     1
102
RTVSPropertyOp51
 70
     0
102
RTVSPropertyOp52
 70
     0
102
RTVSPropertyOp53
 70
     1
102
RTVSPropertyOp54
 70
     1
102
RTVSPropertyOp55
 70
     1
102
RTVSPropertyOp56
 70
     1
102
RTVSPropertyOp57
 70
     1
102
RTVSPropertyOp58
 70
     1
102
RTVSPropertyOp59
 70
     1
102
RTVSPropertyOp60
 70
     1
102
RTVSPropertyOp61
 70
     1
102
RTVSPropertyOp62
 70
     1
  0
XRECORD
  5
C78F
102
{ACAD_REACTORS
330
C78E
102
}
330
C78E
100
AcDbXrecord
280
     1
102
RTVSPost2010Prop28
280
     0
102
RTVSPost2010PropOp28
 70
     1
102
RTVSPost2010Prop29
280
     1
102
RTVSPost2010PropOp29
 70
     1
102
RTVSPost2010Prop30
280
     1
102
RTVSPost2010PropOp30
 70
     1
102
RTVSPost2010Prop31
280
     0
102
RTVSPost2010PropOp31
 70
     1
102
RTVSPost2010Prop32
280
     0
102
RTVSPost2010PropOp32
 70
     1
102
RTVSPost2010Prop33
280
     0
102
RTVSPost2010PropOp33
 70
     1
102
RTVSPost2010Prop34
280
     0
102
RTVSPost2010PropOp34
 70
     1
102
RTVSPost2010Prop35
280
     0
102
RTVSPost2010PropOp35
 70
     1
102
RTVSPost2010Prop36
280
     0
102
RTVSPost2010PropOp36
 70
     1
102
RTVSPost2010Prop37
 90
       50
102
RTVSPost2010PropOp37
 70
     1
102
RTVSPost2010Prop38
140
0.0
102
RTVSPost2010PropOp38
 70
     1
102
RTVSPost2010Prop39
140
1.0
102
RTVSPost2010PropOp39
 70
     1
102
RTVSPost2010Prop40
 90
        0
102
RTVSPost2010PropOp40
 70
     1
102
RTVSPost2010Prop41ColorIndex
 90
       18
102
RTVSPost2010Prop41ColorRGB
 90
        0
102
RTVSPost2010PropOp41
 70
     1
102
RTVSPost2010Prop42
 90
       50
102
RTVSPost2010PropOp42
 70
     1
102
RTVSPost2010Prop43
 90
        3
102
RTVSPost2010PropOp43
 70
     1
102
RTVSPost2010Prop44ColorIndex
 90
        5
102
RTVSPost2010Prop44ColorRGB
 90
      255
102
RTVSPost2010PropOp44
 70
     1
102
RTVSPost2010Prop45
280
     0
102
RTVSPost2010PropOp45
 70
     1
102
RTVSPost2010Prop46
 90
       50
102
RTVSPost2010PropOp46
 70
     1
102
RTVSPost2010Prop47
 90
       50
102
RTVSPost2010PropOp47
 70
     1
102
RTVSPost2010Prop48
 90
       50
102
RTVSPost2010PropOp48
 70
     1
102
RTVSPost2010Prop49
280
     0
102
RTVSPost2010PropOp49
 70
     1
102
RTVSPost2010Prop50
 90
       50
102
RTVSPost2010PropOp50
 70
     1
102
RTVSPost2010Prop51ColorIndex
 90
      256
102
RTVSPost2010Prop51ColorRGB
 90
-16777216
102
RTVSPost2010PropOp51
 70
     0
102
RTVSPost2010Prop52
140
1.0
102
RTVSPost2010PropOp52
 70
     0
102
RTVSPost2010Prop53
 90
        2
102
RTVSPost2010PropOp53
 70
     1
102
RTVSPost2010Prop54
  1
strokes_ogs.tif
102
RTVSPost2010PropOp54
 70
     1
102
RTVSPost2010Prop55
280
     0
102
RTVSPost2010PropOp55
 70
     1
102
RTVSPost2010Prop56
140
1.0
102
RTVSPost2010PropOp56
 70
     1
102
RTVSPost2010Prop57
140
1.0
102
RTVSPost2010PropOp57
 70
     1
102
RTVSPropertyOp0
 70
     1
102
RTVSPropertyOp1
 70
     1
102
RTVSPropertyOp2
 70
     1
102
RTVSPropertyOp3
 70
     1
102
RTVSPropertyOp4
 70
     1
102
RTVSPropertyOp5
 70
     1
102
RTVSPropertyOp6
 70
     1
102
RTVSPropertyOp7
 70
     1
102
RTVSPropertyOp8
 70
     1
102
RTVSPropertyOp9
 70
     1
102
RTVSPropertyOp10
 70
     1
102
RTVSPropertyOp11
 70
     1
102
RTVSPropertyOp12
 70
     1
102
RTVSPropertyOp13
 70
     1
102
RTVSPropertyOp14
 70
     1
102
RTVSPropertyOp15
 70
     1
102
RTVSPropertyOp16
 70
     1
102
RTVSPropertyOp17
 70
     1
102
RTVSPropertyOp18
 70
     1
102
RTVSPropertyOp19
 70
     1
102
RTVSPropertyOp20
 70
     1
102
RTVSPropertyOp21
 70
     1
102
RTVSPropertyOp22
 70
     1
102
RTVSPropertyOp23
 70
     1
102
RTVSPropertyOp24
 70
     1
102
RTVSPropertyOp25
 70
     1
102
RTVSPropertyOp26
 70
     1
102
RTVSPropertyOp27
 70
     1
102
RTVSPropertyOp28
 70
     1
102
RTVSPropertyOp29
 70
     1
102
RTVSPropertyOp30
 70
     1
102
RTVSPropertyOp31
 70
     1
102
RTVSPropertyOp32
 70
     1
102
RTVSPropertyOp33
 70
     1
102
RTVSPropertyOp34
 70
     1
102
RTVSPropertyOp35
 70
     1
102
RTVSPropertyOp36
 70
     1
102
RTVSPropertyOp37
 70
     1
102
RTVSPropertyOp38
 70
     1
102
RTVSPropertyOp39
 70
     1
102
RTVSPropertyOp40
 70
     1
102
RTVSPropertyOp41
 70
     1
102
RTVSPropertyOp42
 70
     1
102
RTVSPropertyOp43
 70
     1
102
RTVSPropertyOp44
 70
     1
102
RTVSPropertyOp45
 70
     1
102
RTVSPropertyOp46
 70
     1
102
RTVSPropertyOp47
 70
     1
102
RTVSPropertyOp48
 70
     1
102
RTVSPropertyOp49
 70
     1
102
RTVSPropertyOp50
 70
     1
102
RTVSPropertyOp51
 70
     0
102
RTVSPropertyOp52
 70
     0
102
RTVSPropertyOp53
 70
     1
102
RTVSPropertyOp54
 70
     1
102
RTVSPropertyOp55
 70
     1
102
RTVSPropertyOp56
 70
     1
102
RTVSPropertyOp57
 70
     1
102
RTVSPropertyOp58
 70
     1
102
RTVSPropertyOp59
 70
     1
102
RTVSPropertyOp60
 70
     1
102
RTVSPropertyOp61
 70
     1
102
RTVSPropertyOp62
 70
     1
  0
ENDSEC
  0
EOF
