  0
SECTION
  2
HEADER
  9
$ACADVER
  1
AC1015
  9
$ACADMAINTVER
 70
    20
  9
$DWGCODEPAGE
  3
ANSI_932
  9
$INSBASE
 10
0.0
 20
0.0
 30
0.0
  9
$EXTMIN
 10
9.148797
 20
10.0
 30
0.0
  9
$EXTMAX
 10
388.082758
 20
265.153969
 30
0.0
  9
$LIMMIN
 10
0.0
 20
0.0
  9
$LIMMAX
 10
396.0
 20
273.0
  9
$ORTHOMODE
 70
     0
  9
$REGENMODE
 70
     1
  9
$FILLMODE
 70
     1
  9
$QTEXTMODE
 70
     0
  9
$MIRRTEXT
 70
     1
  9
$LTSCALE
 40
1.0
  9
$ATTMODE
 70
     1
  9
$TEXTSIZE
 40
2.5
  9
$TRACEWID
 40
1.0
  9
$TEXTSTYLE
  7
STANDARD
  9
$CLAYER
  8
0
  9
$CELTYPE
  6
BYLAYER
  9
$CECOLOR
 62
   256
  9
$CELTSCALE
 40
1.0
  9
$DISPSILH
 70
     0
  9
$DIMSCALE
 40
1.0
  9
$DIMASZ
 40
3.0
  9
$DIMEXO
 40
1.0
  9
$DIMDLI
 40
10.0
  9
$DIMRND
 40
0.0
  9
$DIMDLE
 40
0.0
  9
$DIMEXE
 40
1.0
  9
$DIMTP
 40
0.0
  9
$DIMTM
 40
0.0
  9
$DIMTXT
 40
3.2
  9
$DIMCEN
 40
0.0
  9
$DIMTSZ
 40
0.0
  9
$DIMTOL
 70
     0
  9
$DIMLIM
 70
     0
  9
$DIMTIH
 70
     0
  9
$DIMTOH
 70
     0
  9
$DIMSE1
 70
     0
  9
$DIMSE2
 70
     0
  9
$DIMTAD
 70
     3
  9
$DIMZIN
 70
     8
  9
$DIMBLK
  1

  9
$DIMASO
 70
     1
  9
$DIMSHO
 70
     1
  9
$DIMPOST
  1

  9
$DIMAPOST
  1

  9
$DIMALT
 70
     0
  9
$DIMALTD
 70
     2
  9
$DIMALTF
 40
25.4
  9
$DIMLFAC
 40
1.0
  9
$DIMTOFL
 70
     1
  9
$DIMTVP
 40
0.0
  9
$DIMTIX
 70
     0
  9
$DIMSOXD
 70
     0
  9
$DIMSAH
 70
     1
  9
$DIMBLK1
  1
OPEN
  9
$DIMBLK2
  1
OPEN
  9
$DIMSTYLE
  2
STANDARD
  9
$DIMCLRD
 70
     0
  9
$DIMCLRE
 70
     0
  9
$DIMCLRT
 70
     0
  9
$DIMTFAC
 40
1.0
  9
$DIMGAP
 40
1.0
  9
$DIMJUST
 70
     0
  9
$DIMSD1
 70
     0
  9
$DIMSD2
 70
     0
  9
$DIMTOLJ
 70
     1
  9
$DIMTZIN
 70
     0
  9
$DIMALTZ
 70
     0
  9
$DIMALTTZ
 70
     0
  9
$DIMUPT
 70
     0
  9
$DIMDEC
 70
     4
  9
$DIMTDEC
 70
     4
  9
$DIMALTU
 70
     2
  9
$DIMALTTD
 70
     2
  9
$DIMTXSTY
  7
STANDARD
  9
$DIMAUNIT
 70
     0
  9
$DIMADEC
 70
     0
  9
$DIMALTRND
 40
0.0
  9
$DIMAZIN
 70
     0
  9
$DIMDSEP
 70
    46
  9
$DIMATFIT
 70
     3
  9
$DIMFRAC
 70
     0
  9
$DIMLDRBLK
  1
OPEN
  9
$DIMLUNIT
 70
     2
  9
$DIMLWD
 70
    -2
  9
$DIMLWE
 70
    -2
  9
$DIMTMOVE
 70
     0
  9
$LUNITS
 70
     2
  9
$LUPREC
 70
     4
  9
$SKETCHINC
 40
1.0
  9
$FILLETRAD
 40
0.0
  9
$AUNITS
 70
     0
  9
$AUPREC
 70
     0
  9
$MENU
  1
.
  9
$ELEVATION
 40
0.0
  9
$PELEVATION
 40
0.0
  9
$THICKNESS
 40
0.0
  9
$LIMCHECK
 70
     0
  9
$CHAMFERA
 40
10.0
  9
$CHAMFERB
 40
10.0
  9
$CHAMFERC
 40
0.0
  9
$CHAMFERD
 40
0.0
  9
$SKPOLY
 70
     0
  9
$TDCREATE
 40
2452067.392785000
  9
$TDUCREATE
 40
2452067.017785000
  9
$TDUPDATE
 40
2457192.641871551
  9
$TDUUPDATE
 40
2457192.266871551
  9
$TDINDWG
 40
0.0674331134
  9
$TDUSRTIMER
 40
0.0674324537
  9
$USRTIMER
 70
     1
  9
$ANGBASE
 50
0.0
  9
$ANGDIR
 70
     0
  9
$PDMODE
 70
     0
  9
$PDSIZE
 40
0.0
  9
$PLINEWID
 40
0.0
  9
$SPLFRAME
 70
     0
  9
$SPLINETYPE
 70
     6
  9
$SPLINESEGS
 70
     8
  9
$HANDSEED
  5
24F5
  9
$SURFTAB1
 70
     6
  9
$SURFTAB2
 70
     6
  9
$SURFTYPE
 70
     6
  9
$SURFU
 70
     6
  9
$SURFV
 70
     6
  9
$UCSBASE
  2

  9
$UCSNAME
  2

  9
$UCSORG
 10
0.0
 20
0.0
 30
0.0
  9
$UCSXDIR
 10
1.0
 20
0.0
 30
0.0
  9
$UCSYDIR
 10
0.0
 20
1.0
 30
0.0
  9
$UCSORTHOREF
  2

  9
$UCSORTHOVIEW
 70
     0
  9
$UCSORGTOP
 10
0.0
 20
0.0
 30
0.0
  9
$UCSORGBOTTOM
 10
0.0
 20
0.0
 30
0.0
  9
$UCSORGLEFT
 10
0.0
 20
0.0
 30
0.0
  9
$UCSORGRIGHT
 10
0.0
 20
0.0
 30
0.0
  9
$UCSORGFRONT
 10
0.0
 20
0.0
 30
0.0
  9
$UCSORGBACK
 10
0.0
 20
0.0
 30
0.0
  9
$PUCSBASE
  2

  9
$PUCSNAME
  2

  9
$PUCSORG
 10
0.0
 20
0.0
 30
0.0
  9
$PUCSXDIR
 10
1.0
 20
0.0
 30
0.0
  9
$PUCSYDIR
 10
0.0
 20
1.0
 30
0.0
  9
$PUCSORTHOREF
  2

  9
$PUCSORTHOVIEW
 70
     0
  9
$PUCSORGTOP
 10
0.0
 20
0.0
 30
0.0
  9
$PUCSORGBOTTOM
 10
0.0
 20
0.0
 30
0.0
  9
$PUCSORGLEFT
 10
0.0
 20
0.0
 30
0.0
  9
$PUCSORGRIGHT
 10
0.0
 20
0.0
 30
0.0
  9
$PUCSORGFRONT
 10
0.0
 20
0.0
 30
0.0
  9
$PUCSORGBACK
 10
0.0
 20
0.0
 30
0.0
  9
$USERI1
 70
     0
  9
$USERI2
 70
     0
  9
$USERI3
 70
     0
  9
$USERI4
 70
     0
  9
$USERI5
 70
     0
  9
$USERR1
 40
0.0
  9
$USERR2
 40
0.0
  9
$USERR3
 40
0.0
  9
$USERR4
 40
0.0
  9
$USERR5
 40
0.0
  9
$WORLDVIEW
 70
     1
  9
$SHADEDGE
 70
     3
  9
$SHADEDIF
 70
    70
  9
$TILEMODE
 70
     1
  9
$MAXACTVP
 70
    48
  9
$PINSBASE
 10
0.0
 20
0.0
 30
0.0
  9
$PLIMCHECK
 70
     0
  9
$PEXTMIN
 10
1.000000000000000E+20
 20
1.000000000000000E+20
 30
1.000000000000000E+20
  9
$PEXTMAX
 10
-1.000000000000000E+20
 20
-1.000000000000000E+20
 30
-1.000000000000000E+20
  9
$PLIMMIN
 10
0.0
 20
0.0
  9
$PLIMMAX
 10
420.0
 20
297.0
  9
$UNITMODE
 70
     0
  9
$VISRETAIN
 70
     1
  9
$PLINEGEN
 70
     0
  9
$PSLTSCALE
 70
     1
  9
$TREEDEPTH
 70
  3020
  9
$CMLSTYLE
  2
STANDARD
  9
$CMLJUST
 70
     0
  9
$CMLSCALE
 40
1.0
  9
$PROXYGRAPHICS
 70
     1
  9
$MEASUREMENT
 70
     0
  9
$CELWEIGHT
370
    -1
  9
$ENDCAPS
280
     0
  9
$JOINSTYLE
280
     0
  9
$LWDISPLAY
290
     0
  9
$INSUNITS
 70
     0
  9
$HYPERLINKBASE
  1

  9
$STYLESHEET
  1

  9
$XEDIT
290
     1
  9
$CEPSNTYPE
380
     0
  9
$PSTYLEMODE
290
     1
  9
$FINGERPRINTGUID
  2
{8BFB62DB-AFED-4EBE-B18D-EBA6EED27019}
  9
$VERSIONGUID
  2
{BC1BE47A-9850-4346-9428-F731019E646A}
  9
$EXTNAMES
290
     1
  9
$PSVPSCALE
 40
0.0
  9
$OLESTARTUP
290
     0
  0
ENDSEC
  0
SECTION
  2
CLASSES
  0
CLASS
  1
ACDBDICTIONARYWDFLT
  2
AcDbDictionaryWithDefault
  3
ObjectDBX Classes
 90
        0
280
     0
281
     0
  0
CLASS
  1
ACDBPLACEHOLDER
  2
AcDbPlaceHolder
  3
ObjectDBX Classes
 90
        0
280
     0
281
     0
  0
CLASS
  1
LAYOUT
  2
AcDbLayout
  3
ObjectDBX Classes
 90
        0
280
     0
281
     0
  0
CLASS
  1
DICTIONARYVAR
  2
AcDbDictionaryVar
  3
ObjectDBX Classes
 90
        0
280
     0
281
     0
  0
CLASS
  1
MATERIAL
  2
AcDbMaterial
  3
ObjectDBX Classes
 90
     1153
280
     0
281
     0
  0
CLASS
  1
VISUALSTYLE
  2
AcDbVisualStyle
  3
ObjectDBX Classes
 90
     4095
280
     0
281
     0
  0
CLASS
  1
TABLESTYLE
  2
AcDbTableStyle
  3
ObjectDBX Classes
 90
     4095
280
     0
281
     0
  0
CLASS
  1
SCALE
  2
AcDbScale
  3
ObjectDBX Classes
 90
     1153
280
     0
281
     0
  0
CLASS
  1
MLEADERSTYLE
  2
AcDbMLeaderStyle
  3
ACDB_MLEADERSTYLE_CLASS
 90
     4095
280
     0
281
     0
  0
CLASS
  1
ACDBSECTIONVIEWSTYLE
  2
AcDbSectionViewStyle
  3
ObjectDBX Classes
 90
     1025
280
     0
281
     0
  0
CLASS
  1
ACDBDETAILVIEWSTYLE
  2
AcDbDetailViewStyle
  3
ObjectDBX Classes
 90
     1025
280
     0
281
     0
  0
CLASS
  1
CELLSTYLEMAP
  2
AcDbCellStyleMap
  3
ObjectDBX Classes
 90
     1152
280
     0
281
     0
  0
ENDSEC
  0
SECTION
  2
TABLES
  0
TABLE
  2
VPORT
  5
21B1
330
0
100
AcDbSymbolTable
 70
     1
  0
VPORT
  5
243F
330
21B1
100
AcDbSymbolTableRecord
100
AcDbViewportTableRecord
  2
*ACTIVE
 70
     0
 10
0.0
 20
0.0
 11
1.0
 21
1.0
 12
275.9047912182571
 22
137.5726553609974
 13
0.0
 23
0.0
 14
10.0
 24
10.0
 15
10.0
 25
10.0
 16
0.0
 26
0.0
 36
1.0
 17
0.0
 27
0.0
 37
0.0
 40
258.0207475204825
 41
1.899603698811096
 42
50.0
 43
0.0
 44
0.0
 50
0.0
 51
0.0
 71
     0
 72
   100
 73
     1
 74
     0
 75
     0
 76
     0
 77
     0
 78
     0
281
     0
 65
     1
110
0.0
120
0.0
130
0.0
111
1.0
121
0.0
131
0.0
112
0.0
122
1.0
132
0.0
 79
     0
146
0.0
1001
ACAD_NAV_VCDISPLAY
1070
     3
  0
ENDTAB
  0
TABLE
  2
LTYPE
  5
21AE
330
0
100
AcDbSymbolTable
 70
     4
  0
LTYPE
  5
21BC
330
21AE
100
AcDbSymbolTableRecord
100
AcDbLinetypeTableRecord
  2
BYBLOCK
 70
     0
  3

 72
    65
 73
     0
 40
0.0
  0
LTYPE
  5
21BD
330
21AE
100
AcDbSymbolTableRecord
100
AcDbLinetypeTableRecord
  2
BYLAYER
 70
     0
  3

 72
    65
 73
     0
 40
0.0
  0
LTYPE
  5
21BE
330
21AE
100
AcDbSymbolTableRecord
100
AcDbLinetypeTableRecord
  2
CONTINUOUS
 70
     0
  3
Solid line
 72
    65
 73
     0
 40
0.0
  0
LTYPE
  5
21CC
330
21AE
100
AcDbSymbolTableRecord
100
AcDbLinetypeTableRecord
  2
DASHED
 70
     0
  3
Dashed __ __ __ __ __ __ __ __ __ __ __ __ __ _
 72
    65
 73
     2
 40
19.05
 49
12.7
 74
     0
 49
-6.349999999999997
 74
     0
  0
LTYPE
  5
21CD
330
21AE
100
AcDbSymbolTableRecord
100
AcDbLinetypeTableRecord
  2
CENTER
 70
     0
  3
Center ____ _ ____ _ ____ _ ____ _ ____ _ ____
 72
    65
 73
     4
 40
50.8
 49
31.75
 74
     0
 49
-6.349999999999997
 74
     0
 49
6.349999999999997
 74
     0
 49
-6.349999999999997
 74
     0
  0
LTYPE
  5
21CE
330
21AE
100
AcDbSymbolTableRecord
100
AcDbLinetypeTableRecord
  2
PHANTOM
 70
     0
  3
Phantom ______  __  __  ______  __  __  ______
 72
    65
 73
     6
 40
63.5
 49
31.75
 74
     0
 49
-6.349999999999997
 74
     0
 49
6.349999999999997
 74
     0
 49
-6.349999999999997
 74
     0
 49
6.349999999999997
 74
     0
 49
-6.349999999999997
 74
     0
  0
ENDTAB
  0
TABLE
  2
LAYER
  5
21AB
330
0
100
AcDbSymbolTable
 70
     8
  0
LAYER
  5
21B9
102
{ACAD_XDICTIONARY
360
2499
102
}
330
21AB
100
AcDbSymbolTableRecord
100
AcDbLayerTableRecord
  2
0
 70
     0
 62
     7
  6
CONTINUOUS
370
    -3
390
2448
  0
LAYER
  5
21CF
102
{ACAD_XDICTIONARY
360
249B
102
}
330
21AB
100
AcDbSymbolTableRecord
100
AcDbLayerTableRecord
  2
4
 70
     0
 62
     1
  6
CENTER
370
    -3
390
2448
  0
LAYER
  5
21D0
102
{ACAD_XDICTIONARY
360
249D
102
}
330
21AB
100
AcDbSymbolTableRecord
100
AcDbLayerTableRecord
  2
5
 70
     0
 62
     6
  6
PHANTOM
370
    -3
390
2448
  0
LAYER
  5
21D1
102
{ACAD_XDICTIONARY
360
249F
102
}
330
21AB
100
AcDbSymbolTableRecord
100
AcDbLayerTableRecord
  2
1
 70
     0
 62
     7
  6
CONTINUOUS
370
    -3
390
2448
  0
LAYER
  5
21D2
102
{ACAD_XDICTIONARY
360
24A1
102
}
330
21AB
100
AcDbSymbolTableRecord
100
AcDbLayerTableRecord
  2
2
 70
     0
 62
     4
  6
CONTINUOUS
370
    -3
390
2448
  0
LAYER
  5
21D3
102
{ACAD_XDICTIONARY
360
24A3
102
}
330
21AB
100
AcDbSymbolTableRecord
100
AcDbLayerTableRecord
  2
3
 70
     0
 62
     2
  6
DASHED
370
    -3
390
2448
  0
LAYER
  5
21D4
102
{ACAD_XDICTIONARY
360
24A5
102
}
330
21AB
100
AcDbSymbolTableRecord
100
AcDbLayerTableRecord
  2
6
 70
     0
 62
     5
  6
CONTINUOUS
370
    -3
390
2448
  0
LAYER
  5
21D5
102
{ACAD_XDICTIONARY
360
24A7
102
}
330
21AB
100
AcDbSymbolTableRecord
100
AcDbLayerTableRecord
  2
7
 70
     0
 62
     3
  6
CONTINUOUS
370
    -3
390
2448
  0
ENDTAB
  0
TABLE
  2
STYLE
  5
21AC
330
0
100
AcDbSymbolTable
 70
     1
  0
STYLE
  5
21BA
330
21AC
100
AcDbSymbolTableRecord
100
AcDbTextStyleTableRecord
  2
STANDARD
 70
     0
 40
0.0
 41
1.0
 50
0.0
 71
     0
 42
2.5
  3
simplex.shx
  4

  0
ENDTAB
  0
TABLE
  2
VIEW
  5
21AF
330
0
100
AcDbSymbolTable
 70
     0
  0
ENDTAB
  0
TABLE
  2
UCS
  5
21B0
330
0
100
AcDbSymbolTable
 70
     0
  0
ENDTAB
  0
TABLE
  2
APPID
  5
21B2
330
0
100
AcDbSymbolTable
 70
     7
  0
APPID
  5
21BB
330
21B2
100
AcDbSymbolTableRecord
100
AcDbRegAppTableRecord
  2
ACAD
 70
     0
  0
APPID
  5
21D6
330
21B2
100
AcDbSymbolTableRecord
100
AcDbRegAppTableRecord
  2
CONTENTTABDATA
 70
     0
  0
APPID
  5
21D7
330
21B2
100
AcDbSymbolTableRecord
100
AcDbRegAppTableRecord
  2
CONTENTCURRENTTAB
 70
     0
  0
APPID
  5
21D8
330
21B2
100
AcDbSymbolTableRecord
100
AcDbRegAppTableRecord
  2
CONTENTBLOCKICON
 70
     0
  0
APPID
  5
21D9
330
21B2
100
AcDbSymbolTableRecord
100
AcDbRegAppTableRecord
  2
CONTENTBLOCKDESCRIPTION
 70
     0
  0
APPID
  5
24B3
330
21B2
100
AcDbSymbolTableRecord
100
AcDbRegAppTableRecord
  2
ACAD_NAV_VCDISPLAY
 70
     0
  0
APPID
  5
24EC
330
21B2
100
AcDbSymbolTableRecord
100
AcDbRegAppTableRecord
  2
ACAD_MLEADERVER
 70
     0
  0
ENDTAB
  0
TABLE
  2
DIMSTYLE
  5
21B3
330
0
100
AcDbSymbolTable
 70
     1
100
AcDbDimStyleTable
 71
     0
  0
DIMSTYLE
105
21DA
330
21B3
100
AcDbSymbolTableRecord
100
AcDbDimStyleTableRecord
  2
STANDARD
 70
     0
 41
3.0
 42
1.0
 43
10.0
 44
1.0
 73
     0
 74
     0
 77
     3
 78
     8
140
3.2
141
0.0
147
1.0
172
     1
173
     1
284
     8
285
     8
286
     8
340
21BA
  0
ENDTAB
  0
TABLE
  2
BLOCK_RECORD
  5
21AA
330
0
100
AcDbSymbolTable
 70
     1
  0
BLOCK_RECORD
  5
21C7
102
{ACAD_XDICTIONARY
360
2442
102
}
330
21AA
100
AcDbSymbolTableRecord
100
AcDbBlockTableRecord
  2
*MODEL_SPACE
340
2496
  0
BLOCK_RECORD
  5
21C3
102
{ACAD_XDICTIONARY
360
2440
102
}
330
21AA
100
AcDbSymbolTableRecord
100
AcDbBlockTableRecord
  2
*PAPER_SPACE
340
2497
  0
BLOCK_RECORD
  5
21E2
330
21AA
100
AcDbSymbolTableRecord
100
AcDbBlockTableRecord
  2
_OPEN
340
0
  0
ENDTAB
  0
ENDSEC
  0
SECTION
  2
BLOCKS
  0
BLOCK
  5
21C8
330
21C7
100
AcDbEntity
  8
0
100
AcDbBlockBegin
  2
*MODEL_SPACE
 70
     0
 10
0.0
 20
0.0
 30
0.0
  3
*MODEL_SPACE
  1

  0
ENDBLK
  5
21C9
330
21C7
100
AcDbEntity
  8
0
100
AcDbBlockEnd
  0
BLOCK
  5
21C4
330
21C3
100
AcDbEntity
 67
     1
  8
0
100
AcDbBlockBegin
  2
*PAPER_SPACE
 70
     0
 10
0.0
 20
0.0
 30
0.0
  3
*PAPER_SPACE
  1

  0
ENDBLK
  5
21C5
330
21C3
100
AcDbEntity
 67
     1
  8
0
100
AcDbBlockEnd
  0
BLOCK
  5
21E3
330
21E2
100
AcDbEntity
  8
0
100
AcDbBlockBegin
  2
_OPEN
 70
     0
 10
0.0
 20
0.0
 30
0.0
  3
_OPEN
  1

  0
LINE
  5
21E4
330
21E2
100
AcDbEntity
  8
0
  6
ByBlock
 62
     0
100
AcDbLine
 10
-1.0
 20
0.166667
 30
0.0
 11
0.0
 21
0.0
 31
0.0
  0
LINE
  5
21E5
330
21E2
100
AcDbEntity
  8
0
  6
ByBlock
 62
     0
100
AcDbLine
 10
0.0
 20
0.0
 30
0.0
 11
-1.0
 21
-0.166667
 31
0.0
  0
LINE
  5
21E6
330
21E2
100
AcDbEntity
  8
0
  6
ByBlock
 62
     0
100
AcDbLine
 10
0.0
 20
0.0
 30
0.0
 11
-1.0
 21
0.0
 31
0.0
  0
ENDBLK
  5
21E7
330
21E2
100
AcDbEntity
  8
0
100
AcDbBlockEnd
  0
ENDSEC
  0
SECTION
  2
ENTITIES
  0
TEXT
  5
21E8
330
21C7
100
AcDbEntity
  8
4
  6
CENTER
100
AcDbText
 10
23.979509
 20
10.0
 30
0.0
 40
1.399999999999999
  1
4
100
AcDbText
  0
TEXT
  5
21E9
330
21C7
100
AcDbEntity
  8
7
  6
Continuous
100
AcDbText
 10
9.999997999999999
 20
26.000001
 30
0.0
 40
3.0
  1
CODE No.13110
100
AcDbText
  0
TEXT
  5
21EA
330
21C7
100
AcDbEntity
  8
7
  6
Continuous
100
AcDbText
 10
9.999997999999999
 20
18.000001
 30
0.0
 40
3.0
  1
TYPE No.THA-333-3B
100
AcDbText
  0
TEXT
  5
21EB
330
21C7
100
AcDbEntity
  8
1
  6
Continuous
100
AcDbText
 10
9.999997999999999
 20
10.000001
 30
0.0
 40
1.399999999999999
  1
LAYER
100
AcDbText
  0
TEXT
  5
21EC
330
21C7
100
AcDbEntity
  8
2
  6
Continuous
100
AcDbText
 10
19.979509
 20
10.0
 30
0.0
 40
1.399999999999999
  1
2
100
AcDbText
  0
TEXT
  5
21ED
330
21C7
100
AcDbEntity
  8
3
  6
DASHED
100
AcDbText
 10
21.97950899999999
 20
10.0
 30
0.0
 40
1.399999999999999
  1
3
100
AcDbText
  0
TEXT
  5
21EE
330
21C7
100
AcDbEntity
  8
1
  6
Continuous
100
AcDbText
 10
17.979509
 20
10.0
 30
0.0
 40
1.399999999999999
  1
1
100
AcDbText
  0
TEXT
  5
21EF
330
21C7
100
AcDbEntity
  8
5
  6
PHANTOM
100
AcDbText
 10
25.979509
 20
10.0
 30
0.0
 40
1.399999999999999
  1
5
100
AcDbText
  0
TEXT
  5
21F0
330
21C7
100
AcDbEntity
  8
6
  6
Continuous
100
AcDbText
 10
27.979509
 20
10.0
 30
0.0
 40
1.399999999999999
  1
6
100
AcDbText
  0
TEXT
  5
21F1
330
21C7
100
AcDbEntity
  8
7
  6
Continuous
100
AcDbText
 10
29.97950900000001
 20
10.0
 30
0.0
 40
1.399999999999999
  1
7
100
AcDbText
  0
ARC
  5
21F2
330
21C7
100
AcDbEntity
  8
1
  6
Continuous
100
AcDbCircle
 10
183.9179659999999
 20
144.9203939999998
 30
0.0
 40
1.731502
100
AcDbArc
 50
138.1734519999999
 51
180.0
  0
ARC
  5
21F3
330
21C7
100
AcDbEntity
  8
1
  6
Continuous
100
AcDbCircle
 10
183.9179659999999
 20
151.8485969999999
 30
0.0
 40
1.731502
100
AcDbArc
 50
180.0
 51
221.8265479999999
  0
LINE
  5
21F4
330
21C7
100
AcDbEntity
  8
1
  6
Continuous
100
AcDbLine
 10
182.186464
 20
143.7844949999998
 30
0.0
 11
180.8864639999999
 21
143.7844949999998
 31
0.0
  0
LINE
  5
21F5
330
21C7
100
AcDbEntity
  8
1
  6
Continuous
100
AcDbLine
 10
182.186464
 20
152.9844949999999
 30
0.0
 11
180.8864639999999
 21
152.9844949999999
 31
0.0
  0
ARC
  5
21F6
330
21C7
100
AcDbEntity
  8
1
  6
Continuous
100
AcDbCircle
 10
30.898797
 20
148.3844949999999
 30
0.0
 40
17.25
100
AcDbArc
 50
219.814998
 51
320.185002
  0
ARC
  5
21F7
330
21C7
100
AcDbEntity
  8
1
  6
Continuous
100
AcDbCircle
 10
30.898797
 20
148.3844949999999
 30
0.0
 40
13.25
100
AcDbArc
 50
0.0
 51
180.0
  0
CIRCLE
  5
21F8
330
21C7
100
AcDbEntity
  8
1
  6
Continuous
100
AcDbCircle
 10
30.898797
 20
148.3844949999999
 30
0.0
 40
17.75
  0
LINE
  5
21F9
330
21C7
100
AcDbEntity
  8
4
  6
CENTER
100
AcDbLine
 10
9.148797
 20
148.3844949999999
 30
0.0
 11
52.64879699999998
 21
148.3844949999999
 31
0.0
  0
LINE
  5
21FA
330
21C7
100
AcDbEntity
  8
1
  6
Continuous
100
AcDbLine
 10
16.243207
 20
138.3706949999997
 30
0.0
 11
15.398797
 21
138.858216
 31
0.0
  0
ARC
  5
21FB
330
21C7
100
AcDbEntity
  8
1
  6
Continuous
100
AcDbCircle
 10
15.898797
 20
139.7242409999997
 30
0.0
 40
1.0
100
AcDbArc
 50
180.0
 51
239.9999999999999
  0
LINE
  5
21FC
330
21C7
100
AcDbEntity
  8
1
  6
Continuous
100
AcDbLine
 10
17.64879699999999
 20
148.3844949999999
 30
0.0
 11
17.64879699999999
 21
137.3391339999997
 31
0.0
  0
LINE
  5
21FD
330
21C7
100
AcDbEntity
  8
1
  6
Continuous
100
AcDbLine
 10
17.64879699999999
 20
137.3391339999997
 30
0.0
 11
17.004103
 21
137.3391339999997
 31
0.0
  0
LINE
  5
21FE
330
21C7
100
AcDbEntity
  8
1
  6
Continuous
100
AcDbLine
 10
14.898797
 20
139.7242409999997
 30
0.0
 11
14.898797
 21
140.699282
 31
0.0
  0
LINE
  5
21FF
330
21C7
100
AcDbEntity
  8
1
  6
Continuous
100
AcDbLine
 10
14.898797
 20
156.0697079999999
 30
0.0
 11
14.898797
 21
157.044749
 31
0.0
  0
LINE
  5
2200
330
21C7
100
AcDbEntity
  8
1
  6
Continuous
100
AcDbLine
 10
16.243207
 20
158.398295
 30
0.0
 11
15.398797
 21
157.910775
 31
0.0
  0
ARC
  5
2201
330
21C7
100
AcDbEntity
  8
1
  6
Continuous
100
AcDbCircle
 10
15.898797
 20
157.044749
 30
0.0
 40
1.0
100
AcDbArc
 50
119.9999999999999
 51
180.0
  0
LINE
  5
2202
330
21C7
100
AcDbEntity
  8
1
  6
Continuous
100
AcDbLine
 10
46.39879699999998
 20
138.858216
 30
0.0
 11
45.554386
 21
138.3706949999997
 31
0.0
  0
ARC
  5
2203
330
21C7
100
AcDbEntity
  8
1
  6
Continuous
100
AcDbCircle
 10
45.898797
 20
139.7242409999997
 30
0.0
 40
1.0
100
AcDbArc
 50
300.0
 51
0.0
  0
LINE
  5
2204
330
21C7
100
AcDbEntity
  8
1
  6
Continuous
100
AcDbLine
 10
31.17380499999999
 20
140.704371
 30
0.0
 11
32.87380499999999
 21
136.804371
 31
0.0
  0
LINE
  5
2205
330
21C7
100
AcDbEntity
  8
1
  6
Continuous
100
AcDbLine
 10
30.623788
 20
140.704371
 30
0.0
 11
28.92378799999999
 21
136.804371
 31
0.0
  0
LINE
  5
2206
330
21C7
100
AcDbEntity
  8
1
  6
Continuous
100
AcDbLine
 10
44.14879699999999
 20
148.3844949999999
 30
0.0
 11
44.14879699999999
 21
137.3391339999997
 31
0.0
  0
LINE
  5
2207
330
21C7
100
AcDbEntity
  8
4
  6
CENTER
100
AcDbLine
 10
30.898797
 20
169.94523
 30
0.0
 11
30.898797
 21
126.609521
 31
0.0
  0
ARC
  5
2208
330
21C7
100
AcDbEntity
  8
1
  6
Continuous
100
AcDbCircle
 10
30.898797
 20
131.0639869999999
 30
0.0
 40
1.0
100
AcDbArc
 50
239.9999999999999
 51
300.0
  0
LINE
  5
2209
330
21C7
100
AcDbEntity
  8
1
  6
Continuous
100
AcDbLine
 10
30.398797
 20
130.197962
 30
0.0
 11
29.55438599999999
 21
130.685482
 31
0.0
  0
LINE
  5
220A
330
21C7
100
AcDbEntity
  8
1
  6
Continuous
100
AcDbLine
 10
32.24320699999999
 20
130.685482
 30
0.0
 11
31.39879699999999
 21
130.197962
 31
0.0
  0
LINE
  5
220B
330
21C7
100
AcDbEntity
  8
1
  6
Continuous
100
AcDbLine
 10
32.59879699999999
 20
136.3844949999997
 30
0.0
 11
29.19879699999999
 21
136.3844949999997
 31
0.0
  0
ARC
  5
220C
330
21C7
100
AcDbEntity
  8
1
  6
Continuous
100
AcDbCircle
 10
29.19879699999999
 20
136.6844949999999
 30
0.0
 40
0.3
100
AcDbArc
 50
156.4477359999998
 51
270.0
  0
ARC
  5
220D
330
21C7
100
AcDbEntity
  8
1
  6
Continuous
100
AcDbCircle
 10
32.59879699999999
 20
136.6844949999999
 30
0.0
 40
0.3
100
AcDbArc
 50
270.0
 51
23.55226399999998
  0
LINE
  5
220E
330
21C7
100
AcDbEntity
  8
1
  6
Continuous
100
AcDbLine
 10
44.14879699999999
 20
137.3391339999997
 30
0.0
 11
44.79349
 21
137.3391339999997
 31
0.0
  0
ARC
  5
220F
330
21C7
100
AcDbEntity
  8
1
  6
Continuous
100
AcDbCircle
 10
30.898797
 20
140.584495
 30
0.0
 40
0.3
100
AcDbArc
 50
23.55226399999998
 51
156.4477359999998
  0
LINE
  5
2210
330
21C7
100
AcDbEntity
  8
1
  6
Continuous
100
AcDbLine
 10
46.89879699999997
 20
139.7242409999997
 30
0.0
 11
46.89879699999997
 21
140.699282
 31
0.0
  0
LINE
  5
2211
330
21C7
100
AcDbEntity
  8
1
  6
Continuous
100
AcDbLine
 10
46.89879699999997
 20
156.0697079999999
 30
0.0
 11
46.89879699999997
 21
157.044749
 31
0.0
  0
LINE
  5
2212
330
21C7
100
AcDbEntity
  8
1
  6
Continuous
100
AcDbLine
 10
46.39879699999998
 20
157.910775
 30
0.0
 11
45.554386
 21
158.398295
 31
0.0
  0
ARC
  5
2213
330
21C7
100
AcDbEntity
  8
1
  6
Continuous
100
AcDbCircle
 10
45.898797
 20
157.044749
 30
0.0
 40
1.0
100
AcDbArc
 50
0.0
 51
60.0
  0
LINE
  5
2214
330
21C7
100
AcDbEntity
  8
1
  6
Continuous
100
AcDbLine
 10
32.24320699999999
 20
166.083508
 30
0.0
 11
31.39879699999999
 21
166.5710289999998
 31
0.0
  0
LINE
  5
2215
330
21C7
100
AcDbEntity
  8
1
  6
Continuous
100
AcDbLine
 10
30.398797
 20
166.5710289999998
 30
0.0
 11
29.55438599999999
 21
166.083508
 31
0.0
  0
ARC
  5
2216
330
21C7
100
AcDbEntity
  8
1
  6
Continuous
100
AcDbCircle
 10
30.898797
 20
165.705003
 30
0.0
 40
1.0
100
AcDbArc
 50
60.0
 51
119.9999999999999
  0
LINE
  5
2217
330
21C7
100
AcDbEntity
  8
1
  6
Continuous
100
AcDbLine
 10
149.1695009999999
 20
166.205003
 30
0.0
 11
149.1695009999999
 21
130.563987
 31
0.0
  0
LINE
  5
2218
330
21C7
100
AcDbEntity
  8
1
  6
Continuous
100
AcDbLine
 10
152.669501
 20
166.205003
 30
0.0
 11
152.669501
 21
130.563987
 31
0.0
  0
LINE
  5
2219
330
21C7
100
AcDbEntity
  8
1
  6
Continuous
100
AcDbLine
 10
147.1695009999999
 20
163.3844949999998
 30
0.0
 11
147.1695009999999
 21
133.3844949999999
 31
0.0
  0
LINE
  5
221A
330
21C7
100
AcDbEntity
  8
1
  6
Continuous
100
AcDbLine
 10
102.494174
 20
165.3844949999998
 30
0.0
 11
102.494174
 21
131.3844949999999
 31
0.0
  0
LINE
  5
221B
330
21C7
100
AcDbEntity
  8
1
  6
Continuous
100
AcDbLine
 10
101.494174
 20
165.3844949999998
 30
0.0
 11
101.494174
 21
131.3844949999999
 31
0.0
  0
LINE
  5
221C
330
21C7
100
AcDbEntity
  8
1
  6
Continuous
100
AcDbLine
 10
100.894174
 20
166.1344949999999
 30
0.0
 11
100.894174
 21
130.6344949999999
 31
0.0
  0
ARC
  5
221D
330
21C7
100
AcDbEntity
  8
1
  6
Continuous
100
AcDbCircle
 10
74.679888
 20
148.0762529999998
 30
0.0
 40
20.71428599999999
100
AcDbArc
 50
328.7787879999999
 51
0.0
  0
LINE
  5
221E
330
21C7
100
AcDbEntity
  8
1
  6
Continuous
100
AcDbLine
 10
101.194174
 20
165.834495
 30
0.0
 11
101.194174
 21
130.934495
 31
0.0
  0
LINE
  5
221F
330
21C7
100
AcDbEntity
  8
1
  6
Continuous
100
AcDbLine
 10
91.89417400000001
 20
161.634495
 30
0.0
 11
91.89417400000001
 21
131.1344949999997
 31
0.0
  0
LINE
  5
2220
330
21C7
100
AcDbEntity
  8
1
  6
Continuous
100
AcDbLine
 10
113.994174
 20
143.5886639999999
 30
0.0
 11
113.994174
 21
136.3844949999997
 31
0.0
  0
LINE
  5
2221
330
21C7
100
AcDbEntity
  8
1
  6
Continuous
100
AcDbLine
 10
114.994174
 20
159.3844949999999
 30
0.0
 11
114.994174
 21
137.3844949999997
 31
0.0
  0
LINE
  5
2222
330
21C7
100
AcDbEntity
  8
1
  6
Continuous
100
AcDbLine
 10
102.494174
 20
136.551162
 30
0.0
 11
102.9941739999999
 21
136.551162
 31
0.0
  0
LINE
  5
2223
330
21C7
100
AcDbEntity
  8
1
  6
Continuous
100
AcDbLine
 10
102.494174
 20
134.3844949999999
 30
0.0
 11
102.694174
 21
134.3844949999999
 31
0.0
  0
LINE
  5
2224
330
21C7
100
AcDbEntity
  8
1
  6
Continuous
100
AcDbLine
 10
93.79417399999999
 20
138.3844949999997
 30
0.0
 11
96.89417400000001
 21
138.3844949999997
 31
0.0
  0
LINE
  5
2225
330
21C7
100
AcDbEntity
  8
1
  6
Continuous
100
AcDbLine
 10
93.79417399999999
 20
138.3844949999997
 30
0.0
 11
93.79417399999999
 21
130.6344949999999
 31
0.0
  0
LINE
  5
2226
330
21C7
100
AcDbEntity
  8
1
  6
Continuous
100
AcDbLine
 10
92.39417399999997
 20
130.6344949999999
 30
0.0
 11
92.39417399999997
 21
137.3391339999997
 31
0.0
  0
LINE
  5
2227
330
21C7
100
AcDbEntity
  8
1
  6
Continuous
100
AcDbLine
 10
92.39417399999997
 20
130.6344949999999
 30
0.0
 11
93.79417399999999
 21
130.6344949999999
 31
0.0
  0
LINE
  5
2228
330
21C7
100
AcDbEntity
  8
1
  6
Continuous
100
AcDbLine
 10
91.89417400000001
 20
131.1344949999997
 30
0.0
 11
92.39417399999997
 21
130.6344949999999
 31
0.0
  0
LINE
  5
2229
330
21C7
100
AcDbEntity
  8
1
  6
Continuous
100
AcDbLine
 10
96.89417400000001
 20
138.3844949999997
 30
0.0
 11
96.89417400000001
 21
130.6344949999999
 31
0.0
  0
LINE
  5
222A
330
21C7
100
AcDbEntity
  8
1
  6
Continuous
100
AcDbLine
 10
96.89417400000001
 20
130.6344949999999
 30
0.0
 11
100.894174
 21
130.6344949999999
 31
0.0
  0
LINE
  5
222B
330
21C7
100
AcDbEntity
  8
1
  6
Continuous
100
AcDbLine
 10
101.494174
 20
131.3844949999999
 30
0.0
 11
102.494174
 21
131.3844949999999
 31
0.0
  0
LINE
  5
222C
330
21C7
100
AcDbEntity
  8
1
  6
Continuous
100
AcDbLine
 10
101.194174
 20
130.934495
 30
0.0
 11
100.894174
 21
130.6344949999999
 31
0.0
  0
LINE
  5
222D
330
21C7
100
AcDbEntity
  8
1
  6
Continuous
100
AcDbLine
 10
101.194174
 20
131.3844949999999
 30
0.0
 11
101.494174
 21
131.6844949999999
 31
0.0
  0
LINE
  5
222E
330
21C7
100
AcDbEntity
  8
1
  6
Continuous
100
AcDbLine
 10
149.669501
 20
130.0639869999999
 30
0.0
 11
152.169501
 21
130.0639869999999
 31
0.0
  0
ARC
  5
222F
330
21C7
100
AcDbEntity
  8
1
  6
Continuous
100
AcDbCircle
 10
148.1695009999999
 20
133.3844949999999
 30
0.0
 40
1.0
100
AcDbArc
 50
180.0
 51
270.0
  0
ARC
  5
2230
330
21C7
100
AcDbEntity
  8
1
  6
Continuous
100
AcDbCircle
 10
149.669501
 20
130.563987
 30
0.0
 40
0.5
100
AcDbArc
 50
180.0
 51
270.0
  0
LINE
  5
2231
330
21C7
100
AcDbEntity
  8
1
  6
Continuous
100
AcDbLine
 10
149.1695009999999
 20
132.3844949999999
 30
0.0
 11
148.1695009999999
 21
132.3844949999999
 31
0.0
  0
LINE
  5
2232
330
21C7
100
AcDbEntity
  8
1
  6
Continuous
100
AcDbLine
 10
102.9941739999999
 20
136.3844949999997
 30
0.0
 11
113.994174
 21
136.3844949999997
 31
0.0
  0
ARC
  5
2233
330
21C7
100
AcDbEntity
  8
1
  6
Continuous
100
AcDbCircle
 10
102.694174
 20
134.6844949999999
 30
0.0
 40
0.3
100
AcDbArc
 50
270.0
 51
0.0
  0
LINE
  5
2234
330
21C7
100
AcDbEntity
  8
2
  6
Continuous
100
AcDbLine
 10
104.5941739999999
 20
137.1964949999999
 30
0.0
 11
102.9941739999999
 21
136.3844949999997
 31
0.0
  0
LINE
  5
2235
330
21C7
100
AcDbEntity
  8
1
  6
Continuous
100
AcDbLine
 10
102.9941739999999
 20
136.551162
 30
0.0
 11
102.9941739999999
 21
134.6844949999999
 31
0.0
  0
ARC
  5
2236
330
21C7
100
AcDbEntity
  8
1
  6
Continuous
100
AcDbCircle
 10
152.169501
 20
130.563987
 30
0.0
 40
0.5
100
AcDbArc
 50
270.0
 51
0.0
  0
LINE
  5
2237
330
21C7
100
AcDbEntity
  8
1
  6
Continuous
100
AcDbLine
 10
114.994174
 20
137.3844949999997
 30
0.0
 11
113.994174
 21
136.3844949999997
 31
0.0
  0
LINE
  5
2238
330
21C7
100
AcDbEntity
  8
2
  6
Continuous
100
AcDbLine
 10
114.8061739999999
 20
137.1964949999999
 30
0.0
 11
104.5941739999999
 21
137.1964949999999
 31
0.0
  0
LINE
  5
2239
330
21C7
100
AcDbEntity
  8
1
  6
Continuous
100
AcDbLine
 10
119.6941739999999
 20
153.3844949999999
 30
0.0
 11
117.4941739999999
 21
153.3844949999999
 31
0.0
  0
LINE
  5
223A
330
21C7
100
AcDbEntity
  8
1
  6
Continuous
100
AcDbLine
 10
119.6941739999999
 20
143.3844949999999
 30
0.0
 11
117.4941739999999
 21
143.3844949999999
 31
0.0
  0
LINE
  5
223B
330
21C7
100
AcDbEntity
  8
2
  6
Continuous
100
AcDbLine
 10
117.4941739999999
 20
151.040923
 30
0.0
 11
119.6941739999999
 21
149.091602
 31
0.0
  0
LINE
  5
223C
330
21C7
100
AcDbEntity
  8
2
  6
Continuous
100
AcDbLine
 10
117.4941739999999
 20
151.384921
 30
0.0
 11
119.6941739999999
 21
153.3342429999999
 31
0.0
  0
LINE
  5
223D
330
21C7
100
AcDbEntity
  8
2
  6
Continuous
100
AcDbLine
 10
119.6941739999999
 20
143.4347479999999
 30
0.0
 11
117.4941739999999
 21
145.3840689999998
 31
0.0
  0
LINE
  5
223E
330
21C7
100
AcDbEntity
  8
2
  6
Continuous
100
AcDbLine
 10
117.4941739999999
 20
145.7280669999998
 30
0.0
 11
119.6941739999999
 21
147.6773879999998
 31
0.0
  0
LINE
  5
223F
330
21C7
100
AcDbEntity
  8
1
  6
Continuous
100
AcDbLine
 10
119.6941739999999
 20
153.3342429999999
 30
0.0
 11
117.4941739999999
 21
153.3342429999999
 31
0.0
  0
LINE
  5
2240
330
21C7
100
AcDbEntity
  8
1
  6
Continuous
100
AcDbLine
 10
119.6941739999999
 20
149.091602
 30
0.0
 11
117.4941739999999
 21
149.091602
 31
0.0
  0
LINE
  5
2241
330
21C7
100
AcDbEntity
  8
1
  6
Continuous
100
AcDbLine
 10
119.6941739999999
 20
147.6773879999998
 30
0.0
 11
117.4941739999999
 21
147.6773879999998
 31
0.0
  0
LINE
  5
2242
330
21C7
100
AcDbEntity
  8
1
  6
Continuous
100
AcDbLine
 10
119.6941739999999
 20
143.4347479999999
 30
0.0
 11
117.4941739999999
 21
143.4347479999999
 31
0.0
  0
LINE
  5
2243
330
21C7
100
AcDbEntity
  8
4
  6
CENTER
100
AcDbLine
 10
122.1626399999999
 20
148.3844949999999
 30
0.0
 11
89.55623199999998
 21
148.3844949999999
 31
0.0
  0
ARC
  5
2244
330
21C7
100
AcDbEntity
  8
1
  6
Continuous
100
AcDbCircle
 10
146.1695009999999
 20
161.8844949999999
 30
0.0
 40
1.0
100
AcDbArc
 50
0.0
 51
180.0
  0
LINE
  5
2245
330
21C7
100
AcDbEntity
  8
1
  6
Continuous
100
AcDbLine
 10
95.39417400000001
 20
166.1344949999999
 30
0.0
 11
95.39417400000001
 21
148.0762529999998
 31
0.0
  0
LINE
  5
2246
330
21C7
100
AcDbEntity
  8
1
  6
Continuous
100
AcDbLine
 10
102.9941739999999
 20
162.084495
 30
0.0
 11
102.9941739999999
 21
160.2178279999999
 31
0.0
  0
LINE
  5
2247
330
21C7
100
AcDbEntity
  8
1
  6
Continuous
100
AcDbLine
 10
113.994174
 20
153.180327
 30
0.0
 11
102.494174
 21
153.180327
 31
0.0
  0
LINE
  5
2248
330
21C7
100
AcDbEntity
  8
1
  6
Continuous
100
AcDbLine
 10
113.994174
 20
143.5886639999999
 30
0.0
 11
102.494174
 21
143.5886639999999
 31
0.0
  0
LINE
  5
2249
330
21C7
100
AcDbEntity
  8
2
  6
Continuous
100
AcDbLine
 10
114.090027
 20
152.954182
 30
0.0
 11
102.494174
 21
144.332203
 31
0.0
  0
LINE
  5
224A
330
21C7
100
AcDbEntity
  8
2
  6
Continuous
100
AcDbLine
 10
114.090027
 20
143.814809
 30
0.0
 11
102.494174
 21
152.436787
 31
0.0
  0
LINE
  5
224B
330
21C7
100
AcDbEntity
  8
1
  6
Continuous
100
AcDbLine
 10
102.494174
 20
160.2178279999999
 30
0.0
 11
102.9941739999999
 21
160.2178279999999
 31
0.0
  0
LINE
  5
224C
330
21C7
100
AcDbEntity
  8
1
  6
Continuous
100
AcDbLine
 10
115.4941739999999
 20
155.745711
 30
0.0
 11
115.4941739999999
 21
138.8844949999999
 31
0.0
  0
ARC
  5
224D
330
21C7
100
AcDbEntity
  8
1
  6
Continuous
100
AcDbCircle
 10
102.9941739999999
 20
148.3844949999999
 30
0.0
 40
12.0
100
AcDbArc
 50
336.443536
 51
23.55646399999999
  0
LINE
  5
224E
330
21C7
100
AcDbEntity
  8
1
  6
Continuous
100
AcDbLine
 10
117.4941739999999
 20
156.850333
 30
0.0
 11
117.4941739999999
 21
138.8844949999999
 31
0.0
  0
LINE
  5
224F
330
21C7
100
AcDbEntity
  8
1
  6
Continuous
100
AcDbLine
 10
149.669501
 20
139.1468909999999
 30
0.0
 11
152.169501
 21
139.1468909999999
 31
0.0
  0
LINE
  5
2250
330
21C7
100
AcDbEntity
  8
1
  6
Continuous
100
AcDbLine
 10
115.4941739999999
 20
143.3844949999999
 30
0.0
 11
114.994174
 21
143.3844949999999
 31
0.0
  0
LINE
  5
2251
330
21C7
100
AcDbEntity
  8
1
  6
Continuous
100
AcDbLine
 10
117.4941739999999
 20
138.8844949999999
 30
0.0
 11
115.4941739999999
 21
138.8844949999999
 31
0.0
  0
LINE
  5
2252
330
21C7
100
AcDbEntity
  8
1
  6
Continuous
100
AcDbLine
 10
149.669501
 20
157.6220989999999
 30
0.0
 11
152.169501
 21
157.6220989999999
 31
0.0
  0
LINE
  5
2253
330
21C7
100
AcDbEntity
  8
1
  6
Continuous
100
AcDbLine
 10
104.5941739999999
 20
160.3844949999999
 30
0.0
 11
104.5941739999999
 21
153.180327
 31
0.0
  0
LINE
  5
2254
330
21C7
100
AcDbEntity
  8
2
  6
Continuous
100
AcDbLine
 10
102.9941739999999
 20
160.3844949999999
 30
0.0
 11
104.5941739999999
 21
159.572495
 31
0.0
  0
LINE
  5
2255
330
21C7
100
AcDbEntity
  8
1
  6
Continuous
100
AcDbLine
 10
113.994174
 20
160.3844949999999
 30
0.0
 11
113.994174
 21
153.180327
 31
0.0
  0
LINE
  5
2256
330
21C7
100
AcDbEntity
  8
1
  6
Continuous
100
AcDbLine
 10
115.4941739999999
 20
153.3844949999999
 30
0.0
 11
114.994174
 21
153.3844949999999
 31
0.0
  0
LINE
  5
2257
330
21C7
100
AcDbEntity
  8
1
  6
Continuous
100
AcDbLine
 10
113.994174
 20
160.3844949999999
 30
0.0
 11
114.994174
 21
159.3844949999999
 31
0.0
  0
LINE
  5
2258
330
21C7
100
AcDbEntity
  8
2
  6
Continuous
100
AcDbLine
 10
114.8061739999999
 20
159.572495
 30
0.0
 11
104.5941739999999
 21
159.572495
 31
0.0
  0
LINE
  5
2259
330
21C7
100
AcDbEntity
  8
1
  6
Continuous
100
AcDbLine
 10
102.9941739999999
 20
160.3844949999999
 30
0.0
 11
113.994174
 21
160.3844949999999
 31
0.0
  0
LINE
  5
225A
330
21C7
100
AcDbEntity
  8
1
  6
Continuous
100
AcDbLine
 10
116.994174
 20
157.910775
 30
0.0
 11
114.994174
 21
157.910775
 31
0.0
  0
LINE
  5
225B
330
21C7
100
AcDbEntity
  8
1
  6
Continuous
100
AcDbLine
 10
116.994174
 20
155.745711
 30
0.0
 11
114.994174
 21
155.745711
 31
0.0
  0
LINE
  5
225C
330
21C7
100
AcDbEntity
  8
1
  6
Continuous
100
AcDbLine
 10
114.994174
 20
159.3844949999999
 30
0.0
 11
116.994174
 21
159.3844949999999
 31
0.0
  0
LINE
  5
225D
330
21C7
100
AcDbEntity
  8
1
  6
Continuous
100
AcDbLine
 10
116.994174
 20
159.3844949999999
 30
0.0
 11
116.994174
 21
155.745711
 31
0.0
  0
LINE
  5
225E
330
21C7
100
AcDbEntity
  8
1
  6
Continuous
100
AcDbLine
 10
117.4941739999999
 20
156.384495
 30
0.0
 11
116.994174
 21
156.384495
 31
0.0
  0
LINE
  5
225F
330
21C7
100
AcDbEntity
  8
1
  6
Continuous
100
AcDbLine
 10
117.4941739999999
 20
156.850333
 30
0.0
 11
116.994174
 21
156.850333
 31
0.0
  0
LINE
  5
2260
330
21C7
100
AcDbEntity
  8
1
  6
Continuous
100
AcDbLine
 10
102.494174
 20
162.3844949999998
 30
0.0
 11
102.694174
 21
162.3844949999998
 31
0.0
  0
LINE
  5
2261
330
21C7
100
AcDbEntity
  8
1
  6
Continuous
100
AcDbLine
 10
95.39417400000001
 20
166.1344949999999
 30
0.0
 11
91.89417400000001
 21
161.634495
 31
0.0
  0
LINE
  5
2262
330
21C7
100
AcDbEntity
  8
1
  6
Continuous
100
AcDbLine
 10
95.39417400000001
 20
166.1344949999999
 30
0.0
 11
100.894174
 21
166.1344949999999
 31
0.0
  0
LINE
  5
2263
330
21C7
100
AcDbEntity
  8
1
  6
Continuous
100
AcDbLine
 10
101.494174
 20
165.3844949999998
 30
0.0
 11
102.494174
 21
165.3844949999998
 31
0.0
  0
LINE
  5
2264
330
21C7
100
AcDbEntity
  8
1
  6
Continuous
100
AcDbLine
 10
100.894174
 20
166.1344949999999
 30
0.0
 11
101.194174
 21
165.834495
 31
0.0
  0
LINE
  5
2265
330
21C7
100
AcDbEntity
  8
1
  6
Continuous
100
AcDbLine
 10
101.194174
 20
164.3844949999999
 30
0.0
 11
101.494174
 21
164.0844949999998
 31
0.0
  0
LINE
  5
2266
330
21C7
100
AcDbEntity
  8
1
  6
Continuous
100
AcDbLine
 10
149.669501
 20
166.705003
 30
0.0
 11
152.169501
 21
166.705003
 31
0.0
  0
ARC
  5
2267
330
21C7
100
AcDbEntity
  8
1
  6
Continuous
100
AcDbCircle
 10
149.669501
 20
166.205003
 30
0.0
 40
0.5
100
AcDbArc
 50
90.0
 51
180.0
  0
ARC
  5
2268
330
21C7
100
AcDbEntity
  8
1
  6
Continuous
100
AcDbCircle
 10
102.694174
 20
162.084495
 30
0.0
 40
0.3
100
AcDbArc
 50
0.0
 51
90.0
  0
ARC
  5
2269
330
21C7
100
AcDbEntity
  8
1
  6
Continuous
100
AcDbCircle
 10
148.1695009999999
 20
163.3844949999998
 30
0.0
 40
1.0
100
AcDbArc
 50
90.0
 51
180.0
  0
LINE
  5
226A
330
21C7
100
AcDbEntity
  8
1
  6
Continuous
100
AcDbLine
 10
149.1695009999999
 20
164.3844949999999
 30
0.0
 11
148.1695009999999
 21
164.3844949999999
 31
0.0
  0
ARC
  5
226B
330
21C7
100
AcDbEntity
  8
1
  6
Continuous
100
AcDbCircle
 10
152.169501
 20
166.205003
 30
0.0
 40
0.5
100
AcDbArc
 50
0.0
 51
90.0
  0
LINE
  5
226C
330
21C7
100
AcDbEntity
  8
4
  6
CENTER
100
AcDbLine
 10
188.589773
 20
148.3844949999999
 30
0.0
 11
140.8422429999999
 21
148.3844949999999
 31
0.0
  0
LINE
  5
226D
330
21C7
100
AcDbEntity
  8
1
  6
Continuous
100
AcDbLine
 10
165.923607
 20
139.3844949999997
 30
0.0
 11
166.923607
 21
139.3844949999997
 31
0.0
  0
LINE
  5
226E
330
21C7
100
AcDbEntity
  8
1
  6
Continuous
100
AcDbLine
 10
165.923607
 20
157.3844949999999
 30
0.0
 11
166.923607
 21
157.3844949999999
 31
0.0
  0
LINE
  5
226F
330
21C7
100
AcDbEntity
  8
1
  6
Continuous
100
AcDbLine
 10
165.923607
 20
157.3844949999999
 30
0.0
 11
165.923607
 21
139.3844949999997
 31
0.0
  0
LINE
  5
2270
330
21C7
100
AcDbEntity
  8
1
  6
Continuous
100
AcDbLine
 10
119.994174
 20
153.084495
 30
0.0
 11
119.994174
 21
143.684495
 31
0.0
  0
ARC
  5
2271
330
21C7
100
AcDbEntity
  8
1
  6
Continuous
100
AcDbCircle
 10
119.6941739999999
 20
143.684495
 30
0.0
 40
0.3
100
AcDbArc
 50
270.0
 51
0.0
  0
ARC
  5
2272
330
21C7
100
AcDbEntity
  8
1
  6
Continuous
100
AcDbCircle
 10
119.6941739999999
 20
153.084495
 30
0.0
 40
0.3
100
AcDbArc
 50
0.0
 51
90.0
  0
LINE
  5
2273
330
21C7
100
AcDbEntity
  8
1
  6
Continuous
100
AcDbLine
 10
166.923607
 20
157.3844949999999
 30
0.0
 11
166.923607
 21
139.3844949999997
 31
0.0
  0
LINE
  5
2274
330
21C7
100
AcDbEntity
  8
1
  6
Continuous
100
AcDbLine
 10
179.8864639999999
 20
153.3844949999999
 30
0.0
 11
179.8864639999999
 21
143.3844949999999
 31
0.0
  0
LINE
  5
2275
330
21C7
100
AcDbEntity
  8
1
  6
Continuous
100
AcDbLine
 10
180.8864639999999
 20
153.3844949999999
 30
0.0
 11
180.8864639999999
 21
143.3844949999999
 31
0.0
  0
LINE
  5
2276
330
21C7
100
AcDbEntity
  8
1
  6
Continuous
100
AcDbLine
 10
180.8864639999999
 20
143.3844949999999
 30
0.0
 11
179.8864639999999
 21
143.3844949999999
 31
0.0
  0
LINE
  5
2277
330
21C7
100
AcDbEntity
  8
1
  6
Continuous
100
AcDbLine
 10
180.8864639999999
 20
153.3844949999999
 30
0.0
 11
179.8864639999999
 21
153.3844949999999
 31
0.0
  0
CIRCLE
  5
2278
330
21C7
100
AcDbEntity
  8
1
  6
Continuous
100
AcDbCircle
 10
238.8194949999999
 20
148.3844949999999
 30
0.0
 40
11.0
  0
ARC
  5
2279
330
21C7
100
AcDbEntity
  8
2
  6
Continuous
100
AcDbCircle
 10
238.8194949999999
 20
148.3844949999999
 30
0.0
 40
11.188
100
AcDbArc
 50
190.518416
 51
349.481584
  0
ARC
  5
227A
330
21C7
100
AcDbEntity
  8
1
  6
Continuous
100
AcDbCircle
 10
238.8194949999999
 20
148.3844949999999
 30
0.0
 40
12.0
100
AcDbArc
 50
203.556464
 51
336.443536
  0
LINE
  5
227B
330
21C7
100
AcDbEntity
  8
4
  6
CENTER
100
AcDbLine
 10
238.8194949999999
 20
169.8844949999999
 30
0.0
 11
238.8194949999999
 21
126.884495
 31
0.0
  0
ARC
  5
227C
330
21C7
100
AcDbEntity
  8
1
  6
Continuous
100
AcDbCircle
 10
238.8194949999999
 20
148.3844949999999
 30
0.0
 40
17.0
100
AcDbArc
 50
280.2500769999999
 51
319.749923
  0
ARC
  5
227D
330
21C7
100
AcDbEntity
  8
1
  6
Continuous
100
AcDbCircle
 10
238.8194949999999
 20
148.3844949999999
 30
0.0
 40
17.75
100
AcDbArc
 50
274.3438239999999
 51
325.6561759999997
  0
LINE
  5
227E
330
21C7
100
AcDbEntity
  8
4
  6
CENTER
100
AcDbLine
 10
260.319495
 20
148.3844949999999
 30
0.0
 11
217.319495
 21
148.3844949999999
 31
0.0
  0
ARC
  5
227F
330
21C7
100
AcDbEntity
  8
1
  6
Continuous
100
AcDbCircle
 10
188.450607
 20
148.3844949999999
 30
0.0
 40
6.264143999999999
100
AcDbArc
 50
158.366392
 51
201.633608
  0
ARC
  5
2280
330
21C7
100
AcDbEntity
  8
1
  6
Continuous
100
AcDbCircle
 10
179.4223199999999
 20
148.3844949999999
 30
0.0
 40
6.264143999999999
100
AcDbArc
 50
338.366392
 51
21.63360799999999
  0
LINE
  5
2281
330
21C7
100
AcDbEntity
  8
1
  6
Continuous
100
AcDbLine
 10
185.6864639999997
 20
152.2844949999999
 30
0.0
 11
185.6864639999997
 21
144.4844949999998
 31
0.0
  0
LINE
  5
2282
330
21C7
100
AcDbEntity
  8
1
  6
Continuous
100
AcDbLine
 10
182.186464
 20
153.003297
 30
0.0
 11
182.186464
 21
143.7656929999999
 31
0.0
  0
LINE
  5
2283
330
21C7
100
AcDbEntity
  8
1
  6
Continuous
100
AcDbLine
 10
182.6014639999999
 20
143.7656929999999
 30
0.0
 11
182.186464
 21
144.4844949999998
 31
0.0
  0
LINE
  5
2284
330
21C7
100
AcDbEntity
  8
1
  6
Continuous
100
AcDbLine
 10
185.2714629999999
 20
143.7656929999999
 30
0.0
 11
185.6864639999997
 21
144.4844949999998
 31
0.0
  0
LINE
  5
2285
330
21C7
100
AcDbEntity
  8
1
  6
Continuous
100
AcDbLine
 10
185.2714629999999
 20
143.7656929999999
 30
0.0
 11
182.6014639999999
 21
143.7656929999999
 31
0.0
  0
ARC
  5
2286
330
21C7
100
AcDbEntity
  8
1
  6
Continuous
100
AcDbCircle
 10
183.9549609999999
 20
144.9203939999998
 30
0.0
 40
1.731502
100
AcDbArc
 50
0.0
 51
41.82654799999999
  0
LINE
  5
2287
330
21C7
100
AcDbEntity
  8
1
  6
Continuous
100
AcDbLine
 10
185.2452199999999
 20
146.075094
 30
0.0
 11
182.6277069999999
 21
146.075094
 31
0.0
  0
LINE
  5
2288
330
21C7
100
AcDbEntity
  8
1
  6
Continuous
100
AcDbLine
 10
182.6014639999999
 20
153.003297
 30
0.0
 11
182.186464
 21
152.2844949999999
 31
0.0
  0
ARC
  5
2289
330
21C7
100
AcDbEntity
  8
1
  6
Continuous
100
AcDbCircle
 10
183.9549609999999
 20
151.8485969999999
 30
0.0
 40
1.731502
100
AcDbArc
 50
318.173452
 51
0.0
  0
LINE
  5
228A
330
21C7
100
AcDbEntity
  8
1
  6
Continuous
100
AcDbLine
 10
185.2714629999999
 20
153.003297
 30
0.0
 11
185.6864639999997
 21
152.2844949999999
 31
0.0
  0
LINE
  5
228B
330
21C7
100
AcDbEntity
  8
1
  6
Continuous
100
AcDbLine
 10
185.2452199999999
 20
150.693896
 30
0.0
 11
182.6277069999999
 21
150.693896
 31
0.0
  0
LINE
  5
228C
330
21C7
100
AcDbEntity
  8
1
  6
Continuous
100
AcDbLine
 10
185.2714629999999
 20
153.003297
 30
0.0
 11
182.6014639999999
 21
153.003297
 31
0.0
  0
ARC
  5
228D
330
21C7
100
AcDbEntity
  8
2
  6
Continuous
100
AcDbCircle
 10
238.8194949999999
 20
148.3844949999999
 30
0.0
 40
11.188
100
AcDbArc
 50
10.518416
 51
169.4815839999999
  0
LINE
  5
228E
330
21C7
100
AcDbEntity
  8
1
  6
Continuous
100
AcDbLine
 10
227.819495
 20
153.180327
 30
0.0
 11
227.819495
 21
143.5886639999999
 31
0.0
  0
LINE
  5
228F
330
21C7
100
AcDbEntity
  8
1
  6
Continuous
100
AcDbLine
 10
249.8194949999999
 20
153.180327
 30
0.0
 11
249.8194949999999
 21
143.5886639999999
 31
0.0
  0
LINE
  5
2290
330
21C7
100
AcDbEntity
  8
1
  6
Continuous
100
AcDbLine
 10
185.6864639999997
 20
251.403969
 30
0.0
 11
182.186464
 21
251.403969
 31
0.0
  0
LINE
  5
2291
330
21C7
100
AcDbEntity
  8
1
  6
Continuous
100
AcDbLine
 10
185.6864639999997
 20
243.403969
 30
0.0
 11
182.186464
 21
243.403969
 31
0.0
  0
LINE
  5
2292
330
21C7
100
AcDbEntity
  8
1
  6
Continuous
100
AcDbLine
 10
182.5438429999999
 20
247.403969
 30
0.0
 11
185.3290839999999
 21
247.403969
 31
0.0
  0
ARC
  5
2293
330
21C7
100
AcDbEntity
  8
1
  6
Continuous
100
AcDbCircle
 10
187.9614399999999
 20
245.403969
 30
0.0
 40
5.774976999999998
100
AcDbArc
 50
159.7375
 51
200.2625
  0
LINE
  5
2294
330
21C7
100
AcDbEntity
  8
1
  6
Continuous
100
AcDbLine
 10
182.186464
 20
251.403969
 30
0.0
 11
182.186464
 21
243.403969
 31
0.0
  0
LINE
  5
2295
330
21C7
100
AcDbEntity
  8
1
  6
Continuous
100
AcDbLine
 10
182.186464
 20
252.0039689999999
 30
0.0
 11
182.186464
 21
242.8039689999998
 31
0.0
  0
ARC
  5
2296
330
21C7
100
AcDbEntity
  8
1
  6
Continuous
100
AcDbCircle
 10
187.9614399999999
 20
249.403969
 30
0.0
 40
5.774976999999998
100
AcDbArc
 50
159.7375
 51
200.2625
  0
ARC
  5
2297
330
21C7
100
AcDbEntity
  8
1
  6
Continuous
100
AcDbCircle
 10
179.9114869999999
 20
245.403969
 30
0.0
 40
5.774976999999998
100
AcDbArc
 50
339.7375
 51
20.2625
  0
LINE
  5
2298
330
21C7
100
AcDbEntity
  8
1
  6
Continuous
100
AcDbLine
 10
185.6864639999997
 20
251.403969
 30
0.0
 11
185.6864639999997
 21
243.403969
 31
0.0
  0
ARC
  5
2299
330
21C7
100
AcDbEntity
  8
1
  6
Continuous
100
AcDbCircle
 10
179.9114869999999
 20
249.403969
 30
0.0
 40
5.774976999999998
100
AcDbArc
 50
339.7375
 51
20.2625
  0
LINE
  5
229A
330
21C7
100
AcDbEntity
  8
1
  6
Continuous
100
AcDbLine
 10
238.8194949999999
 20
203.003495
 30
0.0
 11
234.8194949999999
 21
200.6934949999999
 31
0.0
  0
LINE
  5
229B
330
21C7
100
AcDbEntity
  8
1
  6
Continuous
100
AcDbLine
 10
234.8194949999999
 20
196.0744949999999
 30
0.0
 11
238.8194949999999
 21
193.7654949999999
 31
0.0
  0
CIRCLE
  5
229C
330
21C7
100
AcDbEntity
  8
1
  6
Continuous
100
AcDbCircle
 10
238.8194949999999
 20
198.3844949999999
 30
0.0
 40
4.0
  0
CIRCLE
  5
229D
330
21C7
100
AcDbEntity
  8
1
  6
Continuous
100
AcDbCircle
 10
238.8194949999999
 20
198.3844949999999
 30
0.0
 40
3.1
  0
LINE
  5
229E
330
21C7
100
AcDbEntity
  8
1
  6
Continuous
100
AcDbLine
 10
234.8194949999999
 20
196.0744949999999
 30
0.0
 11
234.8194949999999
 21
200.6934949999999
 31
0.0
  0
LINE
  5
229F
330
21C7
100
AcDbEntity
  8
1
  6
Continuous
100
AcDbLine
 10
242.8194949999999
 20
196.0744949999999
 30
0.0
 11
242.8194949999999
 21
200.6934949999999
 31
0.0
  0
LINE
  5
22A0
330
21C7
100
AcDbEntity
  8
1
  6
Continuous
100
AcDbLine
 10
242.8194949999999
 20
196.0754949999999
 30
0.0
 11
238.8194949999999
 21
193.7654949999999
 31
0.0
  0
ARC
  5
22A1
330
21C7
100
AcDbEntity
  8
1
  6
Continuous
100
AcDbCircle
 10
238.8194949999999
 20
198.3844949999999
 30
0.0
 40
2.399999999999999
100
AcDbArc
 50
124.921342
 51
145.0786579999999
  0
ARC
  5
22A2
330
21C7
100
AcDbEntity
  8
1
  6
Continuous
100
AcDbCircle
 10
238.8194949999999
 20
198.3844949999999
 30
0.0
 40
2.399999999999999
100
AcDbArc
 50
34.92134199999998
 51
55.078658
  0
LINE
  5
22A3
330
21C7
100
AcDbEntity
  8
1
  6
Continuous
100
AcDbLine
 10
239.8154509999999
 20
198.3844949999999
 30
0.0
 11
240.0300919999998
 21
198.9742159999999
 31
0.0
  0
LINE
  5
22A4
330
21C7
100
AcDbEntity
  8
1
  6
Continuous
100
AcDbLine
 10
240.193379
 20
196.4166419999999
 30
0.0
 11
239.409216
 21
197.173899
 31
0.0
  0
LINE
  5
22A5
330
21C7
100
AcDbEntity
  8
1
  6
Continuous
100
AcDbLine
 10
239.8154509999999
 20
198.3844949999999
 30
0.0
 11
240.0300919999998
 21
197.7947739999999
 31
0.0
  0
LINE
  5
22A6
330
21C7
100
AcDbEntity
  8
1
  6
Continuous
100
AcDbLine
 10
238.8194949999999
 20
199.380451
 30
0.0
 11
239.409216
 21
199.5950909999999
 31
0.0
  0
LINE
  5
22A7
330
21C7
100
AcDbEntity
  8
1
  6
Continuous
100
AcDbLine
 10
238.8194949999999
 20
197.3885399999998
 30
0.0
 11
239.409216
 21
197.173899
 31
0.0
  0
LINE
  5
22A8
330
21C7
100
AcDbEntity
  8
1
  6
Continuous
100
AcDbLine
 10
237.445612
 20
196.4166419999999
 30
0.0
 11
238.2297739999999
 21
197.173899
 31
0.0
  0
LINE
  5
22A9
330
21C7
100
AcDbEntity
  8
1
  6
Continuous
100
AcDbLine
 10
237.8235399999999
 20
198.3844949999999
 30
0.0
 11
237.6088989999999
 21
198.9742159999999
 31
0.0
  0
LINE
  5
22AA
330
21C7
100
AcDbEntity
  8
1
  6
Continuous
100
AcDbLine
 10
237.8235399999999
 20
198.3844949999999
 30
0.0
 11
237.6088989999999
 21
197.7947739999999
 31
0.0
  0
LINE
  5
22AB
330
21C7
100
AcDbEntity
  8
1
  6
Continuous
100
AcDbLine
 10
236.851643
 20
197.010612
 30
0.0
 11
237.6088989999999
 21
197.7947739999999
 31
0.0
  0
ARC
  5
22AC
330
21C7
100
AcDbEntity
  8
1
  6
Continuous
100
AcDbCircle
 10
238.8194949999999
 20
198.3844949999999
 30
0.0
 40
2.399999999999999
100
AcDbArc
 50
214.921342
 51
235.0786579999998
  0
LINE
  5
22AD
330
21C7
100
AcDbEntity
  8
1
  6
Continuous
100
AcDbLine
 10
238.8194949999999
 20
197.3885399999998
 30
0.0
 11
238.2297739999999
 21
197.173899
 31
0.0
  0
LINE
  5
22AE
330
21C7
100
AcDbEntity
  8
1
  6
Continuous
100
AcDbLine
 10
238.8194949999999
 20
199.380451
 30
0.0
 11
238.2297739999999
 21
199.5950909999999
 31
0.0
  0
LINE
  5
22AF
330
21C7
100
AcDbEntity
  8
1
  6
Continuous
100
AcDbLine
 10
240.787348
 20
197.010612
 30
0.0
 11
240.0300919999998
 21
197.7947739999999
 31
0.0
  0
ARC
  5
22B0
330
21C7
100
AcDbEntity
  8
1
  6
Continuous
100
AcDbCircle
 10
238.8194949999999
 20
198.3844949999999
 30
0.0
 40
2.399999999999999
100
AcDbArc
 50
304.921342
 51
325.078658
  0
LINE
  5
22B1
330
21C7
100
AcDbEntity
  8
1
  6
Continuous
100
AcDbLine
 10
240.193379
 20
200.352348
 30
0.0
 11
239.409216
 21
199.5950909999999
 31
0.0
  0
LINE
  5
22B2
330
21C7
100
AcDbEntity
  8
1
  6
Continuous
100
AcDbLine
 10
237.445612
 20
200.352348
 30
0.0
 11
238.2297739999999
 21
199.5950909999999
 31
0.0
  0
LINE
  5
22B3
330
21C7
100
AcDbEntity
  8
1
  6
Continuous
100
AcDbLine
 10
236.851643
 20
199.758378
 30
0.0
 11
237.6088989999999
 21
198.9742159999999
 31
0.0
  0
LINE
  5
22B4
330
21C7
100
AcDbEntity
  8
1
  6
Continuous
100
AcDbLine
 10
240.787348
 20
199.758378
 30
0.0
 11
240.0300919999998
 21
198.9742159999999
 31
0.0
  0
LINE
  5
22B5
330
21C7
100
AcDbEntity
  8
1
  6
Continuous
100
AcDbLine
 10
238.8194949999999
 20
203.003495
 30
0.0
 11
242.8194949999999
 21
200.6934949999999
 31
0.0
  0
LINE
  5
22B6
330
21C7
100
AcDbEntity
  8
1
  6
Continuous
100
AcDbLine
 10
180.8864639999999
 20
148.3844949999999
 30
0.0
 11
182.186464
 21
149.684495
 31
0.0
  0
LINE
  5
22B7
330
21C7
100
AcDbEntity
  8
1
  6
Continuous
100
AcDbLine
 10
180.8864639999999
 20
147.084495
 30
0.0
 11
182.186464
 21
148.3844949999999
 31
0.0
  0
CIRCLE
  5
22B8
330
21C7
100
AcDbEntity
  8
1
  6
Continuous
100
AcDbCircle
 10
238.8194949999999
 20
198.3844949999999
 30
0.0
 40
9.0
  0
CIRCLE
  5
22B9
330
21C7
100
AcDbEntity
  8
1
  6
Continuous
100
AcDbCircle
 10
238.8194949999999
 20
198.3844949999999
 30
0.0
 40
5.0
  0
ARC
  5
22BA
330
21C7
100
AcDbEntity
  8
1
  6
Continuous
100
AcDbCircle
 10
238.8194949999999
 20
198.3844949999999
 30
0.0
 40
4.599999999999996
100
AcDbArc
 50
90.412368
 51
149.6005
  0
ARC
  5
22BB
330
21C7
100
AcDbEntity
  8
1
  6
Continuous
100
AcDbCircle
 10
238.8194949999999
 20
198.3844949999999
 30
0.0
 40
4.599999999999996
100
AcDbArc
 50
150.408154
 51
209.591846
  0
ARC
  5
22BC
330
21C7
100
AcDbEntity
  8
1
  6
Continuous
100
AcDbCircle
 10
238.8194949999999
 20
198.3844949999999
 30
0.0
 40
4.599999999999996
100
AcDbArc
 50
30.3995
 51
89.58763199999998
  0
ARC
  5
22BD
330
21C7
100
AcDbEntity
  8
1
  6
Continuous
100
AcDbCircle
 10
238.8194949999999
 20
198.3844949999999
 30
0.0
 40
4.599999999999996
100
AcDbArc
 50
330.408154
 51
29.591846
  0
ARC
  5
22BE
330
21C7
100
AcDbEntity
  8
1
  6
Continuous
100
AcDbCircle
 10
238.8194949999999
 20
198.3844949999999
 30
0.0
 40
4.599999999999996
100
AcDbArc
 50
270.412368
 51
329.6005
  0
ARC
  5
22BF
330
21C7
100
AcDbEntity
  8
1
  6
Continuous
100
AcDbCircle
 10
238.8194949999999
 20
198.3844949999999
 30
0.0
 40
4.599999999999996
100
AcDbArc
 50
210.421167
 51
269.5874509999999
  0
LINE
  5
22C0
330
21C7
100
AcDbEntity
  8
1
  6
Continuous
100
AcDbLine
 10
180.8864639999999
 20
252.4039689999999
 30
0.0
 11
179.8864639999999
 21
252.4039689999999
 31
0.0
  0
LINE
  5
22C1
330
21C7
100
AcDbEntity
  8
1
  6
Continuous
100
AcDbLine
 10
180.8864639999999
 20
242.4039689999999
 30
0.0
 11
179.8864639999999
 21
242.4039689999999
 31
0.0
  0
LINE
  5
22C2
330
21C7
100
AcDbEntity
  8
1
  6
Continuous
100
AcDbLine
 10
179.8864639999999
 20
252.4039689999999
 30
0.0
 11
179.8864639999999
 21
242.4039689999999
 31
0.0
  0
LINE
  5
22C3
330
21C7
100
AcDbEntity
  8
1
  6
Continuous
100
AcDbLine
 10
180.8864639999999
 20
252.4039689999999
 30
0.0
 11
180.8864639999999
 21
242.4039689999999
 31
0.0
  0
LINE
  5
22C4
330
21C7
100
AcDbEntity
  8
1
  6
Continuous
100
AcDbLine
 10
182.186464
 20
242.8039689999998
 30
0.0
 11
180.8864639999999
 21
242.8039689999998
 31
0.0
  0
LINE
  5
22C5
330
21C7
100
AcDbEntity
  8
1
  6
Continuous
100
AcDbLine
 10
180.8864639999999
 20
246.103969
 30
0.0
 11
182.186464
 21
247.403969
 31
0.0
  0
LINE
  5
22C6
330
21C7
100
AcDbEntity
  8
1
  6
Continuous
100
AcDbLine
 10
180.8864639999999
 20
247.403969
 30
0.0
 11
182.186464
 21
248.703969
 31
0.0
  0
LINE
  5
22C7
330
21C7
100
AcDbEntity
  8
1
  6
Continuous
100
AcDbLine
 10
182.186464
 20
252.0039689999999
 30
0.0
 11
180.8864639999999
 21
252.0039689999999
 31
0.0
  0
LINE
  5
22C8
330
21C7
100
AcDbEntity
  8
4
  6
CENTER
100
AcDbLine
 10
188.589773
 20
247.403969
 30
0.0
 11
140.8422429999999
 21
247.403969
 31
0.0
  0
LINE
  5
22C9
330
21C7
100
AcDbEntity
  8
1
  6
Continuous
100
AcDbLine
 10
166.923607
 20
256.403969
 30
0.0
 11
166.923607
 21
238.4039689999999
 31
0.0
  0
LINE
  5
22CA
330
21C7
100
AcDbEntity
  8
1
  6
Continuous
100
AcDbLine
 10
165.923607
 20
256.403969
 30
0.0
 11
165.923607
 21
238.4039689999999
 31
0.0
  0
LINE
  5
22CB
330
21C7
100
AcDbEntity
  8
1
  6
Continuous
100
AcDbLine
 10
165.923607
 20
238.4039689999999
 30
0.0
 11
166.923607
 21
238.4039689999999
 31
0.0
  0
LINE
  5
22CC
330
21C7
100
AcDbEntity
  8
1
  6
Continuous
100
AcDbLine
 10
165.923607
 20
256.403969
 30
0.0
 11
166.923607
 21
256.403969
 31
0.0
  0
LINE
  5
22CD
330
21C7
100
AcDbEntity
  8
1
  6
Continuous
100
AcDbLine
 10
104.5941739999999
 20
136.3844949999997
 30
0.0
 11
104.5941739999999
 21
143.5886639999999
 31
0.0
  0
LINE
  5
22CE
330
21C7
100
AcDbEntity
  8
1
  6
Continuous
100
AcDbLine
 10
145.1695009999999
 20
161.8844949999999
 30
0.0
 11
145.1695009999999
 21
134.8844949999999
 31
0.0
  0
ARC
  5
22CF
330
21C7
100
AcDbEntity
  8
1
  6
Continuous
100
AcDbCircle
 10
146.1695009999999
 20
134.8844949999999
 30
0.0
 40
1.0
100
AcDbArc
 50
180.0
 51
0.0
  0
LINE
  5
22D0
330
21C7
100
AcDbEntity
  8
1
  6
Continuous
100
AcDbLine
 10
147.1695009999999
 20
150.3844949999999
 30
0.0
 11
145.1695009999999
 21
148.3844949999999
 31
0.0
  0
LINE
  5
22D1
330
21C7
100
AcDbEntity
  8
1
  6
Continuous
100
AcDbLine
 10
147.1695009999999
 20
148.3844949999999
 30
0.0
 11
145.1695009999999
 21
146.3844949999999
 31
0.0
  0
LINE
  5
22D2
330
21C7
100
AcDbEntity
  8
1
  6
Continuous
100
AcDbLine
 10
117.4941739999999
 20
144.3844949999999
 30
0.0
 11
115.4941739999999
 21
144.3844949999999
 31
0.0
  0
LINE
  5
22D3
330
21C7
100
AcDbEntity
  8
1
  6
Continuous
100
AcDbLine
 10
117.4941739999999
 20
143.3844949999999
 30
0.0
 11
115.4941739999999
 21
143.3844949999999
 31
0.0
  0
ARC
  5
22D4
330
21C7
100
AcDbEntity
  8
1
  6
Continuous
100
AcDbCircle
 10
238.8194949999999
 20
165.705003
 30
0.0
 40
1.0
100
AcDbArc
 50
60.0
 51
119.9999999999999
  0
LINE
  5
22D5
330
21C7
100
AcDbEntity
  8
1
  6
Continuous
100
AcDbLine
 10
254.819495
 20
139.7242409999997
 30
0.0
 11
254.819495
 21
157.044749
 31
0.0
  0
LINE
  5
22D6
330
21C7
100
AcDbEntity
  8
1
  6
Continuous
100
AcDbLine
 10
254.3194949999999
 20
157.910775
 30
0.0
 11
239.3194949999999
 21
166.5710289999998
 31
0.0
  0
ARC
  5
22D7
330
21C7
100
AcDbEntity
  8
1
  6
Continuous
100
AcDbCircle
 10
253.8194949999999
 20
157.044749
 30
0.0
 40
1.0
100
AcDbArc
 50
0.0
 51
60.0
  0
LINE
  5
22D8
330
21C7
100
AcDbEntity
  8
1
  6
Continuous
100
AcDbLine
 10
254.3194949999999
 20
138.858216
 30
0.0
 11
239.3194949999999
 21
130.197962
 31
0.0
  0
ARC
  5
22D9
330
21C7
100
AcDbEntity
  8
1
  6
Continuous
100
AcDbCircle
 10
253.8194949999999
 20
139.7242409999997
 30
0.0
 40
1.0
100
AcDbArc
 50
300.0
 51
0.0
  0
ARC
  5
22DA
330
21C7
100
AcDbEntity
  8
1
  6
Continuous
100
AcDbCircle
 10
238.8194949999999
 20
131.0639869999999
 30
0.0
 40
1.0
100
AcDbArc
 50
239.9999999999999
 51
300.0
  0
LINE
  5
22DB
330
21C7
100
AcDbEntity
  8
1
  6
Continuous
100
AcDbLine
 10
238.319495
 20
130.197962
 30
0.0
 11
223.319495
 21
138.858216
 31
0.0
  0
ARC
  5
22DC
330
21C7
100
AcDbEntity
  8
1
  6
Continuous
100
AcDbCircle
 10
223.819495
 20
139.7242409999997
 30
0.0
 40
1.0
100
AcDbArc
 50
180.0
 51
239.9999999999999
  0
LINE
  5
22DD
330
21C7
100
AcDbEntity
  8
1
  6
Continuous
100
AcDbLine
 10
222.8194949999999
 20
139.7242409999997
 30
0.0
 11
222.8194949999999
 21
157.044749
 31
0.0
  0
LINE
  5
22DE
330
21C7
100
AcDbEntity
  8
1
  6
Continuous
100
AcDbLine
 10
238.319495
 20
166.5710289999998
 30
0.0
 11
223.319495
 21
157.910775
 31
0.0
  0
ARC
  5
22DF
330
21C7
100
AcDbEntity
  8
1
  6
Continuous
100
AcDbCircle
 10
223.819495
 20
157.044749
 30
0.0
 40
1.0
100
AcDbArc
 50
119.9999999999999
 51
180.0
  0
ARC
  5
22E0
330
21C7
100
AcDbEntity
  8
1
  6
Continuous
100
AcDbCircle
 10
238.8194949999999
 20
148.3844949999999
 30
0.0
 40
17.0
100
AcDbArc
 50
160.2500769999998
 51
199.749923
  0
ARC
  5
22E1
330
21C7
100
AcDbEntity
  8
1
  6
Continuous
100
AcDbCircle
 10
238.8194949999999
 20
148.3844949999999
 30
0.0
 40
17.75
100
AcDbArc
 50
154.343824
 51
205.656176
  0
ARC
  5
22E2
330
21C7
100
AcDbEntity
  8
1
  6
Continuous
100
AcDbCircle
 10
238.8194949999999
 20
148.3844949999999
 30
0.0
 40
17.0
100
AcDbArc
 50
100.250077
 51
139.749923
  0
ARC
  5
22E3
330
21C7
100
AcDbEntity
  8
1
  6
Continuous
100
AcDbCircle
 10
238.8194949999999
 20
148.3844949999999
 30
0.0
 40
17.75
100
AcDbArc
 50
94.343824
 51
145.6561759999999
  0
ARC
  5
22E4
330
21C7
100
AcDbEntity
  8
1
  6
Continuous
100
AcDbCircle
 10
238.8194949999999
 20
148.3844949999999
 30
0.0
 40
17.0
100
AcDbArc
 50
40.25007700000001
 51
79.74992299999998
  0
ARC
  5
22E5
330
21C7
100
AcDbEntity
  8
1
  6
Continuous
100
AcDbCircle
 10
238.8194949999999
 20
148.3844949999999
 30
0.0
 40
17.75
100
AcDbArc
 50
34.343824
 51
85.65617600000001
  0
ARC
  5
22E6
330
21C7
100
AcDbEntity
  8
1
  6
Continuous
100
AcDbCircle
 10
238.8194949999999
 20
148.3844949999999
 30
0.0
 40
17.0
100
AcDbArc
 50
340.2500769999999
 51
19.749923
  0
ARC
  5
22E7
330
21C7
100
AcDbEntity
  8
1
  6
Continuous
100
AcDbCircle
 10
238.8194949999999
 20
148.3844949999999
 30
0.0
 40
17.75
100
AcDbArc
 50
334.3438239999999
 51
25.65617599999999
  0
ARC
  5
22E8
330
21C7
100
AcDbEntity
  8
1
  6
Continuous
100
AcDbCircle
 10
238.8194949999999
 20
148.3844949999999
 30
0.0
 40
17.75
100
AcDbArc
 50
214.343824
 51
265.6561759999997
  0
ARC
  5
22E9
330
21C7
100
AcDbEntity
  8
1
  6
Continuous
100
AcDbCircle
 10
238.8194949999999
 20
148.3844949999999
 30
0.0
 40
17.0
100
AcDbArc
 50
220.250077
 51
259.749923
  0
ARC
  5
22EA
330
21C7
100
AcDbEntity
  8
2
  6
Continuous
100
AcDbCircle
 10
238.8194949999999
 20
148.3844949999999
 30
0.0
 40
12.0
100
AcDbArc
 50
336.443536
 51
23.55646399999999
  0
ARC
  5
22EB
330
21C7
100
AcDbEntity
  8
1
  6
Continuous
100
AcDbCircle
 10
238.8194949999999
 20
148.3844949999999
 30
0.0
 40
12.0
100
AcDbArc
 50
23.55646399999999
 51
156.443536
  0
ARC
  5
22EC
330
21C7
100
AcDbEntity
  8
2
  6
Continuous
100
AcDbCircle
 10
238.8194949999999
 20
148.3844949999999
 30
0.0
 40
12.0
100
AcDbArc
 50
156.443536
 51
203.556464
  0
ARC
  5
22ED
330
21C7
100
AcDbEntity
  8
1
  6
Continuous
100
AcDbCircle
 10
238.8194949999999
 20
148.3844949999999
 30
0.0
 40
11.188
100
AcDbArc
 50
169.4815839999999
 51
190.518416
  0
ARC
  5
22EE
330
21C7
100
AcDbEntity
  8
1
  6
Continuous
100
AcDbCircle
 10
238.8194949999999
 20
148.3844949999999
 30
0.0
 40
11.188
100
AcDbArc
 50
349.481584
 51
10.518416
  0
LINE
  5
22EF
330
21C7
100
AcDbEntity
  8
1
  6
Continuous
100
AcDbLine
 10
100.894174
 20
265.153969
 30
0.0
 11
100.894174
 21
229.6539689999999
 31
0.0
  0
LINE
  5
22F0
330
21C7
100
AcDbEntity
  8
1
  6
Continuous
100
AcDbLine
 10
101.194174
 20
264.853969
 30
0.0
 11
101.194174
 21
229.953969
 31
0.0
  0
LINE
  5
22F1
330
21C7
100
AcDbEntity
  8
1
  6
Continuous
100
AcDbLine
 10
91.89417400000001
 20
260.653969
 30
0.0
 11
91.89417400000001
 21
234.1539689999999
 31
0.0
  0
LINE
  5
22F2
330
21C7
100
AcDbEntity
  8
1
  6
Continuous
100
AcDbLine
 10
102.494174
 20
264.403969
 30
0.0
 11
102.494174
 21
230.4039689999999
 31
0.0
  0
LINE
  5
22F3
330
21C7
100
AcDbEntity
  8
1
  6
Continuous
100
AcDbLine
 10
101.494174
 20
264.403969
 30
0.0
 11
101.494174
 21
230.4039689999999
 31
0.0
  0
LINE
  5
22F4
330
21C7
100
AcDbEntity
  8
1
  6
Continuous
100
AcDbLine
 10
95.39417400000001
 20
229.6539689999999
 30
0.0
 11
100.894174
 21
229.6539689999999
 31
0.0
  0
LINE
  5
22F5
330
21C7
100
AcDbEntity
  8
1
  6
Continuous
100
AcDbLine
 10
101.194174
 20
230.4039689999999
 30
0.0
 11
101.494174
 21
230.7039689999998
 31
0.0
  0
LINE
  5
22F6
330
21C7
100
AcDbEntity
  8
1
  6
Continuous
100
AcDbLine
 10
101.194174
 20
229.953969
 30
0.0
 11
100.894174
 21
229.6539689999999
 31
0.0
  0
LINE
  5
22F7
330
21C7
100
AcDbEntity
  8
1
  6
Continuous
100
AcDbLine
 10
101.494174
 20
230.4039689999999
 30
0.0
 11
102.494174
 21
230.4039689999999
 31
0.0
  0
LINE
  5
22F8
330
21C7
100
AcDbEntity
  8
1
  6
Continuous
100
AcDbLine
 10
102.494174
 20
258.403969
 30
0.0
 11
114.994174
 21
258.403969
 31
0.0
  0
LINE
  5
22F9
330
21C7
100
AcDbEntity
  8
4
  6
CENTER
100
AcDbLine
 10
122.1626399999999
 20
247.403969
 30
0.0
 11
89.55623199999998
 21
247.403969
 31
0.0
  0
LINE
  5
22FA
330
21C7
100
AcDbEntity
  8
1
  6
Continuous
100
AcDbLine
 10
95.39417400000001
 20
265.153969
 30
0.0
 11
95.39417400000001
 21
229.6539689999999
 31
0.0
  0
LINE
  5
22FB
330
21C7
100
AcDbEntity
  8
1
  6
Continuous
100
AcDbLine
 10
104.5941739999999
 20
258.403969
 30
0.0
 11
104.5941739999999
 21
236.4039689999999
 31
0.0
  0
LINE
  5
22FC
330
21C7
100
AcDbEntity
  8
1
  6
Continuous
100
AcDbLine
 10
95.39417400000001
 20
265.153969
 30
0.0
 11
100.894174
 21
265.153969
 31
0.0
  0
LINE
  5
22FD
330
21C7
100
AcDbEntity
  8
1
  6
Continuous
100
AcDbLine
 10
95.39417400000001
 20
265.153969
 30
0.0
 11
91.89417400000001
 21
260.653969
 31
0.0
  0
LINE
  5
22FE
330
21C7
100
AcDbEntity
  8
1
  6
Continuous
100
AcDbLine
 10
102.9941739999999
 20
249.103969
 30
0.0
 11
102.9941739999999
 21
245.703969
 31
0.0
  0
LINE
  5
22FF
330
21C7
100
AcDbEntity
  8
1
  6
Continuous
100
AcDbLine
 10
101.194174
 20
263.403969
 30
0.0
 11
101.494174
 21
263.103969
 31
0.0
  0
LINE
  5
2300
330
21C7
100
AcDbEntity
  8
1
  6
Continuous
100
AcDbLine
 10
100.894174
 20
265.153969
 30
0.0
 11
101.194174
 21
264.853969
 31
0.0
  0
LINE
  5
2301
330
21C7
100
AcDbEntity
  8
1
  6
Continuous
100
AcDbLine
 10
101.494174
 20
264.403969
 30
0.0
 11
102.494174
 21
264.403969
 31
0.0
  0
LINE
  5
2302
330
21C7
100
AcDbEntity
  8
1
  6
Continuous
100
AcDbLine
 10
114.994174
 20
258.403969
 30
0.0
 11
114.994174
 21
236.4039689999999
 31
0.0
  0
LINE
  5
2303
330
21C7
100
AcDbEntity
  8
1
  6
Continuous
100
AcDbLine
 10
115.4941739999999
 20
241.9039689999999
 30
0.0
 11
115.4941739999999
 21
238.938131
 31
0.0
  0
LINE
  5
2304
330
21C7
100
AcDbEntity
  8
1
  6
Continuous
100
AcDbLine
 10
117.4941739999999
 20
256.903969
 30
0.0
 11
117.4941739999999
 21
238.938131
 31
0.0
  0
LINE
  5
2305
330
21C7
100
AcDbEntity
  8
1
  6
Continuous
100
AcDbLine
 10
113.994174
 20
258.403969
 30
0.0
 11
113.994174
 21
236.4039689999999
 31
0.0
  0
LINE
  5
2306
330
21C7
100
AcDbEntity
  8
1
  6
Continuous
100
AcDbLine
 10
119.994174
 20
252.103969
 30
0.0
 11
119.994174
 21
242.7039689999999
 31
0.0
  0
LINE
  5
2307
330
21C7
100
AcDbEntity
  8
2
  6
Continuous
100
AcDbLine
 10
119.6941739999999
 20
242.4542219999999
 30
0.0
 11
117.4941739999999
 21
244.403543
 31
0.0
  0
ARC
  5
2308
330
21C7
100
AcDbEntity
  8
1
  6
Continuous
100
AcDbCircle
 10
119.6941739999999
 20
242.7039689999999
 30
0.0
 40
0.3
100
AcDbArc
 50
270.0
 51
0.0
  0
LINE
  5
2309
330
21C7
100
AcDbEntity
  8
1
  6
Continuous
100
AcDbLine
 10
119.6941739999999
 20
242.4039689999999
 30
0.0
 11
117.4941739999999
 21
242.4039689999999
 31
0.0
  0
LINE
  5
230A
330
21C7
100
AcDbEntity
  8
1
  6
Continuous
100
AcDbLine
 10
119.6941739999999
 20
242.4542219999999
 30
0.0
 11
117.4941739999999
 21
242.4542219999999
 31
0.0
  0
ARC
  5
230B
330
21C7
100
AcDbEntity
  8
1
  6
Continuous
100
AcDbCircle
 10
119.6941739999999
 20
252.103969
 30
0.0
 40
0.3
100
AcDbArc
 50
0.0
 51
90.0
  0
LINE
  5
230C
330
21C7
100
AcDbEntity
  8
2
  6
Continuous
100
AcDbLine
 10
117.4941739999999
 20
250.0603969999999
 30
0.0
 11
119.6941739999999
 21
248.1110759999999
 31
0.0
  0
LINE
  5
230D
330
21C7
100
AcDbEntity
  8
2
  6
Continuous
100
AcDbLine
 10
117.4941739999999
 20
250.4043949999999
 30
0.0
 11
119.6941739999999
 21
252.3537169999999
 31
0.0
  0
LINE
  5
230E
330
21C7
100
AcDbEntity
  8
2
  6
Continuous
100
AcDbLine
 10
117.4941739999999
 20
244.747541
 30
0.0
 11
119.6941739999999
 21
246.696862
 31
0.0
  0
LINE
  5
230F
330
21C7
100
AcDbEntity
  8
1
  6
Continuous
100
AcDbLine
 10
119.6941739999999
 20
252.4039689999999
 30
0.0
 11
117.4941739999999
 21
252.4039689999999
 31
0.0
  0
LINE
  5
2310
330
21C7
100
AcDbEntity
  8
1
  6
Continuous
100
AcDbLine
 10
119.6941739999999
 20
252.3537169999999
 30
0.0
 11
117.4941739999999
 21
252.3537169999999
 31
0.0
  0
LINE
  5
2311
330
21C7
100
AcDbEntity
  8
1
  6
Continuous
100
AcDbLine
 10
119.6941739999999
 20
248.1110759999999
 30
0.0
 11
117.4941739999999
 21
248.1110759999999
 31
0.0
  0
LINE
  5
2312
330
21C7
100
AcDbEntity
  8
1
  6
Continuous
100
AcDbLine
 10
119.6941739999999
 20
246.696862
 30
0.0
 11
117.4941739999999
 21
246.696862
 31
0.0
  0
LINE
  5
2313
330
21C7
100
AcDbEntity
  8
1
  6
Continuous
100
AcDbLine
 10
116.994174
 20
252.9039689999999
 30
0.0
 11
116.994174
 21
241.9039689999999
 31
0.0
  0
ARC
  5
2314
330
21C7
100
AcDbEntity
  8
1
  6
Continuous
100
AcDbCircle
 10
148.1695009999999
 20
232.4039689999999
 30
0.0
 40
1.0
100
AcDbArc
 50
180.0
 51
270.0
  0
LINE
  5
2315
330
21C7
100
AcDbEntity
  8
1
  6
Continuous
100
AcDbLine
 10
152.669501
 20
262.903969
 30
0.0
 11
152.669501
 21
231.9039689999999
 31
0.0
  0
LINE
  5
2316
330
21C7
100
AcDbEntity
  8
1
  6
Continuous
100
AcDbLine
 10
149.1695009999999
 20
263.403969
 30
0.0
 11
149.1695009999999
 21
231.4039689999999
 31
0.0
  0
LINE
  5
2317
330
21C7
100
AcDbEntity
  8
1
  6
Continuous
100
AcDbLine
 10
152.169501
 20
231.4039689999999
 30
0.0
 11
148.1695009999999
 21
231.4039689999999
 31
0.0
  0
LINE
  5
2318
330
21C7
100
AcDbEntity
  8
1
  6
Continuous
100
AcDbLine
 10
145.1695009999999
 20
260.903969
 30
0.0
 11
145.1695009999999
 21
233.9039689999999
 31
0.0
  0
LINE
  5
2319
330
21C7
100
AcDbEntity
  8
1
  6
Continuous
100
AcDbLine
 10
147.1695009999999
 20
262.403969
 30
0.0
 11
147.1695009999999
 21
232.4039689999999
 31
0.0
  0
LINE
  5
231A
330
21C7
100
AcDbEntity
  8
1
  6
Continuous
100
AcDbLine
 10
149.669501
 20
247.403969
 30
0.0
 11
152.169501
 21
247.403969
 31
0.0
  0
ARC
  5
231B
330
21C7
100
AcDbEntity
  8
1
  6
Continuous
100
AcDbCircle
 10
146.1695009999999
 20
233.9039689999999
 30
0.0
 40
1.0
100
AcDbArc
 50
180.0
 51
0.0
  0
LINE
  5
231C
330
21C7
100
AcDbEntity
  8
1
  6
Continuous
100
AcDbLine
 10
147.1695009999999
 20
247.403969
 30
0.0
 11
145.1695009999999
 21
245.403969
 31
0.0
  0
LINE
  5
231D
330
21C7
100
AcDbEntity
  8
1
  6
Continuous
100
AcDbLine
 10
147.1695009999999
 20
249.403969
 30
0.0
 11
145.1695009999999
 21
247.403969
 31
0.0
  0
LINE
  5
231E
330
21C7
100
AcDbEntity
  8
1
  6
Continuous
100
AcDbLine
 10
152.169501
 20
263.403969
 30
0.0
 11
148.1695009999999
 21
263.403969
 31
0.0
  0
ARC
  5
231F
330
21C7
100
AcDbEntity
  8
1
  6
Continuous
100
AcDbCircle
 10
146.1695009999999
 20
260.903969
 30
0.0
 40
1.0
100
AcDbArc
 50
0.0
 51
180.0
  0
ARC
  5
2320
330
21C7
100
AcDbEntity
  8
1
  6
Continuous
100
AcDbCircle
 10
148.1695009999999
 20
262.403969
 30
0.0
 40
1.0
100
AcDbArc
 50
90.0
 51
180.0
  0
ARC
  5
2321
330
21C7
100
AcDbEntity
  8
1
  6
Continuous
100
AcDbCircle
 10
152.169501
 20
231.9039689999999
 30
0.0
 40
0.5
100
AcDbArc
 50
270.0
 51
0.0
  0
ARC
  5
2322
330
21C7
100
AcDbEntity
  8
1
  6
Continuous
100
AcDbCircle
 10
152.169501
 20
262.903969
 30
0.0
 40
0.5
100
AcDbArc
 50
0.0
 51
90.0
  0
LINE
  5
2323
330
21C7
100
AcDbEntity
  8
1
  6
Continuous
100
AcDbLine
 10
116.994174
 20
252.9039689999999
 30
0.0
 11
114.994174
 21
252.9039689999999
 31
0.0
  0
LINE
  5
2324
330
21C7
100
AcDbEntity
  8
1
  6
Continuous
100
AcDbLine
 10
116.994174
 20
241.9039689999999
 30
0.0
 11
114.994174
 21
241.9039689999999
 31
0.0
  0
LINE
  5
2325
330
21C7
100
AcDbEntity
  8
1
  6
Continuous
100
AcDbLine
 10
102.494174
 20
236.4039689999999
 30
0.0
 11
114.994174
 21
236.4039689999999
 31
0.0
  0
LINE
  5
2326
330
21C7
100
AcDbEntity
  8
1
  6
Continuous
100
AcDbLine
 10
117.4941739999999
 20
256.903969
 30
0.0
 11
115.4941739999999
 21
256.903969
 31
0.0
  0
LINE
  5
2327
330
21C7
100
AcDbEntity
  8
1
  6
Continuous
100
AcDbLine
 10
117.4941739999999
 20
252.4039689999999
 30
0.0
 11
116.994174
 21
252.4039689999999
 31
0.0
  0
LINE
  5
2328
330
21C7
100
AcDbEntity
  8
1
  6
Continuous
100
AcDbLine
 10
117.4941739999999
 20
251.403969
 30
0.0
 11
116.994174
 21
251.403969
 31
0.0
  0
LINE
  5
2329
330
21C7
100
AcDbEntity
  8
1
  6
Continuous
100
AcDbLine
 10
115.4941739999999
 20
239.403969
 30
0.0
 11
117.4941739999999
 21
239.403969
 31
0.0
  0
LINE
  5
232A
330
21C7
100
AcDbEntity
  8
1
  6
Continuous
100
AcDbLine
 10
117.4941739999999
 20
238.938131
 30
0.0
 11
115.4941739999999
 21
238.938131
 31
0.0
  0
LINE
  5
232B
330
21C7
100
AcDbEntity
  8
1
  6
Continuous
100
AcDbLine
 10
115.4941739999999
 20
252.9039689999999
 30
0.0
 11
115.4941739999999
 21
256.903969
 31
0.0
  0
LINE
  5
232C
330
21C7
100
AcDbEntity
  8
1
  6
Continuous
100
AcDbLine
 10
95.39417400000001
 20
229.6539689999999
 30
0.0
 11
91.89417400000001
 21
234.1539689999999
 31
0.0
  0
LINE
  5
232D
330
21C7
100
AcDbEntity
  8
1
  6
Continuous
100
AcDbLine
 10
102.694174
 20
249.403969
 30
0.0
 11
102.494174
 21
249.403969
 31
0.0
  0
ARC
  5
232E
330
21C7
100
AcDbEntity
  8
1
  6
Continuous
100
AcDbCircle
 10
102.694174
 20
249.103969
 30
0.0
 40
0.3
100
AcDbArc
 50
0.0
 51
90.0
  0
LINE
  5
232F
330
21C7
100
AcDbEntity
  8
1
  6
Continuous
100
AcDbLine
 10
102.694174
 20
245.403969
 30
0.0
 11
102.494174
 21
245.403969
 31
0.0
  0
ARC
  5
2330
330
21C7
100
AcDbEntity
  8
1
  6
Continuous
100
AcDbCircle
 10
102.694174
 20
245.703969
 30
0.0
 40
0.3
100
AcDbArc
 50
270.0
 51
0.0
  0
LINE
  5
2331
330
21C7
100
AcDbEntity
  8
1
  6
Continuous
100
AcDbLine
 10
166.923607
 20
62.365021
 30
0.0
 11
166.923607
 21
44.365021
 31
0.0
  0
LINE
  5
2332
330
21C7
100
AcDbEntity
  8
1
  6
Continuous
100
AcDbLine
 10
165.923607
 20
62.365021
 30
0.0
 11
165.923607
 21
44.365021
 31
0.0
  0
LINE
  5
2333
330
21C7
100
AcDbEntity
  8
1
  6
Continuous
100
AcDbLine
 10
147.1695009999999
 20
68.365021
 30
0.0
 11
147.1695009999999
 21
38.365021
 31
0.0
  0
LINE
  5
2334
330
21C7
100
AcDbEntity
  8
1
  6
Continuous
100
AcDbLine
 10
145.1695009999999
 20
66.865021
 30
0.0
 11
145.1695009999999
 21
39.865021
 31
0.0
  0
LINE
  5
2335
330
21C7
100
AcDbEntity
  8
1
  6
Continuous
100
AcDbLine
 10
152.669501
 20
68.865021
 30
0.0
 11
152.669501
 21
37.86502099999999
 31
0.0
  0
LINE
  5
2336
330
21C7
100
AcDbEntity
  8
1
  6
Continuous
100
AcDbLine
 10
149.1695009999999
 20
69.365021
 30
0.0
 11
149.1695009999999
 21
37.365021
 31
0.0
  0
LINE
  5
2337
330
21C7
100
AcDbEntity
  8
1
  6
Continuous
100
AcDbLine
 10
114.994174
 20
42.365021
 30
0.0
 11
114.994174
 21
64.365021
 31
0.0
  0
LINE
  5
2338
330
21C7
100
AcDbEntity
  8
1
  6
Continuous
100
AcDbLine
 10
113.994174
 20
42.365021
 30
0.0
 11
113.994174
 21
64.365021
 31
0.0
  0
LINE
  5
2339
330
21C7
100
AcDbEntity
  8
1
  6
Continuous
100
AcDbLine
 10
117.4941739999999
 20
43.865021
 30
0.0
 11
117.4941739999999
 21
61.830859
 31
0.0
  0
LINE
  5
233A
330
21C7
100
AcDbEntity
  8
1
  6
Continuous
100
AcDbLine
 10
101.494174
 20
36.36502099999999
 30
0.0
 11
101.494174
 21
70.36502099999998
 31
0.0
  0
LINE
  5
233B
330
21C7
100
AcDbEntity
  8
1
  6
Continuous
100
AcDbLine
 10
102.494174
 20
36.36502099999999
 30
0.0
 11
102.494174
 21
70.36502099999998
 31
0.0
  0
LINE
  5
233C
330
21C7
100
AcDbEntity
  8
1
  6
Continuous
100
AcDbLine
 10
101.194174
 20
35.91502100000001
 30
0.0
 11
101.194174
 21
70.815021
 31
0.0
  0
LINE
  5
233D
330
21C7
100
AcDbEntity
  8
1
  6
Continuous
100
AcDbLine
 10
100.894174
 20
35.615021
 30
0.0
 11
100.894174
 21
71.115021
 31
0.0
  0
LINE
  5
233E
330
21C7
100
AcDbEntity
  8
1
  6
Continuous
100
AcDbLine
 10
104.5941739999999
 20
42.365021
 30
0.0
 11
104.5941739999999
 21
64.365021
 31
0.0
  0
LINE
  5
233F
330
21C7
100
AcDbEntity
  8
1
  6
Continuous
100
AcDbLine
 10
91.89417400000001
 20
40.115021
 30
0.0
 11
91.89417400000001
 21
66.61502099999998
 31
0.0
  0
LINE
  5
2340
330
21C7
100
AcDbEntity
  8
4
  6
CENTER
100
AcDbLine
 10
122.1626399999999
 20
53.365021
 30
0.0
 11
89.55623199999998
 21
53.365021
 31
0.0
  0
LINE
  5
2341
330
21C7
100
AcDbEntity
  8
1
  6
Continuous
100
AcDbLine
 10
102.494174
 20
64.365021
 30
0.0
 11
114.994174
 21
64.365021
 31
0.0
  0
LINE
  5
2342
330
21C7
100
AcDbEntity
  8
1
  6
Continuous
100
AcDbLine
 10
95.39417400000001
 20
71.115021
 30
0.0
 11
91.89417400000001
 21
66.61502099999998
 31
0.0
  0
LINE
  5
2343
330
21C7
100
AcDbEntity
  8
1
  6
Continuous
100
AcDbLine
 10
95.39417400000001
 20
71.115021
 30
0.0
 11
100.894174
 21
71.115021
 31
0.0
  0
LINE
  5
2344
330
21C7
100
AcDbEntity
  8
1
  6
Continuous
100
AcDbLine
 10
101.494174
 20
70.36502099999998
 30
0.0
 11
102.494174
 21
70.36502099999998
 31
0.0
  0
LINE
  5
2345
330
21C7
100
AcDbEntity
  8
1
  6
Continuous
100
AcDbLine
 10
101.194174
 20
70.815021
 30
0.0
 11
100.894174
 21
71.115021
 31
0.0
  0
LINE
  5
2346
330
21C7
100
AcDbEntity
  8
1
  6
Continuous
100
AcDbLine
 10
101.194174
 20
70.36502099999998
 30
0.0
 11
101.494174
 21
70.065021
 31
0.0
  0
ARC
  5
2347
330
21C7
100
AcDbEntity
  8
1
  6
Continuous
100
AcDbCircle
 10
102.694174
 20
51.665021
 30
0.0
 40
0.3
100
AcDbArc
 50
270.0
 51
0.0
  0
LINE
  5
2348
330
21C7
100
AcDbEntity
  8
1
  6
Continuous
100
AcDbLine
 10
102.694174
 20
51.365021
 30
0.0
 11
102.494174
 21
51.365021
 31
0.0
  0
LINE
  5
2349
330
21C7
100
AcDbEntity
  8
1
  6
Continuous
100
AcDbLine
 10
102.694174
 20
55.36502099999999
 30
0.0
 11
102.494174
 21
55.36502099999999
 31
0.0
  0
ARC
  5
234A
330
21C7
100
AcDbEntity
  8
1
  6
Continuous
100
AcDbCircle
 10
102.694174
 20
55.06502099999998
 30
0.0
 40
0.3
100
AcDbArc
 50
0.0
 51
90.0
  0
LINE
  5
234B
330
21C7
100
AcDbEntity
  8
1
  6
Continuous
100
AcDbLine
 10
102.9941739999999
 20
51.665021
 30
0.0
 11
102.9941739999999
 21
55.06502099999998
 31
0.0
  0
LINE
  5
234C
330
21C7
100
AcDbEntity
  8
1
  6
Continuous
100
AcDbLine
 10
115.4941739999999
 20
58.865021
 30
0.0
 11
114.994174
 21
58.865021
 31
0.0
  0
LINE
  5
234D
330
21C7
100
AcDbEntity
  8
1
  6
Continuous
100
AcDbLine
 10
117.4941739999999
 20
61.830859
 30
0.0
 11
115.4941739999999
 21
61.830859
 31
0.0
  0
LINE
  5
234E
330
21C7
100
AcDbEntity
  8
1
  6
Continuous
100
AcDbLine
 10
115.4941739999999
 20
43.865021
 30
0.0
 11
115.4941739999999
 21
61.830859
 31
0.0
  0
LINE
  5
234F
330
21C7
100
AcDbEntity
  8
2
  6
Continuous
100
AcDbLine
 10
117.4941739999999
 20
50.364595
 30
0.0
 11
119.6941739999999
 21
48.415274
 31
0.0
  0
LINE
  5
2350
330
21C7
100
AcDbEntity
  8
1
  6
Continuous
100
AcDbLine
 10
119.6941739999999
 20
48.415274
 30
0.0
 11
117.4941739999999
 21
48.415274
 31
0.0
  0
LINE
  5
2351
330
21C7
100
AcDbEntity
  8
1
  6
Continuous
100
AcDbLine
 10
119.6941739999999
 20
48.365021
 30
0.0
 11
117.4941739999999
 21
48.365021
 31
0.0
  0
ARC
  5
2352
330
21C7
100
AcDbEntity
  8
1
  6
Continuous
100
AcDbCircle
 10
119.6941739999999
 20
48.665021
 30
0.0
 40
0.3
100
AcDbArc
 50
270.0
 51
0.0
  0
LINE
  5
2353
330
21C7
100
AcDbEntity
  8
1
  6
Continuous
100
AcDbLine
 10
115.4941739999999
 20
47.86502099999998
 30
0.0
 11
114.994174
 21
47.86502099999998
 31
0.0
  0
LINE
  5
2354
330
21C7
100
AcDbEntity
  8
1
  6
Continuous
100
AcDbLine
 10
119.6941739999999
 20
54.07212799999999
 30
0.0
 11
117.4941739999999
 21
54.07212799999999
 31
0.0
  0
LINE
  5
2355
330
21C7
100
AcDbEntity
  8
1
  6
Continuous
100
AcDbLine
 10
119.6941739999999
 20
52.657914
 30
0.0
 11
117.4941739999999
 21
52.657914
 31
0.0
  0
LINE
  5
2356
330
21C7
100
AcDbEntity
  8
2
  6
Continuous
100
AcDbLine
 10
117.4941739999999
 20
56.02144899999998
 30
0.0
 11
119.6941739999999
 21
54.07212799999999
 31
0.0
  0
LINE
  5
2357
330
21C7
100
AcDbEntity
  8
1
  6
Continuous
100
AcDbLine
 10
119.6941739999999
 20
58.314768
 30
0.0
 11
117.4941739999999
 21
58.314768
 31
0.0
  0
LINE
  5
2358
330
21C7
100
AcDbEntity
  8
1
  6
Continuous
100
AcDbLine
 10
119.6941739999999
 20
58.365021
 30
0.0
 11
117.4941739999999
 21
58.365021
 31
0.0
  0
ARC
  5
2359
330
21C7
100
AcDbEntity
  8
1
  6
Continuous
100
AcDbCircle
 10
119.6941739999999
 20
58.06502099999999
 30
0.0
 40
0.3
100
AcDbArc
 50
0.0
 51
90.0
  0
LINE
  5
235A
330
21C7
100
AcDbEntity
  8
2
  6
Continuous
100
AcDbLine
 10
119.6941739999999
 20
58.314768
 30
0.0
 11
117.4941739999999
 21
56.36544699999999
 31
0.0
  0
LINE
  5
235B
330
21C7
100
AcDbEntity
  8
1
  6
Continuous
100
AcDbLine
 10
119.994174
 20
48.665021
 30
0.0
 11
119.994174
 21
58.06502099999999
 31
0.0
  0
LINE
  5
235C
330
21C7
100
AcDbEntity
  8
2
  6
Continuous
100
AcDbLine
 10
117.4941739999999
 20
50.708593
 30
0.0
 11
119.6941739999999
 21
52.657914
 31
0.0
  0
LINE
  5
235D
330
21C7
100
AcDbEntity
  8
1
  6
Continuous
100
AcDbLine
 10
180.8864639999999
 20
58.365021
 30
0.0
 11
179.8864639999999
 21
58.365021
 31
0.0
  0
LINE
  5
235E
330
21C7
100
AcDbEntity
  8
1
  6
Continuous
100
AcDbLine
 10
180.8864639999999
 20
48.365021
 30
0.0
 11
179.8864639999999
 21
48.365021
 31
0.0
  0
LINE
  5
235F
330
21C7
100
AcDbEntity
  8
4
  6
CENTER
100
AcDbLine
 10
188.589773
 20
53.365021
 30
0.0
 11
140.8422429999999
 21
53.365021
 31
0.0
  0
ARC
  5
2360
330
21C7
100
AcDbEntity
  8
1
  6
Continuous
100
AcDbCircle
 10
152.169501
 20
37.86502099999999
 30
0.0
 40
0.5
100
AcDbArc
 50
270.0
 51
0.0
  0
ARC
  5
2361
330
21C7
100
AcDbEntity
  8
1
  6
Continuous
100
AcDbCircle
 10
148.1695009999999
 20
38.365021
 30
0.0
 40
1.0
100
AcDbArc
 50
180.0
 51
270.0
  0
LINE
  5
2362
330
21C7
100
AcDbEntity
  8
1
  6
Continuous
100
AcDbLine
 10
152.169501
 20
37.365021
 30
0.0
 11
148.1695009999999
 21
37.365021
 31
0.0
  0
ARC
  5
2363
330
21C7
100
AcDbEntity
  8
1
  6
Continuous
100
AcDbCircle
 10
146.1695009999999
 20
39.865021
 30
0.0
 40
1.0
100
AcDbArc
 50
180.0
 51
0.0
  0
LINE
  5
2364
330
21C7
100
AcDbEntity
  8
1
  6
Continuous
100
AcDbLine
 10
149.669501
 20
53.365021
 30
0.0
 11
152.169501
 21
53.365021
 31
0.0
  0
LINE
  5
2365
330
21C7
100
AcDbEntity
  8
1
  6
Continuous
100
AcDbLine
 10
147.1695009999999
 20
55.36502099999999
 30
0.0
 11
145.1695009999999
 21
53.365021
 31
0.0
  0
LINE
  5
2366
330
21C7
100
AcDbEntity
  8
1
  6
Continuous
100
AcDbLine
 10
147.1695009999999
 20
53.365021
 30
0.0
 11
145.1695009999999
 21
51.365021
 31
0.0
  0
LINE
  5
2367
330
21C7
100
AcDbEntity
  8
1
  6
Continuous
100
AcDbLine
 10
165.923607
 20
44.365021
 30
0.0
 11
166.923607
 21
44.365021
 31
0.0
  0
LINE
  5
2368
330
21C7
100
AcDbEntity
  8
1
  6
Continuous
100
AcDbLine
 10
179.8864639999999
 20
58.365021
 30
0.0
 11
179.8864639999999
 21
48.365021
 31
0.0
  0
LINE
  5
2369
330
21C7
100
AcDbEntity
  8
1
  6
Continuous
100
AcDbLine
 10
185.6864639999997
 20
57.365021
 30
0.0
 11
182.186464
 21
57.365021
 31
0.0
  0
LINE
  5
236A
330
21C7
100
AcDbEntity
  8
1
  6
Continuous
100
AcDbLine
 10
182.186464
 20
57.96502099999999
 30
0.0
 11
180.8864639999999
 21
57.96502099999999
 31
0.0
  0
LINE
  5
236B
330
21C7
100
AcDbEntity
  8
1
  6
Continuous
100
AcDbLine
 10
182.5438429999999
 20
53.365021
 30
0.0
 11
185.3290839999999
 21
53.365021
 31
0.0
  0
ARC
  5
236C
330
21C7
100
AcDbEntity
  8
1
  6
Continuous
100
AcDbCircle
 10
187.9614399999999
 20
51.365021
 30
0.0
 40
5.774976999999998
100
AcDbArc
 50
159.7375
 51
200.2625
  0
LINE
  5
236D
330
21C7
100
AcDbEntity
  8
1
  6
Continuous
100
AcDbLine
 10
185.6864639999997
 20
49.365021
 30
0.0
 11
182.186464
 21
49.365021
 31
0.0
  0
ARC
  5
236E
330
21C7
100
AcDbEntity
  8
1
  6
Continuous
100
AcDbCircle
 10
179.9114869999999
 20
51.365021
 30
0.0
 40
5.774976999999998
100
AcDbArc
 50
339.7375
 51
20.2625
  0
LINE
  5
236F
330
21C7
100
AcDbEntity
  8
1
  6
Continuous
100
AcDbLine
 10
180.8864639999999
 20
52.065021
 30
0.0
 11
182.186464
 21
53.365021
 31
0.0
  0
LINE
  5
2370
330
21C7
100
AcDbEntity
  8
1
  6
Continuous
100
AcDbLine
 10
180.8864639999999
 20
53.365021
 30
0.0
 11
182.186464
 21
54.66502099999999
 31
0.0
  0
LINE
  5
2371
330
21C7
100
AcDbEntity
  8
1
  6
Continuous
100
AcDbLine
 10
182.186464
 20
48.76502099999999
 30
0.0
 11
180.8864639999999
 21
48.76502099999999
 31
0.0
  0
LINE
  5
2372
330
21C7
100
AcDbEntity
  8
1
  6
Continuous
100
AcDbLine
 10
185.6864639999997
 20
57.365021
 30
0.0
 11
185.6864639999997
 21
49.365021
 31
0.0
  0
ARC
  5
2373
330
21C7
100
AcDbEntity
  8
1
  6
Continuous
100
AcDbCircle
 10
187.9614399999999
 20
55.36502099999999
 30
0.0
 40
5.774976999999998
100
AcDbArc
 50
159.7375
 51
200.2625
  0
LINE
  5
2374
330
21C7
100
AcDbEntity
  8
1
  6
Continuous
100
AcDbLine
 10
182.186464
 20
57.365021
 30
0.0
 11
182.186464
 21
49.365021
 31
0.0
  0
ARC
  5
2375
330
21C7
100
AcDbEntity
  8
1
  6
Continuous
100
AcDbCircle
 10
179.9114869999999
 20
55.36502099999999
 30
0.0
 40
5.774976999999998
100
AcDbArc
 50
339.7375
 51
20.2625
  0
LINE
  5
2376
330
21C7
100
AcDbEntity
  8
1
  6
Continuous
100
AcDbLine
 10
180.8864639999999
 20
58.365021
 30
0.0
 11
180.8864639999999
 21
48.365021
 31
0.0
  0
LINE
  5
2377
330
21C7
100
AcDbEntity
  8
1
  6
Continuous
100
AcDbLine
 10
182.186464
 20
57.96502099999999
 30
0.0
 11
182.186464
 21
48.76502099999999
 31
0.0
  0
LINE
  5
2378
330
21C7
100
AcDbEntity
  8
1
  6
Continuous
100
AcDbLine
 10
102.494174
 20
42.365021
 30
0.0
 11
114.994174
 21
42.365021
 31
0.0
  0
LINE
  5
2379
330
21C7
100
AcDbEntity
  8
1
  6
Continuous
100
AcDbLine
 10
95.39417400000001
 20
35.615021
 30
0.0
 11
100.894174
 21
35.615021
 31
0.0
  0
LINE
  5
237A
330
21C7
100
AcDbEntity
  8
1
  6
Continuous
100
AcDbLine
 10
95.39417400000001
 20
35.615021
 30
0.0
 11
91.89417400000001
 21
40.115021
 31
0.0
  0
LINE
  5
237B
330
21C7
100
AcDbEntity
  8
1
  6
Continuous
100
AcDbLine
 10
101.194174
 20
37.365021
 30
0.0
 11
101.494174
 21
37.665021
 31
0.0
  0
LINE
  5
237C
330
21C7
100
AcDbEntity
  8
1
  6
Continuous
100
AcDbLine
 10
101.494174
 20
36.36502099999999
 30
0.0
 11
102.494174
 21
36.36502099999999
 31
0.0
  0
LINE
  5
237D
330
21C7
100
AcDbEntity
  8
1
  6
Continuous
100
AcDbLine
 10
100.894174
 20
35.615021
 30
0.0
 11
101.194174
 21
35.91502100000001
 31
0.0
  0
LINE
  5
237E
330
21C7
100
AcDbEntity
  8
1
  6
Continuous
100
AcDbLine
 10
117.4941739999999
 20
43.865021
 30
0.0
 11
115.4941739999999
 21
43.865021
 31
0.0
  0
LINE
  5
237F
330
21C7
100
AcDbEntity
  8
1
  6
Continuous
100
AcDbLine
 10
152.169501
 20
69.365021
 30
0.0
 11
148.1695009999999
 21
69.365021
 31
0.0
  0
ARC
  5
2380
330
21C7
100
AcDbEntity
  8
1
  6
Continuous
100
AcDbCircle
 10
146.1695009999999
 20
66.865021
 30
0.0
 40
1.0
100
AcDbArc
 50
0.0
 51
180.0
  0
ARC
  5
2381
330
21C7
100
AcDbEntity
  8
1
  6
Continuous
100
AcDbCircle
 10
148.1695009999999
 20
68.365021
 30
0.0
 40
1.0
100
AcDbArc
 50
90.0
 51
180.0
  0
ARC
  5
2382
330
21C7
100
AcDbEntity
  8
1
  6
Continuous
100
AcDbCircle
 10
152.169501
 20
68.865021
 30
0.0
 40
0.5
100
AcDbArc
 50
0.0
 51
90.0
  0
LINE
  5
2383
330
21C7
100
AcDbEntity
  8
1
  6
Continuous
100
AcDbLine
 10
165.923607
 20
62.365021
 30
0.0
 11
166.923607
 21
62.365021
 31
0.0
  0
LINE
  5
2384
330
21C7
100
AcDbEntity
  8
1
  6
Continuous
100
AcDbLine
 10
117.4941739999999
 20
56.48751999999999
 30
0.0
 11
115.4941739999999
 21
56.48751999999999
 31
0.0
  0
LINE
  5
2385
330
21C7
100
AcDbEntity
  8
1
  6
Continuous
100
AcDbLine
 10
115.4941739999999
 20
50.24252199999999
 30
0.0
 11
117.4941739999999
 21
50.24252199999999
 31
0.0
  0
LINE
  5
2386
330
21C7
100
AcDbEntity
  8
1
  6
Continuous
100
AcDbLine
 10
115.4941739999999
 20
58.365021
 30
0.0
 11
114.994174
 21
58.365021
 31
0.0
  0
LINE
  5
2387
330
21C7
100
AcDbEntity
  8
1
  6
Continuous
100
AcDbLine
 10
115.4941739999999
 20
48.365021
 30
0.0
 11
114.994174
 21
48.365021
 31
0.0
  0
LINE
  5
2388
330
21C7
100
AcDbEntity
  8
1
  6
Continuous
100
AcDbLine
 10
93.79417399999999
 20
68.03003000000001
 30
0.0
 11
93.79417399999999
 21
38.700012
 31
0.0
  0
LINE
  5
2389
330
21C7
100
AcDbEntity
  8
1
  6
Continuous
100
AcDbLine
 10
92.39417399999997
 20
39.472164
 30
0.0
 11
92.39417399999997
 21
67.257878
 31
0.0
  0
LINE
  5
238A
330
21C7
100
AcDbEntity
  8
1
  6
Continuous
100
AcDbLine
 10
96.89417400000001
 20
68.03003000000001
 30
0.0
 11
96.89417400000001
 21
38.700012
 31
0.0
  0
LINE
  5
238B
330
21C7
100
AcDbEntity
  8
1
  6
Continuous
100
AcDbLine
 10
93.79417399999999
 20
68.03003000000001
 30
0.0
 11
96.89417400000001
 21
68.03003000000001
 31
0.0
  0
LINE
  5
238C
330
21C7
100
AcDbEntity
  8
1
  6
Continuous
100
AcDbLine
 10
93.79417399999999
 20
38.700012
 30
0.0
 11
96.89417400000001
 21
38.700012
 31
0.0
  0
LINE
  5
238D
330
21C7
100
AcDbEntity
  8
1
  6
Continuous
100
AcDbLine
 10
93.79417399999999
 20
62.46502099999999
 30
0.0
 11
96.89417400000001
 21
62.46502099999999
 31
0.0
  0
LINE
  5
238E
330
21C7
100
AcDbEntity
  8
1
  6
Continuous
100
AcDbLine
 10
93.79417399999999
 20
44.26502099999999
 30
0.0
 11
96.89417400000001
 21
44.26502099999999
 31
0.0
  0
LINE
  5
238F
330
21C7
100
AcDbEntity
  8
1
  6
Continuous
100
AcDbLine
 10
376.744817
 20
166.1344949999999
 30
0.0
 11
376.744817
 21
130.6344949999999
 31
0.0
  0
LINE
  5
2390
330
21C7
100
AcDbEntity
  8
1
  6
Continuous
100
AcDbLine
 10
376.444817
 20
165.834495
 30
0.0
 11
376.444817
 21
130.934495
 31
0.0
  0
LINE
  5
2391
330
21C7
100
AcDbEntity
  8
1
  6
Continuous
100
AcDbLine
 10
385.7448169999997
 20
161.634495
 30
0.0
 11
385.7448169999997
 21
131.1344949999997
 31
0.0
  0
LINE
  5
2392
330
21C7
100
AcDbEntity
  8
1
  6
Continuous
100
AcDbLine
 10
383.8448169999999
 20
138.3844949999997
 30
0.0
 11
383.8448169999999
 21
130.6344949999999
 31
0.0
  0
LINE
  5
2393
330
21C7
100
AcDbEntity
  8
1
  6
Continuous
100
AcDbLine
 10
385.244817
 20
130.6344949999999
 30
0.0
 11
385.244817
 21
137.3391339999997
 31
0.0
  0
LINE
  5
2394
330
21C7
100
AcDbEntity
  8
1
  6
Continuous
100
AcDbLine
 10
380.744817
 20
138.3844949999997
 30
0.0
 11
380.744817
 21
130.6344949999999
 31
0.0
  0
LINE
  5
2395
330
21C7
100
AcDbEntity
  8
1
  6
Continuous
100
AcDbLine
 10
375.1448169999999
 20
165.3844949999998
 30
0.0
 11
375.1448169999999
 21
131.3844949999999
 31
0.0
  0
LINE
  5
2396
330
21C7
100
AcDbEntity
  8
1
  6
Continuous
100
AcDbLine
 10
376.1448169999999
 20
165.3844949999998
 30
0.0
 11
376.1448169999999
 21
131.3844949999999
 31
0.0
  0
LINE
  5
2397
330
21C7
100
AcDbEntity
  8
1
  6
Continuous
100
AcDbLine
 10
380.744817
 20
130.6344949999999
 30
0.0
 11
376.744817
 21
130.6344949999999
 31
0.0
  0
LINE
  5
2398
330
21C7
100
AcDbEntity
  8
1
  6
Continuous
100
AcDbLine
 10
385.7448169999997
 20
131.1344949999997
 30
0.0
 11
385.244817
 21
130.6344949999999
 31
0.0
  0
LINE
  5
2399
330
21C7
100
AcDbEntity
  8
1
  6
Continuous
100
AcDbLine
 10
385.244817
 20
130.6344949999999
 30
0.0
 11
383.8448169999999
 21
130.6344949999999
 31
0.0
  0
LINE
  5
239A
330
21C7
100
AcDbEntity
  8
1
  6
Continuous
100
AcDbLine
 10
376.444817
 20
131.3844949999999
 30
0.0
 11
376.1448169999999
 21
131.6844949999999
 31
0.0
  0
LINE
  5
239B
330
21C7
100
AcDbEntity
  8
1
  6
Continuous
100
AcDbLine
 10
376.444817
 20
130.934495
 30
0.0
 11
376.744817
 21
130.6344949999999
 31
0.0
  0
LINE
  5
239C
330
21C7
100
AcDbEntity
  8
1
  6
Continuous
100
AcDbLine
 10
376.1448169999999
 20
131.3844949999999
 30
0.0
 11
375.1448169999999
 21
131.3844949999999
 31
0.0
  0
LINE
  5
239D
330
21C7
100
AcDbEntity
  8
1
  6
Continuous
100
AcDbLine
 10
374.6448169999999
 20
160.3844949999999
 30
0.0
 11
363.6448169999999
 21
160.3844949999999
 31
0.0
  0
LINE
  5
239E
330
21C7
100
AcDbEntity
  8
2
  6
Continuous
100
AcDbLine
 10
362.8328169999999
 20
159.572495
 30
0.0
 11
373.0448169999998
 21
159.572495
 31
0.0
  0
LINE
  5
239F
330
21C7
100
AcDbEntity
  8
2
  6
Continuous
100
AcDbLine
 10
363.548963
 20
152.954182
 30
0.0
 11
375.1448169999999
 21
144.332203
 31
0.0
  0
LINE
  5
23A0
330
21C7
100
AcDbEntity
  8
2
  6
Continuous
100
AcDbLine
 10
363.548963
 20
143.814809
 30
0.0
 11
375.1448169999999
 21
152.436787
 31
0.0
  0
LINE
  5
23A1
330
21C7
100
AcDbEntity
  8
1
  6
Continuous
100
AcDbLine
 10
363.6448169999999
 20
153.180327
 30
0.0
 11
375.1448169999999
 21
153.180327
 31
0.0
  0
LINE
  5
23A2
330
21C7
100
AcDbEntity
  8
2
  6
Continuous
100
AcDbLine
 10
362.8328169999999
 20
137.1964949999999
 30
0.0
 11
373.0448169999998
 21
137.1964949999999
 31
0.0
  0
LINE
  5
23A3
330
21C7
100
AcDbEntity
  8
1
  6
Continuous
100
AcDbLine
 10
363.6448169999999
 20
143.5886639999999
 30
0.0
 11
375.1448169999999
 21
143.5886639999999
 31
0.0
  0
LINE
  5
23A4
330
21C7
100
AcDbEntity
  8
1
  6
Continuous
100
AcDbLine
 10
374.6448169999999
 20
136.3844949999997
 30
0.0
 11
363.6448169999999
 21
136.3844949999997
 31
0.0
  0
LINE
  5
23A5
330
21C7
100
AcDbEntity
  8
4
  6
CENTER
100
AcDbLine
 10
355.4763509999999
 20
148.3844949999999
 30
0.0
 11
388.082758
 21
148.3844949999999
 31
0.0
  0
LINE
  5
23A6
330
21C7
100
AcDbEntity
  8
1
  6
Continuous
100
AcDbLine
 10
382.244817
 20
166.1344949999999
 30
0.0
 11
382.244817
 21
148.0762529999998
 31
0.0
  0
LINE
  5
23A7
330
21C7
100
AcDbEntity
  8
1
  6
Continuous
100
AcDbLine
 10
373.0448169999998
 20
160.3844949999999
 30
0.0
 11
373.0448169999998
 21
153.180327
 31
0.0
  0
ARC
  5
23A8
330
21C7
100
AcDbEntity
  8
1
  6
Continuous
100
AcDbCircle
 10
402.9591029999998
 20
148.0762529999998
 30
0.0
 40
20.71428599999999
100
AcDbArc
 50
180.0
 51
211.221212
  0
LINE
  5
23A9
330
21C7
100
AcDbEntity
  8
1
  6
Continuous
100
AcDbLine
 10
383.8448169999999
 20
138.3844949999997
 30
0.0
 11
380.744817
 21
138.3844949999997
 31
0.0
  0
LINE
  5
23AA
330
21C7
100
AcDbEntity
  8
2
  6
Continuous
100
AcDbLine
 10
373.0448169999998
 20
137.1964949999999
 30
0.0
 11
374.6448169999999
 21
136.3844949999997
 31
0.0
  0
LINE
  5
23AB
330
21C7
100
AcDbEntity
  8
1
  6
Continuous
100
AcDbLine
 10
373.0448169999998
 20
136.3844949999997
 30
0.0
 11
373.0448169999998
 21
143.5886639999999
 31
0.0
  0
LINE
  5
23AC
330
21C7
100
AcDbEntity
  8
1
  6
Continuous
100
AcDbLine
 10
375.1448169999999
 20
136.551162
 30
0.0
 11
374.6448169999999
 21
136.551162
 31
0.0
  0
LINE
  5
23AD
330
21C7
100
AcDbEntity
  8
1
  6
Continuous
100
AcDbLine
 10
375.1448169999999
 20
134.3844949999999
 30
0.0
 11
374.9448169999998
 21
134.3844949999999
 31
0.0
  0
ARC
  5
23AE
330
21C7
100
AcDbEntity
  8
1
  6
Continuous
100
AcDbCircle
 10
374.9448169999998
 20
134.6844949999999
 30
0.0
 40
0.3
100
AcDbArc
 50
180.0
 51
270.0
  0
LINE
  5
23AF
330
21C7
100
AcDbEntity
  8
1
  6
Continuous
100
AcDbLine
 10
374.6448169999999
 20
136.551162
 30
0.0
 11
374.6448169999999
 21
134.6844949999999
 31
0.0
  0
LINE
  5
23B0
330
21C7
100
AcDbEntity
  8
1
  6
Continuous
100
AcDbLine
 10
382.244817
 20
166.1344949999999
 30
0.0
 11
376.744817
 21
166.1344949999999
 31
0.0
  0
LINE
  5
23B1
330
21C7
100
AcDbEntity
  8
1
  6
Continuous
100
AcDbLine
 10
382.244817
 20
166.1344949999999
 30
0.0
 11
385.7448169999997
 21
161.634495
 31
0.0
  0
LINE
  5
23B2
330
21C7
100
AcDbEntity
  8
2
  6
Continuous
100
AcDbLine
 10
374.6448169999999
 20
160.3844949999999
 30
0.0
 11
373.0448169999998
 21
159.572495
 31
0.0
  0
LINE
  5
23B3
330
21C7
100
AcDbEntity
  8
1
  6
Continuous
100
AcDbLine
 10
374.6448169999999
 20
162.084495
 30
0.0
 11
374.6448169999999
 21
160.2178279999999
 31
0.0
  0
LINE
  5
23B4
330
21C7
100
AcDbEntity
  8
1
  6
Continuous
100
AcDbLine
 10
375.1448169999999
 20
160.2178279999999
 30
0.0
 11
374.6448169999999
 21
160.2178279999999
 31
0.0
  0
LINE
  5
23B5
330
21C7
100
AcDbEntity
  8
1
  6
Continuous
100
AcDbLine
 10
375.1448169999999
 20
162.3844949999998
 30
0.0
 11
374.9448169999998
 21
162.3844949999998
 31
0.0
  0
ARC
  5
23B6
330
21C7
100
AcDbEntity
  8
1
  6
Continuous
100
AcDbCircle
 10
374.9448169999998
 20
162.084495
 30
0.0
 40
0.3
100
AcDbArc
 50
90.0
 51
180.0
  0
LINE
  5
23B7
330
21C7
100
AcDbEntity
  8
1
  6
Continuous
100
AcDbLine
 10
376.444817
 20
164.3844949999999
 30
0.0
 11
376.1448169999999
 21
164.0844949999998
 31
0.0
  0
LINE
  5
23B8
330
21C7
100
AcDbEntity
  8
1
  6
Continuous
100
AcDbLine
 10
376.744817
 20
166.1344949999999
 30
0.0
 11
376.444817
 21
165.834495
 31
0.0
  0
LINE
  5
23B9
330
21C7
100
AcDbEntity
  8
1
  6
Continuous
100
AcDbLine
 10
376.1448169999999
 20
165.3844949999998
 30
0.0
 11
375.1448169999999
 21
165.3844949999998
 31
0.0
  0
LINE
  5
23BA
330
21C7
100
AcDbEntity
  8
1
  6
Continuous
100
AcDbLine
 10
362.6448169999999
 20
159.3844949999999
 30
0.0
 11
362.6448169999999
 21
137.3844949999997
 31
0.0
  0
LINE
  5
23BB
330
21C7
100
AcDbEntity
  8
1
  6
Continuous
100
AcDbLine
 10
362.1448169999999
 20
156.850333
 30
0.0
 11
362.1448169999999
 21
138.8844949999999
 31
0.0
  0
LINE
  5
23BC
330
21C7
100
AcDbEntity
  8
1
  6
Continuous
100
AcDbLine
 10
360.1448169999999
 20
156.850333
 30
0.0
 11
360.1448169999999
 21
138.8844949999999
 31
0.0
  0
LINE
  5
23BD
330
21C7
100
AcDbEntity
  8
1
  6
Continuous
100
AcDbLine
 10
363.6448169999999
 20
160.3844949999999
 30
0.0
 11
363.6448169999999
 21
153.180327
 31
0.0
  0
LINE
  5
23BE
330
21C7
100
AcDbEntity
  8
1
  6
Continuous
100
AcDbLine
 10
357.6448169999999
 20
153.084495
 30
0.0
 11
357.6448169999999
 21
143.684495
 31
0.0
  0
ARC
  5
23BF
330
21C7
100
AcDbEntity
  8
1
  6
Continuous
100
AcDbCircle
 10
374.6448169999999
 20
148.3844949999999
 30
0.0
 40
12.0
100
AcDbArc
 50
156.443536
 51
203.556464
  0
LINE
  5
23C0
330
21C7
100
AcDbEntity
  8
2
  6
Continuous
100
AcDbLine
 10
357.944817
 20
143.4347479999999
 30
0.0
 11
360.1448169999999
 21
145.3840689999998
 31
0.0
  0
ARC
  5
23C1
330
21C7
100
AcDbEntity
  8
1
  6
Continuous
100
AcDbCircle
 10
357.944817
 20
143.684495
 30
0.0
 40
0.3
100
AcDbArc
 50
180.0
 51
270.0
  0
LINE
  5
23C2
330
21C7
100
AcDbEntity
  8
1
  6
Continuous
100
AcDbLine
 10
360.1448169999999
 20
138.8844949999999
 30
0.0
 11
362.1448169999999
 21
138.8844949999999
 31
0.0
  0
LINE
  5
23C3
330
21C7
100
AcDbEntity
  8
1
  6
Continuous
100
AcDbLine
 10
363.6448169999999
 20
143.5886639999999
 30
0.0
 11
363.6448169999999
 21
136.3844949999997
 31
0.0
  0
LINE
  5
23C4
330
21C7
100
AcDbEntity
  8
1
  6
Continuous
100
AcDbLine
 10
362.6448169999999
 20
137.3844949999997
 30
0.0
 11
363.6448169999999
 21
136.3844949999997
 31
0.0
  0
LINE
  5
23C5
330
21C7
100
AcDbEntity
  8
1
  6
Continuous
100
AcDbLine
 10
362.1448169999999
 20
143.3844949999999
 30
0.0
 11
362.6448169999999
 21
143.3844949999999
 31
0.0
  0
LINE
  5
23C6
330
21C7
100
AcDbEntity
  8
1
  6
Continuous
100
AcDbLine
 10
357.944817
 20
143.3844949999999
 30
0.0
 11
360.1448169999999
 21
143.3844949999999
 31
0.0
  0
LINE
  5
23C7
330
21C7
100
AcDbEntity
  8
1
  6
Continuous
100
AcDbLine
 10
357.944817
 20
143.4347479999999
 30
0.0
 11
360.1448169999999
 21
143.4347479999999
 31
0.0
  0
ARC
  5
23C8
330
21C7
100
AcDbEntity
  8
1
  6
Continuous
100
AcDbCircle
 10
357.944817
 20
153.084495
 30
0.0
 40
0.3
100
AcDbArc
 50
90.0
 51
180.0
  0
LINE
  5
23C9
330
21C7
100
AcDbEntity
  8
1
  6
Continuous
100
AcDbLine
 10
362.1448169999999
 20
153.3844949999999
 30
0.0
 11
362.6448169999999
 21
153.3844949999999
 31
0.0
  0
LINE
  5
23CA
330
21C7
100
AcDbEntity
  8
2
  6
Continuous
100
AcDbLine
 10
360.1448169999999
 20
151.040923
 30
0.0
 11
357.944817
 21
149.091602
 31
0.0
  0
LINE
  5
23CB
330
21C7
100
AcDbEntity
  8
2
  6
Continuous
100
AcDbLine
 10
360.1448169999999
 20
151.384921
 30
0.0
 11
357.944817
 21
153.3342429999999
 31
0.0
  0
LINE
  5
23CC
330
21C7
100
AcDbEntity
  8
2
  6
Continuous
100
AcDbLine
 10
360.1448169999999
 20
145.7280669999998
 30
0.0
 11
357.944817
 21
147.6773879999998
 31
0.0
  0
LINE
  5
23CD
330
21C7
100
AcDbEntity
  8
1
  6
Continuous
100
AcDbLine
 10
357.944817
 20
153.3844949999999
 30
0.0
 11
360.1448169999999
 21
153.3844949999999
 31
0.0
  0
LINE
  5
23CE
330
21C7
100
AcDbEntity
  8
1
  6
Continuous
100
AcDbLine
 10
357.944817
 20
153.3342429999999
 30
0.0
 11
360.1448169999999
 21
153.3342429999999
 31
0.0
  0
LINE
  5
23CF
330
21C7
100
AcDbEntity
  8
1
  6
Continuous
100
AcDbLine
 10
357.944817
 20
149.091602
 30
0.0
 11
360.1448169999999
 21
149.091602
 31
0.0
  0
LINE
  5
23D0
330
21C7
100
AcDbEntity
  8
1
  6
Continuous
100
AcDbLine
 10
357.944817
 20
147.6773879999998
 30
0.0
 11
360.1448169999999
 21
147.6773879999998
 31
0.0
  0
LINE
  5
23D1
330
21C7
100
AcDbEntity
  8
1
  6
Continuous
100
AcDbLine
 10
360.1448169999999
 20
156.850333
 30
0.0
 11
362.1448169999999
 21
156.850333
 31
0.0
  0
LINE
  5
23D2
330
21C7
100
AcDbEntity
  8
1
  6
Continuous
100
AcDbLine
 10
360.644817
 20
159.3844949999999
 30
0.0
 11
360.644817
 21
156.850333
 31
0.0
  0
LINE
  5
23D3
330
21C7
100
AcDbEntity
  8
1
  6
Continuous
100
AcDbLine
 10
363.6448169999999
 20
160.3844949999999
 30
0.0
 11
362.6448169999999
 21
159.3844949999999
 31
0.0
  0
LINE
  5
23D4
330
21C7
100
AcDbEntity
  8
1
  6
Continuous
100
AcDbLine
 10
360.644817
 20
157.910775
 30
0.0
 11
362.6448169999999
 21
157.910775
 31
0.0
  0
LINE
  5
23D5
330
21C7
100
AcDbEntity
  8
1
  6
Continuous
100
AcDbLine
 10
362.1448169999999
 20
155.745711
 30
0.0
 11
362.6448169999999
 21
155.745711
 31
0.0
  0
LINE
  5
23D6
330
21C7
100
AcDbEntity
  8
1
  6
Continuous
100
AcDbLine
 10
362.6448169999999
 20
159.3844949999999
 30
0.0
 11
360.644817
 21
159.3844949999999
 31
0.0
  0
LINE
  5
23D7
330
21C7
100
AcDbEntity
  8
4
  6
CENTER
100
AcDbLine
 10
289.0492179999998
 20
148.3844949999999
 30
0.0
 11
336.7967479999999
 21
148.3844949999999
 31
0.0
  0
LINE
  5
23D8
330
21C7
100
AcDbEntity
  8
1
  6
Continuous
100
AcDbLine
 10
296.7525269999999
 20
153.3844949999999
 30
0.0
 11
297.752527
 21
153.3844949999999
 31
0.0
  0
LINE
  5
23D9
330
21C7
100
AcDbEntity
  8
1
  6
Continuous
100
AcDbLine
 10
296.7525269999999
 20
143.3844949999999
 30
0.0
 11
297.752527
 21
143.3844949999999
 31
0.0
  0
ARC
  5
23DA
330
21C7
100
AcDbEntity
  8
1
  6
Continuous
100
AcDbCircle
 10
329.46949
 20
133.3844949999999
 30
0.0
 40
1.0
100
AcDbArc
 50
270.0
 51
0.0
  0
LINE
  5
23DB
330
21C7
100
AcDbEntity
  8
1
  6
Continuous
100
AcDbLine
 10
324.96949
 20
166.205003
 30
0.0
 11
324.96949
 21
130.563987
 31
0.0
  0
LINE
  5
23DC
330
21C7
100
AcDbEntity
  8
1
  6
Continuous
100
AcDbLine
 10
328.46949
 20
166.205003
 30
0.0
 11
328.46949
 21
130.563987
 31
0.0
  0
LINE
  5
23DD
330
21C7
100
AcDbEntity
  8
1
  6
Continuous
100
AcDbLine
 10
327.9694899999999
 20
130.0639869999999
 30
0.0
 11
325.46949
 21
130.0639869999999
 31
0.0
  0
ARC
  5
23DE
330
21C7
100
AcDbEntity
  8
1
  6
Continuous
100
AcDbCircle
 10
327.9694899999999
 20
130.563987
 30
0.0
 40
0.5
100
AcDbArc
 50
270.0
 51
0.0
  0
LINE
  5
23DF
330
21C7
100
AcDbEntity
  8
1
  6
Continuous
100
AcDbLine
 10
328.46949
 20
132.3844949999999
 30
0.0
 11
329.46949
 21
132.3844949999999
 31
0.0
  0
ARC
  5
23E0
330
21C7
100
AcDbEntity
  8
1
  6
Continuous
100
AcDbCircle
 10
325.46949
 20
130.563987
 30
0.0
 40
0.5
100
AcDbArc
 50
180.0
 51
270.0
  0
LINE
  5
23E1
330
21C7
100
AcDbEntity
  8
1
  6
Continuous
100
AcDbLine
 10
332.46949
 20
161.8844949999999
 30
0.0
 11
332.46949
 21
134.8844949999999
 31
0.0
  0
LINE
  5
23E2
330
21C7
100
AcDbEntity
  8
1
  6
Continuous
100
AcDbLine
 10
330.46949
 20
163.3844949999998
 30
0.0
 11
330.46949
 21
133.3844949999999
 31
0.0
  0
LINE
  5
23E3
330
21C7
100
AcDbEntity
  8
1
  6
Continuous
100
AcDbLine
 10
327.9694899999999
 20
139.1468909999999
 30
0.0
 11
325.46949
 21
139.1468909999999
 31
0.0
  0
ARC
  5
23E4
330
21C7
100
AcDbEntity
  8
1
  6
Continuous
100
AcDbCircle
 10
331.46949
 20
134.8844949999999
 30
0.0
 40
1.0
100
AcDbArc
 50
180.0
 51
0.0
  0
LINE
  5
23E5
330
21C7
100
AcDbEntity
  8
1
  6
Continuous
100
AcDbLine
 10
330.46949
 20
148.3844949999999
 30
0.0
 11
332.46949
 21
150.3844949999999
 31
0.0
  0
LINE
  5
23E6
330
21C7
100
AcDbEntity
  8
1
  6
Continuous
100
AcDbLine
 10
330.46949
 20
146.3844949999999
 30
0.0
 11
332.46949
 21
148.3844949999999
 31
0.0
  0
LINE
  5
23E7
330
21C7
100
AcDbEntity
  8
1
  6
Continuous
100
AcDbLine
 10
327.9694899999999
 20
157.6220989999999
 30
0.0
 11
325.46949
 21
157.6220989999999
 31
0.0
  0
LINE
  5
23E8
330
21C7
100
AcDbEntity
  8
1
  6
Continuous
100
AcDbLine
 10
328.46949
 20
164.3844949999999
 30
0.0
 11
329.46949
 21
164.3844949999999
 31
0.0
  0
ARC
  5
23E9
330
21C7
100
AcDbEntity
  8
1
  6
Continuous
100
AcDbCircle
 10
331.46949
 20
161.8844949999999
 30
0.0
 40
1.0
100
AcDbArc
 50
0.0
 51
180.0
  0
ARC
  5
23EA
330
21C7
100
AcDbEntity
  8
1
  6
Continuous
100
AcDbCircle
 10
329.46949
 20
163.3844949999998
 30
0.0
 40
1.0
100
AcDbArc
 50
0.0
 51
90.0
  0
LINE
  5
23EB
330
21C7
100
AcDbEntity
  8
1
  6
Continuous
100
AcDbLine
 10
327.9694899999999
 20
166.705003
 30
0.0
 11
325.46949
 21
166.705003
 31
0.0
  0
ARC
  5
23EC
330
21C7
100
AcDbEntity
  8
1
  6
Continuous
100
AcDbCircle
 10
327.9694899999999
 20
166.205003
 30
0.0
 40
0.5
100
AcDbArc
 50
0.0
 51
90.0
  0
ARC
  5
23ED
330
21C7
100
AcDbEntity
  8
1
  6
Continuous
100
AcDbCircle
 10
325.46949
 20
166.205003
 30
0.0
 40
0.5
100
AcDbArc
 50
90.0
 51
180.0
  0
LINE
  5
23EE
330
21C7
100
AcDbEntity
  8
1
  6
Continuous
100
AcDbLine
 10
310.7153839999999
 20
157.3844949999999
 30
0.0
 11
310.7153839999999
 21
139.3844949999997
 31
0.0
  0
LINE
  5
23EF
330
21C7
100
AcDbEntity
  8
1
  6
Continuous
100
AcDbLine
 10
311.7153839999998
 20
157.3844949999999
 30
0.0
 11
311.7153839999998
 21
139.3844949999997
 31
0.0
  0
LINE
  5
23F0
330
21C7
100
AcDbEntity
  8
1
  6
Continuous
100
AcDbLine
 10
311.7153839999998
 20
139.3844949999997
 30
0.0
 11
310.7153839999999
 21
139.3844949999997
 31
0.0
  0
LINE
  5
23F1
330
21C7
100
AcDbEntity
  8
1
  6
Continuous
100
AcDbLine
 10
297.752527
 20
153.3844949999999
 30
0.0
 11
297.752527
 21
143.3844949999999
 31
0.0
  0
LINE
  5
23F2
330
21C7
100
AcDbEntity
  8
1
  6
Continuous
100
AcDbLine
 10
311.7153839999998
 20
157.3844949999999
 30
0.0
 11
310.7153839999999
 21
157.3844949999999
 31
0.0
  0
LINE
  5
23F3
330
21C7
100
AcDbEntity
  8
1
  6
Continuous
100
AcDbLine
 10
296.7525269999999
 20
153.3844949999999
 30
0.0
 11
296.7525269999999
 21
143.3844949999999
 31
0.0
  0
LINE
  5
23F4
330
21C7
100
AcDbEntity
  8
1
  6
Continuous
100
AcDbLine
 10
292.3675279999999
 20
153.003297
 30
0.0
 11
295.037527
 21
153.003297
 31
0.0
  0
LINE
  5
23F5
330
21C7
100
AcDbEntity
  8
1
  6
Continuous
100
AcDbLine
 10
292.393771
 20
150.693896
 30
0.0
 11
295.011283
 21
150.693896
 31
0.0
  0
LINE
  5
23F6
330
21C7
100
AcDbEntity
  8
1
  6
Continuous
100
AcDbLine
 10
292.393771
 20
146.075094
 30
0.0
 11
295.011283
 21
146.075094
 31
0.0
  0
LINE
  5
23F7
330
21C7
100
AcDbEntity
  8
1
  6
Continuous
100
AcDbLine
 10
292.3675279999999
 20
143.7656929999999
 30
0.0
 11
295.037527
 21
143.7656929999999
 31
0.0
  0
LINE
  5
23F8
330
21C7
100
AcDbEntity
  8
1
  6
Continuous
100
AcDbLine
 10
295.037527
 20
153.003297
 30
0.0
 11
295.4525269999999
 21
152.2844949999999
 31
0.0
  0
LINE
  5
23F9
330
21C7
100
AcDbEntity
  8
1
  6
Continuous
100
AcDbLine
 10
295.037527
 20
143.7656929999999
 30
0.0
 11
295.4525269999999
 21
144.4844949999998
 31
0.0
  0
LINE
  5
23FA
330
21C7
100
AcDbEntity
  8
1
  6
Continuous
100
AcDbLine
 10
295.4525269999999
 20
153.003297
 30
0.0
 11
295.4525269999999
 21
143.7656929999999
 31
0.0
  0
ARC
  5
23FB
330
21C7
100
AcDbEntity
  8
1
  6
Continuous
100
AcDbCircle
 10
289.1883829999999
 20
148.3844949999999
 30
0.0
 40
6.264143999999999
100
AcDbArc
 50
338.366392
 51
21.63360799999999
  0
ARC
  5
23FC
330
21C7
100
AcDbEntity
  8
1
  6
Continuous
100
AcDbCircle
 10
293.721025
 20
151.8485969999999
 30
0.0
 40
1.731502
100
AcDbArc
 50
318.173452
 51
0.0
  0
ARC
  5
23FD
330
21C7
100
AcDbEntity
  8
1
  6
Continuous
100
AcDbCircle
 10
293.721025
 20
144.9203939999998
 30
0.0
 40
1.731502
100
AcDbArc
 50
0.0
 51
41.82654799999999
  0
LINE
  5
23FE
330
21C7
100
AcDbEntity
  8
1
  6
Continuous
100
AcDbLine
 10
292.3675279999999
 20
153.003297
 30
0.0
 11
291.9525269999999
 21
152.2844949999999
 31
0.0
  0
LINE
  5
23FF
330
21C7
100
AcDbEntity
  8
1
  6
Continuous
100
AcDbLine
 10
292.3675279999999
 20
143.7656929999999
 30
0.0
 11
291.9525269999999
 21
144.4844949999998
 31
0.0
  0
LINE
  5
2400
330
21C7
100
AcDbEntity
  8
1
  6
Continuous
100
AcDbLine
 10
291.9525269999999
 20
152.2844949999999
 30
0.0
 11
291.9525269999999
 21
144.4844949999998
 31
0.0
  0
ARC
  5
2401
330
21C7
100
AcDbEntity
  8
1
  6
Continuous
100
AcDbCircle
 10
298.216671
 20
148.3844949999999
 30
0.0
 40
6.264143999999999
100
AcDbArc
 50
158.366392
 51
201.633608
  0
ARC
  5
2402
330
21C7
100
AcDbEntity
  8
1
  6
Continuous
100
AcDbCircle
 10
293.68403
 20
151.8485969999999
 30
0.0
 40
1.731502
100
AcDbArc
 50
180.0
 51
221.8265479999999
  0
ARC
  5
2403
330
21C7
100
AcDbEntity
  8
1
  6
Continuous
100
AcDbCircle
 10
293.68403
 20
144.9203939999998
 30
0.0
 40
1.731502
100
AcDbArc
 50
138.1734519999999
 51
180.0
  0
LINE
  5
2404
330
21C7
100
AcDbEntity
  8
1
  6
Continuous
100
AcDbLine
 10
295.4525269999999
 20
152.9844949999999
 30
0.0
 11
296.7525269999999
 21
152.9844949999999
 31
0.0
  0
LINE
  5
2405
330
21C7
100
AcDbEntity
  8
1
  6
Continuous
100
AcDbLine
 10
295.4525269999999
 20
143.7844949999998
 30
0.0
 11
296.7525269999999
 21
143.7844949999998
 31
0.0
  0
LINE
  5
2406
330
21C7
100
AcDbEntity
  8
1
  6
Continuous
100
AcDbLine
 10
296.7525269999999
 20
148.3844949999999
 30
0.0
 11
295.4525269999999
 21
147.084495
 31
0.0
  0
LINE
  5
2407
330
21C7
100
AcDbEntity
  8
1
  6
Continuous
100
AcDbLine
 10
296.7525269999999
 20
149.684495
 30
0.0
 11
295.4525269999999
 21
148.3844949999999
 31
0.0
  0
ARC
  5
2408
330
21C7
100
AcDbEntity
  8
1
  6
Continuous
100
AcDbCircle
 10
238.8194949999999
 20
148.3844949999999
 30
0.0
 40
17.45
100
AcDbArc
 50
36.47779099999999
 51
83.522209
  0
ARC
  5
2409
330
21C7
100
AcDbEntity
  8
1
  6
Continuous
100
AcDbCircle
 10
238.8194949999999
 20
148.3844949999999
 30
0.0
 40
17.45
100
AcDbArc
 50
96.47779100000001
 51
143.522209
  0
ARC
  5
240A
330
21C7
100
AcDbEntity
  8
1
  6
Continuous
100
AcDbCircle
 10
238.8194949999999
 20
148.3844949999999
 30
0.0
 40
17.45
100
AcDbArc
 50
156.477791
 51
203.522209
  0
ARC
  5
240B
330
21C7
100
AcDbEntity
  8
1
  6
Continuous
100
AcDbCircle
 10
238.8194949999999
 20
148.3844949999999
 30
0.0
 40
17.45
100
AcDbArc
 50
216.477791
 51
263.5222089999999
  0
ARC
  5
240C
330
21C7
100
AcDbEntity
  8
1
  6
Continuous
100
AcDbCircle
 10
238.8194949999999
 20
148.3844949999999
 30
0.0
 40
17.45
100
AcDbArc
 50
276.477791
 51
323.5222089999999
  0
ARC
  5
240D
330
21C7
100
AcDbEntity
  8
1
  6
Continuous
100
AcDbCircle
 10
238.8194949999999
 20
148.3844949999999
 30
0.0
 40
17.45
100
AcDbArc
 50
336.477791
 51
23.522209
  0
LINE
  5
240E
330
21C7
100
AcDbEntity
  8
1
  6
Continuous
100
AcDbLine
 10
360.1448169999999
 20
151.506994
 30
0.0
 11
362.1448169999999
 21
151.506994
 31
0.0
  0
LINE
  5
240F
330
21C7
100
AcDbEntity
  8
1
  6
Continuous
100
AcDbLine
 10
360.1448169999999
 20
145.2619959999998
 30
0.0
 11
362.1448169999999
 21
145.2619959999998
 31
0.0
  0
LINE
  5
2410
330
21C7
100
AcDbEntity
  8
4
  6
CENTER
100
AcDbLine
 10
238.8194949999999
 20
212.384495
 30
0.0
 11
238.8194949999999
 21
184.3844949999999
 31
0.0
  0
LINE
  5
2411
330
21C7
100
AcDbEntity
  8
4
  6
CENTER
100
AcDbLine
 10
252.819495
 20
198.3844949999999
 30
0.0
 11
224.8194949999999
 21
198.3844949999999
 31
0.0
  0
ARC
  5
2412
330
21C7
100
AcDbEntity
  8
1
  6
Continuous
100
AcDbCircle
 10
238.8194949999999
 20
148.3844949999999
 30
0.0
 40
10.0
100
AcDbArc
 50
288.194872
 51
341.8051279999999
  0
ARC
  5
2413
330
21C7
100
AcDbEntity
  8
1
  6
Continuous
100
AcDbCircle
 10
238.8194949999999
 20
148.3844949999999
 30
0.0
 40
10.0
100
AcDbArc
 50
213.0169609999999
 51
251.8051279999999
  0
LINE
  5
2414
330
21C7
100
AcDbEntity
  8
1
  6
Continuous
100
AcDbLine
 10
239.031627
 20
153.829217
 30
0.0
 11
244.264218
 21
148.596627
 31
0.0
  0
LINE
  5
2415
330
21C7
100
AcDbEntity
  8
1
  6
Continuous
100
AcDbLine
 10
244.264218
 20
148.1723629999999
 30
0.0
 11
239.031627
 21
142.9397729999998
 31
0.0
  0
ARC
  5
2416
330
21C7
100
AcDbEntity
  8
1
  6
Continuous
100
AcDbCircle
 10
238.8194949999999
 20
148.3844949999999
 30
0.0
 40
8.0
100
AcDbArc
 50
62.07138299999999
 51
207.928617
  0
ARC
  5
2417
330
21C7
100
AcDbEntity
  8
1
  6
Continuous
100
AcDbCircle
 10
238.8194949999999
 20
148.3844949999999
 30
0.0
 40
8.5
100
AcDbArc
 50
60.0
 51
210.0
  0
LINE
  5
2418
330
21C7
100
AcDbEntity
  8
1
  6
Continuous
100
AcDbLine
 10
238.6073629999999
 20
153.829217
 30
0.0
 11
233.374773
 21
148.596627
 31
0.0
  0
CIRCLE
  5
2419
330
21C7
100
AcDbEntity
  8
1
  6
Continuous
100
AcDbCircle
 10
238.8194949999999
 20
148.3844949999999
 30
0.0
 40
2.649999999999999
  0
CIRCLE
  5
241A
330
21C7
100
AcDbEntity
  8
2
  6
Continuous
100
AcDbCircle
 10
238.8194949999999
 20
148.3844949999999
 30
0.0
 40
2.5
  0
CIRCLE
  5
241B
330
21C7
100
AcDbEntity
  8
1
  6
Continuous
100
AcDbCircle
 10
238.8194949999999
 20
148.3844949999999
 30
0.0
 40
2.066999999999996
  0
LINE
  5
241C
330
21C7
100
AcDbEntity
  8
1
  6
Continuous
100
AcDbLine
 10
233.374773
 20
148.1723629999999
 30
0.0
 11
238.6073629999999
 21
142.9397729999998
 31
0.0
  0
ARC
  5
241D
330
21C7
100
AcDbEntity
  8
1
  6
Continuous
100
AcDbCircle
 10
231.486181
 20
144.4970139999998
 30
0.0
 40
0.3
100
AcDbArc
 50
300.0
 51
27.928617
  0
ARC
  5
241E
330
21C7
100
AcDbEntity
  8
1
  6
Continuous
100
AcDbCircle
 10
230.8536569999999
 20
143.208066
 30
0.0
 40
0.5
100
AcDbArc
 50
119.9999999999999
 51
213.0169609999999
  0
LINE
  5
241F
330
21C7
100
AcDbEntity
  8
1
  6
Continuous
100
AcDbLine
 10
231.636181
 20
144.237207
 30
0.0
 11
230.6036569999999
 21
143.6410789999999
 31
0.0
  0
ARC
  5
2420
330
21C7
100
AcDbEntity
  8
1
  6
Continuous
100
AcDbCircle
 10
233.5869049999999
 20
148.3844949999999
 30
0.0
 40
0.3
100
AcDbArc
 50
135.0
 51
225.0
  0
ARC
  5
2421
330
21C7
100
AcDbEntity
  8
1
  6
Continuous
100
AcDbCircle
 10
238.8194949999999
 20
148.3844949999999
 30
0.0
 40
5.0
100
AcDbArc
 50
171.869898
 51
188.130102
  0
ARC
  5
2422
330
21C7
100
AcDbEntity
  8
1
  6
Continuous
100
AcDbCircle
 10
238.8194949999999
 20
148.3844949999999
 30
0.0
 40
5.299999999999998
100
AcDbArc
 50
175.999354
 51
184.0006459999999
  0
LINE
  5
2423
330
21C7
100
AcDbEntity
  8
1
  6
Continuous
100
AcDbLine
 10
241.941994
 20
138.8844949999999
 30
0.0
 11
235.6969959999999
 21
138.8844949999999
 31
0.0
  0
ARC
  5
2424
330
21C7
100
AcDbEntity
  8
1
  6
Continuous
100
AcDbCircle
 10
238.8194949999999
 20
148.3844949999999
 30
0.0
 40
5.0
100
AcDbArc
 50
261.869898
 51
278.130102
  0
ARC
  5
2425
330
21C7
100
AcDbEntity
  8
1
  6
Continuous
100
AcDbCircle
 10
238.8194949999999
 20
143.151905
 30
0.0
 40
0.3
100
AcDbArc
 50
225.0
 51
315.0
  0
ARC
  5
2426
330
21C7
100
AcDbEntity
  8
1
  6
Continuous
100
AcDbCircle
 10
238.8194949999999
 20
148.3844949999999
 30
0.0
 40
5.299999999999998
100
AcDbArc
 50
265.9993539999999
 51
274.000646
  0
LINE
  5
2427
330
21C7
100
AcDbEntity
  8
1
  6
Continuous
100
AcDbLine
 10
233.3194949999999
 20
157.910775
 30
0.0
 11
234.5694949999999
 21
155.745711
 31
0.0
  0
ARC
  5
2428
330
21C7
100
AcDbEntity
  8
1
  6
Continuous
100
AcDbCircle
 10
238.8194949999999
 20
148.3844949999999
 30
0.0
 40
5.0
100
AcDbArc
 50
81.86989799999997
 51
98.130102
  0
ARC
  5
2429
330
21C7
100
AcDbEntity
  8
1
  6
Continuous
100
AcDbCircle
 10
238.8194949999999
 20
153.6170849999997
 30
0.0
 40
0.3
100
AcDbArc
 50
45.0
 51
135.0
  0
ARC
  5
242A
330
21C7
100
AcDbEntity
  8
1
  6
Continuous
100
AcDbCircle
 10
238.8194949999999
 20
148.3844949999999
 30
0.0
 40
5.299999999999998
100
AcDbArc
 50
85.99935399999997
 51
94.000646
  0
LINE
  5
242B
330
21C7
100
AcDbEntity
  8
1
  6
Continuous
100
AcDbLine
 10
248.319495
 20
151.506994
 30
0.0
 11
248.319495
 21
145.2619959999998
 31
0.0
  0
ARC
  5
242C
330
21C7
100
AcDbEntity
  8
1
  6
Continuous
100
AcDbCircle
 10
244.0520859999999
 20
148.3844949999999
 30
0.0
 40
0.3
100
AcDbArc
 50
315.0
 51
45.0
  0
ARC
  5
242D
330
21C7
100
AcDbEntity
  8
1
  6
Continuous
100
AcDbCircle
 10
238.8194949999999
 20
148.3844949999999
 30
0.0
 40
5.0
100
AcDbArc
 50
351.8698979999999
 51
8.130102
  0
ARC
  5
242E
330
21C7
100
AcDbEntity
  8
1
  6
Continuous
100
AcDbCircle
 10
238.8194949999999
 20
148.3844949999999
 30
0.0
 40
5.299999999999998
100
AcDbArc
 50
355.9993539999999
 51
4.000645999999997
  0
ARC
  5
242F
330
21C7
100
AcDbEntity
  8
1
  6
Continuous
100
AcDbCircle
 10
238.8194949999999
 20
148.3844949999999
 30
0.0
 40
10.0
100
AcDbArc
 50
18.194872
 51
56.98303899999999
  0
ARC
  5
2430
330
21C7
100
AcDbEntity
  8
1
  6
Continuous
100
AcDbCircle
 10
242.7069759999999
 20
155.7178089999998
 30
0.0
 40
0.3
100
AcDbArc
 50
242.0713829999999
 51
330.0
  0
ARC
  5
2431
330
21C7
100
AcDbEntity
  8
1
  6
Continuous
100
AcDbCircle
 10
243.995925
 20
156.350333
 30
0.0
 40
0.5
100
AcDbArc
 50
56.98303899999999
 51
150.0
  0
LINE
  5
2432
330
21C7
100
AcDbEntity
  8
1
  6
Continuous
100
AcDbLine
 10
242.966784
 20
155.567809
 30
0.0
 11
243.562912
 21
156.600333
 31
0.0
  0
LINE
  5
2433
330
21C7
100
AcDbEntity
  8
1
  6
Continuous
100
AcDbLine
 10
244.319495
 20
157.910775
 30
0.0
 11
243.562912
 21
156.600333
 31
0.0
  0
ENDSEC
  0
SECTION
  2
OBJECTS
  0
DICTIONARY
  5
21B5
330
0
100
AcDbDictionary
281
     1
  3
ACAD_CIP_PREVIOUS_PRODUCT_INFO
350
2498
  3
ACAD_COLOR
350
247B
  3
ACAD_DETAILVIEWSTYLE
350
2494
  3
ACAD_GROUP
350
21B6
  3
ACAD_LAYOUT
350
21C2
  3
ACAD_MATERIAL
350
2449
  3
ACAD_MLEADERSTYLE
350
2490
  3
ACAD_MLINESTYLE
350
21BF
  3
ACAD_PLOTSETTINGS
350
21C1
  3
ACAD_PLOTSTYLENAME
350
2447
  3
ACAD_SCALELIST
350
247E
  3
ACAD_SECTIONVIEWSTYLE
350
2492
  3
ACAD_TABLESTYLE
350
247C
  3
ACAD_VISUALSTYLE
350
2462
  3
ACDB_RECOMPOSE_DATA
350
24B6
  3
AcDbVariableDictionary
350
24A9
  3
DWGPROPS
350
24B7
  0
DICTIONARY
  5
2499
330
21B9
100
AcDbDictionary
280
     1
281
     1
  3
ADSK_XREC_LAYER_RECONCILED
360
249A
  0
DICTIONARY
  5
249B
330
21CF
100
AcDbDictionary
280
     1
281
     1
  3
ADSK_XREC_LAYER_RECONCILED
360
249C
  0
DICTIONARY
  5
249D
330
21D0
100
AcDbDictionary
280
     1
281
     1
  3
ADSK_XREC_LAYER_RECONCILED
360
249E
  0
DICTIONARY
  5
249F
330
21D1
100
AcDbDictionary
280
     1
281
     1
  3
ADSK_XREC_LAYER_RECONCILED
360
24A0
  0
DICTIONARY
  5
24A1
330
21D2
100
AcDbDictionary
280
     1
281
     1
  3
ADSK_XREC_LAYER_RECONCILED
360
24A2
  0
DICTIONARY
  5
24A3
330
21D3
100
AcDbDictionary
280
     1
281
     1
  3
ADSK_XREC_LAYER_RECONCILED
360
24A4
  0
DICTIONARY
  5
24A5
330
21D4
100
AcDbDictionary
280
     1
281
     1
  3
ADSK_XREC_LAYER_RECONCILED
360
24A6
  0
DICTIONARY
  5
24A7
330
21D5
100
AcDbDictionary
280
     1
281
     1
  3
ADSK_XREC_LAYER_RECONCILED
360
24A8
  0
DICTIONARY
  5
2442
330
21C7
100
AcDbDictionary
281
     1
  3
ACAD_LAYOUTSELFREF
350
2443
  0
DICTIONARY
  5
2440
330
21C3
100
AcDbDictionary
281
     1
  3
ACAD_LAYOUTSELFREF
350
2441
  0
XRECORD
  5
2498
102
{ACAD_REACTORS
330
21B5
102
}
330
21B5
100
AcDbXrecord
280
     1
300
ACDLT
300
2014
300
ACDLT_F_S
  0
DICTIONARY
  5
247B
102
{ACAD_REACTORS
330
21B5
102
}
330
21B5
100
AcDbDictionary
281
     1
  0
DICTIONARY
  5
2494
102
{ACAD_REACTORS
330
21B5
102
}
330
21B5
100
AcDbDictionary
281
     1
  3
Imperial24
350
2495
  0
DICTIONARY
  5
21B6
102
{ACAD_REACTORS
330
21B5
102
}
330
21B5
100
AcDbDictionary
281
     1
  0
DICTIONARY
  5
21C2
102
{ACAD_REACTORS
330
21B5
102
}
330
21B5
100
AcDbDictionary
281
     1
  3
Model
350
2496
  3
レイアウト1
350
2497
  0
DICTIONARY
  5
2449
102
{ACAD_REACTORS
330
21B5
102
}
330
21B5
100
AcDbDictionary
281
     1
  3
ByBlock
350
2452
  3
ByLayer
350
244A
  3
Global
350
245A
  0
DICTIONARY
  5
2490
102
{ACAD_REACTORS
330
21B5
102
}
330
21B5
100
AcDbDictionary
281
     1
  3
Standard
350
2491
  0
DICTIONARY
  5
21BF
102
{ACAD_REACTORS
330
21B5
102
}
330
21B5
100
AcDbDictionary
281
     1
  3
STANDARD
350
21C0
  0
DICTIONARY
  5
21C1
102
{ACAD_REACTORS
330
21B5
102
}
330
21B5
100
AcDbDictionary
281
     1
  0
ACDBDICTIONARYWDFLT
  5
2447
102
{ACAD_REACTORS
330
21B5
102
}
330
21B5
100
AcDbDictionary
281
     1
  3
Normal
350
2448
100
AcDbDictionaryWithDefault
340
2448
  0
DICTIONARY
  5
247E
102
{ACAD_REACTORS
330
21B5
102
}
330
21B5
100
AcDbDictionary
281
     1
  3
A0
350
247F
  3
A1
350
2480
  3
A2
350
2481
  3
A3
350
2482
  3
A4
350
2483
  3
A5
350
2484
  3
A6
350
2485
  3
A7
350
2486
  3
A8
350
2487
  3
A9
350
2488
  3
B0
350
2489
  3
B1
350
248A
  3
B2
350
248B
  3
B3
350
248C
  3
B4
350
248D
  3
B5
350
248E
  3
B6
350
248F
  0
DICTIONARY
  5
2492
102
{ACAD_REACTORS
330
21B5
102
}
330
21B5
100
AcDbDictionary
281
     1
  3
Imperial24
350
2493
  0
DICTIONARY
  5
247C
102
{ACAD_REACTORS
330
21B5
102
}
330
21B5
100
AcDbDictionary
281
     1
  3
Standard
350
247D
  0
DICTIONARY
  5
2462
102
{ACAD_REACTORS
330
21B5
102
}
330
21B5
100
AcDbDictionary
281
     1
  3
2dWireframe
350
2468
  3
Basic
350
2467
  3
Brighten
350
246E
  3
ColorChange
350
2472
  3
Conceptual
350
246B
  3
Dim
350
246D
  3
EdgeColorOff
350
247A
  3
Facepattern
350
2471
  3
Flat
350
2463
  3
FlatWithEdges
350
2464
  3
Gouraud
350
2465
  3
GouraudWithEdges
350
2466
  3
Hidden
350
246A
  3
JitterOff
350
2478
  3
Linepattern
350
2470
  3
OverhangOff
350
2479
  3
Realistic
350
246C
  3
Shaded
350
2477
  3
Shaded with edges
350
2476
  3
Shades of Gray
350
2473
  3
Sketchy
350
2474
  3
Thicken
350
246F
  3
Wireframe
350
2469
  3
X-Ray
350
2475
  0
XRECORD
  5
24B6
102
{ACAD_REACTORS
330
21B5
102
}
330
21B5
100
AcDbXrecord
280
     1
 90
        1
330
247D
  0
DICTIONARY
  5
24A9
102
{ACAD_REACTORS
330
21B5
102
}
330
21B5
100
AcDbDictionary
281
     1
  3
CANNOSCALE
350
24AE
  3
CMLEADERSTYLE
350
24AB
  3
CTABLESTYLE
350
24AA
  3
CVIEWDETAILSTYLE
350
24AC
  3
CVIEWSECTIONSTYLE
350
24AD
  3
DIMASSOC
350
24B1
  3
INDEXCTL
350
24B0
  3
SORTENTS
350
24AF
  3
XCLIPFRAME
350
24B2
  0
XRECORD
  5
24B7
102
{ACAD_REACTORS
330
21B5
102
}
330
21B5
100
AcDbXrecord
280
     1
  1
DWGPROPS COOKIE
  2

  3

  4

  6

  7

  8
Yoshitsune
  9

300
=
301
=
302
=
303
=
304
=
305
=
306
=
307
=
308
=
309
=
 40
0.0674324537037037
 41
2452067.392785
 42
2457192.641871551
  1

 90
        0
  0
XRECORD
  5
249A
102
{ACAD_REACTORS
330
2499
102
}
330
2499
100
AcDbXrecord
280
     1
290
     1
  0
XRECORD
  5
249C
102
{ACAD_REACTORS
330
249B
102
}
330
249B
100
AcDbXrecord
280
     1
290
     1
  0
XRECORD
  5
249E
102
{ACAD_REACTORS
330
249D
102
}
330
249D
100
AcDbXrecord
280
     1
290
     1
  0
XRECORD
  5
24A0
102
{ACAD_REACTORS
330
249F
102
}
330
249F
100
AcDbXrecord
280
     1
290
     1
  0
XRECORD
  5
24A2
102
{ACAD_REACTORS
330
24A1
102
}
330
24A1
100
AcDbXrecord
280
     1
290
     1
  0
XRECORD
  5
24A4
102
{ACAD_REACTORS
330
24A3
102
}
330
24A3
100
AcDbXrecord
280
     1
290
     1
  0
XRECORD
  5
24A6
102
{ACAD_REACTORS
330
24A5
102
}
330
24A5
100
AcDbXrecord
280
     1
290
     1
  0
XRECORD
  5
24A8
102
{ACAD_REACTORS
330
24A7
102
}
330
24A7
100
AcDbXrecord
280
     1
290
     1
  0
XRECORD
  5
2443
102
{ACAD_REACTORS
330
2442
102
}
330
2442
100
AcDbXrecord
280
     1
340
21C7
  0
XRECORD
  5
2441
102
{ACAD_REACTORS
330
2440
102
}
330
2440
100
AcDbXrecord
280
     1
340
21C3
  0
ACDBDETAILVIEWSTYLE
  5
2495
102
{ACAD_XDICTIONARY
360
24EF
102
}
102
{ACAD_REACTORS
330
2494
102
}
330
2494
100
AcDbModelDocViewStyle
 70
     0
  3
Imperial24
290
     0
100
AcDbDetailViewStyle
 70
     0
 71
     0
 90
        3
 71
     1
340
21BA
 40
0.24
340
0
 40
0.24
300

 40
0.36
280
     3
 71
     2
340
21BE
 90
       25
 71
     3
340
21BA
 40
0.24
 90
        1
 40
0.75
 90
        1
300
%<\AcVar ViewType \f "%tc1">% %<\AcVar ViewDetailId>%\PSCALE %<\AcVar ViewScale \f "%sn">%
 71
     4
340
21BE
 90
       25
340
21BE
 90
       25
280
     0
  0
LAYOUT
  5
2496
102
{ACAD_XDICTIONARY
360
24F1
102
}
102
{ACAD_REACTORS
330
21C2
102
}
330
21C2
100
AcDbPlotSettings
  1

  2
Canon LBP9100C
  4

  6

 40
0.0
 41
0.0
 42
0.0
 43
0.0
 44
0.0
 45
0.0
 46
0.0
 47
0.0
 48
0.0
 49
0.0
140
0.0
141
0.0
142
1.0
143
1.0
 70
  1712
 72
     0
 73
     0
 74
     0
  7

 75
     0
147
1.0
148
0.0
149
0.0
100
AcDbLayout
  1
Model
 70
     1
 71
     0
 10
0.0
 20
0.0
 11
12.0
 21
9.0
 12
0.0
 22
0.0
 32
0.0
 14
0.0
 24
0.0
 34
0.0
 15
0.0
 25
0.0
 35
0.0
146
0.0
 13
0.0
 23
0.0
 33
0.0
 16
1.0
 26
0.0
 36
0.0
 17
0.0
 27
1.0
 37
0.0
 76
     0
330
21C7
331
243F
  0
LAYOUT
  5
2497
102
{ACAD_XDICTIONARY
360
24F3
102
}
102
{ACAD_REACTORS
330
21C2
102
}
330
21C2
100
AcDbPlotSettings
  1

  2
Canon LBP9100C
  4

  6

 40
0.0
 41
0.0
 42
0.0
 43
0.0
 44
0.0
 45
0.0
 46
0.0
 47
0.0
 48
0.0
 49
0.0
140
0.0
141
0.0
142
1.0
143
1.0
 70
   688
 72
     0
 73
     0
 74
     5
  7

 75
    16
147
1.0
148
0.0
149
0.0
100
AcDbLayout
  1
レイアウト1
 70
     1
 71
     1
 10
0.0
 20
0.0
 11
420.0
 21
297.0
 12
0.0
 22
0.0
 32
0.0
 14
1.000000000000000E+20
 24
1.000000000000000E+20
 34
1.000000000000000E+20
 15
-1.000000000000000E+20
 25
-1.000000000000000E+20
 35
-1.000000000000000E+20
146
0.0
 13
0.0
 23
0.0
 33
0.0
 16
1.0
 26
0.0
 36
0.0
 17
0.0
 27
1.0
 37
0.0
 76
     0
330
21C3
  0
MATERIAL
  5
2452
102
{ACAD_XDICTIONARY
360
2453
102
}
102
{ACAD_REACTORS
330
2449
102
}
330
2449
100
AcDbMaterial
  1
ByBlock
 72
     0
 43
0.0208333333333333
 43
0.0
 43
0.0
 43
0.0
 43
0.0
 43
0.0208333333333333
 43
0.0
 43
0.0
 43
0.0
 43
0.0
 43
1.0
 43
0.0
 43
0.0
 43
0.0
 43
0.0
 43
1.0
 77
     0
 47
0.0208333333333333
 47
0.0
 47
0.0
 47
0.0
 47
0.0
 47
0.0208333333333333
 47
0.0
 47
0.0
 47
0.0
 47
0.0
 47
1.0
 47
0.0
 47
0.0
 47
0.0
 47
0.0
 47
1.0
171
     0
 49
0.0208333333333333
 49
0.0
 49
0.0
 49
0.0
 49
0.0
 49
0.0208333333333333
 49
0.0
 49
0.0
 49
0.0
 49
0.0
 49
1.0
 49
0.0
 49
0.0
 49
0.0
 49
0.0
 49
1.0
175
     0
142
0.0208333333333333
142
0.0
142
0.0
142
0.0
142
0.0
142
0.0208333333333333
142
0.0
142
0.0
142
0.0
142
0.0
142
1.0
142
0.0
142
0.0
142
0.0
142
0.0
142
1.0
179
     0
144
0.0208333333333333
144
0.0
144
0.0
144
0.0
144
0.0
144
0.0208333333333333
144
0.0
144
0.0
144
0.0
144
0.0
144
1.0
144
0.0
144
0.0
144
0.0
144
0.0
144
1.0
147
0.0208333333333333
147
0.0
147
0.0
147
0.0
147
0.0
147
0.0208333333333333
147
0.0
147
0.0
147
0.0
147
0.0
147
1.0
147
0.0
147
0.0
147
0.0
147
0.0
147
1.0
  0
MATERIAL
  5
244A
102
{ACAD_XDICTIONARY
360
244B
102
}
102
{ACAD_REACTORS
330
2449
102
}
330
2449
100
AcDbMaterial
  1
ByLayer
 72
     0
 43
0.0208333333333333
 43
0.0
 43
0.0
 43
0.0
 43
0.0
 43
0.0208333333333333
 43
0.0
 43
0.0
 43
0.0
 43
0.0
 43
1.0
 43
0.0
 43
0.0
 43
0.0
 43
0.0
 43
1.0
 77
     0
 47
0.0208333333333333
 47
0.0
 47
0.0
 47
0.0
 47
0.0
 47
0.0208333333333333
 47
0.0
 47
0.0
 47
0.0
 47
0.0
 47
1.0
 47
0.0
 47
0.0
 47
0.0
 47
0.0
 47
1.0
171
     0
 49
0.0208333333333333
 49
0.0
 49
0.0
 49
0.0
 49
0.0
 49
0.0208333333333333
 49
0.0
 49
0.0
 49
0.0
 49
0.0
 49
1.0
 49
0.0
 49
0.0
 49
0.0
 49
0.0
 49
1.0
175
     0
142
0.0208333333333333
142
0.0
142
0.0
142
0.0
142
0.0
142
0.0208333333333333
142
0.0
142
0.0
142
0.0
142
0.0
142
1.0
142
0.0
142
0.0
142
0.0
142
0.0
142
1.0
179
     0
144
0.0208333333333333
144
0.0
144
0.0
144
0.0
144
0.0
144
0.0208333333333333
144
0.0
144
0.0
144
0.0
144
0.0
144
1.0
144
0.0
144
0.0
144
0.0
144
0.0
144
1.0
147
0.0208333333333333
147
0.0
147
0.0
147
0.0
147
0.0
147
0.0208333333333333
147
0.0
147
0.0
147
0.0
147
0.0
147
1.0
147
0.0
147
0.0
147
0.0
147
0.0
147
1.0
  0
MATERIAL
  5
245A
102
{ACAD_XDICTIONARY
360
245B
102
}
102
{ACAD_REACTORS
330
2449
102
}
330
2449
100
AcDbMaterial
  1
Global
 72
     0
 43
0.0208333333333333
 43
0.0
 43
0.0
 43
0.0
 43
0.0
 43
0.0208333333333333
 43
0.0
 43
0.0
 43
0.0
 43
0.0
 43
1.0
 43
0.0
 43
0.0
 43
0.0
 43
0.0
 43
1.0
 77
     0
 47
0.0208333333333333
 47
0.0
 47
0.0
 47
0.0
 47
0.0
 47
0.0208333333333333
 47
0.0
 47
0.0
 47
0.0
 47
0.0
 47
1.0
 47
0.0
 47
0.0
 47
0.0
 47
0.0
 47
1.0
171
     0
 49
0.0208333333333333
 49
0.0
 49
0.0
 49
0.0
 49
0.0
 49
0.0208333333333333
 49
0.0
 49
0.0
 49
0.0
 49
0.0
 49
1.0
 49
0.0
 49
0.0
 49
0.0
 49
0.0
 49
1.0
175
     0
142
0.0208333333333333
142
0.0
142
0.0
142
0.0
142
0.0
142
0.0208333333333333
142
0.0
142
0.0
142
0.0
142
0.0
142
1.0
142
0.0
142
0.0
142
0.0
142
0.0
142
1.0
179
     0
144
0.0208333333333333
144
0.0
144
0.0
144
0.0
144
0.0
144
0.0208333333333333
144
0.0
144
0.0
144
0.0
144
0.0
144
1.0
144
0.0
144
0.0
144
0.0
144
0.0
144
1.0
147
0.0208333333333333
147
0.0
147
0.0
147
0.0
147
0.0
147
0.0208333333333333
147
0.0
147
0.0
147
0.0
147
0.0
147
1.0
147
0.0
147
0.0
147
0.0
147
0.0
147
1.0
  0
MLEADERSTYLE
  5
2491
102
{ACAD_REACTORS
330
2490
102
}
330
2490
100
AcDbMLeaderStyle
170
     2
171
     1
172
     0
 90
        2
 40
0.0
 41
0.0
173
     1
 91
-1056964608
340
21BC
 92
       -2
290
     1
 42
0.09
291
     1
 43
0.36
  3
Standard
 44
0.18
300

342
21BA
174
     1
178
     6
175
     1
176
     0
 93
-1056964608
 45
0.18
292
     0
297
     0
 46
0.18
 94
-1056964608
 47
1.0
 49
1.0
140
1.0
293
     1
141
0.0
294
     1
177
     0
142
1.0
295
     0
296
     0
143
0.125
1001
ACAD_MLEADERVER
1070
     2
  0
MLINESTYLE
  5
21C0
102
{ACAD_REACTORS
330
21BF
102
}
330
21BF
100
AcDbMlineStyle
  2
STANDARD
 70
     0
  3

 62
   256
 51
90.0
 52
90.0
 71
     2
 49
0.5
 62
   256
  6
BYLAYER
 49
-0.5
 62
   256
  6
BYLAYER
  0
ACDBPLACEHOLDER
  5
2448
102
{ACAD_REACTORS
330
2447
102
}
330
2447
  0
SCALE
  5
247F
102
{ACAD_REACTORS
330
247E
102
}
330
247E
100
AcDbScale
 70
     0
300
1:1
140
1.0
141
1.0
290
     1
  0
SCALE
  5
2480
102
{ACAD_REACTORS
330
247E
102
}
330
247E
100
AcDbScale
 70
     0
300
1/128" = 1'-0"
140
0.0078125
141
12.0
290
     0
  0
SCALE
  5
2481
102
{ACAD_REACTORS
330
247E
102
}
330
247E
100
AcDbScale
 70
     0
300
1/64" = 1'-0"
140
0.015625
141
12.0
290
     0
  0
SCALE
  5
2482
102
{ACAD_REACTORS
330
247E
102
}
330
247E
100
AcDbScale
 70
     0
300
1/32" = 1'-0"
140
0.03125
141
12.0
290
     0
  0
SCALE
  5
2483
102
{ACAD_REACTORS
330
247E
102
}
330
247E
100
AcDbScale
 70
     0
300
1/16" = 1'-0"
140
0.0625
141
12.0
290
     0
  0
SCALE
  5
2484
102
{ACAD_REACTORS
330
247E
102
}
330
247E
100
AcDbScale
 70
     0
300
3/32" = 1'-0"
140
0.09375
141
12.0
290
     0
  0
SCALE
  5
2485
102
{ACAD_REACTORS
330
247E
102
}
330
247E
100
AcDbScale
 70
     0
300
1/8" = 1'-0"
140
0.125
141
12.0
290
     0
  0
SCALE
  5
2486
102
{ACAD_REACTORS
330
247E
102
}
330
247E
100
AcDbScale
 70
     0
300
3/16" = 1'-0"
140
0.1875
141
12.0
290
     0
  0
SCALE
  5
2487
102
{ACAD_REACTORS
330
247E
102
}
330
247E
100
AcDbScale
 70
     0
300
1/4" = 1'-0"
140
0.25
141
12.0
290
     0
  0
SCALE
  5
2488
102
{ACAD_REACTORS
330
247E
102
}
330
247E
100
AcDbScale
 70
     0
300
3/8" = 1'-0"
140
0.375
141
12.0
290
     0
  0
SCALE
  5
2489
102
{ACAD_REACTORS
330
247E
102
}
330
247E
100
AcDbScale
 70
     0
300
1/2" = 1'-0"
140
0.5
141
12.0
290
     0
  0
SCALE
  5
248A
102
{ACAD_REACTORS
330
247E
102
}
330
247E
100
AcDbScale
 70
     0
300
3/4" = 1'-0"
140
0.75
141
12.0
290
     0
  0
SCALE
  5
248B
102
{ACAD_REACTORS
330
247E
102
}
330
247E
100
AcDbScale
 70
     0
300
1" = 1'-0"
140
1.0
141
12.0
290
     0
  0
SCALE
  5
248C
102
{ACAD_REACTORS
330
247E
102
}
330
247E
100
AcDbScale
 70
     0
300
1-1/2" = 1'-0"
140
1.5
141
12.0
290
     0
  0
SCALE
  5
248D
102
{ACAD_REACTORS
330
247E
102
}
330
247E
100
AcDbScale
 70
     0
300
3" = 1'-0"
140
3.0
141
12.0
290
     0
  0
SCALE
  5
248E
102
{ACAD_REACTORS
330
247E
102
}
330
247E
100
AcDbScale
 70
     0
300
6" = 1'-0"
140
6.0
141
12.0
290
     0
  0
SCALE
  5
248F
102
{ACAD_REACTORS
330
247E
102
}
330
247E
100
AcDbScale
 70
     0
300
1'-0" = 1'-0"
140
12.0
141
12.0
290
     0
  0
ACDBSECTIONVIEWSTYLE
  5
2493
102
{ACAD_XDICTIONARY
360
24ED
102
}
102
{ACAD_REACTORS
330
2492
102
}
330
2492
100
AcDbModelDocViewStyle
 70
     0
  3
Imperial24
290
     0
100
AcDbSectionViewStyle
 70
     0
 71
     0
 90
       78
 71
     1
340
21BA
 40
0.24
340
0
340
0
 40
0.24
300
I, O, Q, S, X, Z
 40
0.48
 90
        3
 40
0.18
 90
        1
 71
     2
340
21BE
 90
       25
340
21BE
 90
       50
 40
0.24
 40
0.0
 40
0.24
 71
     3
340
21BA
 40
0.24
 90
        1
 40
0.75
 90
        1
300
%<\AcVar ViewType \f "%tc1">% %<\AcVar ViewSectionStartId>%-%<\AcVar ViewSectionEndId>%\PSCALE %<\AcVar ViewScale \f "%sn">%
 71
     4
300
ANSI31
 40
1.0
 90
        0
290
     0
290
     0
 90
        6
 40
0.0
 40
1.570796326794896
 40
0.2617993877991494
 40
1.308996938995747
 40
-0.2617993877991494
 40
1.832595714594046
  0
TABLESTYLE
  5
247D
102
{ACAD_XDICTIONARY
360
24B4
102
}
102
{ACAD_REACTORS
330
247C
102
}
330
247C
100
AcDbTableStyle
  3
Standard
 70
     0
 71
     0
 40
0.06
 41
0.06
280
     0
281
     0
  7
STANDARD
140
0.18
170
     2
 62
     0
 63
     7
283
     0
274
    -2
284
     1
 64
     0
275
    -2
285
     1
 65
     0
276
    -2
286
     1
 66
     0
277
    -2
287
     1
 67
     0
278
    -2
288
     1
 68
     0
279
    -2
289
     1
 69
     0
  7
STANDARD
140
0.25
170
     5
 62
     0
 63
     7
283
     0
274
    -2
284
     1
 64
     0
275
    -2
285
     1
 65
     0
276
    -2
286
     1
 66
     0
277
    -2
287
     1
 67
     0
278
    -2
288
     1
 68
     0
279
    -2
289
     1
 69
     0
  7
STANDARD
140
0.18
170
     5
 62
     0
 63
     7
283
     0
274
    -2
284
     1
 64
     0
275
    -2
285
     1
 65
     0
276
    -2
286
     1
 66
     0
277
    -2
287
     1
 67
     0
278
    -2
288
     1
 68
     0
279
    -2
289
     1
 69
     0
  0
VISUALSTYLE
  5
2468
102
{ACAD_XDICTIONARY
360
24C5
102
}
102
{ACAD_REACTORS
330
2462
102
}
330
2462
100
AcDbVisualStyle
  2
2dWireframe
 70
     4
 71
     0
 72
     2
 73
     0
 90
        0
 40
-0.6
 41
-30.0
 62
     5
 63
     7
 74
     1
 91
        4
 64
     7
 65
   257
 75
     1
175
     1
 42
1.0
 92
        0
 66
   257
 43
1.0
 76
     1
 77
     6
 78
     2
 67
     7
 79
     5
170
     0
171
     0
290
     0
174
     0
 93
        1
 44
0.0
173
     0
291
     0
 45
0.0
1001
ACAD
1000
AcDbSavedByObjectVersion
1070
     0
  0
VISUALSTYLE
  5
2467
102
{ACAD_XDICTIONARY
360
24C3
102
}
102
{ACAD_REACTORS
330
2462
102
}
330
2462
100
AcDbVisualStyle
  2
Basic
 70
     7
 71
     1
 72
     0
 73
     1
 90
        0
 40
-0.6
 41
-30.0
 62
     5
 63
     7
 74
     0
 91
        4
 64
     7
 65
   257
 75
     1
175
     1
 42
1.0
 92
        8
 66
     7
 43
1.0
 76
     1
 77
     6
 78
     2
 67
     7
 79
     5
170
     0
171
     0
290
     0
174
     0
 93
        1
 44
0.0
173
     0
291
     1
 45
0.0
1001
ACAD
1000
AcDbSavedByObjectVersion
1070
     0
  0
VISUALSTYLE
  5
246E
102
{ACAD_XDICTIONARY
360
24D1
102
}
102
{ACAD_REACTORS
330
2462
102
}
330
2462
100
AcDbVisualStyle
  2
Brighten
 70
    12
 71
     2
 72
     2
 73
     0
 90
        0
 40
-0.6
 41
-30.0
 62
     5
 63
     7
 74
     1
 91
        4
 64
     7
 65
   257
 75
     1
175
     1
 42
1.0
 92
        8
 66
     7
 43
1.0
 76
     1
 77
     6
 78
     2
 67
     7
 79
     5
170
     0
171
     0
290
     0
174
     0
 93
        1
 44
50.0
173
     0
291
     1
 45
0.0
1001
ACAD
1000
AcDbSavedByObjectVersion
1070
     0
  0
VISUALSTYLE
  5
2472
102
{ACAD_XDICTIONARY
360
24D9
102
}
102
{ACAD_REACTORS
330
2462
102
}
330
2462
100
AcDbVisualStyle
  2
ColorChange
 70
    16
 71
     2
 72
     2
 73
     3
 90
        0
 40
-0.6
 41
-30.0
 62
     5
 63
     8
 74
     1
 91
        4
 64
     7
 65
   257
 75
     1
175
     1
 42
1.0
 92
        8
 66
     8
 43
1.0
 76
     1
 77
     6
 78
     2
 67
     7
 79
     5
170
     0
171
     0
290
     0
174
     0
 93
        1
 44
0.0
173
     0
291
     1
 45
0.0
1001
ACAD
1000
AcDbSavedByObjectVersion
1070
     0
  0
VISUALSTYLE
  5
246B
102
{ACAD_XDICTIONARY
360
24CB
102
}
102
{ACAD_REACTORS
330
2462
102
}
330
2462
100
AcDbVisualStyle
  2
Conceptual
 70
     9
 71
     3
 72
     2
 73
     0
 90
        0
 40
-0.6
 41
-30.0
 62
     5
 63
     7
 74
     2
 91
        2
 64
     7
 65
   257
 75
     1
175
     1
 42
179.0
 92
        8
 66
     7
 43
1.0
 76
     1
 77
     6
 78
     2
 67
     7
 79
     3
170
     0
171
     0
290
     0
174
     0
 93
        1
 44
0.0
173
     0
291
     0
 45
0.0
1001
ACAD
1000
AcDbSavedByObjectVersion
1070
     0
  0
VISUALSTYLE
  5
246D
102
{ACAD_XDICTIONARY
360
24CF
102
}
102
{ACAD_REACTORS
330
2462
102
}
330
2462
100
AcDbVisualStyle
  2
Dim
 70
    11
 71
     2
 72
     2
 73
     0
 90
        0
 40
-0.6
 41
-30.0
 62
     5
 63
     7
 74
     1
 91
        4
 64
     7
 65
   257
 75
     1
175
     1
 42
1.0
 92
        8
 66
     7
 43
1.0
 76
     1
 77
     6
 78
     2
 67
     7
 79
     5
170
     0
171
     0
290
     0
174
     0
 93
        1
 44
-50.0
173
     0
291
     1
 45
0.0
1001
ACAD
1000
AcDbSavedByObjectVersion
1070
     0
  0
VISUALSTYLE
  5
247A
102
{ACAD_XDICTIONARY
360
24E9
102
}
102
{ACAD_REACTORS
330
2462
102
}
330
2462
100
AcDbVisualStyle
  2
EdgeColorOff
 70
    22
 71
     2
 72
     2
 73
     0
 90
        0
 40
-0.6
 41
-30.0
 62
     5
 63
     7
 74
     1
 91
        4
 64
     7
 65
   257
 75
     1
175
     1
 42
1.0
 92
        8
 66
     7
 43
1.0
 76
     1
 77
     6
 78
     2
 67
     7
 79
     5
170
     0
171
     0
290
     0
174
     0
 93
        1
 44
0.0
173
     0
291
     1
 45
0.0
1001
ACAD
1000
AcDbSavedByObjectVersion
1070
     0
  0
VISUALSTYLE
  5
2471
102
{ACAD_XDICTIONARY
360
24D7
102
}
102
{ACAD_REACTORS
330
2462
102
}
330
2462
100
AcDbVisualStyle
  2
Facepattern
 70
    15
 71
     2
 72
     2
 73
     0
 90
        0
 40
-0.6
 41
-30.0
 62
     5
 63
     7
 74
     1
 91
        4
 64
     7
 65
   257
 75
     1
175
     1
 42
1.0
 92
        8
 66
     7
 43
1.0
 76
     1
 77
     6
 78
     2
 67
     7
 79
     5
170
     0
171
     0
290
     0
174
     0
 93
        1
 44
0.0
173
     0
291
     1
 45
0.0
1001
ACAD
1000
AcDbSavedByObjectVersion
1070
     0
  0
VISUALSTYLE
  5
2463
102
{ACAD_XDICTIONARY
360
24BB
102
}
102
{ACAD_REACTORS
330
2462
102
}
330
2462
100
AcDbVisualStyle
  2
Flat
 70
     0
 71
     2
 72
     1
 73
     1
 90
        2
 40
-0.6
 41
30.0
 62
     5
 63
     7
 74
     0
 91
        0
 64
     7
 65
   257
 75
     1
175
     1
 42
1.0
 92
        8
 66
     7
 43
1.0
 76
     1
 77
     6
 78
     2
 67
     7
 79
     5
170
     0
171
     0
290
     0
174
     0
 93
       13
 44
0.0
173
     0
291
     1
 45
0.0
1001
ACAD
1000
AcDbSavedByObjectVersion
1070
     0
  0
VISUALSTYLE
  5
2464
102
{ACAD_XDICTIONARY
360
24BD
102
}
102
{ACAD_REACTORS
330
2462
102
}
330
2462
100
AcDbVisualStyle
  2
FlatWithEdges
 70
     1
 71
     2
 72
     1
 73
     1
 90
        2
 40
-0.6
 41
30.0
 62
     5
 63
     7
 74
     1
 91
        0
 64
     7
 65
   257
 75
     1
175
     1
 42
1.0
 92
        0
 66
   257
 43
1.0
 76
     1
 77
     6
 78
     2
 67
     7
 79
     5
170
     0
171
     0
290
     0
174
     0
 93
       13
 44
0.0
173
     0
291
     1
 45
0.0
1001
ACAD
1000
AcDbSavedByObjectVersion
1070
     0
  0
VISUALSTYLE
  5
2465
102
{ACAD_XDICTIONARY
360
24BF
102
}
102
{ACAD_REACTORS
330
2462
102
}
330
2462
100
AcDbVisualStyle
  2
Gouraud
 70
     2
 71
     2
 72
     2
 73
     1
 90
        2
 40
-0.6
 41
30.0
 62
     5
 63
     7
 74
     0
 91
        0
 64
     7
 65
   257
 75
     1
175
     1
 42
1.0
 92
        0
 66
     7
 43
1.0
 76
     1
 77
     6
 78
     2
 67
     7
 79
     5
170
     0
171
     0
290
     0
174
     0
 93
       13
 44
0.0
173
     0
291
     1
 45
0.0
1001
ACAD
1000
AcDbSavedByObjectVersion
1070
     0
  0
VISUALSTYLE
  5
2466
102
{ACAD_XDICTIONARY
360
24C1
102
}
102
{ACAD_REACTORS
330
2462
102
}
330
2462
100
AcDbVisualStyle
  2
GouraudWithEdges
 70
     3
 71
     2
 72
     2
 73
     1
 90
        2
 40
-0.6
 41
30.0
 62
     5
 63
     7
 74
     1
 91
        0
 64
     7
 65
   257
 75
     1
175
     1
 42
1.0
 92
        0
 66
   257
 43
1.0
 76
     1
 77
     6
 78
     2
 67
     7
 79
     5
170
     0
171
     0
290
     0
174
     0
 93
       13
 44
0.0
173
     0
291
     1
 45
0.0
1001
ACAD
1000
AcDbSavedByObjectVersion
1070
     0
  0
VISUALSTYLE
  5
246A
102
{ACAD_XDICTIONARY
360
24C9
102
}
102
{ACAD_REACTORS
330
2462
102
}
330
2462
100
AcDbVisualStyle
  2
Hidden
 70
     6
 71
     1
 72
     2
 73
     2
 90
        0
 40
-0.6
 41
-30.0
 62
     5
 63
     7
 74
     2
 91
        2
 64
     7
 65
   257
 75
     2
175
     1
 42
40.0
 92
        0
 66
   257
 43
1.0
 76
     1
 77
     6
 78
     2
 67
     7
 79
     3
170
     0
171
     0
290
     0
174
     0
 93
        1
 44
0.0
173
     0
291
     0
 45
0.0
1001
ACAD
1000
AcDbSavedByObjectVersion
1070
     0
  0
VISUALSTYLE
  5
2478
102
{ACAD_XDICTIONARY
360
24E5
102
}
102
{ACAD_REACTORS
330
2462
102
}
330
2462
100
AcDbVisualStyle
  2
JitterOff
 70
    20
 71
     2
 72
     2
 73
     0
 90
        0
 40
-0.6
 41
-30.0
 62
     5
 63
     7
 74
     1
 91
        4
 64
     7
 65
   257
 75
     1
175
     1
 42
1.0
 92
       10
 66
     7
 43
1.0
 76
     1
 77
     6
 78
     2
 67
     7
 79
     5
170
     0
171
     0
290
     0
174
     0
 93
        1
 44
0.0
173
     0
291
     1
 45
0.0
1001
ACAD
1000
AcDbSavedByObjectVersion
1070
     0
  0
VISUALSTYLE
  5
2470
102
{ACAD_XDICTIONARY
360
24D5
102
}
102
{ACAD_REACTORS
330
2462
102
}
330
2462
100
AcDbVisualStyle
  2
Linepattern
 70
    14
 71
     2
 72
     2
 73
     0
 90
        0
 40
-0.6
 41
-30.0
 62
     5
 63
     7
 74
     1
 91
        4
 64
     7
 65
   257
 75
     7
175
     7
 42
1.0
 92
        8
 66
     7
 43
1.0
 76
     1
 77
     6
 78
     2
 67
     7
 79
     5
170
     0
171
     0
290
     0
174
     0
 93
        1
 44
0.0
173
     0
291
     1
 45
0.0
1001
ACAD
1000
AcDbSavedByObjectVersion
1070
     0
  0
VISUALSTYLE
  5
2479
102
{ACAD_XDICTIONARY
360
24E7
102
}
102
{ACAD_REACTORS
330
2462
102
}
330
2462
100
AcDbVisualStyle
  2
OverhangOff
 70
    21
 71
     2
 72
     2
 73
     0
 90
        0
 40
-0.6
 41
-30.0
 62
     5
 63
     7
 74
     1
 91
        4
 64
     7
 65
   257
 75
     1
175
     1
 42
1.0
 92
        9
 66
     7
 43
1.0
 76
     1
 77
     6
 78
     2
 67
     7
 79
     5
170
     0
171
     0
290
     0
174
     0
 93
        1
 44
0.0
173
     0
291
     1
 45
0.0
1001
ACAD
1000
AcDbSavedByObjectVersion
1070
     0
  0
VISUALSTYLE
  5
246C
102
{ACAD_XDICTIONARY
360
24CD
102
}
102
{ACAD_REACTORS
330
2462
102
}
330
2462
100
AcDbVisualStyle
  2
Realistic
 70
     8
 71
     2
 72
     3
 73
     0
 90
        2
 40
-0.6
 41
30.0
 62
     5
 63
     7
 74
     0
 91
        0
 64
     7
 65
   257
 75
     1
175
     1
 42
1.0
 92
        8
 66
   257
 43
1.0
 76
     1
 77
     6
 78
     2
 67
     7
 79
     3
170
     0
171
     0
290
     0
174
     0
 93
       13
 44
0.0
173
     0
291
     0
 45
0.0
1001
ACAD
1000
AcDbSavedByObjectVersion
1070
     0
  0
VISUALSTYLE
  5
2477
102
{ACAD_XDICTIONARY
360
24E3
102
}
102
{ACAD_REACTORS
330
2462
102
}
330
2462
100
AcDbVisualStyle
  2
Shaded
 70
    27
 71
     2
 72
     2
 73
     1
 90
        2
 40
-0.6
 41
30.0
 62
     5
 63
     7
 74
     0
 91
        4
 64
     7
 65
   257
 75
     1
175
     1
 42
1.0
 92
        8
 66
   257
 43
1.0
 76
     1
 77
     6
 78
     2
 67
     8
 79
     3
170
     0
171
     0
290
     0
174
     0
 93
        5
 44
0.0
173
     0
291
     0
 45
0.0
1001
ACAD
1000
AcDbSavedByObjectVersion
1070
     0
  0
VISUALSTYLE
  5
2476
102
{ACAD_XDICTIONARY
360
24E1
102
}
102
{ACAD_REACTORS
330
2462
102
}
330
2462
100
AcDbVisualStyle
  2
Shaded with edges
 70
    26
 71
     2
 72
     2
 73
     1
 90
        2
 40
-0.6
 41
30.0
 62
     5
 63
     7
 74
     1
 91
       10
 64
     7
 65
   257
 75
     2
175
     1
 42
1.0
 92
        8
 66
   257
 43
1.0
 76
     1
 77
     6
 78
     2
 67
     7
 79
     3
170
     0
171
     0
290
     0
174
     0
 93
        5
 44
0.0
173
     0
291
     0
 45
0.0
1001
ACAD
1000
AcDbSavedByObjectVersion
1070
     0
  0
VISUALSTYLE
  5
2473
102
{ACAD_XDICTIONARY
360
24DB
102
}
102
{ACAD_REACTORS
330
2462
102
}
330
2462
100
AcDbVisualStyle
  2
Shades of Gray
 70
    23
 71
     2
 72
     2
 73
     3
 90
        0
 40
-0.6
 41
-30.0
 62
     5
 63
     7
 74
     2
 91
        2
 64
     7
 65
     7
 75
     1
175
     1
 42
40.0
 92
        8
 66
     7
 43
1.0
 76
     1
 77
     6
 78
     2
 67
     7
 79
     3
170
     0
171
     0
290
     0
174
     0
 93
        1
 44
0.0
173
     0
291
     0
 45
0.0
1001
ACAD
1000
AcDbSavedByObjectVersion
1070
     0
  0
VISUALSTYLE
  5
2474
102
{ACAD_XDICTIONARY
360
24DD
102
}
102
{ACAD_REACTORS
330
2462
102
}
330
2462
100
AcDbVisualStyle
  2
Sketchy
 70
    24
 71
     1
 72
     2
 73
     2
 90
        0
 40
-0.6
 41
-30.0
 62
     5
 63
     7
 74
     2
 91
        2
 64
     7
 65
     7
 75
     1
175
     1
 42
40.0
 92
       11
 66
     7
 43
1.0
 76
     1
 77
     6
 78
     2
 67
     7
 79
     6
170
     0
171
     0
290
     0
174
     0
 93
        1
 44
0.0
173
     0
291
     0
 45
0.0
1001
ACAD
1000
AcDbSavedByObjectVersion
1070
     0
  0
VISUALSTYLE
  5
246F
102
{ACAD_XDICTIONARY
360
24D3
102
}
102
{ACAD_REACTORS
330
2462
102
}
330
2462
100
AcDbVisualStyle
  2
Thicken
 70
    13
 71
     2
 72
     2
 73
     0
 90
        0
 40
-0.6
 41
-30.0
 62
     5
 63
     7
 74
     1
 91
        4
 64
     7
 65
   257
 75
     1
175
     1
 42
1.0
 92
       12
 66
     7
 43
1.0
 76
     1
 77
     6
 78
     2
 67
     7
 79
     5
170
     0
171
     0
290
     0
174
     0
 93
        1
 44
0.0
173
     0
291
     1
 45
0.0
1001
ACAD
1000
AcDbSavedByObjectVersion
1070
     0
  0
VISUALSTYLE
  5
2469
102
{ACAD_XDICTIONARY
360
24C7
102
}
102
{ACAD_REACTORS
330
2462
102
}
330
2462
100
AcDbVisualStyle
  2
Wireframe
 70
     5
 71
     0
 72
     2
 73
     0
 90
        0
 40
-0.6
 41
-30.0
 62
     5
 63
     7
 74
     1
 91
        4
 64
     7
 65
   257
 75
     1
175
     1
 42
1.0
 92
        0
 66
   257
 43
1.0
 76
     1
 77
     6
 78
     2
 67
     7
 79
     3
170
     0
171
     0
290
     0
174
     0
 93
        1
 44
0.0
173
     0
291
     0
 45
0.0
1001
ACAD
1000
AcDbSavedByObjectVersion
1070
     0
  0
VISUALSTYLE
  5
2475
102
{ACAD_XDICTIONARY
360
24DF
102
}
102
{ACAD_REACTORS
330
2462
102
}
330
2462
100
AcDbVisualStyle
  2
X-Ray
 70
    25
 71
     2
 72
     2
 73
     1
 90
        1
 40
0.5
 41
-30.0
 62
     5
 63
     7
 74
     1
 91
        0
 64
     7
 65
   257
 75
     1
175
     1
 42
1.0
 92
        8
 66
     7
 43
1.0
 76
     1
 77
     6
 78
     2
 67
     7
 79
     3
170
     0
171
     0
290
     0
174
     0
 93
       13
 44
0.0
173
     0
291
     0
 45
0.0
1001
ACAD
1000
AcDbSavedByObjectVersion
1070
     0
  0
DICTIONARYVAR
  5
24AE
102
{ACAD_REACTORS
330
24A9
102
}
330
24A9
100
DictionaryVariables
280
     0
  1
1:1
  0
DICTIONARYVAR
  5
24AB
102
{ACAD_REACTORS
330
24A9
102
}
330
24A9
100
DictionaryVariables
280
     0
  1
STANDARD
  0
DICTIONARYVAR
  5
24AA
102
{ACAD_REACTORS
330
24A9
102
}
330
24A9
100
DictionaryVariables
280
     0
  1
STANDARD
  0
DICTIONARYVAR
  5
24AC
102
{ACAD_REACTORS
330
24A9
102
}
330
24A9
100
DictionaryVariables
280
     0
  1
Imperial24
  0
DICTIONARYVAR
  5
24AD
102
{ACAD_REACTORS
330
24A9
102
}
330
24A9
100
DictionaryVariables
280
     0
  1
Imperial24
  0
DICTIONARYVAR
  5
24B1
102
{ACAD_REACTORS
330
24A9
102
}
330
24A9
100
DictionaryVariables
280
     0
  1
1
  0
DICTIONARYVAR
  5
24B0
102
{ACAD_REACTORS
330
24A9
102
}
330
24A9
100
DictionaryVariables
280
     0
  1
0
  0
DICTIONARYVAR
  5
24AF
102
{ACAD_REACTORS
330
24A9
102
}
330
24A9
100
DictionaryVariables
280
     0
  1
127
  0
DICTIONARYVAR
  5
24B2
102
{ACAD_REACTORS
330
24A9
102
}
330
24A9
100
DictionaryVariables
280
     0
  1
2
  0
DICTIONARY
  5
24EF
330
2495
100
AcDbDictionary
280
     1
281
     1
  3
ACAD_XREC_ROUNDTRIP
360
24F0
  0
DICTIONARY
  5
24F1
330
2496
100
AcDbDictionary
280
     1
281
     1
  3
ACAD_XREC_ROUNDTRIP
360
24F2
  0
DICTIONARY
  5
24F3
330
2497
100
AcDbDictionary
280
     1
281
     1
  3
ACAD_XREC_ROUNDTRIP
360
24F4
  0
DICTIONARY
  5
2453
330
2452
100
AcDbDictionary
280
     1
281
     1
  3
ACAD_XREC_ROUNDTRIP
360
24B9
  3
BUMPTILE
360
2455
  3
DIFFUSETILE
360
2454
  3
OPACITYTILE
360
2458
  3
REFLECTIONTILE
360
2457
  3
REFRACTIONTILE
360
2459
  3
SPECULARTILE
360
2456
  0
DICTIONARY
  5
244B
330
244A
100
AcDbDictionary
280
     1
281
     1
  3
ACAD_XREC_ROUNDTRIP
360
24B8
  3
BUMPTILE
360
244D
  3
DIFFUSETILE
360
244C
  3
OPACITYTILE
360
2450
  3
REFLECTIONTILE
360
244F
  3
REFRACTIONTILE
360
2451
  3
SPECULARTILE
360
244E
  0
DICTIONARY
  5
245B
330
245A
100
AcDbDictionary
280
     1
281
     1
  3
ACAD_XREC_ROUNDTRIP
360
24BA
  3
BUMPTILE
360
245D
  3
DIFFUSETILE
360
245C
  3
OPACITYTILE
360
2460
  3
REFLECTIONTILE
360
245F
  3
REFRACTIONTILE
360
2461
  3
SPECULARTILE
360
245E
  0
DICTIONARY
  5
24ED
330
2493
100
AcDbDictionary
280
     1
281
     1
  3
ACAD_XREC_ROUNDTRIP
360
24EE
  0
DICTIONARY
  5
24B4
330
247D
100
AcDbDictionary
280
     1
281
     1
  3
ACAD_ROUNDTRIP_2008_TABLESTYLE_CELLSTYLEMAP
360
24B5
  3
ACAD_XREC_ROUNDTRIP
360
24EB
  0
DICTIONARY
  5
24C5
330
2468
100
AcDbDictionary
280
     1
281
     1
  3
ACAD_XREC_ROUNDTRIP
360
24C6
  0
DICTIONARY
  5
24C3
330
2467
100
AcDbDictionary
280
     1
281
     1
  3
ACAD_XREC_ROUNDTRIP
360
24C4
  0
DICTIONARY
  5
24D1
330
246E
100
AcDbDictionary
280
     1
281
     1
  3
ACAD_XREC_ROUNDTRIP
360
24D2
  0
DICTIONARY
  5
24D9
330
2472
100
AcDbDictionary
280
     1
281
     1
  3
ACAD_XREC_ROUNDTRIP
360
24DA
  0
DICTIONARY
  5
24CB
330
246B
100
AcDbDictionary
280
     1
281
     1
  3
ACAD_XREC_ROUNDTRIP
360
24CC
  0
DICTIONARY
  5
24CF
330
246D
100
AcDbDictionary
280
     1
281
     1
  3
ACAD_XREC_ROUNDTRIP
360
24D0
  0
DICTIONARY
  5
24E9
330
247A
100
AcDbDictionary
280
     1
281
     1
  3
ACAD_XREC_ROUNDTRIP
360
24EA
  0
DICTIONARY
  5
24D7
330
2471
100
AcDbDictionary
280
     1
281
     1
  3
ACAD_XREC_ROUNDTRIP
360
24D8
  0
DICTIONARY
  5
24BB
330
2463
100
AcDbDictionary
280
     1
281
     1
  3
ACAD_XREC_ROUNDTRIP
360
24BC
  0
DICTIONARY
  5
24BD
330
2464
100
AcDbDictionary
280
     1
281
     1
  3
ACAD_XREC_ROUNDTRIP
360
24BE
  0
DICTIONARY
  5
24BF
330
2465
100
AcDbDictionary
280
     1
281
     1
  3
ACAD_XREC_ROUNDTRIP
360
24C0
  0
DICTIONARY
  5
24C1
330
2466
100
AcDbDictionary
280
     1
281
     1
  3
ACAD_XREC_ROUNDTRIP
360
24C2
  0
DICTIONARY
  5
24C9
330
246A
100
AcDbDictionary
280
     1
281
     1
  3
ACAD_XREC_ROUNDTRIP
360
24CA
  0
DICTIONARY
  5
24E5
330
2478
100
AcDbDictionary
280
     1
281
     1
  3
ACAD_XREC_ROUNDTRIP
360
24E6
  0
DICTIONARY
  5
24D5
330
2470
100
AcDbDictionary
280
     1
281
     1
  3
ACAD_XREC_ROUNDTRIP
360
24D6
  0
DICTIONARY
  5
24E7
330
2479
100
AcDbDictionary
280
     1
281
     1
  3
ACAD_XREC_ROUNDTRIP
360
24E8
  0
DICTIONARY
  5
24CD
330
246C
100
AcDbDictionary
280
     1
281
     1
  3
ACAD_XREC_ROUNDTRIP
360
24CE
  0
DICTIONARY
  5
24E3
330
2477
100
AcDbDictionary
280
     1
281
     1
  3
ACAD_XREC_ROUNDTRIP
360
24E4
  0
DICTIONARY
  5
24E1
330
2476
100
AcDbDictionary
280
     1
281
     1
  3
ACAD_XREC_ROUNDTRIP
360
24E2
  0
DICTIONARY
  5
24DB
330
2473
100
AcDbDictionary
280
     1
281
     1
  3
ACAD_XREC_ROUNDTRIP
360
24DC
  0
DICTIONARY
  5
24DD
330
2474
100
AcDbDictionary
280
     1
281
     1
  3
ACAD_XREC_ROUNDTRIP
360
24DE
  0
DICTIONARY
  5
24D3
330
246F
100
AcDbDictionary
280
     1
281
     1
  3
ACAD_XREC_ROUNDTRIP
360
24D4
  0
DICTIONARY
  5
24C7
330
2469
100
AcDbDictionary
280
     1
281
     1
  3
ACAD_XREC_ROUNDTRIP
360
24C8
  0
DICTIONARY
  5
24DF
330
2475
100
AcDbDictionary
280
     1
281
     1
  3
ACAD_XREC_ROUNDTRIP
360
24E0
  0
XRECORD
  5
24F0
102
{ACAD_REACTORS
330
24EF
102
}
330
24EF
100
AcDbXrecord
280
     1
102
DISPLAYNAME
  1
Imperial24
102
FLAGS
 90
        0
  0
XRECORD
  5
24F2
102
{ACAD_REACTORS
330
24F1
102
}
330
24F1
100
AcDbXrecord
280
     1
102
SHADEPLOT
 70
     0
102
SHADEPLOTRESLEVEL
 70
     2
102
SHADEPLOTCUSTOMDPI
 70
   300
  0
XRECORD
  5
24F4
102
{ACAD_REACTORS
330
24F3
102
}
330
24F3
100
AcDbXrecord
280
     1
102
SHADEPLOT
 70
     0
102
SHADEPLOTRESLEVEL
 70
     2
102
SHADEPLOTCUSTOMDPI
 70
   300
  0
XRECORD
  5
24B9
102
{ACAD_REACTORS
330
2453
102
}
330
2453
100
AcDbXrecord
280
     1
102
MATERIAL
148
0.0
149
0.0
149
0.0
 93
        0
 94
      127
282
     0
 72
     0
 77
     0
171
     0
175
     0
179
     0
273
     0
  0
XRECORD
  5
2455
102
{ACAD_REACTORS
330
2453
102
}
330
2453
100
AcDbXrecord
280
     1
270
     1
271
     1
  0
XRECORD
  5
2454
102
{ACAD_REACTORS
330
2453
102
}
330
2453
100
AcDbXrecord
280
     1
270
     1
271
     1
  0
XRECORD
  5
2458
102
{ACAD_REACTORS
330
2453
102
}
330
2453
100
AcDbXrecord
280
     1
270
     1
271
     1
  0
XRECORD
  5
2457
102
{ACAD_REACTORS
330
2453
102
}
330
2453
100
AcDbXrecord
280
     1
270
     1
271
     1
  0
XRECORD
  5
2459
102
{ACAD_REACTORS
330
2453
102
}
330
2453
100
AcDbXrecord
280
     1
270
     1
271
     1
  0
XRECORD
  5
2456
102
{ACAD_REACTORS
330
2453
102
}
330
2453
100
AcDbXrecord
280
     1
270
     1
271
     1
  0
XRECORD
  5
24B8
102
{ACAD_REACTORS
330
244B
102
}
330
244B
100
AcDbXrecord
280
     1
102
MATERIAL
148
0.0
149
0.0
149
0.0
 93
        0
 94
      127
282
     0
 72
     0
 77
     0
171
     0
175
     0
179
     0
273
     0
  0
XRECORD
  5
244D
102
{ACAD_REACTORS
330
244B
102
}
330
244B
100
AcDbXrecord
280
     1
270
     1
271
     1
  0
XRECORD
  5
244C
102
{ACAD_REACTORS
330
244B
102
}
330
244B
100
AcDbXrecord
280
     1
270
     1
271
     1
  0
XRECORD
  5
2450
102
{ACAD_REACTORS
330
244B
102
}
330
244B
100
AcDbXrecord
280
     1
270
     1
271
     1
  0
XRECORD
  5
244F
102
{ACAD_REACTORS
330
244B
102
}
330
244B
100
AcDbXrecord
280
     1
270
     1
271
     1
  0
XRECORD
  5
2451
102
{ACAD_REACTORS
330
244B
102
}
330
244B
100
AcDbXrecord
280
     1
270
     1
271
     1
  0
XRECORD
  5
244E
102
{ACAD_REACTORS
330
244B
102
}
330
244B
100
AcDbXrecord
280
     1
270
     1
271
     1
  0
XRECORD
  5
24BA
102
{ACAD_REACTORS
330
245B
102
}
330
245B
100
AcDbXrecord
280
     1
102
MATERIAL
148
0.0
149
0.0
149
0.0
 93
        0
 94
      127
282
     0
 72
     0
 77
     0
171
     0
175
     0
179
     0
273
     0
  0
XRECORD
  5
245D
102
{ACAD_REACTORS
330
245B
102
}
330
245B
100
AcDbXrecord
280
     1
270
     1
271
     1
  0
XRECORD
  5
245C
102
{ACAD_REACTORS
330
245B
102
}
330
245B
100
AcDbXrecord
280
     1
270
     1
271
     1
  0
XRECORD
  5
2460
102
{ACAD_REACTORS
330
245B
102
}
330
245B
100
AcDbXrecord
280
     1
270
     1
271
     1
  0
XRECORD
  5
245F
102
{ACAD_REACTORS
330
245B
102
}
330
245B
100
AcDbXrecord
280
     1
270
     1
271
     1
  0
XRECORD
  5
2461
102
{ACAD_REACTORS
330
245B
102
}
330
245B
100
AcDbXrecord
280
     1
270
     1
271
     1
  0
XRECORD
  5
245E
102
{ACAD_REACTORS
330
245B
102
}
330
245B
100
AcDbXrecord
280
     1
270
     1
271
     1
  0
XRECORD
  5
24EE
102
{ACAD_REACTORS
330
24ED
102
}
330
24ED
100
AcDbXrecord
280
     1
102
DISPLAYNAME
  1
Imperial24
102
FLAGS
 90
        0
  0
CELLSTYLEMAP
  5
24B5
102
{ACAD_REACTORS
330
24B4
102
}
330
24B4
100
AcDbCellStyleMap
 90
        3
300
CELLSTYLE
  1
TABLEFORMAT_BEGIN
 90
        5
170
     1
 91
        0
 92
    32768
 62
   257
 93
        1
300
CONTENTFORMAT
  1
CONTENTFORMAT_BEGIN
 90
        0
 91
        0
 92
      512
 93
        0
300

 40
0.0
140
1.0
 94
        5
 62
     0
340
21BA
144
0.25
309
CONTENTFORMAT_END
171
     0
 94
        0
309
TABLEFORMAT_END
  1
CELLSTYLE_BEGIN
 90
        1
 91
        1
300
_TITLE
309
CELLSTYLE_END
300
CELLSTYLE
  1
TABLEFORMAT_BEGIN
 90
        5
170
     1
 91
        0
 92
        0
 62
   257
 93
        1
300
CONTENTFORMAT
  1
CONTENTFORMAT_BEGIN
 90
        0
 91
        0
 92
      512
 93
        0
300

 40
0.0
140
1.0
 94
        5
 62
     0
340
21BA
144
0.18
309
CONTENTFORMAT_END
171
     0
 94
        0
309
TABLEFORMAT_END
  1
CELLSTYLE_BEGIN
 90
        2
 91
        1
300
_HEADER
309
CELLSTYLE_END
300
CELLSTYLE
  1
TABLEFORMAT_BEGIN
 90
        5
170
     1
 91
        0
 92
        0
 62
   257
 93
        1
300
CONTENTFORMAT
  1
CONTENTFORMAT_BEGIN
 90
        0
 91
        0
 92
      512
 93
        0
300

 40
0.0
140
1.0
 94
        2
 62
     0
340
21BA
144
0.18
309
CONTENTFORMAT_END
171
     0
 94
        0
309
TABLEFORMAT_END
  1
CELLSTYLE_BEGIN
 90
        3
 91
        2
300
_DATA
309
CELLSTYLE_END
  0
XRECORD
  5
24EB
102
{ACAD_REACTORS
330
24B4
102
}
330
24B4
100
AcDbXrecord
280
     1
102
ACAD_ROUNDTRIP_PRE2007_TABLESTYLE
 90
      512
 91
        0
  1

 92
      512
 93
        0
  2

 94
      512
 95
        0
  3

  0
XRECORD
  5
24C6
102
{ACAD_REACTORS
330
24C5
102
}
330
24C5
100
AcDbXrecord
280
     1
102
RTVSPost2010Prop28
280
     1
102
RTVSPost2010PropOp28
 70
     1
102
RTVSPost2010Prop29
280
     1
102
RTVSPost2010PropOp29
 70
     1
102
RTVSPost2010Prop30
280
     0
102
RTVSPost2010PropOp30
 70
     1
102
RTVSPost2010Prop31
280
     0
102
RTVSPost2010PropOp31
 70
     1
102
RTVSPost2010Prop32
280
     0
102
RTVSPost2010PropOp32
 70
     1
102
RTVSPost2010Prop33
280
     0
102
RTVSPost2010PropOp33
 70
     1
102
RTVSPost2010Prop34
280
     0
102
RTVSPost2010PropOp34
 70
     1
102
RTVSPost2010Prop35
280
     0
102
RTVSPost2010PropOp35
 70
     1
102
RTVSPost2010Prop36
280
     0
102
RTVSPost2010PropOp36
 70
     1
102
RTVSPost2010Prop37
 90
       50
102
RTVSPost2010PropOp37
 70
     1
102
RTVSPost2010Prop38
140
0.0
102
RTVSPost2010PropOp38
 70
     1
102
RTVSPost2010Prop39
140
1.0
102
RTVSPost2010PropOp39
 70
     1
102
RTVSPost2010Prop40
 90
        0
102
RTVSPost2010PropOp40
 70
     1
102
RTVSPost2010Prop41ColorIndex
 90
       18
102
RTVSPost2010Prop41ColorRGB
 90
        0
102
RTVSPost2010PropOp41
 70
     1
102
RTVSPost2010Prop42
 90
       50
102
RTVSPost2010PropOp42
 70
     1
102
RTVSPost2010Prop43
 90
        3
102
RTVSPost2010PropOp43
 70
     1
102
RTVSPost2010Prop44ColorIndex
 90
        5
102
RTVSPost2010Prop44ColorRGB
 90
      255
102
RTVSPost2010PropOp44
 70
     1
102
RTVSPost2010Prop45
280
     0
102
RTVSPost2010PropOp45
 70
     1
102
RTVSPost2010Prop46
 90
       50
102
RTVSPost2010PropOp46
 70
     1
102
RTVSPost2010Prop47
 90
       50
102
RTVSPost2010PropOp47
 70
     1
102
RTVSPost2010Prop48
 90
       50
102
RTVSPost2010PropOp48
 70
     1
102
RTVSPost2010Prop49
280
     0
102
RTVSPost2010PropOp49
 70
     1
102
RTVSPost2010Prop50
 90
       50
102
RTVSPost2010PropOp50
 70
     1
102
RTVSPost2010Prop51ColorIndex
 90
      256
102
RTVSPost2010Prop51ColorRGB
 90
-16777216
102
RTVSPost2010PropOp51
 70
     0
102
RTVSPost2010Prop52
140
1.0
102
RTVSPost2010PropOp52
 70
     0
102
RTVSPost2010Prop53
 90
        2
102
RTVSPost2010PropOp53
 70
     1
102
RTVSPost2010Prop54
  1
strokes_ogs.tif
102
RTVSPost2010PropOp54
 70
     1
102
RTVSPost2010Prop55
280
     0
102
RTVSPost2010PropOp55
 70
     1
102
RTVSPost2010Prop56
140
1.0
102
RTVSPost2010PropOp56
 70
     1
102
RTVSPost2010Prop57
140
1.0
102
RTVSPost2010PropOp57
 70
     1
102
RTVSPropertyOp0
 70
     1
102
RTVSPropertyOp1
 70
     1
102
RTVSPropertyOp2
 70
     1
102
RTVSPropertyOp3
 70
     1
102
RTVSPropertyOp4
 70
     1
102
RTVSPropertyOp5
 70
     1
102
RTVSPropertyOp6
 70
     1
102
RTVSPropertyOp7
 70
     1
102
RTVSPropertyOp8
 70
     1
102
RTVSPropertyOp9
 70
     1
102
RTVSPropertyOp10
 70
     1
102
RTVSPropertyOp11
 70
     1
102
RTVSPropertyOp12
 70
     1
102
RTVSPropertyOp13
 70
     1
102
RTVSPropertyOp14
 70
     1
102
RTVSPropertyOp15
 70
     1
102
RTVSPropertyOp16
 70
     1
102
RTVSPropertyOp17
 70
     1
102
RTVSPropertyOp18
 70
     1
102
RTVSPropertyOp19
 70
     1
102
RTVSPropertyOp20
 70
     1
102
RTVSPropertyOp21
 70
     1
102
RTVSPropertyOp22
 70
     1
102
RTVSPropertyOp23
 70
     1
102
RTVSPropertyOp24
 70
     1
102
RTVSPropertyOp25
 70
     1
102
RTVSPropertyOp26
 70
     1
102
RTVSPropertyOp27
 70
     1
102
RTVSPropertyOp28
 70
     1
102
RTVSPropertyOp29
 70
     1
102
RTVSPropertyOp30
 70
     1
102
RTVSPropertyOp31
 70
     1
102
RTVSPropertyOp32
 70
     1
102
RTVSPropertyOp33
 70
     1
102
RTVSPropertyOp34
 70
     1
102
RTVSPropertyOp35
 70
     1
102
RTVSPropertyOp36
 70
     1
102
RTVSPropertyOp37
 70
     1
102
RTVSPropertyOp38
 70
     1
102
RTVSPropertyOp39
 70
     1
102
RTVSPropertyOp40
 70
     1
102
RTVSPropertyOp41
 70
     1
102
RTVSPropertyOp42
 70
     1
102
RTVSPropertyOp43
 70
     1
102
RTVSPropertyOp44
 70
     1
102
RTVSPropertyOp45
 70
     1
102
RTVSPropertyOp46
 70
     1
102
RTVSPropertyOp47
 70
     1
102
RTVSPropertyOp48
 70
     1
102
RTVSPropertyOp49
 70
     1
102
RTVSPropertyOp50
 70
     1
102
RTVSPropertyOp51
 70
     0
102
RTVSPropertyOp52
 70
     0
102
RTVSPropertyOp53
 70
     1
102
RTVSPropertyOp54
 70
     1
102
RTVSPropertyOp55
 70
     1
102
RTVSPropertyOp56
 70
     1
102
RTVSPropertyOp57
 70
     1
102
RTVSPropertyOp58
 70
     1
102
RTVSPropertyOp59
 70
     1
102
RTVSPropertyOp60
 70
     1
102
RTVSPropertyOp61
 70
     1
102
RTVSPropertyOp62
 70
     1
  0
XRECORD
  5
24C4
102
{ACAD_REACTORS
330
24C3
102
}
330
24C3
100
AcDbXrecord
280
     1
102
RTVSPost2010Prop28
280
     0
102
RTVSPost2010PropOp28
 70
     1
102
RTVSPost2010Prop29
280
     1
102
RTVSPost2010PropOp29
 70
     1
102
RTVSPost2010Prop30
280
     1
102
RTVSPost2010PropOp30
 70
     1
102
RTVSPost2010Prop31
280
     0
102
RTVSPost2010PropOp31
 70
     1
102
RTVSPost2010Prop32
280
     0
102
RTVSPost2010PropOp32
 70
     1
102
RTVSPost2010Prop33
280
     0
102
RTVSPost2010PropOp33
 70
     1
102
RTVSPost2010Prop34
280
     0
102
RTVSPost2010PropOp34
 70
     1
102
RTVSPost2010Prop35
280
     0
102
RTVSPost2010PropOp35
 70
     1
102
RTVSPost2010Prop36
280
     0
102
RTVSPost2010PropOp36
 70
     1
102
RTVSPost2010Prop37
 90
       50
102
RTVSPost2010PropOp37
 70
     1
102
RTVSPost2010Prop38
140
0.0
102
RTVSPost2010PropOp38
 70
     1
102
RTVSPost2010Prop39
140
1.0
102
RTVSPost2010PropOp39
 70
     1
102
RTVSPost2010Prop40
 90
        0
102
RTVSPost2010PropOp40
 70
     1
102
RTVSPost2010Prop41ColorIndex
 90
       18
102
RTVSPost2010Prop41ColorRGB
 90
        0
102
RTVSPost2010PropOp41
 70
     1
102
RTVSPost2010Prop42
 90
       50
102
RTVSPost2010PropOp42
 70
     1
102
RTVSPost2010Prop43
 90
        3
102
RTVSPost2010PropOp43
 70
     1
102
RTVSPost2010Prop44ColorIndex
 90
        5
102
RTVSPost2010Prop44ColorRGB
 90
      255
102
RTVSPost2010PropOp44
 70
     1
102
RTVSPost2010Prop45
280
     0
102
RTVSPost2010PropOp45
 70
     1
102
RTVSPost2010Prop46
 90
       50
102
RTVSPost2010PropOp46
 70
     1
102
RTVSPost2010Prop47
 90
       50
102
RTVSPost2010PropOp47
 70
     1
102
RTVSPost2010Prop48
 90
       50
102
RTVSPost2010PropOp48
 70
     1
102
RTVSPost2010Prop49
280
     0
102
RTVSPost2010PropOp49
 70
     1
102
RTVSPost2010Prop50
 90
       50
102
RTVSPost2010PropOp50
 70
     1
102
RTVSPost2010Prop51ColorIndex
 90
      256
102
RTVSPost2010Prop51ColorRGB
 90
-16777216
102
RTVSPost2010PropOp51
 70
     0
102
RTVSPost2010Prop52
140
1.0
102
RTVSPost2010PropOp52
 70
     0
102
RTVSPost2010Prop53
 90
        2
102
RTVSPost2010PropOp53
 70
     1
102
RTVSPost2010Prop54
  1
strokes_ogs.tif
102
RTVSPost2010PropOp54
 70
     1
102
RTVSPost2010Prop55
280
     0
102
RTVSPost2010PropOp55
 70
     1
102
RTVSPost2010Prop56
140
1.0
102
RTVSPost2010PropOp56
 70
     1
102
RTVSPost2010Prop57
140
1.0
102
RTVSPost2010PropOp57
 70
     1
102
RTVSPropertyOp0
 70
     1
102
RTVSPropertyOp1
 70
     1
102
RTVSPropertyOp2
 70
     1
102
RTVSPropertyOp3
 70
     1
102
RTVSPropertyOp4
 70
     1
102
RTVSPropertyOp5
 70
     1
102
RTVSPropertyOp6
 70
     1
102
RTVSPropertyOp7
 70
     1
102
RTVSPropertyOp8
 70
     1
102
RTVSPropertyOp9
 70
     1
102
RTVSPropertyOp10
 70
     1
102
RTVSPropertyOp11
 70
     1
102
RTVSPropertyOp12
 70
     1
102
RTVSPropertyOp13
 70
     1
102
RTVSPropertyOp14
 70
     1
102
RTVSPropertyOp15
 70
     1
102
RTVSPropertyOp16
 70
     1
102
RTVSPropertyOp17
 70
     1
102
RTVSPropertyOp18
 70
     1
102
RTVSPropertyOp19
 70
     1
102
RTVSPropertyOp20
 70
     1
102
RTVSPropertyOp21
 70
     1
102
RTVSPropertyOp22
 70
     1
102
RTVSPropertyOp23
 70
     1
102
RTVSPropertyOp24
 70
     1
102
RTVSPropertyOp25
 70
     1
102
RTVSPropertyOp26
 70
     1
102
RTVSPropertyOp27
 70
     1
102
RTVSPropertyOp28
 70
     1
102
RTVSPropertyOp29
 70
     1
102
RTVSPropertyOp30
 70
     1
102
RTVSPropertyOp31
 70
     1
102
RTVSPropertyOp32
 70
     1
102
RTVSPropertyOp33
 70
     1
102
RTVSPropertyOp34
 70
     1
102
RTVSPropertyOp35
 70
     1
102
RTVSPropertyOp36
 70
     1
102
RTVSPropertyOp37
 70
     1
102
RTVSPropertyOp38
 70
     1
102
RTVSPropertyOp39
 70
     1
102
RTVSPropertyOp40
 70
     1
102
RTVSPropertyOp41
 70
     1
102
RTVSPropertyOp42
 70
     1
102
RTVSPropertyOp43
 70
     1
102
RTVSPropertyOp44
 70
     1
102
RTVSPropertyOp45
 70
     1
102
RTVSPropertyOp46
 70
     1
102
RTVSPropertyOp47
 70
     1
102
RTVSPropertyOp48
 70
     1
102
RTVSPropertyOp49
 70
     1
102
RTVSPropertyOp50
 70
     1
102
RTVSPropertyOp51
 70
     0
102
RTVSPropertyOp52
 70
     0
102
RTVSPropertyOp53
 70
     1
102
RTVSPropertyOp54
 70
     1
102
RTVSPropertyOp55
 70
     1
102
RTVSPropertyOp56
 70
     1
102
RTVSPropertyOp57
 70
     1
102
RTVSPropertyOp58
 70
     1
102
RTVSPropertyOp59
 70
     1
102
RTVSPropertyOp60
 70
     1
102
RTVSPropertyOp61
 70
     1
102
RTVSPropertyOp62
 70
     1
  0
XRECORD
  5
24D2
102
{ACAD_REACTORS
330
24D1
102
}
330
24D1
100
AcDbXrecord
280
     1
102
RTVSPost2010Prop28
280
     0
102
RTVSPost2010PropOp28
 70
     1
102
RTVSPost2010Prop29
280
     1
102
RTVSPost2010PropOp29
 70
     1
102
RTVSPost2010Prop30
280
     1
102
RTVSPost2010PropOp30
 70
     1
102
RTVSPost2010Prop31
280
     0
102
RTVSPost2010PropOp31
 70
     1
102
RTVSPost2010Prop32
280
     0
102
RTVSPost2010PropOp32
 70
     1
102
RTVSPost2010Prop33
280
     0
102
RTVSPost2010PropOp33
 70
     1
102
RTVSPost2010Prop34
280
     0
102
RTVSPost2010PropOp34
 70
     1
102
RTVSPost2010Prop35
280
     0
102
RTVSPost2010PropOp35
 70
     1
102
RTVSPost2010Prop36
280
     0
102
RTVSPost2010PropOp36
 70
     1
102
RTVSPost2010Prop37
 90
       50
102
RTVSPost2010PropOp37
 70
     1
102
RTVSPost2010Prop38
140
0.0
102
RTVSPost2010PropOp38
 70
     1
102
RTVSPost2010Prop39
140
1.0
102
RTVSPost2010PropOp39
 70
     1
102
RTVSPost2010Prop40
 90
        0
102
RTVSPost2010PropOp40
 70
     1
102
RTVSPost2010Prop41ColorIndex
 90
       18
102
RTVSPost2010Prop41ColorRGB
 90
        0
102
RTVSPost2010PropOp41
 70
     1
102
RTVSPost2010Prop42
 90
       50
102
RTVSPost2010PropOp42
 70
     1
102
RTVSPost2010Prop43
 90
        3
102
RTVSPost2010PropOp43
 70
     1
102
RTVSPost2010Prop44ColorIndex
 90
        5
102
RTVSPost2010Prop44ColorRGB
 90
      255
102
RTVSPost2010PropOp44
 70
     1
102
RTVSPost2010Prop45
280
     0
102
RTVSPost2010PropOp45
 70
     1
102
RTVSPost2010Prop46
 90
       50
102
RTVSPost2010PropOp46
 70
     1
102
RTVSPost2010Prop47
 90
       50
102
RTVSPost2010PropOp47
 70
     1
102
RTVSPost2010Prop48
 90
       50
102
RTVSPost2010PropOp48
 70
     1
102
RTVSPost2010Prop49
280
     0
102
RTVSPost2010PropOp49
 70
     1
102
RTVSPost2010Prop50
 90
       50
102
RTVSPost2010PropOp50
 70
     1
102
RTVSPost2010Prop51ColorIndex
 90
      256
102
RTVSPost2010Prop51ColorRGB
 90
-16777216
102
RTVSPost2010PropOp51
 70
     0
102
RTVSPost2010Prop52
140
1.0
102
RTVSPost2010PropOp52
 70
     0
102
RTVSPost2010Prop53
 90
        2
102
RTVSPost2010PropOp53
 70
     1
102
RTVSPost2010Prop54
  1
strokes_ogs.tif
102
RTVSPost2010PropOp54
 70
     1
102
RTVSPost2010Prop55
280
     0
102
RTVSPost2010PropOp55
 70
     1
102
RTVSPost2010Prop56
140
1.0
102
RTVSPost2010PropOp56
 70
     1
102
RTVSPost2010Prop57
140
1.0
102
RTVSPost2010PropOp57
 70
     1
102
RTVSPropertyOp0
 70
     1
102
RTVSPropertyOp1
 70
     1
102
RTVSPropertyOp2
 70
     1
102
RTVSPropertyOp3
 70
     1
102
RTVSPropertyOp4
 70
     1
102
RTVSPropertyOp5
 70
     1
102
RTVSPropertyOp6
 70
     1
102
RTVSPropertyOp7
 70
     1
102
RTVSPropertyOp8
 70
     1
102
RTVSPropertyOp9
 70
     1
102
RTVSPropertyOp10
 70
     1
102
RTVSPropertyOp11
 70
     1
102
RTVSPropertyOp12
 70
     1
102
RTVSPropertyOp13
 70
     1
102
RTVSPropertyOp14
 70
     1
102
RTVSPropertyOp15
 70
     1
102
RTVSPropertyOp16
 70
     1
102
RTVSPropertyOp17
 70
     1
102
RTVSPropertyOp18
 70
     1
102
RTVSPropertyOp19
 70
     1
102
RTVSPropertyOp20
 70
     1
102
RTVSPropertyOp21
 70
     1
102
RTVSPropertyOp22
 70
     1
102
RTVSPropertyOp23
 70
     1
102
RTVSPropertyOp24
 70
     1
102
RTVSPropertyOp25
 70
     1
102
RTVSPropertyOp26
 70
     1
102
RTVSPropertyOp27
 70
     1
102
RTVSPropertyOp28
 70
     1
102
RTVSPropertyOp29
 70
     1
102
RTVSPropertyOp30
 70
     1
102
RTVSPropertyOp31
 70
     1
102
RTVSPropertyOp32
 70
     1
102
RTVSPropertyOp33
 70
     1
102
RTVSPropertyOp34
 70
     1
102
RTVSPropertyOp35
 70
     1
102
RTVSPropertyOp36
 70
     1
102
RTVSPropertyOp37
 70
     1
102
RTVSPropertyOp38
 70
     1
102
RTVSPropertyOp39
 70
     1
102
RTVSPropertyOp40
 70
     1
102
RTVSPropertyOp41
 70
     1
102
RTVSPropertyOp42
 70
     1
102
RTVSPropertyOp43
 70
     1
102
RTVSPropertyOp44
 70
     1
102
RTVSPropertyOp45
 70
     1
102
RTVSPropertyOp46
 70
     1
102
RTVSPropertyOp47
 70
     1
102
RTVSPropertyOp48
 70
     1
102
RTVSPropertyOp49
 70
     1
102
RTVSPropertyOp50
 70
     1
102
RTVSPropertyOp51
 70
     0
102
RTVSPropertyOp52
 70
     0
102
RTVSPropertyOp53
 70
     1
102
RTVSPropertyOp54
 70
     1
102
RTVSPropertyOp55
 70
     1
102
RTVSPropertyOp56
 70
     1
102
RTVSPropertyOp57
 70
     1
102
RTVSPropertyOp58
 70
     1
102
RTVSPropertyOp59
 70
     1
102
RTVSPropertyOp60
 70
     1
102
RTVSPropertyOp61
 70
     1
102
RTVSPropertyOp62
 70
     1
  0
XRECORD
  5
24DA
102
{ACAD_REACTORS
330
24D9
102
}
330
24D9
100
AcDbXrecord
280
     1
102
RTVSPost2010Prop28
280
     0
102
RTVSPost2010PropOp28
 70
     1
102
RTVSPost2010Prop29
280
     1
102
RTVSPost2010PropOp29
 70
     1
102
RTVSPost2010Prop30
280
     1
102
RTVSPost2010PropOp30
 70
     1
102
RTVSPost2010Prop31
280
     0
102
RTVSPost2010PropOp31
 70
     1
102
RTVSPost2010Prop32
280
     0
102
RTVSPost2010PropOp32
 70
     1
102
RTVSPost2010Prop33
280
     0
102
RTVSPost2010PropOp33
 70
     1
102
RTVSPost2010Prop34
280
     0
102
RTVSPost2010PropOp34
 70
     1
102
RTVSPost2010Prop35
280
     0
102
RTVSPost2010PropOp35
 70
     1
102
RTVSPost2010Prop36
280
     0
102
RTVSPost2010PropOp36
 70
     1
102
RTVSPost2010Prop37
 90
       50
102
RTVSPost2010PropOp37
 70
     1
102
RTVSPost2010Prop38
140
0.0
102
RTVSPost2010PropOp38
 70
     1
102
RTVSPost2010Prop39
140
1.0
102
RTVSPost2010PropOp39
 70
     1
102
RTVSPost2010Prop40
 90
        0
102
RTVSPost2010PropOp40
 70
     1
102
RTVSPost2010Prop41ColorIndex
 90
       18
102
RTVSPost2010Prop41ColorRGB
 90
        0
102
RTVSPost2010PropOp41
 70
     1
102
RTVSPost2010Prop42
 90
       50
102
RTVSPost2010PropOp42
 70
     1
102
RTVSPost2010Prop43
 90
        3
102
RTVSPost2010PropOp43
 70
     1
102
RTVSPost2010Prop44ColorIndex
 90
        5
102
RTVSPost2010Prop44ColorRGB
 90
      255
102
RTVSPost2010PropOp44
 70
     1
102
RTVSPost2010Prop45
280
     0
102
RTVSPost2010PropOp45
 70
     1
102
RTVSPost2010Prop46
 90
       50
102
RTVSPost2010PropOp46
 70
     1
102
RTVSPost2010Prop47
 90
       50
102
RTVSPost2010PropOp47
 70
     1
102
RTVSPost2010Prop48
 90
       50
102
RTVSPost2010PropOp48
 70
     1
102
RTVSPost2010Prop49
280
     0
102
RTVSPost2010PropOp49
 70
     1
102
RTVSPost2010Prop50
 90
       50
102
RTVSPost2010PropOp50
 70
     1
102
RTVSPost2010Prop51ColorIndex
 90
      256
102
RTVSPost2010Prop51ColorRGB
 90
-16777216
102
RTVSPost2010PropOp51
 70
     0
102
RTVSPost2010Prop52
140
1.0
102
RTVSPost2010PropOp52
 70
     0
102
RTVSPost2010Prop53
 90
        2
102
RTVSPost2010PropOp53
 70
     1
102
RTVSPost2010Prop54
  1
strokes_ogs.tif
102
RTVSPost2010PropOp54
 70
     1
102
RTVSPost2010Prop55
280
     0
102
RTVSPost2010PropOp55
 70
     1
102
RTVSPost2010Prop56
140
1.0
102
RTVSPost2010PropOp56
 70
     1
102
RTVSPost2010Prop57
140
1.0
102
RTVSPost2010PropOp57
 70
     1
102
RTVSPropertyOp0
 70
     1
102
RTVSPropertyOp1
 70
     1
102
RTVSPropertyOp2
 70
     1
102
RTVSPropertyOp3
 70
     1
102
RTVSPropertyOp4
 70
     1
102
RTVSPropertyOp5
 70
     1
102
RTVSPropertyOp6
 70
     1
102
RTVSPropertyOp7
 70
     1
102
RTVSPropertyOp8
 70
     1
102
RTVSPropertyOp9
 70
     1
102
RTVSPropertyOp10
 70
     1
102
RTVSPropertyOp11
 70
     1
102
RTVSPropertyOp12
 70
     1
102
RTVSPropertyOp13
 70
     1
102
RTVSPropertyOp14
 70
     1
102
RTVSPropertyOp15
 70
     1
102
RTVSPropertyOp16
 70
     1
102
RTVSPropertyOp17
 70
     1
102
RTVSPropertyOp18
 70
     1
102
RTVSPropertyOp19
 70
     1
102
RTVSPropertyOp20
 70
     1
102
RTVSPropertyOp21
 70
     1
102
RTVSPropertyOp22
 70
     1
102
RTVSPropertyOp23
 70
     1
102
RTVSPropertyOp24
 70
     1
102
RTVSPropertyOp25
 70
     1
102
RTVSPropertyOp26
 70
     1
102
RTVSPropertyOp27
 70
     1
102
RTVSPropertyOp28
 70
     1
102
RTVSPropertyOp29
 70
     1
102
RTVSPropertyOp30
 70
     1
102
RTVSPropertyOp31
 70
     1
102
RTVSPropertyOp32
 70
     1
102
RTVSPropertyOp33
 70
     1
102
RTVSPropertyOp34
 70
     1
102
RTVSPropertyOp35
 70
     1
102
RTVSPropertyOp36
 70
     1
102
RTVSPropertyOp37
 70
     1
102
RTVSPropertyOp38
 70
     1
102
RTVSPropertyOp39
 70
     1
102
RTVSPropertyOp40
 70
     1
102
RTVSPropertyOp41
 70
     1
102
RTVSPropertyOp42
 70
     1
102
RTVSPropertyOp43
 70
     1
102
RTVSPropertyOp44
 70
     1
102
RTVSPropertyOp45
 70
     1
102
RTVSPropertyOp46
 70
     1
102
RTVSPropertyOp47
 70
     1
102
RTVSPropertyOp48
 70
     1
102
RTVSPropertyOp49
 70
     1
102
RTVSPropertyOp50
 70
     1
102
RTVSPropertyOp51
 70
     0
102
RTVSPropertyOp52
 70
     0
102
RTVSPropertyOp53
 70
     1
102
RTVSPropertyOp54
 70
     1
102
RTVSPropertyOp55
 70
     1
102
RTVSPropertyOp56
 70
     1
102
RTVSPropertyOp57
 70
     1
102
RTVSPropertyOp58
 70
     1
102
RTVSPropertyOp59
 70
     1
102
RTVSPropertyOp60
 70
     1
102
RTVSPropertyOp61
 70
     1
102
RTVSPropertyOp62
 70
     1
  0
XRECORD
  5
24CC
102
{ACAD_REACTORS
330
24CB
102
}
330
24CB
100
AcDbXrecord
280
     1
102
RTVSPost2010Prop28
280
     0
102
RTVSPost2010PropOp28
 70
     1
102
RTVSPost2010Prop29
280
     1
102
RTVSPost2010PropOp29
 70
     1
102
RTVSPost2010Prop30
280
     1
102
RTVSPost2010PropOp30
 70
     1
102
RTVSPost2010Prop31
280
     0
102
RTVSPost2010PropOp31
 70
     1
102
RTVSPost2010Prop32
280
     0
102
RTVSPost2010PropOp32
 70
     1
102
RTVSPost2010Prop33
280
     0
102
RTVSPost2010PropOp33
 70
     1
102
RTVSPost2010Prop34
280
     0
102
RTVSPost2010PropOp34
 70
     1
102
RTVSPost2010Prop35
280
     0
102
RTVSPost2010PropOp35
 70
     1
102
RTVSPost2010Prop36
280
     0
102
RTVSPost2010PropOp36
 70
     1
102
RTVSPost2010Prop37
 90
       50
102
RTVSPost2010PropOp37
 70
     1
102
RTVSPost2010Prop38
140
0.0
102
RTVSPost2010PropOp38
 70
     1
102
RTVSPost2010Prop39
140
1.0
102
RTVSPost2010PropOp39
 70
     1
102
RTVSPost2010Prop40
 90
        0
102
RTVSPost2010PropOp40
 70
     1
102
RTVSPost2010Prop41ColorIndex
 90
       18
102
RTVSPost2010Prop41ColorRGB
 90
        0
102
RTVSPost2010PropOp41
 70
     1
102
RTVSPost2010Prop42
 90
       50
102
RTVSPost2010PropOp42
 70
     1
102
RTVSPost2010Prop43
 90
        3
102
RTVSPost2010PropOp43
 70
     1
102
RTVSPost2010Prop44ColorIndex
 90
        5
102
RTVSPost2010Prop44ColorRGB
 90
      255
102
RTVSPost2010PropOp44
 70
     1
102
RTVSPost2010Prop45
280
     0
102
RTVSPost2010PropOp45
 70
     1
102
RTVSPost2010Prop46
 90
       50
102
RTVSPost2010PropOp46
 70
     1
102
RTVSPost2010Prop47
 90
       50
102
RTVSPost2010PropOp47
 70
     1
102
RTVSPost2010Prop48
 90
       50
102
RTVSPost2010PropOp48
 70
     1
102
RTVSPost2010Prop49
280
     0
102
RTVSPost2010PropOp49
 70
     1
102
RTVSPost2010Prop50
 90
       50
102
RTVSPost2010PropOp50
 70
     1
102
RTVSPost2010Prop51ColorIndex
 90
      256
102
RTVSPost2010Prop51ColorRGB
 90
-16777216
102
RTVSPost2010PropOp51
 70
     0
102
RTVSPost2010Prop52
140
1.0
102
RTVSPost2010PropOp52
 70
     0
102
RTVSPost2010Prop53
 90
        2
102
RTVSPost2010PropOp53
 70
     1
102
RTVSPost2010Prop54
  1
strokes_ogs.tif
102
RTVSPost2010PropOp54
 70
     1
102
RTVSPost2010Prop55
280
     0
102
RTVSPost2010PropOp55
 70
     1
102
RTVSPost2010Prop56
140
1.0
102
RTVSPost2010PropOp56
 70
     1
102
RTVSPost2010Prop57
140
1.0
102
RTVSPost2010PropOp57
 70
     1
102
RTVSPropertyOp0
 70
     1
102
RTVSPropertyOp1
 70
     1
102
RTVSPropertyOp2
 70
     1
102
RTVSPropertyOp3
 70
     1
102
RTVSPropertyOp4
 70
     1
102
RTVSPropertyOp5
 70
     1
102
RTVSPropertyOp6
 70
     1
102
RTVSPropertyOp7
 70
     1
102
RTVSPropertyOp8
 70
     1
102
RTVSPropertyOp9
 70
     1
102
RTVSPropertyOp10
 70
     1
102
RTVSPropertyOp11
 70
     1
102
RTVSPropertyOp12
 70
     1
102
RTVSPropertyOp13
 70
     1
102
RTVSPropertyOp14
 70
     1
102
RTVSPropertyOp15
 70
     1
102
RTVSPropertyOp16
 70
     1
102
RTVSPropertyOp17
 70
     1
102
RTVSPropertyOp18
 70
     1
102
RTVSPropertyOp19
 70
     1
102
RTVSPropertyOp20
 70
     1
102
RTVSPropertyOp21
 70
     1
102
RTVSPropertyOp22
 70
     1
102
RTVSPropertyOp23
 70
     1
102
RTVSPropertyOp24
 70
     1
102
RTVSPropertyOp25
 70
     1
102
RTVSPropertyOp26
 70
     1
102
RTVSPropertyOp27
 70
     1
102
RTVSPropertyOp28
 70
     1
102
RTVSPropertyOp29
 70
     1
102
RTVSPropertyOp30
 70
     1
102
RTVSPropertyOp31
 70
     1
102
RTVSPropertyOp32
 70
     1
102
RTVSPropertyOp33
 70
     1
102
RTVSPropertyOp34
 70
     1
102
RTVSPropertyOp35
 70
     1
102
RTVSPropertyOp36
 70
     1
102
RTVSPropertyOp37
 70
     1
102
RTVSPropertyOp38
 70
     1
102
RTVSPropertyOp39
 70
     1
102
RTVSPropertyOp40
 70
     1
102
RTVSPropertyOp41
 70
     1
102
RTVSPropertyOp42
 70
     1
102
RTVSPropertyOp43
 70
     1
102
RTVSPropertyOp44
 70
     1
102
RTVSPropertyOp45
 70
     1
102
RTVSPropertyOp46
 70
     1
102
RTVSPropertyOp47
 70
     1
102
RTVSPropertyOp48
 70
     1
102
RTVSPropertyOp49
 70
     1
102
RTVSPropertyOp50
 70
     1
102
RTVSPropertyOp51
 70
     0
102
RTVSPropertyOp52
 70
     0
102
RTVSPropertyOp53
 70
     1
102
RTVSPropertyOp54
 70
     1
102
RTVSPropertyOp55
 70
     1
102
RTVSPropertyOp56
 70
     1
102
RTVSPropertyOp57
 70
     1
102
RTVSPropertyOp58
 70
     1
102
RTVSPropertyOp59
 70
     1
102
RTVSPropertyOp60
 70
     1
102
RTVSPropertyOp61
 70
     1
102
RTVSPropertyOp62
 70
     1
  0
XRECORD
  5
24D0
102
{ACAD_REACTORS
330
24CF
102
}
330
24CF
100
AcDbXrecord
280
     1
102
RTVSPost2010Prop28
280
     0
102
RTVSPost2010PropOp28
 70
     1
102
RTVSPost2010Prop29
280
     1
102
RTVSPost2010PropOp29
 70
     1
102
RTVSPost2010Prop30
280
     1
102
RTVSPost2010PropOp30
 70
     1
102
RTVSPost2010Prop31
280
     0
102
RTVSPost2010PropOp31
 70
     1
102
RTVSPost2010Prop32
280
     0
102
RTVSPost2010PropOp32
 70
     1
102
RTVSPost2010Prop33
280
     0
102
RTVSPost2010PropOp33
 70
     1
102
RTVSPost2010Prop34
280
     0
102
RTVSPost2010PropOp34
 70
     1
102
RTVSPost2010Prop35
280
     0
102
RTVSPost2010PropOp35
 70
     1
102
RTVSPost2010Prop36
280
     0
102
RTVSPost2010PropOp36
 70
     1
102
RTVSPost2010Prop37
 90
       50
102
RTVSPost2010PropOp37
 70
     1
102
RTVSPost2010Prop38
140
0.0
102
RTVSPost2010PropOp38
 70
     1
102
RTVSPost2010Prop39
140
1.0
102
RTVSPost2010PropOp39
 70
     1
102
RTVSPost2010Prop40
 90
        0
102
RTVSPost2010PropOp40
 70
     1
102
RTVSPost2010Prop41ColorIndex
 90
       18
102
RTVSPost2010Prop41ColorRGB
 90
        0
102
RTVSPost2010PropOp41
 70
     1
102
RTVSPost2010Prop42
 90
       50
102
RTVSPost2010PropOp42
 70
     1
102
RTVSPost2010Prop43
 90
        3
102
RTVSPost2010PropOp43
 70
     1
102
RTVSPost2010Prop44ColorIndex
 90
        5
102
RTVSPost2010Prop44ColorRGB
 90
      255
102
RTVSPost2010PropOp44
 70
     1
102
RTVSPost2010Prop45
280
     0
102
RTVSPost2010PropOp45
 70
     1
102
RTVSPost2010Prop46
 90
       50
102
RTVSPost2010PropOp46
 70
     1
102
RTVSPost2010Prop47
 90
       50
102
RTVSPost2010PropOp47
 70
     1
102
RTVSPost2010Prop48
 90
       50
102
RTVSPost2010PropOp48
 70
     1
102
RTVSPost2010Prop49
280
     0
102
RTVSPost2010PropOp49
 70
     1
102
RTVSPost2010Prop50
 90
       50
102
RTVSPost2010PropOp50
 70
     1
102
RTVSPost2010Prop51ColorIndex
 90
      256
102
RTVSPost2010Prop51ColorRGB
 90
-16777216
102
RTVSPost2010PropOp51
 70
     0
102
RTVSPost2010Prop52
140
1.0
102
RTVSPost2010PropOp52
 70
     0
102
RTVSPost2010Prop53
 90
        2
102
RTVSPost2010PropOp53
 70
     1
102
RTVSPost2010Prop54
  1
strokes_ogs.tif
102
RTVSPost2010PropOp54
 70
     1
102
RTVSPost2010Prop55
280
     0
102
RTVSPost2010PropOp55
 70
     1
102
RTVSPost2010Prop56
140
1.0
102
RTVSPost2010PropOp56
 70
     1
102
RTVSPost2010Prop57
140
1.0
102
RTVSPost2010PropOp57
 70
     1
102
RTVSPropertyOp0
 70
     1
102
RTVSPropertyOp1
 70
     1
102
RTVSPropertyOp2
 70
     1
102
RTVSPropertyOp3
 70
     1
102
RTVSPropertyOp4
 70
     1
102
RTVSPropertyOp5
 70
     1
102
RTVSPropertyOp6
 70
     1
102
RTVSPropertyOp7
 70
     1
102
RTVSPropertyOp8
 70
     1
102
RTVSPropertyOp9
 70
     1
102
RTVSPropertyOp10
 70
     1
102
RTVSPropertyOp11
 70
     1
102
RTVSPropertyOp12
 70
     1
102
RTVSPropertyOp13
 70
     1
102
RTVSPropertyOp14
 70
     1
102
RTVSPropertyOp15
 70
     1
102
RTVSPropertyOp16
 70
     1
102
RTVSPropertyOp17
 70
     1
102
RTVSPropertyOp18
 70
     1
102
RTVSPropertyOp19
 70
     1
102
RTVSPropertyOp20
 70
     1
102
RTVSPropertyOp21
 70
     1
102
RTVSPropertyOp22
 70
     1
102
RTVSPropertyOp23
 70
     1
102
RTVSPropertyOp24
 70
     1
102
RTVSPropertyOp25
 70
     1
102
RTVSPropertyOp26
 70
     1
102
RTVSPropertyOp27
 70
     1
102
RTVSPropertyOp28
 70
     1
102
RTVSPropertyOp29
 70
     1
102
RTVSPropertyOp30
 70
     1
102
RTVSPropertyOp31
 70
     1
102
RTVSPropertyOp32
 70
     1
102
RTVSPropertyOp33
 70
     1
102
RTVSPropertyOp34
 70
     1
102
RTVSPropertyOp35
 70
     1
102
RTVSPropertyOp36
 70
     1
102
RTVSPropertyOp37
 70
     1
102
RTVSPropertyOp38
 70
     1
102
RTVSPropertyOp39
 70
     1
102
RTVSPropertyOp40
 70
     1
102
RTVSPropertyOp41
 70
     1
102
RTVSPropertyOp42
 70
     1
102
RTVSPropertyOp43
 70
     1
102
RTVSPropertyOp44
 70
     1
102
RTVSPropertyOp45
 70
     1
102
RTVSPropertyOp46
 70
     1
102
RTVSPropertyOp47
 70
     1
102
RTVSPropertyOp48
 70
     1
102
RTVSPropertyOp49
 70
     1
102
RTVSPropertyOp50
 70
     1
102
RTVSPropertyOp51
 70
     0
102
RTVSPropertyOp52
 70
     0
102
RTVSPropertyOp53
 70
     1
102
RTVSPropertyOp54
 70
     1
102
RTVSPropertyOp55
 70
     1
102
RTVSPropertyOp56
 70
     1
102
RTVSPropertyOp57
 70
     1
102
RTVSPropertyOp58
 70
     1
102
RTVSPropertyOp59
 70
     1
102
RTVSPropertyOp60
 70
     1
102
RTVSPropertyOp61
 70
     1
102
RTVSPropertyOp62
 70
     1
  0
XRECORD
  5
24EA
102
{ACAD_REACTORS
330
24E9
102
}
330
24E9
100
AcDbXrecord
280
     1
102
RTVSPost2010Prop28
280
     0
102
RTVSPost2010PropOp28
 70
     1
102
RTVSPost2010Prop29
280
     1
102
RTVSPost2010PropOp29
 70
     1
102
RTVSPost2010Prop30
280
     1
102
RTVSPost2010PropOp30
 70
     1
102
RTVSPost2010Prop31
280
     0
102
RTVSPost2010PropOp31
 70
     1
102
RTVSPost2010Prop32
280
     0
102
RTVSPost2010PropOp32
 70
     1
102
RTVSPost2010Prop33
280
     0
102
RTVSPost2010PropOp33
 70
     1
102
RTVSPost2010Prop34
280
     0
102
RTVSPost2010PropOp34
 70
     1
102
RTVSPost2010Prop35
280
     0
102
RTVSPost2010PropOp35
 70
     1
102
RTVSPost2010Prop36
280
     0
102
RTVSPost2010PropOp36
 70
     1
102
RTVSPost2010Prop37
 90
       50
102
RTVSPost2010PropOp37
 70
     0
102
RTVSPost2010Prop38
140
0.0
102
RTVSPost2010PropOp38
 70
     0
102
RTVSPost2010Prop39
140
1.0
102
RTVSPost2010PropOp39
 70
     0
102
RTVSPost2010Prop40
 90
        0
102
RTVSPost2010PropOp40
 70
     0
102
RTVSPost2010Prop41ColorIndex
 90
       18
102
RTVSPost2010Prop41ColorRGB
 90
        0
102
RTVSPost2010PropOp41
 70
     0
102
RTVSPost2010Prop42
 90
       50
102
RTVSPost2010PropOp42
 70
     0
102
RTVSPost2010Prop43
 90
        3
102
RTVSPost2010PropOp43
 70
     0
102
RTVSPost2010Prop44ColorIndex
 90
        5
102
RTVSPost2010Prop44ColorRGB
 90
      255
102
RTVSPost2010PropOp44
 70
     0
102
RTVSPost2010Prop45
280
     0
102
RTVSPost2010PropOp45
 70
     1
102
RTVSPost2010Prop46
 90
       50
102
RTVSPost2010PropOp46
 70
     0
102
RTVSPost2010Prop47
 90
       50
102
RTVSPost2010PropOp47
 70
     0
102
RTVSPost2010Prop48
 90
       50
102
RTVSPost2010PropOp48
 70
     0
102
RTVSPost2010Prop49
280
     0
102
RTVSPost2010PropOp49
 70
     1
102
RTVSPost2010Prop50
 90
       50
102
RTVSPost2010PropOp50
 70
     0
102
RTVSPost2010Prop51ColorIndex
 90
      256
102
RTVSPost2010Prop51ColorRGB
 90
-16777216
102
RTVSPost2010PropOp51
 70
     0
102
RTVSPost2010Prop52
140
1.0
102
RTVSPost2010PropOp52
 70
     0
102
RTVSPost2010Prop53
 90
        2
102
RTVSPost2010PropOp53
 70
     0
102
RTVSPost2010Prop54
  1
strokes_ogs.tif
102
RTVSPost2010PropOp54
 70
     0
102
RTVSPost2010Prop55
280
     0
102
RTVSPost2010PropOp55
 70
     1
102
RTVSPost2010Prop56
140
1.0
102
RTVSPost2010PropOp56
 70
     0
102
RTVSPost2010Prop57
140
1.0
102
RTVSPost2010PropOp57
 70
     0
102
RTVSPropertyOp0
 70
     0
102
RTVSPropertyOp1
 70
     0
102
RTVSPropertyOp2
 70
     0
102
RTVSPropertyOp3
 70
     0
102
RTVSPropertyOp4
 70
     0
102
RTVSPropertyOp5
 70
     0
102
RTVSPropertyOp6
 70
     0
102
RTVSPropertyOp7
 70
     0
102
RTVSPropertyOp8
 70
     0
102
RTVSPropertyOp9
 70
     0
102
RTVSPropertyOp10
 70
     0
102
RTVSPropertyOp11
 70
     0
102
RTVSPropertyOp12
 70
     0
102
RTVSPropertyOp13
 70
     0
102
RTVSPropertyOp14
 70
     2
102
RTVSPropertyOp15
 70
     0
102
RTVSPropertyOp16
 70
     0
102
RTVSPropertyOp17
 70
     0
102
RTVSPropertyOp18
 70
     0
102
RTVSPropertyOp19
 70
     0
102
RTVSPropertyOp20
 70
     0
102
RTVSPropertyOp21
 70
     0
102
RTVSPropertyOp22
 70
     0
102
RTVSPropertyOp23
 70
     0
102
RTVSPropertyOp24
 70
     0
102
RTVSPropertyOp25
 70
     0
102
RTVSPropertyOp26
 70
     0
102
RTVSPropertyOp27
 70
     0
102
RTVSPropertyOp28
 70
     1
102
RTVSPropertyOp29
 70
     1
102
RTVSPropertyOp30
 70
     1
102
RTVSPropertyOp31
 70
     1
102
RTVSPropertyOp32
 70
     1
102
RTVSPropertyOp33
 70
     1
102
RTVSPropertyOp34
 70
     1
102
RTVSPropertyOp35
 70
     1
102
RTVSPropertyOp36
 70
     1
102
RTVSPropertyOp37
 70
     0
102
RTVSPropertyOp38
 70
     0
102
RTVSPropertyOp39
 70
     0
102
RTVSPropertyOp40
 70
     0
102
RTVSPropertyOp41
 70
     0
102
RTVSPropertyOp42
 70
     0
102
RTVSPropertyOp43
 70
     0
102
RTVSPropertyOp44
 70
     0
102
RTVSPropertyOp45
 70
     1
102
RTVSPropertyOp46
 70
     0
102
RTVSPropertyOp47
 70
     0
102
RTVSPropertyOp48
 70
     0
102
RTVSPropertyOp49
 70
     1
102
RTVSPropertyOp50
 70
     0
102
RTVSPropertyOp51
 70
     0
102
RTVSPropertyOp52
 70
     0
102
RTVSPropertyOp53
 70
     0
102
RTVSPropertyOp54
 70
     0
102
RTVSPropertyOp55
 70
     1
102
RTVSPropertyOp56
 70
     0
102
RTVSPropertyOp57
 70
     0
102
RTVSPropertyOp58
 70
     0
102
RTVSPropertyOp59
 70
     0
102
RTVSPropertyOp60
 70
     0
102
RTVSPropertyOp61
 70
     0
102
RTVSPropertyOp62
 70
     0
  0
XRECORD
  5
24D8
102
{ACAD_REACTORS
330
24D7
102
}
330
24D7
100
AcDbXrecord
280
     1
102
RTVSPost2010Prop28
280
     0
102
RTVSPost2010PropOp28
 70
     1
102
RTVSPost2010Prop29
280
     1
102
RTVSPost2010PropOp29
 70
     1
102
RTVSPost2010Prop30
280
     1
102
RTVSPost2010PropOp30
 70
     1
102
RTVSPost2010Prop31
280
     0
102
RTVSPost2010PropOp31
 70
     1
102
RTVSPost2010Prop32
280
     0
102
RTVSPost2010PropOp32
 70
     1
102
RTVSPost2010Prop33
280
     0
102
RTVSPost2010PropOp33
 70
     1
102
RTVSPost2010Prop34
280
     0
102
RTVSPost2010PropOp34
 70
     1
102
RTVSPost2010Prop35
280
     0
102
RTVSPost2010PropOp35
 70
     1
102
RTVSPost2010Prop36
280
     0
102
RTVSPost2010PropOp36
 70
     1
102
RTVSPost2010Prop37
 90
       50
102
RTVSPost2010PropOp37
 70
     1
102
RTVSPost2010Prop38
140
0.0
102
RTVSPost2010PropOp38
 70
     1
102
RTVSPost2010Prop39
140
1.0
102
RTVSPost2010PropOp39
 70
     1
102
RTVSPost2010Prop40
 90
        0
102
RTVSPost2010PropOp40
 70
     1
102
RTVSPost2010Prop41ColorIndex
 90
       18
102
RTVSPost2010Prop41ColorRGB
 90
        0
102
RTVSPost2010PropOp41
 70
     1
102
RTVSPost2010Prop42
 90
       50
102
RTVSPost2010PropOp42
 70
     1
102
RTVSPost2010Prop43
 90
        3
102
RTVSPost2010PropOp43
 70
     1
102
RTVSPost2010Prop44ColorIndex
 90
        5
102
RTVSPost2010Prop44ColorRGB
 90
      255
102
RTVSPost2010PropOp44
 70
     1
102
RTVSPost2010Prop45
280
     0
102
RTVSPost2010PropOp45
 70
     1
102
RTVSPost2010Prop46
 90
       50
102
RTVSPost2010PropOp46
 70
     1
102
RTVSPost2010Prop47
 90
       50
102
RTVSPost2010PropOp47
 70
     1
102
RTVSPost2010Prop48
 90
       50
102
RTVSPost2010PropOp48
 70
     1
102
RTVSPost2010Prop49
280
     0
102
RTVSPost2010PropOp49
 70
     1
102
RTVSPost2010Prop50
 90
       50
102
RTVSPost2010PropOp50
 70
     1
102
RTVSPost2010Prop51ColorIndex
 90
      256
102
RTVSPost2010Prop51ColorRGB
 90
-16777216
102
RTVSPost2010PropOp51
 70
     0
102
RTVSPost2010Prop52
140
1.0
102
RTVSPost2010PropOp52
 70
     0
102
RTVSPost2010Prop53
 90
        2
102
RTVSPost2010PropOp53
 70
     1
102
RTVSPost2010Prop54
  1
strokes_ogs.tif
102
RTVSPost2010PropOp54
 70
     1
102
RTVSPost2010Prop55
280
     0
102
RTVSPost2010PropOp55
 70
     1
102
RTVSPost2010Prop56
140
1.0
102
RTVSPost2010PropOp56
 70
     1
102
RTVSPost2010Prop57
140
1.0
102
RTVSPost2010PropOp57
 70
     1
102
RTVSPropertyOp0
 70
     1
102
RTVSPropertyOp1
 70
     1
102
RTVSPropertyOp2
 70
     1
102
RTVSPropertyOp3
 70
     1
102
RTVSPropertyOp4
 70
     1
102
RTVSPropertyOp5
 70
     1
102
RTVSPropertyOp6
 70
     1
102
RTVSPropertyOp7
 70
     1
102
RTVSPropertyOp8
 70
     1
102
RTVSPropertyOp9
 70
     1
102
RTVSPropertyOp10
 70
     1
102
RTVSPropertyOp11
 70
     1
102
RTVSPropertyOp12
 70
     1
102
RTVSPropertyOp13
 70
     1
102
RTVSPropertyOp14
 70
     1
102
RTVSPropertyOp15
 70
     1
102
RTVSPropertyOp16
 70
     1
102
RTVSPropertyOp17
 70
     1
102
RTVSPropertyOp18
 70
     1
102
RTVSPropertyOp19
 70
     1
102
RTVSPropertyOp20
 70
     1
102
RTVSPropertyOp21
 70
     1
102
RTVSPropertyOp22
 70
     1
102
RTVSPropertyOp23
 70
     1
102
RTVSPropertyOp24
 70
     1
102
RTVSPropertyOp25
 70
     1
102
RTVSPropertyOp26
 70
     1
102
RTVSPropertyOp27
 70
     1
102
RTVSPropertyOp28
 70
     1
102
RTVSPropertyOp29
 70
     1
102
RTVSPropertyOp30
 70
     1
102
RTVSPropertyOp31
 70
     1
102
RTVSPropertyOp32
 70
     1
102
RTVSPropertyOp33
 70
     1
102
RTVSPropertyOp34
 70
     1
102
RTVSPropertyOp35
 70
     1
102
RTVSPropertyOp36
 70
     1
102
RTVSPropertyOp37
 70
     1
102
RTVSPropertyOp38
 70
     1
102
RTVSPropertyOp39
 70
     1
102
RTVSPropertyOp40
 70
     1
102
RTVSPropertyOp41
 70
     1
102
RTVSPropertyOp42
 70
     1
102
RTVSPropertyOp43
 70
     1
102
RTVSPropertyOp44
 70
     1
102
RTVSPropertyOp45
 70
     1
102
RTVSPropertyOp46
 70
     1
102
RTVSPropertyOp47
 70
     1
102
RTVSPropertyOp48
 70
     1
102
RTVSPropertyOp49
 70
     1
102
RTVSPropertyOp50
 70
     1
102
RTVSPropertyOp51
 70
     0
102
RTVSPropertyOp52
 70
     0
102
RTVSPropertyOp53
 70
     1
102
RTVSPropertyOp54
 70
     1
102
RTVSPropertyOp55
 70
     1
102
RTVSPropertyOp56
 70
     1
102
RTVSPropertyOp57
 70
     1
102
RTVSPropertyOp58
 70
     1
102
RTVSPropertyOp59
 70
     1
102
RTVSPropertyOp60
 70
     1
102
RTVSPropertyOp61
 70
     1
102
RTVSPropertyOp62
 70
     1
  0
XRECORD
  5
24BC
102
{ACAD_REACTORS
330
24BB
102
}
330
24BB
100
AcDbXrecord
280
     1
102
RTVSPost2010Prop28
280
     0
102
RTVSPost2010PropOp28
 70
     1
102
RTVSPost2010Prop29
280
     1
102
RTVSPost2010PropOp29
 70
     1
102
RTVSPost2010Prop30
280
     1
102
RTVSPost2010PropOp30
 70
     1
102
RTVSPost2010Prop31
280
     0
102
RTVSPost2010PropOp31
 70
     1
102
RTVSPost2010Prop32
280
     0
102
RTVSPost2010PropOp32
 70
     1
102
RTVSPost2010Prop33
280
     0
102
RTVSPost2010PropOp33
 70
     1
102
RTVSPost2010Prop34
280
     0
102
RTVSPost2010PropOp34
 70
     1
102
RTVSPost2010Prop35
280
     0
102
RTVSPost2010PropOp35
 70
     1
102
RTVSPost2010Prop36
280
     0
102
RTVSPost2010PropOp36
 70
     1
102
RTVSPost2010Prop37
 90
       50
102
RTVSPost2010PropOp37
 70
     1
102
RTVSPost2010Prop38
140
0.0
102
RTVSPost2010PropOp38
 70
     1
102
RTVSPost2010Prop39
140
1.0
102
RTVSPost2010PropOp39
 70
     1
102
RTVSPost2010Prop40
 90
        0
102
RTVSPost2010PropOp40
 70
     1
102
RTVSPost2010Prop41ColorIndex
 90
       18
102
RTVSPost2010Prop41ColorRGB
 90
        0
102
RTVSPost2010PropOp41
 70
     1
102
RTVSPost2010Prop42
 90
       50
102
RTVSPost2010PropOp42
 70
     1
102
RTVSPost2010Prop43
 90
        3
102
RTVSPost2010PropOp43
 70
     1
102
RTVSPost2010Prop44ColorIndex
 90
        5
102
RTVSPost2010Prop44ColorRGB
 90
      255
102
RTVSPost2010PropOp44
 70
     1
102
RTVSPost2010Prop45
280
     0
102
RTVSPost2010PropOp45
 70
     1
102
RTVSPost2010Prop46
 90
       50
102
RTVSPost2010PropOp46
 70
     1
102
RTVSPost2010Prop47
 90
       50
102
RTVSPost2010PropOp47
 70
     1
102
RTVSPost2010Prop48
 90
       50
102
RTVSPost2010PropOp48
 70
     1
102
RTVSPost2010Prop49
280
     0
102
RTVSPost2010PropOp49
 70
     1
102
RTVSPost2010Prop50
 90
       50
102
RTVSPost2010PropOp50
 70
     1
102
RTVSPost2010Prop51ColorIndex
 90
      256
102
RTVSPost2010Prop51ColorRGB
 90
-16777216
102
RTVSPost2010PropOp51
 70
     0
102
RTVSPost2010Prop52
140
1.0
102
RTVSPost2010PropOp52
 70
     0
102
RTVSPost2010Prop53
 90
        2
102
RTVSPost2010PropOp53
 70
     1
102
RTVSPost2010Prop54
  1
strokes_ogs.tif
102
RTVSPost2010PropOp54
 70
     1
102
RTVSPost2010Prop55
280
     0
102
RTVSPost2010PropOp55
 70
     1
102
RTVSPost2010Prop56
140
1.0
102
RTVSPost2010PropOp56
 70
     1
102
RTVSPost2010Prop57
140
1.0
102
RTVSPost2010PropOp57
 70
     1
102
RTVSPropertyOp0
 70
     1
102
RTVSPropertyOp1
 70
     1
102
RTVSPropertyOp2
 70
     1
102
RTVSPropertyOp3
 70
     1
102
RTVSPropertyOp4
 70
     1
102
RTVSPropertyOp5
 70
     1
102
RTVSPropertyOp6
 70
     1
102
RTVSPropertyOp7
 70
     1
102
RTVSPropertyOp8
 70
     1
102
RTVSPropertyOp9
 70
     1
102
RTVSPropertyOp10
 70
     1
102
RTVSPropertyOp11
 70
     1
102
RTVSPropertyOp12
 70
     1
102
RTVSPropertyOp13
 70
     1
102
RTVSPropertyOp14
 70
     1
102
RTVSPropertyOp15
 70
     1
102
RTVSPropertyOp16
 70
     1
102
RTVSPropertyOp17
 70
     1
102
RTVSPropertyOp18
 70
     1
102
RTVSPropertyOp19
 70
     1
102
RTVSPropertyOp20
 70
     1
102
RTVSPropertyOp21
 70
     1
102
RTVSPropertyOp22
 70
     1
102
RTVSPropertyOp23
 70
     1
102
RTVSPropertyOp24
 70
     1
102
RTVSPropertyOp25
 70
     1
102
RTVSPropertyOp26
 70
     1
102
RTVSPropertyOp27
 70
     1
102
RTVSPropertyOp28
 70
     1
102
RTVSPropertyOp29
 70
     1
102
RTVSPropertyOp30
 70
     1
102
RTVSPropertyOp31
 70
     1
102
RTVSPropertyOp32
 70
     1
102
RTVSPropertyOp33
 70
     1
102
RTVSPropertyOp34
 70
     1
102
RTVSPropertyOp35
 70
     1
102
RTVSPropertyOp36
 70
     1
102
RTVSPropertyOp37
 70
     1
102
RTVSPropertyOp38
 70
     1
102
RTVSPropertyOp39
 70
     1
102
RTVSPropertyOp40
 70
     1
102
RTVSPropertyOp41
 70
     1
102
RTVSPropertyOp42
 70
     1
102
RTVSPropertyOp43
 70
     1
102
RTVSPropertyOp44
 70
     1
102
RTVSPropertyOp45
 70
     1
102
RTVSPropertyOp46
 70
     1
102
RTVSPropertyOp47
 70
     1
102
RTVSPropertyOp48
 70
     1
102
RTVSPropertyOp49
 70
     1
102
RTVSPropertyOp50
 70
     1
102
RTVSPropertyOp51
 70
     0
102
RTVSPropertyOp52
 70
     0
102
RTVSPropertyOp53
 70
     1
102
RTVSPropertyOp54
 70
     1
102
RTVSPropertyOp55
 70
     1
102
RTVSPropertyOp56
 70
     1
102
RTVSPropertyOp57
 70
     1
102
RTVSPropertyOp58
 70
     1
102
RTVSPropertyOp59
 70
     1
102
RTVSPropertyOp60
 70
     1
102
RTVSPropertyOp61
 70
     1
102
RTVSPropertyOp62
 70
     1
  0
XRECORD
  5
24BE
102
{ACAD_REACTORS
330
24BD
102
}
330
24BD
100
AcDbXrecord
280
     1
102
RTVSPost2010Prop28
280
     0
102
RTVSPost2010PropOp28
 70
     1
102
RTVSPost2010Prop29
280
     1
102
RTVSPost2010PropOp29
 70
     1
102
RTVSPost2010Prop30
280
     1
102
RTVSPost2010PropOp30
 70
     1
102
RTVSPost2010Prop31
280
     0
102
RTVSPost2010PropOp31
 70
     1
102
RTVSPost2010Prop32
280
     0
102
RTVSPost2010PropOp32
 70
     1
102
RTVSPost2010Prop33
280
     0
102
RTVSPost2010PropOp33
 70
     1
102
RTVSPost2010Prop34
280
     0
102
RTVSPost2010PropOp34
 70
     1
102
RTVSPost2010Prop35
280
     0
102
RTVSPost2010PropOp35
 70
     1
102
RTVSPost2010Prop36
280
     0
102
RTVSPost2010PropOp36
 70
     1
102
RTVSPost2010Prop37
 90
       50
102
RTVSPost2010PropOp37
 70
     1
102
RTVSPost2010Prop38
140
0.0
102
RTVSPost2010PropOp38
 70
     1
102
RTVSPost2010Prop39
140
1.0
102
RTVSPost2010PropOp39
 70
     1
102
RTVSPost2010Prop40
 90
        0
102
RTVSPost2010PropOp40
 70
     1
102
RTVSPost2010Prop41ColorIndex
 90
       18
102
RTVSPost2010Prop41ColorRGB
 90
        0
102
RTVSPost2010PropOp41
 70
     1
102
RTVSPost2010Prop42
 90
       50
102
RTVSPost2010PropOp42
 70
     1
102
RTVSPost2010Prop43
 90
        3
102
RTVSPost2010PropOp43
 70
     1
102
RTVSPost2010Prop44ColorIndex
 90
        5
102
RTVSPost2010Prop44ColorRGB
 90
      255
102
RTVSPost2010PropOp44
 70
     1
102
RTVSPost2010Prop45
280
     0
102
RTVSPost2010PropOp45
 70
     1
102
RTVSPost2010Prop46
 90
       50
102
RTVSPost2010PropOp46
 70
     1
102
RTVSPost2010Prop47
 90
       50
102
RTVSPost2010PropOp47
 70
     1
102
RTVSPost2010Prop48
 90
       50
102
RTVSPost2010PropOp48
 70
     1
102
RTVSPost2010Prop49
280
     0
102
RTVSPost2010PropOp49
 70
     1
102
RTVSPost2010Prop50
 90
       50
102
RTVSPost2010PropOp50
 70
     1
102
RTVSPost2010Prop51ColorIndex
 90
      256
102
RTVSPost2010Prop51ColorRGB
 90
-16777216
102
RTVSPost2010PropOp51
 70
     0
102
RTVSPost2010Prop52
140
1.0
102
RTVSPost2010PropOp52
 70
     0
102
RTVSPost2010Prop53
 90
        2
102
RTVSPost2010PropOp53
 70
     1
102
RTVSPost2010Prop54
  1
strokes_ogs.tif
102
RTVSPost2010PropOp54
 70
     1
102
RTVSPost2010Prop55
280
     0
102
RTVSPost2010PropOp55
 70
     1
102
RTVSPost2010Prop56
140
1.0
102
RTVSPost2010PropOp56
 70
     1
102
RTVSPost2010Prop57
140
1.0
102
RTVSPost2010PropOp57
 70
     1
102
RTVSPropertyOp0
 70
     1
102
RTVSPropertyOp1
 70
     1
102
RTVSPropertyOp2
 70
     1
102
RTVSPropertyOp3
 70
     1
102
RTVSPropertyOp4
 70
     1
102
RTVSPropertyOp5
 70
     1
102
RTVSPropertyOp6
 70
     1
102
RTVSPropertyOp7
 70
     1
102
RTVSPropertyOp8
 70
     1
102
RTVSPropertyOp9
 70
     1
102
RTVSPropertyOp10
 70
     1
102
RTVSPropertyOp11
 70
     1
102
RTVSPropertyOp12
 70
     1
102
RTVSPropertyOp13
 70
     1
102
RTVSPropertyOp14
 70
     1
102
RTVSPropertyOp15
 70
     1
102
RTVSPropertyOp16
 70
     1
102
RTVSPropertyOp17
 70
     1
102
RTVSPropertyOp18
 70
     1
102
RTVSPropertyOp19
 70
     1
102
RTVSPropertyOp20
 70
     1
102
RTVSPropertyOp21
 70
     1
102
RTVSPropertyOp22
 70
     1
102
RTVSPropertyOp23
 70
     1
102
RTVSPropertyOp24
 70
     1
102
RTVSPropertyOp25
 70
     1
102
RTVSPropertyOp26
 70
     1
102
RTVSPropertyOp27
 70
     1
102
RTVSPropertyOp28
 70
     1
102
RTVSPropertyOp29
 70
     1
102
RTVSPropertyOp30
 70
     1
102
RTVSPropertyOp31
 70
     1
102
RTVSPropertyOp32
 70
     1
102
RTVSPropertyOp33
 70
     1
102
RTVSPropertyOp34
 70
     1
102
RTVSPropertyOp35
 70
     1
102
RTVSPropertyOp36
 70
     1
102
RTVSPropertyOp37
 70
     1
102
RTVSPropertyOp38
 70
     1
102
RTVSPropertyOp39
 70
     1
102
RTVSPropertyOp40
 70
     1
102
RTVSPropertyOp41
 70
     1
102
RTVSPropertyOp42
 70
     1
102
RTVSPropertyOp43
 70
     1
102
RTVSPropertyOp44
 70
     1
102
RTVSPropertyOp45
 70
     1
102
RTVSPropertyOp46
 70
     1
102
RTVSPropertyOp47
 70
     1
102
RTVSPropertyOp48
 70
     1
102
RTVSPropertyOp49
 70
     1
102
RTVSPropertyOp50
 70
     1
102
RTVSPropertyOp51
 70
     0
102
RTVSPropertyOp52
 70
     0
102
RTVSPropertyOp53
 70
     1
102
RTVSPropertyOp54
 70
     1
102
RTVSPropertyOp55
 70
     1
102
RTVSPropertyOp56
 70
     1
102
RTVSPropertyOp57
 70
     1
102
RTVSPropertyOp58
 70
     1
102
RTVSPropertyOp59
 70
     1
102
RTVSPropertyOp60
 70
     1
102
RTVSPropertyOp61
 70
     1
102
RTVSPropertyOp62
 70
     1
  0
XRECORD
  5
24C0
102
{ACAD_REACTORS
330
24BF
102
}
330
24BF
100
AcDbXrecord
280
     1
102
RTVSPost2010Prop28
280
     0
102
RTVSPost2010PropOp28
 70
     1
102
RTVSPost2010Prop29
280
     1
102
RTVSPost2010PropOp29
 70
     1
102
RTVSPost2010Prop30
280
     1
102
RTVSPost2010PropOp30
 70
     1
102
RTVSPost2010Prop31
280
     0
102
RTVSPost2010PropOp31
 70
     1
102
RTVSPost2010Prop32
280
     0
102
RTVSPost2010PropOp32
 70
     1
102
RTVSPost2010Prop33
280
     0
102
RTVSPost2010PropOp33
 70
     1
102
RTVSPost2010Prop34
280
     0
102
RTVSPost2010PropOp34
 70
     1
102
RTVSPost2010Prop35
280
     0
102
RTVSPost2010PropOp35
 70
     1
102
RTVSPost2010Prop36
280
     0
102
RTVSPost2010PropOp36
 70
     1
102
RTVSPost2010Prop37
 90
       50
102
RTVSPost2010PropOp37
 70
     1
102
RTVSPost2010Prop38
140
0.0
102
RTVSPost2010PropOp38
 70
     1
102
RTVSPost2010Prop39
140
1.0
102
RTVSPost2010PropOp39
 70
     1
102
RTVSPost2010Prop40
 90
        0
102
RTVSPost2010PropOp40
 70
     1
102
RTVSPost2010Prop41ColorIndex
 90
       18
102
RTVSPost2010Prop41ColorRGB
 90
        0
102
RTVSPost2010PropOp41
 70
     1
102
RTVSPost2010Prop42
 90
       50
102
RTVSPost2010PropOp42
 70
     1
102
RTVSPost2010Prop43
 90
        3
102
RTVSPost2010PropOp43
 70
     1
102
RTVSPost2010Prop44ColorIndex
 90
        5
102
RTVSPost2010Prop44ColorRGB
 90
      255
102
RTVSPost2010PropOp44
 70
     1
102
RTVSPost2010Prop45
280
     0
102
RTVSPost2010PropOp45
 70
     1
102
RTVSPost2010Prop46
 90
       50
102
RTVSPost2010PropOp46
 70
     1
102
RTVSPost2010Prop47
 90
       50
102
RTVSPost2010PropOp47
 70
     1
102
RTVSPost2010Prop48
 90
       50
102
RTVSPost2010PropOp48
 70
     1
102
RTVSPost2010Prop49
280
     0
102
RTVSPost2010PropOp49
 70
     1
102
RTVSPost2010Prop50
 90
       50
102
RTVSPost2010PropOp50
 70
     1
102
RTVSPost2010Prop51ColorIndex
 90
      256
102
RTVSPost2010Prop51ColorRGB
 90
-16777216
102
RTVSPost2010PropOp51
 70
     0
102
RTVSPost2010Prop52
140
1.0
102
RTVSPost2010PropOp52
 70
     0
102
RTVSPost2010Prop53
 90
        2
102
RTVSPost2010PropOp53
 70
     1
102
RTVSPost2010Prop54
  1
strokes_ogs.tif
102
RTVSPost2010PropOp54
 70
     1
102
RTVSPost2010Prop55
280
     0
102
RTVSPost2010PropOp55
 70
     1
102
RTVSPost2010Prop56
140
1.0
102
RTVSPost2010PropOp56
 70
     1
102
RTVSPost2010Prop57
140
1.0
102
RTVSPost2010PropOp57
 70
     1
102
RTVSPropertyOp0
 70
     1
102
RTVSPropertyOp1
 70
     1
102
RTVSPropertyOp2
 70
     1
102
RTVSPropertyOp3
 70
     1
102
RTVSPropertyOp4
 70
     1
102
RTVSPropertyOp5
 70
     1
102
RTVSPropertyOp6
 70
     1
102
RTVSPropertyOp7
 70
     1
102
RTVSPropertyOp8
 70
     1
102
RTVSPropertyOp9
 70
     1
102
RTVSPropertyOp10
 70
     1
102
RTVSPropertyOp11
 70
     1
102
RTVSPropertyOp12
 70
     1
102
RTVSPropertyOp13
 70
     1
102
RTVSPropertyOp14
 70
     1
102
RTVSPropertyOp15
 70
     1
102
RTVSPropertyOp16
 70
     1
102
RTVSPropertyOp17
 70
     1
102
RTVSPropertyOp18
 70
     1
102
RTVSPropertyOp19
 70
     1
102
RTVSPropertyOp20
 70
     1
102
RTVSPropertyOp21
 70
     1
102
RTVSPropertyOp22
 70
     1
102
RTVSPropertyOp23
 70
     1
102
RTVSPropertyOp24
 70
     1
102
RTVSPropertyOp25
 70
     1
102
RTVSPropertyOp26
 70
     1
102
RTVSPropertyOp27
 70
     1
102
RTVSPropertyOp28
 70
     1
102
RTVSPropertyOp29
 70
     1
102
RTVSPropertyOp30
 70
     1
102
RTVSPropertyOp31
 70
     1
102
RTVSPropertyOp32
 70
     1
102
RTVSPropertyOp33
 70
     1
102
RTVSPropertyOp34
 70
     1
102
RTVSPropertyOp35
 70
     1
102
RTVSPropertyOp36
 70
     1
102
RTVSPropertyOp37
 70
     1
102
RTVSPropertyOp38
 70
     1
102
RTVSPropertyOp39
 70
     1
102
RTVSPropertyOp40
 70
     1
102
RTVSPropertyOp41
 70
     1
102
RTVSPropertyOp42
 70
     1
102
RTVSPropertyOp43
 70
     1
102
RTVSPropertyOp44
 70
     1
102
RTVSPropertyOp45
 70
     1
102
RTVSPropertyOp46
 70
     1
102
RTVSPropertyOp47
 70
     1
102
RTVSPropertyOp48
 70
     1
102
RTVSPropertyOp49
 70
     1
102
RTVSPropertyOp50
 70
     1
102
RTVSPropertyOp51
 70
     0
102
RTVSPropertyOp52
 70
     0
102
RTVSPropertyOp53
 70
     1
102
RTVSPropertyOp54
 70
     1
102
RTVSPropertyOp55
 70
     1
102
RTVSPropertyOp56
 70
     1
102
RTVSPropertyOp57
 70
     1
102
RTVSPropertyOp58
 70
     1
102
RTVSPropertyOp59
 70
     1
102
RTVSPropertyOp60
 70
     1
102
RTVSPropertyOp61
 70
     1
102
RTVSPropertyOp62
 70
     1
  0
XRECORD
  5
24C2
102
{ACAD_REACTORS
330
24C1
102
}
330
24C1
100
AcDbXrecord
280
     1
102
RTVSPost2010Prop28
280
     0
102
RTVSPost2010PropOp28
 70
     1
102
RTVSPost2010Prop29
280
     1
102
RTVSPost2010PropOp29
 70
     1
102
RTVSPost2010Prop30
280
     1
102
RTVSPost2010PropOp30
 70
     1
102
RTVSPost2010Prop31
280
     0
102
RTVSPost2010PropOp31
 70
     1
102
RTVSPost2010Prop32
280
     0
102
RTVSPost2010PropOp32
 70
     1
102
RTVSPost2010Prop33
280
     0
102
RTVSPost2010PropOp33
 70
     1
102
RTVSPost2010Prop34
280
     0
102
RTVSPost2010PropOp34
 70
     1
102
RTVSPost2010Prop35
280
     0
102
RTVSPost2010PropOp35
 70
     1
102
RTVSPost2010Prop36
280
     0
102
RTVSPost2010PropOp36
 70
     1
102
RTVSPost2010Prop37
 90
       50
102
RTVSPost2010PropOp37
 70
     1
102
RTVSPost2010Prop38
140
0.0
102
RTVSPost2010PropOp38
 70
     1
102
RTVSPost2010Prop39
140
1.0
102
RTVSPost2010PropOp39
 70
     1
102
RTVSPost2010Prop40
 90
        0
102
RTVSPost2010PropOp40
 70
     1
102
RTVSPost2010Prop41ColorIndex
 90
       18
102
RTVSPost2010Prop41ColorRGB
 90
        0
102
RTVSPost2010PropOp41
 70
     1
102
RTVSPost2010Prop42
 90
       50
102
RTVSPost2010PropOp42
 70
     1
102
RTVSPost2010Prop43
 90
        3
102
RTVSPost2010PropOp43
 70
     1
102
RTVSPost2010Prop44ColorIndex
 90
        5
102
RTVSPost2010Prop44ColorRGB
 90
      255
102
RTVSPost2010PropOp44
 70
     1
102
RTVSPost2010Prop45
280
     0
102
RTVSPost2010PropOp45
 70
     1
102
RTVSPost2010Prop46
 90
       50
102
RTVSPost2010PropOp46
 70
     1
102
RTVSPost2010Prop47
 90
       50
102
RTVSPost2010PropOp47
 70
     1
102
RTVSPost2010Prop48
 90
       50
102
RTVSPost2010PropOp48
 70
     1
102
RTVSPost2010Prop49
280
     0
102
RTVSPost2010PropOp49
 70
     1
102
RTVSPost2010Prop50
 90
       50
102
RTVSPost2010PropOp50
 70
     1
102
RTVSPost2010Prop51ColorIndex
 90
      256
102
RTVSPost2010Prop51ColorRGB
 90
-16777216
102
RTVSPost2010PropOp51
 70
     0
102
RTVSPost2010Prop52
140
1.0
102
RTVSPost2010PropOp52
 70
     0
102
RTVSPost2010Prop53
 90
        2
102
RTVSPost2010PropOp53
 70
     1
102
RTVSPost2010Prop54
  1
strokes_ogs.tif
102
RTVSPost2010PropOp54
 70
     1
102
RTVSPost2010Prop55
280
     0
102
RTVSPost2010PropOp55
 70
     1
102
RTVSPost2010Prop56
140
1.0
102
RTVSPost2010PropOp56
 70
     1
102
RTVSPost2010Prop57
140
1.0
102
RTVSPost2010PropOp57
 70
     1
102
RTVSPropertyOp0
 70
     1
102
RTVSPropertyOp1
 70
     1
102
RTVSPropertyOp2
 70
     1
102
RTVSPropertyOp3
 70
     1
102
RTVSPropertyOp4
 70
     1
102
RTVSPropertyOp5
 70
     1
102
RTVSPropertyOp6
 70
     1
102
RTVSPropertyOp7
 70
     1
102
RTVSPropertyOp8
 70
     1
102
RTVSPropertyOp9
 70
     1
102
RTVSPropertyOp10
 70
     1
102
RTVSPropertyOp11
 70
     1
102
RTVSPropertyOp12
 70
     1
102
RTVSPropertyOp13
 70
     1
102
RTVSPropertyOp14
 70
     1
102
RTVSPropertyOp15
 70
     1
102
RTVSPropertyOp16
 70
     1
102
RTVSPropertyOp17
 70
     1
102
RTVSPropertyOp18
 70
     1
102
RTVSPropertyOp19
 70
     1
102
RTVSPropertyOp20
 70
     1
102
RTVSPropertyOp21
 70
     1
102
RTVSPropertyOp22
 70
     1
102
RTVSPropertyOp23
 70
     1
102
RTVSPropertyOp24
 70
     1
102
RTVSPropertyOp25
 70
     1
102
RTVSPropertyOp26
 70
     1
102
RTVSPropertyOp27
 70
     1
102
RTVSPropertyOp28
 70
     1
102
RTVSPropertyOp29
 70
     1
102
RTVSPropertyOp30
 70
     1
102
RTVSPropertyOp31
 70
     1
102
RTVSPropertyOp32
 70
     1
102
RTVSPropertyOp33
 70
     1
102
RTVSPropertyOp34
 70
     1
102
RTVSPropertyOp35
 70
     1
102
RTVSPropertyOp36
 70
     1
102
RTVSPropertyOp37
 70
     1
102
RTVSPropertyOp38
 70
     1
102
RTVSPropertyOp39
 70
     1
102
RTVSPropertyOp40
 70
     1
102
RTVSPropertyOp41
 70
     1
102
RTVSPropertyOp42
 70
     1
102
RTVSPropertyOp43
 70
     1
102
RTVSPropertyOp44
 70
     1
102
RTVSPropertyOp45
 70
     1
102
RTVSPropertyOp46
 70
     1
102
RTVSPropertyOp47
 70
     1
102
RTVSPropertyOp48
 70
     1
102
RTVSPropertyOp49
 70
     1
102
RTVSPropertyOp50
 70
     1
102
RTVSPropertyOp51
 70
     0
102
RTVSPropertyOp52
 70
     0
102
RTVSPropertyOp53
 70
     1
102
RTVSPropertyOp54
 70
     1
102
RTVSPropertyOp55
 70
     1
102
RTVSPropertyOp56
 70
     1
102
RTVSPropertyOp57
 70
     1
102
RTVSPropertyOp58
 70
     1
102
RTVSPropertyOp59
 70
     1
102
RTVSPropertyOp60
 70
     1
102
RTVSPropertyOp61
 70
     1
102
RTVSPropertyOp62
 70
     1
  0
XRECORD
  5
24CA
102
{ACAD_REACTORS
330
24C9
102
}
330
24C9
100
AcDbXrecord
280
     1
102
RTVSPost2010Prop28
280
     0
102
RTVSPost2010PropOp28
 70
     1
102
RTVSPost2010Prop29
280
     1
102
RTVSPost2010PropOp29
 70
     1
102
RTVSPost2010Prop30
280
     1
102
RTVSPost2010PropOp30
 70
     1
102
RTVSPost2010Prop31
280
     0
102
RTVSPost2010PropOp31
 70
     1
102
RTVSPost2010Prop32
280
     0
102
RTVSPost2010PropOp32
 70
     1
102
RTVSPost2010Prop33
280
     0
102
RTVSPost2010PropOp33
 70
     1
102
RTVSPost2010Prop34
280
     0
102
RTVSPost2010PropOp34
 70
     1
102
RTVSPost2010Prop35
280
     0
102
RTVSPost2010PropOp35
 70
     1
102
RTVSPost2010Prop36
280
     0
102
RTVSPost2010PropOp36
 70
     1
102
RTVSPost2010Prop37
 90
       50
102
RTVSPost2010PropOp37
 70
     1
102
RTVSPost2010Prop38
140
0.0
102
RTVSPost2010PropOp38
 70
     1
102
RTVSPost2010Prop39
140
1.0
102
RTVSPost2010PropOp39
 70
     1
102
RTVSPost2010Prop40
 90
        0
102
RTVSPost2010PropOp40
 70
     1
102
RTVSPost2010Prop41ColorIndex
 90
       18
102
RTVSPost2010Prop41ColorRGB
 90
        0
102
RTVSPost2010PropOp41
 70
     1
102
RTVSPost2010Prop42
 90
       50
102
RTVSPost2010PropOp42
 70
     1
102
RTVSPost2010Prop43
 90
        3
102
RTVSPost2010PropOp43
 70
     1
102
RTVSPost2010Prop44ColorIndex
 90
        5
102
RTVSPost2010Prop44ColorRGB
 90
      255
102
RTVSPost2010PropOp44
 70
     1
102
RTVSPost2010Prop45
280
     0
102
RTVSPost2010PropOp45
 70
     1
102
RTVSPost2010Prop46
 90
       50
102
RTVSPost2010PropOp46
 70
     1
102
RTVSPost2010Prop47
 90
       50
102
RTVSPost2010PropOp47
 70
     1
102
RTVSPost2010Prop48
 90
       50
102
RTVSPost2010PropOp48
 70
     1
102
RTVSPost2010Prop49
280
     0
102
RTVSPost2010PropOp49
 70
     1
102
RTVSPost2010Prop50
 90
       50
102
RTVSPost2010PropOp50
 70
     1
102
RTVSPost2010Prop51ColorIndex
 90
      256
102
RTVSPost2010Prop51ColorRGB
 90
-16777216
102
RTVSPost2010PropOp51
 70
     0
102
RTVSPost2010Prop52
140
1.0
102
RTVSPost2010PropOp52
 70
     0
102
RTVSPost2010Prop53
 90
        2
102
RTVSPost2010PropOp53
 70
     1
102
RTVSPost2010Prop54
  1
strokes_ogs.tif
102
RTVSPost2010PropOp54
 70
     1
102
RTVSPost2010Prop55
280
     0
102
RTVSPost2010PropOp55
 70
     1
102
RTVSPost2010Prop56
140
1.0
102
RTVSPost2010PropOp56
 70
     1
102
RTVSPost2010Prop57
140
1.0
102
RTVSPost2010PropOp57
 70
     1
102
RTVSPropertyOp0
 70
     1
102
RTVSPropertyOp1
 70
     1
102
RTVSPropertyOp2
 70
     1
102
RTVSPropertyOp3
 70
     1
102
RTVSPropertyOp4
 70
     1
102
RTVSPropertyOp5
 70
     1
102
RTVSPropertyOp6
 70
     1
102
RTVSPropertyOp7
 70
     1
102
RTVSPropertyOp8
 70
     1
102
RTVSPropertyOp9
 70
     1
102
RTVSPropertyOp10
 70
     1
102
RTVSPropertyOp11
 70
     1
102
RTVSPropertyOp12
 70
     1
102
RTVSPropertyOp13
 70
     1
102
RTVSPropertyOp14
 70
     1
102
RTVSPropertyOp15
 70
     1
102
RTVSPropertyOp16
 70
     1
102
RTVSPropertyOp17
 70
     1
102
RTVSPropertyOp18
 70
     1
102
RTVSPropertyOp19
 70
     1
102
RTVSPropertyOp20
 70
     1
102
RTVSPropertyOp21
 70
     1
102
RTVSPropertyOp22
 70
     1
102
RTVSPropertyOp23
 70
     1
102
RTVSPropertyOp24
 70
     1
102
RTVSPropertyOp25
 70
     1
102
RTVSPropertyOp26
 70
     1
102
RTVSPropertyOp27
 70
     1
102
RTVSPropertyOp28
 70
     1
102
RTVSPropertyOp29
 70
     1
102
RTVSPropertyOp30
 70
     1
102
RTVSPropertyOp31
 70
     1
102
RTVSPropertyOp32
 70
     1
102
RTVSPropertyOp33
 70
     1
102
RTVSPropertyOp34
 70
     1
102
RTVSPropertyOp35
 70
     1
102
RTVSPropertyOp36
 70
     1
102
RTVSPropertyOp37
 70
     1
102
RTVSPropertyOp38
 70
     1
102
RTVSPropertyOp39
 70
     1
102
RTVSPropertyOp40
 70
     1
102
RTVSPropertyOp41
 70
     1
102
RTVSPropertyOp42
 70
     1
102
RTVSPropertyOp43
 70
     1
102
RTVSPropertyOp44
 70
     1
102
RTVSPropertyOp45
 70
     1
102
RTVSPropertyOp46
 70
     1
102
RTVSPropertyOp47
 70
     1
102
RTVSPropertyOp48
 70
     1
102
RTVSPropertyOp49
 70
     1
102
RTVSPropertyOp50
 70
     1
102
RTVSPropertyOp51
 70
     0
102
RTVSPropertyOp52
 70
     0
102
RTVSPropertyOp53
 70
     1
102
RTVSPropertyOp54
 70
     1
102
RTVSPropertyOp55
 70
     1
102
RTVSPropertyOp56
 70
     1
102
RTVSPropertyOp57
 70
     1
102
RTVSPropertyOp58
 70
     1
102
RTVSPropertyOp59
 70
     1
102
RTVSPropertyOp60
 70
     1
102
RTVSPropertyOp61
 70
     1
102
RTVSPropertyOp62
 70
     1
  0
XRECORD
  5
24E6
102
{ACAD_REACTORS
330
24E5
102
}
330
24E5
100
AcDbXrecord
280
     1
102
RTVSPost2010Prop28
280
     0
102
RTVSPost2010PropOp28
 70
     1
102
RTVSPost2010Prop29
280
     1
102
RTVSPost2010PropOp29
 70
     1
102
RTVSPost2010Prop30
280
     1
102
RTVSPost2010PropOp30
 70
     1
102
RTVSPost2010Prop31
280
     0
102
RTVSPost2010PropOp31
 70
     1
102
RTVSPost2010Prop32
280
     0
102
RTVSPost2010PropOp32
 70
     1
102
RTVSPost2010Prop33
280
     0
102
RTVSPost2010PropOp33
 70
     1
102
RTVSPost2010Prop34
280
     0
102
RTVSPost2010PropOp34
 70
     1
102
RTVSPost2010Prop35
280
     0
102
RTVSPost2010PropOp35
 70
     1
102
RTVSPost2010Prop36
280
     0
102
RTVSPost2010PropOp36
 70
     1
102
RTVSPost2010Prop37
 90
       50
102
RTVSPost2010PropOp37
 70
     0
102
RTVSPost2010Prop38
140
0.0
102
RTVSPost2010PropOp38
 70
     0
102
RTVSPost2010Prop39
140
1.0
102
RTVSPost2010PropOp39
 70
     0
102
RTVSPost2010Prop40
 90
        0
102
RTVSPost2010PropOp40
 70
     0
102
RTVSPost2010Prop41ColorIndex
 90
       18
102
RTVSPost2010Prop41ColorRGB
 90
        0
102
RTVSPost2010PropOp41
 70
     0
102
RTVSPost2010Prop42
 90
       50
102
RTVSPost2010PropOp42
 70
     0
102
RTVSPost2010Prop43
 90
        3
102
RTVSPost2010PropOp43
 70
     0
102
RTVSPost2010Prop44ColorIndex
 90
        5
102
RTVSPost2010Prop44ColorRGB
 90
      255
102
RTVSPost2010PropOp44
 70
     0
102
RTVSPost2010Prop45
280
     0
102
RTVSPost2010PropOp45
 70
     1
102
RTVSPost2010Prop46
 90
       50
102
RTVSPost2010PropOp46
 70
     0
102
RTVSPost2010Prop47
 90
       50
102
RTVSPost2010PropOp47
 70
     0
102
RTVSPost2010Prop48
 90
       50
102
RTVSPost2010PropOp48
 70
     0
102
RTVSPost2010Prop49
280
     0
102
RTVSPost2010PropOp49
 70
     1
102
RTVSPost2010Prop50
 90
       50
102
RTVSPost2010PropOp50
 70
     0
102
RTVSPost2010Prop51ColorIndex
 90
      256
102
RTVSPost2010Prop51ColorRGB
 90
-16777216
102
RTVSPost2010PropOp51
 70
     0
102
RTVSPost2010Prop52
140
1.0
102
RTVSPost2010PropOp52
 70
     0
102
RTVSPost2010Prop53
 90
        2
102
RTVSPost2010PropOp53
 70
     0
102
RTVSPost2010Prop54
  1
strokes_ogs.tif
102
RTVSPost2010PropOp54
 70
     0
102
RTVSPost2010Prop55
280
     0
102
RTVSPost2010PropOp55
 70
     1
102
RTVSPost2010Prop56
140
1.0
102
RTVSPost2010PropOp56
 70
     0
102
RTVSPost2010Prop57
140
1.0
102
RTVSPost2010PropOp57
 70
     0
102
RTVSPropertyOp0
 70
     0
102
RTVSPropertyOp1
 70
     0
102
RTVSPropertyOp2
 70
     0
102
RTVSPropertyOp3
 70
     0
102
RTVSPropertyOp4
 70
     0
102
RTVSPropertyOp5
 70
     0
102
RTVSPropertyOp6
 70
     0
102
RTVSPropertyOp7
 70
     0
102
RTVSPropertyOp8
 70
     0
102
RTVSPropertyOp9
 70
     0
102
RTVSPropertyOp10
 70
     0
102
RTVSPropertyOp11
 70
     0
102
RTVSPropertyOp12
 70
     0
102
RTVSPropertyOp13
 70
     0
102
RTVSPropertyOp14
 70
     2
102
RTVSPropertyOp15
 70
     0
102
RTVSPropertyOp16
 70
     0
102
RTVSPropertyOp17
 70
     0
102
RTVSPropertyOp18
 70
     0
102
RTVSPropertyOp19
 70
     0
102
RTVSPropertyOp20
 70
     0
102
RTVSPropertyOp21
 70
     0
102
RTVSPropertyOp22
 70
     0
102
RTVSPropertyOp23
 70
     0
102
RTVSPropertyOp24
 70
     0
102
RTVSPropertyOp25
 70
     0
102
RTVSPropertyOp26
 70
     0
102
RTVSPropertyOp27
 70
     0
102
RTVSPropertyOp28
 70
     1
102
RTVSPropertyOp29
 70
     1
102
RTVSPropertyOp30
 70
     1
102
RTVSPropertyOp31
 70
     1
102
RTVSPropertyOp32
 70
     1
102
RTVSPropertyOp33
 70
     1
102
RTVSPropertyOp34
 70
     1
102
RTVSPropertyOp35
 70
     1
102
RTVSPropertyOp36
 70
     1
102
RTVSPropertyOp37
 70
     0
102
RTVSPropertyOp38
 70
     0
102
RTVSPropertyOp39
 70
     0
102
RTVSPropertyOp40
 70
     0
102
RTVSPropertyOp41
 70
     0
102
RTVSPropertyOp42
 70
     0
102
RTVSPropertyOp43
 70
     0
102
RTVSPropertyOp44
 70
     0
102
RTVSPropertyOp45
 70
     1
102
RTVSPropertyOp46
 70
     0
102
RTVSPropertyOp47
 70
     0
102
RTVSPropertyOp48
 70
     0
102
RTVSPropertyOp49
 70
     1
102
RTVSPropertyOp50
 70
     0
102
RTVSPropertyOp51
 70
     0
102
RTVSPropertyOp52
 70
     0
102
RTVSPropertyOp53
 70
     0
102
RTVSPropertyOp54
 70
     0
102
RTVSPropertyOp55
 70
     1
102
RTVSPropertyOp56
 70
     0
102
RTVSPropertyOp57
 70
     0
102
RTVSPropertyOp58
 70
     0
102
RTVSPropertyOp59
 70
     0
102
RTVSPropertyOp60
 70
     0
102
RTVSPropertyOp61
 70
     0
102
RTVSPropertyOp62
 70
     0
  0
XRECORD
  5
24D6
102
{ACAD_REACTORS
330
24D5
102
}
330
24D5
100
AcDbXrecord
280
     1
102
RTVSPost2010Prop28
280
     0
102
RTVSPost2010PropOp28
 70
     1
102
RTVSPost2010Prop29
280
     1
102
RTVSPost2010PropOp29
 70
     1
102
RTVSPost2010Prop30
280
     1
102
RTVSPost2010PropOp30
 70
     1
102
RTVSPost2010Prop31
280
     0
102
RTVSPost2010PropOp31
 70
     1
102
RTVSPost2010Prop32
280
     0
102
RTVSPost2010PropOp32
 70
     1
102
RTVSPost2010Prop33
280
     0
102
RTVSPost2010PropOp33
 70
     1
102
RTVSPost2010Prop34
280
     0
102
RTVSPost2010PropOp34
 70
     1
102
RTVSPost2010Prop35
280
     0
102
RTVSPost2010PropOp35
 70
     1
102
RTVSPost2010Prop36
280
     0
102
RTVSPost2010PropOp36
 70
     1
102
RTVSPost2010Prop37
 90
       50
102
RTVSPost2010PropOp37
 70
     1
102
RTVSPost2010Prop38
140
0.0
102
RTVSPost2010PropOp38
 70
     1
102
RTVSPost2010Prop39
140
1.0
102
RTVSPost2010PropOp39
 70
     1
102
RTVSPost2010Prop40
 90
        0
102
RTVSPost2010PropOp40
 70
     1
102
RTVSPost2010Prop41ColorIndex
 90
       18
102
RTVSPost2010Prop41ColorRGB
 90
        0
102
RTVSPost2010PropOp41
 70
     1
102
RTVSPost2010Prop42
 90
       50
102
RTVSPost2010PropOp42
 70
     1
102
RTVSPost2010Prop43
 90
        3
102
RTVSPost2010PropOp43
 70
     1
102
RTVSPost2010Prop44ColorIndex
 90
        5
102
RTVSPost2010Prop44ColorRGB
 90
      255
102
RTVSPost2010PropOp44
 70
     1
102
RTVSPost2010Prop45
280
     0
102
RTVSPost2010PropOp45
 70
     1
102
RTVSPost2010Prop46
 90
       50
102
RTVSPost2010PropOp46
 70
     1
102
RTVSPost2010Prop47
 90
       50
102
RTVSPost2010PropOp47
 70
     1
102
RTVSPost2010Prop48
 90
       50
102
RTVSPost2010PropOp48
 70
     1
102
RTVSPost2010Prop49
280
     0
102
RTVSPost2010PropOp49
 70
     1
102
RTVSPost2010Prop50
 90
       50
102
RTVSPost2010PropOp50
 70
     1
102
RTVSPost2010Prop51ColorIndex
 90
      256
102
RTVSPost2010Prop51ColorRGB
 90
-16777216
102
RTVSPost2010PropOp51
 70
     0
102
RTVSPost2010Prop52
140
1.0
102
RTVSPost2010PropOp52
 70
     0
102
RTVSPost2010Prop53
 90
        2
102
RTVSPost2010PropOp53
 70
     1
102
RTVSPost2010Prop54
  1
strokes_ogs.tif
102
RTVSPost2010PropOp54
 70
     1
102
RTVSPost2010Prop55
280
     0
102
RTVSPost2010PropOp55
 70
     1
102
RTVSPost2010Prop56
140
1.0
102
RTVSPost2010PropOp56
 70
     1
102
RTVSPost2010Prop57
140
1.0
102
RTVSPost2010PropOp57
 70
     1
102
RTVSPropertyOp0
 70
     1
102
RTVSPropertyOp1
 70
     1
102
RTVSPropertyOp2
 70
     1
102
RTVSPropertyOp3
 70
     1
102
RTVSPropertyOp4
 70
     1
102
RTVSPropertyOp5
 70
     1
102
RTVSPropertyOp6
 70
     1
102
RTVSPropertyOp7
 70
     1
102
RTVSPropertyOp8
 70
     1
102
RTVSPropertyOp9
 70
     1
102
RTVSPropertyOp10
 70
     1
102
RTVSPropertyOp11
 70
     1
102
RTVSPropertyOp12
 70
     1
102
RTVSPropertyOp13
 70
     1
102
RTVSPropertyOp14
 70
     1
102
RTVSPropertyOp15
 70
     1
102
RTVSPropertyOp16
 70
     1
102
RTVSPropertyOp17
 70
     1
102
RTVSPropertyOp18
 70
     1
102
RTVSPropertyOp19
 70
     1
102
RTVSPropertyOp20
 70
     1
102
RTVSPropertyOp21
 70
     1
102
RTVSPropertyOp22
 70
     1
102
RTVSPropertyOp23
 70
     1
102
RTVSPropertyOp24
 70
     1
102
RTVSPropertyOp25
 70
     1
102
RTVSPropertyOp26
 70
     1
102
RTVSPropertyOp27
 70
     1
102
RTVSPropertyOp28
 70
     1
102
RTVSPropertyOp29
 70
     1
102
RTVSPropertyOp30
 70
     1
102
RTVSPropertyOp31
 70
     1
102
RTVSPropertyOp32
 70
     1
102
RTVSPropertyOp33
 70
     1
102
RTVSPropertyOp34
 70
     1
102
RTVSPropertyOp35
 70
     1
102
RTVSPropertyOp36
 70
     1
102
RTVSPropertyOp37
 70
     1
102
RTVSPropertyOp38
 70
     1
102
RTVSPropertyOp39
 70
     1
102
RTVSPropertyOp40
 70
     1
102
RTVSPropertyOp41
 70
     1
102
RTVSPropertyOp42
 70
     1
102
RTVSPropertyOp43
 70
     1
102
RTVSPropertyOp44
 70
     1
102
RTVSPropertyOp45
 70
     1
102
RTVSPropertyOp46
 70
     1
102
RTVSPropertyOp47
 70
     1
102
RTVSPropertyOp48
 70
     1
102
RTVSPropertyOp49
 70
     1
102
RTVSPropertyOp50
 70
     1
102
RTVSPropertyOp51
 70
     0
102
RTVSPropertyOp52
 70
     0
102
RTVSPropertyOp53
 70
     1
102
RTVSPropertyOp54
 70
     1
102
RTVSPropertyOp55
 70
     1
102
RTVSPropertyOp56
 70
     1
102
RTVSPropertyOp57
 70
     1
102
RTVSPropertyOp58
 70
     1
102
RTVSPropertyOp59
 70
     1
102
RTVSPropertyOp60
 70
     1
102
RTVSPropertyOp61
 70
     1
102
RTVSPropertyOp62
 70
     1
  0
XRECORD
  5
24E8
102
{ACAD_REACTORS
330
24E7
102
}
330
24E7
100
AcDbXrecord
280
     1
102
RTVSPost2010Prop28
280
     0
102
RTVSPost2010PropOp28
 70
     1
102
RTVSPost2010Prop29
280
     1
102
RTVSPost2010PropOp29
 70
     1
102
RTVSPost2010Prop30
280
     1
102
RTVSPost2010PropOp30
 70
     1
102
RTVSPost2010Prop31
280
     0
102
RTVSPost2010PropOp31
 70
     1
102
RTVSPost2010Prop32
280
     0
102
RTVSPost2010PropOp32
 70
     1
102
RTVSPost2010Prop33
280
     0
102
RTVSPost2010PropOp33
 70
     1
102
RTVSPost2010Prop34
280
     0
102
RTVSPost2010PropOp34
 70
     1
102
RTVSPost2010Prop35
280
     0
102
RTVSPost2010PropOp35
 70
     1
102
RTVSPost2010Prop36
280
     0
102
RTVSPost2010PropOp36
 70
     1
102
RTVSPost2010Prop37
 90
       50
102
RTVSPost2010PropOp37
 70
     0
102
RTVSPost2010Prop38
140
0.0
102
RTVSPost2010PropOp38
 70
     0
102
RTVSPost2010Prop39
140
1.0
102
RTVSPost2010PropOp39
 70
     0
102
RTVSPost2010Prop40
 90
        0
102
RTVSPost2010PropOp40
 70
     0
102
RTVSPost2010Prop41ColorIndex
 90
       18
102
RTVSPost2010Prop41ColorRGB
 90
        0
102
RTVSPost2010PropOp41
 70
     0
102
RTVSPost2010Prop42
 90
       50
102
RTVSPost2010PropOp42
 70
     0
102
RTVSPost2010Prop43
 90
        3
102
RTVSPost2010PropOp43
 70
     0
102
RTVSPost2010Prop44ColorIndex
 90
        5
102
RTVSPost2010Prop44ColorRGB
 90
      255
102
RTVSPost2010PropOp44
 70
     0
102
RTVSPost2010Prop45
280
     0
102
RTVSPost2010PropOp45
 70
     1
102
RTVSPost2010Prop46
 90
       50
102
RTVSPost2010PropOp46
 70
     0
102
RTVSPost2010Prop47
 90
       50
102
RTVSPost2010PropOp47
 70
     0
102
RTVSPost2010Prop48
 90
       50
102
RTVSPost2010PropOp48
 70
     0
102
RTVSPost2010Prop49
280
     0
102
RTVSPost2010PropOp49
 70
     1
102
RTVSPost2010Prop50
 90
       50
102
RTVSPost2010PropOp50
 70
     0
102
RTVSPost2010Prop51ColorIndex
 90
      256
102
RTVSPost2010Prop51ColorRGB
 90
-16777216
102
RTVSPost2010PropOp51
 70
     0
102
RTVSPost2010Prop52
140
1.0
102
RTVSPost2010PropOp52
 70
     0
102
RTVSPost2010Prop53
 90
        2
102
RTVSPost2010PropOp53
 70
     0
102
RTVSPost2010Prop54
  1
strokes_ogs.tif
102
RTVSPost2010PropOp54
 70
     0
102
RTVSPost2010Prop55
280
     0
102
RTVSPost2010PropOp55
 70
     1
102
RTVSPost2010Prop56
140
1.0
102
RTVSPost2010PropOp56
 70
     0
102
RTVSPost2010Prop57
140
1.0
102
RTVSPost2010PropOp57
 70
     0
102
RTVSPropertyOp0
 70
     0
102
RTVSPropertyOp1
 70
     0
102
RTVSPropertyOp2
 70
     0
102
RTVSPropertyOp3
 70
     0
102
RTVSPropertyOp4
 70
     0
102
RTVSPropertyOp5
 70
     0
102
RTVSPropertyOp6
 70
     0
102
RTVSPropertyOp7
 70
     0
102
RTVSPropertyOp8
 70
     0
102
RTVSPropertyOp9
 70
     0
102
RTVSPropertyOp10
 70
     0
102
RTVSPropertyOp11
 70
     0
102
RTVSPropertyOp12
 70
     0
102
RTVSPropertyOp13
 70
     0
102
RTVSPropertyOp14
 70
     2
102
RTVSPropertyOp15
 70
     0
102
RTVSPropertyOp16
 70
     0
102
RTVSPropertyOp17
 70
     0
102
RTVSPropertyOp18
 70
     0
102
RTVSPropertyOp19
 70
     0
102
RTVSPropertyOp20
 70
     0
102
RTVSPropertyOp21
 70
     0
102
RTVSPropertyOp22
 70
     0
102
RTVSPropertyOp23
 70
     0
102
RTVSPropertyOp24
 70
     0
102
RTVSPropertyOp25
 70
     0
102
RTVSPropertyOp26
 70
     0
102
RTVSPropertyOp27
 70
     0
102
RTVSPropertyOp28
 70
     1
102
RTVSPropertyOp29
 70
     1
102
RTVSPropertyOp30
 70
     1
102
RTVSPropertyOp31
 70
     1
102
RTVSPropertyOp32
 70
     1
102
RTVSPropertyOp33
 70
     1
102
RTVSPropertyOp34
 70
     1
102
RTVSPropertyOp35
 70
     1
102
RTVSPropertyOp36
 70
     1
102
RTVSPropertyOp37
 70
     0
102
RTVSPropertyOp38
 70
     0
102
RTVSPropertyOp39
 70
     0
102
RTVSPropertyOp40
 70
     0
102
RTVSPropertyOp41
 70
     0
102
RTVSPropertyOp42
 70
     0
102
RTVSPropertyOp43
 70
     0
102
RTVSPropertyOp44
 70
     0
102
RTVSPropertyOp45
 70
     1
102
RTVSPropertyOp46
 70
     0
102
RTVSPropertyOp47
 70
     0
102
RTVSPropertyOp48
 70
     0
102
RTVSPropertyOp49
 70
     1
102
RTVSPropertyOp50
 70
     0
102
RTVSPropertyOp51
 70
     0
102
RTVSPropertyOp52
 70
     0
102
RTVSPropertyOp53
 70
     0
102
RTVSPropertyOp54
 70
     0
102
RTVSPropertyOp55
 70
     1
102
RTVSPropertyOp56
 70
     0
102
RTVSPropertyOp57
 70
     0
102
RTVSPropertyOp58
 70
     0
102
RTVSPropertyOp59
 70
     0
102
RTVSPropertyOp60
 70
     0
102
RTVSPropertyOp61
 70
     0
102
RTVSPropertyOp62
 70
     0
  0
XRECORD
  5
24CE
102
{ACAD_REACTORS
330
24CD
102
}
330
24CD
100
AcDbXrecord
280
     1
102
RTVSPost2010Prop28
280
     0
102
RTVSPost2010PropOp28
 70
     1
102
RTVSPost2010Prop29
280
     1
102
RTVSPost2010PropOp29
 70
     1
102
RTVSPost2010Prop30
280
     1
102
RTVSPost2010PropOp30
 70
     1
102
RTVSPost2010Prop31
280
     0
102
RTVSPost2010PropOp31
 70
     1
102
RTVSPost2010Prop32
280
     0
102
RTVSPost2010PropOp32
 70
     1
102
RTVSPost2010Prop33
280
     0
102
RTVSPost2010PropOp33
 70
     1
102
RTVSPost2010Prop34
280
     0
102
RTVSPost2010PropOp34
 70
     1
102
RTVSPost2010Prop35
280
     0
102
RTVSPost2010PropOp35
 70
     1
102
RTVSPost2010Prop36
280
     0
102
RTVSPost2010PropOp36
 70
     1
102
RTVSPost2010Prop37
 90
       50
102
RTVSPost2010PropOp37
 70
     1
102
RTVSPost2010Prop38
140
0.0
102
RTVSPost2010PropOp38
 70
     1
102
RTVSPost2010Prop39
140
1.0
102
RTVSPost2010PropOp39
 70
     1
102
RTVSPost2010Prop40
 90
        0
102
RTVSPost2010PropOp40
 70
     1
102
RTVSPost2010Prop41ColorIndex
 90
       18
102
RTVSPost2010Prop41ColorRGB
 90
        0
102
RTVSPost2010PropOp41
 70
     1
102
RTVSPost2010Prop42
 90
       50
102
RTVSPost2010PropOp42
 70
     1
102
RTVSPost2010Prop43
 90
        3
102
RTVSPost2010PropOp43
 70
     1
102
RTVSPost2010Prop44ColorIndex
 90
        5
102
RTVSPost2010Prop44ColorRGB
 90
      255
102
RTVSPost2010PropOp44
 70
     1
102
RTVSPost2010Prop45
280
     0
102
RTVSPost2010PropOp45
 70
     1
102
RTVSPost2010Prop46
 90
       50
102
RTVSPost2010PropOp46
 70
     1
102
RTVSPost2010Prop47
 90
       50
102
RTVSPost2010PropOp47
 70
     1
102
RTVSPost2010Prop48
 90
       50
102
RTVSPost2010PropOp48
 70
     1
102
RTVSPost2010Prop49
280
     0
102
RTVSPost2010PropOp49
 70
     1
102
RTVSPost2010Prop50
 90
       50
102
RTVSPost2010PropOp50
 70
     1
102
RTVSPost2010Prop51ColorIndex
 90
      256
102
RTVSPost2010Prop51ColorRGB
 90
-16777216
102
RTVSPost2010PropOp51
 70
     0
102
RTVSPost2010Prop52
140
1.0
102
RTVSPost2010PropOp52
 70
     0
102
RTVSPost2010Prop53
 90
        2
102
RTVSPost2010PropOp53
 70
     1
102
RTVSPost2010Prop54
  1
strokes_ogs.tif
102
RTVSPost2010PropOp54
 70
     1
102
RTVSPost2010Prop55
280
     0
102
RTVSPost2010PropOp55
 70
     1
102
RTVSPost2010Prop56
140
1.0
102
RTVSPost2010PropOp56
 70
     1
102
RTVSPost2010Prop57
140
1.0
102
RTVSPost2010PropOp57
 70
     1
102
RTVSPropertyOp0
 70
     1
102
RTVSPropertyOp1
 70
     1
102
RTVSPropertyOp2
 70
     1
102
RTVSPropertyOp3
 70
     1
102
RTVSPropertyOp4
 70
     1
102
RTVSPropertyOp5
 70
     1
102
RTVSPropertyOp6
 70
     1
102
RTVSPropertyOp7
 70
     1
102
RTVSPropertyOp8
 70
     1
102
RTVSPropertyOp9
 70
     1
102
RTVSPropertyOp10
 70
     1
102
RTVSPropertyOp11
 70
     1
102
RTVSPropertyOp12
 70
     1
102
RTVSPropertyOp13
 70
     1
102
RTVSPropertyOp14
 70
     1
102
RTVSPropertyOp15
 70
     1
102
RTVSPropertyOp16
 70
     1
102
RTVSPropertyOp17
 70
     1
102
RTVSPropertyOp18
 70
     1
102
RTVSPropertyOp19
 70
     1
102
RTVSPropertyOp20
 70
     1
102
RTVSPropertyOp21
 70
     1
102
RTVSPropertyOp22
 70
     1
102
RTVSPropertyOp23
 70
     1
102
RTVSPropertyOp24
 70
     1
102
RTVSPropertyOp25
 70
     1
102
RTVSPropertyOp26
 70
     1
102
RTVSPropertyOp27
 70
     1
102
RTVSPropertyOp28
 70
     1
102
RTVSPropertyOp29
 70
     1
102
RTVSPropertyOp30
 70
     1
102
RTVSPropertyOp31
 70
     1
102
RTVSPropertyOp32
 70
     1
102
RTVSPropertyOp33
 70
     1
102
RTVSPropertyOp34
 70
     1
102
RTVSPropertyOp35
 70
     1
102
RTVSPropertyOp36
 70
     1
102
RTVSPropertyOp37
 70
     1
102
RTVSPropertyOp38
 70
     1
102
RTVSPropertyOp39
 70
     1
102
RTVSPropertyOp40
 70
     1
102
RTVSPropertyOp41
 70
     1
102
RTVSPropertyOp42
 70
     1
102
RTVSPropertyOp43
 70
     1
102
RTVSPropertyOp44
 70
     1
102
RTVSPropertyOp45
 70
     1
102
RTVSPropertyOp46
 70
     1
102
RTVSPropertyOp47
 70
     1
102
RTVSPropertyOp48
 70
     1
102
RTVSPropertyOp49
 70
     1
102
RTVSPropertyOp50
 70
     1
102
RTVSPropertyOp51
 70
     0
102
RTVSPropertyOp52
 70
     0
102
RTVSPropertyOp53
 70
     1
102
RTVSPropertyOp54
 70
     1
102
RTVSPropertyOp55
 70
     1
102
RTVSPropertyOp56
 70
     1
102
RTVSPropertyOp57
 70
     1
102
RTVSPropertyOp58
 70
     1
102
RTVSPropertyOp59
 70
     1
102
RTVSPropertyOp60
 70
     1
102
RTVSPropertyOp61
 70
     1
102
RTVSPropertyOp62
 70
     1
  0
XRECORD
  5
24E4
102
{ACAD_REACTORS
330
24E3
102
}
330
24E3
100
AcDbXrecord
280
     1
102
RTVSPost2010Prop28
280
     0
102
RTVSPost2010PropOp28
 70
     1
102
RTVSPost2010Prop29
280
     1
102
RTVSPost2010PropOp29
 70
     1
102
RTVSPost2010Prop30
280
     1
102
RTVSPost2010PropOp30
 70
     1
102
RTVSPost2010Prop31
280
     0
102
RTVSPost2010PropOp31
 70
     1
102
RTVSPost2010Prop32
280
     0
102
RTVSPost2010PropOp32
 70
     1
102
RTVSPost2010Prop33
280
     0
102
RTVSPost2010PropOp33
 70
     1
102
RTVSPost2010Prop34
280
     0
102
RTVSPost2010PropOp34
 70
     1
102
RTVSPost2010Prop35
280
     0
102
RTVSPost2010PropOp35
 70
     1
102
RTVSPost2010Prop36
280
     0
102
RTVSPost2010PropOp36
 70
     1
102
RTVSPost2010Prop37
 90
       50
102
RTVSPost2010PropOp37
 70
     1
102
RTVSPost2010Prop38
140
0.0
102
RTVSPost2010PropOp38
 70
     1
102
RTVSPost2010Prop39
140
1.0
102
RTVSPost2010PropOp39
 70
     1
102
RTVSPost2010Prop40
 90
        0
102
RTVSPost2010PropOp40
 70
     1
102
RTVSPost2010Prop41ColorIndex
 90
       18
102
RTVSPost2010Prop41ColorRGB
 90
        0
102
RTVSPost2010PropOp41
 70
     1
102
RTVSPost2010Prop42
 90
       50
102
RTVSPost2010PropOp42
 70
     1
102
RTVSPost2010Prop43
 90
        3
102
RTVSPost2010PropOp43
 70
     1
102
RTVSPost2010Prop44ColorIndex
 90
        5
102
RTVSPost2010Prop44ColorRGB
 90
      255
102
RTVSPost2010PropOp44
 70
     1
102
RTVSPost2010Prop45
280
     0
102
RTVSPost2010PropOp45
 70
     1
102
RTVSPost2010Prop46
 90
       50
102
RTVSPost2010PropOp46
 70
     1
102
RTVSPost2010Prop47
 90
       50
102
RTVSPost2010PropOp47
 70
     1
102
RTVSPost2010Prop48
 90
       50
102
RTVSPost2010PropOp48
 70
     1
102
RTVSPost2010Prop49
280
     0
102
RTVSPost2010PropOp49
 70
     1
102
RTVSPost2010Prop50
 90
       50
102
RTVSPost2010PropOp50
 70
     1
102
RTVSPost2010Prop51ColorIndex
 90
      256
102
RTVSPost2010Prop51ColorRGB
 90
-16777216
102
RTVSPost2010PropOp51
 70
     0
102
RTVSPost2010Prop52
140
1.0
102
RTVSPost2010PropOp52
 70
     0
102
RTVSPost2010Prop53
 90
        2
102
RTVSPost2010PropOp53
 70
     1
102
RTVSPost2010Prop54
  1
strokes_ogs.tif
102
RTVSPost2010PropOp54
 70
     1
102
RTVSPost2010Prop55
280
     0
102
RTVSPost2010PropOp55
 70
     1
102
RTVSPost2010Prop56
140
1.0
102
RTVSPost2010PropOp56
 70
     1
102
RTVSPost2010Prop57
140
1.0
102
RTVSPost2010PropOp57
 70
     1
102
RTVSPropertyOp0
 70
     1
102
RTVSPropertyOp1
 70
     1
102
RTVSPropertyOp2
 70
     1
102
RTVSPropertyOp3
 70
     1
102
RTVSPropertyOp4
 70
     1
102
RTVSPropertyOp5
 70
     1
102
RTVSPropertyOp6
 70
     1
102
RTVSPropertyOp7
 70
     1
102
RTVSPropertyOp8
 70
     1
102
RTVSPropertyOp9
 70
     1
102
RTVSPropertyOp10
 70
     1
102
RTVSPropertyOp11
 70
     1
102
RTVSPropertyOp12
 70
     1
102
RTVSPropertyOp13
 70
     1
102
RTVSPropertyOp14
 70
     1
102
RTVSPropertyOp15
 70
     1
102
RTVSPropertyOp16
 70
     1
102
RTVSPropertyOp17
 70
     1
102
RTVSPropertyOp18
 70
     1
102
RTVSPropertyOp19
 70
     1
102
RTVSPropertyOp20
 70
     1
102
RTVSPropertyOp21
 70
     1
102
RTVSPropertyOp22
 70
     1
102
RTVSPropertyOp23
 70
     1
102
RTVSPropertyOp24
 70
     1
102
RTVSPropertyOp25
 70
     1
102
RTVSPropertyOp26
 70
     1
102
RTVSPropertyOp27
 70
     1
102
RTVSPropertyOp28
 70
     1
102
RTVSPropertyOp29
 70
     1
102
RTVSPropertyOp30
 70
     1
102
RTVSPropertyOp31
 70
     1
102
RTVSPropertyOp32
 70
     1
102
RTVSPropertyOp33
 70
     1
102
RTVSPropertyOp34
 70
     1
102
RTVSPropertyOp35
 70
     1
102
RTVSPropertyOp36
 70
     1
102
RTVSPropertyOp37
 70
     1
102
RTVSPropertyOp38
 70
     1
102
RTVSPropertyOp39
 70
     1
102
RTVSPropertyOp40
 70
     1
102
RTVSPropertyOp41
 70
     1
102
RTVSPropertyOp42
 70
     1
102
RTVSPropertyOp43
 70
     1
102
RTVSPropertyOp44
 70
     1
102
RTVSPropertyOp45
 70
     1
102
RTVSPropertyOp46
 70
     1
102
RTVSPropertyOp47
 70
     1
102
RTVSPropertyOp48
 70
     1
102
RTVSPropertyOp49
 70
     1
102
RTVSPropertyOp50
 70
     1
102
RTVSPropertyOp51
 70
     0
102
RTVSPropertyOp52
 70
     0
102
RTVSPropertyOp53
 70
     1
102
RTVSPropertyOp54
 70
     1
102
RTVSPropertyOp55
 70
     1
102
RTVSPropertyOp56
 70
     1
102
RTVSPropertyOp57
 70
     1
102
RTVSPropertyOp58
 70
     1
102
RTVSPropertyOp59
 70
     1
102
RTVSPropertyOp60
 70
     1
102
RTVSPropertyOp61
 70
     1
102
RTVSPropertyOp62
 70
     1
  0
XRECORD
  5
24E2
102
{ACAD_REACTORS
330
24E1
102
}
330
24E1
100
AcDbXrecord
280
     1
102
RTVSPost2010Prop28
280
     0
102
RTVSPost2010PropOp28
 70
     1
102
RTVSPost2010Prop29
280
     1
102
RTVSPost2010PropOp29
 70
     1
102
RTVSPost2010Prop30
280
     1
102
RTVSPost2010PropOp30
 70
     1
102
RTVSPost2010Prop31
280
     0
102
RTVSPost2010PropOp31
 70
     1
102
RTVSPost2010Prop32
280
     0
102
RTVSPost2010PropOp32
 70
     1
102
RTVSPost2010Prop33
280
     0
102
RTVSPost2010PropOp33
 70
     1
102
RTVSPost2010Prop34
280
     0
102
RTVSPost2010PropOp34
 70
     1
102
RTVSPost2010Prop35
280
     0
102
RTVSPost2010PropOp35
 70
     1
102
RTVSPost2010Prop36
280
     0
102
RTVSPost2010PropOp36
 70
     1
102
RTVSPost2010Prop37
 90
       50
102
RTVSPost2010PropOp37
 70
     1
102
RTVSPost2010Prop38
140
0.0
102
RTVSPost2010PropOp38
 70
     1
102
RTVSPost2010Prop39
140
1.0
102
RTVSPost2010PropOp39
 70
     1
102
RTVSPost2010Prop40
 90
        0
102
RTVSPost2010PropOp40
 70
     1
102
RTVSPost2010Prop41ColorIndex
 90
       18
102
RTVSPost2010Prop41ColorRGB
 90
        0
102
RTVSPost2010PropOp41
 70
     1
102
RTVSPost2010Prop42
 90
       50
102
RTVSPost2010PropOp42
 70
     1
102
RTVSPost2010Prop43
 90
        3
102
RTVSPost2010PropOp43
 70
     1
102
RTVSPost2010Prop44ColorIndex
 90
        5
102
RTVSPost2010Prop44ColorRGB
 90
      255
102
RTVSPost2010PropOp44
 70
     1
102
RTVSPost2010Prop45
280
     0
102
RTVSPost2010PropOp45
 70
     1
102
RTVSPost2010Prop46
 90
       50
102
RTVSPost2010PropOp46
 70
     1
102
RTVSPost2010Prop47
 90
       50
102
RTVSPost2010PropOp47
 70
     1
102
RTVSPost2010Prop48
 90
       50
102
RTVSPost2010PropOp48
 70
     1
102
RTVSPost2010Prop49
280
     0
102
RTVSPost2010PropOp49
 70
     1
102
RTVSPost2010Prop50
 90
       50
102
RTVSPost2010PropOp50
 70
     1
102
RTVSPost2010Prop51ColorIndex
 90
      256
102
RTVSPost2010Prop51ColorRGB
 90
-16777216
102
RTVSPost2010PropOp51
 70
     0
102
RTVSPost2010Prop52
140
1.0
102
RTVSPost2010PropOp52
 70
     0
102
RTVSPost2010Prop53
 90
        2
102
RTVSPost2010PropOp53
 70
     1
102
RTVSPost2010Prop54
  1
strokes_ogs.tif
102
RTVSPost2010PropOp54
 70
     1
102
RTVSPost2010Prop55
280
     0
102
RTVSPost2010PropOp55
 70
     1
102
RTVSPost2010Prop56
140
1.0
102
RTVSPost2010PropOp56
 70
     1
102
RTVSPost2010Prop57
140
1.0
102
RTVSPost2010PropOp57
 70
     1
102
RTVSPropertyOp0
 70
     1
102
RTVSPropertyOp1
 70
     1
102
RTVSPropertyOp2
 70
     1
102
RTVSPropertyOp3
 70
     1
102
RTVSPropertyOp4
 70
     1
102
RTVSPropertyOp5
 70
     1
102
RTVSPropertyOp6
 70
     1
102
RTVSPropertyOp7
 70
     1
102
RTVSPropertyOp8
 70
     1
102
RTVSPropertyOp9
 70
     1
102
RTVSPropertyOp10
 70
     1
102
RTVSPropertyOp11
 70
     1
102
RTVSPropertyOp12
 70
     1
102
RTVSPropertyOp13
 70
     1
102
RTVSPropertyOp14
 70
     1
102
RTVSPropertyOp15
 70
     1
102
RTVSPropertyOp16
 70
     1
102
RTVSPropertyOp17
 70
     1
102
RTVSPropertyOp18
 70
     1
102
RTVSPropertyOp19
 70
     1
102
RTVSPropertyOp20
 70
     1
102
RTVSPropertyOp21
 70
     1
102
RTVSPropertyOp22
 70
     1
102
RTVSPropertyOp23
 70
     1
102
RTVSPropertyOp24
 70
     1
102
RTVSPropertyOp25
 70
     1
102
RTVSPropertyOp26
 70
     1
102
RTVSPropertyOp27
 70
     1
102
RTVSPropertyOp28
 70
     1
102
RTVSPropertyOp29
 70
     1
102
RTVSPropertyOp30
 70
     1
102
RTVSPropertyOp31
 70
     1
102
RTVSPropertyOp32
 70
     1
102
RTVSPropertyOp33
 70
     1
102
RTVSPropertyOp34
 70
     1
102
RTVSPropertyOp35
 70
     1
102
RTVSPropertyOp36
 70
     1
102
RTVSPropertyOp37
 70
     1
102
RTVSPropertyOp38
 70
     1
102
RTVSPropertyOp39
 70
     1
102
RTVSPropertyOp40
 70
     1
102
RTVSPropertyOp41
 70
     1
102
RTVSPropertyOp42
 70
     1
102
RTVSPropertyOp43
 70
     1
102
RTVSPropertyOp44
 70
     1
102
RTVSPropertyOp45
 70
     1
102
RTVSPropertyOp46
 70
     1
102
RTVSPropertyOp47
 70
     1
102
RTVSPropertyOp48
 70
     1
102
RTVSPropertyOp49
 70
     1
102
RTVSPropertyOp50
 70
     1
102
RTVSPropertyOp51
 70
     0
102
RTVSPropertyOp52
 70
     0
102
RTVSPropertyOp53
 70
     1
102
RTVSPropertyOp54
 70
     1
102
RTVSPropertyOp55
 70
     1
102
RTVSPropertyOp56
 70
     1
102
RTVSPropertyOp57
 70
     1
102
RTVSPropertyOp58
 70
     1
102
RTVSPropertyOp59
 70
     1
102
RTVSPropertyOp60
 70
     1
102
RTVSPropertyOp61
 70
     1
102
RTVSPropertyOp62
 70
     1
  0
XRECORD
  5
24DC
102
{ACAD_REACTORS
330
24DB
102
}
330
24DB
100
AcDbXrecord
280
     1
102
RTVSPost2010Prop28
280
     0
102
RTVSPost2010PropOp28
 70
     1
102
RTVSPost2010Prop29
280
     1
102
RTVSPost2010PropOp29
 70
     1
102
RTVSPost2010Prop30
280
     1
102
RTVSPost2010PropOp30
 70
     1
102
RTVSPost2010Prop31
280
     0
102
RTVSPost2010PropOp31
 70
     1
102
RTVSPost2010Prop32
280
     0
102
RTVSPost2010PropOp32
 70
     1
102
RTVSPost2010Prop33
280
     0
102
RTVSPost2010PropOp33
 70
     1
102
RTVSPost2010Prop34
280
     0
102
RTVSPost2010PropOp34
 70
     1
102
RTVSPost2010Prop35
280
     0
102
RTVSPost2010PropOp35
 70
     1
102
RTVSPost2010Prop36
280
     0
102
RTVSPost2010PropOp36
 70
     1
102
RTVSPost2010Prop37
 90
       50
102
RTVSPost2010PropOp37
 70
     1
102
RTVSPost2010Prop38
140
0.0
102
RTVSPost2010PropOp38
 70
     1
102
RTVSPost2010Prop39
140
1.0
102
RTVSPost2010PropOp39
 70
     1
102
RTVSPost2010Prop40
 90
        0
102
RTVSPost2010PropOp40
 70
     1
102
RTVSPost2010Prop41ColorIndex
 90
       18
102
RTVSPost2010Prop41ColorRGB
 90
        0
102
RTVSPost2010PropOp41
 70
     1
102
RTVSPost2010Prop42
 90
       50
102
RTVSPost2010PropOp42
 70
     1
102
RTVSPost2010Prop43
 90
        3
102
RTVSPost2010PropOp43
 70
     1
102
RTVSPost2010Prop44ColorIndex
 90
        5
102
RTVSPost2010Prop44ColorRGB
 90
      255
102
RTVSPost2010PropOp44
 70
     1
102
RTVSPost2010Prop45
280
     0
102
RTVSPost2010PropOp45
 70
     1
102
RTVSPost2010Prop46
 90
       50
102
RTVSPost2010PropOp46
 70
     1
102
RTVSPost2010Prop47
 90
       50
102
RTVSPost2010PropOp47
 70
     1
102
RTVSPost2010Prop48
 90
       50
102
RTVSPost2010PropOp48
 70
     1
102
RTVSPost2010Prop49
280
     0
102
RTVSPost2010PropOp49
 70
     1
102
RTVSPost2010Prop50
 90
       50
102
RTVSPost2010PropOp50
 70
     1
102
RTVSPost2010Prop51ColorIndex
 90
      256
102
RTVSPost2010Prop51ColorRGB
 90
-16777216
102
RTVSPost2010PropOp51
 70
     0
102
RTVSPost2010Prop52
140
1.0
102
RTVSPost2010PropOp52
 70
     0
102
RTVSPost2010Prop53
 90
        2
102
RTVSPost2010PropOp53
 70
     1
102
RTVSPost2010Prop54
  1
strokes_ogs.tif
102
RTVSPost2010PropOp54
 70
     1
102
RTVSPost2010Prop55
280
     0
102
RTVSPost2010PropOp55
 70
     1
102
RTVSPost2010Prop56
140
1.0
102
RTVSPost2010PropOp56
 70
     1
102
RTVSPost2010Prop57
140
1.0
102
RTVSPost2010PropOp57
 70
     1
102
RTVSPropertyOp0
 70
     1
102
RTVSPropertyOp1
 70
     1
102
RTVSPropertyOp2
 70
     1
102
RTVSPropertyOp3
 70
     1
102
RTVSPropertyOp4
 70
     1
102
RTVSPropertyOp5
 70
     1
102
RTVSPropertyOp6
 70
     1
102
RTVSPropertyOp7
 70
     1
102
RTVSPropertyOp8
 70
     1
102
RTVSPropertyOp9
 70
     1
102
RTVSPropertyOp10
 70
     1
102
RTVSPropertyOp11
 70
     1
102
RTVSPropertyOp12
 70
     1
102
RTVSPropertyOp13
 70
     1
102
RTVSPropertyOp14
 70
     1
102
RTVSPropertyOp15
 70
     1
102
RTVSPropertyOp16
 70
     1
102
RTVSPropertyOp17
 70
     1
102
RTVSPropertyOp18
 70
     1
102
RTVSPropertyOp19
 70
     1
102
RTVSPropertyOp20
 70
     1
102
RTVSPropertyOp21
 70
     1
102
RTVSPropertyOp22
 70
     1
102
RTVSPropertyOp23
 70
     1
102
RTVSPropertyOp24
 70
     1
102
RTVSPropertyOp25
 70
     1
102
RTVSPropertyOp26
 70
     1
102
RTVSPropertyOp27
 70
     1
102
RTVSPropertyOp28
 70
     1
102
RTVSPropertyOp29
 70
     1
102
RTVSPropertyOp30
 70
     1
102
RTVSPropertyOp31
 70
     1
102
RTVSPropertyOp32
 70
     1
102
RTVSPropertyOp33
 70
     1
102
RTVSPropertyOp34
 70
     1
102
RTVSPropertyOp35
 70
     1
102
RTVSPropertyOp36
 70
     1
102
RTVSPropertyOp37
 70
     1
102
RTVSPropertyOp38
 70
     1
102
RTVSPropertyOp39
 70
     1
102
RTVSPropertyOp40
 70
     1
102
RTVSPropertyOp41
 70
     1
102
RTVSPropertyOp42
 70
     1
102
RTVSPropertyOp43
 70
     1
102
RTVSPropertyOp44
 70
     1
102
RTVSPropertyOp45
 70
     1
102
RTVSPropertyOp46
 70
     1
102
RTVSPropertyOp47
 70
     1
102
RTVSPropertyOp48
 70
     1
102
RTVSPropertyOp49
 70
     1
102
RTVSPropertyOp50
 70
     1
102
RTVSPropertyOp51
 70
     0
102
RTVSPropertyOp52
 70
     0
102
RTVSPropertyOp53
 70
     1
102
RTVSPropertyOp54
 70
     1
102
RTVSPropertyOp55
 70
     1
102
RTVSPropertyOp56
 70
     1
102
RTVSPropertyOp57
 70
     1
102
RTVSPropertyOp58
 70
     1
102
RTVSPropertyOp59
 70
     1
102
RTVSPropertyOp60
 70
     1
102
RTVSPropertyOp61
 70
     1
102
RTVSPropertyOp62
 70
     1
  0
XRECORD
  5
24DE
102
{ACAD_REACTORS
330
24DD
102
}
330
24DD
100
AcDbXrecord
280
     1
102
RTVSPost2010Prop28
280
     0
102
RTVSPost2010PropOp28
 70
     1
102
RTVSPost2010Prop29
280
     1
102
RTVSPost2010PropOp29
 70
     1
102
RTVSPost2010Prop30
280
     1
102
RTVSPost2010PropOp30
 70
     1
102
RTVSPost2010Prop31
280
     0
102
RTVSPost2010PropOp31
 70
     1
102
RTVSPost2010Prop32
280
     0
102
RTVSPost2010PropOp32
 70
     1
102
RTVSPost2010Prop33
280
     0
102
RTVSPost2010PropOp33
 70
     1
102
RTVSPost2010Prop34
280
     0
102
RTVSPost2010PropOp34
 70
     1
102
RTVSPost2010Prop35
280
     0
102
RTVSPost2010PropOp35
 70
     1
102
RTVSPost2010Prop36
280
     0
102
RTVSPost2010PropOp36
 70
     1
102
RTVSPost2010Prop37
 90
       50
102
RTVSPost2010PropOp37
 70
     1
102
RTVSPost2010Prop38
140
0.0
102
RTVSPost2010PropOp38
 70
     1
102
RTVSPost2010Prop39
140
1.0
102
RTVSPost2010PropOp39
 70
     1
102
RTVSPost2010Prop40
 90
        0
102
RTVSPost2010PropOp40
 70
     1
102
RTVSPost2010Prop41ColorIndex
 90
       18
102
RTVSPost2010Prop41ColorRGB
 90
        0
102
RTVSPost2010PropOp41
 70
     1
102
RTVSPost2010Prop42
 90
       50
102
RTVSPost2010PropOp42
 70
     1
102
RTVSPost2010Prop43
 90
        3
102
RTVSPost2010PropOp43
 70
     1
102
RTVSPost2010Prop44ColorIndex
 90
        5
102
RTVSPost2010Prop44ColorRGB
 90
      255
102
RTVSPost2010PropOp44
 70
     1
102
RTVSPost2010Prop45
280
     0
102
RTVSPost2010PropOp45
 70
     1
102
RTVSPost2010Prop46
 90
       50
102
RTVSPost2010PropOp46
 70
     1
102
RTVSPost2010Prop47
 90
       50
102
RTVSPost2010PropOp47
 70
     1
102
RTVSPost2010Prop48
 90
       50
102
RTVSPost2010PropOp48
 70
     1
102
RTVSPost2010Prop49
280
     0
102
RTVSPost2010PropOp49
 70
     1
102
RTVSPost2010Prop50
 90
       50
102
RTVSPost2010PropOp50
 70
     1
102
RTVSPost2010Prop51ColorIndex
 90
      256
102
RTVSPost2010Prop51ColorRGB
 90
-16777216
102
RTVSPost2010PropOp51
 70
     0
102
RTVSPost2010Prop52
140
1.0
102
RTVSPost2010PropOp52
 70
     0
102
RTVSPost2010Prop53
 90
        2
102
RTVSPost2010PropOp53
 70
     1
102
RTVSPost2010Prop54
  1
strokes_ogs.tif
102
RTVSPost2010PropOp54
 70
     1
102
RTVSPost2010Prop55
280
     0
102
RTVSPost2010PropOp55
 70
     1
102
RTVSPost2010Prop56
140
1.0
102
RTVSPost2010PropOp56
 70
     1
102
RTVSPost2010Prop57
140
1.0
102
RTVSPost2010PropOp57
 70
     1
102
RTVSPropertyOp0
 70
     1
102
RTVSPropertyOp1
 70
     1
102
RTVSPropertyOp2
 70
     1
102
RTVSPropertyOp3
 70
     1
102
RTVSPropertyOp4
 70
     1
102
RTVSPropertyOp5
 70
     1
102
RTVSPropertyOp6
 70
     1
102
RTVSPropertyOp7
 70
     1
102
RTVSPropertyOp8
 70
     1
102
RTVSPropertyOp9
 70
     1
102
RTVSPropertyOp10
 70
     1
102
RTVSPropertyOp11
 70
     1
102
RTVSPropertyOp12
 70
     1
102
RTVSPropertyOp13
 70
     1
102
RTVSPropertyOp14
 70
     1
102
RTVSPropertyOp15
 70
     1
102
RTVSPropertyOp16
 70
     1
102
RTVSPropertyOp17
 70
     1
102
RTVSPropertyOp18
 70
     1
102
RTVSPropertyOp19
 70
     1
102
RTVSPropertyOp20
 70
     1
102
RTVSPropertyOp21
 70
     1
102
RTVSPropertyOp22
 70
     1
102
RTVSPropertyOp23
 70
     1
102
RTVSPropertyOp24
 70
     1
102
RTVSPropertyOp25
 70
     1
102
RTVSPropertyOp26
 70
     1
102
RTVSPropertyOp27
 70
     1
102
RTVSPropertyOp28
 70
     1
102
RTVSPropertyOp29
 70
     1
102
RTVSPropertyOp30
 70
     1
102
RTVSPropertyOp31
 70
     1
102
RTVSPropertyOp32
 70
     1
102
RTVSPropertyOp33
 70
     1
102
RTVSPropertyOp34
 70
     1
102
RTVSPropertyOp35
 70
     1
102
RTVSPropertyOp36
 70
     1
102
RTVSPropertyOp37
 70
     1
102
RTVSPropertyOp38
 70
     1
102
RTVSPropertyOp39
 70
     1
102
RTVSPropertyOp40
 70
     1
102
RTVSPropertyOp41
 70
     1
102
RTVSPropertyOp42
 70
     1
102
RTVSPropertyOp43
 70
     1
102
RTVSPropertyOp44
 70
     1
102
RTVSPropertyOp45
 70
     1
102
RTVSPropertyOp46
 70
     1
102
RTVSPropertyOp47
 70
     1
102
RTVSPropertyOp48
 70
     1
102
RTVSPropertyOp49
 70
     1
102
RTVSPropertyOp50
 70
     1
102
RTVSPropertyOp51
 70
     0
102
RTVSPropertyOp52
 70
     0
102
RTVSPropertyOp53
 70
     1
102
RTVSPropertyOp54
 70
     1
102
RTVSPropertyOp55
 70
     1
102
RTVSPropertyOp56
 70
     1
102
RTVSPropertyOp57
 70
     1
102
RTVSPropertyOp58
 70
     1
102
RTVSPropertyOp59
 70
     1
102
RTVSPropertyOp60
 70
     1
102
RTVSPropertyOp61
 70
     1
102
RTVSPropertyOp62
 70
     1
  0
XRECORD
  5
24D4
102
{ACAD_REACTORS
330
24D3
102
}
330
24D3
100
AcDbXrecord
280
     1
102
RTVSPost2010Prop28
280
     0
102
RTVSPost2010PropOp28
 70
     1
102
RTVSPost2010Prop29
280
     1
102
RTVSPost2010PropOp29
 70
     1
102
RTVSPost2010Prop30
280
     1
102
RTVSPost2010PropOp30
 70
     1
102
RTVSPost2010Prop31
280
     0
102
RTVSPost2010PropOp31
 70
     1
102
RTVSPost2010Prop32
280
     0
102
RTVSPost2010PropOp32
 70
     1
102
RTVSPost2010Prop33
280
     0
102
RTVSPost2010PropOp33
 70
     1
102
RTVSPost2010Prop34
280
     0
102
RTVSPost2010PropOp34
 70
     1
102
RTVSPost2010Prop35
280
     0
102
RTVSPost2010PropOp35
 70
     1
102
RTVSPost2010Prop36
280
     0
102
RTVSPost2010PropOp36
 70
     1
102
RTVSPost2010Prop37
 90
       50
102
RTVSPost2010PropOp37
 70
     1
102
RTVSPost2010Prop38
140
0.0
102
RTVSPost2010PropOp38
 70
     1
102
RTVSPost2010Prop39
140
1.0
102
RTVSPost2010PropOp39
 70
     1
102
RTVSPost2010Prop40
 90
        0
102
RTVSPost2010PropOp40
 70
     1
102
RTVSPost2010Prop41ColorIndex
 90
       18
102
RTVSPost2010Prop41ColorRGB
 90
        0
102
RTVSPost2010PropOp41
 70
     1
102
RTVSPost2010Prop42
 90
       50
102
RTVSPost2010PropOp42
 70
     1
102
RTVSPost2010Prop43
 90
        3
102
RTVSPost2010PropOp43
 70
     1
102
RTVSPost2010Prop44ColorIndex
 90
        5
102
RTVSPost2010Prop44ColorRGB
 90
      255
102
RTVSPost2010PropOp44
 70
     1
102
RTVSPost2010Prop45
280
     0
102
RTVSPost2010PropOp45
 70
     1
102
RTVSPost2010Prop46
 90
       50
102
RTVSPost2010PropOp46
 70
     1
102
RTVSPost2010Prop47
 90
       50
102
RTVSPost2010PropOp47
 70
     1
102
RTVSPost2010Prop48
 90
       50
102
RTVSPost2010PropOp48
 70
     1
102
RTVSPost2010Prop49
280
     0
102
RTVSPost2010PropOp49
 70
     1
102
RTVSPost2010Prop50
 90
       50
102
RTVSPost2010PropOp50
 70
     1
102
RTVSPost2010Prop51ColorIndex
 90
      256
102
RTVSPost2010Prop51ColorRGB
 90
-16777216
102
RTVSPost2010PropOp51
 70
     0
102
RTVSPost2010Prop52
140
1.0
102
RTVSPost2010PropOp52
 70
     0
102
RTVSPost2010Prop53
 90
        2
102
RTVSPost2010PropOp53
 70
     1
102
RTVSPost2010Prop54
  1
strokes_ogs.tif
102
RTVSPost2010PropOp54
 70
     1
102
RTVSPost2010Prop55
280
     0
102
RTVSPost2010PropOp55
 70
     1
102
RTVSPost2010Prop56
140
1.0
102
RTVSPost2010PropOp56
 70
     1
102
RTVSPost2010Prop57
140
1.0
102
RTVSPost2010PropOp57
 70
     1
102
RTVSPropertyOp0
 70
     1
102
RTVSPropertyOp1
 70
     1
102
RTVSPropertyOp2
 70
     1
102
RTVSPropertyOp3
 70
     1
102
RTVSPropertyOp4
 70
     1
102
RTVSPropertyOp5
 70
     1
102
RTVSPropertyOp6
 70
     1
102
RTVSPropertyOp7
 70
     1
102
RTVSPropertyOp8
 70
     1
102
RTVSPropertyOp9
 70
     1
102
RTVSPropertyOp10
 70
     1
102
RTVSPropertyOp11
 70
     1
102
RTVSPropertyOp12
 70
     1
102
RTVSPropertyOp13
 70
     1
102
RTVSPropertyOp14
 70
     1
102
RTVSPropertyOp15
 70
     1
102
RTVSPropertyOp16
 70
     1
102
RTVSPropertyOp17
 70
     1
102
RTVSPropertyOp18
 70
     1
102
RTVSPropertyOp19
 70
     1
102
RTVSPropertyOp20
 70
     1
102
RTVSPropertyOp21
 70
     1
102
RTVSPropertyOp22
 70
     1
102
RTVSPropertyOp23
 70
     1
102
RTVSPropertyOp24
 70
     1
102
RTVSPropertyOp25
 70
     1
102
RTVSPropertyOp26
 70
     1
102
RTVSPropertyOp27
 70
     1
102
RTVSPropertyOp28
 70
     1
102
RTVSPropertyOp29
 70
     1
102
RTVSPropertyOp30
 70
     1
102
RTVSPropertyOp31
 70
     1
102
RTVSPropertyOp32
 70
     1
102
RTVSPropertyOp33
 70
     1
102
RTVSPropertyOp34
 70
     1
102
RTVSPropertyOp35
 70
     1
102
RTVSPropertyOp36
 70
     1
102
RTVSPropertyOp37
 70
     1
102
RTVSPropertyOp38
 70
     1
102
RTVSPropertyOp39
 70
     1
102
RTVSPropertyOp40
 70
     1
102
RTVSPropertyOp41
 70
     1
102
RTVSPropertyOp42
 70
     1
102
RTVSPropertyOp43
 70
     1
102
RTVSPropertyOp44
 70
     1
102
RTVSPropertyOp45
 70
     1
102
RTVSPropertyOp46
 70
     1
102
RTVSPropertyOp47
 70
     1
102
RTVSPropertyOp48
 70
     1
102
RTVSPropertyOp49
 70
     1
102
RTVSPropertyOp50
 70
     1
102
RTVSPropertyOp51
 70
     0
102
RTVSPropertyOp52
 70
     0
102
RTVSPropertyOp53
 70
     1
102
RTVSPropertyOp54
 70
     1
102
RTVSPropertyOp55
 70
     1
102
RTVSPropertyOp56
 70
     1
102
RTVSPropertyOp57
 70
     1
102
RTVSPropertyOp58
 70
     1
102
RTVSPropertyOp59
 70
     1
102
RTVSPropertyOp60
 70
     1
102
RTVSPropertyOp61
 70
     1
102
RTVSPropertyOp62
 70
     1
  0
XRECORD
  5
24C8
102
{ACAD_REACTORS
330
24C7
102
}
330
24C7
100
AcDbXrecord
280
     1
102
RTVSPost2010Prop28
280
     0
102
RTVSPost2010PropOp28
 70
     1
102
RTVSPost2010Prop29
280
     1
102
RTVSPost2010PropOp29
 70
     1
102
RTVSPost2010Prop30
280
     1
102
RTVSPost2010PropOp30
 70
     1
102
RTVSPost2010Prop31
280
     0
102
RTVSPost2010PropOp31
 70
     1
102
RTVSPost2010Prop32
280
     0
102
RTVSPost2010PropOp32
 70
     1
102
RTVSPost2010Prop33
280
     0
102
RTVSPost2010PropOp33
 70
     1
102
RTVSPost2010Prop34
280
     0
102
RTVSPost2010PropOp34
 70
     1
102
RTVSPost2010Prop35
280
     0
102
RTVSPost2010PropOp35
 70
     1
102
RTVSPost2010Prop36
280
     0
102
RTVSPost2010PropOp36
 70
     1
102
RTVSPost2010Prop37
 90
       50
102
RTVSPost2010PropOp37
 70
     1
102
RTVSPost2010Prop38
140
0.0
102
RTVSPost2010PropOp38
 70
     1
102
RTVSPost2010Prop39
140
1.0
102
RTVSPost2010PropOp39
 70
     1
102
RTVSPost2010Prop40
 90
        0
102
RTVSPost2010PropOp40
 70
     1
102
RTVSPost2010Prop41ColorIndex
 90
       18
102
RTVSPost2010Prop41ColorRGB
 90
        0
102
RTVSPost2010PropOp41
 70
     1
102
RTVSPost2010Prop42
 90
       50
102
RTVSPost2010PropOp42
 70
     1
102
RTVSPost2010Prop43
 90
        3
102
RTVSPost2010PropOp43
 70
     1
102
RTVSPost2010Prop44ColorIndex
 90
        5
102
RTVSPost2010Prop44ColorRGB
 90
      255
102
RTVSPost2010PropOp44
 70
     1
102
RTVSPost2010Prop45
280
     0
102
RTVSPost2010PropOp45
 70
     1
102
RTVSPost2010Prop46
 90
       50
102
RTVSPost2010PropOp46
 70
     1
102
RTVSPost2010Prop47
 90
       50
102
RTVSPost2010PropOp47
 70
     1
102
RTVSPost2010Prop48
 90
       50
102
RTVSPost2010PropOp48
 70
     1
102
RTVSPost2010Prop49
280
     0
102
RTVSPost2010PropOp49
 70
     1
102
RTVSPost2010Prop50
 90
       50
102
RTVSPost2010PropOp50
 70
     1
102
RTVSPost2010Prop51ColorIndex
 90
      256
102
RTVSPost2010Prop51ColorRGB
 90
-16777216
102
RTVSPost2010PropOp51
 70
     0
102
RTVSPost2010Prop52
140
1.0
102
RTVSPost2010PropOp52
 70
     0
102
RTVSPost2010Prop53
 90
        2
102
RTVSPost2010PropOp53
 70
     1
102
RTVSPost2010Prop54
  1
strokes_ogs.tif
102
RTVSPost2010PropOp54
 70
     1
102
RTVSPost2010Prop55
280
     0
102
RTVSPost2010PropOp55
 70
     1
102
RTVSPost2010Prop56
140
1.0
102
RTVSPost2010PropOp56
 70
     1
102
RTVSPost2010Prop57
140
1.0
102
RTVSPost2010PropOp57
 70
     1
102
RTVSPropertyOp0
 70
     1
102
RTVSPropertyOp1
 70
     1
102
RTVSPropertyOp2
 70
     1
102
RTVSPropertyOp3
 70
     1
102
RTVSPropertyOp4
 70
     1
102
RTVSPropertyOp5
 70
     1
102
RTVSPropertyOp6
 70
     1
102
RTVSPropertyOp7
 70
     1
102
RTVSPropertyOp8
 70
     1
102
RTVSPropertyOp9
 70
     1
102
RTVSPropertyOp10
 70
     1
102
RTVSPropertyOp11
 70
     1
102
RTVSPropertyOp12
 70
     1
102
RTVSPropertyOp13
 70
     1
102
RTVSPropertyOp14
 70
     1
102
RTVSPropertyOp15
 70
     1
102
RTVSPropertyOp16
 70
     1
102
RTVSPropertyOp17
 70
     1
102
RTVSPropertyOp18
 70
     1
102
RTVSPropertyOp19
 70
     1
102
RTVSPropertyOp20
 70
     1
102
RTVSPropertyOp21
 70
     1
102
RTVSPropertyOp22
 70
     1
102
RTVSPropertyOp23
 70
     1
102
RTVSPropertyOp24
 70
     1
102
RTVSPropertyOp25
 70
     1
102
RTVSPropertyOp26
 70
     1
102
RTVSPropertyOp27
 70
     1
102
RTVSPropertyOp28
 70
     1
102
RTVSPropertyOp29
 70
     1
102
RTVSPropertyOp30
 70
     1
102
RTVSPropertyOp31
 70
     1
102
RTVSPropertyOp32
 70
     1
102
RTVSPropertyOp33
 70
     1
102
RTVSPropertyOp34
 70
     1
102
RTVSPropertyOp35
 70
     1
102
RTVSPropertyOp36
 70
     1
102
RTVSPropertyOp37
 70
     1
102
RTVSPropertyOp38
 70
     1
102
RTVSPropertyOp39
 70
     1
102
RTVSPropertyOp40
 70
     1
102
RTVSPropertyOp41
 70
     1
102
RTVSPropertyOp42
 70
     1
102
RTVSPropertyOp43
 70
     1
102
RTVSPropertyOp44
 70
     1
102
RTVSPropertyOp45
 70
     1
102
RTVSPropertyOp46
 70
     1
102
RTVSPropertyOp47
 70
     1
102
RTVSPropertyOp48
 70
     1
102
RTVSPropertyOp49
 70
     1
102
RTVSPropertyOp50
 70
     1
102
RTVSPropertyOp51
 70
     0
102
RTVSPropertyOp52
 70
     0
102
RTVSPropertyOp53
 70
     1
102
RTVSPropertyOp54
 70
     1
102
RTVSPropertyOp55
 70
     1
102
RTVSPropertyOp56
 70
     1
102
RTVSPropertyOp57
 70
     1
102
RTVSPropertyOp58
 70
     1
102
RTVSPropertyOp59
 70
     1
102
RTVSPropertyOp60
 70
     1
102
RTVSPropertyOp61
 70
     1
102
RTVSPropertyOp62
 70
     1
  0
XRECORD
  5
24E0
102
{ACAD_REACTORS
330
24DF
102
}
330
24DF
100
AcDbXrecord
280
     1
102
RTVSPost2010Prop28
280
     0
102
RTVSPost2010PropOp28
 70
     1
102
RTVSPost2010Prop29
280
     1
102
RTVSPost2010PropOp29
 70
     1
102
RTVSPost2010Prop30
280
     1
102
RTVSPost2010PropOp30
 70
     1
102
RTVSPost2010Prop31
280
     0
102
RTVSPost2010PropOp31
 70
     1
102
RTVSPost2010Prop32
280
     0
102
RTVSPost2010PropOp32
 70
     1
102
RTVSPost2010Prop33
280
     0
102
RTVSPost2010PropOp33
 70
     1
102
RTVSPost2010Prop34
280
     0
102
RTVSPost2010PropOp34
 70
     1
102
RTVSPost2010Prop35
280
     0
102
RTVSPost2010PropOp35
 70
     1
102
RTVSPost2010Prop36
280
     0
102
RTVSPost2010PropOp36
 70
     1
102
RTVSPost2010Prop37
 90
       50
102
RTVSPost2010PropOp37
 70
     1
102
RTVSPost2010Prop38
140
0.0
102
RTVSPost2010PropOp38
 70
     1
102
RTVSPost2010Prop39
140
1.0
102
RTVSPost2010PropOp39
 70
     1
102
RTVSPost2010Prop40
 90
        0
102
RTVSPost2010PropOp40
 70
     1
102
RTVSPost2010Prop41ColorIndex
 90
       18
102
RTVSPost2010Prop41ColorRGB
 90
        0
102
RTVSPost2010PropOp41
 70
     1
102
RTVSPost2010Prop42
 90
       50
102
RTVSPost2010PropOp42
 70
     1
102
RTVSPost2010Prop43
 90
        3
102
RTVSPost2010PropOp43
 70
     1
102
RTVSPost2010Prop44ColorIndex
 90
        5
102
RTVSPost2010Prop44ColorRGB
 90
      255
102
RTVSPost2010PropOp44
 70
     1
102
RTVSPost2010Prop45
280
     0
102
RTVSPost2010PropOp45
 70
     1
102
RTVSPost2010Prop46
 90
       50
102
RTVSPost2010PropOp46
 70
     1
102
RTVSPost2010Prop47
 90
       50
102
RTVSPost2010PropOp47
 70
     1
102
RTVSPost2010Prop48
 90
       50
102
RTVSPost2010PropOp48
 70
     1
102
RTVSPost2010Prop49
280
     0
102
RTVSPost2010PropOp49
 70
     1
102
RTVSPost2010Prop50
 90
       50
102
RTVSPost2010PropOp50
 70
     1
102
RTVSPost2010Prop51ColorIndex
 90
      256
102
RTVSPost2010Prop51ColorRGB
 90
-16777216
102
RTVSPost2010PropOp51
 70
     0
102
RTVSPost2010Prop52
140
1.0
102
RTVSPost2010PropOp52
 70
     0
102
RTVSPost2010Prop53
 90
        2
102
RTVSPost2010PropOp53
 70
     1
102
RTVSPost2010Prop54
  1
strokes_ogs.tif
102
RTVSPost2010PropOp54
 70
     1
102
RTVSPost2010Prop55
280
     0
102
RTVSPost2010PropOp55
 70
     1
102
RTVSPost2010Prop56
140
1.0
102
RTVSPost2010PropOp56
 70
     1
102
RTVSPost2010Prop57
140
1.0
102
RTVSPost2010PropOp57
 70
     1
102
RTVSPropertyOp0
 70
     1
102
RTVSPropertyOp1
 70
     1
102
RTVSPropertyOp2
 70
     1
102
RTVSPropertyOp3
 70
     1
102
RTVSPropertyOp4
 70
     1
102
RTVSPropertyOp5
 70
     1
102
RTVSPropertyOp6
 70
     1
102
RTVSPropertyOp7
 70
     1
102
RTVSPropertyOp8
 70
     1
102
RTVSPropertyOp9
 70
     1
102
RTVSPropertyOp10
 70
     1
102
RTVSPropertyOp11
 70
     1
102
RTVSPropertyOp12
 70
     1
102
RTVSPropertyOp13
 70
     1
102
RTVSPropertyOp14
 70
     1
102
RTVSPropertyOp15
 70
     1
102
RTVSPropertyOp16
 70
     1
102
RTVSPropertyOp17
 70
     1
102
RTVSPropertyOp18
 70
     1
102
RTVSPropertyOp19
 70
     1
102
RTVSPropertyOp20
 70
     1
102
RTVSPropertyOp21
 70
     1
102
RTVSPropertyOp22
 70
     1
102
RTVSPropertyOp23
 70
     1
102
RTVSPropertyOp24
 70
     1
102
RTVSPropertyOp25
 70
     1
102
RTVSPropertyOp26
 70
     1
102
RTVSPropertyOp27
 70
     1
102
RTVSPropertyOp28
 70
     1
102
RTVSPropertyOp29
 70
     1
102
RTVSPropertyOp30
 70
     1
102
RTVSPropertyOp31
 70
     1
102
RTVSPropertyOp32
 70
     1
102
RTVSPropertyOp33
 70
     1
102
RTVSPropertyOp34
 70
     1
102
RTVSPropertyOp35
 70
     1
102
RTVSPropertyOp36
 70
     1
102
RTVSPropertyOp37
 70
     1
102
RTVSPropertyOp38
 70
     1
102
RTVSPropertyOp39
 70
     1
102
RTVSPropertyOp40
 70
     1
102
RTVSPropertyOp41
 70
     1
102
RTVSPropertyOp42
 70
     1
102
RTVSPropertyOp43
 70
     1
102
RTVSPropertyOp44
 70
     1
102
RTVSPropertyOp45
 70
     1
102
RTVSPropertyOp46
 70
     1
102
RTVSPropertyOp47
 70
     1
102
RTVSPropertyOp48
 70
     1
102
RTVSPropertyOp49
 70
     1
102
RTVSPropertyOp50
 70
     1
102
RTVSPropertyOp51
 70
     0
102
RTVSPropertyOp52
 70
     0
102
RTVSPropertyOp53
 70
     1
102
RTVSPropertyOp54
 70
     1
102
RTVSPropertyOp55
 70
     1
102
RTVSPropertyOp56
 70
     1
102
RTVSPropertyOp57
 70
     1
102
RTVSPropertyOp58
 70
     1
102
RTVSPropertyOp59
 70
     1
102
RTVSPropertyOp60
 70
     1
102
RTVSPropertyOp61
 70
     1
102
RTVSPropertyOp62
 70
     1
  0
ENDSEC
  0
EOF
