ISO-10303-21;
HEADER;
FILE_DESCRIPTION (( 'STEP AP214' ),
    '1' );
FILE_NAME ('THA_335_2_F.STEP',
    '2017-02-14T02:26:43',
    ( '' ),
    ( '' ),
    'SwSTEP 2.0',
    'SolidWorks 2015',
    '' );
FILE_SCHEMA (( 'AUTOMOTIVE_DESIGN' ));
ENDSEC;

DATA;
#1 = SHAPE_REPRESENTATION ( 'a', ( #268 ), #285 ) ;
#2 = CIRCLE ( 'NONE', #43, 10.00000000000000200 ) ;
#3 =( LENGTH_UNIT ( ) NAMED_UNIT ( * ) SI_UNIT ( .MILLI., .METRE. ) );
#4 = EDGE_LOOP ( 'NONE', ( #301, #132 ) ) ;
#5 = CARTESIAN_POINT ( 'NONE',  ( 0.0000000000000000000, 0.0000000000000000000, 0.0000000000000000000 ) ) ;
#6 = SURFACE_STYLE_FILL_AREA ( #237 ) ;
#7 = SHAPE_REPRESENTATION_RELATIONSHIP ( 'NONE' , 'NONE' ,  #1, #63 ) ;
#8 = AXIS2_PLACEMENT_3D ( 'NONE', #155, #362, #187 ) ;
#9 = EDGE_CURVE ( 'NONE', #289, #209, #205, .T. ) ;
#10 = ORIENTED_EDGE ( 'NONE', *, *, #274, .F. ) ;
#11 = VECTOR ( 'NONE', #98, 1000.000000000000000 ) ;
#12 = CARTESIAN_POINT ( 'NONE',  ( -35.50000000002960800, 5.692960402886251300E-014, 0.0000000000000000000 ) ) ;
#13 = CARTESIAN_POINT ( 'NONE',  ( -25.50000000002960100, 5.692960402886251300E-014, 20.99999999999999600 ) ) ;
#14 = DIRECTION ( 'NONE',  ( 0.0000000000000000000, 1.000000000000000000, 0.0000000000000000000 ) ) ;
#15 = VECTOR ( 'NONE', #127, 1000.000000000000000 ) ;
#16 = AXIS2_PLACEMENT_3D ( 'NONE', #65, #253, #34 ) ;
#17 = PLANE ( 'NONE',  #369 ) ;
#18 = CYLINDRICAL_SURFACE ( 'NONE', #105, 4.499999999999997300 ) ;
#19 = APPLICATION_PROTOCOL_DEFINITION ( 'draft international standard', 'automotive_design', 1998, #255 ) ;
#20 = DIRECTION ( 'NONE',  ( 1.000000000000000000, 0.0000000000000000000, 0.0000000000000000000 ) ) ;
#21 = DIRECTION ( 'NONE',  ( 0.0000000000000000000, 1.000000000000000000, 0.0000000000000000000 ) ) ;
#22 = ORIENTED_EDGE ( 'NONE', *, *, #90, .F. ) ;
#23 = EDGE_CURVE ( 'NONE', #355, #338, #182, .T. ) ;
#24 = DIRECTION ( 'NONE',  ( 0.0000000000000000000, 0.0000000000000000000, 1.000000000000000000 ) ) ;
#25 = CYLINDRICAL_SURFACE ( 'NONE', #269, 4.500000000000000900 ) ;
#26 = EDGE_CURVE ( 'NONE', #289, #101, #115, .T. ) ;
#27 = CIRCLE ( 'NONE', #316, 4.499999999999997300 ) ;
#28 = ORIENTED_EDGE ( 'NONE', *, *, #222, .T. ) ;
#29 = CYLINDRICAL_SURFACE ( 'NONE', #156, 4.500000000000000900 ) ;
#30 = ORIENTED_EDGE ( 'NONE', *, *, #172, .F. ) ;
#31 = ORIENTED_EDGE ( 'NONE', *, *, #286, .F. ) ;
#32 = CARTESIAN_POINT ( 'NONE',  ( -44.50000000002960100, 5.637851296924619300E-014, 0.0000000000000000000 ) ) ;
#33 = PRODUCT ( 'THA_335_2_F', 'THA_335_2_F', '', ( #178 ) ) ;
#34 = DIRECTION ( 'NONE',  ( -1.000000000000000000, 0.0000000000000000000, 0.0000000000000000000 ) ) ;
#35 = AXIS2_PLACEMENT_3D ( 'NONE', #266, #374, #136 ) ;
#36 = CARTESIAN_POINT ( 'NONE',  ( 0.0000000000000000000, 5.637851296924619300E-014, 30.00000000000000000 ) ) ;
#37 = DIRECTION ( 'NONE',  ( 1.000000000000000000, 0.0000000000000000000, 0.0000000000000000000 ) ) ;
#38 = EDGE_LOOP ( 'NONE', ( #279, #273, #348, #191 ) ) ;
#39 = DIRECTION ( 'NONE',  ( 0.0000000000000000000, 0.0000000000000000000, -1.000000000000000000 ) ) ;
#40 = AXIS2_PLACEMENT_3D ( 'NONE', #322, #346, #196 ) ;
#41 = CARTESIAN_POINT ( 'NONE',  ( 35.49999999997040600, 5.692960402886251300E-014, 0.0000000000000000000 ) ) ;
#42 = EDGE_LOOP ( 'NONE', ( #360, #107, #318, #265 ) ) ;
#43 = AXIS2_PLACEMENT_3D ( 'NONE', #216, #249, #60 ) ;
#44 =( NAMED_UNIT ( * ) SI_UNIT ( $, .STERADIAN. ) SOLID_ANGLE_UNIT ( ) );
#45 = CYLINDRICAL_SURFACE ( 'NONE', #306, 4.499999999999997300 ) ;
#46 = DIRECTION ( 'NONE',  ( 0.0000000000000000000, 0.0000000000000000000, 1.000000000000000000 ) ) ;
#47 = EDGE_CURVE ( 'NONE', #209, #143, #276, .T. ) ;
#48 = CARTESIAN_POINT ( 'NONE',  ( 25.49999999997039900, 1.110223024625155900E-013, 25.50000000000000000 ) ) ;
#49 = FILL_AREA_STYLE_COLOUR ( '', #174 ) ;
#50 = AXIS2_PLACEMENT_3D ( 'NONE', #218, #244, #359 ) ;
#51 = VECTOR ( 'NONE', #317, 1000.000000000000000 ) ;
#52 = AXIS2_PLACEMENT_3D ( 'NONE', #159, #70, #312 ) ;
#53 = ORIENTED_EDGE ( 'NONE', *, *, #234, .F. ) ;
#54 = AXIS2_PLACEMENT_3D ( 'NONE', #167, #376, #202 ) ;
#55 = VERTEX_POINT ( 'NONE', #124 ) ;
#56 = PRODUCT_DEFINITION_SHAPE ( 'NONE', 'NONE',  #171 ) ;
#57 = SHAPE_DEFINITION_REPRESENTATION ( #235, #1 ) ;
#58 = FACE_OUTER_BOUND ( 'NONE', #38, .T. ) ;
#59 = ORIENTED_EDGE ( 'NONE', *, *, #330, .F. ) ;
#60 = DIRECTION ( 'NONE',  ( 0.0000000000000000000, 0.0000000000000000000, 1.000000000000000000 ) ) ;
#61 = DIRECTION ( 'NONE',  ( 0.0000000000000000000, 0.0000000000000000000, 1.000000000000000000 ) ) ;
#62 = CIRCLE ( 'NONE', #291, 4.499999999999997300 ) ;
#63 = ADVANCED_BREP_SHAPE_REPRESENTATION ( '', ( #325, #268 ), #285 ) ;
#64 = PRODUCT ( 'a', 'a', '', ( #373 ) ) ;
#65 = CARTESIAN_POINT ( 'NONE',  ( -40.00000000002960100, 1.110223024625155900E-013, 11.00000000000000000 ) ) ;
#66 = CIRCLE ( 'NONE', #8, 4.499999999999997300 ) ;
#67 = DIRECTION ( 'NONE',  ( 0.0000000000000000000, 0.0000000000000000000, 1.000000000000000000 ) ) ;
#68 = DIRECTION ( 'NONE',  ( -1.000000000000000000, 0.0000000000000000000, 0.0000000000000000000 ) ) ;
#69 = AXIS2_PLACEMENT_3D ( 'NONE', #263, #106, #195 ) ;
#70 = DIRECTION ( 'NONE',  ( -1.000000000000000000, 0.0000000000000000000, 0.0000000000000000000 ) ) ;
#71 = EDGE_LOOP ( 'NONE', ( #210, #232, #92, #112 ) ) ;
#72 = CARTESIAN_POINT ( 'NONE',  ( -40.00000000002960100, 5.637851296924619300E-014, 0.0000000000000000000 ) ) ;
#73 = CARTESIAN_POINT ( 'NONE',  ( 35.49999999997040600, 5.692960402886251300E-014, 0.0000000000000000000 ) ) ;
#74 = LINE ( 'NONE', #41, #173 ) ;
#75 =( NAMED_UNIT ( * ) PLANE_ANGLE_UNIT ( ) SI_UNIT ( $, .RADIAN. ) );
#76 = CARTESIAN_POINT ( 'NONE',  ( 39.99999999997039900, 5.637851296924619300E-014, 0.0000000000000000000 ) ) ;
#77 = COLOUR_RGB ( '',0.7921568627450980000, 0.8196078431372548800, 0.9333333333333333500 ) ;
#78 = CARTESIAN_POINT ( 'NONE',  ( -40.00000000002960100, 5.637851296924619300E-014, 0.0000000000000000000 ) ) ;
#79 = VERTEX_POINT ( 'NONE', #12 ) ;
#80 = AXIS2_PLACEMENT_3D ( 'NONE', #48, #267, #81 ) ;
#81 = DIRECTION ( 'NONE',  ( 0.0000000000000000000, 0.0000000000000000000, 1.000000000000000000 ) ) ;
#82 = EDGE_CURVE ( 'NONE', #55, #371, #66, .T. ) ;
#83 = CARTESIAN_POINT ( 'NONE',  ( -25.50000000002960100, 5.637851296924619300E-014, 25.50000000000000000 ) ) ;
#84 = CIRCLE ( 'NONE', #243, 4.499999999999997300 ) ;
#85 = AXIS2_PLACEMENT_3D ( 'NONE', #199, #21, #229 ) ;
#86 = FACE_OUTER_BOUND ( 'NONE', #300, .T. ) ;
#87 = CIRCLE ( 'NONE', #85, 19.00000000000000000 ) ;
#88 = EDGE_LOOP ( 'NONE', ( #331, #206, #59, #275 ) ) ;
#89 =( GEOMETRIC_REPRESENTATION_CONTEXT ( 3 ) GLOBAL_UNCERTAINTY_ASSIGNED_CONTEXT ( ( #164 ) ) GLOBAL_UNIT_ASSIGNED_CONTEXT ( ( #91, #75, #366 ) ) REPRESENTATION_CONTEXT ( 'NONE', 'WORKASPACE' ) );
#90 = EDGE_CURVE ( 'NONE', #338, #214, #311, .T. ) ;
#91 =( LENGTH_UNIT ( ) NAMED_UNIT ( * ) SI_UNIT ( .MILLI., .METRE. ) );
#92 = ORIENTED_EDGE ( 'NONE', *, *, #149, .T. ) ;
#93 = PRESENTATION_STYLE_ASSIGNMENT (( #142 ) ) ;
#94 = UNCERTAINTY_MEASURE_WITH_UNIT (LENGTH_MEASURE( 1.000000000000000100E-005 ), #100, 'distance_accuracy_value', 'NONE');
#95 = EDGE_LOOP ( 'NONE', ( #121, #307, #165, #10 ) ) ;
#96 = CARTESIAN_POINT ( 'NONE',  ( -25.50000000002960100, 1.110223024625155900E-013, 11.00000000000000000 ) ) ;
#97 = FILL_AREA_STYLE ('',( #130 ) ) ;
#98 = DIRECTION ( 'NONE',  ( 0.0000000000000000000, 0.0000000000000000000, -1.000000000000000000 ) ) ;
#99 = AXIS2_PLACEMENT_3D ( 'NONE', #140, #349, #169 ) ;
#100 =( LENGTH_UNIT ( ) NAMED_UNIT ( * ) SI_UNIT ( .MILLI., .METRE. ) );
#101 = VERTEX_POINT ( 'NONE', #13 ) ;
#102 = LINE ( 'NONE', #370, #15 ) ;
#103 = PLANE ( 'NONE',  #314 ) ;
#104 = DIRECTION ( 'NONE',  ( -1.000000000000000000, 0.0000000000000000000, 0.0000000000000000000 ) ) ;
#105 = AXIS2_PLACEMENT_3D ( 'NONE', #72, #160, #131 ) ;
#106 = DIRECTION ( 'NONE',  ( 0.0000000000000000000, 0.0000000000000000000, 1.000000000000000000 ) ) ;
#107 = ORIENTED_EDGE ( 'NONE', *, *, #23, .T. ) ;
#108 = DIRECTION ( 'NONE',  ( -1.000000000000000000, 0.0000000000000000000, 0.0000000000000000000 ) ) ;
#109 = DIRECTION ( 'NONE',  ( -1.000000000000000000, 0.0000000000000000000, 0.0000000000000000000 ) ) ;
#110 = DIRECTION ( 'NONE',  ( 0.0000000000000000000, 0.0000000000000000000, -1.000000000000000000 ) ) ;
#111 = PRODUCT_DEFINITION_SHAPE ( 'NONE', 'NONE',  #381 ) ;
#112 = ORIENTED_EDGE ( 'NONE', *, *, #150, .T. ) ;
#113 = DIRECTION ( 'NONE',  ( 0.0000000000000000000, 0.0000000000000000000, 1.000000000000000000 ) ) ;
#114 = AXIS2_PLACEMENT_3D ( 'NONE', #5, #343, #20 ) ;
#115 = LINE ( 'NONE', #281, #51 ) ;
#116 = CIRCLE ( 'NONE', #99, 4.499999999999997300 ) ;
#117 = AXIS2_PLACEMENT_3D ( 'NONE', #368, #225, #319 ) ;
#118 = EDGE_CURVE ( 'NONE', #209, #226, #336, .T. ) ;
#119 = ORIENTED_EDGE ( 'NONE', *, *, #134, .T. ) ;
#120 = STYLED_ITEM ( 'NONE', ( #93 ), #325 ) ;
#121 = ORIENTED_EDGE ( 'NONE', *, *, #295, .F. ) ;
#122 = DIRECTION ( 'NONE',  ( 1.000000000000000000, 0.0000000000000000000, 0.0000000000000000000 ) ) ;
#123 = ORIENTED_EDGE ( 'NONE', *, *, #274, .T. ) ;
#124 = CARTESIAN_POINT ( 'NONE',  ( 44.49999999997039900, 5.637851296924619300E-014, 0.0000000000000000000 ) ) ;
#125 = CIRCLE ( 'NONE', #54, 10.00000000000000200 ) ;
#126 = VERTEX_POINT ( 'NONE', #283 ) ;
#127 = DIRECTION ( 'NONE',  ( 0.0000000000000000000, 0.0000000000000000000, -1.000000000000000000 ) ) ;
#128 = CONTEXT_DEPENDENT_SHAPE_REPRESENTATION ( #258, #111 ) ;
#129 = PRODUCT_DEFINITION ( 'UNKNOWN', '', #239, #333 ) ;
#130 = FILL_AREA_STYLE_COLOUR ( '', #77 ) ;
#131 = DIRECTION ( 'NONE',  ( -1.000000000000000000, 0.0000000000000000000, 0.0000000000000000000 ) ) ;
#132 = ORIENTED_EDGE ( 'NONE', *, *, #207, .T. ) ;
#133 = DIRECTION ( 'NONE',  ( 0.0000000000000000000, 0.0000000000000000000, 1.000000000000000000 ) ) ;
#134 = EDGE_CURVE ( 'NONE', #101, #226, #332, .T. ) ;
#135 = DIRECTION ( 'NONE',  ( 0.0000000000000000000, 0.0000000000000000000, 1.000000000000000000 ) ) ;
#136 = DIRECTION ( 'NONE',  ( 0.0000000000000000000, 0.0000000000000000000, 1.000000000000000000 ) ) ;
#137 = CARTESIAN_POINT ( 'NONE',  ( 25.49999999997039900, 5.692960402886252600E-014, 20.99999999999999600 ) ) ;
#138 = AXIS2_PLACEMENT_3D ( 'NONE', #83, #298, #113 ) ;
#139 = SHAPE_DEFINITION_REPRESENTATION ( #56, #380 ) ;
#140 = CARTESIAN_POINT ( 'NONE',  ( -40.00000000002960100, 1.110223024625155900E-013, 11.00000000000000000 ) ) ;
#141 = ADVANCED_FACE ( 'NONE', ( #251 ), #233, .T. ) ;
#142 = SURFACE_STYLE_USAGE ( .BOTH. , #329 ) ;
#143 = VERTEX_POINT ( 'NONE', #220 ) ;
#144 = FACE_OUTER_BOUND ( 'NONE', #198, .T. ) ;
#145 = AXIS2_PLACEMENT_3D ( 'NONE', #157, #364, #337 ) ;
#146 = EDGE_LOOP ( 'NONE', ( #296, #242, #53, #22 ) ) ;
#147 = SURFACE_STYLE_USAGE ( .BOTH. , #213 ) ;
#148 = CLOSED_SHELL ( 'NONE', ( #141, #163, #154, #321, #200, #183, #161, #357, #215, #194, #152, #168 ) ) ;
#149 = EDGE_CURVE ( 'NONE', #289, #126, #2, .T. ) ;
#150 = EDGE_CURVE ( 'NONE', #126, #143, #166, .T. ) ;
#151 = DIRECTION ( 'NONE',  ( 0.0000000000000000000, 1.000000000000000000, 0.0000000000000000000 ) ) ;
#152 = ADVANCED_FACE ( 'NONE', ( #324 ), #153, .T. ) ;
#153 = TOROIDAL_SURFACE ( 'NONE', #358, 14.50000000000000000, 4.500000000000000000 ) ;
#154 = ADVANCED_FACE ( 'NONE', ( #241 ), #45, .T. ) ;
#155 = CARTESIAN_POINT ( 'NONE',  ( 39.99999999997039900, 5.637851296924619300E-014, 0.0000000000000000000 ) ) ;
#156 = AXIS2_PLACEMENT_3D ( 'NONE', #297, #236, #327 ) ;
#157 = CARTESIAN_POINT ( 'NONE',  ( -25.50000000002960100, 5.637851296924619300E-014, 25.50000000000000000 ) ) ;
#158 = APPLICATION_PROTOCOL_DEFINITION ( 'draft international standard', 'automotive_design', 1998, #354 ) ;
#159 = CARTESIAN_POINT ( 'NONE',  ( 25.49999999997039900, 1.110223024625155900E-013, 25.50000000000000000 ) ) ;
#160 = DIRECTION ( 'NONE',  ( 0.0000000000000000000, 0.0000000000000000000, -1.000000000000000000 ) ) ;
#161 = ADVANCED_FACE ( 'NONE', ( #86 ), #17, .T. ) ;
#162 = DIRECTION ( 'NONE',  ( -1.000000000000000000, 0.0000000000000000000, 0.0000000000000000000 ) ) ;
#163 = ADVANCED_FACE ( 'NONE', ( #247 ), #308, .T. ) ;
#164 = UNCERTAINTY_MEASURE_WITH_UNIT (LENGTH_MEASURE( 1.000000000000000100E-005 ), #91, 'distance_accuracy_value', 'NONE');
#165 = ORIENTED_EDGE ( 'NONE', *, *, #323, .T. ) ;
#166 = CIRCLE ( 'NONE', #352, 4.499999999999997300 ) ;
#167 = CARTESIAN_POINT ( 'NONE',  ( -25.50000000002960100, 1.104712114028992800E-013, 11.00000000000000000 ) ) ;
#168 = ADVANCED_FACE ( 'NONE', ( #320 ), #18, .T. ) ;
#169 = DIRECTION ( 'NONE',  ( -1.000000000000000000, 0.0000000000000000000, 0.0000000000000000000 ) ) ;
#170 =( NAMED_UNIT ( * ) PLANE_ANGLE_UNIT ( ) SI_UNIT ( $, .RADIAN. ) );
#171 = PRODUCT_DEFINITION ( 'UNKNOWN', '', #190, #282 ) ;
#172 = EDGE_CURVE ( 'NONE', #371, #126, #74, .T. ) ;
#173 = VECTOR ( 'NONE', #262, 1000.000000000000000 ) ;
#174 = COLOUR_RGB ( '',0.7921568627450980000, 0.8196078431372548800, 0.9333333333333333500 ) ;
#175 = FACE_OUTER_BOUND ( 'NONE', #71, .T. ) ;
#176 = ORIENTED_EDGE ( 'NONE', *, *, #149, .F. ) ;
#177 = PRESENTATION_LAYER_ASSIGNMENT (  '', '', ( #120 ) ) ;
#178 = PRODUCT_CONTEXT ( 'NONE', #246, 'mechanical' ) ;
#179 = APPLICATION_CONTEXT ( 'automotive_design' ) ;
#180 = ORIENTED_EDGE ( 'NONE', *, *, #193, .T. ) ;
#181 = FACE_OUTER_BOUND ( 'NONE', #88, .T. ) ;
#182 = CIRCLE ( 'NONE', #16, 4.499999999999997300 ) ;
#183 = ADVANCED_FACE ( 'NONE', ( #335 ), #103, .T. ) ;
#184 = ORIENTED_EDGE ( 'NONE', *, *, #47, .T. ) ;
#185 = DIRECTION ( 'NONE',  ( 0.0000000000000000000, 0.0000000000000000000, 1.000000000000000000 ) ) ;
#186 = CARTESIAN_POINT ( 'NONE',  ( 35.49999999997040600, 995.5000000000000000, 0.0000000000000000000 ) ) ;
#187 = DIRECTION ( 'NONE',  ( -1.000000000000000000, 0.0000000000000000000, 0.0000000000000000000 ) ) ;
#188 = ORIENTED_EDGE ( 'NONE', *, *, #26, .F. ) ;
#189 = DIRECTION ( 'NONE',  ( 0.0000000000000000000, 0.0000000000000000000, 1.000000000000000000 ) ) ;
#190 = PRODUCT_DEFINITION_FORMATION_WITH_SPECIFIED_SOURCE ( 'ANY', '', #33, .NOT_KNOWN. ) ;
#191 = ORIENTED_EDGE ( 'NONE', *, *, #118, .F. ) ;
#192 = EDGE_CURVE ( 'NONE', #338, #226, #87, .T. ) ;
#193 = EDGE_CURVE ( 'NONE', #371, #55, #62, .T. ) ;
#194 = ADVANCED_FACE ( 'NONE', ( #299 ), #25, .T. ) ;
#195 = DIRECTION ( 'NONE',  ( 1.000000000000000000, 0.0000000000000000000, 0.0000000000000000000 ) ) ;
#196 = DIRECTION ( 'NONE',  ( 1.000000000000000000, 0.0000000000000000000, 0.0000000000000000000 ) ) ;
#197 = PRESENTATION_STYLE_ASSIGNMENT (( #147 ) ) ;
#198 = EDGE_LOOP ( 'NONE', ( #30, #270, #28, #344 ) ) ;
#199 = CARTESIAN_POINT ( 'NONE',  ( -25.50000000002960100, 1.110223024625155900E-013, 11.00000000000000000 ) ) ;
#200 = ADVANCED_FACE ( 'NONE', ( #181 ), #248, .T. ) ;
#201 = CARTESIAN_POINT ( 'NONE',  ( -25.50000000002960100, 5.637851296924619300E-014, 30.00000000000000000 ) ) ;
#202 = DIRECTION ( 'NONE',  ( 0.0000000000000000000, 0.0000000000000000000, 1.000000000000000000 ) ) ;
#203 = MECHANICAL_DESIGN_GEOMETRIC_PRESENTATION_REPRESENTATION (  '', ( #120 ), #221 ) ;
#204 = ORIENTED_EDGE ( 'NONE', *, *, #82, .T. ) ;
#205 = CIRCLE ( 'NONE', #52, 4.500000000000000900 ) ;
#206 = ORIENTED_EDGE ( 'NONE', *, *, #172, .T. ) ;
#207 = EDGE_CURVE ( 'NONE', #79, #214, #334, .T. ) ;
#208 = ORIENTED_EDGE ( 'NONE', *, *, #192, .F. ) ;
#209 = VERTEX_POINT ( 'NONE', #280 ) ;
#210 = ORIENTED_EDGE ( 'NONE', *, *, #47, .F. ) ;
#211 = CIRCLE ( 'NONE', #138, 4.500000000000000900 ) ;
#212 = PRODUCT_RELATED_PRODUCT_CATEGORY ( 'part', '', ( #33 ) ) ;
#213 = SURFACE_SIDE_STYLE ('',( #260 ) ) ;
#214 = VERTEX_POINT ( 'NONE', #230 ) ;
#215 = ADVANCED_FACE ( 'NONE', ( #175 ), #278, .T. ) ;
#216 = CARTESIAN_POINT ( 'NONE',  ( 25.49999999997039900, 1.104712114028992800E-013, 11.00000000000000000 ) ) ;
#217 = ORIENTED_EDGE ( 'NONE', *, *, #118, .T. ) ;
#218 = CARTESIAN_POINT ( 'NONE',  ( 0.0000000000000000000, 0.0000000000000000000, 0.0000000000000000000 ) ) ;
#219 = UNCERTAINTY_MEASURE_WITH_UNIT (LENGTH_MEASURE( 1.000000000000000100E-005 ), #3, 'distance_accuracy_value', 'NONE');
#220 = CARTESIAN_POINT ( 'NONE',  ( 44.49999999997039900, 5.637851296924619300E-014, 11.00000000000000000 ) ) ;
#221 =( GEOMETRIC_REPRESENTATION_CONTEXT ( 3 ) GLOBAL_UNCERTAINTY_ASSIGNED_CONTEXT ( ( #252 ) ) GLOBAL_UNIT_ASSIGNED_CONTEXT ( ( #351, #170, #379 ) ) REPRESENTATION_CONTEXT ( 'NONE', 'WORKASPACE' ) );
#222 = EDGE_CURVE ( 'NONE', #55, #143, #272, .T. ) ;
#223 = APPLICATION_PROTOCOL_DEFINITION ( 'draft international standard', 'automotive_design', 1998, #246 ) ;
#224 = DIRECTION ( 'NONE',  ( 0.0000000000000000000, 0.0000000000000000000, 1.000000000000000000 ) ) ;
#225 = DIRECTION ( 'NONE',  ( 0.0000000000000000000, 1.000000000000000000, 0.0000000000000000000 ) ) ;
#226 = VERTEX_POINT ( 'NONE', #201 ) ;
#227 = CARTESIAN_POINT ( 'NONE',  ( -44.50000000002960100, 995.5000000000000000, 0.0000000000000000000 ) ) ;
#228 = CARTESIAN_POINT ( 'NONE',  ( 0.0000000000000000000, 0.0000000000000000000, 0.0000000000000000000 ) ) ;
#229 = DIRECTION ( 'NONE',  ( 0.0000000000000000000, 0.0000000000000000000, 1.000000000000000000 ) ) ;
#230 = CARTESIAN_POINT ( 'NONE',  ( -44.50000000002960100, 5.637851296924619300E-014, 0.0000000000000000000 ) ) ;
#231 = VECTOR ( 'NONE', #46, 1000.000000000000000 ) ;
#232 = ORIENTED_EDGE ( 'NONE', *, *, #9, .F. ) ;
#233 = TOROIDAL_SURFACE ( 'NONE', #372, 14.50000000000000000, 4.500000000000000000 ) ;
#234 = EDGE_CURVE ( 'NONE', #214, #79, #27, .T. ) ;
#235 = PRODUCT_DEFINITION_SHAPE ( 'NONE', 'NONE',  #129 ) ;
#236 = DIRECTION ( 'NONE',  ( -1.000000000000000000, 0.0000000000000000000, 0.0000000000000000000 ) ) ;
#237 = FILL_AREA_STYLE ('',( #49 ) ) ;
#238 = CARTESIAN_POINT ( 'NONE',  ( 39.99999999997039900, 5.637851296924619300E-014, 0.0000000000000000000 ) ) ;
#239 = PRODUCT_DEFINITION_FORMATION_WITH_SPECIFIED_SOURCE ( 'ANY', '', #64, .NOT_KNOWN. ) ;
#240 = EDGE_LOOP ( 'NONE', ( #31, #184, #250, #176 ) ) ;
#241 = FACE_OUTER_BOUND ( 'NONE', #146, .T. ) ;
#242 = ORIENTED_EDGE ( 'NONE', *, *, #363, .T. ) ;
#243 = AXIS2_PLACEMENT_3D ( 'NONE', #345, #135, #339 ) ;
#244 = DIRECTION ( 'NONE',  ( 0.0000000000000000000, 0.0000000000000000000, 1.000000000000000000 ) ) ;
#245 =( NAMED_UNIT ( * ) SI_UNIT ( $, .STERADIAN. ) SOLID_ANGLE_UNIT ( ) );
#246 = APPLICATION_CONTEXT ( 'automotive_design' ) ;
#247 = FACE_OUTER_BOUND ( 'NONE', #240, .T. ) ;
#248 = CYLINDRICAL_SURFACE ( 'NONE', #40, 4.499999999999997300 ) ;
#249 = DIRECTION ( 'NONE',  ( 0.0000000000000000000, 1.000000000000000000, 0.0000000000000000000 ) ) ;
#250 = ORIENTED_EDGE ( 'NONE', *, *, #330, .T. ) ;
#251 = FACE_OUTER_BOUND ( 'NONE', #95, .T. ) ;
#252 = UNCERTAINTY_MEASURE_WITH_UNIT (LENGTH_MEASURE( 1.000000000000000100E-005 ), #351, 'distance_accuracy_value', 'NONE');
#253 = DIRECTION ( 'NONE',  ( 0.0000000000000000000, 0.0000000000000000000, -1.000000000000000000 ) ) ;
#254 = APPLICATION_PROTOCOL_DEFINITION ( 'draft international standard', 'automotive_design', 1998, #179 ) ;
#255 = APPLICATION_CONTEXT ( 'automotive_design' ) ;
#256 = CARTESIAN_POINT ( 'NONE',  ( 25.49999999997039900, 1.110223024625155900E-013, 11.00000000000000000 ) ) ;
#257 = PRODUCT_RELATED_PRODUCT_CATEGORY ( 'part', '', ( #64 ) ) ;
#258 =( REPRESENTATION_RELATIONSHIP ('NONE','NONE', #380, #1 ) REPRESENTATION_RELATIONSHIP_WITH_TRANSFORMATION ( #365 )SHAPE_REPRESENTATION_RELATIONSHIP( ) );
#259 = DIRECTION ( 'NONE',  ( -1.000000000000000000, 0.0000000000000000000, 0.0000000000000000000 ) ) ;
#260 = SURFACE_STYLE_FILL_AREA ( #97 ) ;
#261 = AXIS2_PLACEMENT_3D ( 'NONE', #256, #14, #224 ) ;
#262 = DIRECTION ( 'NONE',  ( 0.0000000000000000000, 0.0000000000000000000, 1.000000000000000000 ) ) ;
#263 = CARTESIAN_POINT ( 'NONE',  ( 0.0000000000000000000, 0.0000000000000000000, 0.0000000000000000000 ) ) ;
#264 = CARTESIAN_POINT ( 'NONE',  ( 0.0000000000000000000, 5.637851296924619300E-014, 25.50000000000000000 ) ) ;
#265 = ORIENTED_EDGE ( 'NONE', *, *, #207, .F. ) ;
#266 = CARTESIAN_POINT ( 'NONE',  ( 25.49999999997039900, 1.110223024625155900E-013, 11.00000000000000000 ) ) ;
#267 = DIRECTION ( 'NONE',  ( -1.000000000000000000, 0.0000000000000000000, 0.0000000000000000000 ) ) ;
#268 = AXIS2_PLACEMENT_3D ( 'NONE', #228, #67, #304 ) ;
#269 = AXIS2_PLACEMENT_3D ( 'NONE', #264, #162, #133 ) ;
#270 = ORIENTED_EDGE ( 'NONE', *, *, #82, .F. ) ;
#271 = CARTESIAN_POINT ( 'NONE',  ( -44.50000000002960100, 1.110223024625155900E-013, 11.00000000000000000 ) ) ;
#272 = LINE ( 'NONE', #347, #231 ) ;
#273 = ORIENTED_EDGE ( 'NONE', *, *, #26, .T. ) ;
#274 = EDGE_CURVE ( 'NONE', #355, #101, #125, .T. ) ;
#275 = ORIENTED_EDGE ( 'NONE', *, *, #222, .F. ) ;
#276 = CIRCLE ( 'NONE', #261, 19.00000000000000000 ) ;
#277 =( NAMED_UNIT ( * ) PLANE_ANGLE_UNIT ( ) SI_UNIT ( $, .RADIAN. ) );
#278 = TOROIDAL_SURFACE ( 'NONE', #35, 14.50000000000000000, 4.500000000000000000 ) ;
#279 = ORIENTED_EDGE ( 'NONE', *, *, #286, .T. ) ;
#280 = CARTESIAN_POINT ( 'NONE',  ( 25.49999999997039900, 1.110223024625155900E-013, 30.00000000000000000 ) ) ;
#281 = CARTESIAN_POINT ( 'NONE',  ( 0.0000000000000000000, 5.692960402886251300E-014, 20.99999999999999600 ) ) ;
#282 = PRODUCT_DEFINITION_CONTEXT ( 'detailed design', #255, 'design' ) ;
#283 = CARTESIAN_POINT ( 'NONE',  ( 35.49999999997040600, 5.692960402886251300E-014, 11.00000000000000000 ) ) ;
#284 = ORIENTED_EDGE ( 'NONE', *, *, #23, .F. ) ;
#285 =( GEOMETRIC_REPRESENTATION_CONTEXT ( 3 ) GLOBAL_UNCERTAINTY_ASSIGNED_CONTEXT ( ( #219 ) ) GLOBAL_UNIT_ASSIGNED_CONTEXT ( ( #3, #277, #44 ) ) REPRESENTATION_CONTEXT ( 'NONE', 'WORKASPACE' ) );
#286 = EDGE_CURVE ( 'NONE', #209, #289, #288, .T. ) ;
#287 = DIRECTION ( 'NONE',  ( 0.0000000000000000000, 0.0000000000000000000, -1.000000000000000000 ) ) ;
#288 = CIRCLE ( 'NONE', #80, 4.500000000000000900 ) ;
#289 = VERTEX_POINT ( 'NONE', #137 ) ;
#290 = DIRECTION ( 'NONE',  ( 0.0000000000000000000, 0.0000000000000000000, -1.000000000000000000 ) ) ;
#291 = AXIS2_PLACEMENT_3D ( 'NONE', #76, #292, #108 ) ;
#292 = DIRECTION ( 'NONE',  ( 0.0000000000000000000, 0.0000000000000000000, -1.000000000000000000 ) ) ;
#293 = DIRECTION ( 'NONE',  ( 0.0000000000000000000, 0.0000000000000000000, -1.000000000000000000 ) ) ;
#294 = CARTESIAN_POINT ( 'NONE',  ( -40.00000000002960100, 5.637851296924619300E-014, 0.0000000000000000000 ) ) ;
#295 = EDGE_CURVE ( 'NONE', #338, #355, #116, .T. ) ;
#296 = ORIENTED_EDGE ( 'NONE', *, *, #295, .T. ) ;
#297 = CARTESIAN_POINT ( 'NONE',  ( 0.0000000000000000000, 5.637851296924619300E-014, 25.50000000000000000 ) ) ;
#298 = DIRECTION ( 'NONE',  ( -1.000000000000000000, 0.0000000000000000000, 0.0000000000000000000 ) ) ;
#299 = FACE_OUTER_BOUND ( 'NONE', #375, .T. ) ;
#300 = EDGE_LOOP ( 'NONE', ( #204, #180 ) ) ;
#301 = ORIENTED_EDGE ( 'NONE', *, *, #234, .T. ) ;
#302 = VECTOR ( 'NONE', #68, 1000.000000000000000 ) ;
#303 = AXIS2_PLACEMENT_3D ( 'NONE', #238, #24, #122 ) ;
#304 = DIRECTION ( 'NONE',  ( 1.000000000000000000, 0.0000000000000000000, 0.0000000000000000000 ) ) ;
#305 =( NAMED_UNIT ( * ) PLANE_ANGLE_UNIT ( ) SI_UNIT ( $, .RADIAN. ) );
#306 = AXIS2_PLACEMENT_3D ( 'NONE', #367, #287, #361 ) ;
#307 = ORIENTED_EDGE ( 'NONE', *, *, #192, .T. ) ;
#308 = TOROIDAL_SURFACE ( 'NONE', #117, 14.50000000000000000, 4.500000000000000000 ) ;
#309 = CARTESIAN_POINT ( 'NONE',  ( 39.99999999997039900, 5.637851296924619300E-014, 11.00000000000000000 ) ) ;
#310 = ORIENTED_EDGE ( 'NONE', *, *, #9, .T. ) ;
#311 = LINE ( 'NONE', #32, #11 ) ;
#312 = DIRECTION ( 'NONE',  ( 0.0000000000000000000, 0.0000000000000000000, 1.000000000000000000 ) ) ;
#313 = CARTESIAN_POINT ( 'NONE',  ( -25.50000000002960100, 1.110223024625155900E-013, 11.00000000000000000 ) ) ;
#314 = AXIS2_PLACEMENT_3D ( 'NONE', #227, #290, #104 ) ;
#315 = CYLINDRICAL_SURFACE ( 'NONE', #303, 4.499999999999997300 ) ;
#316 = AXIS2_PLACEMENT_3D ( 'NONE', #294, #110, #326 ) ;
#317 = DIRECTION ( 'NONE',  ( -1.000000000000000000, 0.0000000000000000000, 0.0000000000000000000 ) ) ;
#318 = ORIENTED_EDGE ( 'NONE', *, *, #90, .T. ) ;
#319 = DIRECTION ( 'NONE',  ( 0.0000000000000000000, 0.0000000000000000000, 1.000000000000000000 ) ) ;
#320 = FACE_OUTER_BOUND ( 'NONE', #42, .T. ) ;
#321 = ADVANCED_FACE ( 'NONE', ( #58 ), #29, .T. ) ;
#322 = CARTESIAN_POINT ( 'NONE',  ( 39.99999999997039900, 5.637851296924619300E-014, 0.0000000000000000000 ) ) ;
#323 = EDGE_CURVE ( 'NONE', #226, #101, #211, .T. ) ;
#324 = FACE_OUTER_BOUND ( 'NONE', #353, .T. ) ;
#325 = MANIFOLD_SOLID_BREP ( '²ÝÎß°Ä1', #148 ) ;
#326 = DIRECTION ( 'NONE',  ( -1.000000000000000000, 0.0000000000000000000, 0.0000000000000000000 ) ) ;
#327 = DIRECTION ( 'NONE',  ( 0.0000000000000000000, 0.0000000000000000000, 1.000000000000000000 ) ) ;
#328 = STYLED_ITEM ( 'NONE', ( #197 ), #63 ) ;
#329 = SURFACE_SIDE_STYLE ('',( #6 ) ) ;
#330 = EDGE_CURVE ( 'NONE', #143, #126, #84, .T. ) ;
#331 = ORIENTED_EDGE ( 'NONE', *, *, #193, .F. ) ;
#332 = CIRCLE ( 'NONE', #145, 4.500000000000000900 ) ;
#333 = PRODUCT_DEFINITION_CONTEXT ( 'detailed design', #179, 'design' ) ;
#334 = CIRCLE ( 'NONE', #350, 4.499999999999997300 ) ;
#335 = FACE_OUTER_BOUND ( 'NONE', #4, .T. ) ;
#336 = LINE ( 'NONE', #36, #302 ) ;
#337 = DIRECTION ( 'NONE',  ( 0.0000000000000000000, 0.0000000000000000000, 1.000000000000000000 ) ) ;
#338 = VERTEX_POINT ( 'NONE', #271 ) ;
#339 = DIRECTION ( 'NONE',  ( 1.000000000000000000, 0.0000000000000000000, 0.0000000000000000000 ) ) ;
#340 = DIRECTION ( 'NONE',  ( 0.0000000000000000000, 1.000000000000000000, 0.0000000000000000000 ) ) ;
#341 = PRESENTATION_LAYER_ASSIGNMENT (  '', '', ( #328 ) ) ;
#342 = ORIENTED_EDGE ( 'NONE', *, *, #134, .F. ) ;
#343 = DIRECTION ( 'NONE',  ( 0.0000000000000000000, 0.0000000000000000000, 1.000000000000000000 ) ) ;
#344 = ORIENTED_EDGE ( 'NONE', *, *, #150, .F. ) ;
#345 = CARTESIAN_POINT ( 'NONE',  ( 39.99999999997039900, 5.637851296924619300E-014, 11.00000000000000000 ) ) ;
#346 = DIRECTION ( 'NONE',  ( 0.0000000000000000000, 0.0000000000000000000, 1.000000000000000000 ) ) ;
#347 = CARTESIAN_POINT ( 'NONE',  ( 44.49999999997039900, 5.637851296924619300E-014, 0.0000000000000000000 ) ) ;
#348 = ORIENTED_EDGE ( 'NONE', *, *, #323, .F. ) ;
#349 = DIRECTION ( 'NONE',  ( 0.0000000000000000000, 0.0000000000000000000, -1.000000000000000000 ) ) ;
#350 = AXIS2_PLACEMENT_3D ( 'NONE', #78, #293, #109 ) ;
#351 =( LENGTH_UNIT ( ) NAMED_UNIT ( * ) SI_UNIT ( .MILLI., .METRE. ) );
#352 = AXIS2_PLACEMENT_3D ( 'NONE', #309, #185, #37 ) ;
#353 = EDGE_LOOP ( 'NONE', ( #208, #284, #123, #119 ) ) ;
#354 = APPLICATION_CONTEXT ( 'automotive_design' ) ;
#355 = VERTEX_POINT ( 'NONE', #377 ) ;
#356 = MECHANICAL_DESIGN_GEOMETRIC_PRESENTATION_REPRESENTATION (  '', ( #328 ), #378 ) ;
#357 = ADVANCED_FACE ( 'NONE', ( #144 ), #315, .T. ) ;
#358 = AXIS2_PLACEMENT_3D ( 'NONE', #96, #151, #189 ) ;
#359 = DIRECTION ( 'NONE',  ( 1.000000000000000000, 0.0000000000000000000, 0.0000000000000000000 ) ) ;
#360 = ORIENTED_EDGE ( 'NONE', *, *, #363, .F. ) ;
#361 = DIRECTION ( 'NONE',  ( -1.000000000000000000, 0.0000000000000000000, 0.0000000000000000000 ) ) ;
#362 = DIRECTION ( 'NONE',  ( 0.0000000000000000000, 0.0000000000000000000, -1.000000000000000000 ) ) ;
#363 = EDGE_CURVE ( 'NONE', #355, #79, #102, .T. ) ;
#364 = DIRECTION ( 'NONE',  ( -1.000000000000000000, 0.0000000000000000000, 0.0000000000000000000 ) ) ;
#365 = ITEM_DEFINED_TRANSFORMATION ( 'NONE', 'NONE', #69,  #268 ) ;
#366 =( NAMED_UNIT ( * ) SI_UNIT ( $, .STERADIAN. ) SOLID_ANGLE_UNIT ( ) );
#367 = CARTESIAN_POINT ( 'NONE',  ( -40.00000000002960100, 5.637851296924619300E-014, 0.0000000000000000000 ) ) ;
#368 = CARTESIAN_POINT ( 'NONE',  ( 25.49999999997039900, 1.110223024625155900E-013, 11.00000000000000000 ) ) ;
#369 = AXIS2_PLACEMENT_3D ( 'NONE', #186, #39, #259 ) ;
#370 = CARTESIAN_POINT ( 'NONE',  ( -35.50000000002960800, 5.692960402886251300E-014, 0.0000000000000000000 ) ) ;
#371 = VERTEX_POINT ( 'NONE', #73 ) ;
#372 = AXIS2_PLACEMENT_3D ( 'NONE', #313, #340, #61 ) ;
#373 = PRODUCT_CONTEXT ( 'NONE', #354, 'mechanical' ) ;
#374 = DIRECTION ( 'NONE',  ( 0.0000000000000000000, 1.000000000000000000, 0.0000000000000000000 ) ) ;
#375 = EDGE_LOOP ( 'NONE', ( #188, #310, #217, #342 ) ) ;
#376 = DIRECTION ( 'NONE',  ( 0.0000000000000000000, 1.000000000000000000, 0.0000000000000000000 ) ) ;
#377 = CARTESIAN_POINT ( 'NONE',  ( -35.50000000002960800, 5.692960402886247600E-014, 11.00000000000000000 ) ) ;
#378 =( GEOMETRIC_REPRESENTATION_CONTEXT ( 3 ) GLOBAL_UNCERTAINTY_ASSIGNED_CONTEXT ( ( #94 ) ) GLOBAL_UNIT_ASSIGNED_CONTEXT ( ( #100, #305, #245 ) ) REPRESENTATION_CONTEXT ( 'NONE', 'WORKASPACE' ) );
#379 =( NAMED_UNIT ( * ) SI_UNIT ( $, .STERADIAN. ) SOLID_ANGLE_UNIT ( ) );
#380 = SHAPE_REPRESENTATION ( 'THA_335_2_F', ( #114, #69 ), #89 ) ;
#381 = NEXT_ASSEMBLY_USAGE_OCCURRENCE ( 'NAUO1', ' ', ' ', #171, #129, $ ) ;
ENDSEC;
END-ISO-10303-21;
