  0
SECTION
  2
HEADER
  9
$ACADVER
  1
AC1027
  9
$DWGCODEPAGE
  3
ANSI_932
  9
$LTSCALE
 40
20.0
  9
$FILLMODE
 70
     1
  9
$CLAYER
  8
0
  9
$PDMODE
 70
     0
  9
$SPLFRAME
 70
     0
  9
$SPLINETYPE
 70
     6
  9
$SPLINESEGS
 70
     8
  9
$DIMASZ
 40
2.000000
  9
$DIMEXE
 40
1.500000
  9
$DIMEXO
 40
0.800000
  9
$DIMTAD
 70
     1
  9
$DIMTIH
 70
     0
  9
$DIMTOH
 70
     0
  9
$DIMTVP
 40
0.500000
  9
$DIMTXT
 40
3.100000
  9
$EXTMIN
 10
0.000000
 20
0.000000
 30
0.000000
  9
$EXTMAX
 10
297.000000
 20
420.000000
 30
0.000000
  9
$MEASUREMENT
 70
  1
  9
$LIMMIN
 10
0.000000
 20
0.000000
  9
$LIMMAX
 10
297.000000
 20
420.000000
  9
$HANDSEED
  5
3C2
  9
$LWDISPLAY
290
     0
  9
$DIMBLK
  1
_OPEN
  9
$DIMDEC
 70
     2
  9
$DIMADEC
 70
     2
  9
$DIMAUNIT
 70
     0
  9
$DIMZIN
 70
     8
  9
$DIMAZIN
 70
     2
  9
$DIMTOFL
 70
     1
  0
ENDSEC
  0
SECTION
  2
CLASSES
  0
ENDSEC
  0
SECTION
  2
TABLES
  0
TABLE
  2
VPORT
  5
391
100
AcDbSymbolTable
 70
     1
  0
VPORT
  5
392
100
AcDbSymbolTableRecord
100
AcDbViewportTableRecord
  2
*ACTIVE
 70
     0
 12
387.031477
 22
237.503159
 40
455.006318
 41
1.657258
  0
ENDTAB
  0
TABLE
  2
LTYPE
  5
393
100
AcDbSymbolTable
 70
     3
  0
LTYPE
  5
394
100
AcDbSymbolTableRecord
100
AcDbLinetypeTableRecord
  2
BYBLOCK
 70
     0
  3

 72
    65
 73
     0
 40
0.0
  0
LTYPE
  5
395
100
AcDbSymbolTableRecord
100
AcDbLinetypeTableRecord
  2
BYLAYER
 70
     0
  3

 72
    65
 73
     0
 40
0.0
  0
LTYPE
  5
396
100
AcDbSymbolTableRecord
100
AcDbLinetypeTableRecord
  2
CONTINUOUS
 70
     0
  3
Solid line (NEC CAE2D for Win R17.0 : 2022.11.25)
 72
    65
 73
     0
 40
0.0
  0
LTYPE
  5
397
100
AcDbSymbolTableRecord
100
AcDbLinetypeTableRecord
  2
CENTER
 70
     0
  3
____ _ ____ _ ____ _ ____ _ ____ _ ____
 72
    65
 73
     4
 40
2.0
 49
1.25
 74
     0
 49
-0.25
 74
     0
 49
0.25
 74
     0
 49
-0.25
 74
     0
  0
LTYPE
  5
398
100
AcDbSymbolTableRecord
100
AcDbLinetypeTableRecord
  2
PHANTOM
 70
     0
  3
______  __  __  ______  __  __  ______ 
 72
    65
 73
     6
 40
2.5
 49
1.25
 74
     0
 49
-0.25
 74
     0
 49
0.25
 74
     0
 49
-0.25
 74
     0
 49
0.25
 74
     0
 49
-0.25
 74
     0
  0
ENDTAB
  0
TABLE
  2
LAYER
  5
399
100
AcDbSymbolTable
 70
    10
  0
LAYER
  5
39A
100
AcDbSymbolTableRecord
100
AcDbLayerTableRecord
  2
0
 70
     0
 62
     7
  6
CONTINUOUS
370
    -3
390

  0
LAYER
  5
39B
100
AcDbSymbolTableRecord
100
AcDbLayerTableRecord
  2
DXF0
 70
     0
 62
     7
  6
CONTINUOUS
370
    -3
390

  0
LAYER
  5
39C
100
AcDbSymbolTableRecord
100
AcDbLayerTableRecord
  2
4
 70
     0
 62
     1
  6
CONTINUOUS
370
    -3
390

  0
LAYER
  5
39D
100
AcDbSymbolTableRecord
100
AcDbLayerTableRecord
  2
5
 70
     0
 62
     6
  6
CONTINUOUS
370
    -3
390

  0
LAYER
  5
39E
100
AcDbSymbolTableRecord
100
AcDbLayerTableRecord
  2
1
 70
     0
 62
     7
  6
CONTINUOUS
370
    -3
390

  0
LAYER
  5
39F
100
AcDbSymbolTableRecord
100
AcDbLayerTableRecord
  2
2
 70
     0
 62
     4
  6
CONTINUOUS
370
    -3
390

  0
LAYER
  5
3A0
100
AcDbSymbolTableRecord
100
AcDbLayerTableRecord
  2
3
 70
     0
 62
     2
  6
CONTINUOUS
370
    -3
390

  0
LAYER
  5
3A1
100
AcDbSymbolTableRecord
100
AcDbLayerTableRecord
  2
6
 70
     0
 62
     5
  6
CONTINUOUS
370
    -3
390

  0
LAYER
  5
3A2
100
AcDbSymbolTableRecord
100
AcDbLayerTableRecord
  2
7
 70
     0
 62
     3
  6
CONTINUOUS
370
    -3
390

  0
LAYER
  5
3A3
100
AcDbSymbolTableRecord
100
AcDbLayerTableRecord
  2
DXF1023
 70
     0
 62
    16
  6
CONTINUOUS
370
    -3
390

  0
ENDTAB
  0
TABLE
  2
STYLE
  5
3A4
100
AcDbSymbolTable
 70
     4
  0
STYLE
  5
3A5
100
AcDbSymbolTableRecord
100
AcDbTextStyleTableRecord
  2
STANDARD
 70
    64
 40
0.0
 41
1.0
 50
0.0
 71
     0
 42
3.000000000000000
  3
TXT
  4

  0
STYLE
  5
3A6
100
AcDbSymbolTableRecord
100
AcDbTextStyleTableRecord
  2
ANKTATE
 70
    68
 40
0.0
 41
1.0
 50
0.0
 71
     0
 42
3.000000000000000
  3
TXT
  4

  0
STYLE
  5
3A7
100
AcDbSymbolTableRecord
100
AcDbTextStyleTableRecord
  2
KNJYOKO
 70
    64
 40
0.0
 41
1.0
 50
0.0
 71
     0
 42
3.000000000000000
  3
TXT
  4
BIGFONT
  0
STYLE
  5
3A8
100
AcDbSymbolTableRecord
100
AcDbTextStyleTableRecord
  2
KNJTATE
 70
    68
 40
0.0
 41
1.0
 50
0.0
 71
     0
 42
3.000000000000000
  3
TXT
  4
BIGFONT
  0
ENDTAB
  0
TABLE
  2
VIEW
  5
3A9
100
AcDbSymbolTable
 70
     0
  0
ENDTAB
  0
TABLE
  2
UCS
  5
3AA
100
AcDbSymbolTable
 70
     0
  0
ENDTAB
  0
TABLE
  2
APPID
  5
3AB
100
AcDbSymbolTable
 70
     1
  0
APPID
  5
3AC
100
AcDbSymbolTableRecord
100
AcDbRegAppTableRecord
  2
ACAD
 70
     0
  0
ENDTAB
  0
TABLE
  2
DIMSTYLE
  5
3AD
100
AcDbSymbolTable
 70
     2
100
AcDbDimStyleTable
  0
DIMSTYLE
105
3AE
100
AcDbSymbolTableRecord
100
AcDbDimStyleTableRecord
  2
STANDARD
 70
     0
 41
2.000000
 44
1.500000
 42
0.800000
145
0.661290
140
3.100000
144
1.000000
146
0.645161
340
3A5
  0
DIMSTYLE
105
3AF
100
AcDbSymbolTableRecord
100
AcDbDimStyleTableRecord
  2
DXF001
 70
     0
 41
2.000000
 44
1.500000
 42
0.800000
145
0.661290
140
3.100000
144
1.000000
146
0.645161
 77
     1
 73
     0
 74
     0
271
     2
179
     2
275
     0
 78
     8
 79
     2
172
     1
340
3A5
  0
ENDTAB
  0
TABLE
  2
BLOCK_RECORD
  5
3B0
100
AcDbSymbolTable
 70
    12
  0
BLOCK_RECORD
  5
3B1
100
AcDbSymbolTableRecord
100
AcDbBlockTableRecord
  2
*MODEL_SPACE
  0
BLOCK_RECORD
  5
3B2
100
AcDbSymbolTableRecord
100
AcDbBlockTableRecord
  2
*PAPER_SPACE
  0
BLOCK_RECORD
  5
3B3
100
AcDbSymbolTableRecord
100
AcDbBlockTableRecord
  2
*PAPER_SPACE0
  0
BLOCK_RECORD
  5
1
100
AcDbSymbolTableRecord
100
AcDbBlockTableRecord
  2
_NONE
  0
BLOCK_RECORD
  5
4
100
AcDbSymbolTableRecord
100
AcDbBlockTableRecord
  2
_CLOSED
  0
BLOCK_RECORD
  5
B
100
AcDbSymbolTableRecord
100
AcDbBlockTableRecord
  2
_DOT
  0
BLOCK_RECORD
  5
13
100
AcDbSymbolTableRecord
100
AcDbBlockTableRecord
  2
_OPEN
  0
BLOCK_RECORD
  5
19
100
AcDbSymbolTableRecord
100
AcDbBlockTableRecord
  2
_ORIGIN
  0
BLOCK_RECORD
  5
1E
100
AcDbSymbolTableRecord
100
AcDbBlockTableRecord
  2
_OPEN30
  0
BLOCK_RECORD
  5
24
100
AcDbSymbolTableRecord
100
AcDbBlockTableRecord
  2
_BOXFILLED
  0
BLOCK_RECORD
  5
29
100
AcDbSymbolTableRecord
100
AcDbBlockTableRecord
  2
_BOXBLANK
  0
BLOCK_RECORD
  5
31
100
AcDbSymbolTableRecord
100
AcDbBlockTableRecord
  2
_OBLIQUE
  0
BLOCK_RECORD
  5
35
100
AcDbSymbolTableRecord
100
AcDbBlockTableRecord
  2
_OPEN90
  0
BLOCK_RECORD
  5
3B
100
AcDbSymbolTableRecord
100
AcDbBlockTableRecord
  2
_CLOSEDBLANK
  0
BLOCK_RECORD
  5
41
100
AcDbSymbolTableRecord
100
AcDbBlockTableRecord
  2
_DOTBLANK
  0
ENDTAB
  0
ENDSEC
  0
SECTION
  2
BLOCKS
  0
BLOCK
  5
3B4
100
AcDbEntity
  8
0
100
AcDbBlockBegin
  2
*MODEL_SPACE
 70
     0
 10
0.0
 20
0.0
 30
0.0
  3
*MODEL_SPACE
  1

  0
ENDBLK
  5
3B5
100
AcDbEntity
  8
0
100
AcDbBlockEnd
  0
BLOCK
  5
3B6
100
AcDbEntity
  8
0
100
AcDbBlockBegin
  2
*PAPER_SPACE
 70
     0
 10
0.0
 20
0.0
 30
0.0
  3
*PAPER_SPACE
  1

  0
ENDBLK
  5
3B7
100
AcDbEntity
  8
0
100
AcDbBlockEnd
  0
BLOCK
  5
3B8
100
AcDbEntity
  8
0
100
AcDbBlockBegin
  2
*PAPER_SPACE0
 70
     0
 10
0.0
 20
0.0
 30
0.0
  3
*PAPER_SPACE0
  1

  0
ENDBLK
  5
3B9
100
AcDbEntity
  8
0
100
AcDbBlockEnd
  0
BLOCK
  5
2
330
1
100
AcDbEntity
  8
0
100
AcDbBlockBegin
  2
_NONE
 70
     0
 10
0.0
 20
0.0
 30
0.0
  3
_NONE
  1

  0
ENDBLK
  5
3
330
1
100
AcDbEntity
  8
0
100
AcDbBlockEnd
  0
BLOCK
  5
5
330
4
100
AcDbEntity
  8
0
100
AcDbBlockBegin
  2
_CLOSED
 70
     0
 10
0.0
 20
0.0
 30
0.0
  3
_CLOSED
  1

  0
LINE
  5
6
330
4
100
AcDbEntity
  8
0
  6
BYBLOCK
 62
     0
370
    -2
100
AcDbLine
 10
-1.0
 20
0.166667
 30
0.0
 11
0.0
 21
0.0
 31
0.0
  0
LINE
  5
7
330
4
100
AcDbEntity
  8
0
  6
BYBLOCK
 62
     0
370
    -2
100
AcDbLine
 10
0.0
 20
0.0
 30
0.0
 11
-1.0
 21
-0.166667
 31
0.0
  0
LINE
  5
8
330
4
100
AcDbEntity
  8
0
  6
BYBLOCK
 62
     0
370
    -2
100
AcDbLine
 10
-1.0
 20
0.166667
 30
0.0
 11
-1.0
 21
-0.166667
 31
0.0
  0
LINE
  5
9
330
4
100
AcDbEntity
  8
0
  6
BYBLOCK
 62
     0
370
    -2
100
AcDbLine
 10
0.0
 20
0.0
 30
0.0
 11
-1.0
 21
0.0
 31
0.0
  0
ENDBLK
  5
A
330
4
100
AcDbEntity
  8
0
100
AcDbBlockEnd
  0
BLOCK
  5
C
330
B
100
AcDbEntity
  8
0
100
AcDbBlockBegin
  2
_DOT
 70
     0
 10
0.0
 20
0.0
 30
0.0
  3
_DOT
  1

  0
POLYLINE
  5
D
330
B
100
AcDbEntity
  8
0
  6
BYBLOCK
 62
     0
370
    -2
100
AcDb2dPolyline
 66
     1
 10
0.0
 20
0.0
 30
0.0
 70
     1
 40
0.5
 41
0.5
  0
VERTEX
  5
E
330
B
100
AcDbEntity
  8
0
  6
BYBLOCK
 62
     0
370
    -2
100
AcDbVertex
100
AcDb2dVertex
 10
-0.25
 20
0.0
 30
0.0
 42
1.0
  0
VERTEX
  5
F
330
B
100
AcDbEntity
  8
0
  6
BYBLOCK
 62
     0
370
    -2
100
AcDbVertex
100
AcDb2dVertex
 10
0.25
 20
0.0
 30
0.0
 42
1.0
  0
SEQEND
  5
10
330
B
100
AcDbEntity
  8
0
  6
BYBLOCK
 62
     0
370
    -2
  0
LINE
  5
11
330
B
100
AcDbEntity
  8
0
  6
BYBLOCK
 62
     0
370
    -2
100
AcDbLine
 10
-0.5
 20
0.0
 30
0.0
 11
-1.0
 21
0.0
 31
0.0
  0
ENDBLK
  5
12
330
B
100
AcDbEntity
  8
0
100
AcDbBlockEnd
  0
BLOCK
  5
14
330
13
100
AcDbEntity
  8
0
100
AcDbBlockBegin
  2
_OPEN
 70
     0
 10
0.0
 20
0.0
 30
0.0
  3
_OPEN
  1

  0
LINE
  5
15
330
13
100
AcDbEntity
  8
0
  6
BYBLOCK
 62
     0
370
    -2
100
AcDbLine
 10
-1.0
 20
0.166667
 30
0.0
 11
0.0
 21
0.0
 31
0.0
  0
LINE
  5
16
330
13
100
AcDbEntity
  8
0
  6
BYBLOCK
 62
     0
370
    -2
100
AcDbLine
 10
0.0
 20
0.0
 30
0.0
 11
-1.0
 21
-0.166667
 31
0.0
  0
LINE
  5
17
330
13
100
AcDbEntity
  8
0
  6
BYBLOCK
 62
     0
370
    -2
100
AcDbLine
 10
0.0
 20
0.0
 30
0.0
 11
-1.0
 21
0.0
 31
0.0
  0
ENDBLK
  5
18
330
13
100
AcDbEntity
  8
0
100
AcDbBlockEnd
  0
BLOCK
  5
1A
330
19
100
AcDbEntity
  8
0
100
AcDbBlockBegin
  2
_ORIGIN
 70
     0
 10
0.0
 20
0.0
 30
0.0
  3
_ORIGIN
  1

  0
CIRCLE
  5
1B
330
19
100
AcDbEntity
  8
0
  6
BYBLOCK
 62
     0
370
    -2
100
AcDbCircle
 10
0.0
 20
0.0
 30
0.0
 40
0.5
  0
LINE
  5
1C
330
19
100
AcDbEntity
  8
0
  6
BYBLOCK
 62
     0
370
    -2
100
AcDbLine
 10
0.0
 20
0.0
 30
0.0
 11
-1.0
 21
0.0
 31
0.0
  0
ENDBLK
  5
1D
330
19
100
AcDbEntity
  8
0
100
AcDbBlockEnd
  0
BLOCK
  5
1F
330
1E
100
AcDbEntity
  8
0
100
AcDbBlockBegin
  2
_OPEN30
 70
     0
 10
0.0
 20
0.0
 30
0.0
  3
_OPEN30
  1

  0
LINE
  5
20
330
1E
100
AcDbEntity
  8
0
  6
BYBLOCK
 62
     0
370
    -2
100
AcDbLine
 10
-1.0
 20
0.267949
 30
0.0
 11
0.0
 21
0.0
 31
0.0
  0
LINE
  5
21
330
1E
100
AcDbEntity
  8
0
  6
BYBLOCK
 62
     0
370
    -2
100
AcDbLine
 10
0.0
 20
0.0
 30
0.0
 11
-1.0
 21
-0.267949
 31
0.0
  0
LINE
  5
22
330
1E
100
AcDbEntity
  8
0
  6
BYBLOCK
 62
     0
370
    -2
100
AcDbLine
 10
0.0
 20
0.0
 30
0.0
 11
-1.0
 21
0.0
 31
0.0
  0
ENDBLK
  5
23
330
1E
100
AcDbEntity
  8
0
100
AcDbBlockEnd
  0
BLOCK
  5
25
330
24
100
AcDbEntity
  8
0
100
AcDbBlockBegin
  2
_BOXFILLED
 70
     0
 10
0.0
 20
0.0
 30
0.0
  3
_BOXFILLED
  1

  0
SOLID
  5
26
330
24
100
AcDbEntity
  8
0
  6
BYBLOCK
 62
     0
370
    -2
100
AcDbTrace
 10
-0.5
 20
0.5
 30
0.0
 11
0.5
 21
0.5
 31
0.0
 12
-0.5
 22
-0.5
 32
0.0
 13
0.5
 23
-0.5
 33
0.0
  0
LINE
  5
27
330
24
100
AcDbEntity
  8
0
  6
BYBLOCK
 62
     0
370
    -2
100
AcDbLine
 10
-0.5
 20
0.0
 30
0.0
 11
-1.0
 21
0.0
 31
0.0
  0
ENDBLK
  5
28
330
24
100
AcDbEntity
  8
0
100
AcDbBlockEnd
  0
BLOCK
  5
2A
330
29
100
AcDbEntity
  8
0
100
AcDbBlockBegin
  2
_BOXBLANK
 70
     0
 10
0.0
 20
0.0
 30
0.0
  3
_BOXBLANK
  1

  0
LINE
  5
2B
330
29
100
AcDbEntity
  8
0
  6
BYBLOCK
 62
     0
370
    -2
100
AcDbLine
 10
-0.5
 20
-0.5
 30
0.0
 11
0.5
 21
-0.5
 31
0.0
  0
LINE
  5
2C
330
29
100
AcDbEntity
  8
0
  6
BYBLOCK
 62
     0
370
    -2
100
AcDbLine
 10
0.5
 20
-0.5
 30
0.0
 11
0.5
 21
0.5
 31
0.0
  0
LINE
  5
2D
330
29
100
AcDbEntity
  8
0
  6
BYBLOCK
 62
     0
370
    -2
100
AcDbLine
 10
0.5
 20
0.5
 30
0.0
 11
-0.5
 21
0.5
 31
0.0
  0
LINE
  5
2E
330
29
100
AcDbEntity
  8
0
  6
BYBLOCK
 62
     0
370
    -2
100
AcDbLine
 10
-0.5
 20
0.5
 30
0.0
 11
-0.5
 21
-0.5
 31
0.0
  0
LINE
  5
2F
330
29
100
AcDbEntity
  8
0
  6
BYBLOCK
 62
     0
370
    -2
100
AcDbLine
 10
-0.5
 20
0.0
 30
0.0
 11
-1.0
 21
0.0
 31
0.0
  0
ENDBLK
  5
30
330
29
100
AcDbEntity
  8
0
100
AcDbBlockEnd
  0
BLOCK
  5
32
330
31
100
AcDbEntity
  8
0
100
AcDbBlockBegin
  2
_OBLIQUE
 70
     0
 10
0.0
 20
0.0
 30
0.0
  3
_OBLIQUE
  1

  0
LINE
  5
33
330
31
100
AcDbEntity
  8
0
  6
BYBLOCK
 62
     0
370
    -2
100
AcDbLine
 10
-0.5
 20
-0.5
 30
0.0
 11
0.5
 21
0.5
 31
0.0
  0
ENDBLK
  5
34
330
31
100
AcDbEntity
  8
0
100
AcDbBlockEnd
  0
BLOCK
  5
36
330
35
100
AcDbEntity
  8
0
100
AcDbBlockBegin
  2
_OPEN90
 70
     0
 10
0.0
 20
0.0
 30
0.0
  3
_OPEN90
  1

  0
LINE
  5
37
330
35
100
AcDbEntity
  8
0
  6
BYBLOCK
 62
     0
370
    -2
100
AcDbLine
 10
-0.5
 20
0.5
 30
0.0
 11
0.0
 21
0.0
 31
0.0
  0
LINE
  5
38
330
35
100
AcDbEntity
  8
0
  6
BYBLOCK
 62
     0
370
    -2
100
AcDbLine
 10
0.0
 20
0.0
 30
0.0
 11
-0.5
 21
-0.5
 31
0.0
  0
LINE
  5
39
330
35
100
AcDbEntity
  8
0
  6
BYBLOCK
 62
     0
370
    -2
100
AcDbLine
 10
0.0
 20
0.0
 30
0.0
 11
-1.0
 21
0.0
 31
0.0
  0
ENDBLK
  5
3A
330
35
100
AcDbEntity
  8
0
100
AcDbBlockEnd
  0
BLOCK
  5
3C
330
3B
100
AcDbEntity
  8
0
100
AcDbBlockBegin
  2
_CLOSEDBLANK
 70
     0
 10
0.0
 20
0.0
 30
0.0
  3
_CLOSEDBLANK
  1

  0
LINE
  5
3D
330
3B
100
AcDbEntity
  8
0
  6
BYBLOCK
 62
     0
370
    -2
100
AcDbLine
 10
-1.0
 20
0.1666666666666666
 30
0.0
 11
0.0
 21
0.0
 31
0.0
  0
LINE
  5
3E
330
3B
100
AcDbEntity
  8
0
  6
BYBLOCK
 62
     0
370
    -2
100
AcDbLine
 10
0.0
 20
0.0
 30
0.0
 11
-1.0
 21
-0.1666666666666666
 31
0.0
  0
LINE
  5
3F
330
3B
100
AcDbEntity
  8
0
  6
BYBLOCK
 62
     0
370
    -2
100
AcDbLine
 10
-1.0
 20
0.1666666666666666
 30
0.0
 11
-1.0
 21
-0.1666666666666666
 31
0.0
  0
ENDBLK
  5
40
330
3B
100
AcDbEntity
  8
0
100
AcDbBlockEnd
  0
BLOCK
  5
42
330
41
100
AcDbEntity
  8
0
100
AcDbBlockBegin
  2
_DOTBLANK
 70
     0
 10
0.0
 20
0.0
 30
0.0
  3
_DOTBLANK
  1

  0
CIRCLE
  5
43
330
41
100
AcDbEntity
  8
0
  6
BYBLOCK
 62
     0
370
    -2
100
AcDbCircle
 10
0.0
 20
0.0
 30
0.0
 40
0.5
  0
LINE
  5
44
330
41
100
AcDbEntity
  8
0
  6
BYBLOCK
 62
     0
370
    -2
100
AcDbLine
 10
-0.5
 20
0.0
 30
0.0
 11
-1.0
 21
0.0
 31
0.0
  0
ENDBLK
  5
45
330
41
100
AcDbEntity
  8
0
100
AcDbBlockEnd
  0
ENDSEC
  0
SECTION
  2
ENTITIES
  0
MTEXT
  5
46
100
AcDbEntity
  8
7
  6
CONTINUOUS
 62
3
100
AcDbMText
 10
10.00000000000000
 20
18.00000000000000
 30
0.000000000000000
 40
3.000000000000000
 41
0.000000000000000
 44
0.6739999771118164
 71
     7
 72
     1
  1
{\H0.94x;{TYPE No.THA-405D-1K(No.200)}}
 11
1.000000000000000
 21
0.000000000000000
 31
0.000000000000000
  7
STANDARD
  0
LINE
  5
47
100
AcDbEntity
  8
1
  6
CONTINUOUS
 62
7
100
AcDbLine
 10
212.6321869999999
 20
54.82505800000000
 30
0.000000000000000
 11
236.1321869999999
 21
54.82505800000000
 31
0.000000000000000
  0
LINE
  5
48
100
AcDbEntity
  8
1
  6
CONTINUOUS
 62
7
100
AcDbLine
 10
212.6321869999999
 20
78.12405799999998
 30
0.000000000000000
 11
236.1321869999999
 21
78.12405799999998
 31
0.000000000000000
  0
LINE
  5
49
100
AcDbEntity
  8
1
  6
CONTINUOUS
 62
7
100
AcDbLine
 10
212.6321869999999
 20
79.17455799999998
 30
0.000000000000000
 11
237.6321869999999
 21
79.17455799999998
 31
0.000000000000000
  0
LINE
  5
4A
100
AcDbEntity
  8
4
  6
CENTER
 62
1
100
AcDbLine
 10
199.2341869999999
 20
66.47455800000000
 30
0.000000000000000
 11
247.2151869999999
 21
66.47455800000000
 31
0.000000000000000
  0
LINE
  5
4B
100
AcDbEntity
  8
1
  6
CONTINUOUS
 62
7
100
AcDbLine
 10
212.6321869999999
 20
53.77455799999999
 30
0.000000000000000
 11
237.6321869999999
 21
53.77455799999999
 31
0.000000000000000
  0
LINE
  5
4C
100
AcDbEntity
  8
1
  6
CONTINUOUS
 62
7
100
AcDbLine
 10
207.4821870000000
 20
76.94717500000000
 30
0.000000000000000
 11
207.4821870000000
 21
56.00194000000001
 31
0.000000000000000
  0
ARC
  5
4D
100
AcDbEntity
  8
1
  6
CONTINUOUS
 62
7
100
AcDbCircle
 10
217.2483419999998
 20
66.47455800000000
 30
0.000000000000000
 40
14.45854200000000
100
AcDbArc
 50
134.9901930000000
 51
225.0098069999999
  0
LINE
  5
4E
100
AcDbEntity
  8
1
  6
CONTINUOUS
 62
7
100
AcDbLine
 10
208.6321869999999
 20
79.47455800000000
 30
0.000000000000000
 11
208.6321869999999
 21
53.47455799999998
 31
0.000000000000000
  0
LINE
  5
4F
100
AcDbEntity
  8
1
  6
CONTINUOUS
 62
7
100
AcDbLine
 10
212.6321869999999
 20
82.47455800000000
 30
0.000000000000000
 11
212.6321869999999
 21
50.47455800000000
 31
0.000000000000000
  0
LINE
  5
50
100
AcDbEntity
  8
1
  6
CONTINUOUS
 62
7
100
AcDbLine
 10
211.6321869999999
 20
82.47455800000000
 30
0.000000000000000
 11
211.6321869999999
 21
50.47455800000000
 31
0.000000000000000
  0
LINE
  5
51
100
AcDbEntity
  8
1
  6
CONTINUOUS
 62
7
100
AcDbLine
 10
210.1321870000000
 20
82.47455800000000
 30
0.000000000000000
 11
210.1321870000000
 21
50.47455800000000
 31
0.000000000000000
  0
ARC
  5
52
100
AcDbEntity
  8
1
  6
CONTINUOUS
 62
7
100
AcDbCircle
 10
207.7145980000000
 20
56.97455800000000
 30
0.000000000000000
 40
1.000000000000000
100
AcDbArc
 50
226.5090580000000
 51
270.0000000000000
  0
LINE
  5
53
100
AcDbEntity
  8
1
  6
CONTINUOUS
 62
7
100
AcDbLine
 10
221.6321869999999
 20
54.82505800000000
 30
0.000000000000000
 11
221.6321869999999
 21
53.77455799999999
 31
0.000000000000000
  0
LINE
  5
54
100
AcDbEntity
  8
1
  6
CONTINUOUS
 62
7
100
AcDbLine
 10
210.1321870000000
 20
50.47455800000000
 30
0.000000000000000
 11
212.6321869999999
 21
50.47455800000000
 31
0.000000000000000
  0
LINE
  5
55
100
AcDbEntity
  8
1
  6
CONTINUOUS
 62
7
100
AcDbLine
 10
207.7145980000000
 20
55.97455799999998
 30
0.000000000000000
 11
208.6321869999999
 21
55.97455799999998
 31
0.000000000000000
  0
LINE
  5
56
100
AcDbEntity
  8
1
  6
CONTINUOUS
 62
7
100
AcDbLine
 10
208.6321869999999
 20
53.47455799999998
 30
0.000000000000000
 11
210.1321870000000
 21
50.47455800000000
 31
0.000000000000000
  0
ARC
  5
57
100
AcDbEntity
  8
1
  6
CONTINUOUS
 62
7
100
AcDbCircle
 10
207.7145980000000
 20
75.97455800000000
 30
0.000000000000000
 40
1.000000000000000
100
AcDbArc
 50
90.00000000000000
 51
133.4909420000000
  0
LINE
  5
58
100
AcDbEntity
  8
1
  6
CONTINUOUS
 62
7
100
AcDbLine
 10
221.6321869999999
 20
79.17455799999998
 30
0.000000000000000
 11
221.6321869999999
 21
78.12405799999998
 31
0.000000000000000
  0
LINE
  5
59
100
AcDbEntity
  8
1
  6
CONTINUOUS
 62
7
100
AcDbLine
 10
210.1321870000000
 20
82.47455800000000
 30
0.000000000000000
 11
212.6321869999999
 21
82.47455800000000
 31
0.000000000000000
  0
LINE
  5
5A
100
AcDbEntity
  8
1
  6
CONTINUOUS
 62
7
100
AcDbLine
 10
210.1321870000000
 20
82.47455800000002
 30
0.000000000000000
 11
208.6321869999999
 21
79.47455799999999
 31
0.000000000000000
  0
LINE
  5
5B
100
AcDbEntity
  8
1
  6
CONTINUOUS
 62
7
100
AcDbLine
 10
207.7145980000000
 20
76.97455800000000
 30
0.000000000000000
 11
208.6321869999999
 21
76.97455800000000
 31
0.000000000000000
  0
LINE
  5
5C
100
AcDbEntity
  8
1
  6
CONTINUOUS
 62
7
100
AcDbLine
 10
237.1321870000000
 20
77.12405799999998
 30
0.000000000000000
 11
237.1321870000000
 21
55.82505799999999
 31
0.000000000000000
  0
LINE
  5
5D
100
AcDbEntity
  8
1
  6
CONTINUOUS
 62
7
100
AcDbLine
 10
237.1321870000000
 20
77.12405799999998
 30
0.000000000000000
 11
237.1321870000000
 21
55.82505799999999
 31
0.000000000000000
  0
LINE
  5
5E
100
AcDbEntity
  8
2
  6
CONTINUOUS
 62
4
100
AcDbLine
 10
244.0321870000000
 20
66.47455800000002
 30
0.000000000000000
 11
241.0321870000000
 21
62.27455800000000
 31
0.000000000000000
  0
LINE
  5
5F
100
AcDbEntity
  8
1
  6
CONTINUOUS
 62
7
100
AcDbLine
 10
244.0321870000000
 20
59.47455800000000
 30
0.000000000000000
 11
244.0321870000000
 21
73.47455800000000
 31
0.000000000000000
  0
LINE
  5
60
100
AcDbEntity
  8
1
  6
CONTINUOUS
 62
7
100
AcDbLine
 10
238.6321869999999
 20
78.17455799999998
 30
0.000000000000000
 11
238.6321869999999
 21
54.77455800000000
 31
0.000000000000000
  0
LINE
  5
61
100
AcDbEntity
  8
1
  6
CONTINUOUS
 62
7
100
AcDbLine
 10
241.0321870000000
 20
53.47455799999998
 30
0.000000000000000
 11
241.0321870000000
 21
76.39355800000000
 31
0.000000000000000
  0
LINE
  5
62
100
AcDbEntity
  8
1
  6
CONTINUOUS
 62
7
100
AcDbLine
 10
239.0321870000000
 20
53.47455799999998
 30
0.000000000000000
 11
239.0321870000000
 21
76.39355800000000
 31
0.000000000000000
  0
LINE
  5
63
100
AcDbEntity
  8
1
  6
CONTINUOUS
 62
7
100
AcDbLine
 10
239.0321870000000
 20
53.47455799999998
 30
0.000000000000000
 11
241.0321870000000
 21
53.47455799999998
 31
0.000000000000000
  0
ARC
  5
64
100
AcDbEntity
  8
1
  6
CONTINUOUS
 62
7
100
AcDbCircle
 10
236.1321869999999
 20
55.82505799999999
 30
0.000000000000000
 40
1.000000000000000
100
AcDbArc
 50
270.0000000000000
 51
360.0000000000000
  0
LINE
  5
65
100
AcDbEntity
  8
1
  6
CONTINUOUS
 62
7
100
AcDbLine
 10
239.0321870000000
 20
59.47455800000000
 30
0.000000000000000
 11
238.6321869999999
 21
59.47455800000000
 31
0.000000000000000
  0
ARC
  5
66
100
AcDbEntity
  8
1
  6
CONTINUOUS
 62
7
100
AcDbCircle
 10
237.6321869999999
 20
54.77455800000000
 30
0.000000000000000
 40
1.000000000000000
100
AcDbArc
 50
270.0000000000000
 51
360.0000000000000
  0
LINE
  5
67
100
AcDbEntity
  8
2
  6
CONTINUOUS
 62
4
100
AcDbLine
 10
244.0321870000000
 20
59.47455799999999
 30
0.000000000000000
 11
241.0321870000000
 21
63.67455799999998
 31
0.000000000000000
  0
LINE
  5
68
100
AcDbEntity
  8
1
  6
CONTINUOUS
 62
7
100
AcDbLine
 10
241.0321870000000
 20
59.47455800000000
 30
0.000000000000000
 11
244.0321870000000
 21
59.47455800000000
 31
0.000000000000000
  0
LINE
  5
69
100
AcDbEntity
  8
1
  6
CONTINUOUS
 62
7
100
AcDbLine
 10
239.0321870000000
 20
76.39355800000000
 30
0.000000000000000
 11
241.0321870000000
 21
76.39355800000000
 31
0.000000000000000
  0
ARC
  5
6A
100
AcDbEntity
  8
1
  6
CONTINUOUS
 62
7
100
AcDbCircle
 10
236.1321869999999
 20
77.12405799999998
 30
0.000000000000000
 40
1.000000000000000
100
AcDbArc
 50
0.000000000000000
 51
90.00000000000000
  0
ARC
  5
6B
100
AcDbEntity
  8
1
  6
CONTINUOUS
 62
7
100
AcDbCircle
 10
237.6321869999999
 20
78.17455799999998
 30
0.000000000000000
 40
1.000000000000000
100
AcDbArc
 50
0.000000000000000
 51
90.00000000000000
  0
LINE
  5
6C
100
AcDbEntity
  8
1
  6
CONTINUOUS
 62
7
100
AcDbLine
 10
239.0321870000000
 20
73.47455800000000
 30
0.000000000000000
 11
238.6321869999999
 21
73.47455800000000
 31
0.000000000000000
  0
LINE
  5
6D
100
AcDbEntity
  8
1
  6
CONTINUOUS
 62
7
100
AcDbLine
 10
241.0321870000000
 20
73.47455800000000
 30
0.000000000000000
 11
244.0321870000000
 21
73.47455800000000
 31
0.000000000000000
  0
LINE
  5
6E
100
AcDbEntity
  8
1
  6
CONTINUOUS
 62
7
100
AcDbLine
 10
241.0321870000000
 20
66.47455800000000
 30
0.000000000000000
 11
244.0321870000000
 21
66.47455800000000
 31
0.000000000000000
  0
LINE
  5
6F
100
AcDbEntity
  8
2
  6
CONTINUOUS
 62
4
100
AcDbLine
 10
244.0321870000000
 20
73.47455800000000
 30
0.000000000000000
 11
241.0321870000000
 21
69.27455799999998
 31
0.000000000000000
  0
LINE
  5
70
100
AcDbEntity
  8
2
  6
CONTINUOUS
 62
4
100
AcDbLine
 10
244.0331870000000
 20
66.47455800000002
 30
0.000000000000000
 11
241.0321870000000
 21
70.67455800000002
 31
0.000000000000000
  0
LINE
  5
71
100
AcDbEntity
  8
5
  6
PHANTOM
 62
6
100
AcDbLine
 10
68.83218700000000
 20
290.6893180000000
 30
0.000000000000000
 11
136.8321870000000
 21
290.6893180000000
 31
0.000000000000000
  0
LINE
  5
72
100
AcDbEntity
  8
5
  6
PHANTOM
 62
6
100
AcDbLine
 10
68.83218700000000
 20
311.6893180000000
 30
0.000000000000000
 11
136.8321870000000
 21
311.6893180000000
 31
0.000000000000000
  0
LINE
  5
73
100
AcDbEntity
  8
4
  6
CENTER
 62
1
100
AcDbLine
 10
36.33218700000000
 20
301.1893180000000
 30
0.000000000000000
 11
143.8321870000000
 21
301.1893180000000
 31
0.000000000000000
  0
LINE
  5
74
100
AcDbEntity
  8
1
  6
CONTINUOUS
 62
7
100
AcDbLine
 10
76.83218700000002
 20
214.1893179999999
 30
0.000000000000000
 11
76.83218700000002
 21
284.1893179999999
 31
0.000000000000000
  0
LINE
  5
75
100
AcDbEntity
  8
1
  6
CONTINUOUS
 62
7
100
AcDbLine
 10
37.83218699999999
 20
284.1893179999999
 30
0.000000000000000
 11
37.83218699999999
 21
214.1893179999999
 31
0.000000000000000
  0
LINE
  5
76
100
AcDbEntity
  8
1
  6
CONTINUOUS
 62
7
100
AcDbLine
 10
41.33218699999999
 20
320.1893180000000
 30
0.000000000000000
 11
41.33218699999999
 21
192.1893179999999
 31
0.000000000000000
  0
LINE
  5
77
100
AcDbEntity
  8
1
  6
CONTINUOUS
 62
7
100
AcDbLine
 10
73.33218700000000
 20
320.1893180000000
 30
0.000000000000000
 11
73.33218700000000
 21
192.1893179999999
 31
0.000000000000000
  0
LINE
  5
78
100
AcDbEntity
  8
1
  6
CONTINUOUS
 62
7
100
AcDbLine
 10
70.33218700000000
 20
192.1893179999999
 30
0.000000000000000
 11
70.33218700000000
 21
320.1893180000000
 31
0.000000000000000
  0
LINE
  5
79
100
AcDbEntity
  8
1
  6
CONTINUOUS
 62
7
100
AcDbLine
 10
44.33218700000000
 20
320.1893180000000
 30
0.000000000000000
 11
44.33218700000000
 21
192.1893179999999
 31
0.000000000000000
  0
LINE
  5
7A
100
AcDbEntity
  8
1
  6
CONTINUOUS
 62
7
100
AcDbLine
 10
46.68218699999999
 20
301.1893180000000
 30
0.000000000000000
 11
46.68218699999999
 21
219.6893180000000
 31
0.000000000000000
  0
LINE
  5
7B
100
AcDbEntity
  8
1
  6
CONTINUOUS
 62
7
100
AcDbLine
 10
67.98218700000000
 20
301.1893180000000
 30
0.000000000000000
 11
67.98218700000000
 21
219.6893180000000
 31
0.000000000000000
  0
LINE
  5
7C
100
AcDbEntity
  8
1
  6
CONTINUOUS
 62
7
100
AcDbLine
 10
46.83218700000000
 20
289.6893180000000
 30
0.000000000000000
 11
46.83218700000000
 21
221.6893180000000
 31
0.000000000000000
  0
LINE
  5
7D
100
AcDbEntity
  8
1
  6
CONTINUOUS
 62
7
100
AcDbLine
 10
67.83218700000000
 20
289.6893180000000
 30
0.000000000000000
 11
67.83218700000000
 21
221.6893180000000
 31
0.000000000000000
  0
LINE
  5
7E
100
AcDbEntity
  8
4
  6
CENTER
 62
1
100
AcDbLine
 10
57.33218700000000
 20
330.1893180000000
 30
0.000000000000000
 11
57.33218700000000
 21
182.1893180000000
 31
0.000000000000000
  0
LINE
  5
7F
100
AcDbEntity
  8
1
  6
CONTINUOUS
 62
7
100
AcDbLine
 10
65.83218700000000
 20
219.6893180000000
 30
0.000000000000000
 11
48.83218700000000
 21
219.6893180000000
 31
0.000000000000000
  0
CIRCLE
  5
80
100
AcDbEntity
  8
1
  6
CONTINUOUS
 62
7
100
AcDbCircle
 10
57.33218700000000
 20
210.1893179999999
 30
0.000000000000000
 40
7.799999999999998
  0
CIRCLE
  5
81
100
AcDbEntity
  8
1
  6
CONTINUOUS
 62
7
100
AcDbCircle
 10
57.33218700000000
 20
210.1893179999999
 30
0.000000000000000
 40
7.650000000000000
  0
ARC
  5
82
100
AcDbEntity
  8
1
  6
CONTINUOUS
 62
7
100
AcDbCircle
 10
57.33218700000000
 20
210.1893179999999
 30
0.000000000000000
 40
9.650000000000000
100
AcDbArc
 50
180.0000000000000
 51
360.0000000000000
  0
LINE
  5
83
100
AcDbEntity
  8
4
  6
CENTER
 62
1
100
AcDbLine
 10
68.48218700000000
 20
210.1893179999999
 30
0.000000000000000
 11
46.18218699999999
 21
210.1893179999999
 31
0.000000000000000
  0
ARC
  5
84
100
AcDbEntity
  8
1
  6
CONTINUOUS
 62
7
100
AcDbCircle
 10
57.33218700000000
 20
210.1893179999999
 30
0.000000000000000
 40
9.600000000000000
100
AcDbArc
 50
180.0000000000000
 51
360.0000000000000
  0
LINE
  5
85
100
AcDbEntity
  8
1
  6
CONTINUOUS
 62
7
100
AcDbLine
 10
47.73218700000000
 20
219.1893180000000
 30
0.000000000000000
 11
66.93218700000000
 21
219.1893180000000
 31
0.000000000000000
  0
LINE
  5
86
100
AcDbEntity
  8
1
  6
CONTINUOUS
 62
7
100
AcDbLine
 10
46.33218699999999
 20
187.1893179999999
 30
0.000000000000000
 11
68.33218700000000
 21
187.1893179999999
 31
0.000000000000000
  0
LINE
  5
87
100
AcDbEntity
  8
1
  6
CONTINUOUS
 62
7
100
AcDbLine
 10
46.33218699999999
 20
190.1893179999999
 30
0.000000000000000
 11
68.33218700000000
 21
190.1893179999999
 31
0.000000000000000
  0
LINE
  5
88
100
AcDbEntity
  8
1
  6
CONTINUOUS
 62
7
100
AcDbLine
 10
47.68218700000000
 20
220.0530109999998
 30
0.000000000000000
 11
47.68218700000000
 21
210.1893179999999
 31
0.000000000000000
  0
LINE
  5
89
100
AcDbEntity
  8
1
  6
CONTINUOUS
 62
7
100
AcDbLine
 10
47.73218700000000
 20
210.1893179999999
 30
0.000000000000000
 11
47.73218700000000
 21
220.0189879999999
 31
0.000000000000000
  0
ARC
  5
8A
100
AcDbEntity
  8
1
  6
CONTINUOUS
 62
7
100
AcDbCircle
 10
48.83218700000000
 20
221.6893180000000
 30
0.000000000000000
 40
2.000000000000000
100
AcDbArc
 50
180.0000000000000
 51
270.0000000000000
  0
ARC
  5
8B
100
AcDbEntity
  8
1
  6
CONTINUOUS
 62
7
100
AcDbCircle
 10
46.33218699999999
 20
192.1893179999999
 30
0.000000000000000
 40
5.000000000000000
100
AcDbArc
 50
180.0000000000000
 51
270.0000000000000
  0
ARC
  5
8C
100
AcDbEntity
  8
1
  6
CONTINUOUS
 62
7
100
AcDbCircle
 10
46.33218699999999
 20
192.1893179999999
 30
0.000000000000000
 40
2.000000000000000
100
AcDbArc
 50
180.0000000000000
 51
270.0000000000000
  0
LINE
  5
8D
100
AcDbEntity
  8
1
  6
CONTINUOUS
 62
7
100
AcDbLine
 10
40.33218699999999
 20
211.6893179999999
 30
0.000000000000000
 11
41.33218699999999
 21
211.6893179999999
 31
0.000000000000000
  0
ARC
  5
8E
100
AcDbEntity
  8
1
  6
CONTINUOUS
 62
7
100
AcDbCircle
 10
40.33218699999999
 20
214.1893179999999
 30
0.000000000000000
 40
2.500000000000000
100
AcDbArc
 50
180.0000000000000
 51
270.0000000000000
  0
LINE
  5
8F
100
AcDbEntity
  8
1
  6
CONTINUOUS
 62
7
100
AcDbLine
 10
46.68218699999998
 20
219.6893180000000
 30
0.000000000000000
 11
47.68218700000000
 21
218.6893179999999
 31
0.000000000000000
  0
LINE
  5
90
100
AcDbEntity
  8
1
  6
CONTINUOUS
 62
7
100
AcDbLine
 10
53.28218700000000
 20
219.6893180000000
 30
0.000000000000000
 11
53.28218700000000
 21
219.1893180000000
 31
0.000000000000000
  0
LINE
  5
91
100
AcDbEntity
  8
1
  6
CONTINUOUS
 62
7
100
AcDbLine
 10
61.38218700000000
 20
219.6893180000000
 30
0.000000000000000
 11
61.38218700000000
 21
219.1893180000000
 31
0.000000000000000
  0
LINE
  5
92
100
AcDbEntity
  8
1
  6
CONTINUOUS
 62
7
100
AcDbLine
 10
59.73218700000000
 20
217.6109079999999
 30
0.000000000000000
 11
59.73218700000000
 21
217.4530980000000
 31
0.000000000000000
  0
LINE
  5
93
100
AcDbEntity
  8
1
  6
CONTINUOUS
 62
7
100
AcDbLine
 10
58.33218699999999
 20
217.9249490000000
 30
0.000000000000000
 11
58.33218699999999
 21
217.7736759999999
 31
0.000000000000000
  0
LINE
  5
94
100
AcDbEntity
  8
1
  6
CONTINUOUS
 62
7
100
AcDbLine
 10
53.33218699999999
 20
219.6893180000000
 30
0.000000000000000
 11
53.33218699999999
 21
219.1893180000000
 31
0.000000000000000
  0
LINE
  5
95
100
AcDbEntity
  8
1
  6
CONTINUOUS
 62
7
100
AcDbLine
 10
61.33218700000000
 20
219.6893180000000
 30
0.000000000000000
 11
61.33218700000000
 21
219.1893180000000
 31
0.000000000000000
  0
LINE
  5
96
100
AcDbEntity
  8
1
  6
CONTINUOUS
 62
7
100
AcDbLine
 10
56.33218700000000
 20
213.5393180000000
 30
0.000000000000000
 11
58.33218699999999
 21
213.5393180000000
 31
0.000000000000000
  0
LINE
  5
97
100
AcDbEntity
  8
1
  6
CONTINUOUS
 62
7
100
AcDbLine
 10
49.59655500000000
 20
209.1893180000000
 30
0.000000000000000
 11
49.74782799999999
 21
209.1893180000000
 31
0.000000000000000
  0
LINE
  5
98
100
AcDbEntity
  8
1
  6
CONTINUOUS
 62
7
100
AcDbLine
 10
49.91059700000000
 20
207.7893179999998
 30
0.000000000000000
 11
50.06840700000000
 21
207.7893179999998
 31
0.000000000000000
  0
LINE
  5
99
100
AcDbEntity
  8
1
  6
CONTINUOUS
 62
7
100
AcDbLine
 10
54.93218699999999
 20
202.9255379999999
 30
0.000000000000000
 11
54.93218699999999
 21
202.7677270000000
 31
0.000000000000000
  0
LINE
  5
9A
100
AcDbEntity
  8
1
  6
CONTINUOUS
 62
7
100
AcDbLine
 10
59.73218700000000
 20
202.9255379999999
 30
0.000000000000000
 11
59.73218700000000
 21
202.7677270000000
 31
0.000000000000000
  0
CIRCLE
  5
9B
100
AcDbEntity
  8
1
  6
CONTINUOUS
 62
7
100
AcDbCircle
 10
57.33218700000000
 20
205.0393179999999
 30
0.000000000000000
 40
0.7500000000000000
  0
LINE
  5
9C
100
AcDbEntity
  8
1
  6
CONTINUOUS
 62
7
100
AcDbLine
 10
56.33218700000000
 20
206.5393180000000
 30
0.000000000000000
 11
58.33218699999999
 21
206.5393180000000
 31
0.000000000000000
  0
LINE
  5
9D
100
AcDbEntity
  8
1
  6
CONTINUOUS
 62
7
100
AcDbLine
 10
56.33218700000000
 20
206.5393180000000
 30
0.000000000000000
 11
56.33218700000000
 21
213.5393180000000
 31
0.000000000000000
  0
LINE
  5
9E
100
AcDbEntity
  8
1
  6
CONTINUOUS
 62
7
100
AcDbLine
 10
58.33218699999999
 20
206.5393180000000
 30
0.000000000000000
 11
58.33218699999999
 21
213.5393180000000
 31
0.000000000000000
  0
ARC
  5
9F
100
AcDbEntity
  8
1
  6
CONTINUOUS
 62
7
100
AcDbCircle
 10
65.83218700000000
 20
221.6893180000000
 30
0.000000000000000
 40
2.000000000000000
100
AcDbArc
 50
270.0000000000000
 51
360.0000000000000
  0
LINE
  5
A0
100
AcDbEntity
  8
1
  6
CONTINUOUS
 62
7
100
AcDbLine
 10
66.98218700000000
 20
220.0530109999998
 30
0.000000000000000
 11
66.98218700000000
 21
210.1893179999999
 31
0.000000000000000
  0
LINE
  5
A1
100
AcDbEntity
  8
1
  6
CONTINUOUS
 62
7
100
AcDbLine
 10
66.93218700000000
 20
210.1893179999999
 30
0.000000000000000
 11
66.93218700000000
 21
220.0189879999999
 31
0.000000000000000
  0
ARC
  5
A2
100
AcDbEntity
  8
1
  6
CONTINUOUS
 62
7
100
AcDbCircle
 10
68.33218700000000
 20
192.1893179999999
 30
0.000000000000000
 40
5.000000000000000
100
AcDbArc
 50
270.0000000000000
 51
360.0000000000000
  0
ARC
  5
A3
100
AcDbEntity
  8
1
  6
CONTINUOUS
 62
7
100
AcDbCircle
 10
68.33218700000000
 20
192.1893179999999
 30
0.000000000000000
 40
2.000000000000000
100
AcDbArc
 50
270.0000000000000
 51
360.0000000000000
  0
LINE
  5
A4
100
AcDbEntity
  8
1
  6
CONTINUOUS
 62
7
100
AcDbLine
 10
73.33218700000000
 20
211.6893179999999
 30
0.000000000000000
 11
74.33218700000002
 21
211.6893179999999
 31
0.000000000000000
  0
ARC
  5
A5
100
AcDbEntity
  8
1
  6
CONTINUOUS
 62
7
100
AcDbCircle
 10
74.33218700000002
 20
214.1893179999999
 30
0.000000000000000
 40
2.500000000000000
100
AcDbArc
 50
270.0000000000000
 51
360.0000000000000
  0
LINE
  5
A6
100
AcDbEntity
  8
1
  6
CONTINUOUS
 62
7
100
AcDbLine
 10
67.98218700000002
 20
219.6893180000000
 30
0.000000000000000
 11
66.98218700000000
 21
218.6893179999999
 31
0.000000000000000
  0
LINE
  5
A7
100
AcDbEntity
  8
1
  6
CONTINUOUS
 62
7
100
AcDbLine
 10
64.59596700000000
 20
212.5893179999999
 30
0.000000000000000
 11
64.75377700000000
 21
212.5893179999999
 31
0.000000000000000
  0
LINE
  5
A8
100
AcDbEntity
  8
1
  6
CONTINUOUS
 62
7
100
AcDbLine
 10
64.59596700000000
 20
207.7893179999998
 30
0.000000000000000
 11
64.75377700000000
 21
207.7893179999998
 31
0.000000000000000
  0
LINE
  5
A9
100
AcDbEntity
  8
1
  6
CONTINUOUS
 62
7
100
AcDbLine
 10
46.33218699999999
 20
325.1893180000000
 30
0.000000000000000
 11
68.33218700000000
 21
325.1893180000000
 31
0.000000000000000
  0
LINE
  5
AA
100
AcDbEntity
  8
1
  6
CONTINUOUS
 62
7
100
AcDbLine
 10
64.98262800000001
 20
297.4346069999999
 30
0.000000000000000
 11
49.68174600000001
 21
297.4346069999999
 31
0.000000000000000
  0
ARC
  5
AB
100
AcDbEntity
  8
1
  6
CONTINUOUS
 62
7
100
AcDbCircle
 10
57.33218700000000
 20
294.0177449999998
 30
0.000000000000000
 40
10.00000000000000
100
AcDbArc
 50
32.64990000000000
 51
147.3500999999999
  0
LINE
  5
AC
100
AcDbEntity
  8
1
  6
CONTINUOUS
 62
7
100
AcDbLine
 10
68.33218700000000
 20
322.1893180000000
 30
0.000000000000000
 11
46.33218699999999
 21
322.1893180000000
 31
0.000000000000000
  0
ARC
  5
AD
100
AcDbEntity
  8
1
  6
CONTINUOUS
 62
7
100
AcDbCircle
 10
57.33218700000000
 20
301.1893180000000
 30
0.000000000000000
 40
10.65000000000000
100
AcDbArc
 50
339.8788180000000
 51
560.1211819999999
  0
ARC
  5
AE
100
AcDbEntity
  8
1
  6
CONTINUOUS
 62
7
100
AcDbCircle
 10
57.33218700000000
 20
301.1893180000000
 30
0.000000000000000
 40
10.00000000000000
100
AcDbArc
 50
0.000000000000000
 51
180.0000000000000
  0
ARC
  5
AF
100
AcDbEntity
  8
1
  6
CONTINUOUS
 62
7
100
AcDbCircle
 10
40.33218699999999
 20
284.1893179999999
 30
0.000000000000000
 40
2.500000000000000
100
AcDbArc
 50
90.00000000000000
 51
180.0000000000000
  0
LINE
  5
B0
100
AcDbEntity
  8
1
  6
CONTINUOUS
 62
7
100
AcDbLine
 10
48.91235800000001
 20
299.4127880000000
 30
0.000000000000000
 11
47.33218700000000
 21
296.9466770000001
 31
0.000000000000000
  0
LINE
  5
B1
100
AcDbEntity
  8
1
  6
CONTINUOUS
 62
7
100
AcDbLine
 10
41.33218699999999
 20
286.6893180000000
 30
0.000000000000000
 11
40.33218699999999
 21
286.6893180000000
 31
0.000000000000000
  0
LINE
  5
B2
100
AcDbEntity
  8
1
  6
CONTINUOUS
 62
7
100
AcDbLine
 10
47.33218700000000
 20
296.9466770000000
 30
0.000000000000000
 11
46.83218700000000
 21
289.6893180000000
 31
0.000000000000000
  0
LINE
  5
B3
100
AcDbEntity
  8
1
  6
CONTINUOUS
 62
7
100
AcDbLine
 10
47.33218700000000
 20
301.1893180000000
 30
0.000000000000000
 11
47.33218700000000
 21
296.9466770000000
 31
0.000000000000000
  0
ARC
  5
B4
100
AcDbEntity
  8
1
  6
CONTINUOUS
 62
7
100
AcDbCircle
 10
46.33218699999999
 20
320.1893180000000
 30
0.000000000000000
 40
5.000000000000000
100
AcDbArc
 50
90.00000000000000
 51
180.0000000000000
  0
ARC
  5
B5
100
AcDbEntity
  8
1
  6
CONTINUOUS
 62
7
100
AcDbCircle
 10
46.33218699999999
 20
320.1893180000000
 30
0.000000000000000
 40
2.000000000000000
100
AcDbArc
 50
90.00000000000000
 51
180.0000000000000
  0
ARC
  5
B6
100
AcDbEntity
  8
1
  6
CONTINUOUS
 62
7
100
AcDbCircle
 10
74.33218700000002
 20
284.1893179999999
 30
0.000000000000000
 40
2.500000000000000
100
AcDbArc
 50
0.000000000000000
 51
90.00000000000000
  0
LINE
  5
B7
100
AcDbEntity
  8
1
  6
CONTINUOUS
 62
7
100
AcDbLine
 10
74.33218700000002
 20
286.6893180000000
 30
0.000000000000000
 11
73.33218700000000
 21
286.6893180000000
 31
0.000000000000000
  0
LINE
  5
B8
100
AcDbEntity
  8
1
  6
CONTINUOUS
 62
7
100
AcDbLine
 10
67.33218700000000
 20
296.9466770000000
 30
0.000000000000000
 11
67.83218700000000
 21
289.6893180000001
 31
0.000000000000000
  0
LINE
  5
B9
100
AcDbEntity
  8
1
  6
CONTINUOUS
 62
7
100
AcDbLine
 10
65.75201500000000
 20
299.4127879999999
 30
0.000000000000000
 11
67.33218700000000
 21
296.9466770000000
 31
0.000000000000000
  0
LINE
  5
BA
100
AcDbEntity
  8
1
  6
CONTINUOUS
 62
7
100
AcDbLine
 10
67.33218700000000
 20
301.1893180000000
 30
0.000000000000000
 11
67.33218700000000
 21
296.9466770000000
 31
0.000000000000000
  0
ARC
  5
BB
100
AcDbEntity
  8
1
  6
CONTINUOUS
 62
7
100
AcDbCircle
 10
68.33218700000000
 20
320.1893180000000
 30
0.000000000000000
 40
5.000000000000000
100
AcDbArc
 50
0.000000000000000
 51
90.00000000000000
  0
ARC
  5
BC
100
AcDbEntity
  8
1
  6
CONTINUOUS
 62
7
100
AcDbCircle
 10
68.33218700000000
 20
320.1893180000000
 30
0.000000000000000
 40
2.000000000000000
100
AcDbArc
 50
0.000000000000000
 51
90.00000000000000
  0
LINE
  5
BD
100
AcDbEntity
  8
1
  6
CONTINUOUS
 62
7
100
AcDbLine
 10
221.6321869999999
 20
287.7913179999998
 30
0.000000000000000
 11
221.6321869999999
 21
217.6893179999999
 31
0.000000000000000
  0
LINE
  5
BE
100
AcDbEntity
  8
5
  6
PHANTOM
 62
6
100
AcDbLine
 10
202.8964010000000
 20
290.6035309999999
 30
0.000000000000000
 11
165.3989259999999
 21
253.1060559999999
 31
0.000000000000000
  0
LINE
  5
BF
100
AcDbEntity
  8
5
  6
PHANTOM
 62
6
100
AcDbLine
 10
204.5532549999999
 20
300.7456670000000
 30
0.000000000000000
 11
152.6710040000000
 21
248.8634160000001
 31
0.000000000000000
  0
LINE
  5
C0
100
AcDbEntity
  8
1
  6
CONTINUOUS
 62
7
100
AcDbLine
 10
208.6321869999999
 20
322.1893180000000
 30
0.000000000000000
 11
208.6321869999999
 21
190.1893179999999
 31
0.000000000000000
  0
LINE
  5
C1
100
AcDbEntity
  8
1
  6
CONTINUOUS
 62
7
100
AcDbLine
 10
207.4821870000000
 20
294.5619009999999
 30
0.000000000000000
 11
207.4821870000000
 21
221.1479139999999
 31
0.000000000000000
  0
LINE
  5
C2
100
AcDbEntity
  8
1
  6
CONTINUOUS
 62
7
100
AcDbLine
 10
210.1321870000000
 20
325.1893180000000
 30
0.000000000000000
 11
210.1321870000000
 21
187.1893179999999
 31
0.000000000000000
  0
LINE
  5
C3
100
AcDbEntity
  8
1
  6
CONTINUOUS
 62
7
100
AcDbLine
 10
211.6321869999999
 20
325.1893180000000
 30
0.000000000000000
 11
211.6321869999999
 21
187.1893179999999
 31
0.000000000000000
  0
LINE
  5
C4
100
AcDbEntity
  8
1
  6
CONTINUOUS
 62
7
100
AcDbLine
 10
212.6321869999999
 20
325.1893180000000
 30
0.000000000000000
 11
212.6321869999999
 21
187.1893179999999
 31
0.000000000000000
  0
LINE
  5
C5
100
AcDbEntity
  8
5
  6
PHANTOM
 62
6
100
AcDbLine
 10
167.1666929999998
 20
240.7316879999999
 30
0.000000000000000
 11
154.6627250000000
 21
244.8996769999999
 31
0.000000000000000
  0
LINE
  5
C6
100
AcDbEntity
  8
5
  6
PHANTOM
 62
6
100
AcDbLine
 10
152.6710040000000
 20
246.7420949999999
 30
0.000000000000000
 11
154.2718459999998
 21
245.1412539999999
 31
0.000000000000000
  0
ARC
  5
C7
100
AcDbEntity
  8
5
  6
PHANTOM
 62
6
100
AcDbCircle
 10
153.7316640000000
 20
247.8027560000000
 30
0.000000000000000
 40
1.500000000000000
100
AcDbArc
 50
135.0000000000000
 51
225.0000000000000
  0
ARC
  5
C8
100
AcDbEntity
  8
5
  6
PHANTOM
 62
6
100
AcDbCircle
 10
154.9789529999999
 20
245.8483610000000
 30
0.000000000000000
 40
1.000000000000000
100
AcDbArc
 50
225.0000000000000
 51
251.5650509999999
  0
ARC
  5
C9
100
AcDbEntity
  8
5
  6
PHANTOM
 62
6
100
AcDbCircle
 10
169.2880129999998
 20
240.7316879999999
 30
0.000000000000000
 40
2.000000000000000
100
AcDbArc
 50
315.0000000000000
 51
404.9999999999999
  0
LINE
  5
CA
100
AcDbEntity
  8
5
  6
PHANTOM
 62
6
100
AcDbLine
 10
167.1666929999998
 20
240.7316879999999
 30
0.000000000000000
 11
166.4595860000000
 21
237.9032609999999
 31
0.000000000000000
  0
ARC
  5
CB
100
AcDbEntity
  8
5
  6
PHANTOM
 62
6
100
AcDbCircle
 10
167.8737999999999
 20
239.3174740000000
 30
0.000000000000000
 40
2.000000000000000
100
AcDbArc
 50
225.0000000000000
 51
315.0000000000000
  0
LINE
  5
CC
100
AcDbEntity
  8
5
  6
PHANTOM
 62
6
100
AcDbLine
 10
170.7022269999999
 20
239.3174740000000
 30
0.000000000000000
 11
169.2880129999998
 21
237.9032609999999
 31
0.000000000000000
  0
LINE
  5
CD
100
AcDbEntity
  8
5
  6
PHANTOM
 62
6
100
AcDbLine
 10
170.7022269999999
 20
242.1459009999998
 30
0.000000000000000
 11
165.3989259999999
 21
247.4492020000000
 31
0.000000000000000
  0
ARC
  5
CE
100
AcDbEntity
  8
5
  6
PHANTOM
 62
6
100
AcDbCircle
 10
168.2273529999999
 20
250.2776289999999
 30
0.000000000000000
 40
4.000000000000000
100
AcDbArc
 50
135.0000000000000
 51
225.0000000000000
  0
ARC
  5
CF
100
AcDbEntity
  8
1
  6
CONTINUOUS
 62
7
100
AcDbCircle
 10
208.9821870000000
 20
221.1479139999999
 30
0.000000000000000
 40
1.500000000000000
100
AcDbArc
 50
180.0000000000000
 51
256.5066009999998
  0
LINE
  5
D0
100
AcDbEntity
  8
1
  6
CONTINUOUS
 62
7
100
AcDbLine
 10
237.1321870000000
 20
235.1893179999999
 30
0.000000000000000
 11
237.1321870000000
 21
199.5393179999999
 31
0.000000000000000
  0
LINE
  5
D1
100
AcDbEntity
  8
1
  6
CONTINUOUS
 62
7
100
AcDbLine
 10
213.3921210000000
 20
198.5393179999999
 30
0.000000000000000
 11
236.1321869999999
 21
198.5393179999999
 31
0.000000000000000
  0
ARC
  5
D2
100
AcDbEntity
  8
1
  6
CONTINUOUS
 62
7
100
AcDbCircle
 10
212.6321869999999
 20
199.1893179999999
 30
0.000000000000000
 40
1.000000000000000
100
AcDbArc
 50
270.0000000000000
 51
360.0000000000000
  0
LINE
  5
D3
100
AcDbEntity
  8
1
  6
CONTINUOUS
 62
7
100
AcDbLine
 10
208.6321869999999
 20
190.1893179999999
 30
0.000000000000000
 11
210.1321870000000
 21
187.1893179999999
 31
0.000000000000000
  0
LINE
  5
D4
100
AcDbEntity
  8
1
  6
CONTINUOUS
 62
7
100
AcDbLine
 10
210.1321870000000
 20
187.1893179999999
 30
0.000000000000000
 11
212.6321869999999
 21
187.1893179999999
 31
0.000000000000000
  0
ARC
  5
D5
100
AcDbEntity
  8
1
  6
CONTINUOUS
 62
7
100
AcDbCircle
 10
220.6321870000000
 20
217.6893179999999
 30
0.000000000000000
 40
1.000000000000000
100
AcDbArc
 50
270.0000000000000
 51
360.0000000000000
  0
LINE
  5
D6
100
AcDbEntity
  8
1
  6
CONTINUOUS
 62
7
100
AcDbLine
 10
213.6321869999999
 20
215.6893179999999
 30
0.000000000000000
 11
213.6321869999999
 21
199.1893179999999
 31
0.000000000000000
  0
ARC
  5
D7
100
AcDbEntity
  8
1
  6
CONTINUOUS
 62
7
100
AcDbCircle
 10
214.6321869999999
 20
215.6893179999999
 30
0.000000000000000
 40
1.000000000000000
100
AcDbArc
 50
90.00000000000000
 51
180.0000000000000
  0
LINE
  5
D8
100
AcDbEntity
  8
1
  6
CONTINUOUS
 62
7
100
AcDbLine
 10
214.6321869999999
 20
216.6893179999999
 30
0.000000000000000
 11
220.6321870000000
 21
216.6893179999999
 31
0.000000000000000
  0
LINE
  5
D9
100
AcDbEntity
  8
1
  6
CONTINUOUS
 62
7
100
AcDbLine
 10
213.6321869999999
 20
211.6893179999999
 30
0.000000000000000
 11
213.6321869999999
 21
199.1893179999999
 31
0.000000000000000
  0
ARC
  5
DA
100
AcDbEntity
  8
1
  6
CONTINUOUS
 62
7
100
AcDbCircle
 10
236.1321869999999
 20
199.5393179999999
 30
0.000000000000000
 40
1.000000000000000
100
AcDbArc
 50
270.0000000000000
 51
360.0000000000000
  0
LINE
  5
DB
100
AcDbEntity
  8
4
  6
CENTER
 62
1
100
AcDbLine
 10
225.6321869999999
 20
245.6893179999999
 30
0.000000000000000
 11
218.6321870000000
 21
245.6893179999999
 31
0.000000000000000
  0
LINE
  5
DC
100
AcDbEntity
  8
1
  6
CONTINUOUS
 62
7
100
AcDbLine
 10
221.6321869999999
 20
236.1893180000000
 30
0.000000000000000
 11
236.1321869999999
 21
236.1893180000000
 31
0.000000000000000
  0
LINE
  5
DD
100
AcDbEntity
  8
1
  6
CONTINUOUS
 62
7
100
AcDbLine
 10
222.6321870000000
 20
250.1893179999999
 30
0.000000000000000
 11
222.6321870000000
 21
241.1893179999999
 31
0.000000000000000
  0
LINE
  5
DE
100
AcDbEntity
  8
1
  6
CONTINUOUS
 62
7
100
AcDbLine
 10
221.6321869999999
 20
241.1893179999999
 30
0.000000000000000
 11
222.6321870000000
 21
241.1893179999999
 31
0.000000000000000
  0
LINE
  5
DF
100
AcDbEntity
  8
1
  6
CONTINUOUS
 62
7
100
AcDbLine
 10
221.6321869999999
 20
250.1893179999999
 30
0.000000000000000
 11
222.6321870000000
 21
250.1893179999999
 31
0.000000000000000
  0
ARC
  5
E0
100
AcDbEntity
  8
1
  6
CONTINUOUS
 62
7
100
AcDbCircle
 10
236.1321869999999
 20
235.1893179999999
 30
0.000000000000000
 40
1.000000000000000
100
AcDbArc
 50
0.000000000000000
 51
90.00000000000000
  0
LINE
  5
E1
100
AcDbEntity
  8
5
  6
PHANTOM
 62
6
100
AcDbLine
 10
138.8321870000000
 20
309.6893180000000
 30
0.000000000000000
 11
138.8321870000000
 21
292.6893180000000
 31
0.000000000000000
  0
ARC
  5
E2
100
AcDbEntity
  8
5
  6
PHANTOM
 62
6
100
AcDbCircle
 10
136.8321870000000
 20
292.6893180000000
 30
0.000000000000000
 40
2.000000000000000
100
AcDbArc
 50
270.0000000000000
 51
360.0000000000000
  0
ARC
  5
E3
100
AcDbEntity
  8
5
  6
PHANTOM
 62
6
100
AcDbCircle
 10
136.8321870000000
 20
309.6893180000000
 30
0.000000000000000
 40
2.000000000000000
100
AcDbArc
 50
0.000000000000000
 51
90.00000000000000
  0
LINE
  5
E4
100
AcDbEntity
  8
1
  6
CONTINUOUS
 62
7
100
AcDbLine
 10
238.6321869999999
 20
312.1878399999999
 30
0.000000000000000
 11
238.6321869999999
 21
289.4893180000000
 31
0.000000000000000
  0
LINE
  5
E5
100
AcDbEntity
  8
1
  6
CONTINUOUS
 62
7
100
AcDbLine
 10
239.0321870000000
 20
311.1893180000000
 30
0.000000000000000
 11
239.0321870000000
 21
288.1893180000000
 31
0.000000000000000
  0
LINE
  5
E6
100
AcDbEntity
  8
1
  6
CONTINUOUS
 62
7
100
AcDbLine
 10
241.0321870000000
 20
312.4476480000000
 30
0.000000000000000
 11
241.0321870000000
 21
288.1893180000000
 31
0.000000000000000
  0
LINE
  5
E7
100
AcDbEntity
  8
1
  6
CONTINUOUS
 62
7
100
AcDbLine
 10
213.6321869999999
 20
313.1893180000000
 30
0.000000000000000
 11
213.6321869999999
 21
301.1893180000000
 31
0.000000000000000
  0
LINE
  5
E8
100
AcDbEntity
  8
1
  6
CONTINUOUS
 62
7
100
AcDbLine
 10
206.4111189999999
 20
308.2603850000000
 30
0.000000000000000
 11
203.2291390000001
 21
305.0784049999999
 31
0.000000000000000
  0
LINE
  5
E9
100
AcDbEntity
  8
5
  6
PHANTOM
 62
6
100
AcDbLine
 10
207.4821870000000
 20
307.8167350000000
 30
0.000000000000000
 11
207.4821870000000
 21
309.6893180000000
 31
0.000000000000000
  0
LINE
  5
EA
100
AcDbEntity
  8
4
  6
CENTER
 62
1
100
AcDbLine
 10
225.6321869999999
 20
277.6893180000000
 30
0.000000000000000
 11
218.6321870000000
 21
277.6893180000000
 31
0.000000000000000
  0
ARC
  5
EB
100
AcDbEntity
  8
1
  6
CONTINUOUS
 62
7
100
AcDbCircle
 10
222.6321870000000
 20
289.7913179999998
 30
0.000000000000000
 40
1.000000000000000
100
AcDbArc
 50
271.0309999999999
 51
360.0000000000000
  0
LINE
  5
EC
100
AcDbEntity
  8
1
  6
CONTINUOUS
 62
7
100
AcDbLine
 10
222.6321870000000
 20
288.4893180000000
 30
0.000000000000000
 11
237.6321869999999
 21
288.4893180000000
 31
0.000000000000000
  0
LINE
  5
ED
100
AcDbEntity
  8
4
  6
CENTER
 62
1
100
AcDbLine
 10
203.5321869999999
 20
301.1893180000000
 30
0.000000000000000
 11
249.0321869999999
 21
301.1893180000000
 31
0.000000000000000
  0
LINE
  5
EE
100
AcDbEntity
  8
1
  6
CONTINUOUS
 62
7
100
AcDbLine
 10
221.6321869999999
 20
282.1893180000000
 30
0.000000000000000
 11
222.6321870000000
 21
282.1893180000000
 31
0.000000000000000
  0
LINE
  5
EF
100
AcDbEntity
  8
1
  6
CONTINUOUS
 62
7
100
AcDbLine
 10
221.6321869999999
 20
273.1893180000000
 30
0.000000000000000
 11
222.6321870000000
 21
273.1893180000000
 31
0.000000000000000
  0
LINE
  5
F0
100
AcDbEntity
  8
1
  6
CONTINUOUS
 62
7
100
AcDbLine
 10
222.6321870000000
 20
282.1893180000000
 30
0.000000000000000
 11
222.6321870000000
 21
273.1893180000000
 31
0.000000000000000
  0
ARC
  5
F1
100
AcDbEntity
  8
5
  6
PHANTOM
 62
6
100
AcDbCircle
 10
197.4821870000000
 20
307.8167350000000
 30
0.000000000000000
 40
10.00000000000000
100
AcDbArc
 50
315.0000000000000
 51
360.0000000000000
  0
ARC
  5
F2
100
AcDbEntity
  8
1
  6
CONTINUOUS
 62
7
100
AcDbCircle
 10
197.4821870000000
 20
294.5619009999999
 30
0.000000000000000
 40
10.00000000000000
100
AcDbArc
 50
0.000000000000000
 51
45.00000000000000
  0
LINE
  5
F3
100
AcDbEntity
  8
1
  6
CONTINUOUS
 62
7
100
AcDbLine
 10
204.5532549999999
 20
301.6329680000000
 30
0.000000000000000
 11
203.2291390000000
 21
302.9570849999999
 31
0.000000000000000
  0
ARC
  5
F4
100
AcDbEntity
  8
1
  6
CONTINUOUS
 62
7
100
AcDbCircle
 10
204.2897989999999
 20
304.0177449999998
 30
0.000000000000000
 40
1.500000000000000
100
AcDbArc
 50
135.0000000000000
 51
225.0000000000000
  0
ARC
  5
F5
100
AcDbEntity
  8
5
  6
PHANTOM
 62
6
100
AcDbCircle
 10
204.3106139999999
 20
289.1893180000000
 30
0.000000000000000
 40
2.000000000000000
100
AcDbArc
 50
90.00000000000000
 51
135.0000000000000
  0
ARC
  5
F6
100
AcDbEntity
  8
1
  6
CONTINUOUS
 62
7
100
AcDbCircle
 10
222.6321870000000
 20
287.7913179999998
 30
0.000000000000000
 40
1.000000000000000
100
AcDbArc
 50
91.03120000000000
 51
180.0000000000000
  0
LINE
  5
F7
100
AcDbEntity
  8
1
  6
CONTINUOUS
 62
7
100
AcDbLine
 10
241.0321870000000
 20
288.1893180000000
 30
0.000000000000000
 11
239.0321870000000
 21
288.1893180000000
 31
0.000000000000000
  0
LINE
  5
F8
100
AcDbEntity
  8
1
  6
CONTINUOUS
 62
7
100
AcDbLine
 10
241.0321870000000
 20
296.1893180000000
 30
0.000000000000000
 11
239.0321870000000
 21
296.1893180000000
 31
0.000000000000000
  0
LINE
  5
F9
100
AcDbEntity
  8
1
  6
CONTINUOUS
 62
7
100
AcDbLine
 10
241.0321870000000
 20
294.6893180000000
 30
0.000000000000000
 11
239.0321870000000
 21
294.6893180000000
 31
0.000000000000000
  0
LINE
  5
FA
100
AcDbEntity
  8
1
  6
CONTINUOUS
 62
7
100
AcDbLine
 10
223.6321869999999
 20
301.1893180000000
 30
0.000000000000000
 11
223.6321869999999
 21
289.7913179999998
 31
0.000000000000000
  0
ARC
  5
FB
100
AcDbEntity
  8
1
  6
CONTINUOUS
 62
7
100
AcDbCircle
 10
237.6321869999999
 20
289.4893180000000
 30
0.000000000000000
 40
1.000000000000000
100
AcDbArc
 50
270.0000000000000
 51
360.0000000000000
  0
LINE
  5
FC
100
AcDbEntity
  8
1
  6
CONTINUOUS
 62
7
100
AcDbLine
 10
239.0321870000000
 20
294.1893180000000
 30
0.000000000000000
 11
238.6321869999999
 21
294.1893180000000
 31
0.000000000000000
  0
LINE
  5
FD
100
AcDbEntity
  8
1
  6
CONTINUOUS
 62
7
100
AcDbLine
 10
241.0321870000000
 20
307.9393180000000
 30
0.000000000000000
 11
244.0321870000000
 21
307.9393180000000
 31
0.000000000000000
  0
LINE
  5
FE
100
AcDbEntity
  8
1
  6
CONTINUOUS
 62
7
100
AcDbLine
 10
241.0321870000000
 20
301.5103850000000
 30
0.000000000000000
 11
244.0321870000000
 21
301.5103850000000
 31
0.000000000000000
  0
LINE
  5
FF
100
AcDbEntity
  8
1
  6
CONTINUOUS
 62
7
100
AcDbLine
 10
241.0321870000000
 20
300.8682499999999
 30
0.000000000000000
 11
244.0321870000000
 21
300.8682499999999
 31
0.000000000000000
  0
LINE
  5
100
100
AcDbEntity
  8
2
  6
CONTINUOUS
 62
4
100
AcDbLine
 10
244.0321870000000
 20
307.9393180000001
 30
0.000000000000000
 11
241.0321870000000
 21
301.5103850000000
 31
0.000000000000000
  0
LINE
  5
101
100
AcDbEntity
  8
2
  6
CONTINUOUS
 62
4
100
AcDbLine
 10
241.0321870000000
 20
307.9393180000001
 30
0.000000000000000
 11
244.0321870000000
 21
301.5103850000000
 31
0.000000000000000
  0
LINE
  5
102
100
AcDbEntity
  8
1
  6
CONTINUOUS
 62
7
100
AcDbLine
 10
241.0321870000000
 20
294.4393180000000
 30
0.000000000000000
 11
244.0321870000000
 21
294.4393180000000
 31
0.000000000000000
  0
LINE
  5
103
100
AcDbEntity
  8
1
  6
CONTINUOUS
 62
7
100
AcDbLine
 10
244.0321870000000
 20
307.9393180000000
 30
0.000000000000000
 11
244.0321870000000
 21
294.4393180000000
 31
0.000000000000000
  0
LINE
  5
104
100
AcDbEntity
  8
2
  6
CONTINUOUS
 62
4
100
AcDbLine
 10
244.0321870000000
 20
300.8682499999999
 30
0.000000000000000
 11
241.0321870000000
 21
294.4393180000000
 31
0.000000000000000
  0
LINE
  5
105
100
AcDbEntity
  8
2
  6
CONTINUOUS
 62
4
100
AcDbLine
 10
241.0321870000001
 20
300.8682499999999
 30
0.000000000000000
 11
244.0321870000001
 21
294.4393180000001
 31
0.000000000000000
  0
LINE
  5
106
100
AcDbEntity
  8
1
  6
CONTINUOUS
 62
7
100
AcDbLine
 10
212.6321869999999
 20
314.1893180000000
 30
0.000000000000000
 11
240.5321869999999
 21
314.1893180000000
 31
0.000000000000000
  0
LINE
  5
107
100
AcDbEntity
  8
1
  6
CONTINUOUS
 62
7
100
AcDbLine
 10
213.6321869999999
 20
312.1878399999999
 30
0.000000000000000
 11
240.5321869999999
 21
312.1878399999999
 31
0.000000000000000
  0
ARC
  5
108
100
AcDbEntity
  8
1
  6
CONTINUOUS
 62
7
100
AcDbCircle
 10
213.4821870000000
 20
301.1893180000000
 30
0.000000000000000
 40
10.00000000000000
100
AcDbArc
 50
119.0124720000000
 51
135.0000000000000
  0
ARC
  5
109
100
AcDbEntity
  8
5
  6
PHANTOM
 62
6
100
AcDbCircle
 10
208.9821870000000
 20
309.6893180000000
 30
0.000000000000000
 40
1.500000000000000
100
AcDbArc
 50
103.4933989999999
 51
180.0000000000000
  0
LINE
  5
10A
100
AcDbEntity
  8
1
  6
CONTINUOUS
 62
7
100
AcDbLine
 10
210.1321870000000
 20
325.1893180000000
 30
0.000000000000000
 11
212.6321869999999
 21
325.1893180000000
 31
0.000000000000000
  0
ARC
  5
10B
100
AcDbEntity
  8
1
  6
CONTINUOUS
 62
7
100
AcDbCircle
 10
212.6321869999999
 20
313.1893180000000
 30
0.000000000000000
 40
1.000000000000000
100
AcDbArc
 50
0.000000000000000
 51
90.00000000000000
  0
LINE
  5
10C
100
AcDbEntity
  8
1
  6
CONTINUOUS
 62
7
100
AcDbLine
 10
210.1321870000000
 20
325.1893180000001
 30
0.000000000000000
 11
208.6321869999999
 21
322.1893180000001
 31
0.000000000000000
  0
LINE
  5
10D
100
AcDbEntity
  8
1
  6
CONTINUOUS
 62
7
100
AcDbLine
 10
241.0321870000000
 20
311.1893180000000
 30
0.000000000000000
 11
239.0321870000000
 21
311.1893180000000
 31
0.000000000000000
  0
LINE
  5
10E
100
AcDbEntity
  8
1
  6
CONTINUOUS
 62
7
100
AcDbLine
 10
239.0321870000000
 20
310.1956670000000
 30
0.000000000000000
 11
238.6321869999999
 21
310.1956670000000
 31
0.000000000000000
  0
LINE
  5
10F
100
AcDbEntity
  8
1
  6
CONTINUOUS
 62
7
100
AcDbLine
 10
239.0321870000000
 20
308.1893180000000
 30
0.000000000000000
 11
238.6321869999999
 21
308.1893180000000
 31
0.000000000000000
  0
LINE
  5
110
100
AcDbEntity
  8
1
  6
CONTINUOUS
 62
7
100
AcDbLine
 10
240.5321869999999
 20
314.1893180000000
 30
0.000000000000000
 11
240.5321869999999
 21
311.1893180000000
 31
0.000000000000000
  0
LINE
  5
111
100
AcDbEntity
  8
1
  6
CONTINUOUS
 62
7
100
AcDbLine
 10
241.0321870000000
 20
312.4476480000000
 30
0.000000000000000
 11
240.5321869999999
 21
312.4476480000000
 31
0.000000000000000
  0
LINE
  5
112
100
AcDbEntity
  8
1
  6
CONTINUOUS
 62
7
100
AcDbLine
 10
321.7789240000000
 20
53.47455799999998
 30
0.000000000000000
 11
314.5789239999999
 21
53.47455799999998
 31
0.000000000000000
  0
LINE
  5
113
100
AcDbEntity
  8
1
  6
CONTINUOUS
 62
7
100
AcDbLine
 10
321.7789240000000
 20
50.97455800000000
 30
0.000000000000000
 11
314.5789239999999
 21
50.97455800000000
 31
0.000000000000000
  0
LINE
  5
114
100
AcDbEntity
  8
4
  6
CENTER
 62
1
100
AcDbLine
 10
332.0899240000000
 20
66.47455800000000
 30
0.000000000000000
 11
315.7239240000000
 21
66.47455800000000
 31
0.000000000000000
  0
LINE
  5
115
100
AcDbEntity
  8
1
  6
CONTINUOUS
 62
7
100
AcDbLine
 10
321.7789240000000
 20
79.47455800000000
 30
0.000000000000000
 11
314.5789239999999
 21
79.47455800000000
 31
0.000000000000000
  0
LINE
  5
116
100
AcDbEntity
  8
1
  6
CONTINUOUS
 62
7
100
AcDbLine
 10
321.7789240000000
 20
81.97455800000000
 30
0.000000000000000
 11
314.5789239999999
 21
81.97455800000000
 31
0.000000000000000
  0
ARC
  5
117
100
AcDbEntity
  8
1
  6
CONTINUOUS
 62
7
100
AcDbCircle
 10
280.0000379999999
 20
63.97455799999999
 30
0.000000000000000
 40
7.225291999999997
100
AcDbArc
 50
159.7567339999999
 51
200.2432660000000
  0
ARC
  5
118
100
AcDbEntity
  8
1
  6
CONTINUOUS
 62
7
100
AcDbCircle
 10
269.5494549999998
 20
63.97455799999999
 30
0.000000000000000
 40
7.225291999999997
100
AcDbArc
 50
339.7567340000000
 51
380.2432660000000
  0
LINE
  5
119
100
AcDbEntity
  8
1
  6
CONTINUOUS
 62
7
100
AcDbLine
 10
276.7747459999998
 20
71.47455800000000
 30
0.000000000000000
 11
276.7747459999998
 21
61.47455799999999
 31
0.000000000000000
  0
LINE
  5
11A
100
AcDbEntity
  8
1
  6
CONTINUOUS
 62
7
100
AcDbLine
 10
272.7747459999998
 20
72.57405799999998
 30
0.000000000000000
 11
272.7747459999998
 21
60.37405800000000
 31
0.000000000000000
  0
LINE
  5
11B
100
AcDbEntity
  8
1
  6
CONTINUOUS
 62
7
100
AcDbLine
 10
271.2747460000000
 20
74.47405800000000
 30
0.000000000000000
 11
271.2747460000000
 21
58.47405799999999
 31
0.000000000000000
  0
LINE
  5
11C
100
AcDbEntity
  8
1
  6
CONTINUOUS
 62
7
100
AcDbLine
 10
272.7747459999998
 20
66.47405799999996
 30
0.000000000000000
 11
271.2747459999999
 21
64.97405799999996
 31
0.000000000000000
  0
LINE
  5
11D
100
AcDbEntity
  8
1
  6
CONTINUOUS
 62
7
100
AcDbLine
 10
267.6747459999999
 20
55.47405799999999
 30
0.000000000000000
 11
267.6747459999999
 21
77.47405800000000
 31
0.000000000000000
  0
LINE
  5
11E
100
AcDbEntity
  8
1
  6
CONTINUOUS
 62
7
100
AcDbLine
 10
269.6747459999999
 20
55.47405799999999
 30
0.000000000000000
 11
269.6747459999999
 21
77.47405800000000
 31
0.000000000000000
  0
LINE
  5
11F
100
AcDbEntity
  8
1
  6
CONTINUOUS
 62
7
100
AcDbLine
 10
269.6747459999999
 20
58.47405799999999
 30
0.000000000000000
 11
271.2747460000000
 21
58.47405799999999
 31
0.000000000000000
  0
LINE
  5
120
100
AcDbEntity
  8
1
  6
CONTINUOUS
 62
7
100
AcDbLine
 10
267.6747459999999
 20
55.47405799999999
 30
0.000000000000000
 11
269.6747459999999
 21
55.47405799999999
 31
0.000000000000000
  0
LINE
  5
121
100
AcDbEntity
  8
1
  6
CONTINUOUS
 62
7
100
AcDbLine
 10
276.7747459999998
 20
61.47455799999999
 30
0.000000000000000
 11
272.7747459999998
 21
61.47455799999999
 31
0.000000000000000
  0
LINE
  5
122
100
AcDbEntity
  8
1
  6
CONTINUOUS
 62
7
100
AcDbLine
 10
272.7747459999998
 20
60.37405800000000
 30
0.000000000000000
 11
271.2747460000000
 21
60.37405800000000
 31
0.000000000000000
  0
LINE
  5
123
100
AcDbEntity
  8
4
  6
CENTER
 62
1
100
AcDbLine
 10
280.2689740000000
 20
66.47455800000000
 30
0.000000000000000
 11
262.6747459999999
 21
66.47455800000000
 31
0.000000000000000
  0
LINE
  5
124
100
AcDbEntity
  8
1
  6
CONTINUOUS
 62
7
100
AcDbLine
 10
269.6747459999999
 20
74.47405800000000
 30
0.000000000000000
 11
271.2747460000000
 21
74.47405800000000
 31
0.000000000000000
  0
LINE
  5
125
100
AcDbEntity
  8
1
  6
CONTINUOUS
 62
7
100
AcDbLine
 10
267.6747459999999
 20
77.47405800000000
 30
0.000000000000000
 11
269.6747459999999
 21
77.47405800000000
 31
0.000000000000000
  0
LINE
  5
126
100
AcDbEntity
  8
1
  6
CONTINUOUS
 62
7
100
AcDbLine
 10
273.2210379999999
 20
66.47455800000000
 30
0.000000000000000
 11
276.3284549999998
 21
66.47455800000000
 31
0.000000000000000
  0
ARC
  5
127
100
AcDbEntity
  8
1
  6
CONTINUOUS
 62
7
100
AcDbCircle
 10
280.0000379999999
 20
68.97455800000000
 30
0.000000000000000
 40
7.225291999999997
100
AcDbArc
 50
159.7567339999999
 51
200.2432660000000
  0
LINE
  5
128
100
AcDbEntity
  8
1
  6
CONTINUOUS
 62
7
100
AcDbLine
 10
276.7747459999998
 20
71.47455800000000
 30
0.000000000000000
 11
272.7747459999998
 21
71.47455800000000
 31
0.000000000000000
  0
ARC
  5
129
100
AcDbEntity
  8
1
  6
CONTINUOUS
 62
7
100
AcDbCircle
 10
269.5494549999998
 20
68.97455800000000
 30
0.000000000000000
 40
7.225291999999997
100
AcDbArc
 50
339.7567340000000
 51
380.2432660000000
  0
LINE
  5
12A
100
AcDbEntity
  8
1
  6
CONTINUOUS
 62
7
100
AcDbLine
 10
272.7747459999998
 20
72.57405799999998
 30
0.000000000000000
 11
271.2747460000000
 21
72.57405799999998
 31
0.000000000000000
  0
LINE
  5
12B
100
AcDbEntity
  8
1
  6
CONTINUOUS
 62
7
100
AcDbLine
 10
272.7747459999998
 20
67.97405800000000
 30
0.000000000000000
 11
271.2747460000001
 21
66.47405800000003
 31
0.000000000000000
  0
LINE
  5
12C
100
AcDbEntity
  8
1
  6
CONTINUOUS
 62
7
100
AcDbLine
 10
314.5789239999999
 20
50.97455800000000
 30
0.000000000000000
 11
314.5789239999999
 21
46.97455800000000
 31
0.000000000000000
  0
LINE
  5
12D
100
AcDbEntity
  8
1
  6
CONTINUOUS
 62
7
100
AcDbLine
 10
312.0789239999999
 20
50.97455800000000
 30
0.000000000000000
 11
312.0789239999999
 21
46.97455800000000
 31
0.000000000000000
  0
LINE
  5
12E
100
AcDbEntity
  8
1
  6
CONTINUOUS
 62
7
100
AcDbLine
 10
314.5789239999999
 20
46.97455800000000
 30
0.000000000000000
 11
312.0789239999999
 21
46.97455800000000
 31
0.000000000000000
  0
ARC
  5
12F
100
AcDbEntity
  8
1
  6
CONTINUOUS
 62
7
100
AcDbCircle
 10
314.5789239999999
 20
50.97455800000000
 30
0.000000000000000
 40
2.500000000000000
100
AcDbArc
 50
90.00000000000000
 51
180.0000000000000
  0
LINE
  5
130
100
AcDbEntity
  8
1
  6
CONTINUOUS
 62
7
100
AcDbLine
 10
312.0789239999999
 20
85.97455800000000
 30
0.000000000000000
 11
312.0789239999999
 21
81.97455800000000
 31
0.000000000000000
  0
LINE
  5
131
100
AcDbEntity
  8
1
  6
CONTINUOUS
 62
7
100
AcDbLine
 10
314.5789239999999
 20
85.97455800000000
 30
0.000000000000000
 11
314.5789239999999
 21
81.97455800000000
 31
0.000000000000000
  0
ARC
  5
132
100
AcDbEntity
  8
1
  6
CONTINUOUS
 62
7
100
AcDbCircle
 10
314.5789239999999
 20
81.97455800000000
 30
0.000000000000000
 40
2.500000000000000
100
AcDbArc
 50
180.0000000000000
 51
270.0000000000000
  0
LINE
  5
133
100
AcDbEntity
  8
1
  6
CONTINUOUS
 62
7
100
AcDbLine
 10
314.5789239999999
 20
85.97455800000000
 30
0.000000000000000
 11
312.0789239999999
 21
85.97455800000000
 31
0.000000000000000
  0
LINE
  5
134
100
AcDbEntity
  8
1
  6
CONTINUOUS
 62
7
100
AcDbLine
 10
324.2789240000000
 20
65.15855799999997
 30
0.000000000000000
 11
325.5949240000000
 21
66.47455800000000
 31
0.000000000000000
  0
LINE
  5
135
100
AcDbEntity
  8
1
  6
CONTINUOUS
 62
7
100
AcDbLine
 10
325.5949240000000
 20
71.07455800000000
 30
0.000000000000000
 11
325.5949240000000
 21
61.87455799999999
 31
0.000000000000000
  0
ARC
  5
136
100
AcDbEntity
  8
1
  6
CONTINUOUS
 62
7
100
AcDbCircle
 10
316.8949239999999
 20
66.47455800000000
 30
0.000000000000000
 40
12.00000000000000
100
AcDbArc
 50
344.5059999999998
 51
375.4940000000000
  0
LINE
  5
137
100
AcDbEntity
  8
1
  6
CONTINUOUS
 62
7
100
AcDbLine
 10
321.7789240000000
 20
79.47455800000000
 30
0.000000000000000
 11
321.7789240000000
 21
53.47455799999998
 31
0.000000000000000
  0
LINE
  5
138
100
AcDbEntity
  8
1
  6
CONTINUOUS
 62
7
100
AcDbLine
 10
324.2789240000000
 20
79.47455800000000
 30
0.000000000000000
 11
324.2789240000000
 21
53.47455799999998
 31
0.000000000000000
  0
LINE
  5
139
100
AcDbEntity
  8
1
  6
CONTINUOUS
 62
7
100
AcDbLine
 10
324.2949239999999
 20
61.87455799999999
 30
0.000000000000000
 11
325.5949240000000
 21
61.87455799999999
 31
0.000000000000000
  0
ARC
  5
13A
100
AcDbEntity
  8
1
  6
CONTINUOUS
 62
7
100
AcDbCircle
 10
326.9169240000000
 20
63.69655800000000
 30
0.000000000000000
 40
1.600000000000000
100
AcDbArc
 50
275.0000000000000
 51
344.5059999999998
  0
LINE
  5
13B
100
AcDbEntity
  8
1
  6
CONTINUOUS
 62
7
100
AcDbLine
 10
327.0559239999999
 20
62.10255799999997
 30
0.000000000000000
 11
325.5949240000000
 21
61.97455800000000
 31
0.000000000000000
  0
ARC
  5
13C
100
AcDbEntity
  8
1
  6
CONTINUOUS
 62
7
100
AcDbCircle
 10
321.7789240000000
 20
53.47455799999998
 30
0.000000000000000
 40
2.500000000000000
100
AcDbArc
 50
270.0000000000000
 51
360.0000050000000
  0
ARC
  5
13D
100
AcDbEntity
  8
1
  6
CONTINUOUS
 62
7
100
AcDbCircle
 10
321.7789240000000
 20
79.47455800000000
 30
0.000000000000000
 40
2.500000000000000
100
AcDbArc
 50
0.000000000000000
 51
90.00000000000000
  0
LINE
  5
13E
100
AcDbEntity
  8
1
  6
CONTINUOUS
 62
7
100
AcDbLine
 10
324.2949239999999
 20
71.07455800000000
 30
0.000000000000000
 11
325.5949240000000
 21
71.07455800000000
 31
0.000000000000000
  0
LINE
  5
13F
100
AcDbEntity
  8
1
  6
CONTINUOUS
 62
7
100
AcDbLine
 10
324.2789240000001
 20
66.47455800000003
 30
0.000000000000000
 11
325.5949240000001
 21
67.79055800000000
 31
0.000000000000000
  0
LINE
  5
140
100
AcDbEntity
  8
1
  6
CONTINUOUS
 62
7
100
AcDbLine
 10
327.0559240000000
 20
70.84655800000002
 30
0.000000000000000
 11
325.5949240000000
 21
70.97455800000002
 31
0.000000000000000
  0
ARC
  5
141
100
AcDbEntity
  8
1
  6
CONTINUOUS
 62
7
100
AcDbCircle
 10
326.9169240000000
 20
69.25255799999999
 30
0.000000000000000
 40
1.600000000000000
100
AcDbArc
 50
15.49400000000000
 51
84.99990000000004
  0
LINE
  5
142
100
AcDbEntity
  8
5
  6
PHANTOM
 62
6
100
AcDbLine
 10
442.1473090000000
 20
290.6893430000000
 30
0.000000000000000
 11
378.6473090000000
 21
290.6893430000000
 31
0.000000000000000
  0
LINE
  5
143
100
AcDbEntity
  8
5
  6
PHANTOM
 62
6
100
AcDbLine
 10
442.1473090000000
 20
311.6893430000000
 30
0.000000000000000
 11
378.6473090000000
 21
311.6893430000000
 31
0.000000000000000
  0
LINE
  5
144
100
AcDbEntity
  8
4
  6
CENTER
 62
1
100
AcDbLine
 10
472.6473089999998
 20
301.1893430000000
 30
0.000000000000000
 11
371.6473090000000
 21
301.1893430000000
 31
0.000000000000000
  0
LINE
  5
145
100
AcDbEntity
  8
1
  6
CONTINUOUS
 62
7
100
AcDbLine
 10
314.5789239999999
 20
211.6893179999999
 30
0.000000000000000
 11
314.5789239999999
 21
286.6893180000000
 31
0.000000000000000
  0
LINE
  5
146
100
AcDbEntity
  8
1
  6
CONTINUOUS
 62
7
100
AcDbLine
 10
324.2789240000000
 20
236.6893179999999
 30
0.000000000000000
 11
324.2789240000000
 21
286.6893180000000
 31
0.000000000000000
  0
LINE
  5
147
100
AcDbEntity
  8
1
  6
CONTINUOUS
 62
7
100
AcDbLine
 10
312.0789239999999
 20
211.6893179999999
 30
0.000000000000000
 11
312.0789239999999
 21
286.6893180000000
 31
0.000000000000000
  0
LINE
  5
148
100
AcDbEntity
  8
1
  6
CONTINUOUS
 62
7
100
AcDbLine
 10
319.2789240000000
 20
211.6893179999999
 30
0.000000000000000
 11
312.0789239999999
 21
211.6893179999999
 31
0.000000000000000
  0
LINE
  5
149
100
AcDbEntity
  8
1
  6
CONTINUOUS
 62
7
100
AcDbLine
 10
321.7789240000000
 20
214.1893179999999
 30
0.000000000000000
 11
321.7789240000000
 21
236.6893179999999
 31
0.000000000000000
  0
ARC
  5
14A
100
AcDbEntity
  8
1
  6
CONTINUOUS
 62
7
100
AcDbCircle
 10
319.2789240000000
 20
214.1893179999999
 30
0.000000000000000
 40
2.500000000000000
100
AcDbArc
 50
270.0000000000000
 51
360.0000000000000
  0
ARC
  5
14B
100
AcDbEntity
  8
1
  6
CONTINUOUS
 62
7
100
AcDbCircle
 10
326.9169240000000
 20
242.9113179999999
 30
0.000000000000000
 40
1.600000000000000
100
AcDbArc
 50
275.0000000000000
 51
344.5059999999998
  0
LINE
  5
14C
100
AcDbEntity
  8
1
  6
CONTINUOUS
 62
7
100
AcDbLine
 10
325.5949240000000
 20
250.2893180000000
 30
0.000000000000000
 11
325.5949240000000
 21
241.0893179999999
 31
0.000000000000000
  0
LINE
  5
14D
100
AcDbEntity
  8
1
  6
CONTINUOUS
 62
7
100
AcDbLine
 10
327.0559239999999
 20
241.3173180000000
 30
0.000000000000000
 11
325.5949239999999
 21
241.1893179999999
 31
0.000000000000000
  0
LINE
  5
14E
100
AcDbEntity
  8
1
  6
CONTINUOUS
 62
7
100
AcDbLine
 10
324.2949239999999
 20
241.0893179999999
 30
0.000000000000000
 11
325.5949240000000
 21
241.0893179999999
 31
0.000000000000000
  0
LINE
  5
14F
100
AcDbEntity
  8
1
  6
CONTINUOUS
 62
7
100
AcDbLine
 10
324.2789240000000
 20
236.6893179999999
 30
0.000000000000000
 11
321.7789240000000
 21
236.6893179999999
 31
0.000000000000000
  0
ARC
  5
150
100
AcDbEntity
  8
1
  6
CONTINUOUS
 62
7
100
AcDbCircle
 10
326.9169240000000
 20
248.4673180000000
 30
0.000000000000000
 40
1.600000000000000
100
AcDbArc
 50
15.49400000000000
 51
84.99990000000004
  0
LINE
  5
151
100
AcDbEntity
  8
1
  6
CONTINUOUS
 62
7
100
AcDbLine
 10
327.0559240000000
 20
250.0613180000000
 30
0.000000000000000
 11
325.5949240000000
 21
250.1893179999999
 31
0.000000000000000
  0
ARC
  5
152
100
AcDbEntity
  8
1
  6
CONTINUOUS
 62
7
100
AcDbCircle
 10
316.8949239999999
 20
245.6893179999999
 30
0.000000000000000
 40
12.00000000000000
100
AcDbArc
 50
344.5059999999998
 51
375.4940000000000
  0
LINE
  5
153
100
AcDbEntity
  8
1
  6
CONTINUOUS
 62
7
100
AcDbLine
 10
324.2789240000000
 20
245.6893179999999
 30
0.000000000000000
 11
325.5949239999999
 21
247.0053179999999
 31
0.000000000000000
  0
LINE
  5
154
100
AcDbEntity
  8
1
  6
CONTINUOUS
 62
7
100
AcDbLine
 10
324.2789240000000
 20
244.3733180000000
 30
0.000000000000000
 11
325.5949240000000
 21
245.6893179999999
 31
0.000000000000000
  0
LINE
  5
155
100
AcDbEntity
  8
1
  6
CONTINUOUS
 62
7
100
AcDbLine
 10
324.2949239999999
 20
250.2893180000000
 30
0.000000000000000
 11
325.5949240000000
 21
250.2893180000000
 31
0.000000000000000
  0
LINE
  5
156
100
AcDbEntity
  8
4
  6
CENTER
 62
1
100
AcDbLine
 10
321.9239240000000
 20
245.6893179999999
 30
0.000000000000000
 11
332.0119240000000
 21
245.6893179999999
 31
0.000000000000000
  0
LINE
  5
157
100
AcDbEntity
  8
1
  6
CONTINUOUS
 62
7
100
AcDbLine
 10
324.2789240000000
 20
286.6893180000000
 30
0.000000000000000
 11
312.0789239999999
 21
286.6893180000000
 31
0.000000000000000
  0
LINE
  5
158
100
AcDbEntity
  8
1
  6
CONTINUOUS
 62
7
100
AcDbLine
 10
271.2747460000000
 20
309.1888180000001
 30
0.000000000000000
 11
271.2747460000000
 21
293.1888180000001
 31
0.000000000000000
  0
LINE
  5
159
100
AcDbEntity
  8
1
  6
CONTINUOUS
 62
7
100
AcDbLine
 10
269.6747459999999
 20
290.1888180000000
 30
0.000000000000000
 11
269.6747459999999
 21
312.1888180000000
 31
0.000000000000000
  0
LINE
  5
15A
100
AcDbEntity
  8
1
  6
CONTINUOUS
 62
7
100
AcDbLine
 10
267.6747459999999
 20
290.1888180000000
 30
0.000000000000000
 11
267.6747459999999
 21
312.1888180000000
 31
0.000000000000000
  0
LINE
  5
15B
100
AcDbEntity
  8
1
  6
CONTINUOUS
 62
7
100
AcDbLine
 10
269.6747459999999
 20
293.1888180000001
 30
0.000000000000000
 11
271.2747460000000
 21
293.1888180000001
 31
0.000000000000000
  0
LINE
  5
15C
100
AcDbEntity
  8
4
  6
CENTER
 62
1
100
AcDbLine
 10
281.7747460000000
 20
301.1893180000000
 30
0.000000000000000
 11
262.6747459999999
 21
301.1893180000000
 31
0.000000000000000
  0
LINE
  5
15D
100
AcDbEntity
  8
1
  6
CONTINUOUS
 62
7
100
AcDbLine
 10
267.6747459999999
 20
290.1888180000000
 30
0.000000000000000
 11
269.6747459999999
 21
290.1888180000000
 31
0.000000000000000
  0
LINE
  5
15E
100
AcDbEntity
  8
1
  6
CONTINUOUS
 62
7
100
AcDbLine
 10
272.7747459999998
 20
306.1888180000000
 30
0.000000000000000
 11
273.2210379999999
 21
306.9618179999998
 31
0.000000000000000
  0
ARC
  5
15F
100
AcDbEntity
  8
1
  6
CONTINUOUS
 62
7
100
AcDbCircle
 10
275.3307259999999
 20
305.5188180000000
 30
0.000000000000000
 40
2.555979999999999
100
AcDbArc
 50
154.3716370000000
 51
214.3716370000000
  0
LINE
  5
160
100
AcDbEntity
  8
1
  6
CONTINUOUS
 62
7
100
AcDbLine
 10
273.2210379999999
 20
306.9618179999999
 30
0.000000000000000
 11
276.3284549999998
 21
306.9618179999999
 31
0.000000000000000
  0
LINE
  5
161
100
AcDbEntity
  8
1
  6
CONTINUOUS
 62
7
100
AcDbLine
 10
273.2210379999999
 20
304.0758180000000
 30
0.000000000000000
 11
276.3284549999998
 21
304.0758180000000
 31
0.000000000000000
  0
LINE
  5
162
100
AcDbEntity
  8
1
  6
CONTINUOUS
 62
7
100
AcDbLine
 10
276.7747459999998
 20
306.1888180000000
 30
0.000000000000000
 11
276.3284549999998
 21
306.9618179999999
 31
0.000000000000000
  0
ARC
  5
163
100
AcDbEntity
  8
1
  6
CONTINUOUS
 62
7
100
AcDbCircle
 10
274.2187670000000
 20
305.5188180000000
 30
0.000000000000000
 40
2.555979999999999
100
AcDbArc
 50
325.6283629999999
 51
385.6283630000000
  0
LINE
  5
164
100
AcDbEntity
  8
1
  6
CONTINUOUS
 62
7
100
AcDbLine
 10
273.2210379999999
 20
298.3018180000001
 30
0.000000000000000
 11
276.3284549999998
 21
298.3018180000001
 31
0.000000000000000
  0
ARC
  5
165
100
AcDbEntity
  8
1
  6
CONTINUOUS
 62
7
100
AcDbCircle
 10
274.2187460000000
 20
296.8588179999999
 30
0.000000000000000
 40
2.555820000000000
100
AcDbArc
 50
325.6159999999998
 51
325.6471430000000
  0
ARC
  5
166
100
AcDbEntity
  8
1
  6
CONTINUOUS
 62
7
100
AcDbCircle
 10
275.3307459999999
 20
296.8588179999999
 30
0.000000000000000
 40
2.555820000000000
100
AcDbArc
 50
214.3528569999999
 51
214.3839999999999
  0
LINE
  5
167
100
AcDbEntity
  8
1
  6
CONTINUOUS
 62
7
100
AcDbLine
 10
273.2210379999999
 20
295.4148180000000
 30
0.000000000000000
 11
276.3284549999998
 21
295.4148180000000
 31
0.000000000000000
  0
ARC
  5
168
100
AcDbEntity
  8
1
  6
CONTINUOUS
 62
7
100
AcDbCircle
 10
275.3307259999999
 20
296.8578180000000
 30
0.000000000000000
 40
2.555979999999999
100
AcDbArc
 50
145.6283629999998
 51
205.6283629999998
  0
LINE
  5
169
100
AcDbEntity
  8
1
  6
CONTINUOUS
 62
7
100
AcDbLine
 10
272.7747459999998
 20
296.1878179999998
 30
0.000000000000000
 11
273.2210379999998
 21
295.4148180000000
 31
0.000000000000000
  0
ARC
  5
16A
100
AcDbEntity
  8
1
  6
CONTINUOUS
 62
7
100
AcDbCircle
 10
274.2187670000000
 20
296.8578180000000
 30
0.000000000000000
 40
2.555979999999999
100
AcDbArc
 50
334.3716370000000
 51
394.3716370000000
  0
LINE
  5
16B
100
AcDbEntity
  8
1
  6
CONTINUOUS
 62
7
100
AcDbLine
 10
276.7747459999998
 20
296.1878179999999
 30
0.000000000000000
 11
276.3284549999998
 21
295.4148180000000
 31
0.000000000000000
  0
ARC
  5
16C
100
AcDbEntity
  8
1
  6
CONTINUOUS
 62
7
100
AcDbCircle
 10
282.3356949999999
 20
301.1888180000001
 30
0.000000000000000
 40
9.560949000000001
100
AcDbArc
 50
162.4247879999998
 51
197.5752119999999
  0
LINE
  5
16D
100
AcDbEntity
  8
1
  6
CONTINUOUS
 62
7
100
AcDbLine
 10
276.7747459999998
 20
306.1888180000000
 30
0.000000000000000
 11
276.7747459999998
 21
296.1878179999999
 31
0.000000000000000
  0
ARC
  5
16E
100
AcDbEntity
  8
1
  6
CONTINUOUS
 62
7
100
AcDbCircle
 10
267.2137970000000
 20
301.1888180000001
 30
0.000000000000000
 40
9.560949000000001
100
AcDbArc
 50
342.4247879999999
 51
377.5752120000000
  0
LINE
  5
16F
100
AcDbEntity
  8
1
  6
CONTINUOUS
 62
7
100
AcDbLine
 10
272.7747459999999
 20
301.1888180000001
 30
0.000000000000000
 11
271.2747460000001
 21
299.6888180000001
 31
0.000000000000000
  0
LINE
  5
170
100
AcDbEntity
  8
1
  6
CONTINUOUS
 62
7
100
AcDbLine
 10
272.7747459999998
 20
302.6888180000000
 30
0.000000000000000
 11
271.2747460000001
 21
301.1888180000001
 31
0.000000000000000
  0
LINE
  5
171
100
AcDbEntity
  8
1
  6
CONTINUOUS
 62
7
100
AcDbLine
 10
272.7747459999998
 20
307.2888180000000
 30
0.000000000000000
 11
271.2747460000000
 21
307.2888180000000
 31
0.000000000000000
  0
LINE
  5
172
100
AcDbEntity
  8
1
  6
CONTINUOUS
 62
7
100
AcDbLine
 10
272.7747459999998
 20
295.0888180000000
 30
0.000000000000000
 11
271.2747460000000
 21
295.0888180000000
 31
0.000000000000000
  0
LINE
  5
173
100
AcDbEntity
  8
1
  6
CONTINUOUS
 62
7
100
AcDbLine
 10
272.7747459999998
 20
307.2888180000000
 30
0.000000000000000
 11
272.7747459999998
 21
295.0888180000000
 31
0.000000000000000
  0
LINE
  5
174
100
AcDbEntity
  8
1
  6
CONTINUOUS
 62
7
100
AcDbLine
 10
272.7747459999998
 20
306.9623199999999
 30
0.000000000000000
 11
272.7747459999998
 21
295.4153149999999
 31
0.000000000000000
  0
LINE
  5
175
100
AcDbEntity
  8
1
  6
CONTINUOUS
 62
7
100
AcDbLine
 10
269.6747459999999
 20
309.1888180000001
 30
0.000000000000000
 11
271.2747460000000
 21
309.1888180000001
 31
0.000000000000000
  0
LINE
  5
176
100
AcDbEntity
  8
1
  6
CONTINUOUS
 62
7
100
AcDbLine
 10
267.6747459999999
 20
312.1888180000000
 30
0.000000000000000
 11
269.6747459999999
 21
312.1888180000000
 31
0.000000000000000
  0
LINE
  5
177
100
AcDbEntity
  8
5
  6
PHANTOM
 62
6
100
AcDbLine
 10
376.6473090000000
 20
309.6893430000000
 30
0.000000000000000
 11
376.6473090000000
 21
292.6893430000000
 31
0.000000000000000
  0
LINE
  5
178
100
AcDbEntity
  8
1
  6
CONTINUOUS
 62
7
100
AcDbLine
 10
324.2949239999999
 20
273.0893179999998
 30
0.000000000000000
 11
325.5949240000000
 21
273.0893179999998
 31
0.000000000000000
  0
LINE
  5
179
100
AcDbEntity
  8
1
  6
CONTINUOUS
 62
7
100
AcDbLine
 10
325.5949240000000
 20
282.2893179999999
 30
0.000000000000000
 11
325.5949240000000
 21
273.0893179999998
 31
0.000000000000000
  0
LINE
  5
17A
100
AcDbEntity
  8
1
  6
CONTINUOUS
 62
7
100
AcDbLine
 10
324.2949239999999
 20
282.2893179999999
 30
0.000000000000000
 11
325.5949240000000
 21
282.2893179999999
 31
0.000000000000000
  0
LINE
  5
17B
100
AcDbEntity
  8
1
  6
CONTINUOUS
 62
7
100
AcDbLine
 10
324.2789240000001
 20
276.3733180000000
 30
0.000000000000000
 11
325.5949240000000
 21
277.6893180000001
 31
0.000000000000000
  0
LINE
  5
17C
100
AcDbEntity
  8
1
  6
CONTINUOUS
 62
7
100
AcDbLine
 10
324.2789240000001
 20
277.6893180000001
 30
0.000000000000000
 11
325.5949240000000
 21
279.0053180000000
 31
0.000000000000000
  0
ARC
  5
17D
100
AcDbEntity
  8
1
  6
CONTINUOUS
 62
7
100
AcDbCircle
 10
316.8949239999999
 20
277.6893180000000
 30
0.000000000000000
 40
12.00000000000000
100
AcDbArc
 50
344.5059999999998
 51
375.4940000000000
  0
LINE
  5
17E
100
AcDbEntity
  8
1
  6
CONTINUOUS
 62
7
100
AcDbLine
 10
327.0559240000000
 20
273.3173180000000
 30
0.000000000000000
 11
325.5949240000000
 21
273.1893180000000
 31
0.000000000000000
  0
ARC
  5
17F
100
AcDbEntity
  8
1
  6
CONTINUOUS
 62
7
100
AcDbCircle
 10
326.9169240000000
 20
274.9113180000000
 30
0.000000000000000
 40
1.600000000000000
100
AcDbArc
 50
275.0000000000000
 51
344.5059999999998
  0
LINE
  5
180
100
AcDbEntity
  8
1
  6
CONTINUOUS
 62
7
100
AcDbLine
 10
327.0559240000000
 20
282.0613180000000
 30
0.000000000000000
 11
325.5949240000000
 21
282.1893180000000
 31
0.000000000000000
  0
ARC
  5
181
100
AcDbEntity
  8
1
  6
CONTINUOUS
 62
7
100
AcDbCircle
 10
326.9169240000000
 20
280.4673179999999
 30
0.000000000000000
 40
1.600000000000000
100
AcDbArc
 50
15.49400000000000
 51
84.99990000000004
  0
LINE
  5
182
100
AcDbEntity
  8
4
  6
CENTER
 62
1
100
AcDbLine
 10
322.4139239999999
 20
277.6893180000000
 30
0.000000000000000
 11
331.6199240000000
 21
277.6893180000000
 31
0.000000000000000
  0
ARC
  5
183
100
AcDbEntity
  8
5
  6
PHANTOM
 62
6
100
AcDbCircle
 10
378.6473090000000
 20
292.6893430000000
 30
0.000000000000000
 40
2.000000000000000
100
AcDbArc
 50
180.0000000000000
 51
270.0000000000000
  0
ARC
  5
184
100
AcDbEntity
  8
5
  6
PHANTOM
 62
6
100
AcDbCircle
 10
378.6473090000000
 20
309.6893430000000
 30
0.000000000000000
 40
2.000000000000000
100
AcDbArc
 50
90.00000000000000
 51
180.0000000000000
  0
LINE
  5
185
100
AcDbEntity
  8
1
  6
CONTINUOUS
 62
7
100
AcDbLine
 10
477.6473090000000
 20
214.1893430000000
 30
0.000000000000000
 11
477.6473090000000
 21
284.1893430000000
 31
0.000000000000000
  0
LINE
  5
186
100
AcDbEntity
  8
1
  6
CONTINUOUS
 62
7
100
AcDbLine
 10
473.6473090000000
 20
286.6893430000000
 30
0.000000000000000
 11
473.6473090000000
 21
211.6893430000000
 31
0.000000000000000
  0
LINE
  5
187
100
AcDbEntity
  8
1
  6
CONTINUOUS
 62
7
100
AcDbLine
 10
438.6473089999998
 20
284.1893430000000
 30
0.000000000000000
 11
438.6473089999998
 21
214.1893430000000
 31
0.000000000000000
  0
LINE
  5
188
100
AcDbEntity
  8
1
  6
CONTINUOUS
 62
7
100
AcDbLine
 10
442.6473089999998
 20
286.6893430000000
 30
0.000000000000000
 11
442.6473089999998
 21
211.6893430000000
 31
0.000000000000000
  0
LINE
  5
189
100
AcDbEntity
  8
4
  6
CENTER
 62
1
100
AcDbLine
 10
458.1473090000000
 20
330.1893430000000
 30
0.000000000000000
 11
458.1473090000000
 21
182.1893429999999
 31
0.000000000000000
  0
ARC
  5
18A
100
AcDbEntity
  8
1
  6
CONTINUOUS
 62
7
100
AcDbCircle
 10
447.4973089999998
 20
235.1893430000000
 30
0.000000000000000
 40
1.000000000000000
100
AcDbArc
 50
90.00000000000000
 51
180.0000000000000
  0
ARC
  5
18B
100
AcDbEntity
  8
1
  6
CONTINUOUS
 62
7
100
AcDbCircle
 10
448.4473089999998
 20
201.1893429999998
 30
0.000000000000000
 40
3.000000000000000
100
AcDbArc
 50
180.0000000000000
 51
270.0000000000000
  0
ARC
  5
18C
100
AcDbEntity
  8
1
  6
CONTINUOUS
 62
7
100
AcDbCircle
 10
458.1473090000000
 20
210.1893430000000
 30
0.000000000000000
 40
11.65000000000000
100
AcDbArc
 50
180.0000000000000
 51
360.0000000000000
  0
ARC
  5
18D
100
AcDbEntity
  8
1
  6
CONTINUOUS
 62
7
100
AcDbCircle
 10
447.1473089999998
 20
192.1893429999999
 30
0.000000000000000
 40
5.000000000000000
100
AcDbArc
 50
180.0000000000000
 51
270.0000000000000
  0
LINE
  5
18E
100
AcDbEntity
  8
1
  6
CONTINUOUS
 62
7
100
AcDbLine
 10
442.6473089999998
 20
236.6893430000000
 30
0.000000000000000
 11
473.6473090000000
 21
236.6893430000000
 31
0.000000000000000
  0
LINE
  5
18F
100
AcDbEntity
  8
1
  6
CONTINUOUS
 62
7
100
AcDbLine
 10
446.4973089999999
 20
235.1893430000000
 30
0.000000000000000
 11
446.4973089999999
 21
210.1893430000000
 31
0.000000000000000
  0
LINE
  5
190
100
AcDbEntity
  8
1
  6
CONTINUOUS
 62
7
100
AcDbLine
 10
445.1473090000000
 20
236.6893430000000
 30
0.000000000000000
 11
445.1473090000000
 21
211.6893430000000
 31
0.000000000000000
  0
LINE
  5
191
100
AcDbEntity
  8
1
  6
CONTINUOUS
 62
7
100
AcDbLine
 10
445.4473089999998
 20
236.6893430000000
 30
0.000000000000000
 11
445.4473089999998
 21
201.1893429999998
 31
0.000000000000000
  0
LINE
  5
192
100
AcDbEntity
  8
1
  6
CONTINUOUS
 62
7
100
AcDbLine
 10
442.1473090000000
 20
211.6893430000000
 30
0.000000000000000
 11
442.1473090000000
 21
192.1893429999999
 31
0.000000000000000
  0
LINE
  5
193
100
AcDbEntity
  8
1
  6
CONTINUOUS
 62
7
100
AcDbLine
 10
445.4473089999998
 20
216.6893179999999
 30
0.000000000000000
 11
446.4973089999999
 21
216.6893179999999
 31
0.000000000000000
  0
LINE
  5
194
100
AcDbEntity
  8
1
  6
CONTINUOUS
 62
7
100
AcDbLine
 10
441.1473090000000
 20
211.6893430000000
 30
0.000000000000000
 11
445.1473090000000
 21
211.6893430000000
 31
0.000000000000000
  0
ARC
  5
195
100
AcDbEntity
  8
1
  6
CONTINUOUS
 62
7
100
AcDbCircle
 10
441.1473090000000
 20
214.1893430000000
 30
0.000000000000000
 40
2.500000000000000
100
AcDbArc
 50
180.0000000000000
 51
270.0000000000000
  0
CIRCLE
  5
196
100
AcDbEntity
  8
1
  6
CONTINUOUS
 62
7
100
AcDbCircle
 10
464.6473089999998
 20
221.1893429999999
 30
0.000000000000000
 40
2.799999999999998
  0
LINE
  5
197
100
AcDbEntity
  8
4
  6
CENTER
 62
1
100
AcDbLine
 10
464.6473089999998
 20
225.4893430000000
 30
0.000000000000000
 11
464.6473089999998
 21
216.8893430000000
 31
0.000000000000000
  0
CIRCLE
  5
198
100
AcDbEntity
  8
1
  6
CONTINUOUS
 62
7
100
AcDbCircle
 10
464.6473089999998
 20
221.1893429999999
 30
0.000000000000000
 40
2.250000000000000
  0
ARC
  5
199
100
AcDbEntity
  8
1
  6
CONTINUOUS
 62
7
100
AcDbCircle
 10
464.6473089999998
 20
221.1893429999999
 30
0.000000000000000
 40
1.300000000000000
100
AcDbArc
 50
298.3282509999999
 51
331.6717489999998
  0
ARC
  5
19A
100
AcDbEntity
  8
1
  6
CONTINUOUS
 62
7
100
AcDbCircle
 10
464.6473089999998
 20
221.1893429999999
 30
0.000000000000000
 40
1.300000000000000
100
AcDbArc
 50
208.3282510000000
 51
241.6717489999999
  0
CIRCLE
  5
19B
100
AcDbEntity
  8
1
  6
CONTINUOUS
 62
7
100
AcDbCircle
 10
451.6473089999998
 20
221.1893429999999
 30
0.000000000000000
 40
2.799999999999998
  0
LINE
  5
19C
100
AcDbEntity
  8
4
  6
CENTER
 62
1
100
AcDbLine
 10
451.6473089999998
 20
225.4893430000000
 30
0.000000000000000
 11
451.6473089999998
 21
216.8893430000000
 31
0.000000000000000
  0
CIRCLE
  5
19D
100
AcDbEntity
  8
1
  6
CONTINUOUS
 62
7
100
AcDbCircle
 10
451.6473089999998
 20
221.1893429999999
 30
0.000000000000000
 40
2.250000000000000
  0
ARC
  5
19E
100
AcDbEntity
  8
1
  6
CONTINUOUS
 62
7
100
AcDbCircle
 10
451.6473089999998
 20
221.1893429999999
 30
0.000000000000000
 40
1.300000000000000
100
AcDbArc
 50
298.3282509999999
 51
331.6717489999998
  0
ARC
  5
19F
100
AcDbEntity
  8
1
  6
CONTINUOUS
 62
7
100
AcDbCircle
 10
451.6473089999998
 20
221.1893429999999
 30
0.000000000000000
 40
1.300000000000000
100
AcDbArc
 50
208.3282510000000
 51
241.6717489999999
  0
LINE
  5
1A0
100
AcDbEntity
  8
1
  6
CONTINUOUS
 62
7
100
AcDbLine
 10
469.7973089999998
 20
235.1893430000000
 30
0.000000000000000
 11
469.7973089999998
 21
210.1893430000000
 31
0.000000000000000
  0
LINE
  5
1A1
100
AcDbEntity
  8
1
  6
CONTINUOUS
 62
7
100
AcDbLine
 10
471.1473090000000
 20
236.6893430000000
 30
0.000000000000000
 11
471.1473090000000
 21
211.6893430000000
 31
0.000000000000000
  0
LINE
  5
1A2
100
AcDbEntity
  8
1
  6
CONTINUOUS
 62
7
100
AcDbLine
 10
470.8473090000000
 20
236.6893430000000
 30
0.000000000000000
 11
470.8473090000000
 21
201.1893429999998
 31
0.000000000000000
  0
LINE
  5
1A3
100
AcDbEntity
  8
1
  6
CONTINUOUS
 62
7
100
AcDbLine
 10
474.1473090000000
 20
211.6893430000000
 30
0.000000000000000
 11
474.1473090000000
 21
192.1893429999999
 31
0.000000000000000
  0
ARC
  5
1A4
100
AcDbEntity
  8
1
  6
CONTINUOUS
 62
7
100
AcDbCircle
 10
467.8473089999998
 20
201.1893429999998
 30
0.000000000000000
 40
3.000000000000000
100
AcDbArc
 50
270.0000000000000
 51
360.0000000000000
  0
LINE
  5
1A5
100
AcDbEntity
  8
1
  6
CONTINUOUS
 62
7
100
AcDbLine
 10
447.1473089999998
 20
187.1893429999999
 30
0.000000000000000
 11
469.1473090000000
 21
187.1893429999999
 31
0.000000000000000
  0
ARC
  5
1A6
100
AcDbEntity
  8
1
  6
CONTINUOUS
 62
7
100
AcDbCircle
 10
469.1473090000000
 20
192.1893429999999
 30
0.000000000000000
 40
5.000000000000000
100
AcDbArc
 50
270.0000000000000
 51
360.0000000000000
  0
LINE
  5
1A7
100
AcDbEntity
  8
1
  6
CONTINUOUS
 62
7
100
AcDbLine
 10
448.4473089999998
 20
198.1893429999999
 30
0.000000000000000
 11
467.8473089999998
 21
198.1893429999999
 31
0.000000000000000
  0
LINE
  5
1A8
100
AcDbEntity
  8
1
  6
CONTINUOUS
 62
7
100
AcDbLine
 10
469.7973089999998
 20
216.6893179999999
 30
0.000000000000000
 11
470.8473090000000
 21
216.6893179999999
 31
0.000000000000000
  0
ARC
  5
1A9
100
AcDbEntity
  8
1
  6
CONTINUOUS
 62
7
100
AcDbCircle
 10
475.1473090000000
 20
214.1893430000000
 30
0.000000000000000
 40
2.500000000000000
100
AcDbArc
 50
270.0000000000000
 51
360.0000000000000
  0
LINE
  5
1AA
100
AcDbEntity
  8
1
  6
CONTINUOUS
 62
7
100
AcDbLine
 10
471.1473090000000
 20
211.6893430000000
 30
0.000000000000000
 11
475.1473090000000
 21
211.6893430000000
 31
0.000000000000000
  0
CIRCLE
  5
1AB
100
AcDbEntity
  8
1
  6
CONTINUOUS
 62
7
100
AcDbCircle
 10
458.1473090000000
 20
245.6893430000000
 30
0.000000000000000
 40
4.500000000000000
  0
LINE
  5
1AC
100
AcDbEntity
  8
1
  6
CONTINUOUS
 62
7
100
AcDbLine
 10
447.4973089999998
 20
236.1893430000000
 30
0.000000000000000
 11
468.7973089999998
 21
236.1893430000000
 31
0.000000000000000
  0
LINE
  5
1AD
100
AcDbEntity
  8
4
  6
CENTER
 62
1
100
AcDbLine
 10
468.9473089999999
 20
221.1893429999999
 30
0.000000000000000
 11
460.3473090000000
 21
221.1893429999999
 31
0.000000000000000
  0
LINE
  5
1AE
100
AcDbEntity
  8
1
  6
CONTINUOUS
 62
7
100
AcDbLine
 10
451.1473089999998
 20
234.1893430000000
 30
0.000000000000000
 11
465.1473090000000
 21
234.1893430000000
 31
0.000000000000000
  0
LINE
  5
1AF
100
AcDbEntity
  8
1
  6
CONTINUOUS
 62
7
100
AcDbLine
 10
451.1473089999998
 20
229.1893430000000
 30
0.000000000000000
 11
465.1473090000000
 21
229.1893430000000
 31
0.000000000000000
  0
LINE
  5
1B0
100
AcDbEntity
  8
1
  6
CONTINUOUS
 62
7
100
AcDbLine
 10
451.1473089999998
 20
234.1893430000000
 30
0.000000000000000
 11
451.1473089999998
 21
229.1893430000000
 31
0.000000000000000
  0
LINE
  5
1B1
100
AcDbEntity
  8
1
  6
CONTINUOUS
 62
7
100
AcDbLine
 10
450.9405549999998
 20
221.1893419999999
 30
0.000000000000000
 11
450.8362140000000
 21
221.4611600000000
 31
0.000000000000000
  0
LINE
  5
1B2
100
AcDbEntity
  8
1
  6
CONTINUOUS
 62
7
100
AcDbLine
 10
450.9405549999998
 20
221.1893420000000
 30
0.000000000000000
 11
450.8362139999999
 21
220.9175240000000
 31
0.000000000000000
  0
LINE
  5
1B3
100
AcDbEntity
  8
1
  6
CONTINUOUS
 62
7
100
AcDbLine
 10
450.8362139999999
 20
221.4611600000000
 30
0.000000000000000
 11
450.5029929999997
 21
221.8062209999999
 31
0.000000000000000
  0
LINE
  5
1B4
100
AcDbEntity
  8
1
  6
CONTINUOUS
 62
7
100
AcDbLine
 10
450.8362139999999
 20
220.9175239999998
 30
0.000000000000000
 11
450.5029929999997
 21
220.5724630000000
 31
0.000000000000000
  0
LINE
  5
1B5
100
AcDbEntity
  8
1
  6
CONTINUOUS
 62
7
100
AcDbLine
 10
451.3754910000000
 20
222.0004370000000
 30
0.000000000000000
 11
451.0304299999998
 21
222.3336589999999
 31
0.000000000000000
  0
LINE
  5
1B6
100
AcDbEntity
  8
1
  6
CONTINUOUS
 62
7
100
AcDbLine
 10
451.6473089999997
 20
221.8960959999999
 30
0.000000000000000
 11
451.3754910000000
 21
222.0004370000000
 31
0.000000000000000
  0
LINE
  5
1B7
100
AcDbEntity
  8
1
  6
CONTINUOUS
 62
7
100
AcDbLine
 10
451.6473089999998
 20
221.8960959999999
 30
0.000000000000000
 11
451.9191280000000
 21
222.0004370000000
 31
0.000000000000000
  0
LINE
  5
1B8
100
AcDbEntity
  8
1
  6
CONTINUOUS
 62
7
100
AcDbLine
 10
451.9191280000000
 20
222.0004370000000
 30
0.000000000000000
 11
452.2641889999999
 21
222.3336589999999
 31
0.000000000000000
  0
LINE
  5
1B9
100
AcDbEntity
  8
1
  6
CONTINUOUS
 62
7
100
AcDbLine
 10
452.4584049999998
 20
221.4611600000000
 30
0.000000000000000
 11
452.7916259999997
 21
221.8062209999999
 31
0.000000000000000
  0
LINE
  5
1BA
100
AcDbEntity
  8
1
  6
CONTINUOUS
 62
7
100
AcDbLine
 10
452.3540630000001
 20
221.1893419999999
 30
0.000000000000000
 11
452.4584049999999
 21
221.4611600000000
 31
0.000000000000000
  0
LINE
  5
1BB
100
AcDbEntity
  8
1
  6
CONTINUOUS
 62
7
100
AcDbLine
 10
452.3540630000001
 20
221.1893420000000
 30
0.000000000000000
 11
452.4584049999999
 21
220.9175240000000
 31
0.000000000000000
  0
LINE
  5
1BC
100
AcDbEntity
  8
1
  6
CONTINUOUS
 62
7
100
AcDbLine
 10
452.4584049999998
 20
220.9175239999999
 30
0.000000000000000
 11
452.7916259999998
 21
220.5724630000000
 31
0.000000000000000
  0
LINE
  5
1BD
100
AcDbEntity
  8
1
  6
CONTINUOUS
 62
7
100
AcDbLine
 10
451.9191280000000
 20
220.3782469999999
 30
0.000000000000000
 11
452.2641890000000
 21
220.0450259999998
 31
0.000000000000000
  0
LINE
  5
1BE
100
AcDbEntity
  8
1
  6
CONTINUOUS
 62
7
100
AcDbLine
 10
451.6473089999999
 20
220.4825880000000
 30
0.000000000000000
 11
451.9191280000001
 21
220.3782470000000
 31
0.000000000000000
  0
LINE
  5
1BF
100
AcDbEntity
  8
1
  6
CONTINUOUS
 62
7
100
AcDbLine
 10
451.6473089999998
 20
220.4825880000000
 30
0.000000000000000
 11
451.3754910000000
 21
220.3782469999999
 31
0.000000000000000
  0
LINE
  5
1C0
100
AcDbEntity
  8
1
  6
CONTINUOUS
 62
7
100
AcDbLine
 10
451.3754910000000
 20
220.3782470000000
 30
0.000000000000000
 11
451.0304299999997
 21
220.0450259999998
 31
0.000000000000000
  0
ARC
  5
1C1
100
AcDbEntity
  8
1
  6
CONTINUOUS
 62
7
100
AcDbCircle
 10
451.6473089999998
 20
221.1893429999999
 30
0.000000000000000
 40
1.300000000000000
100
AcDbArc
 50
28.32825099999999
 51
61.67174900000001
  0
ARC
  5
1C2
100
AcDbEntity
  8
1
  6
CONTINUOUS
 62
7
100
AcDbCircle
 10
451.6473089999998
 20
221.1893429999999
 30
0.000000000000000
 40
1.300000000000000
100
AcDbArc
 50
118.3282509999999
 51
151.6717490000000
  0
LINE
  5
1C3
100
AcDbEntity
  8
4
  6
CENTER
 62
1
100
AcDbLine
 10
455.9473090000000
 20
221.1893429999999
 30
0.000000000000000
 11
447.3473089999997
 21
221.1893429999999
 31
0.000000000000000
  0
ARC
  5
1C4
100
AcDbEntity
  8
1
  6
CONTINUOUS
 62
7
100
AcDbCircle
 10
468.7973089999998
 20
235.1893430000000
 30
0.000000000000000
 40
1.000000000000000
100
AcDbArc
 50
0.000000000000000
 51
90.00000000000000
  0
LINE
  5
1C5
100
AcDbEntity
  8
1
  6
CONTINUOUS
 62
7
100
AcDbLine
 10
465.1473090000000
 20
234.1893430000000
 30
0.000000000000000
 11
465.1473090000000
 21
229.1893430000000
 31
0.000000000000000
  0
LINE
  5
1C6
100
AcDbEntity
  8
1
  6
CONTINUOUS
 62
7
100
AcDbLine
 10
463.9405549999998
 20
221.1893419999999
 30
0.000000000000000
 11
463.8362140000000
 21
221.4611600000000
 31
0.000000000000000
  0
LINE
  5
1C7
100
AcDbEntity
  8
1
  6
CONTINUOUS
 62
7
100
AcDbLine
 10
463.9405549999998
 20
221.1893419999999
 30
0.000000000000000
 11
463.8362140000000
 21
220.9175239999999
 31
0.000000000000000
  0
LINE
  5
1C8
100
AcDbEntity
  8
1
  6
CONTINUOUS
 62
7
100
AcDbLine
 10
463.8362139999999
 20
221.4611600000000
 30
0.000000000000000
 11
463.5029929999998
 21
221.8062209999999
 31
0.000000000000000
  0
LINE
  5
1C9
100
AcDbEntity
  8
1
  6
CONTINUOUS
 62
7
100
AcDbLine
 10
463.8362139999999
 20
220.9175239999999
 30
0.000000000000000
 11
463.5029929999998
 21
220.5724630000000
 31
0.000000000000000
  0
LINE
  5
1CA
100
AcDbEntity
  8
1
  6
CONTINUOUS
 62
7
100
AcDbLine
 10
464.3754909999999
 20
222.0004369999999
 30
0.000000000000000
 11
464.0304299999997
 21
222.3336589999998
 31
0.000000000000000
  0
LINE
  5
1CB
100
AcDbEntity
  8
1
  6
CONTINUOUS
 62
7
100
AcDbLine
 10
464.6473089999998
 20
221.8960959999999
 30
0.000000000000000
 11
464.3754910000000
 21
222.0004370000001
 31
0.000000000000000
  0
LINE
  5
1CC
100
AcDbEntity
  8
1
  6
CONTINUOUS
 62
7
100
AcDbLine
 10
464.6473089999998
 20
221.8960959999999
 30
0.000000000000000
 11
464.9191280000000
 21
222.0004370000000
 31
0.000000000000000
  0
LINE
  5
1CD
100
AcDbEntity
  8
1
  6
CONTINUOUS
 62
7
100
AcDbLine
 10
464.9191280000001
 20
222.0004370000000
 30
0.000000000000000
 11
465.2641890000000
 21
222.3336590000000
 31
0.000000000000000
  0
LINE
  5
1CE
100
AcDbEntity
  8
1
  6
CONTINUOUS
 62
7
100
AcDbLine
 10
465.4584049999999
 20
221.4611600000001
 30
0.000000000000000
 11
465.7916259999998
 21
221.8062209999999
 31
0.000000000000000
  0
LINE
  5
1CF
100
AcDbEntity
  8
1
  6
CONTINUOUS
 62
7
100
AcDbLine
 10
465.3540630000000
 20
221.1893419999999
 30
0.000000000000000
 11
465.4584049999998
 21
221.4611600000000
 31
0.000000000000000
  0
LINE
  5
1D0
100
AcDbEntity
  8
1
  6
CONTINUOUS
 62
7
100
AcDbLine
 10
465.3540630000001
 20
221.1893420000000
 30
0.000000000000000
 11
465.4584049999999
 21
220.9175240000000
 31
0.000000000000000
  0
LINE
  5
1D1
100
AcDbEntity
  8
1
  6
CONTINUOUS
 62
7
100
AcDbLine
 10
465.4584049999999
 20
220.9175239999999
 30
0.000000000000000
 11
465.7916259999998
 21
220.5724630000000
 31
0.000000000000000
  0
LINE
  5
1D2
100
AcDbEntity
  8
1
  6
CONTINUOUS
 62
7
100
AcDbLine
 10
464.9191280000000
 20
220.3782469999998
 30
0.000000000000000
 11
465.2641889999999
 21
220.0450259999998
 31
0.000000000000000
  0
LINE
  5
1D3
100
AcDbEntity
  8
1
  6
CONTINUOUS
 62
7
100
AcDbLine
 10
464.6473090000000
 20
220.4825880000001
 30
0.000000000000000
 11
464.9191280000002
 21
220.3782470000000
 31
0.000000000000000
  0
LINE
  5
1D4
100
AcDbEntity
  8
1
  6
CONTINUOUS
 62
7
100
AcDbLine
 10
464.6473089999998
 20
220.4825880000000
 30
0.000000000000000
 11
464.3754910000000
 21
220.3782469999999
 31
0.000000000000000
  0
LINE
  5
1D5
100
AcDbEntity
  8
1
  6
CONTINUOUS
 62
7
100
AcDbLine
 10
464.3754910000000
 20
220.3782469999998
 30
0.000000000000000
 11
464.0304299999998
 21
220.0450259999998
 31
0.000000000000000
  0
ARC
  5
1D6
100
AcDbEntity
  8
1
  6
CONTINUOUS
 62
7
100
AcDbCircle
 10
464.6473089999998
 20
221.1893429999999
 30
0.000000000000000
 40
1.300000000000000
100
AcDbArc
 50
28.32825099999999
 51
61.67174900000001
  0
ARC
  5
1D7
100
AcDbEntity
  8
1
  6
CONTINUOUS
 62
7
100
AcDbCircle
 10
464.6473089999998
 20
221.1893429999999
 30
0.000000000000000
 40
1.300000000000000
100
AcDbArc
 50
118.3282509999999
 51
151.6717490000000
  0
LINE
  5
1D8
100
AcDbEntity
  8
1
  6
CONTINUOUS
 62
7
100
AcDbLine
 10
458.7759269999998
 20
244.4398850000000
 30
0.000000000000000
 11
459.5572800000000
 21
243.6854020000000
 31
0.000000000000000
  0
LINE
  5
1D9
100
AcDbEntity
  8
1
  6
CONTINUOUS
 62
7
100
AcDbLine
 10
458.7759269999998
 20
246.9387999999998
 30
0.000000000000000
 11
459.5572800000000
 21
247.6932829999998
 31
0.000000000000000
  0
LINE
  5
1DA
100
AcDbEntity
  8
1
  6
CONTINUOUS
 62
7
100
AcDbLine
 10
457.5186910000000
 20
244.4398849999999
 30
0.000000000000000
 11
456.7373379999998
 21
243.6854020000000
 31
0.000000000000000
  0
LINE
  5
1DB
100
AcDbEntity
  8
1
  6
CONTINUOUS
 62
7
100
AcDbLine
 10
456.8978519999997
 20
245.0607250000000
 30
0.000000000000000
 11
456.1433690000000
 21
244.2793720000000
 31
0.000000000000000
  0
LINE
  5
1DC
100
AcDbEntity
  8
1
  6
CONTINUOUS
 62
7
100
AcDbLine
 10
456.8978519999997
 20
246.3179610000000
 30
0.000000000000000
 11
456.1433690000000
 21
247.0993140000000
 31
0.000000000000000
  0
LINE
  5
1DD
100
AcDbEntity
  8
1
  6
CONTINUOUS
 62
7
100
AcDbLine
 10
457.5186909999999
 20
246.9387999999999
 30
0.000000000000000
 11
456.7373379999998
 21
247.6932829999999
 31
0.000000000000000
  0
ARC
  5
1DE
100
AcDbEntity
  8
1
  6
CONTINUOUS
 62
7
100
AcDbCircle
 10
458.1473090000000
 20
245.6893430000000
 30
0.000000000000000
 40
2.450000000000000
100
AcDbArc
 50
215.1289999999999
 51
234.8710000000000
  0
ARC
  5
1DF
100
AcDbEntity
  8
1
  6
CONTINUOUS
 62
7
100
AcDbCircle
 10
458.1473090000000
 20
245.6893430000000
 30
0.000000000000000
 40
2.450000000000000
100
AcDbArc
 50
125.1291000000000
 51
144.8709000000000
  0
LINE
  5
1E0
100
AcDbEntity
  8
1
  6
CONTINUOUS
 62
7
100
AcDbLine
 10
458.1480160000000
 20
244.6689880000000
 30
0.000000000000000
 11
458.7759269999999
 21
244.4398850000000
 31
0.000000000000000
  0
LINE
  5
1E1
100
AcDbEntity
  8
1
  6
CONTINUOUS
 62
7
100
AcDbLine
 10
458.1480159999999
 20
244.6689880000000
 30
0.000000000000000
 11
457.5186910000000
 21
244.4398850000000
 31
0.000000000000000
  0
LINE
  5
1E2
100
AcDbEntity
  8
1
  6
CONTINUOUS
 62
7
100
AcDbLine
 10
457.1269540000001
 20
245.6900500000000
 30
0.000000000000000
 11
456.8978519999998
 21
245.0607250000000
 31
0.000000000000000
  0
LINE
  5
1E3
100
AcDbEntity
  8
1
  6
CONTINUOUS
 62
7
100
AcDbLine
 10
457.1269540000001
 20
245.6900500000000
 30
0.000000000000000
 11
456.8978519999998
 21
246.3179610000000
 31
0.000000000000000
  0
LINE
  5
1E4
100
AcDbEntity
  8
1
  6
CONTINUOUS
 62
7
100
AcDbLine
 10
458.1473090000001
 20
246.7104049999999
 30
0.000000000000000
 11
457.5186910000000
 21
246.9387999999999
 31
0.000000000000000
  0
LINE
  5
1E5
100
AcDbEntity
  8
1
  6
CONTINUOUS
 62
7
100
AcDbLine
 10
458.1473090000000
 20
246.7104049999999
 30
0.000000000000000
 11
458.7759269999998
 21
246.9387999999999
 31
0.000000000000000
  0
LINE
  5
1E6
100
AcDbEntity
  8
1
  6
CONTINUOUS
 62
7
100
AcDbLine
 10
459.1683719999998
 20
245.6893430000000
 30
0.000000000000000
 11
459.3967670000000
 21
245.0607250000000
 31
0.000000000000000
  0
LINE
  5
1E7
100
AcDbEntity
  8
1
  6
CONTINUOUS
 62
7
100
AcDbLine
 10
459.1683719999998
 20
245.6893430000001
 30
0.000000000000000
 11
459.3967670000001
 21
246.3179610000001
 31
0.000000000000000
  0
ARC
  5
1E8
100
AcDbEntity
  8
1
  6
CONTINUOUS
 62
7
100
AcDbCircle
 10
458.1473090000000
 20
245.6893430000000
 30
0.000000000000000
 40
2.450000000000000
100
AcDbArc
 50
305.1290000000000
 51
324.8709999999999
  0
ARC
  5
1E9
100
AcDbEntity
  8
1
  6
CONTINUOUS
 62
7
100
AcDbCircle
 10
458.1473090000000
 20
245.6893430000000
 30
0.000000000000000
 40
2.450000000000000
100
AcDbArc
 50
35.12899999999999
 51
54.87089000000000
  0
LINE
  5
1EA
100
AcDbEntity
  8
1
  6
CONTINUOUS
 62
7
100
AcDbLine
 10
459.3967670000001
 20
245.0607250000000
 30
0.000000000000000
 11
460.1512500000001
 21
244.2793720000000
 31
0.000000000000000
  0
LINE
  5
1EB
100
AcDbEntity
  8
1
  6
CONTINUOUS
 62
7
100
AcDbLine
 10
459.3967670000001
 20
246.3179610000001
 30
0.000000000000000
 11
460.1512500000001
 21
247.0993140000000
 31
0.000000000000000
  0
LINE
  5
1EC
100
AcDbEntity
  8
4
  6
CENTER
 62
1
100
AcDbLine
 10
453.8973089999998
 20
245.6893430000000
 30
0.000000000000000
 11
462.3973089999998
 21
245.6893430000000
 31
0.000000000000000
  0
ARC
  5
1ED
100
AcDbEntity
  8
1
  6
CONTINUOUS
 62
7
100
AcDbCircle
 10
448.4473089999998
 20
311.1893430000000
 30
0.000000000000000
 40
3.000000000000000
100
AcDbArc
 50
90.00000000000000
 51
180.0000000000000
  0
ARC
  5
1EE
100
AcDbEntity
  8
1
  6
CONTINUOUS
 62
7
100
AcDbCircle
 10
447.9473089999998
 20
311.6893430000000
 30
0.000000000000000
 40
2.500000000000000
100
AcDbArc
 50
90.00000000000000
 51
180.0000000000000
  0
ARC
  5
1EF
100
AcDbEntity
  8
1
  6
CONTINUOUS
 62
7
100
AcDbCircle
 10
448.4473089999998
 20
291.4893430000000
 30
0.000000000000000
 40
3.000000000000000
100
AcDbArc
 50
180.0000000000000
 51
270.0000000000000
  0
ARC
  5
1F0
100
AcDbEntity
  8
1
  6
CONTINUOUS
 62
7
100
AcDbCircle
 10
458.1473090000000
 20
301.1893430000000
 30
0.000000000000000
 40
12.70000000000000
100
AcDbArc
 50
119.9999999999999
 51
210.0000000000000
  0
ARC
  5
1F1
100
AcDbEntity
  8
1
  6
CONTINUOUS
 62
7
100
AcDbCircle
 10
458.1473090000000
 20
301.1893430000000
 30
0.000000000000000
 40
13.00000000000000
100
AcDbArc
 50
210.0000000000000
 51
420.0000000000000
  0
LINE
  5
1F2
100
AcDbEntity
  8
1
  6
CONTINUOUS
 62
7
100
AcDbLine
 10
475.1473090000000
 20
286.6893430000000
 30
0.000000000000000
 11
441.1473090000000
 21
286.6893430000000
 31
0.000000000000000
  0
ARC
  5
1F3
100
AcDbEntity
  8
1
  6
CONTINUOUS
 62
7
100
AcDbCircle
 10
447.1473089999998
 20
320.1893430000000
 30
0.000000000000000
 40
5.000000000000000
100
AcDbArc
 50
90.00000000000000
 51
180.0000000000000
  0
LINE
  5
1F4
100
AcDbEntity
  8
1
  6
CONTINUOUS
 62
7
100
AcDbLine
 10
442.1473090000000
 20
320.1893430000000
 30
0.000000000000000
 11
442.1473090000000
 21
286.6893430000000
 31
0.000000000000000
  0
LINE
  5
1F5
100
AcDbEntity
  8
1
  6
CONTINUOUS
 62
7
100
AcDbLine
 10
445.4473089999998
 20
311.6893430000000
 30
0.000000000000000
 11
445.4473089999998
 21
286.6893430000000
 31
0.000000000000000
  0
ARC
  5
1F6
100
AcDbEntity
  8
1
  6
CONTINUOUS
 62
7
100
AcDbCircle
 10
441.1473090000000
 20
284.1893430000000
 30
0.000000000000000
 40
2.500000000000000
100
AcDbArc
 50
90.00000000000000
 51
180.0000000000000
  0
CIRCLE
  5
1F7
100
AcDbEntity
  8
1
  6
CONTINUOUS
 62
7
100
AcDbCircle
 10
458.1473090000000
 20
301.1893430000000
 30
0.000000000000000
 40
8.000000000000000
  0
LINE
  5
1F8
100
AcDbEntity
  8
1
  6
CONTINUOUS
 62
7
100
AcDbLine
 10
474.1473090000000
 20
320.1893430000000
 30
0.000000000000000
 11
474.1473090000000
 21
286.6893430000000
 31
0.000000000000000
  0
LINE
  5
1F9
100
AcDbEntity
  8
1
  6
CONTINUOUS
 62
7
100
AcDbLine
 10
470.8473090000000
 20
311.6893430000000
 30
0.000000000000000
 11
470.8473090000000
 21
303.9660309999998
 31
0.000000000000000
  0
CIRCLE
  5
1FA
100
AcDbEntity
  8
1
  6
CONTINUOUS
 62
7
100
AcDbCircle
 10
458.1473090000000
 20
301.1893430000000
 30
0.000000000000000
 40
11.00000000000000
  0
ARC
  5
1FB
100
AcDbEntity
  8
1
  6
CONTINUOUS
 62
7
100
AcDbCircle
 10
475.1473090000000
 20
284.1893430000000
 30
0.000000000000000
 40
2.500000000000000
100
AcDbArc
 50
0.000000000000000
 51
90.00000000000000
  0
LINE
  5
1FC
100
AcDbEntity
  8
1
  6
CONTINUOUS
 62
7
100
AcDbLine
 10
459.1683719999999
 20
277.6893430000000
 30
0.000000000000000
 11
459.3967670000001
 21
278.3179610000000
 31
0.000000000000000
  0
LINE
  5
1FD
100
AcDbEntity
  8
1
  6
CONTINUOUS
 62
7
100
AcDbLine
 10
459.3967670000000
 20
278.3179610000000
 30
0.000000000000000
 11
460.1512499999999
 21
279.0993139999998
 31
0.000000000000000
  0
LINE
  5
1FE
100
AcDbEntity
  8
1
  6
CONTINUOUS
 62
7
100
AcDbLine
 10
459.1683719999999
 20
277.6893430000000
 30
0.000000000000000
 11
459.3967670000001
 21
277.0607249999998
 31
0.000000000000000
  0
LINE
  5
1FF
100
AcDbEntity
  8
1
  6
CONTINUOUS
 62
7
100
AcDbLine
 10
459.3967669999998
 20
277.0607249999998
 30
0.000000000000000
 11
460.1512499999999
 21
276.2793719999999
 31
0.000000000000000
  0
ARC
  5
200
100
AcDbEntity
  8
1
  6
CONTINUOUS
 62
7
100
AcDbCircle
 10
458.1473090000000
 20
277.6893430000000
 30
0.000000000000000
 40
2.450000000000000
100
AcDbArc
 50
35.12899999999999
 51
54.87089000000000
  0
ARC
  5
201
100
AcDbEntity
  8
1
  6
CONTINUOUS
 62
7
100
AcDbCircle
 10
458.1473090000000
 20
277.6893430000000
 30
0.000000000000000
 40
2.450000000000000
100
AcDbArc
 50
305.1290000000000
 51
324.8709999999999
  0
LINE
  5
202
100
AcDbEntity
  8
1
  6
CONTINUOUS
 62
7
100
AcDbLine
 10
458.1473090000001
 20
278.7104049999999
 30
0.000000000000000
 11
458.7759269999999
 21
278.9388000000000
 31
0.000000000000000
  0
LINE
  5
203
100
AcDbEntity
  8
1
  6
CONTINUOUS
 62
7
100
AcDbLine
 10
458.1473090000000
 20
278.7104050000000
 30
0.000000000000000
 11
457.5186910000000
 21
278.9388000000000
 31
0.000000000000000
  0
LINE
  5
204
100
AcDbEntity
  8
1
  6
CONTINUOUS
 62
7
100
AcDbLine
 10
457.1269540000000
 20
277.6900499999999
 30
0.000000000000000
 11
456.8978519999997
 21
278.3179609999999
 31
0.000000000000000
  0
LINE
  5
205
100
AcDbEntity
  8
1
  6
CONTINUOUS
 62
7
100
AcDbLine
 10
457.1269540000000
 20
277.6900499999999
 30
0.000000000000000
 11
456.8978519999997
 21
277.0607249999998
 31
0.000000000000000
  0
LINE
  5
206
100
AcDbEntity
  8
1
  6
CONTINUOUS
 62
7
100
AcDbLine
 10
458.1480159999999
 20
276.6689880000000
 30
0.000000000000000
 11
457.5186909999999
 21
276.4398849999999
 31
0.000000000000000
  0
LINE
  5
207
100
AcDbEntity
  8
1
  6
CONTINUOUS
 62
7
100
AcDbLine
 10
458.1480160000000
 20
276.6689880000001
 30
0.000000000000000
 11
458.7759269999999
 21
276.4398850000001
 31
0.000000000000000
  0
ARC
  5
208
100
AcDbEntity
  8
1
  6
CONTINUOUS
 62
7
100
AcDbCircle
 10
458.1473090000000
 20
277.6893430000000
 30
0.000000000000000
 40
2.450000000000000
100
AcDbArc
 50
125.1291000000000
 51
144.8709000000000
  0
ARC
  5
209
100
AcDbEntity
  8
1
  6
CONTINUOUS
 62
7
100
AcDbCircle
 10
458.1473090000000
 20
277.6893430000000
 30
0.000000000000000
 40
2.450000000000000
100
AcDbArc
 50
215.1289999999999
 51
234.8710000000000
  0
LINE
  5
20A
100
AcDbEntity
  8
1
  6
CONTINUOUS
 62
7
100
AcDbLine
 10
457.5186910000000
 20
278.9388000000000
 30
0.000000000000000
 11
456.7373379999998
 21
279.6932830000000
 31
0.000000000000000
  0
LINE
  5
20B
100
AcDbEntity
  8
1
  6
CONTINUOUS
 62
7
100
AcDbLine
 10
456.8978519999999
 20
278.3179610000000
 30
0.000000000000000
 11
456.1433690000001
 21
279.0993139999999
 31
0.000000000000000
  0
LINE
  5
20C
100
AcDbEntity
  8
1
  6
CONTINUOUS
 62
7
100
AcDbLine
 10
456.8978519999998
 20
277.0607249999998
 30
0.000000000000000
 11
456.1433690000001
 21
276.2793720000000
 31
0.000000000000000
  0
LINE
  5
20D
100
AcDbEntity
  8
1
  6
CONTINUOUS
 62
7
100
AcDbLine
 10
457.5186910000000
 20
276.4398849999999
 30
0.000000000000000
 11
456.7373379999998
 21
275.6854020000000
 31
0.000000000000000
  0
LINE
  5
20E
100
AcDbEntity
  8
1
  6
CONTINUOUS
 62
7
100
AcDbLine
 10
458.7759269999998
 20
278.9388000000000
 30
0.000000000000000
 11
459.5572799999999
 21
279.6932830000000
 31
0.000000000000000
  0
LINE
  5
20F
100
AcDbEntity
  8
1
  6
CONTINUOUS
 62
7
100
AcDbLine
 10
458.7759269999997
 20
276.4398849999999
 30
0.000000000000000
 11
459.5572799999999
 21
275.6854020000000
 31
0.000000000000000
  0
CIRCLE
  5
210
100
AcDbEntity
  8
1
  6
CONTINUOUS
 62
7
100
AcDbCircle
 10
458.1473090000000
 20
277.6893430000000
 30
0.000000000000000
 40
4.500000000000000
  0
LINE
  5
211
100
AcDbEntity
  8
4
  6
CENTER
 62
1
100
AcDbLine
 10
453.8973089999998
 20
277.6893430000000
 30
0.000000000000000
 11
462.3973089999998
 21
277.6893430000000
 31
0.000000000000000
  0
LINE
  5
212
100
AcDbEntity
  8
1
  6
CONTINUOUS
 62
7
100
AcDbLine
 10
458.1473090000000
 20
306.9623430000000
 30
0.000000000000000
 11
463.1473090000000
 21
304.0763430000001
 31
0.000000000000000
  0
LINE
  5
213
100
AcDbEntity
  8
1
  6
CONTINUOUS
 62
7
100
AcDbLine
 10
463.1473090000001
 20
298.3023430000001
 30
0.000000000000000
 11
458.1473090000002
 21
295.4153430000001
 31
0.000000000000000
  0
CIRCLE
  5
214
100
AcDbEntity
  8
1
  6
CONTINUOUS
 62
7
100
AcDbCircle
 10
458.1473090000000
 20
301.1893430000000
 30
0.000000000000000
 40
5.000000000000000
  0
CIRCLE
  5
215
100
AcDbEntity
  8
1
  6
CONTINUOUS
 62
7
100
AcDbCircle
 10
458.1473090000000
 20
301.1893430000000
 30
0.000000000000000
 40
6.099999999999997
  0
LINE
  5
216
100
AcDbEntity
  8
1
  6
CONTINUOUS
 62
7
100
AcDbLine
 10
448.4473089999998
 20
288.4893430000000
 30
0.000000000000000
 11
467.8473089999998
 21
288.4893430000000
 31
0.000000000000000
  0
LINE
  5
217
100
AcDbEntity
  8
1
  6
CONTINUOUS
 62
7
100
AcDbLine
 10
458.1473090000001
 20
302.6731660000000
 30
0.000000000000000
 11
458.1443450000000
 21
302.6740720000001
 31
0.000000000000000
  0
LINE
  5
218
100
AcDbEntity
  8
1
  6
CONTINUOUS
 62
7
100
AcDbLine
 10
458.1473090000000
 20
302.6731659999999
 30
0.000000000000000
 11
458.1502740000000
 21
302.6740720000000
 31
0.000000000000000
  0
LINE
  5
219
100
AcDbEntity
  8
1
  6
CONTINUOUS
 62
7
100
AcDbLine
 10
458.1502739999999
 20
302.6740719999999
 30
0.000000000000000
 11
459.5007999999999
 21
303.9782609999999
 31
0.000000000000000
  0
LINE
  5
21A
100
AcDbEntity
  8
1
  6
CONTINUOUS
 62
7
100
AcDbLine
 10
456.7938179999999
 20
303.9782609999999
 30
0.000000000000000
 11
458.1443450000000
 21
302.6740720000000
 31
0.000000000000000
  0
LINE
  5
21B
100
AcDbEntity
  8
1
  6
CONTINUOUS
 62
7
100
AcDbLine
 10
458.1473090000000
 20
306.9623429999999
 30
0.000000000000000
 11
453.1473090000000
 21
304.0763430000000
 31
0.000000000000000
  0
ARC
  5
21C
100
AcDbEntity
  8
1
  6
CONTINUOUS
 62
7
100
AcDbCircle
 10
458.1473090000000
 20
301.1893430000000
 30
0.000000000000000
 40
3.100000000000000
100
AcDbArc
 50
115.8877849999999
 51
154.1122149999999
  0
LINE
  5
21D
100
AcDbEntity
  8
1
  6
CONTINUOUS
 62
7
100
AcDbLine
 10
459.5007999999999
 20
298.4004249999999
 30
0.000000000000000
 11
458.1502740000000
 21
299.7046130000000
 31
0.000000000000000
  0
LINE
  5
21E
100
AcDbEntity
  8
1
  6
CONTINUOUS
 62
7
100
AcDbLine
 10
459.6311329999998
 20
301.1893430000000
 30
0.000000000000000
 11
459.6320389999998
 21
301.1923070000000
 31
0.000000000000000
  0
LINE
  5
21F
100
AcDbEntity
  8
1
  6
CONTINUOUS
 62
7
100
AcDbLine
 10
459.6311329999997
 20
301.1893430000000
 30
0.000000000000000
 11
459.6320389999997
 21
301.1863780000000
 31
0.000000000000000
  0
LINE
  5
220
100
AcDbEntity
  8
1
  6
CONTINUOUS
 62
7
100
AcDbLine
 10
458.1473090000000
 20
299.7055199999999
 30
0.000000000000000
 11
458.1502740000000
 21
299.7046130000000
 31
0.000000000000000
  0
LINE
  5
221
100
AcDbEntity
  8
1
  6
CONTINUOUS
 62
7
100
AcDbLine
 10
458.1473090000001
 20
299.7055200000000
 30
0.000000000000000
 11
458.1443450000000
 21
299.7046130000000
 31
0.000000000000000
  0
LINE
  5
222
100
AcDbEntity
  8
1
  6
CONTINUOUS
 62
7
100
AcDbLine
 10
456.6634859999997
 20
301.1893430000000
 30
0.000000000000000
 11
456.6625799999996
 21
301.1863779999999
 31
0.000000000000000
  0
LINE
  5
223
100
AcDbEntity
  8
1
  6
CONTINUOUS
 62
7
100
AcDbLine
 10
456.6634859999998
 20
301.1893430000000
 30
0.000000000000000
 11
456.6625799999998
 21
301.1923069999999
 31
0.000000000000000
  0
LINE
  5
224
100
AcDbEntity
  8
1
  6
CONTINUOUS
 62
7
100
AcDbLine
 10
458.1443450000000
 20
299.7046130000000
 30
0.000000000000000
 11
456.7938179999998
 21
298.4004249999999
 31
0.000000000000000
  0
LINE
  5
225
100
AcDbEntity
  8
1
  6
CONTINUOUS
 62
7
100
AcDbLine
 10
453.1473090000001
 20
298.3023430000001
 30
0.000000000000000
 11
458.1473090000001
 21
295.4153430000000
 31
0.000000000000000
  0
ARC
  5
226
100
AcDbEntity
  8
1
  6
CONTINUOUS
 62
7
100
AcDbCircle
 10
458.1473090000000
 20
301.1893430000000
 30
0.000000000000000
 40
3.100000000000000
100
AcDbArc
 50
205.8877850000000
 51
244.1122150000000
  0
LINE
  5
227
100
AcDbEntity
  8
1
  6
CONTINUOUS
 62
7
100
AcDbLine
 10
456.6625799999997
 20
301.1863780000000
 30
0.000000000000000
 11
455.3583920000000
 21
299.8358520000000
 31
0.000000000000000
  0
LINE
  5
228
100
AcDbEntity
  8
1
  6
CONTINUOUS
 62
7
100
AcDbLine
 10
453.1473090000000
 20
298.3023430000000
 30
0.000000000000000
 11
453.1473090000000
 21
304.0763430000000
 31
0.000000000000000
  0
LINE
  5
229
100
AcDbEntity
  8
1
  6
CONTINUOUS
 62
7
100
AcDbLine
 10
455.3583920000001
 20
302.5428340000000
 30
0.000000000000000
 11
456.6625799999998
 21
301.1923070000000
 31
0.000000000000000
  0
CIRCLE
  5
22A
100
AcDbEntity
  8
1
  6
CONTINUOUS
 62
7
100
AcDbCircle
 10
458.1473090000000
 20
301.1893430000000
 30
0.000000000000000
 40
4.049999999999998
  0
ARC
  5
22B
100
AcDbEntity
  8
1
  6
CONTINUOUS
 62
7
100
AcDbCircle
 10
458.1473090000000
 20
301.1893430000000
 30
0.000000000000000
 40
3.100000000000000
100
AcDbArc
 50
295.8877850000000
 51
334.1122149999999
  0
LINE
  5
22C
100
AcDbEntity
  8
1
  6
CONTINUOUS
 62
7
100
AcDbLine
 10
460.9362270000000
 20
299.8358520000000
 30
0.000000000000000
 11
459.6320389999998
 21
301.1863780000000
 31
0.000000000000000
  0
LINE
  5
22D
100
AcDbEntity
  8
1
  6
CONTINUOUS
 62
7
100
AcDbLine
 10
459.6320389999998
 20
301.1923070000000
 30
0.000000000000000
 11
460.9362270000000
 21
302.5428340000000
 31
0.000000000000000
  0
ARC
  5
22E
100
AcDbEntity
  8
1
  6
CONTINUOUS
 62
7
100
AcDbCircle
 10
458.1473090000000
 20
301.1893430000000
 30
0.000000000000000
 40
3.100000000000000
100
AcDbArc
 50
25.88778500000000
 51
64.11221500000001
  0
LINE
  5
22F
100
AcDbEntity
  8
1
  6
CONTINUOUS
 62
7
100
AcDbLine
 10
448.6210299999997
 20
295.6893430000000
 30
0.000000000000000
 11
446.8889779999998
 21
294.6893429999999
 31
0.000000000000000
  0
LINE
  5
230
100
AcDbEntity
  8
1
  6
CONTINUOUS
 62
7
100
AcDbLine
 10
463.1473090000000
 20
298.3023430000000
 30
0.000000000000000
 11
463.1473090000000
 21
304.0763430000000
 31
0.000000000000000
  0
ARC
  5
231
100
AcDbEntity
  8
1
  6
CONTINUOUS
 62
7
100
AcDbCircle
 10
467.8473089999998
 20
291.4893430000000
 30
0.000000000000000
 40
3.000000000000000
100
AcDbArc
 50
270.0000000000000
 51
360.0000000000000
  0
LINE
  5
232
100
AcDbEntity
  8
1
  6
CONTINUOUS
 62
7
100
AcDbLine
 10
470.8473090000000
 20
298.4126539999999
 30
0.000000000000000
 11
470.8473090000000
 21
286.6893430000000
 31
0.000000000000000
  0
LINE
  5
233
100
AcDbEntity
  8
1
  6
CONTINUOUS
 62
7
100
AcDbLine
 10
447.1473089999998
 20
325.1893429999999
 30
0.000000000000000
 11
469.1473090000000
 21
325.1893429999999
 31
0.000000000000000
  0
LINE
  5
234
100
AcDbEntity
  8
1
  6
CONTINUOUS
 62
7
100
AcDbLine
 10
447.9473089999998
 20
314.1893430000000
 30
0.000000000000000
 11
468.3473089999998
 21
314.1893430000000
 31
0.000000000000000
  0
LINE
  5
235
100
AcDbEntity
  8
1
  6
CONTINUOUS
 62
7
100
AcDbLine
 10
451.7973089999999
 20
312.1878649999999
 30
0.000000000000000
 11
452.6473090000000
 21
310.7156220000000
 31
0.000000000000000
  0
LINE
  5
236
100
AcDbEntity
  8
1
  6
CONTINUOUS
 62
7
100
AcDbLine
 10
451.7973089999999
 20
312.1878649999998
 30
0.000000000000000
 11
451.7973089999999
 21
314.1893430000000
 31
0.000000000000000
  0
ARC
  5
237
100
AcDbEntity
  8
1
  6
CONTINUOUS
 62
7
100
AcDbCircle
 10
467.8473089999998
 20
311.1893430000000
 30
0.000000000000000
 40
3.000000000000000
100
AcDbArc
 50
0.000000000000000
 51
90.00000000000000
  0
LINE
  5
238
100
AcDbEntity
  8
1
  6
CONTINUOUS
 62
7
100
AcDbLine
 10
464.4973089999998
 20
312.1878649999998
 30
0.000000000000000
 11
464.4973089999998
 21
314.1893430000000
 31
0.000000000000000
  0
LINE
  5
239
100
AcDbEntity
  8
1
  6
CONTINUOUS
 62
7
100
AcDbLine
 10
463.6473089999998
 20
310.7156220000001
 30
0.000000000000000
 11
464.6473089999998
 21
312.4476730000000
 31
0.000000000000000
  0
ARC
  5
23A
100
AcDbEntity
  8
1
  6
CONTINUOUS
 62
7
100
AcDbCircle
 10
468.3473089999998
 20
311.6893430000000
 30
0.000000000000000
 40
2.500000000000000
100
AcDbArc
 50
0.000000000000000
 51
90.00000000000000
  0
ARC
  5
23B
100
AcDbEntity
  8
1
  6
CONTINUOUS
 62
7
100
AcDbCircle
 10
469.1473090000000
 20
320.1893430000000
 30
0.000000000000000
 40
5.000000000000000
100
AcDbArc
 50
0.000000000000000
 51
90.00000000000000
  0
LINE
  5
23C
100
AcDbEntity
  8
1
  6
CONTINUOUS
 62
7
100
AcDbLine
 10
71.76015899999996
 20
442.3809589999996
 30
0.000000000000000
 11
61.69349200000005
 21
434.8309589999999
 31
0.000000000000000
  0
LINE
  5
23D
100
AcDbEntity
  8
1
  6
CONTINUOUS
 62
7
100
AcDbLine
 10
62.29349200000001
 20
434.0309590000001
 30
0.000000000000000
 11
71.76015900000007
 21
441.1309590000001
 31
0.000000000000000
  0
ARC
  5
23E
100
AcDbEntity
  8
1
  6
CONTINUOUS
 62
7
100
AcDbCircle
 10
55.22754400000000
 20
445.6309590000000
 30
0.000000000000000
 40
10.03262800000000
100
AcDbArc
 50
324.4619999999998
 51
395.5380000000000
  0
ARC
  5
23F
100
AcDbEntity
  8
1
  6
CONTINUOUS
 62
7
100
AcDbCircle
 10
68.29277399999999
 20
445.6309590000000
 30
0.000000000000000
 40
10.03262800000000
100
AcDbArc
 50
144.4620000000000
 51
215.5377000000000
  0
LINE
  5
240
100
AcDbEntity
  8
1
  6
CONTINUOUS
 62
7
100
AcDbLine
 10
55.99847600000001
 20
435.0762590000002
 30
0.000000000000000
 11
51.92810900000003
 21
441.1818099999999
 31
0.000000000000000
  0
LINE
  5
241
100
AcDbEntity
  8
1
  6
CONTINUOUS
 62
7
100
AcDbLine
 10
51.09605800000003
 20
440.6271099999998
 30
0.000000000000000
 11
55.16642600000003
 21
434.5215589999998
 31
0.000000000000000
  0
ARC
  5
242
100
AcDbEntity
  8
1
  6
CONTINUOUS
 62
7
100
AcDbCircle
 10
61.09349200000000
 20
435.6309589999998
 30
0.000000000000000
 40
1.000000000000000
100
AcDbArc
 50
270.0000000000000
 51
306.8698979999999
  0
ARC
  5
243
100
AcDbEntity
  8
1
  6
CONTINUOUS
 62
7
100
AcDbCircle
 10
61.09349200000000
 20
435.6309589999998
 30
0.000000000000000
 40
2.000000000000000
100
AcDbArc
 50
270.0000000000000
 51
306.8698979999999
  0
ARC
  5
244
100
AcDbEntity
  8
1
  6
CONTINUOUS
 62
7
100
AcDbCircle
 10
61.75937000000000
 20
440.9653699999998
 30
0.000000000000000
 40
2.004309000000000
100
AcDbArc
 50
270.0000000000000
 51
324.4619999999998
  0
ARC
  5
245
100
AcDbEntity
  8
1
  6
CONTINUOUS
 62
7
100
AcDbCircle
 10
61.75937000000000
 20
440.9653699999998
 30
0.000000000000000
 40
2.004309000000000
100
AcDbArc
 50
215.5377000000000
 51
256.5374000000000
  0
ARC
  5
246
100
AcDbEntity
  8
1
  6
CONTINUOUS
 62
7
100
AcDbCircle
 10
56.83052599999999
 20
435.6309589999998
 30
0.000000000000000
 40
1.000000000000000
100
AcDbArc
 50
213.6900680000000
 51
270.0000000000000
  0
ARC
  5
247
100
AcDbEntity
  8
1
  6
CONTINUOUS
 62
7
100
AcDbCircle
 10
56.83052599999999
 20
435.6309589999998
 30
0.000000000000000
 40
2.000000000000000
100
AcDbArc
 50
213.6900680000000
 51
270.0000000000000
  0
LINE
  5
248
100
AcDbEntity
  8
1
  6
CONTINUOUS
 62
7
100
AcDbLine
 10
61.09349200000000
 20
434.6309589999998
 30
0.000000000000000
 11
56.83052599999999
 21
434.6309589999998
 31
0.000000000000000
  0
LINE
  5
249
100
AcDbEntity
  8
1
  6
CONTINUOUS
 62
7
100
AcDbLine
 10
56.83052599999999
 20
433.6309589999998
 30
0.000000000000000
 11
61.09349200000000
 21
433.6309589999998
 31
0.000000000000000
  0
LINE
  5
24A
100
AcDbEntity
  8
1
  6
CONTINUOUS
 62
7
100
AcDbLine
 10
59.04685400000000
 20
446.0209429999999
 30
0.000000000000000
 11
64.47346400000001
 21
446.0209429999999
 31
0.000000000000000
  0
ARC
  5
24B
100
AcDbEntity
  8
1
  6
CONTINUOUS
 62
7
100
AcDbCircle
 10
63.78033600000000
 20
443.2989540000000
 30
0.000000000000000
 40
0.3889570000000000
100
AcDbArc
 50
270.0000000000000
 51
344.7419999999998
  0
LINE
  5
24C
100
AcDbEntity
  8
1
  6
CONTINUOUS
 62
7
100
AcDbLine
 10
64.17821400000000
 20
443.6873589999998
 30
0.000000000000000
 11
62.69248799999999
 21
443.6873589999998
 31
0.000000000000000
  0
LINE
  5
24D
100
AcDbEntity
  8
1
  6
CONTINUOUS
 62
7
100
AcDbLine
 10
59.11158799999999
 20
444.4657460000000
 30
0.000000000000000
 11
64.40873000000001
 21
444.4657460000000
 31
0.000000000000000
  0
LINE
  5
24E
100
AcDbEntity
  8
1
  6
CONTINUOUS
 62
7
100
AcDbLine
 10
59.04685400000000
 20
445.2425550000000
 30
0.000000000000000
 11
64.47346400000001
 21
445.2425550000000
 31
0.000000000000000
  0
LINE
  5
24F
100
AcDbEntity
  8
1
  6
CONTINUOUS
 62
7
100
AcDbLine
 10
59.20000600000001
 20
446.7977519999998
 30
0.000000000000000
 11
64.32031300000000
 21
446.7977519999998
 31
0.000000000000000
  0
LINE
  5
250
100
AcDbEntity
  8
1
  6
CONTINUOUS
 62
7
100
AcDbLine
 10
63.95559200000000
 20
447.5761389999998
 30
0.000000000000000
 11
61.75937000000000
 21
447.5761389999998
 31
0.000000000000000
  0
LINE
  5
251
100
AcDbEntity
  8
1
  6
CONTINUOUS
 62
7
100
AcDbLine
 10
59.20316400000000
 20
448.3529480000000
 30
0.000000000000000
 11
64.07242899999999
 21
448.3529480000000
 31
0.000000000000000
  0
LINE
  5
252
100
AcDbEntity
  8
1
  6
CONTINUOUS
 62
7
100
AcDbLine
 10
61.69349199999996
 20
456.4309589999998
 30
0.000000000000000
 11
71.76015899999999
 21
448.8809589999998
 31
0.000000000000000
  0
LINE
  5
253
100
AcDbEntity
  8
1
  6
CONTINUOUS
 62
7
100
AcDbLine
 10
62.29349200000004
 20
457.2309589999999
 30
0.000000000000000
 11
71.76015900000004
 21
450.1309589999998
 31
0.000000000000000
  0
LINE
  5
254
100
AcDbEntity
  8
4
  6
CENTER
 62
1
100
AcDbLine
 10
47.55117900000000
 20
445.6309590000000
 30
0.000000000000000
 11
102.8337810000000
 21
445.6309590000000
 31
0.000000000000000
  0
ARC
  5
255
100
AcDbEntity
  8
1
  6
CONTINUOUS
 62
7
100
AcDbCircle
 10
61.09349200000000
 20
455.6309589999998
 30
0.000000000000000
 40
1.000000000000000
100
AcDbArc
 50
53.13010200000000
 51
90.00000000000000
  0
ARC
  5
256
100
AcDbEntity
  8
1
  6
CONTINUOUS
 62
7
100
AcDbCircle
 10
61.09349200000000
 20
455.6309589999998
 30
0.000000000000000
 40
2.000000000000000
100
AcDbArc
 50
53.13010200000000
 51
90.00000000000000
  0
LINE
  5
257
100
AcDbEntity
  8
1
  6
CONTINUOUS
 62
7
100
AcDbLine
 10
59.62630300000000
 20
440.5769649999998
 30
0.000000000000000
 11
62.97984399999999
 21
440.5769649999998
 31
0.000000000000000
  0
LINE
  5
258
100
AcDbEntity
  8
1
  6
CONTINUOUS
 62
7
100
AcDbLine
 10
63.19457199999999
 20
441.3537739999998
 30
0.000000000000000
 11
60.32574700000000
 21
441.3537739999998
 31
0.000000000000000
  0
LINE
  5
259
100
AcDbEntity
  8
1
  6
CONTINUOUS
 62
7
100
AcDbLine
 10
59.84103100000001
 20
442.1321619999998
 30
0.000000000000000
 11
63.67770900000000
 21
442.1321619999998
 31
0.000000000000000
  0
LINE
  5
25A
100
AcDbEntity
  8
1
  6
CONTINUOUS
 62
7
100
AcDbLine
 10
60.82625199999998
 20
443.6873589999998
 30
0.000000000000000
 11
59.34210499999998
 21
443.6873589999998
 31
0.000000000000000
  0
LINE
  5
25B
100
AcDbEntity
  8
1
  6
CONTINUOUS
 62
7
100
AcDbLine
 10
61.75937000000000
 20
445.2425550000000
 30
0.000000000000000
 11
61.75937000000000
 21
444.4657460000000
 31
0.000000000000000
  0
ARC
  5
25C
100
AcDbEntity
  8
1
  6
CONTINUOUS
 62
7
100
AcDbCircle
 10
60.32574700000000
 20
441.7437580000000
 30
0.000000000000000
 40
0.3889570000000000
100
AcDbArc
 50
206.0144000000000
 51
270.0000000000000
  0
ARC
  5
25D
100
AcDbEntity
  8
1
  6
CONTINUOUS
 62
7
100
AcDbCircle
 10
68.29277399999999
 20
445.6309590000000
 30
0.000000000000000
 40
9.254918999999999
100
AcDbArc
 50
202.9440000000000
 51
206.0144000000000
  0
ARC
  5
25E
100
AcDbEntity
  8
1
  6
CONTINUOUS
 62
7
100
AcDbCircle
 10
59.84103100000001
 20
442.0547969999998
 30
0.000000000000000
 40
0.07779100000000000
100
AcDbArc
 50
90.00000000000000
 51
202.9440000000000
  0
ARC
  5
25F
100
AcDbEntity
  8
1
  6
CONTINUOUS
 62
7
100
AcDbCircle
 10
63.19457199999999
 20
441.7437580000000
 30
0.000000000000000
 40
0.3889570000000000
100
AcDbArc
 50
270.0000000000000
 51
333.9859999999998
  0
ARC
  5
260
100
AcDbEntity
  8
1
  6
CONTINUOUS
 62
7
100
AcDbCircle
 10
59.34210499999998
 20
443.6099930000000
 30
0.000000000000000
 40
0.07779100000000000
100
AcDbArc
 50
90.00000000000000
 51
192.7289000000000
  0
ARC
  5
261
100
AcDbEntity
  8
1
  6
CONTINUOUS
 62
7
100
AcDbCircle
 10
68.29277399999999
 20
445.6309590000000
 30
0.000000000000000
 40
9.254918999999999
100
AcDbArc
 50
192.7289000000000
 51
193.2680999999999
  0
ARC
  5
262
100
AcDbEntity
  8
1
  6
CONTINUOUS
 62
7
100
AcDbCircle
 10
68.29277399999999
 20
445.6309590000000
 30
0.000000000000000
 40
9.254918999999999
100
AcDbArc
 50
193.2680999999999
 51
195.2574999999999
  0
ARC
  5
263
100
AcDbEntity
  8
1
  6
CONTINUOUS
 62
7
100
AcDbCircle
 10
59.73998299999998
 20
443.2989540000000
 30
0.000000000000000
 40
0.3889570000000000
100
AcDbArc
 50
195.2574999999999
 51
270.0000000000000
  0
LINE
  5
264
100
AcDbEntity
  8
1
  6
CONTINUOUS
 62
7
100
AcDbLine
 10
59.73998299999998
 20
442.9089710000000
 30
0.000000000000000
 11
63.78033600000000
 21
442.9089710000000
 31
0.000000000000000
  0
ARC
  5
265
100
AcDbEntity
  8
1
  6
CONTINUOUS
 62
7
100
AcDbCircle
 10
63.67770900000000
 20
442.0547969999998
 30
0.000000000000000
 40
0.07779100000000000
100
AcDbArc
 50
337.0559999999999
 51
450.0000000000000
  0
ARC
  5
266
100
AcDbEntity
  8
1
  6
CONTINUOUS
 62
7
100
AcDbCircle
 10
55.22754400000000
 20
445.6309590000000
 30
0.000000000000000
 40
9.254918999999999
100
AcDbArc
 50
333.9859999999998
 51
337.0559999999999
  0
LINE
  5
267
100
AcDbEntity
  8
1
  6
CONTINUOUS
 62
7
100
AcDbLine
 10
60.82625199999998
 20
447.5761389999998
 30
0.000000000000000
 11
59.56472699999999
 21
447.5761389999998
 31
0.000000000000000
  0
LINE
  5
268
100
AcDbEntity
  8
1
  6
CONTINUOUS
 62
7
100
AcDbLine
 10
61.75937000000000
 20
447.5761389999998
 30
0.000000000000000
 11
61.75937000000000
 21
447.1877349999998
 31
0.000000000000000
  0
LINE
  5
269
100
AcDbEntity
  8
1
  6
CONTINUOUS
 62
7
100
AcDbLine
 10
59.56946400000000
 20
449.1313359999998
 30
0.000000000000000
 11
61.37096500000001
 21
449.1313359999998
 31
0.000000000000000
  0
LINE
  5
26A
100
AcDbEntity
  8
1
  6
CONTINUOUS
 62
7
100
AcDbLine
 10
61.37096500000001
 20
449.9097240000000
 30
0.000000000000000
 11
59.70998400000000
 21
449.9097240000000
 31
0.000000000000000
  0
LINE
  5
26B
100
AcDbEntity
  8
1
  6
CONTINUOUS
 62
7
100
AcDbLine
 10
61.75937000000000
 20
449.5197400000000
 30
0.000000000000000
 11
63.62560600000001
 21
449.5197400000000
 31
0.000000000000000
  0
LINE
  5
26C
100
AcDbEntity
  8
1
  6
CONTINUOUS
 62
7
100
AcDbLine
 10
63.21509700000001
 20
450.3044440000000
 30
0.000000000000000
 11
59.93734300000000
 21
451.1838799999998
 31
0.000000000000000
  0
LINE
  5
26D
100
AcDbEntity
  8
1
  6
CONTINUOUS
 62
7
100
AcDbLine
 10
61.75937000000000
 20
452.3017259999998
 30
0.000000000000000
 11
61.75937000000000
 21
450.6944269999998
 31
0.000000000000000
  0
ARC
  5
26E
100
AcDbEntity
  8
1
  6
CONTINUOUS
 62
7
100
AcDbCircle
 10
61.37096500000001
 20
449.5197400000000
 30
0.000000000000000
 40
0.3889570000000000
100
AcDbArc
 50
270.0000000000000
 51
450.0000000000000
  0
ARC
  5
26F
100
AcDbEntity
  8
1
  6
CONTINUOUS
 62
7
100
AcDbCircle
 10
61.75937000000000
 20
450.2981280000000
 30
0.000000000000000
 40
2.004309000000000
100
AcDbArc
 50
62.25000000000000
 51
144.4620000000000
  0
ARC
  5
270
100
AcDbEntity
  8
1
  6
CONTINUOUS
 62
7
100
AcDbCircle
 10
61.75937000000000
 20
450.2981280000000
 30
0.000000000000000
 40
2.004309000000000
100
AcDbArc
 50
35.53799999999999
 51
45.69899999999998
  0
ARC
  5
271
100
AcDbEntity
  8
1
  6
CONTINUOUS
 62
7
100
AcDbCircle
 10
59.56472699999999
 20
447.1877349999998
 30
0.000000000000000
 40
0.3889570000000000
100
AcDbArc
 50
90.00000000000000
 51
169.8960000000000
  0
ARC
  5
272
100
AcDbEntity
  8
1
  6
CONTINUOUS
 62
7
100
AcDbCircle
 10
68.29277399999999
 20
445.6309590000000
 30
0.000000000000000
 40
9.254918999999999
100
AcDbArc
 50
169.8960000000000
 51
172.2069999999999
  0
ARC
  5
273
100
AcDbEntity
  8
1
  6
CONTINUOUS
 62
7
100
AcDbCircle
 10
59.20000600000001
 20
446.8766959999999
 30
0.000000000000000
 40
0.07779100000000000
100
AcDbArc
 50
172.2069999999999
 51
270.0000000000000
  0
ARC
  5
274
100
AcDbEntity
  8
1
  6
CONTINUOUS
 62
7
100
AcDbCircle
 10
56.83052599999999
 20
455.6309589999998
 30
0.000000000000000
 40
1.000000000000000
100
AcDbArc
 50
90.00000000000000
 51
146.3099319999998
  0
ARC
  5
275
100
AcDbEntity
  8
1
  6
CONTINUOUS
 62
7
100
AcDbCircle
 10
56.83052599999999
 20
455.6309589999998
 30
0.000000000000000
 40
2.000000000000000
100
AcDbArc
 50
90.00000000000000
 51
146.3099319999998
  0
ARC
  5
276
100
AcDbEntity
  8
1
  6
CONTINUOUS
 62
7
100
AcDbCircle
 10
52.76015899999999
 20
449.5254080000000
 30
0.000000000000000
 40
1.000000000000000
100
AcDbArc
 50
146.3099319999998
 51
180.0000000000000
  0
LINE
  5
277
100
AcDbEntity
  8
1
  6
CONTINUOUS
 62
7
100
AcDbLine
 10
51.76015900000000
 20
441.7365099999998
 30
0.000000000000000
 11
51.76015900000000
 21
449.5254080000000
 31
0.000000000000000
  0
ARC
  5
278
100
AcDbEntity
  8
1
  6
CONTINUOUS
 62
7
100
AcDbCircle
 10
52.76015899999999
 20
441.7365099999998
 30
0.000000000000000
 40
1.000000000000000
100
AcDbArc
 50
180.0000000000000
 51
213.6900680000000
  0
ARC
  5
279
100
AcDbEntity
  8
1
  6
CONTINUOUS
 62
7
100
AcDbCircle
 10
53.26015899999998
 20
449.1309589999998
 30
0.000000000000000
 40
0.5000000000000000
100
AcDbArc
 50
90.00000000000000
 51
180.0000000000000
  0
ARC
  5
27A
100
AcDbEntity
  8
1
  6
CONTINUOUS
 62
7
100
AcDbCircle
 10
52.76015899999999
 20
441.7365099999998
 30
0.000000000000000
 40
2.000000000000000
100
AcDbArc
 50
180.0000000000000
 51
213.6900680000000
  0
ARC
  5
27B
100
AcDbEntity
  8
1
  6
CONTINUOUS
 62
7
100
AcDbCircle
 10
52.76015899999999
 20
449.5254080000000
 30
0.000000000000000
 40
2.000000000000000
100
AcDbArc
 50
146.3099319999998
 51
180.0000000000000
  0
ARC
  5
27C
100
AcDbEntity
  8
1
  6
CONTINUOUS
 62
7
100
AcDbCircle
 10
56.26015899999998
 20
449.1309589999998
 30
0.000000000000000
 40
0.5000000000000000
100
AcDbArc
 50
0.000000000000000
 51
90.00000000000000
  0
ARC
  5
27D
100
AcDbEntity
  8
1
  6
CONTINUOUS
 62
7
100
AcDbCircle
 10
56.26015899999998
 20
442.1309589999999
 30
0.000000000000000
 40
0.5000000000000000
100
AcDbArc
 50
270.0000000000000
 51
360.0000000000000
  0
ARC
  5
27E
100
AcDbEntity
  8
1
  6
CONTINUOUS
 62
7
100
AcDbCircle
 10
53.26015899999998
 20
442.1309589999999
 30
0.000000000000000
 40
0.5000000000000000
100
AcDbArc
 50
180.0000000000000
 51
270.0000000000000
  0
LINE
  5
27F
100
AcDbEntity
  8
1
  6
CONTINUOUS
 62
7
100
AcDbLine
 10
53.26015899999998
 20
449.6309590000000
 30
0.000000000000000
 11
56.26015899999998
 21
449.6309590000000
 31
0.000000000000000
  0
LINE
  5
280
100
AcDbEntity
  8
1
  6
CONTINUOUS
 62
7
100
AcDbLine
 10
53.26015899999998
 20
441.6309590000000
 30
0.000000000000000
 11
56.26015899999998
 21
441.6309590000000
 31
0.000000000000000
  0
LINE
  5
281
100
AcDbEntity
  8
1
  6
CONTINUOUS
 62
7
100
AcDbLine
 10
56.76015899999999
 20
449.1309589999998
 30
0.000000000000000
 11
56.76015899999999
 21
442.1309589999999
 31
0.000000000000000
  0
LINE
  5
282
100
AcDbEntity
  8
1
  6
CONTINUOUS
 62
7
100
AcDbLine
 10
52.76015899999999
 20
449.1309589999998
 30
0.000000000000000
 11
52.76015899999999
 21
442.1309589999999
 31
0.000000000000000
  0
LINE
  5
283
100
AcDbEntity
  8
1
  6
CONTINUOUS
 62
7
100
AcDbLine
 10
55.99847600000001
 20
456.1856589999999
 30
0.000000000000000
 11
51.92810900000001
 21
450.0801080000001
 31
0.000000000000000
  0
LINE
  5
284
100
AcDbEntity
  8
1
  6
CONTINUOUS
 62
7
100
AcDbLine
 10
51.09605800000003
 20
450.6348080000001
 30
0.000000000000000
 11
55.16642600000000
 21
456.7403590000000
 31
0.000000000000000
  0
LINE
  5
285
100
AcDbEntity
  8
1
  6
CONTINUOUS
 62
7
100
AcDbLine
 10
56.83052599999999
 20
456.6309589999998
 30
0.000000000000000
 11
61.09349200000000
 21
456.6309589999998
 31
0.000000000000000
  0
LINE
  5
286
100
AcDbEntity
  8
1
  6
CONTINUOUS
 62
7
100
AcDbLine
 10
56.83052599999999
 20
457.6309590000000
 30
0.000000000000000
 11
61.09349200000000
 21
457.6309590000000
 31
0.000000000000000
  0
LINE
  5
287
100
AcDbEntity
  8
1
  6
CONTINUOUS
 62
7
100
AcDbLine
 10
50.76015900000000
 20
449.5256830000000
 30
0.000000000000000
 11
50.76015900000000
 21
441.7362349999998
 31
0.000000000000000
  0
LINE
  5
288
100
AcDbEntity
  8
1
  6
CONTINUOUS
 62
7
100
AcDbLine
 10
95.26015899999993
 20
442.5309589999999
 30
0.000000000000000
 11
98.60225299999996
 21
445.6663059999997
 31
0.000000000000000
  0
LINE
  5
289
100
AcDbEntity
  8
1
  6
CONTINUOUS
 62
7
100
AcDbLine
 10
75.26015900000000
 20
445.1309590000000
 30
0.000000000000000
 11
98.03160500000001
 21
445.1309590000000
 31
0.000000000000000
  0
LINE
  5
28A
100
AcDbEntity
  8
1
  6
CONTINUOUS
 62
7
100
AcDbLine
 10
75.26015900000000
 20
446.3309590000000
 30
0.000000000000000
 11
98.66742900000000
 21
446.3309590000000
 31
0.000000000000000
  0
LINE
  5
28B
100
AcDbEntity
  8
1
  6
CONTINUOUS
 62
7
100
AcDbLine
 10
78.76015900000000
 20
448.7309589999998
 30
0.000000000000000
 11
96.26015900000000
 21
448.7309589999998
 31
0.000000000000000
  0
LINE
  5
28C
100
AcDbEntity
  8
1
  6
CONTINUOUS
 62
7
100
AcDbLine
 10
78.76015900000000
 20
442.5309590000000
 30
0.000000000000000
 11
95.26015900000000
 21
442.5309590000000
 31
0.000000000000000
  0
ARC
  5
28D
100
AcDbEntity
  8
1
  6
CONTINUOUS
 62
7
100
AcDbCircle
 10
78.46015899999998
 20
441.4309590000000
 30
0.000000000000000
 40
0.3000000000000000
100
AcDbArc
 50
270.0000000000000
 51
360.0000000000000
  0
ARC
  5
28E
100
AcDbEntity
  8
1
  6
CONTINUOUS
 62
7
100
AcDbCircle
 10
78.46015899999998
 20
449.8309589999998
 30
0.000000000000000
 40
0.3000000000000000
100
AcDbArc
 50
0.000000000000000
 51
90.00000000000000
  0
LINE
  5
28F
100
AcDbEntity
  8
1
  6
CONTINUOUS
 62
7
100
AcDbLine
 10
78.76015900000000
 20
442.5309590000000
 30
0.000000000000000
 11
78.76015900000000
 21
441.4309590000000
 31
0.000000000000000
  0
LINE
  5
290
100
AcDbEntity
  8
1
  6
CONTINUOUS
 62
7
100
AcDbLine
 10
78.76015900000000
 20
449.8309589999998
 30
0.000000000000000
 11
78.76015900000000
 21
448.7309589999998
 31
0.000000000000000
  0
LINE
  5
291
100
AcDbEntity
  8
1
  6
CONTINUOUS
 62
7
100
AcDbLine
 10
75.26015900000000
 20
446.3309590000000
 30
0.000000000000000
 11
75.26015900000000
 21
445.1309590000000
 31
0.000000000000000
  0
LINE
  5
292
100
AcDbEntity
  8
1
  6
CONTINUOUS
 62
7
100
AcDbLine
 10
71.76015900000000
 20
442.3809589999998
 30
0.000000000000000
 11
71.76015900000000
 21
448.8809589999998
 31
0.000000000000000
  0
ARC
  5
293
100
AcDbEntity
  8
1
  6
CONTINUOUS
 62
7
100
AcDbCircle
 10
55.22754400000000
 20
445.6309590000000
 30
0.000000000000000
 40
9.254918999999999
100
AcDbArc
 50
344.7419999999998
 51
344.7940000000000
  0
ARC
  5
294
100
AcDbEntity
  8
1
  6
CONTINUOUS
 62
7
100
AcDbCircle
 10
55.22754400000000
 20
445.6309590000000
 30
0.000000000000000
 40
9.254918999999999
100
AcDbArc
 50
344.7940000000000
 51
347.2709999999998
  0
ARC
  5
295
100
AcDbEntity
  8
1
  6
CONTINUOUS
 62
7
100
AcDbCircle
 10
64.17821400000000
 20
443.6099930000000
 30
0.000000000000000
 40
0.07779100000000000
100
AcDbArc
 50
347.2709999999998
 51
450.0000000000000
  0
ARC
  5
296
100
AcDbEntity
  8
1
  6
CONTINUOUS
 62
7
100
AcDbCircle
 10
63.95559200000000
 20
447.1877349999998
 30
0.000000000000000
 40
0.3889570000000000
100
AcDbArc
 50
10.10399999999999
 51
90.00000000000000
  0
ARC
  5
297
100
AcDbEntity
  8
1
  6
CONTINUOUS
 62
7
100
AcDbCircle
 10
64.32031300000000
 20
446.8766959999999
 30
0.000000000000000
 40
0.07779100000000000
100
AcDbArc
 50
270.0000000000000
 51
367.7930000000000
  0
ARC
  5
298
100
AcDbEntity
  8
1
  6
CONTINUOUS
 62
7
100
AcDbCircle
 10
55.22754400000000
 20
445.6309590000000
 30
0.000000000000000
 40
9.254918999999999
100
AcDbArc
 50
7.792999999999998
 51
10.10399999999999
  0
LINE
  5
299
100
AcDbEntity
  8
1
  6
CONTINUOUS
 62
7
100
AcDbLine
 10
71.76015900000000
 20
450.1309589999998
 30
0.000000000000000
 11
78.46015899999998
 21
450.1309589999998
 31
0.000000000000000
  0
LINE
  5
29A
100
AcDbEntity
  8
1
  6
CONTINUOUS
 62
7
100
AcDbLine
 10
71.76015900000000
 20
441.1309590000000
 30
0.000000000000000
 11
78.46015899999998
 21
441.1309590000000
 31
0.000000000000000
  0
LINE
  5
29B
100
AcDbEntity
  8
1
  6
CONTINUOUS
 62
7
100
AcDbLine
 10
96.26015900000002
 20
448.7309589999998
 30
0.000000000000000
 11
98.61317699999998
 21
446.3850469999998
 31
0.000000000000000
  0
ARC
  5
29C
100
AcDbEntity
  8
1
  6
CONTINUOUS
 62
7
100
AcDbCircle
 10
98.26015900000002
 20
446.0309590000000
 30
0.000000000000000
 40
0.5000000000000000
100
AcDbArc
 50
313.1718549999998
 51
405.0866460000000
  0
ARC
  5
29D
100
AcDbEntity
  8
1
  6
CONTINUOUS
 62
7
100
AcDbCircle
 10
217.2483419999998
 20
445.5063179999998
 30
0.000000000000000
 40
14.45854200000000
100
AcDbArc
 50
134.9901930000000
 51
225.0098069999999
  0
LINE
  5
29E
100
AcDbEntity
  8
1
  6
CONTINUOUS
 62
7
100
AcDbLine
 10
212.6321869999999
 20
461.5063179999999
 30
0.000000000000000
 11
212.6321869999999
 21
429.5063179999998
 31
0.000000000000000
  0
LINE
  5
29F
100
AcDbEntity
  8
1
  6
CONTINUOUS
 62
7
100
AcDbLine
 10
241.0321870000000
 20
458.5063179999998
 30
0.000000000000000
 11
241.0321870000000
 21
434.3293179999998
 31
0.000000000000000
  0
LINE
  5
2A0
100
AcDbEntity
  8
1
  6
CONTINUOUS
 62
7
100
AcDbLine
 10
240.5321869999999
 20
451.8563180000000
 30
0.000000000000000
 11
240.5321869999999
 21
439.1563179999998
 31
0.000000000000000
  0
LINE
  5
2A1
100
AcDbEntity
  8
1
  6
CONTINUOUS
 62
7
100
AcDbLine
 10
211.6321869999999
 20
461.5063179999999
 30
0.000000000000000
 11
211.6321869999999
 21
429.5063179999998
 31
0.000000000000000
  0
LINE
  5
2A2
100
AcDbEntity
  8
1
  6
CONTINUOUS
 62
7
100
AcDbLine
 10
210.1321870000000
 20
461.5063179999999
 30
0.000000000000000
 11
210.1321870000000
 21
429.5063179999998
 31
0.000000000000000
  0
LINE
  5
2A3
100
AcDbEntity
  8
1
  6
CONTINUOUS
 62
7
100
AcDbLine
 10
208.6321869999999
 20
458.5063179999998
 30
0.000000000000000
 11
208.6321869999999
 21
432.5063179999999
 31
0.000000000000000
  0
LINE
  5
2A4
100
AcDbEntity
  8
2
  6
CONTINUOUS
 62
4
100
AcDbLine
 10
244.0321870000000
 20
438.5063179999999
 30
0.000000000000000
 11
241.0321870000000
 21
442.7063179999998
 31
0.000000000000000
  0
LINE
  5
2A5
100
AcDbEntity
  8
1
  6
CONTINUOUS
 62
7
100
AcDbLine
 10
244.0321870000000
 20
438.5063179999998
 30
0.000000000000000
 11
244.0321870000000
 21
452.5063180000000
 31
0.000000000000000
  0
LINE
  5
2A6
100
AcDbEntity
  8
1
  6
CONTINUOUS
 62
7
100
AcDbLine
 10
212.6321869999999
 20
432.8063180000000
 30
0.000000000000000
 11
237.6321869999999
 21
432.8063180000000
 31
0.000000000000000
  0
LINE
  5
2A7
100
AcDbEntity
  8
1
  6
CONTINUOUS
 62
7
100
AcDbLine
 10
213.6321869999999
 20
439.1563179999998
 30
0.000000000000000
 11
240.5321869999999
 21
439.1563179999998
 31
0.000000000000000
  0
ARC
  5
2A8
100
AcDbEntity
  8
1
  6
CONTINUOUS
 62
7
100
AcDbCircle
 10
207.7145980000000
 20
436.0063180000000
 30
0.000000000000000
 40
1.000000000000000
100
AcDbArc
 50
226.5090580000000
 51
270.0000000000000
  0
LINE
  5
2A9
100
AcDbEntity
  8
1
  6
CONTINUOUS
 62
7
100
AcDbLine
 10
207.7145980000000
 20
435.0063179999998
 30
0.000000000000000
 11
208.6321869999999
 21
435.0063179999998
 31
0.000000000000000
  0
LINE
  5
2AA
100
AcDbEntity
  8
1
  6
CONTINUOUS
 62
7
100
AcDbLine
 10
213.6321869999999
 20
439.1563179999998
 30
0.000000000000000
 11
213.6321869999999
 21
432.8063180000000
 31
0.000000000000000
  0
LINE
  5
2AB
100
AcDbEntity
  8
1
  6
CONTINUOUS
 62
7
100
AcDbLine
 10
208.6321870000000
 20
432.5063180000000
 30
0.000000000000000
 11
210.1321870000001
 21
429.5063179999999
 31
0.000000000000000
  0
LINE
  5
2AC
100
AcDbEntity
  8
1
  6
CONTINUOUS
 62
7
100
AcDbLine
 10
210.1321870000000
 20
429.5063179999998
 30
0.000000000000000
 11
212.6321869999999
 21
429.5063179999998
 31
0.000000000000000
  0
LINE
  5
2AD
100
AcDbEntity
  8
1
  6
CONTINUOUS
 62
7
100
AcDbLine
 10
239.0321870000000
 20
434.3293179999998
 30
0.000000000000000
 11
241.0321870000000
 21
434.3293179999998
 31
0.000000000000000
  0
LINE
  5
2AE
100
AcDbEntity
  8
1
  6
CONTINUOUS
 62
7
100
AcDbLine
 10
239.0321870000000
 20
435.5873179999998
 30
0.000000000000000
 11
241.0321870000000
 21
435.5873179999998
 31
0.000000000000000
  0
ARC
  5
2AF
100
AcDbEntity
  8
1
  6
CONTINUOUS
 62
7
100
AcDbCircle
 10
237.6321869999999
 20
433.8063179999998
 30
0.000000000000000
 40
1.000000000000000
100
AcDbArc
 50
270.0000000000000
 51
360.0000000000000
  0
LINE
  5
2B0
100
AcDbEntity
  8
1
  6
CONTINUOUS
 62
7
100
AcDbLine
 10
239.0321870000000
 20
438.5063179999998
 30
0.000000000000000
 11
238.6321869999999
 21
438.5063179999998
 31
0.000000000000000
  0
LINE
  5
2B1
100
AcDbEntity
  8
1
  6
CONTINUOUS
 62
7
100
AcDbLine
 10
239.0321870000000
 20
439.1563179999998
 30
0.000000000000000
 11
239.0321870000000
 21
434.3293179999998
 31
0.000000000000000
  0
LINE
  5
2B2
100
AcDbEntity
  8
1
  6
CONTINUOUS
 62
7
100
AcDbLine
 10
238.6321869999999
 20
439.1563179999998
 30
0.000000000000000
 11
238.6321869999999
 21
433.8063179999998
 31
0.000000000000000
  0
LINE
  5
2B3
100
AcDbEntity
  8
1
  6
CONTINUOUS
 62
7
100
AcDbLine
 10
241.0321870000000
 20
438.5063179999998
 30
0.000000000000000
 11
244.0321870000000
 21
438.5063179999998
 31
0.000000000000000
  0
LINE
  5
2B4
100
AcDbEntity
  8
1
  6
CONTINUOUS
 62
7
100
AcDbLine
 10
212.6321869999999
 20
458.2063179999998
 30
0.000000000000000
 11
237.6321869999999
 21
458.2063179999998
 31
0.000000000000000
  0
LINE
  5
2B5
100
AcDbEntity
  8
1
  6
CONTINUOUS
 62
7
100
AcDbLine
 10
213.6321869999999
 20
451.8563180000000
 30
0.000000000000000
 11
240.5321869999999
 21
451.8563180000000
 31
0.000000000000000
  0
LINE
  5
2B6
100
AcDbEntity
  8
4
  6
CENTER
 62
1
100
AcDbLine
 10
199.2341869999999
 20
445.5063179999998
 30
0.000000000000000
 11
247.2151869999999
 21
445.5063179999998
 31
0.000000000000000
  0
ARC
  5
2B7
100
AcDbEntity
  8
1
  6
CONTINUOUS
 62
7
100
AcDbCircle
 10
207.7145980000000
 20
455.0063179999998
 30
0.000000000000000
 40
1.000000000000000
100
AcDbArc
 50
90.00000000000000
 51
133.4909420000000
  0
LINE
  5
2B8
100
AcDbEntity
  8
1
  6
CONTINUOUS
 62
7
100
AcDbLine
 10
207.7145980000000
 20
456.0063179999998
 30
0.000000000000000
 11
208.6321869999999
 21
456.0063179999998
 31
0.000000000000000
  0
LINE
  5
2B9
100
AcDbEntity
  8
1
  6
CONTINUOUS
 62
7
100
AcDbLine
 10
213.6321869999999
 20
458.2063179999998
 30
0.000000000000000
 11
213.6321869999999
 21
451.8563180000000
 31
0.000000000000000
  0
LINE
  5
2BA
100
AcDbEntity
  8
1
  6
CONTINUOUS
 62
7
100
AcDbLine
 10
210.1321870000000
 20
461.5063179999999
 30
0.000000000000000
 11
208.6321869999999
 21
458.5063179999999
 31
0.000000000000000
  0
LINE
  5
2BB
100
AcDbEntity
  8
1
  6
CONTINUOUS
 62
7
100
AcDbLine
 10
210.1321870000000
 20
461.5063179999999
 30
0.000000000000000
 11
212.6321869999999
 21
461.5063179999999
 31
0.000000000000000
  0
LINE
  5
2BC
100
AcDbEntity
  8
1
  6
CONTINUOUS
 62
7
100
AcDbLine
 10
239.0321870000000
 20
452.0863179999998
 30
0.000000000000000
 11
241.0321870000000
 21
452.0863179999998
 31
0.000000000000000
  0
LINE
  5
2BD
100
AcDbEntity
  8
1
  6
CONTINUOUS
 62
7
100
AcDbLine
 10
239.0321870000000
 20
458.5063179999998
 30
0.000000000000000
 11
241.0321870000000
 21
458.5063179999998
 31
0.000000000000000
  0
ARC
  5
2BE
100
AcDbEntity
  8
1
  6
CONTINUOUS
 62
7
100
AcDbCircle
 10
237.6321869999999
 20
457.2063179999998
 30
0.000000000000000
 40
1.000000000000000
100
AcDbArc
 50
0.000000000000000
 51
90.00000000000000
  0
LINE
  5
2BF
100
AcDbEntity
  8
1
  6
CONTINUOUS
 62
7
100
AcDbLine
 10
239.0321870000000
 20
452.5063180000000
 30
0.000000000000000
 11
238.6321869999999
 21
452.5063180000000
 31
0.000000000000000
  0
LINE
  5
2C0
100
AcDbEntity
  8
1
  6
CONTINUOUS
 62
7
100
AcDbLine
 10
238.6321869999999
 20
451.8563180000000
 30
0.000000000000000
 11
238.6321869999999
 21
457.2063179999998
 31
0.000000000000000
  0
LINE
  5
2C1
100
AcDbEntity
  8
1
  6
CONTINUOUS
 62
7
100
AcDbLine
 10
239.0321870000000
 20
458.5063179999998
 30
0.000000000000000
 11
239.0321870000000
 21
451.8563180000000
 31
0.000000000000000
  0
LINE
  5
2C2
100
AcDbEntity
  8
2
  6
CONTINUOUS
 62
4
100
AcDbLine
 10
244.0321870000000
 20
452.5063180000001
 30
0.000000000000000
 11
241.0321870000001
 21
448.3063180000000
 31
0.000000000000000
  0
LINE
  5
2C3
100
AcDbEntity
  8
2
  6
CONTINUOUS
 62
4
100
AcDbLine
 10
244.0331870000000
 20
445.5063179999997
 30
0.000000000000000
 11
241.0321870000000
 21
449.7063179999997
 31
0.000000000000000
  0
LINE
  5
2C4
100
AcDbEntity
  8
2
  6
CONTINUOUS
 62
4
100
AcDbLine
 10
244.0321870000001
 20
445.5063179999999
 30
0.000000000000000
 11
241.0321870000000
 21
441.3063179999999
 31
0.000000000000000
  0
LINE
  5
2C5
100
AcDbEntity
  8
1
  6
CONTINUOUS
 62
7
100
AcDbLine
 10
241.0321870000000
 20
445.5063179999998
 30
0.000000000000000
 11
244.0321870000000
 21
445.5063179999998
 31
0.000000000000000
  0
LINE
  5
2C6
100
AcDbEntity
  8
1
  6
CONTINUOUS
 62
7
100
AcDbLine
 10
241.0321870000000
 20
452.5063180000000
 30
0.000000000000000
 11
244.0321870000000
 21
452.5063180000000
 31
0.000000000000000
  0
LINE
  5
2C7
100
AcDbEntity
  8
1
  6
CONTINUOUS
 62
7
100
AcDbLine
 10
271.2747460000000
 20
453.5058180000000
 30
0.000000000000000
 11
271.2747460000000
 21
437.5058179999999
 31
0.000000000000000
  0
LINE
  5
2C8
100
AcDbEntity
  8
1
  6
CONTINUOUS
 62
7
100
AcDbLine
 10
267.6747459999999
 20
434.5058179999998
 30
0.000000000000000
 11
267.6747459999999
 21
456.5058180000000
 31
0.000000000000000
  0
LINE
  5
2C9
100
AcDbEntity
  8
1
  6
CONTINUOUS
 62
7
100
AcDbLine
 10
269.6747459999999
 20
434.5058179999998
 30
0.000000000000000
 11
269.6747459999999
 21
456.5058180000000
 31
0.000000000000000
  0
LINE
  5
2CA
100
AcDbEntity
  8
1
  6
CONTINUOUS
 62
7
100
AcDbLine
 10
272.7747459999998
 20
451.6058179999998
 30
0.000000000000000
 11
272.7747459999998
 21
439.4058180000000
 31
0.000000000000000
  0
LINE
  5
2CB
100
AcDbEntity
  8
1
  6
CONTINUOUS
 62
7
100
AcDbLine
 10
321.7789240000000
 20
458.5063179999998
 30
0.000000000000000
 11
321.7789240000000
 21
432.5063179999999
 31
0.000000000000000
  0
LINE
  5
2CC
100
AcDbEntity
  8
1
  6
CONTINUOUS
 62
7
100
AcDbLine
 10
324.2789240000000
 20
458.5063179999998
 30
0.000000000000000
 11
324.2789240000000
 21
432.5063179999999
 31
0.000000000000000
  0
LINE
  5
2CD
100
AcDbEntity
  8
1
  6
CONTINUOUS
 62
7
100
AcDbLine
 10
321.7789240000000
 20
430.0063179999998
 30
0.000000000000000
 11
314.5789239999999
 21
430.0063179999998
 31
0.000000000000000
  0
LINE
  5
2CE
100
AcDbEntity
  8
1
  6
CONTINUOUS
 62
7
100
AcDbLine
 10
321.7789240000000
 20
432.5063179999999
 30
0.000000000000000
 11
314.5789239999999
 21
432.5063179999999
 31
0.000000000000000
  0
LINE
  5
2CF
100
AcDbEntity
  8
1
  6
CONTINUOUS
 62
7
100
AcDbLine
 10
269.6747459999999
 20
437.5058179999999
 30
0.000000000000000
 11
271.2747460000000
 21
437.5058179999999
 31
0.000000000000000
  0
LINE
  5
2D0
100
AcDbEntity
  8
1
  6
CONTINUOUS
 62
7
100
AcDbLine
 10
267.6747459999999
 20
434.5058179999998
 30
0.000000000000000
 11
269.6747459999999
 21
434.5058179999998
 31
0.000000000000000
  0
LINE
  5
2D1
100
AcDbEntity
  8
1
  6
CONTINUOUS
 62
7
100
AcDbLine
 10
272.7747459999998
 20
439.4058180000000
 30
0.000000000000000
 11
271.2747460000000
 21
439.4058180000000
 31
0.000000000000000
  0
ARC
  5
2D2
100
AcDbEntity
  8
1
  6
CONTINUOUS
 62
7
100
AcDbCircle
 10
314.5789239999999
 20
430.0063179999998
 30
0.000000000000000
 40
2.500000000000000
100
AcDbArc
 50
90.00000000000000
 51
180.0000000000000
  0
LINE
  5
2D3
100
AcDbEntity
  8
1
  6
CONTINUOUS
 62
7
100
AcDbLine
 10
312.0789239999999
 20
430.0063179999998
 30
0.000000000000000
 11
312.0789239999999
 21
426.0063179999998
 31
0.000000000000000
  0
LINE
  5
2D4
100
AcDbEntity
  8
1
  6
CONTINUOUS
 62
7
100
AcDbLine
 10
314.5789239999999
 20
430.0063179999998
 30
0.000000000000000
 11
314.5789239999999
 21
426.0063179999998
 31
0.000000000000000
  0
LINE
  5
2D5
100
AcDbEntity
  8
1
  6
CONTINUOUS
 62
7
100
AcDbLine
 10
314.5789239999999
 20
426.0063179999998
 30
0.000000000000000
 11
312.0789239999999
 21
426.0063179999998
 31
0.000000000000000
  0
ARC
  5
2D6
100
AcDbEntity
  8
1
  6
CONTINUOUS
 62
7
100
AcDbCircle
 10
321.7789240000000
 20
432.5063179999999
 30
0.000000000000000
 40
2.500000000000000
100
AcDbArc
 50
270.0000000000000
 51
360.0000050000000
  0
LINE
  5
2D7
100
AcDbEntity
  8
1
  6
CONTINUOUS
 62
7
100
AcDbLine
 10
321.7789240000000
 20
461.0063180000000
 30
0.000000000000000
 11
314.5789239999999
 21
461.0063180000000
 31
0.000000000000000
  0
LINE
  5
2D8
100
AcDbEntity
  8
1
  6
CONTINUOUS
 62
7
100
AcDbLine
 10
321.7789240000000
 20
458.5063179999998
 30
0.000000000000000
 11
314.5789239999999
 21
458.5063179999998
 31
0.000000000000000
  0
LINE
  5
2D9
100
AcDbEntity
  8
4
  6
CENTER
 62
1
100
AcDbLine
 10
332.0899240000000
 20
445.5063179999998
 30
0.000000000000000
 11
315.7239240000000
 21
445.5063179999998
 31
0.000000000000000
  0
LINE
  5
2DA
100
AcDbEntity
  8
1
  6
CONTINUOUS
 62
7
100
AcDbLine
 10
269.6747459999999
 20
453.5058180000000
 30
0.000000000000000
 11
271.2747460000000
 21
453.5058180000000
 31
0.000000000000000
  0
LINE
  5
2DB
100
AcDbEntity
  8
4
  6
CENTER
 62
1
100
AcDbLine
 10
280.2689740000000
 20
445.5063179999998
 30
0.000000000000000
 11
262.6747459999999
 21
445.5063179999998
 31
0.000000000000000
  0
LINE
  5
2DC
100
AcDbEntity
  8
1
  6
CONTINUOUS
 62
7
100
AcDbLine
 10
267.6747459999999
 20
456.5058180000000
 30
0.000000000000000
 11
269.6747459999999
 21
456.5058180000000
 31
0.000000000000000
  0
ARC
  5
2DD
100
AcDbEntity
  8
1
  6
CONTINUOUS
 62
7
100
AcDbCircle
 10
269.5494549999998
 20
443.0063179999998
 30
0.000000000000000
 40
7.225291999999997
100
AcDbArc
 50
339.7567340000000
 51
380.2432660000000
  0
LINE
  5
2DE
100
AcDbEntity
  8
1
  6
CONTINUOUS
 62
7
100
AcDbLine
 10
276.7747459999998
 20
450.5063179999998
 30
0.000000000000000
 11
276.7747459999998
 21
440.5063179999998
 31
0.000000000000000
  0
ARC
  5
2DF
100
AcDbEntity
  8
1
  6
CONTINUOUS
 62
7
100
AcDbCircle
 10
269.5494549999998
 20
448.0063180000000
 30
0.000000000000000
 40
7.225291999999997
100
AcDbArc
 50
339.7567340000000
 51
380.2432660000000
  0
ARC
  5
2E0
100
AcDbEntity
  8
1
  6
CONTINUOUS
 62
7
100
AcDbCircle
 10
280.0000379999999
 20
443.0063179999998
 30
0.000000000000000
 40
7.225291999999997
100
AcDbArc
 50
159.7567339999999
 51
200.2432660000000
  0
ARC
  5
2E1
100
AcDbEntity
  8
1
  6
CONTINUOUS
 62
7
100
AcDbCircle
 10
280.0000379999999
 20
448.0063180000000
 30
0.000000000000000
 40
7.225291999999997
100
AcDbArc
 50
159.7567339999999
 51
200.2432660000000
  0
LINE
  5
2E2
100
AcDbEntity
  8
1
  6
CONTINUOUS
 62
7
100
AcDbLine
 10
276.7747459999998
 20
440.5063179999998
 30
0.000000000000000
 11
272.7747459999998
 21
440.5063179999998
 31
0.000000000000000
  0
LINE
  5
2E3
100
AcDbEntity
  8
1
  6
CONTINUOUS
 62
7
100
AcDbLine
 10
276.7747459999998
 20
450.5063179999998
 30
0.000000000000000
 11
272.7747459999998
 21
450.5063179999998
 31
0.000000000000000
  0
LINE
  5
2E4
100
AcDbEntity
  8
1
  6
CONTINUOUS
 62
7
100
AcDbLine
 10
273.2210379999999
 20
445.5063179999998
 30
0.000000000000000
 11
276.3284549999998
 21
445.5063179999998
 31
0.000000000000000
  0
LINE
  5
2E5
100
AcDbEntity
  8
1
  6
CONTINUOUS
 62
7
100
AcDbLine
 10
272.7747459999999
 20
445.5058180000000
 30
0.000000000000000
 11
271.2747460000001
 21
444.0058180000000
 31
0.000000000000000
  0
LINE
  5
2E6
100
AcDbEntity
  8
1
  6
CONTINUOUS
 62
7
100
AcDbLine
 10
272.7747459999998
 20
447.0058179999997
 30
0.000000000000000
 11
271.2747459999999
 21
445.5058179999999
 31
0.000000000000000
  0
LINE
  5
2E7
100
AcDbEntity
  8
1
  6
CONTINUOUS
 62
7
100
AcDbLine
 10
272.7747459999998
 20
451.6058179999998
 30
0.000000000000000
 11
271.2747460000000
 21
451.6058179999998
 31
0.000000000000000
  0
LINE
  5
2E8
100
AcDbEntity
  8
1
  6
CONTINUOUS
 62
7
100
AcDbLine
 10
314.5789239999999
 20
465.0063180000000
 30
0.000000000000000
 11
314.5789239999999
 21
461.0063180000000
 31
0.000000000000000
  0
LINE
  5
2E9
100
AcDbEntity
  8
1
  6
CONTINUOUS
 62
7
100
AcDbLine
 10
312.0789239999999
 20
465.0063180000000
 30
0.000000000000000
 11
312.0789239999999
 21
461.0063180000000
 31
0.000000000000000
  0
ARC
  5
2EA
100
AcDbEntity
  8
1
  6
CONTINUOUS
 62
7
100
AcDbCircle
 10
314.5789239999999
 20
461.0063180000000
 30
0.000000000000000
 40
2.500000000000000
100
AcDbArc
 50
180.0000000000000
 51
270.0000000000000
  0
LINE
  5
2EB
100
AcDbEntity
  8
1
  6
CONTINUOUS
 62
7
100
AcDbLine
 10
314.5789239999999
 20
465.0063180000000
 30
0.000000000000000
 11
312.0789239999999
 21
465.0063180000000
 31
0.000000000000000
  0
ARC
  5
2EC
100
AcDbEntity
  8
1
  6
CONTINUOUS
 62
7
100
AcDbCircle
 10
326.9169240000000
 20
448.2843179999998
 30
0.000000000000000
 40
1.600000000000000
100
AcDbArc
 50
15.49400000000000
 51
84.99990000000004
  0
LINE
  5
2ED
100
AcDbEntity
  8
1
  6
CONTINUOUS
 62
7
100
AcDbLine
 10
327.0559240000001
 20
449.8783180000000
 30
0.000000000000000
 11
325.5949240000000
 21
450.0063179999998
 31
0.000000000000000
  0
ARC
  5
2EE
100
AcDbEntity
  8
1
  6
CONTINUOUS
 62
7
100
AcDbCircle
 10
326.9169240000000
 20
442.7283179999998
 30
0.000000000000000
 40
1.600000000000000
100
AcDbArc
 50
275.0000000000000
 51
344.5059999999998
  0
LINE
  5
2EF
100
AcDbEntity
  8
1
  6
CONTINUOUS
 62
7
100
AcDbLine
 10
327.0559239999999
 20
441.1343179999998
 30
0.000000000000000
 11
325.5949240000000
 21
441.0063179999999
 31
0.000000000000000
  0
ARC
  5
2F0
100
AcDbEntity
  8
1
  6
CONTINUOUS
 62
7
100
AcDbCircle
 10
316.8949239999999
 20
445.5063179999998
 30
0.000000000000000
 40
12.00000000000000
100
AcDbArc
 50
344.5059999999998
 51
375.4940000000000
  0
LINE
  5
2F1
100
AcDbEntity
  8
1
  6
CONTINUOUS
 62
7
100
AcDbLine
 10
324.2789240000000
 20
444.1903179999996
 30
0.000000000000000
 11
325.5949240000000
 21
445.5063179999997
 31
0.000000000000000
  0
LINE
  5
2F2
100
AcDbEntity
  8
1
  6
CONTINUOUS
 62
7
100
AcDbLine
 10
324.2789240000000
 20
445.5063179999999
 30
0.000000000000000
 11
325.5949240000000
 21
446.8223179999999
 31
0.000000000000000
  0
ARC
  5
2F3
100
AcDbEntity
  8
1
  6
CONTINUOUS
 62
7
100
AcDbCircle
 10
321.7789240000000
 20
458.5063179999998
 30
0.000000000000000
 40
2.500000000000000
100
AcDbArc
 50
0.000000000000000
 51
90.00000000000000
  0
LINE
  5
2F4
100
AcDbEntity
  8
1
  6
CONTINUOUS
 62
7
100
AcDbLine
 10
324.2949239999999
 20
450.1063180000000
 30
0.000000000000000
 11
325.5949240000000
 21
450.1063180000000
 31
0.000000000000000
  0
LINE
  5
2F5
100
AcDbEntity
  8
1
  6
CONTINUOUS
 62
7
100
AcDbLine
 10
325.5949240000000
 20
450.1063180000000
 30
0.000000000000000
 11
325.5949240000000
 21
440.9063179999998
 31
0.000000000000000
  0
LINE
  5
2F6
100
AcDbEntity
  8
1
  6
CONTINUOUS
 62
7
100
AcDbLine
 10
324.2949239999999
 20
440.9063179999998
 30
0.000000000000000
 11
325.5949240000000
 21
440.9063179999998
 31
0.000000000000000
  0
LINE
  5
2F7
100
AcDbEntity
  8
4
  6
CENTER
 62
1
100
AcDbLine
 10
634.5198719999999
 20
301.1893180000000
 30
0.000000000000000
 11
653.6198719999998
 21
301.1893180000000
 31
0.000000000000000
  0
LINE
  5
2F8
100
AcDbEntity
  8
1
  6
CONTINUOUS
 62
7
100
AcDbLine
 10
604.2156949999998
 20
211.6893179999999
 30
0.000000000000000
 11
604.2156949999998
 21
286.6893180000000
 31
0.000000000000000
  0
LINE
  5
2F9
100
AcDbEntity
  8
1
  6
CONTINUOUS
 62
7
100
AcDbLine
 10
601.7156950000000
 20
211.6893179999999
 30
0.000000000000000
 11
601.7156950000000
 21
286.6893180000000
 31
0.000000000000000
  0
LINE
  5
2FA
100
AcDbEntity
  8
1
  6
CONTINUOUS
 62
7
100
AcDbLine
 10
592.0156950000001
 20
236.6893179999999
 30
0.000000000000000
 11
592.0156950000001
 21
286.6893180000000
 31
0.000000000000000
  0
LINE
  5
2FB
100
AcDbEntity
  8
1
  6
CONTINUOUS
 62
7
100
AcDbLine
 10
594.5156950000002
 20
214.1893179999999
 30
0.000000000000000
 11
594.5156950000002
 21
236.6893179999999
 31
0.000000000000000
  0
ARC
  5
2FC
100
AcDbEntity
  8
1
  6
CONTINUOUS
 62
7
100
AcDbCircle
 10
597.0156950000001
 20
214.1893179999999
 30
0.000000000000000
 40
2.500000000000000
100
AcDbArc
 50
180.0000000000000
 51
270.0000000000000
  0
LINE
  5
2FD
100
AcDbEntity
  8
1
  6
CONTINUOUS
 62
7
100
AcDbLine
 10
597.0156950000001
 20
211.6893179999999
 30
0.000000000000000
 11
604.2156949999998
 21
211.6893179999999
 31
0.000000000000000
  0
LINE
  5
2FE
100
AcDbEntity
  8
1
  6
CONTINUOUS
 62
7
100
AcDbLine
 10
590.6996949999998
 20
250.2893180000000
 30
0.000000000000000
 11
590.6996949999998
 21
241.0893179999999
 31
0.000000000000000
  0
ARC
  5
2FF
100
AcDbEntity
  8
1
  6
CONTINUOUS
 62
7
100
AcDbCircle
 10
589.3776950000000
 20
242.9113179999999
 30
0.000000000000000
 40
1.600000000000000
100
AcDbArc
 50
195.4940000000000
 51
265.0000000000000
  0
LINE
  5
300
100
AcDbEntity
  8
1
  6
CONTINUOUS
 62
7
100
AcDbLine
 10
589.2386949999999
 20
241.3173180000000
 30
0.000000000000000
 11
590.6996949999998
 21
241.1893179999998
 31
0.000000000000000
  0
LINE
  5
301
100
AcDbEntity
  8
1
  6
CONTINUOUS
 62
7
100
AcDbLine
 10
591.9996949999997
 20
241.0893179999999
 30
0.000000000000000
 11
590.6996949999998
 21
241.0893179999999
 31
0.000000000000000
  0
LINE
  5
302
100
AcDbEntity
  8
1
  6
CONTINUOUS
 62
7
100
AcDbLine
 10
592.0156950000001
 20
236.6893179999999
 30
0.000000000000000
 11
594.5156950000002
 21
236.6893179999999
 31
0.000000000000000
  0
LINE
  5
303
100
AcDbEntity
  8
4
  6
CENTER
 62
1
100
AcDbLine
 10
594.3706950000001
 20
245.6893179999999
 30
0.000000000000000
 11
584.2826950000000
 21
245.6893179999999
 31
0.000000000000000
  0
LINE
  5
304
100
AcDbEntity
  8
1
  6
CONTINUOUS
 62
7
100
AcDbLine
 10
589.2386950000000
 20
250.0613180000000
 30
0.000000000000000
 11
590.6996949999998
 21
250.1893179999999
 31
0.000000000000000
  0
ARC
  5
305
100
AcDbEntity
  8
1
  6
CONTINUOUS
 62
7
100
AcDbCircle
 10
599.3996949999998
 20
245.6893179999999
 30
0.000000000000000
 40
12.00000000000000
100
AcDbArc
 50
164.5059999999998
 51
195.4940000000000
  0
ARC
  5
306
100
AcDbEntity
  8
1
  6
CONTINUOUS
 62
7
100
AcDbCircle
 10
589.3776950000000
 20
248.4673180000000
 30
0.000000000000000
 40
1.600000000000000
100
AcDbArc
 50
95.00010000000000
 51
164.5059999999998
  0
LINE
  5
307
100
AcDbEntity
  8
1
  6
CONTINUOUS
 62
7
100
AcDbLine
 10
592.0156950000002
 20
247.0053179999999
 30
0.000000000000000
 11
590.6996950000000
 21
245.6893180000000
 31
0.000000000000000
  0
LINE
  5
308
100
AcDbEntity
  8
1
  6
CONTINUOUS
 62
7
100
AcDbLine
 10
592.0156950000001
 20
245.6893179999999
 30
0.000000000000000
 11
590.6996949999998
 21
244.3733180000000
 31
0.000000000000000
  0
LINE
  5
309
100
AcDbEntity
  8
1
  6
CONTINUOUS
 62
7
100
AcDbLine
 10
591.9996949999997
 20
250.2893180000000
 30
0.000000000000000
 11
590.6996949999998
 21
250.2893180000000
 31
0.000000000000000
  0
LINE
  5
30A
100
AcDbEntity
  8
4
  6
CENTER
 62
1
100
AcDbLine
 10
593.8806949999998
 20
277.6893180000000
 30
0.000000000000000
 11
584.6746950000000
 21
277.6893180000000
 31
0.000000000000000
  0
LINE
  5
30B
100
AcDbEntity
  8
1
  6
CONTINUOUS
 62
7
100
AcDbLine
 10
589.2386950000000
 20
282.0613180000000
 30
0.000000000000000
 11
590.6996949999997
 21
282.1893180000000
 31
0.000000000000000
  0
LINE
  5
30C
100
AcDbEntity
  8
1
  6
CONTINUOUS
 62
7
100
AcDbLine
 10
589.2386950000000
 20
273.3173180000000
 30
0.000000000000000
 11
590.6996949999998
 21
273.1893180000000
 31
0.000000000000000
  0
ARC
  5
30D
100
AcDbEntity
  8
1
  6
CONTINUOUS
 62
7
100
AcDbCircle
 10
589.3776950000000
 20
280.4673179999999
 30
0.000000000000000
 40
1.600000000000000
100
AcDbArc
 50
95.00010000000000
 51
164.5059999999998
  0
ARC
  5
30E
100
AcDbEntity
  8
1
  6
CONTINUOUS
 62
7
100
AcDbCircle
 10
589.3776950000000
 20
274.9113180000000
 30
0.000000000000000
 40
1.600000000000000
100
AcDbArc
 50
195.4940000000000
 51
265.0000000000000
  0
ARC
  5
30F
100
AcDbEntity
  8
1
  6
CONTINUOUS
 62
7
100
AcDbCircle
 10
599.3996949999998
 20
277.6893180000000
 30
0.000000000000000
 40
12.00000000000000
100
AcDbArc
 50
164.5059999999998
 51
195.4940000000000
  0
LINE
  5
310
100
AcDbEntity
  8
1
  6
CONTINUOUS
 62
7
100
AcDbLine
 10
591.9996949999997
 20
282.2893179999999
 30
0.000000000000000
 11
590.6996949999998
 21
282.2893179999999
 31
0.000000000000000
  0
LINE
  5
311
100
AcDbEntity
  8
1
  6
CONTINUOUS
 62
7
100
AcDbLine
 10
592.0156950000001
 20
279.0053180000000
 30
0.000000000000000
 11
590.6996949999999
 21
277.6893180000001
 31
0.000000000000000
  0
LINE
  5
312
100
AcDbEntity
  8
1
  6
CONTINUOUS
 62
7
100
AcDbLine
 10
591.9996949999997
 20
273.0893179999998
 30
0.000000000000000
 11
590.6996949999998
 21
273.0893179999998
 31
0.000000000000000
  0
LINE
  5
313
100
AcDbEntity
  8
1
  6
CONTINUOUS
 62
7
100
AcDbLine
 10
592.0156950000001
 20
277.6893180000000
 30
0.000000000000000
 11
590.6996949999998
 21
276.3733180000000
 31
0.000000000000000
  0
LINE
  5
314
100
AcDbEntity
  8
1
  6
CONTINUOUS
 62
7
100
AcDbLine
 10
590.6996949999998
 20
282.2893179999999
 30
0.000000000000000
 11
590.6996949999998
 21
273.0893179999998
 31
0.000000000000000
  0
LINE
  5
315
100
AcDbEntity
  8
1
  6
CONTINUOUS
 62
7
100
AcDbLine
 10
592.0156950000001
 20
286.6893180000000
 30
0.000000000000000
 11
604.2156949999998
 21
286.6893180000000
 31
0.000000000000000
  0
LINE
  5
316
100
AcDbEntity
  8
5
  6
PHANTOM
 62
6
100
AcDbLine
 10
713.3982170000003
 20
290.6035310000000
 30
0.000000000000000
 11
750.8956919999997
 21
253.1060559999999
 31
0.000000000000000
  0
LINE
  5
317
100
AcDbEntity
  8
5
  6
PHANTOM
 62
6
100
AcDbLine
 10
711.7413629999996
 20
300.7456669999999
 30
0.000000000000000
 11
763.6236139999999
 21
248.8634160000000
 31
0.000000000000000
  0
LINE
  5
318
100
AcDbEntity
  8
1
  6
CONTINUOUS
 62
7
100
AcDbLine
 10
703.6624309999997
 20
325.1893180000000
 30
0.000000000000000
 11
703.6624309999997
 21
187.1893179999999
 31
0.000000000000000
  0
LINE
  5
319
100
AcDbEntity
  8
1
  6
CONTINUOUS
 62
7
100
AcDbLine
 10
704.6624309999997
 20
325.1893180000000
 30
0.000000000000000
 11
704.6624309999997
 21
187.1893179999999
 31
0.000000000000000
  0
LINE
  5
31A
100
AcDbEntity
  8
1
  6
CONTINUOUS
 62
7
100
AcDbLine
 10
706.1624310000000
 20
325.1893180000000
 30
0.000000000000000
 11
706.1624310000000
 21
187.1893179999999
 31
0.000000000000000
  0
LINE
  5
31B
100
AcDbEntity
  8
1
  6
CONTINUOUS
 62
7
100
AcDbLine
 10
707.6624309999997
 20
322.1893180000000
 30
0.000000000000000
 11
707.6624309999997
 21
190.1893179999999
 31
0.000000000000000
  0
LINE
  5
31C
100
AcDbEntity
  8
1
  6
CONTINUOUS
 62
7
100
AcDbLine
 10
708.8124309999998
 20
294.5619009999999
 30
0.000000000000000
 11
708.8124309999998
 21
221.1479139999999
 31
0.000000000000000
  0
LINE
  5
31D
100
AcDbEntity
  8
1
  6
CONTINUOUS
 62
7
100
AcDbLine
 10
694.6624309999997
 20
287.7913179999998
 30
0.000000000000000
 11
694.6624309999997
 21
217.6893179999999
 31
0.000000000000000
  0
ARC
  5
31E
100
AcDbEntity
  8
1
  6
CONTINUOUS
 62
7
100
AcDbCircle
 10
701.6624310000000
 20
215.6893179999999
 30
0.000000000000000
 40
1.000000000000000
100
AcDbArc
 50
0.000000000000000
 51
90.00000000000000
  0
LINE
  5
31F
100
AcDbEntity
  8
1
  6
CONTINUOUS
 62
7
100
AcDbLine
 10
702.9024969999997
 20
198.5393179999999
 30
0.000000000000000
 11
680.1624310000000
 21
198.5393179999999
 31
0.000000000000000
  0
LINE
  5
320
100
AcDbEntity
  8
1
  6
CONTINUOUS
 62
7
100
AcDbLine
 10
679.1624309999997
 20
235.1893179999999
 30
0.000000000000000
 11
679.1624309999997
 21
199.5393179999999
 31
0.000000000000000
  0
ARC
  5
321
100
AcDbEntity
  8
1
  6
CONTINUOUS
 62
7
100
AcDbCircle
 10
680.1624310000000
 20
199.5393179999999
 30
0.000000000000000
 40
1.000000000000000
100
AcDbArc
 50
180.0000000000000
 51
270.0000000000000
  0
ARC
  5
322
100
AcDbEntity
  8
1
  6
CONTINUOUS
 62
7
100
AcDbCircle
 10
695.6624309999997
 20
217.6893179999999
 30
0.000000000000000
 40
1.000000000000000
100
AcDbArc
 50
180.0000000000000
 51
270.0000000000000
  0
LINE
  5
323
100
AcDbEntity
  8
1
  6
CONTINUOUS
 62
7
100
AcDbLine
 10
701.6624310000000
 20
216.6893179999999
 30
0.000000000000000
 11
695.6624309999997
 21
216.6893179999999
 31
0.000000000000000
  0
LINE
  5
324
100
AcDbEntity
  8
1
  6
CONTINUOUS
 62
7
100
AcDbLine
 10
693.6624310000000
 20
250.1893179999999
 30
0.000000000000000
 11
693.6624310000000
 21
241.1893179999999
 31
0.000000000000000
  0
LINE
  5
325
100
AcDbEntity
  8
1
  6
CONTINUOUS
 62
7
100
AcDbLine
 10
694.6624309999997
 20
236.1893180000000
 30
0.000000000000000
 11
680.1624310000000
 21
236.1893180000000
 31
0.000000000000000
  0
ARC
  5
326
100
AcDbEntity
  8
1
  6
CONTINUOUS
 62
7
100
AcDbCircle
 10
680.1624310000000
 20
235.1893179999999
 30
0.000000000000000
 40
1.000000000000000
100
AcDbArc
 50
90.00000000000000
 51
180.0000000000000
  0
LINE
  5
327
100
AcDbEntity
  8
1
  6
CONTINUOUS
 62
7
100
AcDbLine
 10
694.6624309999997
 20
241.1893179999999
 30
0.000000000000000
 11
693.6624310000000
 21
241.1893179999999
 31
0.000000000000000
  0
LINE
  5
328
100
AcDbEntity
  8
1
  6
CONTINUOUS
 62
7
100
AcDbLine
 10
694.6624309999997
 20
250.1893179999999
 30
0.000000000000000
 11
693.6624310000000
 21
250.1893179999999
 31
0.000000000000000
  0
LINE
  5
329
100
AcDbEntity
  8
4
  6
CENTER
 62
1
100
AcDbLine
 10
690.6624309999997
 20
245.6893179999999
 30
0.000000000000000
 11
697.6624310000000
 21
245.6893179999999
 31
0.000000000000000
  0
ARC
  5
32A
100
AcDbEntity
  8
1
  6
CONTINUOUS
 62
7
100
AcDbCircle
 10
707.3124309999998
 20
221.1479139999999
 30
0.000000000000000
 40
1.500000000000000
100
AcDbArc
 50
283.4933990000000
 51
360.0000000000000
  0
ARC
  5
32B
100
AcDbEntity
  8
1
  6
CONTINUOUS
 62
7
100
AcDbCircle
 10
703.6624309999997
 20
199.1893179999999
 30
0.000000000000000
 40
1.000000000000000
100
AcDbArc
 50
180.0000000000000
 51
270.0000000000000
  0
LINE
  5
32C
100
AcDbEntity
  8
1
  6
CONTINUOUS
 62
7
100
AcDbLine
 10
706.1624310000000
 20
187.1893179999999
 30
0.000000000000000
 11
703.6624309999997
 21
187.1893179999999
 31
0.000000000000000
  0
LINE
  5
32D
100
AcDbEntity
  8
1
  6
CONTINUOUS
 62
7
100
AcDbLine
 10
707.6624309999996
 20
190.1893179999999
 30
0.000000000000000
 11
706.1624309999999
 21
187.1893179999998
 31
0.000000000000000
  0
LINE
  5
32E
100
AcDbEntity
  8
1
  6
CONTINUOUS
 62
7
100
AcDbLine
 10
702.6624309999997
 20
215.6893179999999
 30
0.000000000000000
 11
702.6624309999997
 21
199.1893179999999
 31
0.000000000000000
  0
LINE
  5
32F
100
AcDbEntity
  8
1
  6
CONTINUOUS
 62
7
100
AcDbLine
 10
702.6624309999997
 20
211.6893179999999
 30
0.000000000000000
 11
702.6624309999997
 21
199.1893179999999
 31
0.000000000000000
  0
ARC
  5
330
100
AcDbEntity
  8
5
  6
PHANTOM
 62
6
100
AcDbCircle
 10
747.0066050000000
 20
240.7316879999999
 30
0.000000000000000
 40
2.000000000000000
100
AcDbArc
 50
135.0000000000000
 51
225.0000000000000
  0
LINE
  5
331
100
AcDbEntity
  8
5
  6
PHANTOM
 62
6
100
AcDbLine
 10
749.1279249999998
 20
240.7316879999999
 30
0.000000000000000
 11
761.6318930000001
 21
244.8996769999999
 31
0.000000000000000
  0
ARC
  5
332
100
AcDbEntity
  8
5
  6
PHANTOM
 62
6
100
AcDbCircle
 10
748.4208179999996
 20
239.3174740000000
 30
0.000000000000000
 40
2.000000000000000
100
AcDbArc
 50
225.0000000000000
 51
315.0000000000000
  0
LINE
  5
333
100
AcDbEntity
  8
5
  6
PHANTOM
 62
6
100
AcDbLine
 10
749.1279249999998
 20
240.7316879999999
 30
0.000000000000000
 11
749.8350320000001
 21
237.9032609999999
 31
0.000000000000000
  0
LINE
  5
334
100
AcDbEntity
  8
5
  6
PHANTOM
 62
6
100
AcDbLine
 10
745.5923910000001
 20
239.3174740000000
 30
0.000000000000000
 11
747.0066050000000
 21
237.9032610000000
 31
0.000000000000000
  0
LINE
  5
335
100
AcDbEntity
  8
5
  6
PHANTOM
 62
6
100
AcDbLine
 10
745.5923910000001
 20
242.1459009999998
 30
0.000000000000000
 11
750.8956919999998
 21
247.4492020000000
 31
0.000000000000000
  0
ARC
  5
336
100
AcDbEntity
  8
5
  6
PHANTOM
 62
6
100
AcDbCircle
 10
748.0672650000000
 20
250.2776289999999
 30
0.000000000000000
 40
4.000000000000000
100
AcDbArc
 50
315.0000000000000
 51
404.9999999999999
  0
ARC
  5
337
100
AcDbEntity
  8
5
  6
PHANTOM
 62
6
100
AcDbCircle
 10
762.5629540000000
 20
247.8027560000000
 30
0.000000000000000
 40
1.500000000000000
100
AcDbArc
 50
315.0000000000000
 51
404.9999999999999
  0
ARC
  5
338
100
AcDbEntity
  8
5
  6
PHANTOM
 62
6
100
AcDbCircle
 10
761.3156649999997
 20
245.8483610000000
 30
0.000000000000000
 40
1.000000000000000
100
AcDbArc
 50
288.4349490000000
 51
315.0000000000000
  0
LINE
  5
339
100
AcDbEntity
  8
5
  6
PHANTOM
 62
6
100
AcDbLine
 10
763.6236140000000
 20
246.7420949999999
 30
0.000000000000000
 11
762.0227719999996
 21
245.1412539999999
 31
0.000000000000000
  0
LINE
  5
33A
100
AcDbEntity
  8
1
  6
CONTINUOUS
 62
7
100
AcDbLine
 10
702.6624309999997
 20
312.1878399999999
 30
0.000000000000000
 11
677.2624310000000
 21
312.1878399999999
 31
0.000000000000000
  0
LINE
  5
33B
100
AcDbEntity
  8
1
  6
CONTINUOUS
 62
7
100
AcDbLine
 10
703.6624309999997
 20
314.1893180000000
 30
0.000000000000000
 11
675.7624309999997
 21
314.1893180000000
 31
0.000000000000000
  0
LINE
  5
33C
100
AcDbEntity
  8
4
  6
CENTER
 62
1
100
AcDbLine
 10
712.7624309999997
 20
301.1893180000000
 30
0.000000000000000
 11
667.2624309999998
 21
301.1893180000000
 31
0.000000000000000
  0
LINE
  5
33D
100
AcDbEntity
  8
1
  6
CONTINUOUS
 62
7
100
AcDbLine
 10
646.6198720000000
 20
290.1888180000000
 30
0.000000000000000
 11
646.6198720000000
 21
312.1888180000000
 31
0.000000000000000
  0
LINE
  5
33E
100
AcDbEntity
  8
1
  6
CONTINUOUS
 62
7
100
AcDbLine
 10
645.0198719999997
 20
309.1888180000001
 30
0.000000000000000
 11
645.0198719999997
 21
293.1888180000001
 31
0.000000000000000
  0
LINE
  5
33F
100
AcDbEntity
  8
1
  6
CONTINUOUS
 62
7
100
AcDbLine
 10
648.6198719999999
 20
290.1888180000000
 30
0.000000000000000
 11
648.6198719999999
 21
312.1888180000000
 31
0.000000000000000
  0
LINE
  5
340
100
AcDbEntity
  8
1
  6
CONTINUOUS
 62
7
100
AcDbLine
 10
677.2624310000000
 20
312.4476480000000
 30
0.000000000000000
 11
677.2624310000000
 21
288.1893180000000
 31
0.000000000000000
  0
LINE
  5
341
100
AcDbEntity
  8
1
  6
CONTINUOUS
 62
7
100
AcDbLine
 10
675.2624309999998
 20
312.4476480000000
 30
0.000000000000000
 11
675.2624309999998
 21
288.1893180000000
 31
0.000000000000000
  0
LINE
  5
342
100
AcDbEntity
  8
1
  6
CONTINUOUS
 62
7
100
AcDbLine
 10
677.6624309999997
 20
312.1878399999999
 30
0.000000000000000
 11
677.6624309999997
 21
289.4893180000000
 31
0.000000000000000
  0
LINE
  5
343
100
AcDbEntity
  8
1
  6
CONTINUOUS
 62
7
100
AcDbLine
 10
643.5198719999997
 20
306.9623199999999
 30
0.000000000000000
 11
643.5198719999997
 21
295.4153149999999
 31
0.000000000000000
  0
LINE
  5
344
100
AcDbEntity
  8
1
  6
CONTINUOUS
 62
7
100
AcDbLine
 10
643.5198719999997
 20
307.2888180000000
 30
0.000000000000000
 11
643.5198719999997
 21
295.0888180000000
 31
0.000000000000000
  0
LINE
  5
345
100
AcDbEntity
  8
1
  6
CONTINUOUS
 62
7
100
AcDbLine
 10
643.5198719999997
 20
295.0888180000000
 30
0.000000000000000
 11
645.0198719999997
 21
295.0888180000000
 31
0.000000000000000
  0
LINE
  5
346
100
AcDbEntity
  8
1
  6
CONTINUOUS
 62
7
100
AcDbLine
 10
643.5198719999997
 20
307.2888180000000
 30
0.000000000000000
 11
645.0198719999997
 21
307.2888180000000
 31
0.000000000000000
  0
LINE
  5
347
100
AcDbEntity
  8
1
  6
CONTINUOUS
 62
7
100
AcDbLine
 10
643.5198719999999
 20
299.6898180000001
 30
0.000000000000000
 11
645.0198719999999
 21
301.1898180000000
 31
0.000000000000000
  0
LINE
  5
348
100
AcDbEntity
  8
1
  6
CONTINUOUS
 62
7
100
AcDbLine
 10
643.5198719999999
 20
301.1898180000001
 30
0.000000000000000
 11
645.0198719999999
 21
302.6898179999998
 31
0.000000000000000
  0
ARC
  5
349
100
AcDbEntity
  8
1
  6
CONTINUOUS
 62
7
100
AcDbCircle
 10
633.9589240000000
 20
301.1888180000001
 30
0.000000000000000
 40
9.560949000000001
100
AcDbArc
 50
342.4247879999999
 51
377.5752120000000
  0
LINE
  5
34A
100
AcDbEntity
  8
1
  6
CONTINUOUS
 62
7
100
AcDbLine
 10
639.5198719999997
 20
306.1888180000000
 30
0.000000000000000
 11
639.5198719999997
 21
296.1878179999999
 31
0.000000000000000
  0
ARC
  5
34B
100
AcDbEntity
  8
1
  6
CONTINUOUS
 62
7
100
AcDbCircle
 10
649.0808209999999
 20
301.1888180000001
 30
0.000000000000000
 40
9.560949000000001
100
AcDbArc
 50
162.4247879999998
 51
197.5752119999999
  0
LINE
  5
34C
100
AcDbEntity
  8
1
  6
CONTINUOUS
 62
7
100
AcDbLine
 10
643.0735809999998
 20
298.3018180000001
 30
0.000000000000000
 11
639.9661639999999
 21
298.3018180000001
 31
0.000000000000000
  0
ARC
  5
34D
100
AcDbEntity
  8
1
  6
CONTINUOUS
 62
7
100
AcDbCircle
 10
642.0758720000000
 20
296.8588179999999
 30
0.000000000000000
 40
2.555820000000000
100
AcDbArc
 50
214.3528569999999
 51
214.3839999999999
  0
ARC
  5
34E
100
AcDbEntity
  8
1
  6
CONTINUOUS
 62
7
100
AcDbCircle
 10
640.9638719999998
 20
296.8588179999999
 30
0.000000000000000
 40
2.555820000000000
100
AcDbArc
 50
325.6159999999998
 51
325.6471430000000
  0
LINE
  5
34F
100
AcDbEntity
  8
1
  6
CONTINUOUS
 62
7
100
AcDbLine
 10
643.0735809999998
 20
295.4148180000000
 30
0.000000000000000
 11
639.9661639999999
 21
295.4148180000000
 31
0.000000000000000
  0
ARC
  5
350
100
AcDbEntity
  8
1
  6
CONTINUOUS
 62
7
100
AcDbCircle
 10
640.9638929999998
 20
296.8578180000000
 30
0.000000000000000
 40
2.555979999999999
100
AcDbArc
 50
334.3716370000000
 51
394.3716370000000
  0
LINE
  5
351
100
AcDbEntity
  8
1
  6
CONTINUOUS
 62
7
100
AcDbLine
 10
643.5198719999996
 20
296.1878179999999
 30
0.000000000000000
 11
643.0735809999996
 21
295.4148180000001
 31
0.000000000000000
  0
ARC
  5
352
100
AcDbEntity
  8
1
  6
CONTINUOUS
 62
7
100
AcDbCircle
 10
642.0758519999999
 20
296.8578180000000
 30
0.000000000000000
 40
2.555979999999999
100
AcDbArc
 50
145.6283629999998
 51
205.6283629999998
  0
LINE
  5
353
100
AcDbEntity
  8
1
  6
CONTINUOUS
 62
7
100
AcDbLine
 10
639.5198719999996
 20
296.1878179999998
 30
0.000000000000000
 11
639.9661639999998
 21
295.4148180000000
 31
0.000000000000000
  0
LINE
  5
354
100
AcDbEntity
  8
1
  6
CONTINUOUS
 62
7
100
AcDbLine
 10
643.5198719999997
 20
306.1888180000000
 30
0.000000000000000
 11
643.0735809999998
 21
306.9618179999998
 31
0.000000000000000
  0
ARC
  5
355
100
AcDbEntity
  8
1
  6
CONTINUOUS
 62
7
100
AcDbCircle
 10
640.9638929999998
 20
305.5188180000000
 30
0.000000000000000
 40
2.555979999999999
100
AcDbArc
 50
325.6283629999999
 51
385.6283630000000
  0
LINE
  5
356
100
AcDbEntity
  8
1
  6
CONTINUOUS
 62
7
100
AcDbLine
 10
643.0735809999998
 20
306.9618179999999
 30
0.000000000000000
 11
639.9661639999999
 21
306.9618179999999
 31
0.000000000000000
  0
LINE
  5
357
100
AcDbEntity
  8
1
  6
CONTINUOUS
 62
7
100
AcDbLine
 10
643.0735809999998
 20
304.0758180000000
 30
0.000000000000000
 11
639.9661639999999
 21
304.0758180000000
 31
0.000000000000000
  0
LINE
  5
358
100
AcDbEntity
  8
1
  6
CONTINUOUS
 62
7
100
AcDbLine
 10
639.5198719999996
 20
306.1888180000000
 30
0.000000000000000
 11
639.9661639999999
 21
306.9618179999999
 31
0.000000000000000
  0
ARC
  5
359
100
AcDbEntity
  8
1
  6
CONTINUOUS
 62
7
100
AcDbCircle
 10
642.0758519999999
 20
305.5188180000000
 30
0.000000000000000
 40
2.555979999999999
100
AcDbArc
 50
154.3716370000000
 51
214.3716370000000
  0
LINE
  5
35A
100
AcDbEntity
  8
1
  6
CONTINUOUS
 62
7
100
AcDbLine
 10
648.6198719999999
 20
290.1888180000000
 30
0.000000000000000
 11
646.6198720000000
 21
290.1888180000000
 31
0.000000000000000
  0
LINE
  5
35B
100
AcDbEntity
  8
1
  6
CONTINUOUS
 62
7
100
AcDbLine
 10
646.6198720000000
 20
293.1888180000001
 30
0.000000000000000
 11
645.0198719999997
 21
293.1888180000001
 31
0.000000000000000
  0
LINE
  5
35C
100
AcDbEntity
  8
1
  6
CONTINUOUS
 62
7
100
AcDbLine
 10
694.6624309999997
 20
282.1893180000000
 30
0.000000000000000
 11
693.6624310000000
 21
282.1893180000000
 31
0.000000000000000
  0
LINE
  5
35D
100
AcDbEntity
  8
1
  6
CONTINUOUS
 62
7
100
AcDbLine
 10
694.6624309999997
 20
273.1893180000000
 30
0.000000000000000
 11
693.6624310000000
 21
273.1893180000000
 31
0.000000000000000
  0
LINE
  5
35E
100
AcDbEntity
  8
1
  6
CONTINUOUS
 62
7
100
AcDbLine
 10
693.6624310000000
 20
282.1893180000000
 30
0.000000000000000
 11
693.6624310000000
 21
273.1893180000000
 31
0.000000000000000
  0
LINE
  5
35F
100
AcDbEntity
  8
4
  6
CENTER
 62
1
100
AcDbLine
 10
690.6624309999997
 20
277.6893180000000
 30
0.000000000000000
 11
697.6624310000000
 21
277.6893180000000
 31
0.000000000000000
  0
LINE
  5
360
100
AcDbEntity
  8
1
  6
CONTINUOUS
 62
7
100
AcDbLine
 10
693.6624310000000
 20
288.4893180000000
 30
0.000000000000000
 11
678.6624309999997
 21
288.4893180000000
 31
0.000000000000000
  0
LINE
  5
361
100
AcDbEntity
  8
1
  6
CONTINUOUS
 62
7
100
AcDbLine
 10
675.2624309999998
 20
307.9393180000000
 30
0.000000000000000
 11
672.2624310000000
 21
307.9393180000000
 31
0.000000000000000
  0
LINE
  5
362
100
AcDbEntity
  8
2
  6
CONTINUOUS
 62
4
100
AcDbLine
 10
675.2624309999998
 20
300.8682499999999
 30
0.000000000000000
 11
672.2624310000000
 21
294.4393180000000
 31
0.000000000000000
  0
LINE
  5
363
100
AcDbEntity
  8
2
  6
CONTINUOUS
 62
4
100
AcDbLine
 10
672.2624310000000
 20
300.8682499999999
 30
0.000000000000000
 11
675.2624309999998
 21
294.4393180000000
 31
0.000000000000000
  0
LINE
  5
364
100
AcDbEntity
  8
1
  6
CONTINUOUS
 62
7
100
AcDbLine
 10
675.2624309999998
 20
294.4393180000000
 30
0.000000000000000
 11
672.2624310000000
 21
294.4393180000000
 31
0.000000000000000
  0
LINE
  5
365
100
AcDbEntity
  8
1
  6
CONTINUOUS
 62
7
100
AcDbLine
 10
675.2624309999998
 20
300.8682499999999
 30
0.000000000000000
 11
672.2624310000000
 21
300.8682499999999
 31
0.000000000000000
  0
LINE
  5
366
100
AcDbEntity
  8
1
  6
CONTINUOUS
 62
7
100
AcDbLine
 10
675.2624309999998
 20
301.5103850000000
 30
0.000000000000000
 11
672.2624310000000
 21
301.5103850000000
 31
0.000000000000000
  0
LINE
  5
367
100
AcDbEntity
  8
1
  6
CONTINUOUS
 62
7
100
AcDbLine
 10
672.2624310000000
 20
307.9393180000000
 30
0.000000000000000
 11
672.2624310000000
 21
294.4393180000000
 31
0.000000000000000
  0
LINE
  5
368
100
AcDbEntity
  8
2
  6
CONTINUOUS
 62
4
100
AcDbLine
 10
675.2624309999999
 20
307.9393180000001
 30
0.000000000000000
 11
672.2624310000001
 21
301.5103850000000
 31
0.000000000000000
  0
LINE
  5
369
100
AcDbEntity
  8
2
  6
CONTINUOUS
 62
4
100
AcDbLine
 10
672.2624310000001
 20
307.9393180000001
 30
0.000000000000000
 11
675.2624310000000
 21
301.5103850000000
 31
0.000000000000000
  0
ARC
  5
36A
100
AcDbEntity
  8
1
  6
CONTINUOUS
 62
7
100
AcDbCircle
 10
678.6624309999997
 20
289.4893180000000
 30
0.000000000000000
 40
1.000000000000000
100
AcDbArc
 50
180.0000000000000
 51
270.0000000000000
  0
LINE
  5
36B
100
AcDbEntity
  8
1
  6
CONTINUOUS
 62
7
100
AcDbLine
 10
677.2624310000000
 20
294.1893180000000
 30
0.000000000000000
 11
677.6624309999997
 21
294.1893180000000
 31
0.000000000000000
  0
LINE
  5
36C
100
AcDbEntity
  8
1
  6
CONTINUOUS
 62
7
100
AcDbLine
 10
675.2624309999998
 20
288.1893180000000
 30
0.000000000000000
 11
677.2624310000000
 21
288.1893180000000
 31
0.000000000000000
  0
LINE
  5
36D
100
AcDbEntity
  8
1
  6
CONTINUOUS
 62
7
100
AcDbLine
 10
692.6624310000000
 20
301.1893180000000
 30
0.000000000000000
 11
692.6624310000000
 21
289.7913179999998
 31
0.000000000000000
  0
ARC
  5
36E
100
AcDbEntity
  8
1
  6
CONTINUOUS
 62
7
100
AcDbCircle
 10
693.6624310000000
 20
287.7913179999998
 30
0.000000000000000
 40
1.000000000000000
100
AcDbArc
 50
0.000000000000000
 51
88.96880000000002
  0
ARC
  5
36F
100
AcDbEntity
  8
1
  6
CONTINUOUS
 62
7
100
AcDbCircle
 10
693.6624310000000
 20
289.7913179999998
 30
0.000000000000000
 40
1.000000000000000
100
AcDbArc
 50
180.0000000000000
 51
268.9690000000000
  0
LINE
  5
370
100
AcDbEntity
  8
1
  6
CONTINUOUS
 62
7
100
AcDbLine
 10
648.6198719999999
 20
312.1888180000000
 30
0.000000000000000
 11
646.6198720000000
 21
312.1888180000000
 31
0.000000000000000
  0
LINE
  5
371
100
AcDbEntity
  8
1
  6
CONTINUOUS
 62
7
100
AcDbLine
 10
646.6198720000000
 20
309.1888180000001
 30
0.000000000000000
 11
645.0198719999997
 21
309.1888180000001
 31
0.000000000000000
  0
LINE
  5
372
100
AcDbEntity
  8
1
  6
CONTINUOUS
 62
7
100
AcDbLine
 10
675.2624309999998
 20
312.4476480000000
 30
0.000000000000000
 11
677.2624310000000
 21
312.4476480000000
 31
0.000000000000000
  0
LINE
  5
373
100
AcDbEntity
  8
1
  6
CONTINUOUS
 62
7
100
AcDbLine
 10
675.7624309999997
 20
314.1893180000000
 30
0.000000000000000
 11
675.7624309999997
 21
312.4476480000000
 31
0.000000000000000
  0
LINE
  5
374
100
AcDbEntity
  8
1
  6
CONTINUOUS
 62
7
100
AcDbLine
 10
677.2624310000000
 20
308.1893180000000
 30
0.000000000000000
 11
677.6624309999997
 21
308.1893180000000
 31
0.000000000000000
  0
LINE
  5
375
100
AcDbEntity
  8
1
  6
CONTINUOUS
 62
7
100
AcDbLine
 10
677.2624310000000
 20
310.1956670000000
 30
0.000000000000000
 11
677.6624309999997
 21
310.1956670000000
 31
0.000000000000000
  0
LINE
  5
376
100
AcDbEntity
  8
5
  6
PHANTOM
 62
6
100
AcDbLine
 10
708.8124309999998
 20
307.8167350000000
 30
0.000000000000000
 11
708.8124309999998
 21
309.6893180000000
 31
0.000000000000000
  0
LINE
  5
377
100
AcDbEntity
  8
1
  6
CONTINUOUS
 62
7
100
AcDbLine
 10
709.8834990000001
 20
308.2603850000000
 30
0.000000000000000
 11
713.0654790000001
 21
305.0784049999999
 31
0.000000000000000
  0
LINE
  5
378
100
AcDbEntity
  8
1
  6
CONTINUOUS
 62
7
100
AcDbLine
 10
702.6624309999997
 20
313.1893180000000
 30
0.000000000000000
 11
702.6624309999997
 21
301.1893180000000
 31
0.000000000000000
  0
ARC
  5
379
100
AcDbEntity
  8
5
  6
PHANTOM
 62
6
100
AcDbCircle
 10
711.9840040000000
 20
289.1893180000000
 30
0.000000000000000
 40
2.000000000000000
100
AcDbArc
 50
45.00000000000000
 51
90.00000000000000
  0
ARC
  5
37A
100
AcDbEntity
  8
1
  6
CONTINUOUS
 62
7
100
AcDbCircle
 10
712.0048190000000
 20
304.0177449999998
 30
0.000000000000000
 40
1.500000000000000
100
AcDbArc
 50
315.0000000000000
 51
404.9999999999999
  0
LINE
  5
37B
100
AcDbEntity
  8
1
  6
CONTINUOUS
 62
7
100
AcDbLine
 10
711.7413629999999
 20
301.6329680000001
 30
0.000000000000000
 11
713.0654790000001
 21
302.9570850000001
 31
0.000000000000000
  0
ARC
  5
37C
100
AcDbEntity
  8
1
  6
CONTINUOUS
 62
7
100
AcDbCircle
 10
718.8124309999998
 20
294.5619009999999
 30
0.000000000000000
 40
10.00000000000000
100
AcDbArc
 50
135.0000000000000
 51
180.0000000000000
  0
ARC
  5
37D
100
AcDbEntity
  8
5
  6
PHANTOM
 62
6
100
AcDbCircle
 10
718.8124309999998
 20
307.8167350000000
 30
0.000000000000000
 40
10.00000000000000
100
AcDbArc
 50
180.0000000000000
 51
225.0000000000000
  0
LINE
  5
37E
100
AcDbEntity
  8
1
  6
CONTINUOUS
 62
7
100
AcDbLine
 10
706.1624310000000
 20
325.1893180000000
 30
0.000000000000000
 11
703.6624309999997
 21
325.1893180000000
 31
0.000000000000000
  0
LINE
  5
37F
100
AcDbEntity
  8
1
  6
CONTINUOUS
 62
7
100
AcDbLine
 10
706.1624309999999
 20
325.1893180000000
 30
0.000000000000000
 11
707.6624309999996
 21
322.1893179999999
 31
0.000000000000000
  0
ARC
  5
380
100
AcDbEntity
  8
1
  6
CONTINUOUS
 62
7
100
AcDbCircle
 10
703.6624309999997
 20
313.1893180000000
 30
0.000000000000000
 40
1.000000000000000
100
AcDbArc
 50
90.00000000000000
 51
180.0000000000000
  0
ARC
  5
381
100
AcDbEntity
  8
1
  6
CONTINUOUS
 62
7
100
AcDbCircle
 10
702.8124309999998
 20
301.1893180000000
 30
0.000000000000000
 40
10.00000000000000
100
AcDbArc
 50
45.00000000000000
 51
60.98752800000000
  0
ARC
  5
382
100
AcDbEntity
  8
5
  6
PHANTOM
 62
6
100
AcDbCircle
 10
707.3124309999998
 20
309.6893180000000
 30
0.000000000000000
 40
1.500000000000000
100
AcDbArc
 50
0.000000000000000
 51
76.50660100000000
  0
LINE
  5
383
100
AcDbEntity
  8
1
  6
CONTINUOUS
 62
7
100
AcDbLine
 10
54.83218700000000
 20
392.7769529999998
 30
0.000000000000000
 11
41.83218700000000
 21
392.7769529999998
 31
0.000000000000000
  0
LINE
  5
384
100
AcDbEntity
  8
1
  6
CONTINUOUS
 62
7
100
AcDbLine
 10
54.83218700000000
 20
404.7769530000000
 30
0.000000000000000
 11
41.83218700000000
 21
404.7769530000000
 31
0.000000000000000
  0
LINE
  5
385
100
AcDbEntity
  8
1
  6
CONTINUOUS
 62
7
100
AcDbLine
 10
43.42449499999998
 20
394.0654149999997
 30
0.000000000000000
 11
53.62449500000000
 21
398.3154149999997
 31
0.000000000000000
  0
LINE
  5
386
100
AcDbEntity
  8
1
  6
CONTINUOUS
 62
7
100
AcDbLine
 10
43.42449499999998
 20
403.4884920000000
 30
0.000000000000000
 11
53.62449500000000
 21
399.2384920000000
 31
0.000000000000000
  0
ARC
  5
387
100
AcDbEntity
  8
1
  6
CONTINUOUS
 62
7
100
AcDbCircle
 10
41.83218700000000
 20
393.2769529999998
 30
0.000000000000000
 40
0.5000000000000000
100
AcDbArc
 50
180.0000000000000
 51
270.0000000000000
  0
LINE
  5
388
100
AcDbEntity
  8
1
  6
CONTINUOUS
 62
7
100
AcDbLine
 10
41.33218699999999
 20
404.2769530000000
 30
0.000000000000000
 11
41.33218699999999
 21
393.2769529999998
 31
0.000000000000000
  0
ARC
  5
389
100
AcDbEntity
  8
1
  6
CONTINUOUS
 62
7
100
AcDbCircle
 10
41.83218700000000
 20
404.2769530000000
 30
0.000000000000000
 40
0.5000000000000000
100
AcDbArc
 50
90.00000000000000
 51
180.0000000000000
  0
LINE
  5
38A
100
AcDbEntity
  8
1
  6
CONTINUOUS
 62
7
100
AcDbLine
 10
42.73218700000000
 20
394.5269530000000
 30
0.000000000000000
 11
42.73218700000000
 21
403.0269529999998
 31
0.000000000000000
  0
ARC
  5
38B
100
AcDbEntity
  8
1
  6
CONTINUOUS
 62
7
100
AcDbCircle
 10
43.23218699999999
 20
403.0269529999998
 30
0.000000000000000
 40
0.5000000000000000
100
AcDbArc
 50
67.38013500000000
 51
180.0000000000000
  0
ARC
  5
38C
100
AcDbEntity
  8
1
  6
CONTINUOUS
 62
7
100
AcDbCircle
 10
43.23218699999999
 20
394.5269530000000
 30
0.000000000000000
 40
0.5000000000000000
100
AcDbArc
 50
180.0000000000000
 51
292.6198649999999
  0
ARC
  5
38D
100
AcDbEntity
  8
1
  6
CONTINUOUS
 62
7
100
AcDbCircle
 10
54.83218700000000
 20
393.2769529999998
 30
0.000000000000000
 40
0.5000000000000000
100
AcDbArc
 50
270.0000000000000
 51
360.0000000000000
  0
LINE
  5
38E
100
AcDbEntity
  8
1
  6
CONTINUOUS
 62
7
100
AcDbLine
 10
55.33218699999999
 20
404.2769530000000
 30
0.000000000000000
 11
55.33218699999999
 21
393.2769529999998
 31
0.000000000000000
  0
ARC
  5
38F
100
AcDbEntity
  8
1
  6
CONTINUOUS
 62
7
100
AcDbCircle
 10
54.83218700000000
 20
404.2769530000000
 30
0.000000000000000
 40
0.5000000000000000
100
AcDbArc
 50
0.000000000000000
 51
90.00000000000000
  0
ARC
  5
390
100
AcDbEntity
  8
1
  6
CONTINUOUS
 62
7
100
AcDbCircle
 10
53.43218700000000
 20
398.7769529999998
 30
0.000000000000000
 40
0.5000000000000000
100
AcDbArc
 50
292.6198649999999
 51
427.3801350000000
  0
ENDSEC
  0
SECTION
  2
OBJECTS
  0
DICTIONARY
  5
3BA
100
AcDbDictionary
  3
ACAD_GROUP
350
3BB
  3
ACAD_LAYOUT
350
3BC
  3
ACAD_MLINESTYLE
350
3BD
  0
DICTIONARY
  5
3BB
102
{ACAD_REACTORS
330
3BA
102
}
330
3BA
100
AcDbDictionary
  0
DICTIONARY
  5
3BC
102
{ACAD_REACTORS
330
3BA
102
}
330
3BA
100
AcDbDictionary
  3
Model
350
3BE
  3
ﾚｲｱｳﾄ1
350
3BF
  3
ﾚｲｱｳﾄ2
350
3C0
  0
DICTIONARY
  5
3BD
102
{ACAD_REACTORS
330
3BA
102
}
330
3BA
100
AcDbDictionary
  3
STANDARD
350
3C1
  0
LAYOUT
  5
3BE
102
{ACAD_REACTORS
330
3BC
102
}
330
3BC
100
AcDbPlotSettings
 70
11952
  4
A3
 44
297.000000
 45
420.000000
 73
  1
 72
  1
100
AcDbLayout
  1
Model
 71
0
330
3B1
  0
LAYOUT
  5
3BF
102
{ACAD_REACTORS
330
3BC
102
}
330
3BC
100
AcDbPlotSettings
100
AcDbLayout
  1
ﾚｲｱｳﾄ1
 71
1
330
3B2
  0
LAYOUT
  5
3C0
102
{ACAD_REACTORS
330
3BC
102
}
330
3BC
100
AcDbPlotSettings
100
AcDbLayout
  1
ﾚｲｱｳﾄ2
 71
2
330
3B3
  0
MLINESTYLE
  5
3C1
102
{ACAD_REACTORS
330
3BD
102
}
330
3BD
100
AcDbMlineStyle
  2
STANDARD
 70
     0
  3

 62
   256
 51
90.00
 52
90.00
 71
     2
 49
0.50
 62
   256
  6
BYLAYER
 49
-0.50
 62
   256
  6
BYLAYER
  0
ENDSEC
  0
EOF
