  0
SECTION
  2
HEADER
  9
$ACADVER
  1
AC1027
  9
$DWGCODEPAGE
  3
ANSI_932
  9
$LTSCALE
 40
20.0
  9
$FILLMODE
 70
     1
  9
$CLAYER
  8
0
  9
$PDMODE
 70
     0
  9
$SPLFRAME
 70
     0
  9
$SPLINETYPE
 70
     6
  9
$SPLINESEGS
 70
     8
  9
$DIMASZ
 40
2.000000
  9
$DIMEXE
 40
1.500000
  9
$DIMEXO
 40
0.800000
  9
$DIMTAD
 70
     1
  9
$DIMTIH
 70
     0
  9
$DIMTOH
 70
     0
  9
$DIMTVP
 40
0.500000
  9
$DIMTXT
 40
3.100000
  9
$EXTMIN
 10
0.000000
 20
0.000000
 30
0.000000
  9
$EXTMAX
 10
297.000000
 20
420.000000
 30
0.000000
  9
$MEASUREMENT
 70
  1
  9
$LIMMIN
 10
0.000000
 20
0.000000
  9
$LIMMAX
 10
297.000000
 20
420.000000
  9
$HANDSEED
  5
276
  9
$LWDISPLAY
290
     0
  9
$DIMBLK
  1
_OPEN
  9
$DIMDEC
 70
     2
  9
$DIMADEC
 70
     2
  9
$DIMAUNIT
 70
     0
  9
$DIMZIN
 70
     8
  9
$DIMAZIN
 70
     2
  9
$DIMTOFL
 70
     1
  0
ENDSEC
  0
SECTION
  2
CLASSES
  0
ENDSEC
  0
SECTION
  2
TABLES
  0
TABLE
  2
VPORT
  5
245
100
AcDbSymbolTable
 70
     1
  0
VPORT
  5
246
100
AcDbSymbolTableRecord
100
AcDbViewportTableRecord
  2
*ACTIVE
 70
     0
 12
178.421539
 22
122.119189
 40
224.238379
 41
1.511021
  0
ENDTAB
  0
TABLE
  2
LTYPE
  5
247
100
AcDbSymbolTable
 70
     3
  0
LTYPE
  5
248
100
AcDbSymbolTableRecord
100
AcDbLinetypeTableRecord
  2
BYBLOCK
 70
     0
  3

 72
    65
 73
     0
 40
0.0
  0
LTYPE
  5
249
100
AcDbSymbolTableRecord
100
AcDbLinetypeTableRecord
  2
BYLAYER
 70
     0
  3

 72
    65
 73
     0
 40
0.0
  0
LTYPE
  5
24A
100
AcDbSymbolTableRecord
100
AcDbLinetypeTableRecord
  2
CONTINUOUS
 70
     0
  3
Solid line (NEC CAE2D for Win R17.0 : 2022.11.25)
 72
    65
 73
     0
 40
0.0
  0
LTYPE
  5
24B
100
AcDbSymbolTableRecord
100
AcDbLinetypeTableRecord
  2
CENTER
 70
     0
  3
____ _ ____ _ ____ _ ____ _ ____ _ ____
 72
    65
 73
     4
 40
2.0
 49
1.25
 74
     0
 49
-0.25
 74
     0
 49
0.25
 74
     0
 49
-0.25
 74
     0
  0
LTYPE
  5
24C
100
AcDbSymbolTableRecord
100
AcDbLinetypeTableRecord
  2
PHANTOM
 70
     0
  3
______  __  __  ______  __  __  ______ 
 72
    65
 73
     6
 40
2.5
 49
1.25
 74
     0
 49
-0.25
 74
     0
 49
0.25
 74
     0
 49
-0.25
 74
     0
 49
0.25
 74
     0
 49
-0.25
 74
     0
  0
ENDTAB
  0
TABLE
  2
LAYER
  5
24D
100
AcDbSymbolTable
 70
    10
  0
LAYER
  5
24E
100
AcDbSymbolTableRecord
100
AcDbLayerTableRecord
  2
0
 70
     0
 62
     7
  6
CONTINUOUS
370
    -3
390

  0
LAYER
  5
24F
100
AcDbSymbolTableRecord
100
AcDbLayerTableRecord
  2
DXF0
 70
     0
 62
     7
  6
CONTINUOUS
370
    -3
390

  0
LAYER
  5
250
100
AcDbSymbolTableRecord
100
AcDbLayerTableRecord
  2
4
 70
     0
 62
     1
  6
CONTINUOUS
370
    -3
390

  0
LAYER
  5
251
100
AcDbSymbolTableRecord
100
AcDbLayerTableRecord
  2
5
 70
     0
 62
     6
  6
CONTINUOUS
370
    -3
390

  0
LAYER
  5
252
100
AcDbSymbolTableRecord
100
AcDbLayerTableRecord
  2
1
 70
     0
 62
     7
  6
CONTINUOUS
370
    -3
390

  0
LAYER
  5
253
100
AcDbSymbolTableRecord
100
AcDbLayerTableRecord
  2
2
 70
     0
 62
     4
  6
CONTINUOUS
370
    -3
390

  0
LAYER
  5
254
100
AcDbSymbolTableRecord
100
AcDbLayerTableRecord
  2
3
 70
     0
 62
     2
  6
CONTINUOUS
370
    -3
390

  0
LAYER
  5
255
100
AcDbSymbolTableRecord
100
AcDbLayerTableRecord
  2
6
 70
     0
 62
     5
  6
CONTINUOUS
370
    -3
390

  0
LAYER
  5
256
100
AcDbSymbolTableRecord
100
AcDbLayerTableRecord
  2
7
 70
     0
 62
     3
  6
CONTINUOUS
370
    -3
390

  0
LAYER
  5
257
100
AcDbSymbolTableRecord
100
AcDbLayerTableRecord
  2
DXF1023
 70
     0
 62
    16
  6
CONTINUOUS
370
    -3
390

  0
ENDTAB
  0
TABLE
  2
STYLE
  5
258
100
AcDbSymbolTable
 70
     4
  0
STYLE
  5
259
100
AcDbSymbolTableRecord
100
AcDbTextStyleTableRecord
  2
STANDARD
 70
    64
 40
0.0
 41
1.0
 50
0.0
 71
     0
 42
3.000000000000000
  3
TXT
  4

  0
STYLE
  5
25A
100
AcDbSymbolTableRecord
100
AcDbTextStyleTableRecord
  2
ANKTATE
 70
    68
 40
0.0
 41
1.0
 50
0.0
 71
     0
 42
3.000000000000000
  3
TXT
  4

  0
STYLE
  5
25B
100
AcDbSymbolTableRecord
100
AcDbTextStyleTableRecord
  2
KNJYOKO
 70
    64
 40
0.0
 41
1.0
 50
0.0
 71
     0
 42
3.000000000000000
  3
TXT
  4
BIGFONT
  0
STYLE
  5
25C
100
AcDbSymbolTableRecord
100
AcDbTextStyleTableRecord
  2
KNJTATE
 70
    68
 40
0.0
 41
1.0
 50
0.0
 71
     0
 42
3.000000000000000
  3
TXT
  4
BIGFONT
  0
ENDTAB
  0
TABLE
  2
VIEW
  5
25D
100
AcDbSymbolTable
 70
     0
  0
ENDTAB
  0
TABLE
  2
UCS
  5
25E
100
AcDbSymbolTable
 70
     0
  0
ENDTAB
  0
TABLE
  2
APPID
  5
25F
100
AcDbSymbolTable
 70
     1
  0
APPID
  5
260
100
AcDbSymbolTableRecord
100
AcDbRegAppTableRecord
  2
ACAD
 70
     0
  0
ENDTAB
  0
TABLE
  2
DIMSTYLE
  5
261
100
AcDbSymbolTable
 70
     2
100
AcDbDimStyleTable
  0
DIMSTYLE
105
262
100
AcDbSymbolTableRecord
100
AcDbDimStyleTableRecord
  2
STANDARD
 70
     0
 41
2.000000
 44
1.500000
 42
0.800000
145
0.661290
140
3.100000
144
1.000000
146
0.645161
340
259
  0
DIMSTYLE
105
263
100
AcDbSymbolTableRecord
100
AcDbDimStyleTableRecord
  2
DXF001
 70
     0
 41
2.000000
 44
1.500000
 42
0.800000
145
0.661290
140
3.100000
144
1.000000
146
0.645161
 77
     1
 73
     0
 74
     0
271
     2
179
     2
275
     0
 78
     8
 79
     2
172
     1
340
259
  0
ENDTAB
  0
TABLE
  2
BLOCK_RECORD
  5
264
100
AcDbSymbolTable
 70
    12
  0
BLOCK_RECORD
  5
265
100
AcDbSymbolTableRecord
100
AcDbBlockTableRecord
  2
*MODEL_SPACE
  0
BLOCK_RECORD
  5
266
100
AcDbSymbolTableRecord
100
AcDbBlockTableRecord
  2
*PAPER_SPACE
  0
BLOCK_RECORD
  5
267
100
AcDbSymbolTableRecord
100
AcDbBlockTableRecord
  2
*PAPER_SPACE0
  0
BLOCK_RECORD
  5
1
100
AcDbSymbolTableRecord
100
AcDbBlockTableRecord
  2
_NONE
  0
BLOCK_RECORD
  5
4
100
AcDbSymbolTableRecord
100
AcDbBlockTableRecord
  2
_CLOSED
  0
BLOCK_RECORD
  5
B
100
AcDbSymbolTableRecord
100
AcDbBlockTableRecord
  2
_DOT
  0
BLOCK_RECORD
  5
13
100
AcDbSymbolTableRecord
100
AcDbBlockTableRecord
  2
_OPEN
  0
BLOCK_RECORD
  5
19
100
AcDbSymbolTableRecord
100
AcDbBlockTableRecord
  2
_ORIGIN
  0
BLOCK_RECORD
  5
1E
100
AcDbSymbolTableRecord
100
AcDbBlockTableRecord
  2
_OPEN30
  0
BLOCK_RECORD
  5
24
100
AcDbSymbolTableRecord
100
AcDbBlockTableRecord
  2
_BOXFILLED
  0
BLOCK_RECORD
  5
29
100
AcDbSymbolTableRecord
100
AcDbBlockTableRecord
  2
_BOXBLANK
  0
BLOCK_RECORD
  5
31
100
AcDbSymbolTableRecord
100
AcDbBlockTableRecord
  2
_OBLIQUE
  0
BLOCK_RECORD
  5
35
100
AcDbSymbolTableRecord
100
AcDbBlockTableRecord
  2
_OPEN90
  0
BLOCK_RECORD
  5
3B
100
AcDbSymbolTableRecord
100
AcDbBlockTableRecord
  2
_CLOSEDBLANK
  0
BLOCK_RECORD
  5
41
100
AcDbSymbolTableRecord
100
AcDbBlockTableRecord
  2
_DOTBLANK
  0
ENDTAB
  0
ENDSEC
  0
SECTION
  2
BLOCKS
  0
BLOCK
  5
268
100
AcDbEntity
  8
0
100
AcDbBlockBegin
  2
*MODEL_SPACE
 70
     0
 10
0.0
 20
0.0
 30
0.0
  3
*MODEL_SPACE
  1

  0
ENDBLK
  5
269
100
AcDbEntity
  8
0
100
AcDbBlockEnd
  0
BLOCK
  5
26A
100
AcDbEntity
  8
0
100
AcDbBlockBegin
  2
*PAPER_SPACE
 70
     0
 10
0.0
 20
0.0
 30
0.0
  3
*PAPER_SPACE
  1

  0
ENDBLK
  5
26B
100
AcDbEntity
  8
0
100
AcDbBlockEnd
  0
BLOCK
  5
26C
100
AcDbEntity
  8
0
100
AcDbBlockBegin
  2
*PAPER_SPACE0
 70
     0
 10
0.0
 20
0.0
 30
0.0
  3
*PAPER_SPACE0
  1

  0
ENDBLK
  5
26D
100
AcDbEntity
  8
0
100
AcDbBlockEnd
  0
BLOCK
  5
2
330
1
100
AcDbEntity
  8
0
100
AcDbBlockBegin
  2
_NONE
 70
     0
 10
0.0
 20
0.0
 30
0.0
  3
_NONE
  1

  0
ENDBLK
  5
3
330
1
100
AcDbEntity
  8
0
100
AcDbBlockEnd
  0
BLOCK
  5
5
330
4
100
AcDbEntity
  8
0
100
AcDbBlockBegin
  2
_CLOSED
 70
     0
 10
0.0
 20
0.0
 30
0.0
  3
_CLOSED
  1

  0
LINE
  5
6
330
4
100
AcDbEntity
  8
0
  6
BYBLOCK
 62
     0
370
    -2
100
AcDbLine
 10
-1.0
 20
0.166667
 30
0.0
 11
0.0
 21
0.0
 31
0.0
  0
LINE
  5
7
330
4
100
AcDbEntity
  8
0
  6
BYBLOCK
 62
     0
370
    -2
100
AcDbLine
 10
0.0
 20
0.0
 30
0.0
 11
-1.0
 21
-0.166667
 31
0.0
  0
LINE
  5
8
330
4
100
AcDbEntity
  8
0
  6
BYBLOCK
 62
     0
370
    -2
100
AcDbLine
 10
-1.0
 20
0.166667
 30
0.0
 11
-1.0
 21
-0.166667
 31
0.0
  0
LINE
  5
9
330
4
100
AcDbEntity
  8
0
  6
BYBLOCK
 62
     0
370
    -2
100
AcDbLine
 10
0.0
 20
0.0
 30
0.0
 11
-1.0
 21
0.0
 31
0.0
  0
ENDBLK
  5
A
330
4
100
AcDbEntity
  8
0
100
AcDbBlockEnd
  0
BLOCK
  5
C
330
B
100
AcDbEntity
  8
0
100
AcDbBlockBegin
  2
_DOT
 70
     0
 10
0.0
 20
0.0
 30
0.0
  3
_DOT
  1

  0
POLYLINE
  5
D
330
B
100
AcDbEntity
  8
0
  6
BYBLOCK
 62
     0
370
    -2
100
AcDb2dPolyline
 66
     1
 10
0.0
 20
0.0
 30
0.0
 70
     1
 40
0.5
 41
0.5
  0
VERTEX
  5
E
330
B
100
AcDbEntity
  8
0
  6
BYBLOCK
 62
     0
370
    -2
100
AcDbVertex
100
AcDb2dVertex
 10
-0.25
 20
0.0
 30
0.0
 42
1.0
  0
VERTEX
  5
F
330
B
100
AcDbEntity
  8
0
  6
BYBLOCK
 62
     0
370
    -2
100
AcDbVertex
100
AcDb2dVertex
 10
0.25
 20
0.0
 30
0.0
 42
1.0
  0
SEQEND
  5
10
330
B
100
AcDbEntity
  8
0
  6
BYBLOCK
 62
     0
370
    -2
  0
LINE
  5
11
330
B
100
AcDbEntity
  8
0
  6
BYBLOCK
 62
     0
370
    -2
100
AcDbLine
 10
-0.5
 20
0.0
 30
0.0
 11
-1.0
 21
0.0
 31
0.0
  0
ENDBLK
  5
12
330
B
100
AcDbEntity
  8
0
100
AcDbBlockEnd
  0
BLOCK
  5
14
330
13
100
AcDbEntity
  8
0
100
AcDbBlockBegin
  2
_OPEN
 70
     0
 10
0.0
 20
0.0
 30
0.0
  3
_OPEN
  1

  0
LINE
  5
15
330
13
100
AcDbEntity
  8
0
  6
BYBLOCK
 62
     0
370
    -2
100
AcDbLine
 10
-1.0
 20
0.166667
 30
0.0
 11
0.0
 21
0.0
 31
0.0
  0
LINE
  5
16
330
13
100
AcDbEntity
  8
0
  6
BYBLOCK
 62
     0
370
    -2
100
AcDbLine
 10
0.0
 20
0.0
 30
0.0
 11
-1.0
 21
-0.166667
 31
0.0
  0
LINE
  5
17
330
13
100
AcDbEntity
  8
0
  6
BYBLOCK
 62
     0
370
    -2
100
AcDbLine
 10
0.0
 20
0.0
 30
0.0
 11
-1.0
 21
0.0
 31
0.0
  0
ENDBLK
  5
18
330
13
100
AcDbEntity
  8
0
100
AcDbBlockEnd
  0
BLOCK
  5
1A
330
19
100
AcDbEntity
  8
0
100
AcDbBlockBegin
  2
_ORIGIN
 70
     0
 10
0.0
 20
0.0
 30
0.0
  3
_ORIGIN
  1

  0
CIRCLE
  5
1B
330
19
100
AcDbEntity
  8
0
  6
BYBLOCK
 62
     0
370
    -2
100
AcDbCircle
 10
0.0
 20
0.0
 30
0.0
 40
0.5
  0
LINE
  5
1C
330
19
100
AcDbEntity
  8
0
  6
BYBLOCK
 62
     0
370
    -2
100
AcDbLine
 10
0.0
 20
0.0
 30
0.0
 11
-1.0
 21
0.0
 31
0.0
  0
ENDBLK
  5
1D
330
19
100
AcDbEntity
  8
0
100
AcDbBlockEnd
  0
BLOCK
  5
1F
330
1E
100
AcDbEntity
  8
0
100
AcDbBlockBegin
  2
_OPEN30
 70
     0
 10
0.0
 20
0.0
 30
0.0
  3
_OPEN30
  1

  0
LINE
  5
20
330
1E
100
AcDbEntity
  8
0
  6
BYBLOCK
 62
     0
370
    -2
100
AcDbLine
 10
-1.0
 20
0.267949
 30
0.0
 11
0.0
 21
0.0
 31
0.0
  0
LINE
  5
21
330
1E
100
AcDbEntity
  8
0
  6
BYBLOCK
 62
     0
370
    -2
100
AcDbLine
 10
0.0
 20
0.0
 30
0.0
 11
-1.0
 21
-0.267949
 31
0.0
  0
LINE
  5
22
330
1E
100
AcDbEntity
  8
0
  6
BYBLOCK
 62
     0
370
    -2
100
AcDbLine
 10
0.0
 20
0.0
 30
0.0
 11
-1.0
 21
0.0
 31
0.0
  0
ENDBLK
  5
23
330
1E
100
AcDbEntity
  8
0
100
AcDbBlockEnd
  0
BLOCK
  5
25
330
24
100
AcDbEntity
  8
0
100
AcDbBlockBegin
  2
_BOXFILLED
 70
     0
 10
0.0
 20
0.0
 30
0.0
  3
_BOXFILLED
  1

  0
SOLID
  5
26
330
24
100
AcDbEntity
  8
0
  6
BYBLOCK
 62
     0
370
    -2
100
AcDbTrace
 10
-0.5
 20
0.5
 30
0.0
 11
0.5
 21
0.5
 31
0.0
 12
-0.5
 22
-0.5
 32
0.0
 13
0.5
 23
-0.5
 33
0.0
  0
LINE
  5
27
330
24
100
AcDbEntity
  8
0
  6
BYBLOCK
 62
     0
370
    -2
100
AcDbLine
 10
-0.5
 20
0.0
 30
0.0
 11
-1.0
 21
0.0
 31
0.0
  0
ENDBLK
  5
28
330
24
100
AcDbEntity
  8
0
100
AcDbBlockEnd
  0
BLOCK
  5
2A
330
29
100
AcDbEntity
  8
0
100
AcDbBlockBegin
  2
_BOXBLANK
 70
     0
 10
0.0
 20
0.0
 30
0.0
  3
_BOXBLANK
  1

  0
LINE
  5
2B
330
29
100
AcDbEntity
  8
0
  6
BYBLOCK
 62
     0
370
    -2
100
AcDbLine
 10
-0.5
 20
-0.5
 30
0.0
 11
0.5
 21
-0.5
 31
0.0
  0
LINE
  5
2C
330
29
100
AcDbEntity
  8
0
  6
BYBLOCK
 62
     0
370
    -2
100
AcDbLine
 10
0.5
 20
-0.5
 30
0.0
 11
0.5
 21
0.5
 31
0.0
  0
LINE
  5
2D
330
29
100
AcDbEntity
  8
0
  6
BYBLOCK
 62
     0
370
    -2
100
AcDbLine
 10
0.5
 20
0.5
 30
0.0
 11
-0.5
 21
0.5
 31
0.0
  0
LINE
  5
2E
330
29
100
AcDbEntity
  8
0
  6
BYBLOCK
 62
     0
370
    -2
100
AcDbLine
 10
-0.5
 20
0.5
 30
0.0
 11
-0.5
 21
-0.5
 31
0.0
  0
LINE
  5
2F
330
29
100
AcDbEntity
  8
0
  6
BYBLOCK
 62
     0
370
    -2
100
AcDbLine
 10
-0.5
 20
0.0
 30
0.0
 11
-1.0
 21
0.0
 31
0.0
  0
ENDBLK
  5
30
330
29
100
AcDbEntity
  8
0
100
AcDbBlockEnd
  0
BLOCK
  5
32
330
31
100
AcDbEntity
  8
0
100
AcDbBlockBegin
  2
_OBLIQUE
 70
     0
 10
0.0
 20
0.0
 30
0.0
  3
_OBLIQUE
  1

  0
LINE
  5
33
330
31
100
AcDbEntity
  8
0
  6
BYBLOCK
 62
     0
370
    -2
100
AcDbLine
 10
-0.5
 20
-0.5
 30
0.0
 11
0.5
 21
0.5
 31
0.0
  0
ENDBLK
  5
34
330
31
100
AcDbEntity
  8
0
100
AcDbBlockEnd
  0
BLOCK
  5
36
330
35
100
AcDbEntity
  8
0
100
AcDbBlockBegin
  2
_OPEN90
 70
     0
 10
0.0
 20
0.0
 30
0.0
  3
_OPEN90
  1

  0
LINE
  5
37
330
35
100
AcDbEntity
  8
0
  6
BYBLOCK
 62
     0
370
    -2
100
AcDbLine
 10
-0.5
 20
0.5
 30
0.0
 11
0.0
 21
0.0
 31
0.0
  0
LINE
  5
38
330
35
100
AcDbEntity
  8
0
  6
BYBLOCK
 62
     0
370
    -2
100
AcDbLine
 10
0.0
 20
0.0
 30
0.0
 11
-0.5
 21
-0.5
 31
0.0
  0
LINE
  5
39
330
35
100
AcDbEntity
  8
0
  6
BYBLOCK
 62
     0
370
    -2
100
AcDbLine
 10
0.0
 20
0.0
 30
0.0
 11
-1.0
 21
0.0
 31
0.0
  0
ENDBLK
  5
3A
330
35
100
AcDbEntity
  8
0
100
AcDbBlockEnd
  0
BLOCK
  5
3C
330
3B
100
AcDbEntity
  8
0
100
AcDbBlockBegin
  2
_CLOSEDBLANK
 70
     0
 10
0.0
 20
0.0
 30
0.0
  3
_CLOSEDBLANK
  1

  0
LINE
  5
3D
330
3B
100
AcDbEntity
  8
0
  6
BYBLOCK
 62
     0
370
    -2
100
AcDbLine
 10
-1.0
 20
0.1666666666666666
 30
0.0
 11
0.0
 21
0.0
 31
0.0
  0
LINE
  5
3E
330
3B
100
AcDbEntity
  8
0
  6
BYBLOCK
 62
     0
370
    -2
100
AcDbLine
 10
0.0
 20
0.0
 30
0.0
 11
-1.0
 21
-0.1666666666666666
 31
0.0
  0
LINE
  5
3F
330
3B
100
AcDbEntity
  8
0
  6
BYBLOCK
 62
     0
370
    -2
100
AcDbLine
 10
-1.0
 20
0.1666666666666666
 30
0.0
 11
-1.0
 21
-0.1666666666666666
 31
0.0
  0
ENDBLK
  5
40
330
3B
100
AcDbEntity
  8
0
100
AcDbBlockEnd
  0
BLOCK
  5
42
330
41
100
AcDbEntity
  8
0
100
AcDbBlockBegin
  2
_DOTBLANK
 70
     0
 10
0.0
 20
0.0
 30
0.0
  3
_DOTBLANK
  1

  0
CIRCLE
  5
43
330
41
100
AcDbEntity
  8
0
  6
BYBLOCK
 62
     0
370
    -2
100
AcDbCircle
 10
0.0
 20
0.0
 30
0.0
 40
0.5
  0
LINE
  5
44
330
41
100
AcDbEntity
  8
0
  6
BYBLOCK
 62
     0
370
    -2
100
AcDbLine
 10
-0.5
 20
0.0
 30
0.0
 11
-1.0
 21
0.0
 31
0.0
  0
ENDBLK
  5
45
330
41
100
AcDbEntity
  8
0
100
AcDbBlockEnd
  0
ENDSEC
  0
SECTION
  2
ENTITIES
  0
LINE
  5
46
100
AcDbEntity
  8
4
  6
CENTER
 62
1
100
AcDbLine
 10
154.9323005376080
 20
216.4887788068466
 30
0.000000000000000
 11
202.1892455376080
 21
216.4887788068466
 31
0.000000000000000
  0
LINE
  5
47
100
AcDbEntity
  8
4
  6
CENTER
 62
1
100
AcDbLine
 10
157.6461595376080
 20
140.5263788068467
 30
0.000000000000000
 11
201.9475595376079
 21
140.5263788068467
 31
0.000000000000000
  0
LINE
  5
48
100
AcDbEntity
  8
1
  6
CONTINUOUS
 62
7
100
AcDbLine
 10
181.1319595376079
 20
140.5263788068467
 30
0.000000000000000
 11
181.1319595376079
 21
130.0634688068467
 31
0.000000000000000
  0
LINE
  5
49
100
AcDbEntity
  8
1
  6
CONTINUOUS
 62
7
100
AcDbLine
 10
192.7819595376077
 20
130.3492278068467
 30
0.000000000000000
 11
192.7819595376077
 21
149.5540788068464
 31
0.000000000000000
  0
ARC
  5
4A
100
AcDbEntity
  8
1
  6
CONTINUOUS
 62
7
100
AcDbCircle
 10
154.6319595376079
 20
134.0960188068464
 30
0.000000000000000
 40
10.00000000000000
100
AcDbArc
 50
0.000000000000000
 51
44.99999999999976
  0
ARC
  5
4B
100
AcDbEntity
  8
5
  6
PHANTOM
 62
6
100
AcDbCircle
 10
32.84695953760798
 20
140.5263788068467
 30
0.000000000000000
 40
9.550000000000001
100
AcDbArc
 50
90.00000000000000
 51
270.0000000000000
  0
LINE
  5
4C
100
AcDbEntity
  8
1
  6
CONTINUOUS
 62
7
100
AcDbLine
 10
169.1319595376079
 20
161.5263788068467
 30
0.000000000000000
 11
169.1319595376079
 21
47.52637880684671
 31
0.000000000000000
  0
LINE
  5
4D
100
AcDbEntity
  8
1
  6
CONTINUOUS
 62
7
100
AcDbLine
 10
42.03195953760803
 20
140.1615788068466
 30
0.000000000000000
 11
42.03195953760803
 21
79.02637880684676
 31
0.000000000000000
  0
LINE
  5
4E
100
AcDbEntity
  8
1
  6
CONTINUOUS
 62
7
100
AcDbLine
 10
22.93195953760800
 20
140.1615788068466
 30
0.000000000000000
 11
22.93195953760800
 21
79.02637880684676
 31
0.000000000000000
  0
LINE
  5
4F
100
AcDbEntity
  8
1
  6
CONTINUOUS
 62
7
100
AcDbLine
 10
197.8319595376079
 20
145.5263788068466
 30
0.000000000000000
 11
197.8319595376079
 21
135.5263788068466
 31
0.000000000000000
  0
LINE
  5
50
100
AcDbEntity
  8
2
  6
CONTINUOUS
 62
4
100
AcDbLine
 10
197.8319595376079
 20
139.8694788068466
 30
0.000000000000000
 11
194.8319595376079
 21
135.5263788068466
 31
0.000000000000000
  0
LINE
  5
51
100
AcDbEntity
  8
2
  6
CONTINUOUS
 62
4
100
AcDbLine
 10
194.8319595376078
 20
139.8694788068467
 30
0.000000000000000
 11
197.8319595376078
 21
135.5263788068466
 31
0.000000000000000
  0
LINE
  5
52
100
AcDbEntity
  8
1
  6
CONTINUOUS
 62
7
100
AcDbLine
 10
194.8319595376079
 20
148.8263788068464
 30
0.000000000000000
 11
194.8319595376079
 21
129.2763788068466
 31
0.000000000000000
  0
LINE
  5
53
100
AcDbEntity
  8
1
  6
CONTINUOUS
 62
7
100
AcDbLine
 10
192.8319595376079
 20
147.9741788068467
 30
0.000000000000000
 11
192.8319595376079
 21
129.2763788068466
 31
0.000000000000000
  0
LINE
  5
54
100
AcDbEntity
  8
5
  6
PHANTOM
 62
6
100
AcDbLine
 10
94.98195953760795
 20
131.9763788068467
 30
0.000000000000000
 11
94.98195953760795
 21
149.0763788068467
 31
0.000000000000000
  0
LINE
  5
55
100
AcDbEntity
  8
5
  6
PHANTOM
 62
6
100
AcDbLine
 10
161.4030595376078
 20
139.1613788068467
 30
0.000000000000000
 11
122.4629595376078
 21
100.2212788068467
 31
0.000000000000000
  0
LINE
  5
56
100
AcDbEntity
  8
1
  6
CONTINUOUS
 62
7
100
AcDbLine
 10
22.83195953760798
 20
140.5263788068467
 30
0.000000000000000
 11
22.83195953760798
 21
68.52637880684675
 31
0.000000000000000
  0
LINE
  5
57
100
AcDbEntity
  8
1
  6
CONTINUOUS
 62
7
100
AcDbLine
 10
42.13195953760805
 20
140.5263788068467
 30
0.000000000000000
 11
42.13195953760805
 21
68.52637880684675
 31
0.000000000000000
  0
LINE
  5
58
100
AcDbEntity
  8
4
  6
CENTER
 62
1
100
AcDbLine
 10
32.48195953760796
 20
167.4776788068466
 30
0.000000000000000
 11
32.48195953760796
 21
42.15497880684672
 31
0.000000000000000
  0
LINE
  5
59
100
AcDbEntity
  8
1
  6
CONTINUOUS
 62
7
100
AcDbLine
 10
43.48195953760796
 20
156.5263788068466
 30
0.000000000000000
 11
43.48195953760796
 21
52.52637880684672
 31
0.000000000000000
  0
LINE
  5
5A
100
AcDbEntity
  8
1
  6
CONTINUOUS
 62
7
100
AcDbLine
 10
21.48195953760796
 20
156.5263788068466
 30
0.000000000000000
 11
21.48195953760796
 21
52.52637880684672
 31
0.000000000000000
  0
LINE
  5
5B
100
AcDbEntity
  8
1
  6
CONTINUOUS
 62
7
100
AcDbLine
 10
166.6319595376079
 20
161.5263788068467
 30
0.000000000000000
 11
166.6319595376079
 21
47.52637880684671
 31
0.000000000000000
  0
LINE
  5
5C
100
AcDbEntity
  8
1
  6
CONTINUOUS
 62
7
100
AcDbLine
 10
168.1319595376079
 20
161.5263788068467
 30
0.000000000000000
 11
168.1319595376079
 21
47.52637880684671
 31
0.000000000000000
  0
LINE
  5
5D
100
AcDbEntity
  8
1
  6
CONTINUOUS
 62
7
100
AcDbLine
 10
165.1319595376079
 20
158.5263788068466
 30
0.000000000000000
 11
165.1319595376079
 21
50.52637880684674
 31
0.000000000000000
  0
LINE
  5
5E
100
AcDbEntity
  8
1
  6
CONTINUOUS
 62
7
100
AcDbLine
 10
18.48195953760796
 20
156.5263788068466
 30
0.000000000000000
 11
18.48195953760796
 21
52.52637880684672
 31
0.000000000000000
  0
LINE
  5
5F
100
AcDbEntity
  8
1
  6
CONTINUOUS
 62
7
100
AcDbLine
 10
46.48195953760796
 20
156.5263788068466
 30
0.000000000000000
 11
46.48195953760796
 21
52.52637880684672
 31
0.000000000000000
  0
LINE
  5
60
100
AcDbEntity
  8
5
  6
PHANTOM
 62
6
100
AcDbLine
 10
32.84695953760798
 20
130.9763788068467
 30
0.000000000000000
 11
93.98195953760795
 21
130.9763788068467
 31
0.000000000000000
  0
MTEXT
  5
61
100
AcDbEntity
  8
7
  6
CONTINUOUS
 62
3
100
AcDbMText
 10
10.00000153760800
 20
17.99999980684674
 30
0.000000000000000
 40
3.000000000000000
 41
0.000000000000000
 44
0.6739999771118164
 71
     7
 72
     1
  1
{\H0.94x;{TYPE No.THA-405D-2K(No.200)}}
 11
1.000000000000000
 21
0.000000000000000
 31
0.000000000000000
  7
STANDARD
  0
ARC
  5
62
100
AcDbEntity
  8
1
  6
CONTINUOUS
 62
7
100
AcDbCircle
 10
41.48195953760796
 20
52.52637880684672
 30
0.000000000000000
 40
2.000000000000000
100
AcDbArc
 50
270.0000000000000
 51
360.0000000000000
  0
ARC
  5
63
100
AcDbEntity
  8
1
  6
CONTINUOUS
 62
7
100
AcDbCircle
 10
23.48195953760796
 20
52.52637880684672
 30
0.000000000000000
 40
2.000000000000000
100
AcDbArc
 50
180.0000000000000
 51
270.0000000000000
  0
ARC
  5
64
100
AcDbEntity
  8
1
  6
CONTINUOUS
 62
7
100
AcDbCircle
 10
41.48195953760796
 20
52.52637880684672
 30
0.000000000000000
 40
5.000000000000000
100
AcDbArc
 50
270.0000000000000
 51
360.0000000000000
  0
ARC
  5
65
100
AcDbEntity
  8
1
  6
CONTINUOUS
 62
7
100
AcDbCircle
 10
23.48195953760796
 20
52.52637880684672
 30
0.000000000000000
 40
5.000000000000000
100
AcDbArc
 50
180.0000000000000
 51
270.0000000000000
  0
LINE
  5
66
100
AcDbEntity
  8
1
  6
CONTINUOUS
 62
7
100
AcDbLine
 10
23.48195953760796
 20
50.52637880684674
 30
0.000000000000000
 11
41.48195953760796
 21
50.52637880684674
 31
0.000000000000000
  0
LINE
  5
67
100
AcDbEntity
  8
1
  6
CONTINUOUS
 62
7
100
AcDbLine
 10
23.48195953760796
 20
47.52637880684671
 30
0.000000000000000
 11
41.48195953760796
 21
47.52637880684671
 31
0.000000000000000
  0
CIRCLE
  5
68
100
AcDbEntity
  8
1
  6
CONTINUOUS
 62
7
100
AcDbCircle
 10
32.48195953760796
 20
68.12637880684674
 30
0.000000000000000
 40
7.650000000000000
  0
ARC
  5
69
100
AcDbEntity
  8
1
  6
CONTINUOUS
 62
7
100
AcDbCircle
 10
32.48195953760796
 20
68.52637880684675
 30
0.000000000000000
 40
9.650000000000000
100
AcDbArc
 50
180.0000000000000
 51
360.0000000000000
  0
LINE
  5
6A
100
AcDbEntity
  8
4
  6
CENTER
 62
1
100
AcDbLine
 10
23.83195953760798
 20
68.52637880684675
 30
0.000000000000000
 11
41.06995953760804
 21
68.52637880684675
 31
0.000000000000000
  0
LINE
  5
6B
100
AcDbEntity
  8
1
  6
CONTINUOUS
 62
7
100
AcDbLine
 10
33.53195953760803
 20
71.62637880684673
 30
0.000000000000000
 11
33.53195953760803
 21
64.62637880684674
 31
0.000000000000000
  0
LINE
  5
6C
100
AcDbEntity
  8
1
  6
CONTINUOUS
 62
7
100
AcDbLine
 10
31.43195953760800
 20
71.62637880684673
 30
0.000000000000000
 11
31.43195953760800
 21
64.62637880684674
 31
0.000000000000000
  0
LINE
  5
6D
100
AcDbEntity
  8
1
  6
CONTINUOUS
 62
7
100
AcDbLine
 10
31.43195953760800
 20
64.62637880684674
 30
0.000000000000000
 11
33.53195953760803
 21
64.62637880684674
 31
0.000000000000000
  0
LINE
  5
6E
100
AcDbEntity
  8
1
  6
CONTINUOUS
 62
7
100
AcDbLine
 10
31.43195953760800
 20
71.62637880684673
 30
0.000000000000000
 11
33.53195953760803
 21
71.62637880684673
 31
0.000000000000000
  0
LINE
  5
6F
100
AcDbEntity
  8
1
  6
CONTINUOUS
 62
7
100
AcDbLine
 10
22.83195953760798
 20
77.52637880684675
 30
0.000000000000000
 11
42.13195953760805
 21
77.52637880684675
 31
0.000000000000000
  0
LINE
  5
70
100
AcDbEntity
  8
1
  6
CONTINUOUS
 62
7
100
AcDbLine
 10
23.93195953760800
 20
78.02637880684675
 30
0.000000000000000
 11
41.03195953760803
 21
78.02637880684675
 31
0.000000000000000
  0
ARC
  5
71
100
AcDbEntity
  8
1
  6
CONTINUOUS
 62
7
100
AcDbCircle
 10
23.93195953760800
 20
79.02637880684676
 30
0.000000000000000
 40
1.000000000000000
100
AcDbArc
 50
180.0000000000000
 51
270.0000000000000
  0
ARC
  5
72
100
AcDbEntity
  8
1
  6
CONTINUOUS
 62
7
100
AcDbCircle
 10
41.03195953760803
 20
79.02637880684676
 30
0.000000000000000
 40
1.000000000000000
100
AcDbArc
 50
270.0000000000000
 51
360.0000000000000
  0
LINE
  5
73
100
AcDbEntity
  8
1
  6
CONTINUOUS
 62
7
100
AcDbLine
 10
166.6319595376079
 20
47.52637880684671
 30
0.000000000000000
 11
169.1319595376079
 21
47.52637880684671
 31
0.000000000000000
  0
LINE
  5
74
100
AcDbEntity
  8
1
  6
CONTINUOUS
 62
7
100
AcDbLine
 10
165.1319595376079
 20
50.52637880684672
 30
0.000000000000000
 11
166.6319595376079
 21
47.52637880684669
 31
0.000000000000000
  0
LINE
  5
75
100
AcDbEntity
  8
5
  6
PHANTOM
 62
6
100
AcDbLine
 10
159.5819595376077
 20
130.9763788068467
 30
0.000000000000000
 11
134.4837595376078
 21
105.8781788068467
 31
0.000000000000000
  0
LINE
  5
76
100
AcDbEntity
  8
5
  6
PHANTOM
 62
6
100
AcDbLine
 10
124.4645595376080
 20
96.96577880684671
 30
0.000000000000000
 11
136.6050595376079
 21
93.15017880684672
 31
0.000000000000000
  0
LINE
  5
77
100
AcDbEntity
  8
5
  6
PHANTOM
 62
6
100
AcDbLine
 10
134.4837595376078
 20
100.2212788068467
 30
0.000000000000000
 11
140.1405595376080
 21
94.56447880684675
 31
0.000000000000000
  0
ARC
  5
78
100
AcDbEntity
  8
5
  6
PHANTOM
 62
6
100
AcDbCircle
 10
93.98195953760795
 20
131.9763788068467
 30
0.000000000000000
 40
1.000000000000000
100
AcDbArc
 50
270.0000000000000
 51
360.0000000000000
  0
ARC
  5
79
100
AcDbEntity
  8
5
  6
PHANTOM
 62
6
100
AcDbCircle
 10
137.3121595376079
 20
103.0496788068466
 30
0.000000000000000
 40
4.000000000000000
100
AcDbArc
 50
135.0000000000002
 51
224.9999999999997
  0
ARC
  5
7A
100
AcDbEntity
  8
5
  6
PHANTOM
 62
6
100
AcDbCircle
 10
123.1700595376080
 20
99.51417880684679
 30
0.000000000000000
 40
1.000000000000000
100
AcDbArc
 50
135.0000000000002
 51
224.9999999999997
  0
ARC
  5
7B
100
AcDbEntity
  8
5
  6
PHANTOM
 62
6
100
AcDbCircle
 10
124.7644595376079
 20
97.91977880684676
 30
0.000000000000000
 40
1.000000000000000
100
AcDbArc
 50
224.9999999999997
 51
252.5529999999992
  0
LINE
  5
7C
100
AcDbEntity
  8
5
  6
PHANTOM
 62
6
100
AcDbLine
 10
122.4629595376078
 20
98.80707880684673
 30
0.000000000000000
 11
124.0572595376080
 21
97.21267880684677
 31
0.000000000000000
  0
ARC
  5
7D
100
AcDbEntity
  8
5
  6
PHANTOM
 62
6
100
AcDbCircle
 10
138.7263595376080
 20
93.15017880684674
 30
0.000000000000000
 40
2.000000000000000
100
AcDbArc
 50
315.0000000000003
 51
404.9999999999998
  0
ARC
  5
7E
100
AcDbEntity
  8
1
  6
CONTINUOUS
 62
7
100
AcDbCircle
 10
192.1319595376079
 20
93.69497880684673
 30
0.000000000000000
 40
1.000000000000000
100
AcDbArc
 50
0.000000000000000
 51
88.59490000000211
  0
LINE
  5
7F
100
AcDbEntity
  8
1
  6
CONTINUOUS
 62
7
100
AcDbLine
 10
164.6319595376079
 20
134.0960188068464
 30
0.000000000000000
 11
164.6319595376079
 21
79.02637880684676
 31
0.000000000000000
  0
LINE
  5
80
100
AcDbEntity
  8
5
  6
PHANTOM
 62
6
100
AcDbLine
 10
140.1405595376080
 20
91.73597880684673
 30
0.000000000000000
 11
138.7263595376080
 21
90.32177880684679
 31
0.000000000000000
  0
ARC
  5
81
100
AcDbEntity
  8
5
  6
PHANTOM
 62
6
100
AcDbCircle
 10
137.6656595376080
 20
91.38247880684678
 30
0.000000000000000
 40
1.500000000000000
100
AcDbArc
 50
224.9999999999997
 51
315.0000000000003
  0
LINE
  5
82
100
AcDbEntity
  8
5
  6
PHANTOM
 62
6
100
AcDbLine
 10
136.6050595376079
 20
93.15017880684674
 30
0.000000000000000
 11
136.6050595376079
 21
90.32177880684677
 31
0.000000000000000
  0
ARC
  5
83
100
AcDbEntity
  8
1
  6
CONTINUOUS
 62
7
100
AcDbCircle
 10
165.6319595376079
 20
79.02637880684676
 30
0.000000000000000
 40
1.000000000000000
100
AcDbArc
 50
180.0000000000000
 51
239.9999999999999
  0
LINE
  5
84
100
AcDbEntity
  8
1
  6
CONTINUOUS
 62
7
100
AcDbLine
 10
193.1319595376079
 20
93.69497880684673
 30
0.000000000000000
 11
193.1319595376079
 21
58.61537880684675
 31
0.000000000000000
  0
LINE
  5
85
100
AcDbEntity
  8
1
  6
CONTINUOUS
 62
7
100
AcDbLine
 10
169.1319595376079
 20
57.05087880684675
 30
0.000000000000000
 11
192.1564595376079
 21
57.61567880684674
 31
0.000000000000000
  0
LINE
  5
86
100
AcDbEntity
  8
1
  6
CONTINUOUS
 62
7
100
AcDbLine
 10
170.1319595376079
 20
67.85077880684673
 30
0.000000000000000
 11
170.1319595376079
 21
58.05117880684672
 31
0.000000000000000
  0
ARC
  5
87
100
AcDbEntity
  8
1
  6
CONTINUOUS
 62
7
100
AcDbCircle
 10
169.1319595376079
 20
58.05117880684672
 30
0.000000000000000
 40
1.000000000000000
100
AcDbArc
 50
270.0000000000000
 51
360.0000000000000
  0
ARC
  5
88
100
AcDbEntity
  8
1
  6
CONTINUOUS
 62
7
100
AcDbCircle
 10
192.1319595376079
 20
58.61537880684675
 30
0.000000000000000
 40
1.000000000000000
100
AcDbArc
 50
271.4050000000016
 51
360.0000000000000
  0
LINE
  5
89
100
AcDbEntity
  8
5
  6
PHANTOM
 62
6
100
AcDbLine
 10
159.5819595376077
 20
130.9763788068467
 30
0.000000000000000
 11
165.1319595376079
 21
130.9763788068467
 31
0.000000000000000
  0
LINE
  5
8A
100
AcDbEntity
  8
1
  6
CONTINUOUS
 62
7
100
AcDbLine
 10
179.1319595376079
 20
116.5263788068467
 30
0.000000000000000
 11
179.1319595376079
 21
107.5263788068467
 31
0.000000000000000
  0
LINE
  5
8B
100
AcDbEntity
  8
1
  6
CONTINUOUS
 62
7
100
AcDbLine
 10
178.6319595376079
 20
128.5384888068467
 30
0.000000000000000
 11
178.6319595376079
 21
95.51427880684678
 31
0.000000000000000
  0
LINE
  5
8C
100
AcDbEntity
  8
1
  6
CONTINUOUS
 62
7
100
AcDbLine
 10
179.1196995376079
 20
95.01437880684675
 30
0.000000000000000
 11
192.1564595376079
 21
94.69467880684672
 31
0.000000000000000
  0
ARC
  5
8D
100
AcDbEntity
  8
1
  6
CONTINUOUS
 62
7
100
AcDbCircle
 10
179.1319595376079
 20
95.51427880684678
 30
0.000000000000000
 40
0.5000000000000000
100
AcDbArc
 50
180.0000000000000
 51
268.5949999999983
  0
LINE
  5
8E
100
AcDbEntity
  8
4
  6
CENTER
 62
1
100
AcDbLine
 10
174.7355695376080
 20
112.0263788068467
 30
0.000000000000000
 11
182.4200055376080
 21
112.0263788068467
 31
0.000000000000000
  0
LINE
  5
8F
100
AcDbEntity
  8
1
  6
CONTINUOUS
 62
7
100
AcDbLine
 10
178.6319595376079
 20
107.5263788068467
 30
0.000000000000000
 11
179.1319595376079
 21
107.5263788068467
 31
0.000000000000000
  0
LINE
  5
90
100
AcDbEntity
  8
1
  6
CONTINUOUS
 62
7
100
AcDbLine
 10
179.1196995376079
 20
129.0383388068464
 30
0.000000000000000
 11
191.8064805376079
 21
129.3495288068464
 31
0.000000000000000
  0
LINE
  5
91
100
AcDbEntity
  8
1
  6
CONTINUOUS
 62
7
100
AcDbLine
 10
178.6319595376079
 20
116.5263788068467
 30
0.000000000000000
 11
179.1319595376079
 21
116.5263788068467
 31
0.000000000000000
  0
ARC
  5
92
100
AcDbEntity
  8
1
  6
CONTINUOUS
 62
7
100
AcDbCircle
 10
179.1319595376079
 20
128.5384888068467
 30
0.000000000000000
 40
0.5000000000000000
100
AcDbArc
 50
91.40509999999790
 51
180.0000000000000
  0
ARC
  5
93
100
AcDbEntity
  8
1
  6
CONTINUOUS
 62
7
100
AcDbCircle
 10
180.1319595376079
 20
130.0634688068467
 30
0.000000000000000
 40
1.000000000000000
100
AcDbArc
 50
271.4051079999979
 51
360.0000000000000
  0
LINE
  5
94
100
AcDbEntity
  8
1
  6
CONTINUOUS
 62
7
100
AcDbLine
 10
192.8319595376079
 20
129.2763788068466
 30
0.000000000000000
 11
194.8319595376079
 21
129.2763788068466
 31
0.000000000000000
  0
ARC
  5
95
100
AcDbEntity
  8
1
  6
CONTINUOUS
 62
7
100
AcDbCircle
 10
191.7819595376077
 20
130.3492278068467
 30
0.000000000000000
 40
1.000000000000000
100
AcDbArc
 50
271.4051079999979
 51
360.0000000000000
  0
LINE
  5
96
100
AcDbEntity
  8
1
  6
CONTINUOUS
 62
7
100
AcDbLine
 10
192.8319595376079
 20
134.9013788068465
 30
0.000000000000000
 11
194.8319595376079
 21
134.9013788068465
 31
0.000000000000000
  0
LINE
  5
97
100
AcDbEntity
  8
1
  6
CONTINUOUS
 62
7
100
AcDbLine
 10
192.8319595376079
 20
136.3763788068466
 30
0.000000000000000
 11
194.8319595376079
 21
136.3763788068466
 31
0.000000000000000
  0
LINE
  5
98
100
AcDbEntity
  8
1
  6
CONTINUOUS
 62
7
100
AcDbLine
 10
194.8319595376079
 20
135.5263788068466
 30
0.000000000000000
 11
197.8319595376079
 21
135.5263788068466
 31
0.000000000000000
  0
LINE
  5
99
100
AcDbEntity
  8
5
  6
PHANTOM
 62
6
100
AcDbLine
 10
32.84695953760798
 20
150.0763788068467
 30
0.000000000000000
 11
93.98195953760795
 21
150.0763788068467
 31
0.000000000000000
  0
LINE
  5
9A
100
AcDbEntity
  8
4
  6
CENTER
 62
1
100
AcDbLine
 10
9.007118537607992
 20
140.5263788068467
 30
0.000000000000000
 11
100.1725595376079
 21
140.5263788068467
 31
0.000000000000000
  0
LINE
  5
9B
100
AcDbEntity
  8
1
  6
CONTINUOUS
 62
7
100
AcDbLine
 10
33.22058753760801
 20
228.0493028068466
 30
0.000000000000000
 11
42.68758753760800
 21
220.9493028068466
 31
0.000000000000000
  0
LINE
  5
9C
100
AcDbEntity
  8
1
  6
CONTINUOUS
 62
7
100
AcDbLine
 10
22.02348653760804
 20
221.4531518068466
 30
0.000000000000000
 11
26.09358753760795
 21
227.5583028068466
 31
0.000000000000000
  0
LINE
  5
9D
100
AcDbEntity
  8
1
  6
CONTINUOUS
 62
7
100
AcDbLine
 10
26.92558753760795
 20
227.0033028068467
 30
0.000000000000000
 11
22.85553653760805
 21
220.8982278068466
 31
0.000000000000000
  0
LINE
  5
9E
100
AcDbEntity
  8
1
  6
CONTINUOUS
 62
7
100
AcDbLine
 10
32.68688753760796
 20
222.1670038068466
 30
0.000000000000000
 11
32.68688753760796
 21
220.7893338068467
 31
0.000000000000000
  0
LINE
  5
9F
100
AcDbEntity
  8
1
  6
CONTINUOUS
 62
7
100
AcDbLine
 10
42.68758753760802
 20
219.6993028068466
 30
0.000000000000000
 11
32.62058753760802
 21
227.2493028068466
 31
0.000000000000000
  0
ARC
  5
A0
100
AcDbEntity
  8
1
  6
CONTINUOUS
 62
7
100
AcDbCircle
 10
32.68688753760796
 20
220.4496438068467
 30
0.000000000000000
 40
1.718009999999995
100
AcDbArc
 50
35.54699999999906
 51
144.4620000000011
  0
ARC
  5
A1
100
AcDbEntity
  8
1
  6
CONTINUOUS
 62
7
100
AcDbCircle
 10
41.48195953760796
 20
156.5263788068466
 30
0.000000000000000
 40
2.000000000000000
100
AcDbArc
 50
0.000000000000000
 51
90.00000000000000
  0
ARC
  5
A2
100
AcDbEntity
  8
1
  6
CONTINUOUS
 62
7
100
AcDbCircle
 10
41.48195953760796
 20
156.5263788068466
 30
0.000000000000000
 40
5.000000000000000
100
AcDbArc
 50
0.000000000000000
 51
90.00000000000000
  0
ARC
  5
A3
100
AcDbEntity
  8
1
  6
CONTINUOUS
 62
7
100
AcDbCircle
 10
23.48195953760796
 20
156.5263788068466
 30
0.000000000000000
 40
2.000000000000000
100
AcDbArc
 50
90.00000000000000
 51
180.0000000000000
  0
ARC
  5
A4
100
AcDbEntity
  8
1
  6
CONTINUOUS
 62
7
100
AcDbCircle
 10
23.48195953760796
 20
156.5263788068466
 30
0.000000000000000
 40
5.000000000000000
100
AcDbArc
 50
90.00000000000000
 51
180.0000000000000
  0
ARC
  5
A5
100
AcDbEntity
  8
1
  6
CONTINUOUS
 62
7
100
AcDbCircle
 10
32.48195953760796
 20
140.1615788068466
 30
0.000000000000000
 40
9.550000000000001
100
AcDbArc
 50
0.000000000000000
 51
180.0000000000000
  0
ARC
  5
A6
100
AcDbEntity
  8
1
  6
CONTINUOUS
 62
7
100
AcDbCircle
 10
32.48195953760796
 20
128.6289388068467
 30
0.000000000000000
 40
15.25619999999999
100
AcDbArc
 50
106.9890000000006
 51
126.6839999999984
  0
ARC
  5
A7
100
AcDbEntity
  8
1
  6
CONTINUOUS
 62
7
100
AcDbCircle
 10
32.48195953760796
 20
140.5263788068467
 30
0.000000000000000
 40
9.650000000000000
100
AcDbArc
 50
0.000000000000000
 51
180.0000000000000
  0
ARC
  5
A8
100
AcDbEntity
  8
1
  6
CONTINUOUS
 62
7
100
AcDbCircle
 10
32.48195953760796
 20
128.6289388068467
 30
0.000000000000000
 40
15.25619999999999
100
AcDbArc
 50
79.51989999999701
 51
102.3140000000011
  0
ARC
  5
A9
100
AcDbEntity
  8
1
  6
CONTINUOUS
 62
7
100
AcDbCircle
 10
32.48195953760796
 20
128.6289388068467
 30
0.000000000000000
 40
15.25619999999999
100
AcDbArc
 50
54.82669999999945
 51
75.07080000000271
  0
LINE
  5
AA
100
AcDbEntity
  8
1
  6
CONTINUOUS
 62
7
100
AcDbLine
 10
23.48195953760796
 20
158.5263788068466
 30
0.000000000000000
 11
41.48195953760796
 21
158.5263788068466
 31
0.000000000000000
  0
LINE
  5
AB
100
AcDbEntity
  8
1
  6
CONTINUOUS
 62
7
100
AcDbLine
 10
23.48195953760796
 20
161.5263788068467
 30
0.000000000000000
 11
41.48195953760796
 21
161.5263788068467
 31
0.000000000000000
  0
LINE
  5
AC
100
AcDbEntity
  8
4
  6
CENTER
 62
1
100
AcDbLine
 10
17.88624453760803
 20
216.4490278068465
 30
0.000000000000000
 11
73.26755553760802
 21
216.4490278068465
 31
0.000000000000000
  0
LINE
  5
AD
100
AcDbEntity
  8
1
  6
CONTINUOUS
 62
7
100
AcDbLine
 10
42.68758753760801
 20
211.9493028068467
 30
0.000000000000000
 11
49.68758753760800
 21
211.9493028068467
 31
0.000000000000000
  0
LINE
  5
AE
100
AcDbEntity
  8
1
  6
CONTINUOUS
 62
7
100
AcDbLine
 10
42.68758753760801
 20
220.9493028068466
 30
0.000000000000000
 11
49.68758753760800
 21
220.9493028068466
 31
0.000000000000000
  0
LINE
  5
AF
100
AcDbEntity
  8
1
  6
CONTINUOUS
 62
7
100
AcDbLine
 10
27.75758753760794
 20
204.4493028068466
 30
0.000000000000000
 11
32.02058753760798
 21
204.4493028068466
 31
0.000000000000000
  0
LINE
  5
B0
100
AcDbEntity
  8
1
  6
CONTINUOUS
 62
7
100
AcDbLine
 10
27.75758753760794
 20
205.4493028068466
 30
0.000000000000000
 11
32.02058753760798
 21
205.4493028068466
 31
0.000000000000000
  0
LINE
  5
B1
100
AcDbEntity
  8
1
  6
CONTINUOUS
 62
7
100
AcDbLine
 10
22.02358753760802
 20
211.4453028068466
 30
0.000000000000000
 11
26.09358753760796
 21
205.3393028068467
 31
0.000000000000000
  0
LINE
  5
B2
100
AcDbEntity
  8
1
  6
CONTINUOUS
 62
7
100
AcDbLine
 10
22.85558753760800
 20
212.0003028068466
 30
0.000000000000000
 11
26.92558753760795
 21
205.8943028068467
 31
0.000000000000000
  0
ARC
  5
B3
100
AcDbEntity
  8
1
  6
CONTINUOUS
 62
7
100
AcDbCircle
 10
27.75758753760794
 20
206.4493028068466
 30
0.000000000000000
 40
1.000000000000000
100
AcDbArc
 50
213.6900000000005
 51
270.0000000000000
  0
ARC
  5
B4
100
AcDbEntity
  8
1
  6
CONTINUOUS
 62
7
100
AcDbCircle
 10
27.75758753760794
 20
206.4493028068466
 30
0.000000000000000
 40
2.000000000000000
100
AcDbArc
 50
213.6900000000005
 51
270.0000000000000
  0
LINE
  5
B5
100
AcDbEntity
  8
1
  6
CONTINUOUS
 62
7
100
AcDbLine
 10
21.68758753760801
 20
220.3437518068467
 30
0.000000000000000
 11
21.68758753760801
 21
212.5543028068465
 31
0.000000000000000
  0
LINE
  5
B6
100
AcDbEntity
  8
1
  6
CONTINUOUS
 62
7
100
AcDbLine
 10
24.68758753760802
 20
219.9493028068466
 30
0.000000000000000
 11
24.68758753760802
 21
212.9493028068466
 31
0.000000000000000
  0
LINE
  5
B7
100
AcDbEntity
  8
1
  6
CONTINUOUS
 62
7
100
AcDbLine
 10
27.18758753760802
 20
219.9493028068466
 30
0.000000000000000
 11
27.18758753760802
 21
212.9493028068466
 31
0.000000000000000
  0
LINE
  5
B8
100
AcDbEntity
  8
1
  6
CONTINUOUS
 62
7
100
AcDbLine
 10
22.68758753760800
 20
220.3435278068466
 30
0.000000000000000
 11
22.68758753760800
 21
212.5543028068465
 31
0.000000000000000
  0
ARC
  5
B9
100
AcDbEntity
  8
1
  6
CONTINUOUS
 62
7
100
AcDbCircle
 10
23.68758753760801
 20
212.5543028068465
 30
0.000000000000000
 40
2.000000000000000
100
AcDbArc
 50
180.0000000000000
 51
213.6900000000005
  0
ARC
  5
BA
100
AcDbEntity
  8
1
  6
CONTINUOUS
 62
7
100
AcDbCircle
 10
23.68758753760801
 20
212.5543028068465
 30
0.000000000000000
 40
1.000000000000000
100
AcDbArc
 50
180.0000000000000
 51
213.6900000000005
  0
LINE
  5
BB
100
AcDbEntity
  8
1
  6
CONTINUOUS
 62
7
100
AcDbLine
 10
25.18758753760801
 20
212.4493028068467
 30
0.000000000000000
 11
26.68758753760802
 21
212.4493028068467
 31
0.000000000000000
  0
ARC
  5
BC
100
AcDbEntity
  8
1
  6
CONTINUOUS
 62
7
100
AcDbCircle
 10
25.18758753760801
 20
212.9493028068466
 30
0.000000000000000
 40
0.5000000000000000
100
AcDbArc
 50
180.0000000000000
 51
270.0000000000000
  0
ARC
  5
BD
100
AcDbEntity
  8
1
  6
CONTINUOUS
 62
7
100
AcDbCircle
 10
26.68758753760802
 20
212.9493028068466
 30
0.000000000000000
 40
0.5000000000000000
100
AcDbArc
 50
270.0000000000000
 51
360.0000000000000
  0
ARC
  5
BE
100
AcDbEntity
  8
1
  6
CONTINUOUS
 62
7
100
AcDbCircle
 10
23.68758753760801
 20
220.3437518068467
 30
0.000000000000000
 40
2.000000000000000
100
AcDbArc
 50
146.3099320000011
 51
180.0000000000000
  0
ARC
  5
BF
100
AcDbEntity
  8
1
  6
CONTINUOUS
 62
7
100
AcDbCircle
 10
23.68758753760801
 20
220.3435278068466
 30
0.000000000000000
 40
1.000000000000000
100
AcDbArc
 50
146.3099320000011
 51
180.0000000000000
  0
LINE
  5
C0
100
AcDbEntity
  8
1
  6
CONTINUOUS
 62
7
100
AcDbLine
 10
25.18758753760801
 20
220.4493028068467
 30
0.000000000000000
 11
26.68758753760802
 21
220.4493028068467
 31
0.000000000000000
  0
ARC
  5
C1
100
AcDbEntity
  8
1
  6
CONTINUOUS
 62
7
100
AcDbCircle
 10
26.68758753760802
 20
219.9493028068466
 30
0.000000000000000
 40
0.5000000000000000
100
AcDbArc
 50
0.000000000000000
 51
90.00000000000000
  0
ARC
  5
C2
100
AcDbEntity
  8
1
  6
CONTINUOUS
 62
7
100
AcDbCircle
 10
25.18758753760801
 20
219.9493028068466
 30
0.000000000000000
 40
0.5000000000000000
100
AcDbArc
 50
90.00000000000000
 51
180.0000000000000
  0
LINE
  5
C3
100
AcDbEntity
  8
1
  6
CONTINUOUS
 62
7
100
AcDbLine
 10
33.22058753760803
 20
204.8493028068467
 30
0.000000000000000
 11
42.68758753760804
 21
211.9493028068468
 31
0.000000000000000
  0
LINE
  5
C4
100
AcDbEntity
  8
1
  6
CONTINUOUS
 62
7
100
AcDbLine
 10
32.62058753760800
 20
205.6493028068466
 30
0.000000000000000
 11
42.68758753760800
 21
213.1993028068466
 31
0.000000000000000
  0
ARC
  5
C5
100
AcDbEntity
  8
1
  6
CONTINUOUS
 62
7
100
AcDbCircle
 10
32.68688753760796
 20
212.4503038068467
 30
0.000000000000000
 40
1.717879999999999
100
AcDbArc
 50
215.5309999999997
 51
324.4620000000010
  0
ARC
  5
C6
100
AcDbEntity
  8
1
  6
CONTINUOUS
 62
7
100
AcDbCircle
 10
32.02058753760798
 20
206.4493028068466
 30
0.000000000000000
 40
1.000000000000000
100
AcDbArc
 50
270.0000000000000
 51
306.8700000000018
  0
ARC
  5
C7
100
AcDbEntity
  8
1
  6
CONTINUOUS
 62
7
100
AcDbCircle
 10
32.02058753760798
 20
206.4493028068466
 30
0.000000000000000
 40
2.000000000000000
100
AcDbArc
 50
270.0000000000000
 51
306.8700000000018
  0
ARC
  5
C8
100
AcDbEntity
  8
1
  6
CONTINUOUS
 62
7
100
AcDbCircle
 10
27.08828753760804
 20
216.4493028068467
 30
0.000000000000000
 40
8.599269999999997
100
AcDbArc
 50
324.4620000000010
 51
395.5379999999988
  0
ARC
  5
C9
100
AcDbEntity
  8
1
  6
CONTINUOUS
 62
7
100
AcDbCircle
 10
38.28688753760797
 20
216.4493028068467
 30
0.000000000000000
 40
8.599269999999997
100
AcDbArc
 50
144.4620000000011
 51
215.5379999999988
  0
LINE
  5
CA
100
AcDbEntity
  8
1
  6
CONTINUOUS
 62
7
100
AcDbLine
 10
31.88708753760795
 20
214.7834038068466
 30
0.000000000000000
 11
30.61498753760804
 21
214.7834038068466
 31
0.000000000000000
  0
LINE
  5
CB
100
AcDbEntity
  8
1
  6
CONTINUOUS
 62
7
100
AcDbLine
 10
30.36188753760802
 20
216.1163878068467
 30
0.000000000000000
 11
35.01318753760802
 21
216.1163878068467
 31
0.000000000000000
  0
LINE
  5
CC
100
AcDbEntity
  8
1
  6
CONTINUOUS
 62
7
100
AcDbLine
 10
30.41738753760796
 20
215.4491938068467
 30
0.000000000000000
 11
34.95768753760796
 21
215.4491938068467
 31
0.000000000000000
  0
LINE
  5
CD
100
AcDbEntity
  8
1
  6
CONTINUOUS
 62
7
100
AcDbLine
 10
30.95598753760806
 20
214.1162138068467
 30
0.000000000000000
 11
34.41908753760799
 21
214.1162138068467
 31
0.000000000000000
  0
LINE
  5
CE
100
AcDbEntity
  8
1
  6
CONTINUOUS
 62
7
100
AcDbLine
 10
31.04258753760802
 20
213.4503838068466
 30
0.000000000000000
 11
34.33118753760800
 21
213.4503838068466
 31
0.000000000000000
  0
LINE
  5
CF
100
AcDbEntity
  8
1
  6
CONTINUOUS
 62
7
100
AcDbLine
 10
33.91708753760804
 20
212.7832138068466
 30
0.000000000000000
 11
31.45808753760798
 21
212.7832138068466
 31
0.000000000000000
  0
LINE
  5
D0
100
AcDbEntity
  8
1
  6
CONTINUOUS
 62
7
100
AcDbLine
 10
30.85858753760794
 20
212.1160438068466
 30
0.000000000000000
 11
33.73298753760798
 21
212.1160438068466
 31
0.000000000000000
  0
ARC
  5
D1
100
AcDbEntity
  8
1
  6
CONTINUOUS
 62
7
100
AcDbCircle
 10
38.28688753760797
 20
216.4493028068467
 30
0.000000000000000
 40
7.932639999999997
100
AcDbArc
 50
202.9439999999988
 51
206.0140000000000
  0
ARC
  5
D2
100
AcDbEntity
  8
1
  6
CONTINUOUS
 62
7
100
AcDbCircle
 10
31.45808753760798
 20
213.1161038068467
 30
0.000000000000000
 40
0.3334530000000000
100
AcDbArc
 50
206.0140000000000
 51
270.0000000000000
  0
ARC
  5
D3
100
AcDbEntity
  8
1
  6
CONTINUOUS
 62
7
100
AcDbCircle
 10
30.95598753760806
 20
214.4504938068467
 30
0.000000000000000
 40
0.3334530000000000
100
AcDbArc
 50
195.2580000000003
 51
270.0000000000000
  0
ARC
  5
D4
100
AcDbEntity
  8
1
  6
CONTINUOUS
 62
7
100
AcDbCircle
 10
31.04258753760802
 20
213.3827338068466
 30
0.000000000000000
 40
0.06671800000000000
100
AcDbArc
 50
90.00000000000000
 51
202.9439999999988
  0
ARC
  5
D5
100
AcDbEntity
  8
1
  6
CONTINUOUS
 62
7
100
AcDbCircle
 10
38.28688753760797
 20
216.4493028068467
 30
0.000000000000000
 40
7.932639999999997
100
AcDbArc
 50
193.2679999999995
 51
195.2580000000003
  0
ARC
  5
D6
100
AcDbEntity
  8
1
  6
CONTINUOUS
 62
7
100
AcDbCircle
 10
30.61498753760804
 20
214.7157138068467
 30
0.000000000000000
 40
0.06671800000000000
100
AcDbArc
 50
90.00000000000000
 51
192.7289999999999
  0
ARC
  5
D7
100
AcDbEntity
  8
1
  6
CONTINUOUS
 62
7
100
AcDbCircle
 10
38.28688753760797
 20
216.4493028068467
 30
0.000000000000000
 40
7.932639999999997
100
AcDbArc
 50
192.7289999999999
 51
193.2679999999995
  0
ARC
  5
D8
100
AcDbEntity
  8
1
  6
CONTINUOUS
 62
7
100
AcDbCircle
 10
27.08828753760804
 20
216.4493028068467
 30
0.000000000000000
 40
7.932639999999997
100
AcDbArc
 50
333.9859999999998
 51
337.0560000000009
  0
ARC
  5
D9
100
AcDbEntity
  8
1
  6
CONTINUOUS
 62
7
100
AcDbCircle
 10
27.08828753760804
 20
216.4493028068467
 30
0.000000000000000
 40
7.932639999999997
100
AcDbArc
 50
333.9859999999998
 51
334.7720000000003
  0
ARC
  5
DA
100
AcDbEntity
  8
1
  6
CONTINUOUS
 62
7
100
AcDbCircle
 10
33.91708753760804
 20
213.1161038068467
 30
0.000000000000000
 40
0.3334530000000000
100
AcDbArc
 50
270.0000000000000
 51
333.9859999999998
  0
LINE
  5
DB
100
AcDbEntity
  8
1
  6
CONTINUOUS
 62
7
100
AcDbLine
 10
34.76018753760797
 20
214.7834038068466
 30
0.000000000000000
 11
33.48668753760796
 21
214.7834038068466
 31
0.000000000000000
  0
ARC
  5
DC
100
AcDbEntity
  8
1
  6
CONTINUOUS
 62
7
100
AcDbCircle
 10
34.33118753760800
 20
213.3827338068466
 30
0.000000000000000
 40
0.06671800000000000
100
AcDbArc
 50
337.0560000000009
 51
450.0000000000000
  0
ARC
  5
DD
100
AcDbEntity
  8
1
  6
CONTINUOUS
 62
7
100
AcDbCircle
 10
27.08828753760804
 20
216.4493028068467
 30
0.000000000000000
 40
7.932639999999997
100
AcDbArc
 50
344.7940000000004
 51
347.2709999999998
  0
ARC
  5
DE
100
AcDbEntity
  8
1
  6
CONTINUOUS
 62
7
100
AcDbCircle
 10
34.41908753760799
 20
214.4504938068467
 30
0.000000000000000
 40
0.3334530000000000
100
AcDbArc
 50
270.0000000000000
 51
344.7419999999994
  0
ARC
  5
DF
100
AcDbEntity
  8
1
  6
CONTINUOUS
 62
7
100
AcDbCircle
 10
27.08828753760804
 20
216.4493028068467
 30
0.000000000000000
 40
7.932639999999997
100
AcDbArc
 50
344.7419999999994
 51
344.7940000000004
  0
ARC
  5
E0
100
AcDbEntity
  8
1
  6
CONTINUOUS
 62
7
100
AcDbCircle
 10
34.76018753760797
 20
214.7157138068467
 30
0.000000000000000
 40
0.06671800000000000
100
AcDbArc
 50
347.2709999999998
 51
450.0000000000000
  0
LINE
  5
E1
100
AcDbEntity
  8
1
  6
CONTINUOUS
 62
7
100
AcDbLine
 10
32.68688753760796
 20
216.1163878068467
 30
0.000000000000000
 11
32.68688753760796
 21
215.4491938068467
 31
0.000000000000000
  0
LINE
  5
E2
100
AcDbEntity
  8
1
  6
CONTINUOUS
 62
7
100
AcDbLine
 10
31.88708753760795
 20
218.1165638068467
 30
0.000000000000000
 11
30.80578753760801
 21
218.1165638068467
 31
0.000000000000000
  0
LINE
  5
E3
100
AcDbEntity
  8
1
  6
CONTINUOUS
 62
7
100
AcDbLine
 10
32.35398753760796
 20
220.1153738068467
 30
0.000000000000000
 11
30.93028753760802
 21
220.1153738068467
 31
0.000000000000000
  0
LINE
  5
E4
100
AcDbEntity
  8
1
  6
CONTINUOUS
 62
7
100
AcDbLine
 10
30.80988753760800
 20
219.4495838068467
 30
0.000000000000000
 11
32.35398753760796
 21
219.4495838068467
 31
0.000000000000000
  0
LINE
  5
E5
100
AcDbEntity
  8
1
  6
CONTINUOUS
 62
7
100
AcDbLine
 10
30.36188753760802
 20
216.7835798068464
 30
0.000000000000000
 11
35.01318753760802
 21
216.7835798068464
 31
0.000000000000000
  0
LINE
  5
E6
100
AcDbEntity
  8
1
  6
CONTINUOUS
 62
7
100
AcDbLine
 10
30.49318753760803
 20
217.4493688068466
 30
0.000000000000000
 11
34.88198753760798
 21
217.4493688068466
 31
0.000000000000000
  0
LINE
  5
E7
100
AcDbEntity
  8
1
  6
CONTINUOUS
 62
7
100
AcDbLine
 10
30.49588753760804
 20
218.7823938068466
 30
0.000000000000000
 11
34.66948753760800
 21
218.7823938068466
 31
0.000000000000000
  0
LINE
  5
E8
100
AcDbEntity
  8
1
  6
CONTINUOUS
 62
7
100
AcDbLine
 10
33.93468753760806
 20
220.4550738068467
 30
0.000000000000000
 11
31.12518753760799
 21
221.2088638068467
 31
0.000000000000000
  0
ARC
  5
E9
100
AcDbEntity
  8
1
  6
CONTINUOUS
 62
7
100
AcDbCircle
 10
30.80578753760801
 20
217.7822838068464
 30
0.000000000000000
 40
0.3334530000000000
100
AcDbArc
 50
90.00000000000000
 51
169.8960000000000
  0
ARC
  5
EA
100
AcDbEntity
  8
1
  6
CONTINUOUS
 62
7
100
AcDbCircle
 10
38.28688753760797
 20
216.4493028068467
 30
0.000000000000000
 40
7.932639999999997
100
AcDbArc
 50
169.8960000000000
 51
172.2069999999997
  0
ARC
  5
EB
100
AcDbEntity
  8
1
  6
CONTINUOUS
 62
7
100
AcDbCircle
 10
30.49318753760803
 20
217.5156938068466
 30
0.000000000000000
 40
0.06671800000000000
100
AcDbArc
 50
172.2069999999997
 51
270.0000000000000
  0
ARC
  5
EC
100
AcDbEntity
  8
1
  6
CONTINUOUS
 62
7
100
AcDbCircle
 10
27.08828753760804
 20
216.4493028068467
 30
0.000000000000000
 40
7.932639999999997
100
AcDbArc
 50
7.793000000000218
 51
10.10399999999994
  0
ARC
  5
ED
100
AcDbEntity
  8
1
  6
CONTINUOUS
 62
7
100
AcDbCircle
 10
34.88198753760798
 20
217.5156938068466
 30
0.000000000000000
 40
0.06671800000000000
100
AcDbArc
 50
270.0000000000000
 51
367.7930000000002
  0
ARC
  5
EE
100
AcDbEntity
  8
1
  6
CONTINUOUS
 62
7
100
AcDbCircle
 10
34.56928753760803
 20
217.7822838068464
 30
0.000000000000000
 40
0.3334530000000000
100
AcDbArc
 50
10.10399999999994
 51
90.00000000000000
  0
LINE
  5
EF
100
AcDbEntity
  8
1
  6
CONTINUOUS
 62
7
100
AcDbLine
 10
32.68688753760796
 20
218.1165638068467
 30
0.000000000000000
 11
32.68688753760796
 21
217.7822838068464
 31
0.000000000000000
  0
ARC
  5
F0
100
AcDbEntity
  8
1
  6
CONTINUOUS
 62
7
100
AcDbCircle
 10
32.35398753760796
 20
219.7824938068466
 30
0.000000000000000
 40
0.3334530000000000
100
AcDbArc
 50
270.0000000000000
 51
450.0000000000000
  0
LINE
  5
F1
100
AcDbEntity
  8
1
  6
CONTINUOUS
 62
7
100
AcDbLine
 10
34.56928753760803
 20
218.1165638068467
 30
0.000000000000000
 11
32.68688753760796
 21
218.1165638068467
 31
0.000000000000000
  0
LINE
  5
F2
100
AcDbEntity
  8
1
  6
CONTINUOUS
 62
7
100
AcDbLine
 10
32.68688753760796
 20
219.7824938068466
 30
0.000000000000000
 11
34.28648753760796
 21
219.7824938068466
 31
0.000000000000000
  0
LINE
  5
F3
100
AcDbEntity
  8
1
  6
CONTINUOUS
 62
7
100
AcDbLine
 10
42.68758753760801
 20
219.6993028068466
 30
0.000000000000000
 11
42.68758753760801
 21
213.1993028068466
 31
0.000000000000000
  0
LINE
  5
F4
100
AcDbEntity
  8
1
  6
CONTINUOUS
 62
7
100
AcDbLine
 10
49.68758753760800
 20
213.3493028068466
 30
0.000000000000000
 11
67.18758753760801
 21
213.3493028068466
 31
0.000000000000000
  0
LINE
  5
F5
100
AcDbEntity
  8
1
  6
CONTINUOUS
 62
7
100
AcDbLine
 10
46.18758753760800
 20
214.0493028068467
 30
0.000000000000000
 11
67.88958753760801
 21
214.0493028068467
 31
0.000000000000000
  0
LINE
  5
F6
100
AcDbEntity
  8
1
  6
CONTINUOUS
 62
7
100
AcDbLine
 10
46.18758753760800
 20
215.2493028068466
 30
0.000000000000000
 11
69.09358753760796
 21
215.2493028068466
 31
0.000000000000000
  0
LINE
  5
F7
100
AcDbEntity
  8
1
  6
CONTINUOUS
 62
7
100
AcDbLine
 10
46.18758753760800
 20
217.3493028068466
 30
0.000000000000000
 11
68.52337653760796
 21
217.3574908068467
 31
0.000000000000000
  0
LINE
  5
F8
100
AcDbEntity
  8
1
  6
CONTINUOUS
 62
7
100
AcDbLine
 10
49.68758753760800
 20
219.5493028068466
 30
0.000000000000000
 11
66.18758753760801
 21
219.5493028068466
 31
0.000000000000000
  0
LINE
  5
F9
100
AcDbEntity
  8
1
  6
CONTINUOUS
 62
7
100
AcDbLine
 10
46.18758753760800
 20
215.2493028068466
 30
0.000000000000000
 11
46.18758753760800
 21
214.0493028068467
 31
0.000000000000000
  0
LINE
  5
FA
100
AcDbEntity
  8
1
  6
CONTINUOUS
 62
7
100
AcDbLine
 10
49.68758753760800
 20
213.3493028068466
 30
0.000000000000000
 11
49.68758753760800
 21
211.9493028068467
 31
0.000000000000000
  0
LINE
  5
FB
100
AcDbEntity
  8
1
  6
CONTINUOUS
 62
7
100
AcDbLine
 10
46.18758753760800
 20
219.8493028068466
 30
0.000000000000000
 11
49.68758753760800
 21
219.8493028068466
 31
0.000000000000000
  0
LINE
  5
FC
100
AcDbEntity
  8
1
  6
CONTINUOUS
 62
7
100
AcDbLine
 10
46.18758753760800
 20
219.8493028068466
 30
0.000000000000000
 11
46.18758753760800
 21
217.3493028068466
 31
0.000000000000000
  0
LINE
  5
FD
100
AcDbEntity
  8
1
  6
CONTINUOUS
 62
7
100
AcDbLine
 10
49.68758753760800
 20
220.9493028068466
 30
0.000000000000000
 11
49.68758753760800
 21
219.5493028068466
 31
0.000000000000000
  0
LINE
  5
FE
100
AcDbEntity
  8
1
  6
CONTINUOUS
 62
7
100
AcDbLine
 10
66.18758753760801
 20
219.5493028068466
 30
0.000000000000000
 11
69.52958753760798
 21
216.4133028068466
 31
0.000000000000000
  0
LINE
  5
FF
100
AcDbEntity
  8
1
  6
CONTINUOUS
 62
7
100
AcDbLine
 10
67.18758753760801
 20
213.3493028068466
 30
0.000000000000000
 11
69.54058753760796
 21
215.6953028068466
 31
0.000000000000000
  0
ARC
  5
100
100
AcDbEntity
  8
1
  6
CONTINUOUS
 62
7
100
AcDbCircle
 10
69.18758753760801
 20
216.0493028068467
 30
0.000000000000000
 40
0.5000000000000000
100
AcDbArc
 50
314.9129999999992
 51
406.8280999999981
  0
LINE
  5
101
100
AcDbEntity
  8
1
  6
CONTINUOUS
 62
7
100
AcDbLine
 10
27.75758753760794
 20
228.4493028068466
 30
0.000000000000000
 11
32.02058753760798
 21
228.4493028068466
 31
0.000000000000000
  0
LINE
  5
102
100
AcDbEntity
  8
1
  6
CONTINUOUS
 62
7
100
AcDbLine
 10
32.02058753760798
 20
227.4493028068466
 30
0.000000000000000
 11
27.75758753760794
 21
227.4493028068466
 31
0.000000000000000
  0
ARC
  5
103
100
AcDbEntity
  8
1
  6
CONTINUOUS
 62
7
100
AcDbCircle
 10
27.75758753760794
 20
226.4493028068467
 30
0.000000000000000
 40
1.000000000000000
100
AcDbArc
 50
90.00000000000000
 51
146.3099999999994
  0
ARC
  5
104
100
AcDbEntity
  8
1
  6
CONTINUOUS
 62
7
100
AcDbCircle
 10
27.75758753760794
 20
226.4493028068467
 30
0.000000000000000
 40
2.000000000000000
100
AcDbArc
 50
90.00000000000000
 51
146.3099999999994
  0
ARC
  5
105
100
AcDbEntity
  8
1
  6
CONTINUOUS
 62
7
100
AcDbCircle
 10
32.02058753760798
 20
226.4493028068467
 30
0.000000000000000
 40
1.000000000000000
100
AcDbArc
 50
53.13010000000153
 51
90.00000000000000
  0
ARC
  5
106
100
AcDbEntity
  8
1
  6
CONTINUOUS
 62
7
100
AcDbCircle
 10
32.02058753760798
 20
226.4493028068467
 30
0.000000000000000
 40
2.000000000000000
100
AcDbArc
 50
53.13010000000153
 51
90.00000000000000
  0
LINE
  5
107
100
AcDbEntity
  8
1
  6
CONTINUOUS
 62
7
100
AcDbLine
 10
194.5819595376080
 20
222.7537140358005
 30
0.000000000000000
 11
194.5819595376080
 21
210.2238435778928
 31
0.000000000000000
  0
ARC
  5
108
100
AcDbEntity
  8
1
  6
CONTINUOUS
 62
7
100
AcDbCircle
 10
169.0140595376079
 20
216.4887788068466
 30
0.000000000000000
 40
9.614850000000001
100
AcDbArc
 50
113.8134989999997
 51
246.1865010000002
  0
LINE
  5
109
100
AcDbEntity
  8
1
  6
CONTINUOUS
 62
7
100
AcDbLine
 10
169.1319595376079
 20
230.4883788068467
 30
0.000000000000000
 11
169.1319595376079
 21
202.4887788068467
 31
0.000000000000000
  0
LINE
  5
10A
100
AcDbEntity
  8
1
  6
CONTINUOUS
 62
7
100
AcDbLine
 10
194.8319595376079
 20
227.7383788068467
 30
0.000000000000000
 11
194.8319595376079
 21
206.7459788068467
 31
0.000000000000000
  0
LINE
  5
10B
100
AcDbEntity
  8
1
  6
CONTINUOUS
 62
7
100
AcDbLine
 10
168.1319595376079
 20
230.4883788068467
 30
0.000000000000000
 11
168.1319595376079
 21
202.4887788068467
 31
0.000000000000000
  0
LINE
  5
10C
100
AcDbEntity
  8
1
  6
CONTINUOUS
 62
7
100
AcDbLine
 10
166.6319595376079
 20
230.4883788068467
 30
0.000000000000000
 11
166.6319595376079
 21
202.4887788068467
 31
0.000000000000000
  0
LINE
  5
10D
100
AcDbEntity
  8
1
  6
CONTINUOUS
 62
7
100
AcDbLine
 10
165.1319595376079
 20
227.4883788068467
 30
0.000000000000000
 11
165.1319595376079
 21
205.4887788068465
 31
0.000000000000000
  0
ARC
  5
10E
100
AcDbEntity
  8
5
  6
PHANTOM
 62
6
100
AcDbCircle
 10
93.98195953760795
 20
149.0763788068467
 30
0.000000000000000
 40
1.000000000000000
100
AcDbArc
 50
0.000000000000000
 51
90.00000000000000
  0
LINE
  5
10F
100
AcDbEntity
  8
1
  6
CONTINUOUS
 62
7
100
AcDbLine
 10
166.6319595376079
 20
161.5263788068467
 30
0.000000000000000
 11
169.1319595376079
 21
161.5263788068467
 31
0.000000000000000
  0
LINE
  5
110
100
AcDbEntity
  8
1
  6
CONTINUOUS
 62
7
100
AcDbLine
 10
159.6920595376079
 20
144.5922788068467
 30
0.000000000000000
 11
162.3790595376077
 21
147.2792788068464
 31
0.000000000000000
  0
LINE
  5
111
100
AcDbEntity
  8
5
  6
PHANTOM
 62
6
100
AcDbLine
 10
164.3319595376079
 20
149.0763788068467
 30
0.000000000000000
 11
164.3319595376079
 21
146.2324788068467
 31
0.000000000000000
  0
ARC
  5
112
100
AcDbEntity
  8
5
  6
PHANTOM
 62
6
100
AcDbCircle
 10
154.3319595376078
 20
146.2324788068467
 30
0.000000000000000
 40
10.00000000000000
100
AcDbArc
 50
315.0000000000003
 51
360.0000000000000
  0
LINE
  5
113
100
AcDbEntity
  8
1
  6
CONTINUOUS
 62
7
100
AcDbLine
 10
159.6920595376079
 20
143.1779788068467
 30
0.000000000000000
 11
161.7030595376079
 21
141.1670788068467
 31
0.000000000000000
  0
ARC
  5
114
100
AcDbEntity
  8
1
  6
CONTINUOUS
 62
7
100
AcDbCircle
 10
160.3991595376077
 20
143.8851788068467
 30
0.000000000000000
 40
1.000000000000000
100
AcDbArc
 50
135.0000000000002
 51
224.9999999999997
  0
ARC
  5
115
100
AcDbEntity
  8
1
  6
CONTINUOUS
 62
7
100
AcDbCircle
 10
168.6887595376080
 20
140.3115788068467
 30
0.000000000000000
 40
9.400000000000000
100
AcDbArc
 50
112.2335569999992
 51
132.1629999999995
  0
ARC
  5
116
100
AcDbEntity
  8
5
  6
PHANTOM
 62
6
100
AcDbCircle
 10
165.3319595376078
 20
149.0763788068467
 30
0.000000000000000
 40
1.000000000000000
100
AcDbArc
 50
101.5369590000030
 51
180.0000000000000
  0
LINE
  5
117
100
AcDbEntity
  8
1
  6
CONTINUOUS
 62
7
100
AcDbLine
 10
166.6319595376079
 20
161.5263788068467
 30
0.000000000000000
 11
165.1319595376079
 21
158.5263788068466
 31
0.000000000000000
  0
LINE
  5
118
100
AcDbEntity
  8
1
  6
CONTINUOUS
 62
7
100
AcDbLine
 10
170.1284595376080
 20
151.0854788068466
 30
0.000000000000000
 11
191.8064807008844
 21
150.5537781179153
 31
0.000000000000000
  0
LINE
  5
119
100
AcDbEntity
  8
1
  6
CONTINUOUS
 62
7
100
AcDbLine
 10
169.1319595376079
 20
152.0018788068465
 30
0.000000000000000
 11
194.5819595376080
 21
151.3775788068466
 31
0.000000000000000
  0
LINE
  5
11A
100
AcDbEntity
  8
1
  6
CONTINUOUS
 62
7
100
AcDbLine
 10
170.1319595376079
 20
151.0015788068466
 30
0.000000000000000
 11
170.1319595376079
 21
140.5263788068467
 31
0.000000000000000
  0
ARC
  5
11B
100
AcDbEntity
  8
1
  6
CONTINUOUS
 62
7
100
AcDbCircle
 10
169.1319595376079
 20
151.0015788068466
 30
0.000000000000000
 40
1.000000000000000
100
AcDbArc
 50
0.000000000000000
 51
88.59490000000211
  0
LINE
  5
11C
100
AcDbEntity
  8
2
  6
CONTINUOUS
 62
4
100
AcDbLine
 10
197.8319595376080
 20
145.5263788068467
 30
0.000000000000000
 11
194.8319595376079
 21
141.1832788068467
 31
0.000000000000000
  0
LINE
  5
11D
100
AcDbEntity
  8
2
  6
CONTINUOUS
 62
4
100
AcDbLine
 10
194.8319595376079
 20
145.5263788068467
 30
0.000000000000000
 11
197.8319595376079
 21
141.1832788068467
 31
0.000000000000000
  0
LINE
  5
11E
100
AcDbEntity
  8
1
  6
CONTINUOUS
 62
7
100
AcDbLine
 10
194.8319595376079
 20
141.1832788068467
 30
0.000000000000000
 11
197.8319595376079
 21
141.1832788068467
 31
0.000000000000000
  0
LINE
  5
11F
100
AcDbEntity
  8
1
  6
CONTINUOUS
 62
7
100
AcDbLine
 10
194.8319595376079
 20
139.8694788068467
 30
0.000000000000000
 11
197.8319595376079
 21
139.8694788068467
 31
0.000000000000000
  0
LINE
  5
120
100
AcDbEntity
  8
1
  6
CONTINUOUS
 62
7
100
AcDbLine
 10
194.8319595376079
 20
145.5263788068466
 30
0.000000000000000
 11
197.8319595376079
 21
145.5263788068466
 31
0.000000000000000
  0
LINE
  5
121
100
AcDbEntity
  8
1
  6
CONTINUOUS
 62
7
100
AcDbLine
 10
192.7819595376077
 20
147.9741788068467
 30
0.000000000000000
 11
194.5819595376080
 21
147.9741788068467
 31
0.000000000000000
  0
ARC
  5
122
100
AcDbEntity
  8
1
  6
CONTINUOUS
 62
7
100
AcDbCircle
 10
191.7819595376077
 20
149.5540788068464
 30
0.000000000000000
 40
1.000000000000000
100
AcDbArc
 50
0.000000000000000
 51
88.59490000000211
  0
LINE
  5
123
100
AcDbEntity
  8
1
  6
CONTINUOUS
 62
7
100
AcDbLine
 10
194.5819595376080
 20
148.8263788068464
 30
0.000000000000000
 11
194.8319595376079
 21
148.8263788068464
 31
0.000000000000000
  0
LINE
  5
124
100
AcDbEntity
  8
1
  6
CONTINUOUS
 62
7
100
AcDbLine
 10
194.5819595376080
 20
151.3775788068466
 30
0.000000000000000
 11
194.5819595376080
 21
147.9741788068467
 31
0.000000000000000
  0
LINE
  5
125
100
AcDbEntity
  8
1
  6
CONTINUOUS
 62
7
100
AcDbLine
 10
166.6319595376079
 20
202.4887788068467
 30
0.000000000000000
 11
169.1319595376079
 21
202.4887788068467
 31
0.000000000000000
  0
LINE
  5
126
100
AcDbEntity
  8
1
  6
CONTINUOUS
 62
7
100
AcDbLine
 10
165.1319595376079
 20
205.4887788068465
 30
0.000000000000000
 11
166.6319595376079
 21
202.4887788068467
 31
0.000000000000000
  0
LINE
  5
127
100
AcDbEntity
  8
1
  6
CONTINUOUS
 62
7
100
AcDbLine
 10
170.1319595376079
 20
209.8492612519085
 30
0.000000000000000
 11
194.5819595376080
 21
210.2238435778928
 31
0.000000000000000
  0
LINE
  5
128
100
AcDbEntity
  8
1
  6
CONTINUOUS
 62
7
100
AcDbLine
 10
169.1319595376079
 20
205.0147788068467
 30
0.000000000000000
 11
191.8079495376080
 21
205.6042788068466
 31
0.000000000000000
  0
LINE
  5
129
100
AcDbEntity
  8
1
  6
CONTINUOUS
 62
7
100
AcDbLine
 10
170.1319595376079
 20
209.8492612519085
 30
0.000000000000000
 11
170.1319595376079
 21
205.0407788068466
 31
0.000000000000000
  0
ARC
  5
12A
100
AcDbEntity
  8
1
  6
CONTINUOUS
 62
7
100
AcDbCircle
 10
191.7819595376077
 20
206.6039788068467
 30
0.000000000000000
 40
1.000000000000000
100
AcDbArc
 50
271.4890000000025
 51
360.0000000000000
  0
LINE
  5
12B
100
AcDbEntity
  8
1
  6
CONTINUOUS
 62
7
100
AcDbLine
 10
192.8319595376079
 20
208.1887788068467
 30
0.000000000000000
 11
194.8319595376079
 21
208.1887788068467
 31
0.000000000000000
  0
LINE
  5
12C
100
AcDbEntity
  8
1
  6
CONTINUOUS
 62
7
100
AcDbLine
 10
192.8319595376079
 20
206.7459788068467
 30
0.000000000000000
 11
194.8319595376079
 21
206.7459788068467
 31
0.000000000000000
  0
LINE
  5
12D
100
AcDbEntity
  8
1
  6
CONTINUOUS
 62
7
100
AcDbLine
 10
192.8319595376079
 20
210.1970329819635
 30
0.000000000000000
 11
192.8319595376079
 21
206.7459788068467
 31
0.000000000000000
  0
LINE
  5
12E
100
AcDbEntity
  8
1
  6
CONTINUOUS
 62
7
100
AcDbLine
 10
192.7819595376077
 20
210.1962669649369
 30
0.000000000000000
 11
192.7819595376077
 21
206.6039788068467
 31
0.000000000000000
  0
LINE
  5
12F
100
AcDbEntity
  8
1
  6
CONTINUOUS
 62
7
100
AcDbLine
 10
197.8319595376079
 20
221.4887788068467
 30
0.000000000000000
 11
197.8319595376079
 21
211.4887788068467
 31
0.000000000000000
  0
LINE
  5
130
100
AcDbEntity
  8
2
  6
CONTINUOUS
 62
4
100
AcDbLine
 10
197.8319595376080
 20
215.8318788068468
 30
0.000000000000000
 11
194.8319595376080
 21
211.4887788068468
 31
0.000000000000000
  0
LINE
  5
131
100
AcDbEntity
  8
2
  6
CONTINUOUS
 62
4
100
AcDbLine
 10
194.8319595376079
 20
215.8318788068467
 30
0.000000000000000
 11
197.8319595376079
 21
211.4887788068467
 31
0.000000000000000
  0
LINE
  5
132
100
AcDbEntity
  8
1
  6
CONTINUOUS
 62
7
100
AcDbLine
 10
194.8319595376079
 20
215.8318788068467
 30
0.000000000000000
 11
197.8319595376079
 21
215.8318788068467
 31
0.000000000000000
  0
LINE
  5
133
100
AcDbEntity
  8
1
  6
CONTINUOUS
 62
7
100
AcDbLine
 10
194.8319595376079
 20
211.4887788068467
 30
0.000000000000000
 11
197.8319595376079
 21
211.4887788068467
 31
0.000000000000000
  0
LINE
  5
134
100
AcDbEntity
  8
2
  6
CONTINUOUS
 62
4
100
AcDbLine
 10
194.8319595376080
 20
221.4887788068468
 30
0.000000000000000
 11
197.8319595376079
 21
217.1455788068467
 31
0.000000000000000
  0
LINE
  5
135
100
AcDbEntity
  8
2
  6
CONTINUOUS
 62
4
100
AcDbLine
 10
197.8319595376080
 20
221.4887788068468
 30
0.000000000000000
 11
194.8319595376080
 21
217.1455788068467
 31
0.000000000000000
  0
LINE
  5
136
100
AcDbEntity
  8
1
  6
CONTINUOUS
 62
7
100
AcDbLine
 10
194.8319595376079
 20
217.1455788068466
 30
0.000000000000000
 11
197.8319595376079
 21
217.1455788068466
 31
0.000000000000000
  0
LINE
  5
137
100
AcDbEntity
  8
1
  6
CONTINUOUS
 62
7
100
AcDbLine
 10
194.8319595376079
 20
221.4887788068467
 30
0.000000000000000
 11
197.8319595376079
 21
221.4887788068467
 31
0.000000000000000
  0
LINE
  5
138
100
AcDbEntity
  8
1
  6
CONTINUOUS
 62
7
100
AcDbLine
 10
166.6319595376079
 20
230.4883788068467
 30
0.000000000000000
 11
169.1319595376079
 21
230.4883788068467
 31
0.000000000000000
  0
LINE
  5
139
100
AcDbEntity
  8
1
  6
CONTINUOUS
 62
7
100
AcDbLine
 10
166.6319595376079
 20
230.4883788068467
 30
0.000000000000000
 11
165.1319595376079
 21
227.4883788068467
 31
0.000000000000000
  0
LINE
  5
13A
100
AcDbEntity
  8
1
  6
CONTINUOUS
 62
7
100
AcDbLine
 10
170.1319595376080
 20
223.1282963617847
 30
0.000000000000000
 11
194.5819595376080
 21
222.7537140358005
 31
0.000000000000000
  0
LINE
  5
13B
100
AcDbEntity
  8
1
  6
CONTINUOUS
 62
7
100
AcDbLine
 10
169.1319595376079
 20
227.9623788068467
 30
0.000000000000000
 11
191.8079495376080
 21
227.3733788068467
 31
0.000000000000000
  0
LINE
  5
13C
100
AcDbEntity
  8
1
  6
CONTINUOUS
 62
7
100
AcDbLine
 10
170.1319595376079
 20
227.9363788068467
 30
0.000000000000000
 11
170.1319595376080
 21
223.1282963617847
 31
0.000000000000000
  0
LINE
  5
13D
100
AcDbEntity
  8
1
  6
CONTINUOUS
 62
7
100
AcDbLine
 10
192.8319595376079
 20
227.7383788068467
 30
0.000000000000000
 11
192.8319595376079
 21
222.7805246317299
 31
0.000000000000000
  0
ARC
  5
13E
100
AcDbEntity
  8
1
  6
CONTINUOUS
 62
7
100
AcDbCircle
 10
191.7819595376077
 20
226.3733788068465
 30
0.000000000000000
 40
1.000000000000000
100
AcDbArc
 50
0.000000000000000
 51
88.51060000000145
  0
LINE
  5
13F
100
AcDbEntity
  8
1
  6
CONTINUOUS
 62
7
100
AcDbLine
 10
192.7819595376077
 20
226.3733788068465
 30
0.000000000000000
 11
192.7819595376077
 21
222.7812906487564
 31
0.000000000000000
  0
LINE
  5
140
100
AcDbEntity
  8
1
  6
CONTINUOUS
 62
7
100
AcDbLine
 10
194.5819595376080
 20
222.1137788068467
 30
0.000000000000000
 11
194.8319595376079
 21
222.1137788068467
 31
0.000000000000000
  0
LINE
  5
141
100
AcDbEntity
  8
1
  6
CONTINUOUS
 62
7
100
AcDbLine
 10
192.8319595376079
 20
227.7383788068467
 30
0.000000000000000
 11
194.8319595376079
 21
227.7383788068467
 31
0.000000000000000
  0
ARC
  5
142
100
AcDbEntity
  8
1
  6
CONTINUOUS
 62
7
100
AcDbCircle
 10
228.0331595376079
 20
137.0622788068464
 30
0.000000000000000
 40
2.044659999999999
100
AcDbArc
 50
325.6160000000000
 51
394.3841999999985
  0
ARC
  5
143
100
AcDbEntity
  8
1
  6
CONTINUOUS
 62
7
100
AcDbCircle
 10
329.7819595376078
 20
140.5263788068467
 30
0.000000000000000
 40
8.300000000000001
100
AcDbArc
 50
59.99999999999999
 51
210.0000000000004
  0
ARC
  5
144
100
AcDbEntity
  8
1
  6
CONTINUOUS
 62
7
100
AcDbCircle
 10
329.7819595376078
 20
140.5263788068467
 30
0.000000000000000
 40
11.25000000000000
100
AcDbArc
 50
210.0000000000004
 51
420.0000000000000
  0
ARC
  5
145
100
AcDbEntity
  8
1
  6
CONTINUOUS
 62
7
100
AcDbCircle
 10
329.7819595376078
 20
140.5263788068467
 30
0.000000000000000
 40
11.50000000000000
100
AcDbArc
 50
119.9999999999999
 51
420.0000000000000
  0
LINE
  5
146
100
AcDbEntity
  8
1
  6
CONTINUOUS
 62
7
100
AcDbLine
 10
224.2777595376079
 20
145.5263788068466
 30
0.000000000000000
 11
224.2777595376079
 21
135.5263788068466
 31
0.000000000000000
  0
LINE
  5
147
100
AcDbEntity
  8
1
  6
CONTINUOUS
 62
7
100
AcDbLine
 10
230.0777595376080
 20
136.5263788068466
 30
0.000000000000000
 11
229.7205595376079
 21
135.9075788068467
 31
0.000000000000000
  0
LINE
  5
148
100
AcDbEntity
  8
1
  6
CONTINUOUS
 62
7
100
AcDbLine
 10
225.2777595376079
 20
145.5263788068466
 30
0.000000000000000
 11
225.2777595376079
 21
135.5263788068466
 31
0.000000000000000
  0
LINE
  5
149
100
AcDbEntity
  8
1
  6
CONTINUOUS
 62
7
100
AcDbLine
 10
226.5777595376079
 20
145.1451788068467
 30
0.000000000000000
 11
226.5777595376079
 21
135.9075788068467
 31
0.000000000000000
  0
LINE
  5
14A
100
AcDbEntity
  8
1
  6
CONTINUOUS
 62
7
100
AcDbLine
 10
218.3479595376080
 20
149.5263788068466
 30
0.000000000000000
 11
218.3479595376080
 21
131.5263788068466
 31
0.000000000000000
  0
LINE
  5
14B
100
AcDbEntity
  8
1
  6
CONTINUOUS
 62
7
100
AcDbLine
 10
216.7479595376080
 20
149.5263788068466
 30
0.000000000000000
 11
216.7479595376080
 21
131.5263788068466
 31
0.000000000000000
  0
LINE
  5
14C
100
AcDbEntity
  8
1
  6
CONTINUOUS
 62
7
100
AcDbLine
 10
334.7819595376079
 20
139.8694788068468
 30
0.000000000000000
 11
330.4389595376080
 21
135.5263788068467
 31
0.000000000000000
  0
LINE
  5
14D
100
AcDbEntity
  8
1
  6
CONTINUOUS
 62
7
100
AcDbLine
 10
324.7819595376078
 20
139.8694788068467
 30
0.000000000000000
 11
329.1249595376080
 21
135.5263788068466
 31
0.000000000000000
  0
LINE
  5
14E
100
AcDbEntity
  8
1
  6
CONTINUOUS
 62
7
100
AcDbLine
 10
318.2819595376078
 20
149.0263788068467
 30
0.000000000000000
 11
318.2819595376078
 21
128.0263788068467
 31
0.000000000000000
  0
LINE
  5
14F
100
AcDbEntity
  8
1
  6
CONTINUOUS
 62
7
100
AcDbLine
 10
341.2819595376078
 20
149.0263788068467
 30
0.000000000000000
 11
341.2819595376078
 21
128.0263788068467
 31
0.000000000000000
  0
LINE
  5
150
100
AcDbEntity
  8
4
  6
CENTER
 62
1
100
AcDbLine
 10
329.7819595376078
 20
167.4776788068466
 30
0.000000000000000
 11
329.7819595376078
 21
42.15497880684672
 31
0.000000000000000
  0
LINE
  5
151
100
AcDbEntity
  8
1
  6
CONTINUOUS
 62
7
100
AcDbLine
 10
343.7819595376077
 20
156.5263788068466
 30
0.000000000000000
 11
343.7819595376077
 21
128.0263788068467
 31
0.000000000000000
  0
LINE
  5
152
100
AcDbEntity
  8
1
  6
CONTINUOUS
 62
7
100
AcDbLine
 10
315.7819595376078
 20
156.5263788068466
 30
0.000000000000000
 11
315.7819595376078
 21
128.0263788068467
 31
0.000000000000000
  0
CIRCLE
  5
153
100
AcDbEntity
  8
1
  6
CONTINUOUS
 62
7
100
AcDbCircle
 10
323.2819595376078
 20
79.52637880684675
 30
0.000000000000000
 40
2.600000000000000
  0
ARC
  5
154
100
AcDbEntity
  8
1
  6
CONTINUOUS
 62
7
100
AcDbCircle
 10
329.7819595376078
 20
68.52637880684675
 30
0.000000000000000
 40
11.50000000000000
100
AcDbArc
 50
180.0000000000000
 51
360.0000000000000
  0
LINE
  5
155
100
AcDbEntity
  8
1
  6
CONTINUOUS
 62
7
100
AcDbLine
 10
322.5939595376077
 20
136.3763788068466
 30
0.000000000000000
 11
320.0389595376078
 21
134.9013788068465
 31
0.000000000000000
  0
LINE
  5
156
100
AcDbEntity
  8
1
  6
CONTINUOUS
 62
7
100
AcDbLine
 10
316.0319595376078
 20
96.02637880684676
 30
0.000000000000000
 11
343.5319595376078
 21
96.02637880684676
 31
0.000000000000000
  0
LINE
  5
157
100
AcDbEntity
  8
1
  6
CONTINUOUS
 62
7
100
AcDbLine
 10
314.0319595376078
 20
128.0263788068467
 30
0.000000000000000
 11
345.5319595376078
 21
128.0263788068467
 31
0.000000000000000
  0
LINE
  5
158
100
AcDbEntity
  8
4
  6
CENTER
 62
1
100
AcDbLine
 10
319.2819595376078
 20
79.52637880684675
 30
0.000000000000000
 11
327.2819595376077
 21
79.52637880684675
 31
0.000000000000000
  0
LINE
  5
159
100
AcDbEntity
  8
1
  6
CONTINUOUS
 62
7
100
AcDbLine
 10
321.2819595376078
 20
129.0263788068467
 30
0.000000000000000
 11
338.2819595376078
 21
129.0263788068467
 31
0.000000000000000
  0
LINE
  5
15A
100
AcDbEntity
  8
1
  6
CONTINUOUS
 62
7
100
AcDbLine
 10
338.2819595376078
 20
57.02637880684675
 30
0.000000000000000
 11
321.2819595376078
 21
57.02637880684675
 31
0.000000000000000
  0
LINE
  5
15B
100
AcDbEntity
  8
1
  6
CONTINUOUS
 62
7
100
AcDbLine
 10
338.7819595376078
 20
47.52637880684671
 30
0.000000000000000
 11
320.7819595376077
 21
47.52637880684671
 31
0.000000000000000
  0
LINE
  5
15C
100
AcDbEntity
  8
1
  6
CONTINUOUS
 62
7
100
AcDbLine
 10
319.2819595376078
 20
95.02637880684676
 30
0.000000000000000
 11
340.2819595376078
 21
95.02637880684676
 31
0.000000000000000
  0
ARC
  5
15D
100
AcDbEntity
  8
1
  6
CONTINUOUS
 62
7
100
AcDbCircle
 10
320.7819595376077
 20
52.52637880684672
 30
0.000000000000000
 40
5.000000000000000
100
AcDbArc
 50
180.0000000000000
 51
270.0000000000000
  0
LINE
  5
15E
100
AcDbEntity
  8
1
  6
CONTINUOUS
 62
7
100
AcDbLine
 10
259.0960595376080
 20
112.2021788068467
 30
0.000000000000000
 11
260.3959595376080
 21
112.5505788068467
 31
0.000000000000000
  0
LINE
  5
15F
100
AcDbEntity
  8
1
  6
CONTINUOUS
 62
7
100
AcDbLine
 10
259.0959595376079
 20
111.5021788068466
 30
0.000000000000000
 11
260.3959595376081
 21
111.8505788068467
 31
0.000000000000000
  0
LINE
  5
160
100
AcDbEntity
  8
1
  6
CONTINUOUS
 62
7
100
AcDbLine
 10
259.0958595376079
 20
107.4263788068467
 30
0.000000000000000
 11
260.3959595376080
 21
107.4263788068467
 31
0.000000000000000
  0
LINE
  5
161
100
AcDbEntity
  8
1
  6
CONTINUOUS
 62
7
100
AcDbLine
 10
259.0958595376079
 20
116.6263688068467
 30
0.000000000000000
 11
260.3959595376080
 21
116.6263688068467
 31
0.000000000000000
  0
LINE
  5
162
100
AcDbEntity
  8
4
  6
CENTER
 62
1
100
AcDbLine
 10
255.1775595376081
 20
112.0263788068467
 30
0.000000000000000
 11
267.0518595376080
 21
112.0263788068467
 31
0.000000000000000
  0
LINE
  5
163
100
AcDbEntity
  8
1
  6
CONTINUOUS
 62
7
100
AcDbLine
 10
257.0958595376079
 20
96.02637880684676
 30
0.000000000000000
 11
257.0958595376079
 21
68.02637880684675
 31
0.000000000000000
  0
LINE
  5
164
100
AcDbEntity
  8
1
  6
CONTINUOUS
 62
7
100
AcDbLine
 10
249.3958595376080
 20
128.0263788068467
 30
0.000000000000000
 11
249.3958595376080
 21
66.02637880684675
 31
0.000000000000000
  0
LINE
  5
165
100
AcDbEntity
  8
1
  6
CONTINUOUS
 62
7
100
AcDbLine
 10
247.3958595376080
 20
128.0263788068467
 30
0.000000000000000
 11
247.3958595376080
 21
66.02637880684675
 31
0.000000000000000
  0
LINE
  5
166
100
AcDbEntity
  8
1
  6
CONTINUOUS
 62
7
100
AcDbLine
 10
247.3958595376080
 20
66.02637880684675
 30
0.000000000000000
 11
255.0958595376079
 21
66.02637880684675
 31
0.000000000000000
  0
ARC
  5
167
100
AcDbEntity
  8
1
  6
CONTINUOUS
 62
7
100
AcDbCircle
 10
255.0958595376079
 20
68.02637880684675
 30
0.000000000000000
 40
2.000000000000000
100
AcDbArc
 50
270.0000000000000
 51
360.0000000000000
  0
LINE
  5
168
100
AcDbEntity
  8
1
  6
CONTINUOUS
 62
7
100
AcDbLine
 10
229.7205595376079
 20
135.9075788068467
 30
0.000000000000000
 11
226.5777595376079
 21
135.9075788068467
 31
0.000000000000000
  0
LINE
  5
169
100
AcDbEntity
  8
1
  6
CONTINUOUS
 62
7
100
AcDbLine
 10
216.7479595376080
 20
131.5263788068466
 30
0.000000000000000
 11
218.3479595376080
 21
131.5263788068466
 31
0.000000000000000
  0
LINE
  5
16A
100
AcDbEntity
  8
1
  6
CONTINUOUS
 62
7
100
AcDbLine
 10
224.2777595376079
 20
135.5263788068466
 30
0.000000000000000
 11
225.2777595376079
 21
135.5263788068466
 31
0.000000000000000
  0
LINE
  5
16B
100
AcDbEntity
  8
1
  6
CONTINUOUS
 62
7
100
AcDbLine
 10
226.5777595376079
 20
135.9263788068466
 30
0.000000000000000
 11
225.2777595376079
 21
135.9263788068466
 31
0.000000000000000
  0
LINE
  5
16C
100
AcDbEntity
  8
1
  6
CONTINUOUS
 62
7
100
AcDbLine
 10
259.0958595376079
 20
128.0263788068467
 30
0.000000000000000
 11
259.0958595376079
 21
96.02637880684676
 31
0.000000000000000
  0
LINE
  5
16D
100
AcDbEntity
  8
1
  6
CONTINUOUS
 62
7
100
AcDbLine
 10
257.0958595376079
 20
96.02637880684676
 30
0.000000000000000
 11
259.0958595376079
 21
96.02637880684676
 31
0.000000000000000
  0
LINE
  5
16E
100
AcDbEntity
  8
1
  6
CONTINUOUS
 62
7
100
AcDbLine
 10
247.3958595376080
 20
128.0263788068467
 30
0.000000000000000
 11
259.0958595376079
 21
128.0263788068467
 31
0.000000000000000
  0
LINE
  5
16F
100
AcDbEntity
  8
1
  6
CONTINUOUS
 62
7
100
AcDbLine
 10
318.2819595376078
 20
96.02637880684676
 30
0.000000000000000
 11
318.2819595376078
 21
60.02637880684672
 31
0.000000000000000
  0
LINE
  5
170
100
AcDbEntity
  8
1
  6
CONTINUOUS
 62
7
100
AcDbLine
 10
316.0319595376078
 20
128.0263788068467
 30
0.000000000000000
 11
316.0319595376078
 21
66.02637880684675
 31
0.000000000000000
  0
LINE
  5
171
100
AcDbEntity
  8
1
  6
CONTINUOUS
 62
7
100
AcDbLine
 10
318.0319595376078
 20
96.02637880684676
 30
0.000000000000000
 11
318.0319595376078
 21
66.02637880684675
 31
0.000000000000000
  0
LINE
  5
172
100
AcDbEntity
  8
1
  6
CONTINUOUS
 62
7
100
AcDbLine
 10
312.0319595376078
 20
126.0263788068466
 30
0.000000000000000
 11
312.0319595376078
 21
68.02637880684675
 31
0.000000000000000
  0
LINE
  5
173
100
AcDbEntity
  8
1
  6
CONTINUOUS
 62
7
100
AcDbLine
 10
315.7819595376078
 20
66.02637880684675
 30
0.000000000000000
 11
315.7819595376078
 21
52.52637880684672
 31
0.000000000000000
  0
ARC
  5
174
100
AcDbEntity
  8
1
  6
CONTINUOUS
 62
7
100
AcDbCircle
 10
321.2819595376078
 20
60.02637880684672
 30
0.000000000000000
 40
3.000000000000000
100
AcDbArc
 50
180.0000000000000
 51
270.0000000000000
  0
ARC
  5
175
100
AcDbEntity
  8
1
  6
CONTINUOUS
 62
7
100
AcDbCircle
 10
314.0319595376078
 20
68.02637880684675
 30
0.000000000000000
 40
2.000000000000000
100
AcDbArc
 50
180.0000000000000
 51
270.0000000000000
  0
LINE
  5
176
100
AcDbEntity
  8
1
  6
CONTINUOUS
 62
7
100
AcDbLine
 10
314.0319595376078
 20
66.02637880684675
 30
0.000000000000000
 11
318.0319595376078
 21
66.02637880684675
 31
0.000000000000000
  0
ARC
  5
177
100
AcDbEntity
  8
1
  6
CONTINUOUS
 62
7
100
AcDbCircle
 10
251.6959595376080
 20
112.0263788068467
 30
0.000000000000000
 40
12.00000000000000
100
AcDbArc
 50
344.5059999999996
 51
375.4940000000003
  0
LINE
  5
178
100
AcDbEntity
  8
1
  6
CONTINUOUS
 62
7
100
AcDbLine
 10
260.3959595376080
 20
116.6263688068467
 30
0.000000000000000
 11
260.3959595376080
 21
107.4263788068467
 31
0.000000000000000
  0
ARC
  5
179
100
AcDbEntity
  8
1
  6
CONTINUOUS
 62
7
100
AcDbCircle
 10
261.7179595376079
 20
109.2481788068466
 30
0.000000000000000
 40
1.600000000000000
100
AcDbArc
 50
274.9999999999998
 51
344.5059999999996
  0
LINE
  5
17A
100
AcDbEntity
  8
1
  6
CONTINUOUS
 62
7
100
AcDbLine
 10
261.8574595376078
 20
107.6542788068466
 30
0.000000000000000
 11
260.3959595376080
 21
107.5263788068467
 31
0.000000000000000
  0
ARC
  5
17B
100
AcDbEntity
  8
1
  6
CONTINUOUS
 62
7
100
AcDbCircle
 10
261.7179595376079
 20
114.8045788068467
 30
0.000000000000000
 40
1.600000000000000
100
AcDbArc
 50
15.49400000000020
 51
84.99990000000015
  0
LINE
  5
17C
100
AcDbEntity
  8
1
  6
CONTINUOUS
 62
7
100
AcDbLine
 10
261.8574595376079
 20
116.3985288068467
 30
0.000000000000000
 11
260.3959595376080
 21
116.5263988068466
 31
0.000000000000000
  0
ARC
  5
17D
100
AcDbEntity
  8
1
  6
CONTINUOUS
 62
7
100
AcDbCircle
 10
319.2819595376078
 20
94.02637880684676
 30
0.000000000000000
 40
1.000000000000000
100
AcDbArc
 50
90.00000000000000
 51
180.0000000000000
  0
ARC
  5
17E
100
AcDbEntity
  8
1
  6
CONTINUOUS
 62
7
100
AcDbCircle
 10
314.0319595376078
 20
126.0263788068466
 30
0.000000000000000
 40
2.000000000000000
100
AcDbArc
 50
90.00000000000000
 51
180.0000000000000
  0
ARC
  5
17F
100
AcDbEntity
  8
1
  6
CONTINUOUS
 62
7
100
AcDbCircle
 10
321.2819595376078
 20
132.0263788068467
 30
0.000000000000000
 40
3.000000000000000
100
AcDbArc
 50
180.0000000000000
 51
270.0000000000000
  0
ARC
  5
180
100
AcDbEntity
  8
1
  6
CONTINUOUS
 62
7
100
AcDbCircle
 10
338.7819595376078
 20
52.52637880684672
 30
0.000000000000000
 40
5.000000000000000
100
AcDbArc
 50
270.0000000000000
 51
360.0000000000000
  0
LINE
  5
181
100
AcDbEntity
  8
1
  6
CONTINUOUS
 62
7
100
AcDbLine
 10
341.2819595376078
 20
96.02637880684676
 30
0.000000000000000
 11
341.2819595376078
 21
60.02637880684672
 31
0.000000000000000
  0
LINE
  5
182
100
AcDbEntity
  8
1
  6
CONTINUOUS
 62
7
100
AcDbLine
 10
343.5319595376078
 20
128.0263788068467
 30
0.000000000000000
 11
343.5319595376078
 21
66.02637880684675
 31
0.000000000000000
  0
LINE
  5
183
100
AcDbEntity
  8
1
  6
CONTINUOUS
 62
7
100
AcDbLine
 10
341.5319595376077
 20
96.02637880684676
 30
0.000000000000000
 11
341.5319595376077
 21
66.02637880684675
 31
0.000000000000000
  0
LINE
  5
184
100
AcDbEntity
  8
1
  6
CONTINUOUS
 62
7
100
AcDbLine
 10
347.5319595376078
 20
126.0263788068466
 30
0.000000000000000
 11
347.5319595376078
 21
68.02637880684675
 31
0.000000000000000
  0
LINE
  5
185
100
AcDbEntity
  8
1
  6
CONTINUOUS
 62
7
100
AcDbLine
 10
343.7819595376077
 20
66.02637880684675
 30
0.000000000000000
 11
343.7819595376077
 21
52.52637880684672
 31
0.000000000000000
  0
ARC
  5
186
100
AcDbEntity
  8
1
  6
CONTINUOUS
 62
7
100
AcDbCircle
 10
338.2819595376078
 20
60.02637880684672
 30
0.000000000000000
 40
3.000000000000000
100
AcDbArc
 50
270.0000000000000
 51
360.0000000000000
  0
LINE
  5
187
100
AcDbEntity
  8
1
  6
CONTINUOUS
 62
7
100
AcDbLine
 10
341.5319595376077
 20
66.02637880684675
 30
0.000000000000000
 11
345.5319595376078
 21
66.02637880684675
 31
0.000000000000000
  0
ARC
  5
188
100
AcDbEntity
  8
1
  6
CONTINUOUS
 62
7
100
AcDbCircle
 10
345.5319595376078
 20
68.02637880684675
 30
0.000000000000000
 40
2.000000000000000
100
AcDbArc
 50
270.0000000000000
 51
360.0000000000000
  0
CIRCLE
  5
189
100
AcDbEntity
  8
1
  6
CONTINUOUS
 62
7
100
AcDbCircle
 10
336.2819595376080
 20
79.52637880684675
 30
0.000000000000000
 40
2.600000000000000
  0
LINE
  5
18A
100
AcDbEntity
  8
1
  6
CONTINUOUS
 62
7
100
AcDbLine
 10
336.2819595376079
 20
80.18257389978767
 30
0.000000000000000
 11
336.8071277439952
 21
80.38431146446028
 31
0.000000000000000
  0
LINE
  5
18B
100
AcDbEntity
  8
1
  6
CONTINUOUS
 62
7
100
AcDbLine
 10
336.9381546305489
 20
79.52637880684655
 30
0.000000000000000
 11
337.1398921952215
 21
80.05154701323390
 31
0.000000000000000
  0
LINE
  5
18C
100
AcDbEntity
  8
4
  6
CENTER
 62
1
100
AcDbLine
 10
332.2819595376078
 20
79.52637880684675
 30
0.000000000000000
 11
340.2819595376078
 21
79.52637880684675
 31
0.000000000000000
  0
LINE
  5
18D
100
AcDbEntity
  8
4
  6
CENTER
 62
1
100
AcDbLine
 10
323.2819595376078
 20
83.52637880684678
 30
0.000000000000000
 11
323.2819595376078
 21
75.52637880684675
 31
0.000000000000000
  0
LINE
  5
18E
100
AcDbEntity
  8
4
  6
CENTER
 62
1
100
AcDbLine
 10
336.2819595376080
 20
83.52637880684678
 30
0.000000000000000
 11
336.2819595376080
 21
75.52637880684675
 31
0.000000000000000
  0
ARC
  5
18F
100
AcDbEntity
  8
1
  6
CONTINUOUS
 62
7
100
AcDbCircle
 10
323.2819595376078
 20
79.52637880684679
 30
0.000000000000000
 40
1.300000000000000
100
AcDbArc
 50
304.8090000000029
 51
325.1909999999972
  0
ARC
  5
190
100
AcDbEntity
  8
1
  6
CONTINUOUS
 62
7
100
AcDbCircle
 10
323.2819595376078
 20
79.52637880684679
 30
0.000000000000000
 40
1.300000000000000
100
AcDbArc
 50
214.8090000000000
 51
235.1909999999997
  0
ARC
  5
191
100
AcDbEntity
  8
1
  6
CONTINUOUS
 62
7
100
AcDbCircle
 10
323.2819595376078
 20
79.52637880684679
 30
0.000000000000000
 40
1.300000000000000
100
AcDbArc
 50
124.8094000000022
 51
145.1909999999971
  0
ARC
  5
192
100
AcDbEntity
  8
1
  6
CONTINUOUS
 62
7
100
AcDbCircle
 10
323.2819595376078
 20
79.52637880684679
 30
0.000000000000000
 40
1.300000000000000
100
AcDbArc
 50
34.80900000000004
 51
55.19059999999960
  0
LINE
  5
193
100
AcDbEntity
  8
1
  6
CONTINUOUS
 62
7
100
AcDbLine
 10
323.2819595376079
 20
78.87018371390572
 30
0.000000000000000
 11
323.8071984546735
 21
78.66879970262397
 31
0.000000000000000
  0
LINE
  5
194
100
AcDbEntity
  8
1
  6
CONTINUOUS
 62
7
100
AcDbLine
 10
323.8071984546735
 20
78.66879970262397
 30
0.000000000000000
 11
324.0240681044633
 21
78.45900112064584
 31
0.000000000000000
  0
LINE
  5
195
100
AcDbEntity
  8
1
  6
CONTINUOUS
 62
7
100
AcDbLine
 10
323.9381546305489
 20
79.52637880684671
 30
0.000000000000000
 11
324.1395386418309
 21
79.00113988978146
 31
0.000000000000000
  0
LINE
  5
196
100
AcDbEntity
  8
1
  6
CONTINUOUS
 62
7
100
AcDbLine
 10
324.1395386418309
 20
79.00113988978150
 30
0.000000000000000
 11
324.3493372238090
 21
78.78427023999168
 31
0.000000000000000
  0
LINE
  5
197
100
AcDbEntity
  8
1
  6
CONTINUOUS
 62
7
100
AcDbLine
 10
322.6257644446666
 20
79.52637880684679
 30
0.000000000000000
 11
322.4240268799942
 21
79.00121060045967
 31
0.000000000000000
  0
LINE
  5
198
100
AcDbEntity
  8
1
  6
CONTINUOUS
 62
7
100
AcDbLine
 10
322.4240268799942
 20
79.00121060045964
 30
0.000000000000000
 11
322.2149354047972
 21
78.78462379338205
 31
0.000000000000000
  0
LINE
  5
199
100
AcDbEntity
  8
1
  6
CONTINUOUS
 62
7
100
AcDbLine
 10
323.2819595376078
 20
78.87018371390569
 30
0.000000000000000
 11
322.7567913312207
 21
78.66844614923326
 31
0.000000000000000
  0
LINE
  5
19A
100
AcDbEntity
  8
1
  6
CONTINUOUS
 62
7
100
AcDbLine
 10
322.7567913312207
 20
78.66844614923326
 30
0.000000000000000
 11
322.5402045241430
 21
78.45935467403623
 31
0.000000000000000
  0
LINE
  5
19B
100
AcDbEntity
  8
1
  6
CONTINUOUS
 62
7
100
AcDbLine
 10
323.2819595376079
 20
80.18257389978793
 30
0.000000000000000
 11
322.7567206205426
 21
80.38395791106993
 31
0.000000000000000
  0
LINE
  5
19C
100
AcDbEntity
  8
1
  6
CONTINUOUS
 62
7
100
AcDbLine
 10
322.7567206205426
 20
80.38395791106990
 30
0.000000000000000
 11
322.5398509707528
 21
80.59375649304803
 31
0.000000000000000
  0
LINE
  5
19D
100
AcDbEntity
  8
1
  6
CONTINUOUS
 62
7
100
AcDbLine
 10
322.6257644446666
 20
79.52637880684679
 30
0.000000000000000
 11
322.4243804333850
 21
80.05161772391232
 31
0.000000000000000
  0
LINE
  5
19E
100
AcDbEntity
  8
1
  6
CONTINUOUS
 62
7
100
AcDbLine
 10
322.4243804333851
 20
80.05161772391233
 30
0.000000000000000
 11
322.2145818514068
 21
80.26848737370223
 31
0.000000000000000
  0
LINE
  5
19F
100
AcDbEntity
  8
1
  6
CONTINUOUS
 62
7
100
AcDbLine
 10
323.8071277439950
 20
80.38431146446048
 30
0.000000000000000
 11
324.0244216578537
 21
80.59411004643862
 31
0.000000000000000
  0
LINE
  5
1A0
100
AcDbEntity
  8
1
  6
CONTINUOUS
 62
7
100
AcDbLine
 10
323.2819595376079
 20
80.18257389978788
 30
0.000000000000000
 11
323.8071277439952
 21
80.38431146446050
 31
0.000000000000000
  0
LINE
  5
1A1
100
AcDbEntity
  8
1
  6
CONTINUOUS
 62
7
100
AcDbLine
 10
324.1398921952214
 20
80.05154701323406
 30
0.000000000000000
 11
324.3489836704184
 21
80.26813382031162
 31
0.000000000000000
  0
LINE
  5
1A2
100
AcDbEntity
  8
1
  6
CONTINUOUS
 62
7
100
AcDbLine
 10
323.9381546305489
 20
79.52637880684674
 30
0.000000000000000
 11
324.1398921952214
 21
80.05154701323409
 31
0.000000000000000
  0
ARC
  5
1A3
100
AcDbEntity
  8
1
  6
CONTINUOUS
 62
7
100
AcDbCircle
 10
336.2819595376080
 20
79.52637880684676
 30
0.000000000000000
 40
1.300000000000000
100
AcDbArc
 50
304.8090000000029
 51
325.1909999999972
  0
ARC
  5
1A4
100
AcDbEntity
  8
1
  6
CONTINUOUS
 62
7
100
AcDbCircle
 10
336.2819595376080
 20
79.52637880684676
 30
0.000000000000000
 40
1.300000000000000
100
AcDbArc
 50
214.8090000000000
 51
235.1909999999997
  0
ARC
  5
1A5
100
AcDbEntity
  8
1
  6
CONTINUOUS
 62
7
100
AcDbCircle
 10
336.2819595376080
 20
79.52637880684676
 30
0.000000000000000
 40
1.300000000000000
100
AcDbArc
 50
124.8094000000022
 51
145.1909999999971
  0
LINE
  5
1A6
100
AcDbEntity
  8
1
  6
CONTINUOUS
 62
7
100
AcDbLine
 10
336.2819595376079
 20
78.87018371390552
 30
0.000000000000000
 11
336.8071984546734
 21
78.66879970262372
 31
0.000000000000000
  0
LINE
  5
1A7
100
AcDbEntity
  8
1
  6
CONTINUOUS
 62
7
100
AcDbLine
 10
336.8071984546733
 20
78.66879970262369
 30
0.000000000000000
 11
337.0240681044633
 21
78.45900112064558
 31
0.000000000000000
  0
LINE
  5
1A8
100
AcDbEntity
  8
1
  6
CONTINUOUS
 62
7
100
AcDbLine
 10
336.9381546305489
 20
79.52637880684654
 30
0.000000000000000
 11
337.1395386418309
 21
79.00113988978131
 31
0.000000000000000
  0
LINE
  5
1A9
100
AcDbEntity
  8
1
  6
CONTINUOUS
 62
7
100
AcDbLine
 10
337.1395386418309
 20
79.00113988978137
 30
0.000000000000000
 11
337.3493372238090
 21
78.78427023999137
 31
0.000000000000000
  0
LINE
  5
1AA
100
AcDbEntity
  8
1
  6
CONTINUOUS
 62
7
100
AcDbLine
 10
335.6257644446666
 20
79.52637880684667
 30
0.000000000000000
 11
335.4240268799942
 21
79.00121060045943
 31
0.000000000000000
  0
LINE
  5
1AB
100
AcDbEntity
  8
1
  6
CONTINUOUS
 62
7
100
AcDbLine
 10
335.4240268799942
 20
79.00121060045944
 30
0.000000000000000
 11
335.2149354047973
 21
78.78462379338194
 31
0.000000000000000
  0
LINE
  5
1AC
100
AcDbEntity
  8
1
  6
CONTINUOUS
 62
7
100
AcDbLine
 10
336.2819595376079
 20
78.87018371390552
 30
0.000000000000000
 11
335.7567913312208
 21
78.66844614923311
 31
0.000000000000000
  0
LINE
  5
1AD
100
AcDbEntity
  8
1
  6
CONTINUOUS
 62
7
100
AcDbLine
 10
335.7567913312206
 20
78.66844614923309
 30
0.000000000000000
 11
335.5402045241430
 21
78.45935467403609
 31
0.000000000000000
  0
LINE
  5
1AE
100
AcDbEntity
  8
1
  6
CONTINUOUS
 62
7
100
AcDbLine
 10
336.2819595376078
 20
80.18257389978767
 30
0.000000000000000
 11
335.7567206205426
 21
80.38395791106966
 31
0.000000000000000
  0
LINE
  5
1AF
100
AcDbEntity
  8
1
  6
CONTINUOUS
 62
7
100
AcDbLine
 10
335.7567206205426
 20
80.38395791106967
 30
0.000000000000000
 11
335.5398509707526
 21
80.59375649304769
 31
0.000000000000000
  0
LINE
  5
1B0
100
AcDbEntity
  8
1
  6
CONTINUOUS
 62
7
100
AcDbLine
 10
335.6257644446667
 20
79.52637880684665
 30
0.000000000000000
 11
335.4243804333850
 21
80.05161772391216
 31
0.000000000000000
  0
LINE
  5
1B1
100
AcDbEntity
  8
1
  6
CONTINUOUS
 62
7
100
AcDbLine
 10
335.4243804333851
 20
80.05161772391216
 30
0.000000000000000
 11
335.2145818514069
 21
80.26848737370207
 31
0.000000000000000
  0
ARC
  5
1B2
100
AcDbEntity
  8
1
  6
CONTINUOUS
 62
7
100
AcDbCircle
 10
336.2819595376080
 20
79.52637880684676
 30
0.000000000000000
 40
1.300000000000000
100
AcDbArc
 50
34.80900000000004
 51
55.19059999999960
  0
LINE
  5
1B3
100
AcDbEntity
  8
1
  6
CONTINUOUS
 62
7
100
AcDbLine
 10
336.8071277439951
 20
80.38431146446025
 30
0.000000000000000
 11
337.0237145510727
 21
80.59340293965725
 31
0.000000000000000
  0
LINE
  5
1B4
100
AcDbEntity
  8
1
  6
CONTINUOUS
 62
7
100
AcDbLine
 10
337.1398921952215
 20
80.05154701323389
 30
0.000000000000000
 11
337.3489836704185
 21
80.26813382031145
 31
0.000000000000000
  0
CIRCLE
  5
1B5
100
AcDbEntity
  8
1
  6
CONTINUOUS
 62
7
100
AcDbCircle
 10
329.7819595376077
 20
112.0263788068468
 30
0.000000000000000
 40
4.500000000000000
  0
LINE
  5
1B6
100
AcDbEntity
  8
4
  6
CENTER
 62
1
100
AcDbLine
 10
322.6349595376078
 20
112.0263788068467
 30
0.000000000000000
 11
338.0039595376080
 21
112.0263788068467
 31
0.000000000000000
  0
ARC
  5
1B7
100
AcDbEntity
  8
1
  6
CONTINUOUS
 62
7
100
AcDbCircle
 10
329.7819595376077
 20
112.0263788068468
 30
0.000000000000000
 40
2.450000000000000
100
AcDbArc
 50
305.1290000000001
 51
324.8709999999996
  0
ARC
  5
1B8
100
AcDbEntity
  8
1
  6
CONTINUOUS
 62
7
100
AcDbCircle
 10
329.7819595376077
 20
112.0263788068468
 30
0.000000000000000
 40
2.450000000000000
100
AcDbArc
 50
125.1291000000003
 51
144.8708999999996
  0
LINE
  5
1B9
100
AcDbEntity
  8
1
  6
CONTINUOUS
 62
7
100
AcDbLine
 10
330.4104360447265
 20
110.7770625458464
 30
0.000000000000000
 11
331.1917183272595
 21
110.0226503209986
 31
0.000000000000000
  0
ARC
  5
1BA
100
AcDbEntity
  8
1
  6
CONTINUOUS
 62
7
100
AcDbCircle
 10
329.7819595376077
 20
112.0263788068468
 30
0.000000000000000
 40
2.450000000000000
100
AcDbArc
 50
215.1289999999995
 51
234.8710000000003
  0
LINE
  5
1BB
100
AcDbEntity
  8
1
  6
CONTINUOUS
 62
7
100
AcDbLine
 10
329.7816766948953
 20
111.0055994575259
 30
0.000000000000000
 11
330.4104360447265
 21
110.7770625458464
 31
0.000000000000000
  0
LINE
  5
1BC
100
AcDbEntity
  8
1
  6
CONTINUOUS
 62
7
100
AcDbLine
 10
329.1533416091332
 20
110.7769211244902
 30
0.000000000000000
 11
328.3719886159217
 21
110.0224381889642
 31
0.000000000000000
  0
LINE
  5
1BD
100
AcDbEntity
  8
1
  6
CONTINUOUS
 62
7
100
AcDbLine
 10
329.7816766948953
 20
111.0055994575259
 30
0.000000000000000
 11
329.1533416091331
 21
110.7769211244902
 31
0.000000000000000
  0
LINE
  5
1BE
100
AcDbEntity
  8
1
  6
CONTINUOUS
 62
7
100
AcDbLine
 10
328.7611801882868
 20
112.0260959641343
 30
0.000000000000000
 11
328.5325018552513
 21
111.3977608783720
 31
0.000000000000000
  0
LINE
  5
1BF
100
AcDbEntity
  8
1
  6
CONTINUOUS
 62
7
100
AcDbLine
 10
328.5325018552514
 20
111.3977608783720
 30
0.000000000000000
 11
327.7780189197253
 21
110.6164078851609
 31
0.000000000000000
  0
LINE
  5
1C0
100
AcDbEntity
  8
1
  6
CONTINUOUS
 62
7
100
AcDbLine
 10
328.5326432766075
 20
112.6548553139654
 30
0.000000000000000
 11
327.7782310517597
 21
113.4361375964984
 31
0.000000000000000
  0
LINE
  5
1C1
100
AcDbEntity
  8
1
  6
CONTINUOUS
 62
7
100
AcDbLine
 10
328.7611801882870
 20
112.0260959641343
 30
0.000000000000000
 11
328.5326432766076
 21
112.6548553139654
 31
0.000000000000000
  0
LINE
  5
1C2
100
AcDbEntity
  8
1
  6
CONTINUOUS
 62
7
100
AcDbLine
 10
331.0312757986082
 20
111.3979022997282
 30
0.000000000000000
 11
331.7856880234560
 21
110.6166200171952
 31
0.000000000000000
  0
ARC
  5
1C3
100
AcDbEntity
  8
1
  6
CONTINUOUS
 62
7
100
AcDbCircle
 10
329.7819595376077
 20
112.0263788068468
 30
0.000000000000000
 40
2.450000000000000
100
AcDbArc
 50
35.12899999999952
 51
54.87088999999985
  0
LINE
  5
1C4
100
AcDbEntity
  8
1
  6
CONTINUOUS
 62
7
100
AcDbLine
 10
330.8027388869288
 20
112.0266616495594
 30
0.000000000000000
 11
331.0312757986082
 21
111.3979022997282
 31
0.000000000000000
  0
LINE
  5
1C5
100
AcDbEntity
  8
1
  6
CONTINUOUS
 62
7
100
AcDbLine
 10
329.7822423803205
 20
113.0471581561677
 30
0.000000000000000
 11
329.1534830304893
 21
113.2756950678471
 31
0.000000000000000
  0
LINE
  5
1C6
100
AcDbEntity
  8
1
  6
CONTINUOUS
 62
7
100
AcDbLine
 10
329.1534830304893
 20
113.2756950678471
 30
0.000000000000000
 11
328.3722007479563
 21
114.0301072926951
 31
0.000000000000000
  0
LINE
  5
1C7
100
AcDbEntity
  8
1
  6
CONTINUOUS
 62
7
100
AcDbLine
 10
329.7822423803206
 20
113.0471581561677
 30
0.000000000000000
 11
330.4105774660828
 21
113.2758364892034
 31
0.000000000000000
  0
LINE
  5
1C8
100
AcDbEntity
  8
1
  6
CONTINUOUS
 62
7
100
AcDbLine
 10
330.4105774660827
 20
113.2758364892034
 30
0.000000000000000
 11
331.1919304592939
 21
114.0303194247295
 31
0.000000000000000
  0
LINE
  5
1C9
100
AcDbEntity
  8
1
  6
CONTINUOUS
 62
7
100
AcDbLine
 10
331.0314172199646
 20
112.6549967353217
 30
0.000000000000000
 11
331.7859001554905
 21
113.4363497285328
 31
0.000000000000000
  0
LINE
  5
1CA
100
AcDbEntity
  8
1
  6
CONTINUOUS
 62
7
100
AcDbLine
 10
330.8027388869288
 20
112.0266616495594
 30
0.000000000000000
 11
331.0313465092864
 21
112.6550674459999
 31
0.000000000000000
  0
ARC
  5
1CB
100
AcDbEntity
  8
1
  6
CONTINUOUS
 62
7
100
AcDbCircle
 10
340.2819595376078
 20
94.02637880684676
 30
0.000000000000000
 40
1.000000000000000
100
AcDbArc
 50
0.000000000000000
 51
90.00000000000000
  0
LINE
  5
1CC
100
AcDbEntity
  8
1
  6
CONTINUOUS
 62
7
100
AcDbLine
 10
330.4389595376079
 20
135.5263788068466
 30
0.000000000000000
 11
329.1249595376080
 21
135.5263788068466
 31
0.000000000000000
  0
ARC
  5
1CD
100
AcDbEntity
  8
1
  6
CONTINUOUS
 62
7
100
AcDbCircle
 10
338.2819595376078
 20
132.0263788068467
 30
0.000000000000000
 40
3.000000000000000
100
AcDbArc
 50
270.0000000000000
 51
360.0000000000000
  0
ARC
  5
1CE
100
AcDbEntity
  8
1
  6
CONTINUOUS
 62
7
100
AcDbCircle
 10
345.5319595376078
 20
126.0263788068466
 30
0.000000000000000
 40
2.000000000000000
100
AcDbArc
 50
0.000000000000000
 51
90.00000000000000
  0
CIRCLE
  5
1CF
100
AcDbEntity
  8
1
  6
CONTINUOUS
 62
7
100
AcDbCircle
 10
329.7819595376078
 20
186.2679788068465
 30
0.000000000000000
 40
9.000000000000000
  0
LINE
  5
1D0
100
AcDbEntity
  8
4
  6
CENTER
 62
1
100
AcDbLine
 10
342.2819595376078
 20
186.2679788068465
 30
0.000000000000000
 11
317.2819595376078
 21
186.2679788068465
 31
0.000000000000000
  0
LINE
  5
1D1
100
AcDbEntity
  8
1
  6
CONTINUOUS
 62
7
100
AcDbLine
 10
338.2819595376078
 20
152.0263788068467
 30
0.000000000000000
 11
321.2819595376078
 21
152.0263788068467
 31
0.000000000000000
  0
LINE
  5
1D2
100
AcDbEntity
  8
4
  6
CENTER
 62
1
100
AcDbLine
 10
347.8359595376078
 20
140.5263788068467
 30
0.000000000000000
 11
313.0419595376080
 21
140.5263788068467
 31
0.000000000000000
  0
LINE
  5
1D3
100
AcDbEntity
  8
1
  6
CONTINUOUS
 62
7
100
AcDbLine
 10
338.7819595376078
 20
161.5263788068467
 30
0.000000000000000
 11
320.7819595376077
 21
161.5263788068467
 31
0.000000000000000
  0
LINE
  5
1D4
100
AcDbEntity
  8
1
  6
CONTINUOUS
 62
7
100
AcDbLine
 10
257.0958595376079
 20
228.2383788068467
 30
0.000000000000000
 11
257.0958595376079
 21
204.7387788068467
 31
0.000000000000000
  0
LINE
  5
1D5
100
AcDbEntity
  8
1
  6
CONTINUOUS
 62
7
100
AcDbLine
 10
259.0958595376079
 20
228.2383788068467
 30
0.000000000000000
 11
259.0958595376079
 21
204.7387788068467
 31
0.000000000000000
  0
LINE
  5
1D6
100
AcDbEntity
  8
1
  6
CONTINUOUS
 62
7
100
AcDbLine
 10
218.3479595376080
 20
225.4883788068467
 30
0.000000000000000
 11
218.3479595376080
 21
207.4887788068467
 31
0.000000000000000
  0
LINE
  5
1D7
100
AcDbEntity
  8
1
  6
CONTINUOUS
 62
7
100
AcDbLine
 10
216.7479595376080
 20
225.4883788068467
 30
0.000000000000000
 11
216.7479595376080
 21
207.4887788068467
 31
0.000000000000000
  0
LINE
  5
1D8
100
AcDbEntity
  8
4
  6
CENTER
 62
1
100
AcDbLine
 10
254.0182595376080
 20
216.4887788068466
 30
0.000000000000000
 11
266.4628595376080
 21
216.4887788068466
 31
0.000000000000000
  0
LINE
  5
1D9
100
AcDbEntity
  8
1
  6
CONTINUOUS
 62
7
100
AcDbLine
 10
259.0958595376079
 20
221.0886788068466
 30
0.000000000000000
 11
260.3959595376080
 21
221.0886788068466
 31
0.000000000000000
  0
LINE
  5
1DA
100
AcDbEntity
  8
1
  6
CONTINUOUS
 62
7
100
AcDbLine
 10
259.0958595376079
 20
211.8887788068467
 30
0.000000000000000
 11
260.3959595376080
 21
211.8887788068467
 31
0.000000000000000
  0
LINE
  5
1DB
100
AcDbEntity
  8
1
  6
CONTINUOUS
 62
7
100
AcDbLine
 10
259.0959595376078
 20
215.9645788068466
 30
0.000000000000000
 11
260.3959595376080
 21
216.3128788068467
 31
0.000000000000000
  0
LINE
  5
1DC
100
AcDbEntity
  8
1
  6
CONTINUOUS
 62
7
100
AcDbLine
 10
259.0960595376081
 20
216.6645788068467
 30
0.000000000000000
 11
260.3959595376080
 21
217.0128788068467
 31
0.000000000000000
  0
LINE
  5
1DD
100
AcDbEntity
  8
1
  6
CONTINUOUS
 62
7
100
AcDbLine
 10
229.7205595376079
 20
138.2169788068467
 30
0.000000000000000
 11
226.5777595376079
 21
138.2169788068467
 31
0.000000000000000
  0
LINE
  5
1DE
100
AcDbEntity
  8
1
  6
CONTINUOUS
 62
7
100
AcDbLine
 10
229.7205595376079
 20
142.8357788068464
 30
0.000000000000000
 11
226.5777595376079
 21
142.8357788068464
 31
0.000000000000000
  0
LINE
  5
1DF
100
AcDbEntity
  8
1
  6
CONTINUOUS
 62
7
100
AcDbLine
 10
229.7205595376079
 20
145.1451788068467
 30
0.000000000000000
 11
226.5777595376079
 21
145.1451788068467
 31
0.000000000000000
  0
LINE
  5
1E0
100
AcDbEntity
  8
4
  6
CENTER
 62
1
100
AcDbLine
 10
233.6139135376080
 20
140.5263788068467
 30
0.000000000000000
 11
213.2238605376079
 21
140.5263788068467
 31
0.000000000000000
  0
LINE
  5
1E1
100
AcDbEntity
  8
1
  6
CONTINUOUS
 62
7
100
AcDbLine
 10
226.5777595376079
 20
140.6364788068467
 30
0.000000000000000
 11
225.2777595376079
 21
139.3364788068466
 31
0.000000000000000
  0
LINE
  5
1E2
100
AcDbEntity
  8
1
  6
CONTINUOUS
 62
7
100
AcDbLine
 10
226.5777595376079
 20
141.6264788068466
 30
0.000000000000000
 11
225.2777595376079
 21
140.3264788068467
 31
0.000000000000000
  0
LINE
  5
1E3
100
AcDbEntity
  8
1
  6
CONTINUOUS
 62
7
100
AcDbLine
 10
224.2777595376079
 20
145.5263788068466
 30
0.000000000000000
 11
225.2777595376079
 21
145.5263788068466
 31
0.000000000000000
  0
LINE
  5
1E4
100
AcDbEntity
  8
1
  6
CONTINUOUS
 62
7
100
AcDbLine
 10
226.5777595376079
 20
145.1263788068465
 30
0.000000000000000
 11
225.2777595376079
 21
145.1263788068465
 31
0.000000000000000
  0
LINE
  5
1E5
100
AcDbEntity
  8
1
  6
CONTINUOUS
 62
7
100
AcDbLine
 10
216.7479595376080
 20
149.5263788068466
 30
0.000000000000000
 11
218.3479595376080
 21
149.5263788068466
 31
0.000000000000000
  0
ARC
  5
1E6
100
AcDbEntity
  8
1
  6
CONTINUOUS
 62
7
100
AcDbCircle
 10
222.4350595376078
 20
140.5263788068467
 30
0.000000000000000
 40
7.642730000000000
100
AcDbArc
 50
342.4119999999997
 51
377.5880000000000
  0
LINE
  5
1E7
100
AcDbEntity
  8
1
  6
CONTINUOUS
 62
7
100
AcDbLine
 10
230.0777595376080
 20
136.5263788068466
 30
0.000000000000000
 11
230.0777595376080
 21
144.5263788068467
 31
0.000000000000000
  0
ARC
  5
1E8
100
AcDbEntity
  8
1
  6
CONTINUOUS
 62
7
100
AcDbCircle
 10
228.0331595376079
 20
143.9904788068466
 30
0.000000000000000
 40
2.044659999999999
100
AcDbArc
 50
325.6160000000000
 51
394.3841999999985
  0
LINE
  5
1E9
100
AcDbEntity
  8
1
  6
CONTINUOUS
 62
7
100
AcDbLine
 10
230.0777595376080
 20
144.5263788068467
 30
0.000000000000000
 11
229.7205595376079
 21
145.1451788068467
 31
0.000000000000000
  0
LINE
  5
1EA
100
AcDbEntity
  8
1
  6
CONTINUOUS
 62
7
100
AcDbLine
 10
226.5777595376079
 20
220.4887788068466
 30
0.000000000000000
 11
230.0777595376080
 21
220.4887788068466
 31
0.000000000000000
  0
LINE
  5
1EB
100
AcDbEntity
  8
1
  6
CONTINUOUS
 62
7
100
AcDbLine
 10
226.5777595376079
 20
216.4887788068466
 30
0.000000000000000
 11
229.7205595376079
 21
216.4887788068466
 31
0.000000000000000
  0
LINE
  5
1EC
100
AcDbEntity
  8
1
  6
CONTINUOUS
 62
7
100
AcDbLine
 10
226.5777595376079
 20
212.4887788068466
 30
0.000000000000000
 11
230.0777595376080
 21
212.4887788068466
 31
0.000000000000000
  0
LINE
  5
1ED
100
AcDbEntity
  8
4
  6
CENTER
 62
1
100
AcDbLine
 10
233.6139135376080
 20
216.4887788068466
 30
0.000000000000000
 11
213.4637465376080
 21
216.4887788068466
 31
0.000000000000000
  0
LINE
  5
1EE
100
AcDbEntity
  8
1
  6
CONTINUOUS
 62
7
100
AcDbLine
 10
216.7479595376080
 20
207.4887788068467
 30
0.000000000000000
 11
218.3479595376080
 21
207.4887788068467
 31
0.000000000000000
  0
LINE
  5
1EF
100
AcDbEntity
  8
1
  6
CONTINUOUS
 62
7
100
AcDbLine
 10
224.2777595376079
 20
221.4887788068467
 30
0.000000000000000
 11
224.2777595376079
 21
211.4887788068467
 31
0.000000000000000
  0
LINE
  5
1F0
100
AcDbEntity
  8
1
  6
CONTINUOUS
 62
7
100
AcDbLine
 10
225.2777595376079
 20
221.4887788068467
 30
0.000000000000000
 11
225.2777595376079
 21
211.4887788068467
 31
0.000000000000000
  0
LINE
  5
1F1
100
AcDbEntity
  8
1
  6
CONTINUOUS
 62
7
100
AcDbLine
 10
226.5777595376079
 20
216.5988788068467
 30
0.000000000000000
 11
225.2777595376079
 21
215.2988788068467
 31
0.000000000000000
  0
LINE
  5
1F2
100
AcDbEntity
  8
1
  6
CONTINUOUS
 62
7
100
AcDbLine
 10
226.5777595376079
 20
217.5888788068467
 30
0.000000000000000
 11
225.2776595376079
 21
216.2888788068467
 31
0.000000000000000
  0
LINE
  5
1F3
100
AcDbEntity
  8
1
  6
CONTINUOUS
 62
7
100
AcDbLine
 10
226.5777595376079
 20
221.0887788068467
 30
0.000000000000000
 11
226.5777595376079
 21
211.8887788068467
 31
0.000000000000000
  0
LINE
  5
1F4
100
AcDbEntity
  8
1
  6
CONTINUOUS
 62
7
100
AcDbLine
 10
224.2777595376079
 20
211.4887788068467
 30
0.000000000000000
 11
225.2777595376079
 21
211.4887788068467
 31
0.000000000000000
  0
LINE
  5
1F5
100
AcDbEntity
  8
1
  6
CONTINUOUS
 62
7
100
AcDbLine
 10
226.5777595376079
 20
211.8887788068467
 30
0.000000000000000
 11
225.2777595376079
 21
211.8887788068467
 31
0.000000000000000
  0
LINE
  5
1F6
100
AcDbEntity
  8
1
  6
CONTINUOUS
 62
7
100
AcDbLine
 10
224.2777595376079
 20
221.4887788068467
 30
0.000000000000000
 11
225.2777595376079
 21
221.4887788068467
 31
0.000000000000000
  0
LINE
  5
1F7
100
AcDbEntity
  8
1
  6
CONTINUOUS
 62
7
100
AcDbLine
 10
226.5777595376079
 20
221.0887788068467
 30
0.000000000000000
 11
225.2777595376079
 21
221.0887788068467
 31
0.000000000000000
  0
LINE
  5
1F8
100
AcDbEntity
  8
1
  6
CONTINUOUS
 62
7
100
AcDbLine
 10
247.3958595376080
 20
202.7387788068467
 30
0.000000000000000
 11
247.3958595376080
 21
198.7387788068467
 31
0.000000000000000
  0
LINE
  5
1F9
100
AcDbEntity
  8
1
  6
CONTINUOUS
 62
7
100
AcDbLine
 10
249.3958595376080
 20
202.7387788068467
 30
0.000000000000000
 11
249.3958595376080
 21
198.7387788068467
 31
0.000000000000000
  0
LINE
  5
1FA
100
AcDbEntity
  8
1
  6
CONTINUOUS
 62
7
100
AcDbLine
 10
247.3958595376080
 20
198.7387788068467
 30
0.000000000000000
 11
249.3958595376080
 21
198.7387788068467
 31
0.000000000000000
  0
ARC
  5
1FB
100
AcDbEntity
  8
1
  6
CONTINUOUS
 62
7
100
AcDbCircle
 10
224.3010595376079
 20
214.4887788068466
 30
0.000000000000000
 40
5.776709999999997
100
AcDbArc
 50
339.7440000000011
 51
380.2562000000006
  0
LINE
  5
1FC
100
AcDbEntity
  8
1
  6
CONTINUOUS
 62
7
100
AcDbLine
 10
230.0777595376080
 20
212.4887788068466
 30
0.000000000000000
 11
230.0777595376080
 21
220.4887788068466
 31
0.000000000000000
  0
ARC
  5
1FD
100
AcDbEntity
  8
1
  6
CONTINUOUS
 62
7
100
AcDbCircle
 10
224.3010595376079
 20
218.4887788068466
 30
0.000000000000000
 40
5.776709999999997
100
AcDbArc
 50
339.7440000000011
 51
380.2562000000006
  0
LINE
  5
1FE
100
AcDbEntity
  8
1
  6
CONTINUOUS
 62
7
100
AcDbLine
 10
249.3958595376080
 20
202.7387788068467
 30
0.000000000000000
 11
257.0958595376079
 21
202.7387788068467
 31
0.000000000000000
  0
LINE
  5
1FF
100
AcDbEntity
  8
1
  6
CONTINUOUS
 62
7
100
AcDbLine
 10
249.3958595376080
 20
204.7387788068467
 30
0.000000000000000
 11
257.0958595376079
 21
204.7387788068467
 31
0.000000000000000
  0
ARC
  5
200
100
AcDbEntity
  8
1
  6
CONTINUOUS
 62
7
100
AcDbCircle
 10
249.3958595376080
 20
202.7387788068467
 30
0.000000000000000
 40
2.000000000000000
100
AcDbArc
 50
90.00000000000000
 51
180.0000000000000
  0
ARC
  5
201
100
AcDbEntity
  8
1
  6
CONTINUOUS
 62
7
100
AcDbCircle
 10
257.0958595376079
 20
204.7387788068467
 30
0.000000000000000
 40
2.000000000000000
100
AcDbArc
 50
270.0000000000000
 51
360.0000000000000
  0
ARC
  5
202
100
AcDbEntity
  8
1
  6
CONTINUOUS
 62
7
100
AcDbCircle
 10
320.7819595376077
 20
156.5263788068466
 30
0.000000000000000
 40
5.000000000000000
100
AcDbArc
 50
90.00000000000000
 51
180.0000000000000
  0
ARC
  5
203
100
AcDbEntity
  8
1
  6
CONTINUOUS
 62
7
100
AcDbCircle
 10
321.2819595376078
 20
149.0263788068467
 30
0.000000000000000
 40
3.000000000000000
100
AcDbArc
 50
90.00000000000000
 51
180.0000000000000
  0
ARC
  5
204
100
AcDbEntity
  8
1
  6
CONTINUOUS
 62
7
100
AcDbCircle
 10
251.6959595376080
 20
216.4887788068466
 30
0.000000000000000
 40
12.00000000000000
100
AcDbArc
 50
344.5059999999996
 51
375.4940000000003
  0
LINE
  5
205
100
AcDbEntity
  8
1
  6
CONTINUOUS
 62
7
100
AcDbLine
 10
260.3959595376080
 20
221.0886788068466
 30
0.000000000000000
 11
260.3959595376080
 21
211.8887788068467
 31
0.000000000000000
  0
ARC
  5
206
100
AcDbEntity
  8
1
  6
CONTINUOUS
 62
7
100
AcDbCircle
 10
261.7179595376079
 20
213.7105788068467
 30
0.000000000000000
 40
1.600000000000000
100
AcDbArc
 50
274.9999999999998
 51
344.5059999999996
  0
LINE
  5
207
100
AcDbEntity
  8
1
  6
CONTINUOUS
 62
7
100
AcDbLine
 10
261.8574595376079
 20
212.1166788068467
 30
0.000000000000000
 11
260.3959595376080
 21
211.9887788068466
 31
0.000000000000000
  0
ARC
  5
208
100
AcDbEntity
  8
1
  6
CONTINUOUS
 62
7
100
AcDbCircle
 10
261.7179595376079
 20
219.2669788068467
 30
0.000000000000000
 40
1.600000000000000
100
AcDbArc
 50
15.49400000000020
 51
84.99990000000015
  0
LINE
  5
209
100
AcDbEntity
  8
1
  6
CONTINUOUS
 62
7
100
AcDbLine
 10
261.8574595376079
 20
220.8608788068466
 30
0.000000000000000
 11
260.3959595376080
 21
220.9887788068467
 31
0.000000000000000
  0
LINE
  5
20A
100
AcDbEntity
  8
1
  6
CONTINUOUS
 62
7
100
AcDbLine
 10
216.7479595376080
 20
225.4883788068467
 30
0.000000000000000
 11
218.3479595376080
 21
225.4883788068467
 31
0.000000000000000
  0
LINE
  5
20B
100
AcDbEntity
  8
1
  6
CONTINUOUS
 62
7
100
AcDbLine
 10
249.3958595376080
 20
234.2383788068466
 30
0.000000000000000
 11
249.3958595376080
 21
230.2383788068466
 31
0.000000000000000
  0
LINE
  5
20C
100
AcDbEntity
  8
1
  6
CONTINUOUS
 62
7
100
AcDbLine
 10
247.3958595376080
 20
234.2383788068466
 30
0.000000000000000
 11
247.3958595376080
 21
230.2383788068466
 31
0.000000000000000
  0
LINE
  5
20D
100
AcDbEntity
  8
1
  6
CONTINUOUS
 62
7
100
AcDbLine
 10
249.3958595376080
 20
230.2383788068466
 30
0.000000000000000
 11
257.0958595376079
 21
230.2383788068466
 31
0.000000000000000
  0
LINE
  5
20E
100
AcDbEntity
  8
1
  6
CONTINUOUS
 62
7
100
AcDbLine
 10
249.3958595376080
 20
228.2383788068467
 30
0.000000000000000
 11
257.0958595376079
 21
228.2383788068467
 31
0.000000000000000
  0
ARC
  5
20F
100
AcDbEntity
  8
1
  6
CONTINUOUS
 62
7
100
AcDbCircle
 10
249.3958595376080
 20
230.2383788068466
 30
0.000000000000000
 40
2.000000000000000
100
AcDbArc
 50
180.0000000000000
 51
270.0000000000000
  0
ARC
  5
210
100
AcDbEntity
  8
1
  6
CONTINUOUS
 62
7
100
AcDbCircle
 10
257.0958595376079
 20
228.2383788068467
 30
0.000000000000000
 40
2.000000000000000
100
AcDbArc
 50
0.000000000000000
 51
90.00000000000000
  0
LINE
  5
211
100
AcDbEntity
  8
1
  6
CONTINUOUS
 62
7
100
AcDbLine
 10
247.3958595376080
 20
234.2383788068466
 30
0.000000000000000
 11
249.3958595376080
 21
234.2383788068466
 31
0.000000000000000
  0
LINE
  5
212
100
AcDbEntity
  8
4
  6
CENTER
 62
1
100
AcDbLine
 10
329.7819595376078
 20
198.7679788068465
 30
0.000000000000000
 11
329.7819595376078
 21
173.7679788068467
 31
0.000000000000000
  0
ARC
  5
213
100
AcDbEntity
  8
1
  6
CONTINUOUS
 62
7
100
AcDbCircle
 10
338.7819595376078
 20
156.5263788068466
 30
0.000000000000000
 40
5.000000000000000
100
AcDbArc
 50
0.000000000000000
 51
90.00000000000000
  0
CIRCLE
  5
214
100
AcDbEntity
  8
1
  6
CONTINUOUS
 62
7
100
AcDbCircle
 10
329.7819595376078
 20
140.5263788068467
 30
0.000000000000000
 40
2.066999999999995
  0
CIRCLE
  5
215
100
AcDbEntity
  8
2
  6
CONTINUOUS
 62
4
100
AcDbCircle
 10
329.7819595376078
 20
140.5263788068467
 30
0.000000000000000
 40
2.500000000000000
  0
LINE
  5
216
100
AcDbEntity
  8
1
  6
CONTINUOUS
 62
7
100
AcDbLine
 10
330.4389595376079
 20
145.5263788068466
 30
0.000000000000000
 11
329.1249595376080
 21
145.5263788068466
 31
0.000000000000000
  0
LINE
  5
217
100
AcDbEntity
  8
1
  6
CONTINUOUS
 62
7
100
AcDbLine
 10
324.7819595376078
 20
141.1832788068467
 30
0.000000000000000
 11
329.1249595376080
 21
145.5263788068466
 31
0.000000000000000
  0
LINE
  5
218
100
AcDbEntity
  8
1
  6
CONTINUOUS
 62
7
100
AcDbLine
 10
324.7819595376078
 20
141.1832788068467
 30
0.000000000000000
 11
324.7819595376078
 21
139.8694788068467
 31
0.000000000000000
  0
LINE
  5
219
100
AcDbEntity
  8
1
  6
CONTINUOUS
 62
7
100
AcDbLine
 10
330.4389595376078
 20
145.5263788068466
 30
0.000000000000000
 11
334.7819595376077
 21
141.1832788068467
 31
0.000000000000000
  0
LINE
  5
21A
100
AcDbEntity
  8
1
  6
CONTINUOUS
 62
7
100
AcDbLine
 10
334.7819595376078
 20
141.1832788068467
 30
0.000000000000000
 11
334.7819595376078
 21
139.8694788068467
 31
0.000000000000000
  0
ARC
  5
21B
100
AcDbEntity
  8
1
  6
CONTINUOUS
 62
7
100
AcDbCircle
 10
329.7819595376078
 20
140.5263788068467
 30
0.000000000000000
 40
8.599999999999998
100
AcDbArc
 50
63.14970000000221
 51
116.8499999999972
  0
ARC
  5
21C
100
AcDbEntity
  8
1
  6
CONTINUOUS
 62
7
100
AcDbCircle
 10
325.6719595376081
 20
148.6452788068466
 30
0.000000000000000
 40
0.5000000000000000
100
AcDbArc
 50
210.0000000000004
 51
296.8499999999973
  0
LINE
  5
21D
100
AcDbEntity
  8
1
  6
CONTINUOUS
 62
7
100
AcDbLine
 10
325.2389595376081
 20
148.3952788068466
 30
0.000000000000000
 11
323.1423571170182
 21
152.0263788068467
 31
0.000000000000000
  0
LINE
  5
21E
100
AcDbEntity
  8
1
  6
CONTINUOUS
 62
7
100
AcDbLine
 10
333.9319595376078
 20
147.7143788068467
 30
0.000000000000000
 11
336.4214770925460
 21
152.0263788068468
 31
0.000000000000000
  0
ARC
  5
21F
100
AcDbEntity
  8
1
  6
CONTINUOUS
 62
7
100
AcDbCircle
 10
333.8919595376079
 20
148.6452788068466
 30
0.000000000000000
 40
0.5000000000000000
100
AcDbArc
 50
243.1499999999968
 51
329.9999999999994
  0
ARC
  5
220
100
AcDbEntity
  8
1
  6
CONTINUOUS
 62
7
100
AcDbCircle
 10
338.2819595376078
 20
149.0263788068467
 30
0.000000000000000
 40
3.000000000000000
100
AcDbArc
 50
0.000000000000000
 51
90.00000000000000
  0
CIRCLE
  5
221
100
AcDbEntity
  8
1
  6
CONTINUOUS
 62
7
100
AcDbCircle
 10
329.7819595376078
 20
186.2679788068465
 30
0.000000000000000
 40
5.000000000000000
  0
ARC
  5
222
100
AcDbEntity
  8
1
  6
CONTINUOUS
 62
7
100
AcDbCircle
 10
329.7819595376078
 20
186.2679788068465
 30
0.000000000000000
 40
4.599999999999996
100
AcDbArc
 50
30.40819999999845
 51
89.59180000000293
  0
ARC
  5
223
100
AcDbEntity
  8
1
  6
CONTINUOUS
 62
7
100
AcDbCircle
 10
329.7819595376078
 20
186.2679788068465
 30
0.000000000000000
 40
4.599999999999996
100
AcDbArc
 50
90.40819999999708
 51
149.5919999999987
  0
CIRCLE
  5
224
100
AcDbEntity
  8
1
  6
CONTINUOUS
 62
7
100
AcDbCircle
 10
329.7819595376078
 20
186.2679788068465
 30
0.000000000000000
 40
4.000000000000000
  0
LINE
  5
225
100
AcDbEntity
  8
1
  6
CONTINUOUS
 62
7
100
AcDbLine
 10
329.7819595376079
 20
190.8867788068467
 30
0.000000000000000
 11
333.7819595376078
 21
188.5773788068467
 31
0.000000000000000
  0
LINE
  5
226
100
AcDbEntity
  8
1
  6
CONTINUOUS
 62
7
100
AcDbLine
 10
325.7819595376078
 20
188.5773788068467
 30
0.000000000000000
 11
329.7819595376078
 21
190.8867788068467
 31
0.000000000000000
  0
ARC
  5
227
100
AcDbEntity
  8
1
  6
CONTINUOUS
 62
7
100
AcDbCircle
 10
329.7819595376078
 20
186.2679788068465
 30
0.000000000000000
 40
2.450000000000000
100
AcDbArc
 50
260.1290000000002
 51
279.8709999999998
  0
ARC
  5
228
100
AcDbEntity
  8
1
  6
CONTINUOUS
 62
7
100
AcDbCircle
 10
329.7819595376078
 20
186.2679788068465
 30
0.000000000000000
 40
2.450000000000000
100
AcDbArc
 50
80.12910000000038
 51
99.87089999999964
  0
ARC
  5
229
100
AcDbEntity
  8
1
  6
CONTINUOUS
 62
7
100
AcDbCircle
 10
329.7819595376078
 20
186.2679788068465
 30
0.000000000000000
 40
4.599999999999996
100
AcDbArc
 50
210.4080000000012
 51
269.5920000000025
  0
LINE
  5
22A
100
AcDbEntity
  8
1
  6
CONTINUOUS
 62
7
100
AcDbLine
 10
325.7819595376078
 20
183.9585788068466
 30
0.000000000000000
 11
329.7819595376078
 21
181.6491788068467
 31
0.000000000000000
  0
ARC
  5
22B
100
AcDbEntity
  8
1
  6
CONTINUOUS
 62
7
100
AcDbCircle
 10
329.7819595376078
 20
186.2679788068465
 30
0.000000000000000
 40
4.599999999999996
100
AcDbArc
 50
150.4080000000006
 51
209.5919999999992
  0
LINE
  5
22C
100
AcDbEntity
  8
1
  6
CONTINUOUS
 62
7
100
AcDbLine
 10
329.3429595376078
 20
184.9402788068466
 30
0.000000000000000
 11
329.3619595376078
 21
183.8542788068466
 31
0.000000000000000
  0
LINE
  5
22D
100
AcDbEntity
  8
1
  6
CONTINUOUS
 62
7
100
AcDbLine
 10
325.7819595376078
 20
183.9585788068466
 30
0.000000000000000
 11
325.7819595376078
 21
188.5773788068467
 31
0.000000000000000
  0
ARC
  5
22E
100
AcDbEntity
  8
1
  6
CONTINUOUS
 62
7
100
AcDbCircle
 10
329.7819595376078
 20
186.2679788068465
 30
0.000000000000000
 40
2.450000000000000
100
AcDbArc
 50
170.1289999999995
 51
189.8710000000003
  0
LINE
  5
22F
100
AcDbEntity
  8
1
  6
CONTINUOUS
 62
7
100
AcDbLine
 10
329.0599595376079
 20
185.5463788068465
 30
0.000000000000000
 11
329.3429595376080
 21
184.9402788068467
 31
0.000000000000000
  0
LINE
  5
230
100
AcDbEntity
  8
1
  6
CONTINUOUS
 62
7
100
AcDbLine
 10
328.4539595376081
 20
185.8290788068468
 30
0.000000000000000
 11
327.3679595376080
 21
185.8479788068468
 31
0.000000000000000
  0
LINE
  5
231
100
AcDbEntity
  8
1
  6
CONTINUOUS
 62
7
100
AcDbLine
 10
329.0599595376078
 20
185.5463788068465
 30
0.000000000000000
 11
328.4539595376081
 21
185.8290788068467
 31
0.000000000000000
  0
LINE
  5
232
100
AcDbEntity
  8
1
  6
CONTINUOUS
 62
7
100
AcDbLine
 10
329.0599595376078
 20
186.9896788068467
 30
0.000000000000000
 11
328.4539595376079
 21
186.7069788068466
 31
0.000000000000000
  0
LINE
  5
233
100
AcDbEntity
  8
1
  6
CONTINUOUS
 62
7
100
AcDbLine
 10
328.4539595376079
 20
186.7069788068466
 30
0.000000000000000
 11
327.3679595376079
 21
186.6879788068466
 31
0.000000000000000
  0
LINE
  5
234
100
AcDbEntity
  8
1
  6
CONTINUOUS
 62
7
100
AcDbLine
 10
329.3429595376078
 20
187.5957788068467
 30
0.000000000000000
 11
329.3619595376078
 21
188.6817788068467
 31
0.000000000000000
  0
LINE
  5
235
100
AcDbEntity
  8
1
  6
CONTINUOUS
 62
7
100
AcDbLine
 10
329.0599595376078
 20
186.9896788068467
 30
0.000000000000000
 11
329.3429595376078
 21
187.5957788068467
 31
0.000000000000000
  0
ARC
  5
236
100
AcDbEntity
  8
1
  6
CONTINUOUS
 62
7
100
AcDbCircle
 10
329.7819595376078
 20
186.2679788068465
 30
0.000000000000000
 40
4.599999999999996
100
AcDbArc
 50
330.4080000000007
 51
389.5917999999999
  0
LINE
  5
237
100
AcDbEntity
  8
1
  6
CONTINUOUS
 62
7
100
AcDbLine
 10
330.2209595376079
 20
184.9402788068467
 30
0.000000000000000
 11
330.2019595376078
 21
183.8542788068466
 31
0.000000000000000
  0
LINE
  5
238
100
AcDbEntity
  8
1
  6
CONTINUOUS
 62
7
100
AcDbLine
 10
333.7819595376078
 20
183.9585788068466
 30
0.000000000000000
 11
333.7819595376078
 21
188.5773788068467
 31
0.000000000000000
  0
ARC
  5
239
100
AcDbEntity
  8
1
  6
CONTINUOUS
 62
7
100
AcDbCircle
 10
329.7819595376078
 20
186.2679788068465
 30
0.000000000000000
 40
4.599999999999996
100
AcDbArc
 50
270.4079999999974
 51
329.5919999999986
  0
LINE
  5
23A
100
AcDbEntity
  8
1
  6
CONTINUOUS
 62
7
100
AcDbLine
 10
329.7819595376079
 20
181.6491788068467
 30
0.000000000000000
 11
333.7819595376078
 21
183.9585788068466
 31
0.000000000000000
  0
ARC
  5
23B
100
AcDbEntity
  8
1
  6
CONTINUOUS
 62
7
100
AcDbCircle
 10
329.7819595376078
 20
186.2679788068465
 30
0.000000000000000
 40
2.450000000000000
100
AcDbArc
 50
350.1289999999995
 51
369.8708899999999
  0
LINE
  5
23C
100
AcDbEntity
  8
1
  6
CONTINUOUS
 62
7
100
AcDbLine
 10
330.5039595376080
 20
185.5463788068465
 30
0.000000000000000
 11
330.2209595376079
 21
184.9402788068467
 31
0.000000000000000
  0
LINE
  5
23D
100
AcDbEntity
  8
1
  6
CONTINUOUS
 62
7
100
AcDbLine
 10
330.5039595376080
 20
186.9896788068467
 30
0.000000000000000
 11
330.2209595376078
 21
187.5957788068467
 31
0.000000000000000
  0
LINE
  5
23E
100
AcDbEntity
  8
1
  6
CONTINUOUS
 62
7
100
AcDbLine
 10
330.2209595376079
 20
187.5957788068467
 30
0.000000000000000
 11
330.2019595376078
 21
188.6817788068467
 31
0.000000000000000
  0
LINE
  5
23F
100
AcDbEntity
  8
1
  6
CONTINUOUS
 62
7
100
AcDbLine
 10
330.5039595376080
 20
186.9895788068465
 30
0.000000000000000
 11
331.1099595376080
 21
186.7069788068467
 31
0.000000000000000
  0
LINE
  5
240
100
AcDbEntity
  8
1
  6
CONTINUOUS
 62
7
100
AcDbLine
 10
331.1099595376079
 20
186.7069788068466
 30
0.000000000000000
 11
332.1959595376079
 21
186.6879788068466
 31
0.000000000000000
  0
LINE
  5
241
100
AcDbEntity
  8
1
  6
CONTINUOUS
 62
7
100
AcDbLine
 10
331.1099595376081
 20
185.8290788068468
 30
0.000000000000000
 11
332.1959595376081
 21
185.8479788068468
 31
0.000000000000000
  0
LINE
  5
242
100
AcDbEntity
  8
1
  6
CONTINUOUS
 62
7
100
AcDbLine
 10
330.5039595376080
 20
185.5463788068465
 30
0.000000000000000
 11
331.1099595376080
 21
185.8290788068467
 31
0.000000000000000
  0
ARC
  5
243
100
AcDbEntity
  8
1
  6
CONTINUOUS
 62
7
100
AcDbCircle
 10
329.7819595376078
 20
186.2679788068465
 30
0.000000000000000
 40
4.599999999999996
100
AcDbArc
 50
27.46509999999899
 51
27.53069999999917
  0
ARC
  5
244
100
AcDbEntity
  8
1
  6
CONTINUOUS
 62
7
100
AcDbCircle
 10
329.7819595376078
 20
186.2679788068465
 30
0.000000000000000
 40
4.599999999999996
100
AcDbArc
 50
26.29190000000004
 51
26.40619999999887
  0
ENDSEC
  0
SECTION
  2
OBJECTS
  0
DICTIONARY
  5
26E
100
AcDbDictionary
  3
ACAD_GROUP
350
26F
  3
ACAD_LAYOUT
350
270
  3
ACAD_MLINESTYLE
350
271
  0
DICTIONARY
  5
26F
102
{ACAD_REACTORS
330
26E
102
}
330
26E
100
AcDbDictionary
  0
DICTIONARY
  5
270
102
{ACAD_REACTORS
330
26E
102
}
330
26E
100
AcDbDictionary
  3
Model
350
272
  3
ﾚｲｱｳﾄ1
350
273
  3
ﾚｲｱｳﾄ2
350
274
  0
DICTIONARY
  5
271
102
{ACAD_REACTORS
330
26E
102
}
330
26E
100
AcDbDictionary
  3
STANDARD
350
275
  0
LAYOUT
  5
272
102
{ACAD_REACTORS
330
270
102
}
330
270
100
AcDbPlotSettings
 70
11952
  4
A3
 44
297.000000
 45
420.000000
 73
  1
 72
  1
100
AcDbLayout
  1
Model
 71
0
330
265
  0
LAYOUT
  5
273
102
{ACAD_REACTORS
330
270
102
}
330
270
100
AcDbPlotSettings
100
AcDbLayout
  1
ﾚｲｱｳﾄ1
 71
1
330
266
  0
LAYOUT
  5
274
102
{ACAD_REACTORS
330
270
102
}
330
270
100
AcDbPlotSettings
100
AcDbLayout
  1
ﾚｲｱｳﾄ2
 71
2
330
267
  0
MLINESTYLE
  5
275
102
{ACAD_REACTORS
330
271
102
}
330
271
100
AcDbMlineStyle
  2
STANDARD
 70
     0
  3

 62
   256
 51
90.00
 52
90.00
 71
     2
 49
0.50
 62
   256
  6
BYLAYER
 49
-0.50
 62
   256
  6
BYLAYER
  0
ENDSEC
  0
EOF
