  0
SECTION
  2
HEADER
  9
$ACADVER
  1
AC1015
  9
$ACADMAINTVER
 70
    20
  9
$DWGCODEPAGE
  3
ANSI_932
  9
$INSBASE
 10
0.0
 20
0.0
 30
0.0
  9
$EXTMIN
 10
10.0
 20
9.999999999999998
 30
0.0
  9
$EXTMAX
 10
870.9380449999999
 20
417.232277
 30
0.0
  9
$LIMMIN
 10
0.0
 20
0.0
  9
$LIMMAX
 10
888.9409999999998
 20
612.8305379999998
  9
$ORTHOMODE
 70
     1
  9
$REGENMODE
 70
     1
  9
$FILLMODE
 70
     1
  9
$QTEXTMODE
 70
     0
  9
$MIRRTEXT
 70
     1
  9
$LTSCALE
 40
20.0
  9
$ATTMODE
 70
     1
  9
$TEXTSIZE
 40
5.0
  9
$TRACEWID
 40
1.0
  9
$TEXTSTYLE
  7
STANDARD
  9
$CLAYER
  8
0
  9
$CELTYPE
  6
BYLAYER
  9
$CECOLOR
 62
   256
  9
$CELTSCALE
 40
1.0
  9
$DISPSILH
 70
     0
  9
$DIMSCALE
 40
1.0
  9
$DIMASZ
 40
2.5
  9
$DIMEXO
 40
1.0
  9
$DIMDLI
 40
10.0
  9
$DIMRND
 40
0.0
  9
$DIMDLE
 40
0.0
  9
$DIMEXE
 40
1.0
  9
$DIMTP
 40
0.0
  9
$DIMTM
 40
0.0
  9
$DIMTXT
 40
3.2
  9
$DIMCEN
 40
0.0
  9
$DIMTSZ
 40
0.0
  9
$DIMTOL
 70
     0
  9
$DIMLIM
 70
     0
  9
$DIMTIH
 70
     0
  9
$DIMTOH
 70
     0
  9
$DIMSE1
 70
     0
  9
$DIMSE2
 70
     0
  9
$DIMTAD
 70
     3
  9
$DIMZIN
 70
     8
  9
$DIMBLK
  1

  9
$DIMASO
 70
     1
  9
$DIMSHO
 70
     1
  9
$DIMPOST
  1

  9
$DIMAPOST
  1

  9
$DIMALT
 70
     0
  9
$DIMALTD
 70
     2
  9
$DIMALTF
 40
25.4
  9
$DIMLFAC
 40
1.0
  9
$DIMTOFL
 70
     1
  9
$DIMTVP
 40
0.0
  9
$DIMTIX
 70
     0
  9
$DIMSOXD
 70
     0
  9
$DIMSAH
 70
     1
  9
$DIMBLK1
  1
OPEN
  9
$DIMBLK2
  1
OPEN
  9
$DIMSTYLE
  2
STANDARD
  9
$DIMCLRD
 70
     0
  9
$DIMCLRE
 70
     0
  9
$DIMCLRT
 70
     0
  9
$DIMTFAC
 40
1.0
  9
$DIMGAP
 40
1.0
  9
$DIMJUST
 70
     0
  9
$DIMSD1
 70
     0
  9
$DIMSD2
 70
     0
  9
$DIMTOLJ
 70
     1
  9
$DIMTZIN
 70
     0
  9
$DIMALTZ
 70
     0
  9
$DIMALTTZ
 70
     0
  9
$DIMUPT
 70
     0
  9
$DIMDEC
 70
     4
  9
$DIMTDEC
 70
     4
  9
$DIMALTU
 70
     2
  9
$DIMALTTD
 70
     2
  9
$DIMTXSTY
  7
STANDARD
  9
$DIMAUNIT
 70
     0
  9
$DIMADEC
 70
     0
  9
$DIMALTRND
 40
0.0
  9
$DIMAZIN
 70
     0
  9
$DIMDSEP
 70
    46
  9
$DIMATFIT
 70
     3
  9
$DIMFRAC
 70
     0
  9
$DIMLDRBLK
  1
OPEN
  9
$DIMLUNIT
 70
     2
  9
$DIMLWD
 70
    -2
  9
$DIMLWE
 70
    -2
  9
$DIMTMOVE
 70
     0
  9
$LUNITS
 70
     2
  9
$LUPREC
 70
     4
  9
$SKETCHINC
 40
1.0
  9
$FILLETRAD
 40
2.5
  9
$AUNITS
 70
     0
  9
$AUPREC
 70
     2
  9
$MENU
  1
.
  9
$ELEVATION
 40
0.0
  9
$PELEVATION
 40
0.0
  9
$THICKNESS
 40
0.0
  9
$LIMCHECK
 70
     0
  9
$CHAMFERA
 40
10.0
  9
$CHAMFERB
 40
10.0
  9
$CHAMFERC
 40
0.0
  9
$CHAMFERD
 40
0.0
  9
$SKPOLY
 70
     0
  9
$TDCREATE
 40
2451417.577121297
  9
$TDUCREATE
 40
2451417.202121297
  9
$TDUPDATE
 40
2457192.642229479
  9
$TDUUPDATE
 40
2457192.267229479
  9
$TDINDWG
 40
0.0009185301
  9
$TDUSRTIMER
 40
0.0009185185
  9
$USRTIMER
 70
     1
  9
$ANGBASE
 50
0.0
  9
$ANGDIR
 70
     0
  9
$PDMODE
 70
     0
  9
$PDSIZE
 40
0.0
  9
$PLINEWID
 40
0.0
  9
$SPLFRAME
 70
     0
  9
$SPLINETYPE
 70
     6
  9
$SPLINESEGS
 70
     8
  9
$HANDSEED
  5
B2B0
  9
$SURFTAB1
 70
     6
  9
$SURFTAB2
 70
     6
  9
$SURFTYPE
 70
     6
  9
$SURFU
 70
     6
  9
$SURFV
 70
     6
  9
$UCSBASE
  2

  9
$UCSNAME
  2

  9
$UCSORG
 10
0.0
 20
0.0
 30
0.0
  9
$UCSXDIR
 10
1.0
 20
0.0
 30
0.0
  9
$UCSYDIR
 10
0.0
 20
1.0
 30
0.0
  9
$UCSORTHOREF
  2

  9
$UCSORTHOVIEW
 70
     0
  9
$UCSORGTOP
 10
0.0
 20
0.0
 30
0.0
  9
$UCSORGBOTTOM
 10
0.0
 20
0.0
 30
0.0
  9
$UCSORGLEFT
 10
0.0
 20
0.0
 30
0.0
  9
$UCSORGRIGHT
 10
0.0
 20
0.0
 30
0.0
  9
$UCSORGFRONT
 10
0.0
 20
0.0
 30
0.0
  9
$UCSORGBACK
 10
0.0
 20
0.0
 30
0.0
  9
$PUCSBASE
  2

  9
$PUCSNAME
  2

  9
$PUCSORG
 10
0.0
 20
0.0
 30
0.0
  9
$PUCSXDIR
 10
1.0
 20
0.0
 30
0.0
  9
$PUCSYDIR
 10
0.0
 20
1.0
 30
0.0
  9
$PUCSORTHOREF
  2

  9
$PUCSORTHOVIEW
 70
     0
  9
$PUCSORGTOP
 10
0.0
 20
0.0
 30
0.0
  9
$PUCSORGBOTTOM
 10
0.0
 20
0.0
 30
0.0
  9
$PUCSORGLEFT
 10
0.0
 20
0.0
 30
0.0
  9
$PUCSORGRIGHT
 10
0.0
 20
0.0
 30
0.0
  9
$PUCSORGFRONT
 10
0.0
 20
0.0
 30
0.0
  9
$PUCSORGBACK
 10
0.0
 20
0.0
 30
0.0
  9
$USERI1
 70
     0
  9
$USERI2
 70
     0
  9
$USERI3
 70
     0
  9
$USERI4
 70
     0
  9
$USERI5
 70
     0
  9
$USERR1
 40
0.0
  9
$USERR2
 40
0.0
  9
$USERR3
 40
0.0
  9
$USERR4
 40
0.0
  9
$USERR5
 40
0.0
  9
$WORLDVIEW
 70
     1
  9
$SHADEDGE
 70
     3
  9
$SHADEDIF
 70
    70
  9
$TILEMODE
 70
     1
  9
$MAXACTVP
 70
    16
  9
$PINSBASE
 10
0.0
 20
0.0
 30
0.0
  9
$PLIMCHECK
 70
     0
  9
$PEXTMIN
 10
1.000000000000000E+20
 20
1.000000000000000E+20
 30
1.000000000000000E+20
  9
$PEXTMAX
 10
-1.000000000000000E+20
 20
-1.000000000000000E+20
 30
-1.000000000000000E+20
  9
$PLIMMIN
 10
0.0
 20
0.0
  9
$PLIMMAX
 10
420.0
 20
297.0
  9
$UNITMODE
 70
     0
  9
$VISRETAIN
 70
     0
  9
$PLINEGEN
 70
     0
  9
$PSLTSCALE
 70
     0
  9
$TREEDEPTH
 70
  3020
  9
$CMLSTYLE
  2
STANDARD
  9
$CMLJUST
 70
     0
  9
$CMLSCALE
 40
1.0
  9
$PROXYGRAPHICS
 70
     1
  9
$MEASUREMENT
 70
     0
  9
$CELWEIGHT
370
    -1
  9
$ENDCAPS
280
     0
  9
$JOINSTYLE
280
     0
  9
$LWDISPLAY
290
     0
  9
$INSUNITS
 70
     0
  9
$HYPERLINKBASE
  1

  9
$STYLESHEET
  1

  9
$XEDIT
290
     1
  9
$CEPSNTYPE
380
     0
  9
$PSTYLEMODE
290
     1
  9
$FINGERPRINTGUID
  2
{365D37F0-3E80-45E4-9E60-71B05EE8DE94}
  9
$VERSIONGUID
  2
{53EC594B-A107-4692-A3AC-8FE463322ECE}
  9
$EXTNAMES
290
     1
  9
$PSVPSCALE
 40
0.0
  9
$OLESTARTUP
290
     0
  0
ENDSEC
  0
SECTION
  2
CLASSES
  0
CLASS
  1
ACDBDICTIONARYWDFLT
  2
AcDbDictionaryWithDefault
  3
ObjectDBX Classes
 90
        0
280
     0
281
     0
  0
CLASS
  1
ACDBPLACEHOLDER
  2
AcDbPlaceHolder
  3
ObjectDBX Classes
 90
        0
280
     0
281
     0
  0
CLASS
  1
LAYOUT
  2
AcDbLayout
  3
ObjectDBX Classes
 90
        0
280
     0
281
     0
  0
CLASS
  1
DICTIONARYVAR
  2
AcDbDictionaryVar
  3
ObjectDBX Classes
 90
        0
280
     0
281
     0
  0
CLASS
  1
MATERIAL
  2
AcDbMaterial
  3
ObjectDBX Classes
 90
     1153
280
     0
281
     0
  0
CLASS
  1
VISUALSTYLE
  2
AcDbVisualStyle
  3
ObjectDBX Classes
 90
     4095
280
     0
281
     0
  0
CLASS
  1
TABLESTYLE
  2
AcDbTableStyle
  3
ObjectDBX Classes
 90
     4095
280
     0
281
     0
  0
CLASS
  1
SCALE
  2
AcDbScale
  3
ObjectDBX Classes
 90
     1153
280
     0
281
     0
  0
CLASS
  1
MLEADERSTYLE
  2
AcDbMLeaderStyle
  3
ACDB_MLEADERSTYLE_CLASS
 90
     4095
280
     0
281
     0
  0
CLASS
  1
ACDBSECTIONVIEWSTYLE
  2
AcDbSectionViewStyle
  3
ObjectDBX Classes
 90
     1025
280
     0
281
     0
  0
CLASS
  1
ACDBDETAILVIEWSTYLE
  2
AcDbDetailViewStyle
  3
ObjectDBX Classes
 90
     1025
280
     0
281
     0
  0
CLASS
  1
CELLSTYLEMAP
  2
AcDbCellStyleMap
  3
ObjectDBX Classes
 90
     1152
280
     0
281
     0
  0
ENDSEC
  0
SECTION
  2
TABLES
  0
TABLE
  2
VPORT
  5
AE6B
330
0
100
AcDbSymbolTable
 70
     1
  0
VPORT
  5
B1F9
330
AE6B
100
AcDbSymbolTableRecord
100
AcDbViewportTableRecord
  2
*ACTIVE
 70
     0
 10
0.0
 20
0.0
 11
1.0
 21
1.0
 12
588.7195235359298
 22
213.6294577378926
 13
0.0
 23
0.0
 14
10.0
 24
10.0
 15
10.0
 25
10.0
 16
0.0
 26
0.0
 36
1.0
 17
0.0
 27
0.0
 37
0.0
 40
494.9404931478158
 41
1.899603698811096
 42
50.0
 43
0.0
 44
0.0
 50
0.0
 51
0.0
 71
     0
 72
   100
 73
     1
 74
     0
 75
     0
 76
     0
 77
     0
 78
     0
281
     0
 65
     1
110
0.0
120
0.0
130
0.0
111
1.0
121
0.0
131
0.0
112
0.0
122
1.0
132
0.0
 79
     0
146
0.0
1001
ACAD_NAV_VCDISPLAY
1070
     3
  0
ENDTAB
  0
TABLE
  2
LTYPE
  5
AE68
330
0
100
AcDbSymbolTable
 70
     4
  0
LTYPE
  5
AE76
330
AE68
100
AcDbSymbolTableRecord
100
AcDbLinetypeTableRecord
  2
BYBLOCK
 70
     0
  3

 72
    65
 73
     0
 40
0.0
  0
LTYPE
  5
AE77
330
AE68
100
AcDbSymbolTableRecord
100
AcDbLinetypeTableRecord
  2
BYLAYER
 70
     0
  3

 72
    65
 73
     0
 40
0.0
  0
LTYPE
  5
AE78
330
AE68
100
AcDbSymbolTableRecord
100
AcDbLinetypeTableRecord
  2
CONTINUOUS
 70
     0
  3
Solid line
 72
    65
 73
     0
 40
0.0
  0
LTYPE
  5
AE86
330
AE68
100
AcDbSymbolTableRecord
100
AcDbLinetypeTableRecord
  2
DASHED
 70
     0
  3
__ __ __ __ __ __ __ __ __ __ __ __ __ __ __ __
 72
    65
 73
     2
 40
0.75
 49
0.5
 74
     0
 49
-0.25
 74
     0
  0
LTYPE
  5
AE87
330
AE68
100
AcDbSymbolTableRecord
100
AcDbLinetypeTableRecord
  2
CENTER
 70
     0
  3
____ _ ____ _ ____ _ ____ _ ____ _ ____ _ ____ 
 72
    65
 73
     4
 40
2.0
 49
1.25
 74
     0
 49
-0.25
 74
     0
 49
0.25
 74
     0
 49
-0.25
 74
     0
  0
LTYPE
  5
AE88
330
AE68
100
AcDbSymbolTableRecord
100
AcDbLinetypeTableRecord
  2
PHANTOM
 70
     0
  3
______  __  __  ______  __  __  ______  __  __ 
 72
    65
 73
     6
 40
2.5
 49
1.25
 74
     0
 49
-0.25
 74
     0
 49
0.25
 74
     0
 49
-0.25
 74
     0
 49
0.25
 74
     0
 49
-0.25
 74
     0
  0
ENDTAB
  0
TABLE
  2
LAYER
  5
AE65
330
0
100
AcDbSymbolTable
 70
     8
  0
LAYER
  5
AE73
102
{ACAD_XDICTIONARY
360
B254
102
}
330
AE65
100
AcDbSymbolTableRecord
100
AcDbLayerTableRecord
  2
0
 70
     0
 62
     7
  6
CONTINUOUS
370
    -3
390
B202
  0
LAYER
  5
AE89
102
{ACAD_XDICTIONARY
360
B256
102
}
330
AE65
100
AcDbSymbolTableRecord
100
AcDbLayerTableRecord
  2
4
 70
     0
 62
     1
  6
CENTER
370
    -3
390
B202
  0
LAYER
  5
AE8A
102
{ACAD_XDICTIONARY
360
B258
102
}
330
AE65
100
AcDbSymbolTableRecord
100
AcDbLayerTableRecord
  2
5
 70
     0
 62
     6
  6
PHANTOM
370
    -3
390
B202
  0
LAYER
  5
AE8B
102
{ACAD_XDICTIONARY
360
B25A
102
}
330
AE65
100
AcDbSymbolTableRecord
100
AcDbLayerTableRecord
  2
1
 70
     0
 62
     7
  6
CONTINUOUS
370
    -3
390
B202
  0
LAYER
  5
AE8C
102
{ACAD_XDICTIONARY
360
B25C
102
}
330
AE65
100
AcDbSymbolTableRecord
100
AcDbLayerTableRecord
  2
2
 70
     0
 62
     4
  6
CONTINUOUS
370
    -3
390
B202
  0
LAYER
  5
AE8D
102
{ACAD_XDICTIONARY
360
B25E
102
}
330
AE65
100
AcDbSymbolTableRecord
100
AcDbLayerTableRecord
  2
3
 70
     0
 62
     2
  6
DASHED
370
    -3
390
B202
  0
LAYER
  5
AE8E
102
{ACAD_XDICTIONARY
360
B260
102
}
330
AE65
100
AcDbSymbolTableRecord
100
AcDbLayerTableRecord
  2
6
 70
     0
 62
     5
  6
CONTINUOUS
370
    -3
390
B202
  0
LAYER
  5
AE8F
102
{ACAD_XDICTIONARY
360
B262
102
}
330
AE65
100
AcDbSymbolTableRecord
100
AcDbLayerTableRecord
  2
7
 70
     0
 62
     3
  6
CONTINUOUS
370
    -3
390
B202
  0
ENDTAB
  0
TABLE
  2
STYLE
  5
AE66
330
0
100
AcDbSymbolTable
 70
     1
  0
STYLE
  5
AE74
330
AE66
100
AcDbSymbolTableRecord
100
AcDbTextStyleTableRecord
  2
STANDARD
 70
     0
 40
0.0
 41
1.0
 50
0.0
 71
     0
 42
5.0
  3
txt
  4

  0
ENDTAB
  0
TABLE
  2
VIEW
  5
AE69
330
0
100
AcDbSymbolTable
 70
     0
  0
ENDTAB
  0
TABLE
  2
UCS
  5
AE6A
330
0
100
AcDbSymbolTable
 70
     0
  0
ENDTAB
  0
TABLE
  2
APPID
  5
AE6C
330
0
100
AcDbSymbolTable
 70
     3
  0
APPID
  5
AE75
330
AE6C
100
AcDbSymbolTableRecord
100
AcDbRegAppTableRecord
  2
ACAD
 70
     0
  0
APPID
  5
B26E
330
AE6C
100
AcDbSymbolTableRecord
100
AcDbRegAppTableRecord
  2
ACAD_NAV_VCDISPLAY
 70
     0
  0
APPID
  5
B2A7
330
AE6C
100
AcDbSymbolTableRecord
100
AcDbRegAppTableRecord
  2
ACAD_MLEADERVER
 70
     0
  0
ENDTAB
  0
TABLE
  2
DIMSTYLE
  5
AE6D
330
0
100
AcDbSymbolTable
 70
     1
100
AcDbDimStyleTable
 71
     0
  0
DIMSTYLE
105
AE91
330
AE6D
100
AcDbSymbolTableRecord
100
AcDbDimStyleTableRecord
  2
STANDARD
 70
     0
 41
2.5
 42
1.0
 43
10.0
 44
1.0
 73
     0
 74
     0
 77
     3
 78
     8
140
3.2
141
0.0
147
1.0
172
     1
173
     1
284
     8
285
     8
286
     8
340
AE74
  0
ENDTAB
  0
TABLE
  2
BLOCK_RECORD
  5
AE64
330
0
100
AcDbSymbolTable
 70
     1
  0
BLOCK_RECORD
  5
AE81
102
{ACAD_XDICTIONARY
360
B1FC
102
}
330
AE64
100
AcDbSymbolTableRecord
100
AcDbBlockTableRecord
  2
*MODEL_SPACE
340
B250
  0
BLOCK_RECORD
  5
AE7D
102
{ACAD_XDICTIONARY
360
B1FA
102
}
330
AE64
100
AcDbSymbolTableRecord
100
AcDbBlockTableRecord
  2
*PAPER_SPACE
340
B251
  0
BLOCK_RECORD
  5
AE93
330
AE64
100
AcDbSymbolTableRecord
100
AcDbBlockTableRecord
  2
_OPEN
340
0
  0
ENDTAB
  0
ENDSEC
  0
SECTION
  2
BLOCKS
  0
BLOCK
  5
AE82
330
AE81
100
AcDbEntity
  8
0
100
AcDbBlockBegin
  2
*MODEL_SPACE
 70
     0
 10
0.0
 20
0.0
 30
0.0
  3
*MODEL_SPACE
  1

  0
ENDBLK
  5
AE83
330
AE81
100
AcDbEntity
  8
0
100
AcDbBlockEnd
  0
BLOCK
  5
AE7E
330
AE7D
100
AcDbEntity
 67
     1
  8
0
100
AcDbBlockBegin
  2
*PAPER_SPACE
 70
     0
 10
0.0
 20
0.0
 30
0.0
  3
*PAPER_SPACE
  1

  0
ENDBLK
  5
AE7F
330
AE7D
100
AcDbEntity
 67
     1
  8
0
100
AcDbBlockEnd
  0
BLOCK
  5
AE94
330
AE93
100
AcDbEntity
  8
0
100
AcDbBlockBegin
  2
_OPEN
 70
     0
 10
0.0
 20
0.0
 30
0.0
  3
_OPEN
  1

  0
LINE
  5
AE95
330
AE93
100
AcDbEntity
  8
0
  6
ByBlock
 62
     0
100
AcDbLine
 10
-1.0
 20
0.166667
 30
0.0
 11
0.0
 21
0.0
 31
0.0
  0
LINE
  5
AE96
330
AE93
100
AcDbEntity
  8
0
  6
ByBlock
 62
     0
100
AcDbLine
 10
0.0
 20
0.0
 30
0.0
 11
-1.0
 21
-0.166667
 31
0.0
  0
LINE
  5
AE97
330
AE93
100
AcDbEntity
  8
0
  6
ByBlock
 62
     0
100
AcDbLine
 10
0.0
 20
0.0
 30
0.0
 11
-1.0
 21
0.0
 31
0.0
  0
ENDBLK
  5
AE98
330
AE93
100
AcDbEntity
  8
0
100
AcDbBlockEnd
  0
ENDSEC
  0
SECTION
  2
ENTITIES
  0
TEXT
  5
AE99
330
AE81
100
AcDbEntity
  8
1
  6
Continuous
100
AcDbText
 10
10.0
 20
10.0
 30
0.0
 40
1.399999999999999
  1
LAYER
100
AcDbText
  0
TEXT
  5
AE9A
330
AE81
100
AcDbEntity
  8
5
  6
PHANTOM
100
AcDbText
 10
25.97951099999999
 20
10.04873699999999
 30
0.0
 40
1.399999999999999
  1
5
100
AcDbText
  0
TEXT
  5
AE9B
330
AE81
100
AcDbEntity
  8
6
  6
Continuous
100
AcDbText
 10
27.979511
 20
10.04873699999999
 30
0.0
 40
1.399999999999999
  1
6
100
AcDbText
  0
TEXT
  5
AE9C
330
AE81
100
AcDbEntity
  8
2
  6
Continuous
100
AcDbText
 10
19.97951099999999
 20
10.04873699999999
 30
0.0
 40
1.399999999999999
  1
2
100
AcDbText
  0
TEXT
  5
AE9D
330
AE81
100
AcDbEntity
  8
3
  6
DASHED
100
AcDbText
 10
21.979511
 20
10.04873699999999
 30
0.0
 40
1.399999999999999
  1
3
100
AcDbText
  0
TEXT
  5
AE9E
330
AE81
100
AcDbEntity
  8
4
  6
CENTER
100
AcDbText
 10
23.97951099999999
 20
10.04873699999999
 30
0.0
 40
1.399999999999999
  1
4
100
AcDbText
  0
TEXT
  5
AE9F
330
AE81
100
AcDbEntity
  8
7
  6
Continuous
100
AcDbText
 10
29.97951099999999
 20
10.04873699999999
 30
0.0
 40
1.399999999999999
  1
7
100
AcDbText
  0
TEXT
  5
AEA0
330
AE81
100
AcDbEntity
  8
1
  6
Continuous
100
AcDbText
 10
17.97951099999998
 20
10.04873699999999
 30
0.0
 40
1.399999999999999
  1
1
100
AcDbText
  0
LINE
  5
AEA1
330
AE81
100
AcDbEntity
  8
1
  6
Continuous
100
AcDbLine
 10
335.540247
 20
413.232277
 30
0.0
 11
335.540247
 21
417.232277
 31
0.0
  0
LINE
  5
AEA2
330
AE81
100
AcDbEntity
  8
1
  6
Continuous
100
AcDbLine
 10
333.040247
 20
413.232277
 30
0.0
 11
333.040247
 21
417.232277
 31
0.0
  0
LINE
  5
AEA3
330
AE81
100
AcDbEntity
  8
1
  6
Continuous
100
AcDbLine
 10
286.051841
 20
61.659089
 30
0.0
 11
287.551841
 21
63.159089
 31
0.0
  0
LINE
  5
AEA4
330
AE81
100
AcDbEntity
  8
1
  6
Continuous
100
AcDbLine
 10
286.051841
 20
63.159089
 30
0.0
 11
287.551841
 21
64.65908899999999
 31
0.0
  0
LINE
  5
AEA5
330
AE81
100
AcDbEntity
  8
4
  6
CENTER
100
AcDbLine
 10
294.551841
 20
63.159089
 30
0.0
 11
279.551841
 21
63.159089
 31
0.0
  0
LINE
  5
AEA6
330
AE81
100
AcDbEntity
  8
1
  6
Continuous
100
AcDbLine
 10
287.551841
 20
69.259089
 30
0.0
 11
286.051841
 21
69.259089
 31
0.0
  0
LINE
  5
AEA7
330
AE81
100
AcDbEntity
  8
1
  6
Continuous
100
AcDbLine
 10
287.551841
 20
57.059089
 30
0.0
 11
286.051841
 21
57.059089
 31
0.0
  0
LINE
  5
AEA8
330
AE81
100
AcDbEntity
  8
1
  6
Continuous
100
AcDbLine
 10
287.551841
 20
391.6322769999999
 30
0.0
 11
286.051841
 21
391.6322769999999
 31
0.0
  0
LINE
  5
AEA9
330
AE81
100
AcDbEntity
  8
1
  6
Continuous
100
AcDbLine
 10
287.551841
 20
403.8322769999998
 30
0.0
 11
286.051841
 21
403.8322769999998
 31
0.0
  0
LINE
  5
AEAA
330
AE81
100
AcDbEntity
  8
4
  6
CENTER
100
AcDbLine
 10
294.551841
 20
397.732277
 30
0.0
 11
279.551841
 21
397.732277
 31
0.0
  0
LINE
  5
AEAB
330
AE81
100
AcDbEntity
  8
1
  6
Continuous
100
AcDbLine
 10
286.051841
 20
397.732277
 30
0.0
 11
287.551841
 21
399.232277
 31
0.0
  0
LINE
  5
AEAC
330
AE81
100
AcDbEntity
  8
1
  6
Continuous
100
AcDbLine
 10
286.051841
 20
396.232277
 30
0.0
 11
287.551841
 21
397.732277
 31
0.0
  0
LINE
  5
AEAD
330
AE81
100
AcDbEntity
  8
1
  6
Continuous
100
AcDbLine
 10
286.051841
 20
274.2219819999999
 30
0.0
 11
287.551841
 21
275.7219819999999
 31
0.0
  0
LINE
  5
AEAE
330
AE81
100
AcDbEntity
  8
1
  6
Continuous
100
AcDbLine
 10
286.051841
 20
275.7219819999999
 30
0.0
 11
287.551841
 21
277.2219819999999
 31
0.0
  0
LINE
  5
AEAF
330
AE81
100
AcDbEntity
  8
4
  6
CENTER
100
AcDbLine
 10
294.551841
 20
275.7219819999999
 30
0.0
 11
279.551841
 21
275.7219819999999
 31
0.0
  0
LINE
  5
AEB0
330
AE81
100
AcDbEntity
  8
1
  6
Continuous
100
AcDbLine
 10
287.551841
 20
281.8219819999999
 30
0.0
 11
286.051841
 21
281.8219819999999
 31
0.0
  0
LINE
  5
AEB1
330
AE81
100
AcDbEntity
  8
1
  6
Continuous
100
AcDbLine
 10
287.551841
 20
269.621982
 30
0.0
 11
286.051841
 21
269.621982
 31
0.0
  0
LINE
  5
AEB2
330
AE81
100
AcDbEntity
  8
1
  6
Continuous
100
AcDbLine
 10
64.0
 20
164.221982
 30
0.0
 11
64.0
 21
297.2219819999999
 31
0.0
  0
LINE
  5
AEB3
330
AE81
100
AcDbEntity
  8
1
  6
Continuous
100
AcDbLine
 10
25.0
 20
297.2219819999999
 30
0.0
 11
25.0
 21
164.221982
 31
0.0
  0
ARC
  5
AEB4
330
AE81
100
AcDbEntity
  8
1
  6
Continuous
100
AcDbCircle
 10
224.6089669999999
 20
214.721982
 30
0.0
 40
1.0
100
AcDbArc
 50
90.0
 51
180.0
  0
LINE
  5
AEB5
330
AE81
100
AcDbEntity
  8
1
  6
Continuous
100
AcDbLine
 10
223.6089669999999
 20
211.2219819999999
 30
0.0
 11
223.6089669999999
 21
268.654444
 31
0.0
  0
LINE
  5
AEB6
330
AE81
100
AcDbEntity
  8
1
  6
Continuous
100
AcDbLine
 10
214.6089669999999
 20
161.721982
 30
0.0
 11
214.6089669999999
 21
299.7219819999999
 31
0.0
  0
LINE
  5
AEB7
330
AE81
100
AcDbEntity
  8
1
  6
Continuous
100
AcDbLine
 10
213.1089669999999
 20
299.7219819999999
 30
0.0
 11
213.1089669999999
 21
161.721982
 31
0.0
  0
LINE
  5
AEB8
330
AE81
100
AcDbEntity
  8
1
  6
Continuous
100
AcDbLine
 10
211.608967
 20
299.7219819999999
 30
0.0
 11
211.608967
 21
161.721982
 31
0.0
  0
LINE
  5
AEB9
330
AE81
100
AcDbEntity
  8
1
  6
Continuous
100
AcDbLine
 10
210.1089669999999
 20
296.721982
 30
0.0
 11
210.1089669999999
 21
164.721982
 31
0.0
  0
LINE
  5
AEBA
330
AE81
100
AcDbEntity
  8
1
  6
Continuous
100
AcDbLine
 10
54.85
 20
196.2219819999999
 30
0.0
 11
54.85
 21
275.7219819999999
 31
0.0
  0
LINE
  5
AEBB
330
AE81
100
AcDbEntity
  8
1
  6
Continuous
100
AcDbLine
 10
34.15
 20
196.2219819999999
 30
0.0
 11
34.15
 21
275.7219819999999
 31
0.0
  0
LINE
  5
AEBC
330
AE81
100
AcDbEntity
  8
1
  6
Continuous
100
AcDbLine
 10
208.958967
 20
269.0945649999999
 30
0.0
 11
208.958967
 21
195.221982
 31
0.0
  0
LINE
  5
AEBD
330
AE81
100
AcDbEntity
  8
4
  6
CENTER
100
AcDbLine
 10
44.5
 20
304.7219819999999
 30
0.0
 11
44.5
 21
156.791412
 31
0.0
  0
LINE
  5
AEBE
330
AE81
100
AcDbEntity
  8
1
  6
Continuous
100
AcDbLine
 10
55.15
 20
275.7219819999999
 30
0.0
 11
55.15
 21
194.221982
 31
0.0
  0
LINE
  5
AEBF
330
AE81
100
AcDbEntity
  8
1
  6
Continuous
100
AcDbLine
 10
33.85
 20
275.7219819999999
 30
0.0
 11
33.85
 21
194.221982
 31
0.0
  0
LINE
  5
AEC0
330
AE81
100
AcDbEntity
  8
1
  6
Continuous
100
AcDbLine
 10
31.5
 20
294.7219819999999
 30
0.0
 11
31.5
 21
166.7219819999999
 31
0.0
  0
LINE
  5
AEC1
330
AE81
100
AcDbEntity
  8
1
  6
Continuous
100
AcDbLine
 10
57.5
 20
166.7219819999999
 30
0.0
 11
57.5
 21
294.7219819999999
 31
0.0
  0
LINE
  5
AEC2
330
AE81
100
AcDbEntity
  8
1
  6
Continuous
100
AcDbLine
 10
60.5
 20
294.7219819999999
 30
0.0
 11
60.5
 21
166.7219819999999
 31
0.0
  0
LINE
  5
AEC3
330
AE81
100
AcDbEntity
  8
1
  6
Continuous
100
AcDbLine
 10
28.5
 20
294.7219819999999
 30
0.0
 11
28.5
 21
166.7219819999999
 31
0.0
  0
LINE
  5
AEC4
330
AE81
100
AcDbEntity
  8
5
  6
PHANTOM
100
AcDbLine
 10
173.6992859999999
 20
215.1582859999999
 30
0.0
 11
169.893661
 21
211.352661
 31
0.0
  0
LINE
  5
AEC5
330
AE81
100
AcDbEntity
  8
5
  6
PHANTOM
100
AcDbLine
 10
167.984645
 20
211.176272
 30
0.0
 11
156.1631519999999
 21
219.2833339999999
 31
0.0
  0
TEXT
  5
AEC6
330
AE81
100
AcDbEntity
  8
7
  6
Continuous
100
AcDbText
 10
10.0
 20
26.0
 30
0.0
 40
3.0
  1
CODE No.13261
100
AcDbText
  0
TEXT
  5
AEC7
330
AE81
100
AcDbEntity
  8
7
  6
Continuous
100
AcDbText
 10
10.0
 20
18.0
 30
0.0
 40
3.0
  1
TYPE No.THA-405S-1K
100
AcDbText
  0
ARC
  5
AEC8
330
AE81
100
AcDbEntity
  8
1
  6
Continuous
100
AcDbCircle
 10
33.5
 20
166.7219819999999
 30
0.0
 40
2.0
100
AcDbArc
 50
180.0
 51
270.0
  0
ARC
  5
AEC9
330
AE81
100
AcDbEntity
  8
1
  6
Continuous
100
AcDbCircle
 10
55.5
 20
166.7219819999999
 30
0.0
 40
2.0
100
AcDbArc
 50
270.0
 51
0.0
  0
ARC
  5
AECA
330
AE81
100
AcDbEntity
  8
1
  6
Continuous
100
AcDbCircle
 10
33.5
 20
166.7219819999999
 30
0.0
 40
5.0
100
AcDbArc
 50
180.0
 51
270.0
  0
ARC
  5
AECB
330
AE81
100
AcDbEntity
  8
1
  6
Continuous
100
AcDbCircle
 10
55.5
 20
166.7219819999999
 30
0.0
 40
5.0
100
AcDbArc
 50
270.0
 51
0.0
  0
LINE
  5
AECC
330
AE81
100
AcDbEntity
  8
1
  6
Continuous
100
AcDbLine
 10
27.5
 20
161.721982
 30
0.0
 11
61.5
 21
161.721982
 31
0.0
  0
ARC
  5
AECD
330
AE81
100
AcDbEntity
  8
1
  6
Continuous
100
AcDbCircle
 10
27.5
 20
164.221982
 30
0.0
 40
2.5
100
AcDbArc
 50
180.0
 51
270.0
  0
ARC
  5
AECE
330
AE81
100
AcDbEntity
  8
1
  6
Continuous
100
AcDbCircle
 10
61.5
 20
164.221982
 30
0.0
 40
2.5
100
AcDbArc
 50
270.0
 51
0.0
  0
ARC
  5
AECF
330
AE81
100
AcDbEntity
  8
1
  6
Continuous
100
AcDbCircle
 10
36.15
 20
196.2219819999999
 30
0.0
 40
2.0
100
AcDbArc
 50
180.0
 51
270.0
  0
ARC
  5
AED0
330
AE81
100
AcDbEntity
  8
1
  6
Continuous
100
AcDbCircle
 10
44.5
 20
184.721982
 30
0.0
 40
9.65
100
AcDbArc
 50
180.0
 51
0.0
  0
LINE
  5
AED1
330
AE81
100
AcDbEntity
  8
1
  6
Continuous
100
AcDbLine
 10
33.5
 20
164.721982
 30
0.0
 11
55.5
 21
164.721982
 31
0.0
  0
LINE
  5
AED2
330
AE81
100
AcDbEntity
  8
4
  6
CENTER
100
AcDbLine
 10
33.39999999999999
 20
184.721982
 30
0.0
 11
55.6
 21
184.721982
 31
0.0
  0
LINE
  5
AED3
330
AE81
100
AcDbEntity
  8
1
  6
Continuous
100
AcDbLine
 10
34.9
 20
193.7219819999999
 30
0.0
 11
54.1
 21
193.7219819999999
 31
0.0
  0
ARC
  5
AED4
330
AE81
100
AcDbEntity
  8
1
  6
Continuous
100
AcDbCircle
 10
44.5
 20
184.721982
 30
0.0
 40
9.599999999999999
100
AcDbArc
 50
180.0
 51
0.0
  0
LINE
  5
AED5
330
AE81
100
AcDbEntity
  8
1
  6
Continuous
100
AcDbLine
 10
34.85
 20
194.7021129999999
 30
0.0
 11
34.85
 21
184.721982
 31
0.0
  0
LINE
  5
AED6
330
AE81
100
AcDbEntity
  8
1
  6
Continuous
100
AcDbLine
 10
34.9
 20
184.721982
 30
0.0
 11
34.9
 21
194.660732
 31
0.0
  0
LINE
  5
AED7
330
AE81
100
AcDbEntity
  8
1
  6
Continuous
100
AcDbLine
 10
33.85
 20
194.221982
 30
0.0
 11
34.85
 21
193.221982
 31
0.0
  0
CIRCLE
  5
AED8
330
AE81
100
AcDbEntity
  8
1
  6
Continuous
100
AcDbCircle
 10
44.5
 20
184.721982
 30
0.0
 40
7.65
  0
LINE
  5
AED9
330
AE81
100
AcDbEntity
  8
1
  6
Continuous
100
AcDbLine
 10
54.15
 20
194.7021129999999
 30
0.0
 11
54.15
 21
184.721982
 31
0.0
  0
LINE
  5
AEDA
330
AE81
100
AcDbEntity
  8
1
  6
Continuous
100
AcDbLine
 10
54.1
 20
184.721982
 30
0.0
 11
54.1
 21
194.660732
 31
0.0
  0
CIRCLE
  5
AEDB
330
AE81
100
AcDbEntity
  8
1
  6
Continuous
100
AcDbCircle
 10
44.5
 20
184.721982
 30
0.0
 40
7.799999999999998
  0
LINE
  5
AEDC
330
AE81
100
AcDbEntity
  8
1
  6
Continuous
100
AcDbLine
 10
43.5
 20
188.071982
 30
0.0
 11
45.49999999999999
 21
188.071982
 31
0.0
  0
LINE
  5
AEDD
330
AE81
100
AcDbEntity
  8
1
  6
Continuous
100
AcDbLine
 10
45.49999999999999
 20
181.071982
 30
0.0
 11
45.49999999999999
 21
188.071982
 31
0.0
  0
LINE
  5
AEDE
330
AE81
100
AcDbEntity
  8
1
  6
Continuous
100
AcDbLine
 10
43.5
 20
181.071982
 30
0.0
 11
43.5
 21
188.071982
 31
0.0
  0
LINE
  5
AEDF
330
AE81
100
AcDbEntity
  8
1
  6
Continuous
100
AcDbLine
 10
43.5
 20
181.071982
 30
0.0
 11
45.49999999999999
 21
181.071982
 31
0.0
  0
CIRCLE
  5
AEE0
330
AE81
100
AcDbEntity
  8
1
  6
Continuous
100
AcDbCircle
 10
44.5
 20
179.571982
 30
0.0
 40
0.75
  0
LINE
  5
AEE1
330
AE81
100
AcDbEntity
  8
1
  6
Continuous
100
AcDbLine
 10
36.76436799999999
 20
183.7219819999999
 30
0.0
 11
36.915641
 21
183.7219819999999
 31
0.0
  0
LINE
  5
AEE2
330
AE81
100
AcDbEntity
  8
1
  6
Continuous
100
AcDbLine
 10
51.76377999999999
 20
187.121982
 30
0.0
 11
51.92159
 21
187.121982
 31
0.0
  0
LINE
  5
AEE3
330
AE81
100
AcDbEntity
  8
1
  6
Continuous
100
AcDbLine
 10
37.07841
 20
182.321982
 30
0.0
 11
37.23622000000001
 21
182.321982
 31
0.0
  0
LINE
  5
AEE4
330
AE81
100
AcDbEntity
  8
1
  6
Continuous
100
AcDbLine
 10
51.76377999999999
 20
182.321982
 30
0.0
 11
51.92159
 21
182.321982
 31
0.0
  0
LINE
  5
AEE5
330
AE81
100
AcDbEntity
  8
1
  6
Continuous
100
AcDbLine
 10
46.9
 20
177.4582019999999
 30
0.0
 11
46.9
 21
177.3003919999999
 31
0.0
  0
LINE
  5
AEE6
330
AE81
100
AcDbEntity
  8
1
  6
Continuous
100
AcDbLine
 10
42.09999999999999
 20
177.4582019999999
 30
0.0
 11
42.09999999999999
 21
177.3003919999999
 31
0.0
  0
ARC
  5
AEE7
330
AE81
100
AcDbEntity
  8
1
  6
Continuous
100
AcDbCircle
 10
52.85
 20
196.2219819999999
 30
0.0
 40
2.0
100
AcDbArc
 50
270.0
 51
0.0
  0
LINE
  5
AEE8
330
AE81
100
AcDbEntity
  8
1
  6
Continuous
100
AcDbLine
 10
52.85
 20
194.221982
 30
0.0
 11
36.15
 21
194.221982
 31
0.0
  0
LINE
  5
AEE9
330
AE81
100
AcDbEntity
  8
1
  6
Continuous
100
AcDbLine
 10
45.49999999999999
 20
192.4576139999999
 30
0.0
 11
45.49999999999999
 21
192.306341
 31
0.0
  0
LINE
  5
AEEA
330
AE81
100
AcDbEntity
  8
1
  6
Continuous
100
AcDbLine
 10
46.9
 20
192.143572
 30
0.0
 11
46.9
 21
191.985762
 31
0.0
  0
LINE
  5
AEEB
330
AE81
100
AcDbEntity
  8
1
  6
Continuous
100
AcDbLine
 10
40.45
 20
194.221982
 30
0.0
 11
40.45
 21
193.7219819999999
 31
0.0
  0
LINE
  5
AEEC
330
AE81
100
AcDbEntity
  8
1
  6
Continuous
100
AcDbLine
 10
48.55
 20
194.221982
 30
0.0
 11
48.55
 21
193.7219819999999
 31
0.0
  0
LINE
  5
AEED
330
AE81
100
AcDbEntity
  8
1
  6
Continuous
100
AcDbLine
 10
55.15
 20
194.221982
 30
0.0
 11
54.15
 21
193.221982
 31
0.0
  0
LINE
  5
AEEE
330
AE81
100
AcDbEntity
  8
1
  6
Continuous
100
AcDbLine
 10
240.1089669999999
 20
75.859094
 30
0.0
 11
214.6089669999999
 21
75.859094
 31
0.0
  0
LINE
  5
AEEF
330
AE81
100
AcDbEntity
  8
1
  6
Continuous
100
AcDbLine
 10
240.1089669999999
 20
50.459094
 30
0.0
 11
214.6089669999999
 21
50.459094
 31
0.0
  0
LINE
  5
AEF0
330
AE81
100
AcDbEntity
  8
4
  6
CENTER
100
AcDbLine
 10
250.5089669999999
 20
63.15909399999998
 30
0.0
 11
199.019091
 21
63.15909399999998
 31
0.0
  0
LINE
  5
AEF1
330
AE81
100
AcDbEntity
  8
1
  6
Continuous
100
AcDbLine
 10
208.958967
 20
73.50909399999998
 30
0.0
 11
208.958967
 21
52.80909399999998
 31
0.0
  0
LINE
  5
AEF2
330
AE81
100
AcDbEntity
  8
1
  6
Continuous
100
AcDbLine
 10
214.6089669999999
 20
47.159094
 30
0.0
 11
214.6089669999999
 21
79.159094
 31
0.0
  0
LINE
  5
AEF3
330
AE81
100
AcDbEntity
  8
1
  6
Continuous
100
AcDbLine
 10
213.1089669999999
 20
79.159094
 30
0.0
 11
213.1089669999999
 21
47.159094
 31
0.0
  0
LINE
  5
AEF4
330
AE81
100
AcDbEntity
  8
1
  6
Continuous
100
AcDbLine
 10
211.608967
 20
79.159094
 30
0.0
 11
211.608967
 21
47.159094
 31
0.0
  0
LINE
  5
AEF5
330
AE81
100
AcDbEntity
  8
1
  6
Continuous
100
AcDbLine
 10
210.1089669999999
 20
76.15909399999998
 30
0.0
 11
210.1089669999999
 21
50.159094
 31
0.0
  0
ARC
  5
AEF6
330
AE81
100
AcDbEntity
  8
1
  6
Continuous
100
AcDbCircle
 10
217.3316589999999
 20
63.15909399999998
 30
0.0
 40
13.312568
100
AcDbArc
 50
128.9713279999999
 51
231.028672
  0
LINE
  5
AEF7
330
AE81
100
AcDbEntity
  8
1
  6
Continuous
100
AcDbLine
 10
210.1089669999999
 20
52.80909399999998
 30
0.0
 11
208.958967
 21
52.80909399999998
 31
0.0
  0
LINE
  5
AEF8
330
AE81
100
AcDbEntity
  8
1
  6
Continuous
100
AcDbLine
 10
214.6089669999999
 20
47.159094
 30
0.0
 11
211.608967
 21
47.159094
 31
0.0
  0
LINE
  5
AEF9
330
AE81
100
AcDbEntity
  8
1
  6
Continuous
100
AcDbLine
 10
210.1089669999999
 20
50.159094
 30
0.0
 11
211.608967
 21
47.159094
 31
0.0
  0
LINE
  5
AEFA
330
AE81
100
AcDbEntity
  8
1
  6
Continuous
100
AcDbLine
 10
210.1089669999999
 20
73.50909399999998
 30
0.0
 11
208.958967
 21
73.50909399999998
 31
0.0
  0
LINE
  5
AEFB
330
AE81
100
AcDbEntity
  8
1
  6
Continuous
100
AcDbLine
 10
214.6089669999999
 20
79.159094
 30
0.0
 11
211.608967
 21
79.159094
 31
0.0
  0
LINE
  5
AEFC
330
AE81
100
AcDbEntity
  8
1
  6
Continuous
100
AcDbLine
 10
210.1089669999999
 20
76.15909399999998
 30
0.0
 11
211.608967
 21
79.159094
 31
0.0
  0
LINE
  5
AEFD
330
AE81
100
AcDbEntity
  8
1
  6
Continuous
100
AcDbLine
 10
238.608967
 20
74.859094
 30
0.0
 11
238.608967
 21
51.459094
 31
0.0
  0
LINE
  5
AEFE
330
AE81
100
AcDbEntity
  8
1
  6
Continuous
100
AcDbLine
 10
282.551841
 20
74.15908899999998
 30
0.0
 11
282.551841
 21
52.159089
 31
0.0
  0
LINE
  5
AEFF
330
AE81
100
AcDbEntity
  8
1
  6
Continuous
100
AcDbLine
 10
284.551841
 20
74.15908899999998
 30
0.0
 11
284.551841
 21
52.159089
 31
0.0
  0
LINE
  5
AF00
330
AE81
100
AcDbEntity
  8
1
  6
Continuous
100
AcDbLine
 10
286.051841
 20
71.15908899999998
 30
0.0
 11
286.051841
 21
55.159089
 31
0.0
  0
LINE
  5
AF01
330
AE81
100
AcDbEntity
  8
2
  6
Continuous
100
AcDbLine
 10
245.2089669999999
 20
63.15909399999998
 30
0.0
 11
242.5089669999999
 21
70.03518699999999
 31
0.0
  0
LINE
  5
AF02
330
AE81
100
AcDbEntity
  8
2
  6
Continuous
100
AcDbLine
 10
245.2089669999999
 20
70.03518699999999
 30
0.0
 11
242.5089669999999
 21
63.15909399999998
 31
0.0
  0
LINE
  5
AF03
330
AE81
100
AcDbEntity
  8
1
  6
Continuous
100
AcDbLine
 10
240.1089669999999
 20
50.159094
 30
0.0
 11
240.1089669999999
 21
75.859094
 31
0.0
  0
LINE
  5
AF04
330
AE81
100
AcDbEntity
  8
1
  6
Continuous
100
AcDbLine
 10
245.508967
 20
69.73518699999999
 30
0.0
 11
245.508967
 21
56.583001
 31
0.0
  0
LINE
  5
AF05
330
AE81
100
AcDbEntity
  8
1
  6
Continuous
100
AcDbLine
 10
242.5089669999999
 20
74.41739399999999
 30
0.0
 11
242.5089669999999
 21
50.159094
 31
0.0
  0
ARC
  5
AF06
330
AE81
100
AcDbEntity
  8
1
  6
Continuous
100
AcDbCircle
 10
237.6089669999999
 20
51.459094
 30
0.0
 40
1.0
100
AcDbArc
 50
270.0
 51
0.0
  0
LINE
  5
AF07
330
AE81
100
AcDbEntity
  8
1
  6
Continuous
100
AcDbLine
 10
242.5089669999999
 20
63.15909399999998
 30
0.0
 11
245.2089669999999
 21
63.15909399999998
 31
0.0
  0
LINE
  5
AF08
330
AE81
100
AcDbEntity
  8
1
  6
Continuous
100
AcDbLine
 10
242.5089669999999
 20
50.159094
 30
0.0
 11
240.1089669999999
 21
50.159094
 31
0.0
  0
ARC
  5
AF09
330
AE81
100
AcDbEntity
  8
1
  6
Continuous
100
AcDbCircle
 10
245.2089669999999
 20
56.583001
 30
0.0
 40
0.3
100
AcDbArc
 50
270.0
 51
0.0
  0
LINE
  5
AF0A
330
AE81
100
AcDbEntity
  8
1
  6
Continuous
100
AcDbLine
 10
245.2089669999999
 20
56.283001
 30
0.0
 11
242.5089669999999
 21
56.283001
 31
0.0
  0
LINE
  5
AF0B
330
AE81
100
AcDbEntity
  8
2
  6
Continuous
100
AcDbLine
 10
245.2089669999999
 20
63.15909399999998
 30
0.0
 11
242.5089669999999
 21
56.283001
 31
0.0
  0
LINE
  5
AF0C
330
AE81
100
AcDbEntity
  8
2
  6
Continuous
100
AcDbLine
 10
242.5089669999999
 20
63.15909399999998
 30
0.0
 11
245.2089669999999
 21
56.283001
 31
0.0
  0
LINE
  5
AF0D
330
AE81
100
AcDbEntity
  8
1
  6
Continuous
100
AcDbLine
 10
282.551841
 20
52.159089
 30
0.0
 11
284.551841
 21
52.159089
 31
0.0
  0
LINE
  5
AF0E
330
AE81
100
AcDbEntity
  8
1
  6
Continuous
100
AcDbLine
 10
284.551841
 20
55.159089
 30
0.0
 11
286.051841
 21
55.159089
 31
0.0
  0
ARC
  5
AF0F
330
AE81
100
AcDbEntity
  8
1
  6
Continuous
100
AcDbCircle
 10
237.6089669999999
 20
74.859094
 30
0.0
 40
1.0
100
AcDbArc
 50
0.0
 51
90.0
  0
ARC
  5
AF10
330
AE81
100
AcDbEntity
  8
1
  6
Continuous
100
AcDbCircle
 10
245.2089669999999
 20
69.73518699999999
 30
0.0
 40
0.3
100
AcDbArc
 50
0.0
 51
90.0
  0
LINE
  5
AF11
330
AE81
100
AcDbEntity
  8
1
  6
Continuous
100
AcDbLine
 10
245.2089669999999
 20
70.03518699999999
 30
0.0
 11
242.5089669999999
 21
70.03518699999999
 31
0.0
  0
LINE
  5
AF12
330
AE81
100
AcDbEntity
  8
1
  6
Continuous
100
AcDbLine
 10
242.5089669999999
 20
74.41739399999999
 30
0.0
 11
240.1089669999999
 21
74.41739399999999
 31
0.0
  0
LINE
  5
AF13
330
AE81
100
AcDbEntity
  8
1
  6
Continuous
100
AcDbLine
 10
282.551841
 20
74.15908899999998
 30
0.0
 11
284.551841
 21
74.15908899999998
 31
0.0
  0
LINE
  5
AF14
330
AE81
100
AcDbEntity
  8
1
  6
Continuous
100
AcDbLine
 10
284.551841
 20
71.15908899999998
 30
0.0
 11
286.051841
 21
71.15908899999998
 31
0.0
  0
LINE
  5
AF15
330
AE81
100
AcDbEntity
  8
1
  6
Continuous
100
AcDbLine
 10
214.6089669999999
 20
172.721982
 30
0.0
 11
237.6089669999999
 21
172.721982
 31
0.0
  0
LINE
  5
AF16
330
AE81
100
AcDbEntity
  8
1
  6
Continuous
100
AcDbLine
 10
210.1089669999999
 20
164.721982
 30
0.0
 11
211.608967
 21
161.721982
 31
0.0
  0
LINE
  5
AF17
330
AE81
100
AcDbEntity
  8
1
  6
Continuous
100
AcDbLine
 10
211.608967
 20
161.721982
 30
0.0
 11
214.6089669999999
 21
161.721982
 31
0.0
  0
LINE
  5
AF18
330
AE81
100
AcDbEntity
  8
5
  6
PHANTOM
100
AcDbLine
 10
172.2850719999999
 20
213.744072
 30
0.0
 11
170.870859
 21
212.329859
 31
0.0
  0
ARC
  5
AF19
330
AE81
100
AcDbEntity
  8
5
  6
PHANTOM
100
AcDbCircle
 10
168.833001
 20
212.413322
 30
0.0
 40
1.5
100
AcDbArc
 50
235.5580589999999
 51
315.0
  0
ARC
  5
AF1A
330
AE81
100
AcDbEntity
  8
1
  6
Continuous
100
AcDbCircle
 10
209.9589669999999
 20
195.221982
 30
0.0
 40
1.0
100
AcDbArc
 50
180.0
 51
270.0
  0
LINE
  5
AF1B
330
AE81
100
AcDbEntity
  8
1
  6
Continuous
100
AcDbLine
 10
210.1089669999999
 20
194.221982
 30
0.0
 11
209.9589669999999
 21
194.221982
 31
0.0
  0
LINE
  5
AF1C
330
AE81
100
AcDbEntity
  8
1
  6
Continuous
100
AcDbLine
 10
238.608967
 20
210.221982
 30
0.0
 11
238.608967
 21
173.7219819999999
 31
0.0
  0
ARC
  5
AF1D
330
AE81
100
AcDbEntity
  8
1
  6
Continuous
100
AcDbCircle
 10
237.6089669999999
 20
173.7219819999999
 30
0.0
 40
1.0
100
AcDbArc
 50
270.0
 51
0.0
  0
LINE
  5
AF1E
330
AE81
100
AcDbEntity
  8
1
  6
Continuous
100
AcDbLine
 10
223.6089669999999
 20
211.2219819999999
 30
0.0
 11
237.6089669999999
 21
211.2219819999999
 31
0.0
  0
ARC
  5
AF1F
330
AE81
100
AcDbEntity
  8
1
  6
Continuous
100
AcDbCircle
 10
237.6089669999999
 20
210.221982
 30
0.0
 40
1.0
100
AcDbArc
 50
0.0
 51
90.0
  0
LINE
  5
AF20
330
AE81
100
AcDbEntity
  8
5
  6
PHANTOM
100
AcDbLine
 10
124.0
 20
286.0719819999999
 30
0.0
 11
44.5
 21
286.0719819999999
 31
0.0
  0
LINE
  5
AF21
330
AE81
100
AcDbEntity
  8
5
  6
PHANTOM
100
AcDbLine
 10
124.0
 20
265.371982
 30
0.0
 11
44.5
 21
265.371982
 31
0.0
  0
LINE
  5
AF22
330
AE81
100
AcDbEntity
  8
4
  6
CENTER
100
AcDbLine
 10
129.649991
 20
275.7219819999999
 30
0.0
 11
32.35
 21
275.7219819999999
 31
0.0
  0
ARC
  5
AF23
330
AE81
100
AcDbEntity
  8
1
  6
Continuous
100
AcDbCircle
 10
44.5
 20
275.7219819999999
 30
0.0
 40
10.65
100
AcDbArc
 50
346.368356
 51
193.631644
  0
ARC
  5
AF24
330
AE81
100
AcDbEntity
  8
1
  6
Continuous
100
AcDbCircle
 10
44.5
 20
275.7219819999999
 30
0.0
 40
10.34999999999999
100
AcDbArc
 50
90.0
 51
173.904143
  0
ARC
  5
AF25
330
AE81
100
AcDbEntity
  8
1
  6
Continuous
100
AcDbCircle
 10
44.5
 20
267.939693
 30
0.0
 40
10.34999999999999
100
AcDbArc
 50
0.0
 51
180.0
  0
ARC
  5
AF26
330
AE81
100
AcDbEntity
  8
1
  6
Continuous
100
AcDbCircle
 10
44.5
 20
275.7219819999999
 30
0.0
 40
10.34999999999999
100
AcDbArc
 50
96.09585699999998
 51
180.0
  0
LINE
  5
AF27
330
AE81
100
AcDbEntity
  8
1
  6
Continuous
100
AcDbLine
 10
55.5
 20
296.721982
 30
0.0
 11
33.5
 21
296.721982
 31
0.0
  0
LINE
  5
AF28
330
AE81
100
AcDbEntity
  8
1
  6
Continuous
100
AcDbLine
 10
27.5
 20
299.7219819999999
 30
0.0
 11
61.5
 21
299.7219819999999
 31
0.0
  0
LINE
  5
AF29
330
AE81
100
AcDbEntity
  8
1
  6
Continuous
100
AcDbLine
 10
34.20852299999999
 20
276.821071
 30
0.0
 11
34.20852299999999
 21
274.622893
 31
0.0
  0
ARC
  5
AF2A
330
AE81
100
AcDbEntity
  8
1
  6
Continuous
100
AcDbCircle
 10
27.5
 20
297.2219819999999
 30
0.0
 40
2.5
100
AcDbArc
 50
90.0
 51
180.0
  0
ARC
  5
AF2B
330
AE81
100
AcDbEntity
  8
1
  6
Continuous
100
AcDbCircle
 10
33.5
 20
294.7219819999999
 30
0.0
 40
2.0
100
AcDbArc
 50
90.0
 51
180.0
  0
ARC
  5
AF2C
330
AE81
100
AcDbEntity
  8
1
  6
Continuous
100
AcDbCircle
 10
33.5
 20
294.7219819999999
 30
0.0
 40
5.0
100
AcDbArc
 50
90.0
 51
180.0
  0
ARC
  5
AF2D
330
AE81
100
AcDbEntity
  8
1
  6
Continuous
100
AcDbCircle
 10
44.5
 20
275.7219819999999
 30
0.0
 40
10.34999999999999
100
AcDbArc
 50
0.0
 51
83.90414300000001
  0
LINE
  5
AF2E
330
AE81
100
AcDbEntity
  8
1
  6
Continuous
100
AcDbLine
 10
45.59908899999999
 20
286.013459
 30
0.0
 11
43.400911
 21
286.013459
 31
0.0
  0
ARC
  5
AF2F
330
AE81
100
AcDbEntity
  8
1
  6
Continuous
100
AcDbCircle
 10
61.5
 20
297.2219819999999
 30
0.0
 40
2.5
100
AcDbArc
 50
0.0
 51
90.0
  0
ARC
  5
AF30
330
AE81
100
AcDbEntity
  8
1
  6
Continuous
100
AcDbCircle
 10
55.5
 20
294.7219819999999
 30
0.0
 40
2.0
100
AcDbArc
 50
0.0
 51
90.0
  0
ARC
  5
AF31
330
AE81
100
AcDbEntity
  8
1
  6
Continuous
100
AcDbCircle
 10
55.5
 20
294.7219819999999
 30
0.0
 40
5.0
100
AcDbArc
 50
0.0
 51
90.0
  0
ARC
  5
AF32
330
AE81
100
AcDbEntity
  8
5
  6
PHANTOM
100
AcDbCircle
 10
124.0
 20
267.371982
 30
0.0
 40
2.0
100
AcDbArc
 50
270.0
 51
0.0
  0
ARC
  5
AF33
330
AE81
100
AcDbEntity
  8
5
  6
PHANTOM
100
AcDbCircle
 10
124.0
 20
284.0719819999999
 30
0.0
 40
2.0
100
AcDbArc
 50
0.0
 51
90.0
  0
LINE
  5
AF34
330
AE81
100
AcDbEntity
  8
5
  6
PHANTOM
100
AcDbLine
 10
126.0
 20
284.0719819999999
 30
0.0
 11
126.0
 21
267.371982
 31
0.0
  0
LINE
  5
AF35
330
AE81
100
AcDbEntity
  8
1
  6
Continuous
100
AcDbLine
 10
69.50003599999999
 20
394.632278
 30
0.0
 11
72.84213000000002
 21
397.767625
 31
0.0
  0
LINE
  5
AF36
330
AE81
100
AcDbEntity
  8
1
  6
Continuous
100
AcDbLine
 10
70.500036
 20
400.8322779999998
 30
0.0
 11
72.853054
 21
398.486366
 31
0.0
  0
LINE
  5
AF37
330
AE81
100
AcDbEntity
  8
1
  6
Continuous
100
AcDbLine
 10
49.500036
 20
397.2322779999998
 30
0.0
 11
72.27148199999998
 21
397.2322779999998
 31
0.0
  0
LINE
  5
AF38
330
AE81
100
AcDbEntity
  8
1
  6
Continuous
100
AcDbLine
 10
49.500036
 20
398.4322779999999
 30
0.0
 11
72.907306
 21
398.4322779999999
 31
0.0
  0
LINE
  5
AF39
330
AE81
100
AcDbEntity
  8
4
  6
CENTER
100
AcDbLine
 10
22.000036
 20
397.7322779999998
 30
0.0
 11
74.288944
 21
397.7322779999998
 31
0.0
  0
ARC
  5
AF3A
330
AE81
100
AcDbEntity
  8
1
  6
Continuous
100
AcDbCircle
 10
35.333369
 20
407.7322779999998
 30
0.0
 40
1.0
100
AcDbArc
 50
53.130102
 51
90.0
  0
ARC
  5
AF3B
330
AE81
100
AcDbEntity
  8
1
  6
Continuous
100
AcDbCircle
 10
35.333369
 20
407.7322779999998
 30
0.0
 40
2.0
100
AcDbArc
 50
53.130102
 51
90.0
  0
ARC
  5
AF3C
330
AE81
100
AcDbEntity
  8
1
  6
Continuous
100
AcDbCircle
 10
35.333369
 20
387.7322779999998
 30
0.0
 40
1.0
100
AcDbArc
 50
270.0
 51
306.8698979999999
  0
ARC
  5
AF3D
330
AE81
100
AcDbEntity
  8
1
  6
Continuous
100
AcDbCircle
 10
35.333369
 20
387.7322779999998
 30
0.0
 40
2.0
100
AcDbArc
 50
270.0
 51
306.8698979999999
  0
LINE
  5
AF3E
330
AE81
100
AcDbEntity
  8
1
  6
Continuous
100
AcDbLine
 10
33.286731
 20
398.122261
 30
0.0
 11
38.713341
 21
398.122261
 31
0.0
  0
LINE
  5
AF3F
330
AE81
100
AcDbEntity
  8
1
  6
Continuous
100
AcDbLine
 10
33.86618
 20
392.6782839999999
 30
0.0
 11
37.219721
 21
392.6782839999999
 31
0.0
  0
LINE
  5
AF40
330
AE81
100
AcDbEntity
  8
1
  6
Continuous
100
AcDbLine
 10
37.43444799999999
 20
393.455093
 30
0.0
 11
34.565624
 21
393.455093
 31
0.0
  0
LINE
  5
AF41
330
AE81
100
AcDbEntity
  8
1
  6
Continuous
100
AcDbLine
 10
34.080908
 20
394.2334799999999
 30
0.0
 11
37.91758499999999
 21
394.2334799999999
 31
0.0
  0
LINE
  5
AF42
330
AE81
100
AcDbEntity
  8
1
  6
Continuous
100
AcDbLine
 10
33.97985900000001
 20
395.010289
 30
0.0
 11
38.02021299999999
 21
395.010289
 31
0.0
  0
LINE
  5
AF43
330
AE81
100
AcDbEntity
  8
1
  6
Continuous
100
AcDbLine
 10
33.351465
 20
396.567065
 30
0.0
 11
38.64860699999999
 21
396.567065
 31
0.0
  0
LINE
  5
AF44
330
AE81
100
AcDbEntity
  8
1
  6
Continuous
100
AcDbLine
 10
33.286731
 20
397.3438729999998
 30
0.0
 11
38.713341
 21
397.3438729999998
 31
0.0
  0
LINE
  5
AF45
330
AE81
100
AcDbEntity
  8
1
  6
Continuous
100
AcDbLine
 10
37.454974
 20
402.405762
 30
0.0
 11
34.177219
 21
403.285198
 31
0.0
  0
ARC
  5
AF46
330
AE81
100
AcDbEntity
  8
1
  6
Continuous
100
AcDbCircle
 10
35.61084199999999
 20
401.621059
 30
0.0
 40
0.388957
100
AcDbArc
 50
270.0
 51
90.0
  0
ARC
  5
AF47
330
AE81
100
AcDbEntity
  8
1
  6
Continuous
100
AcDbCircle
 10
35.99924699999999
 20
402.3994459999998
 30
0.0
 40
2.004309
100
AcDbArc
 50
62.24999999999999
 51
144.462
  0
LINE
  5
AF48
330
AE81
100
AcDbEntity
  8
1
  6
Continuous
100
AcDbLine
 10
33.439882
 20
398.89907
 30
0.0
 11
38.56019000000001
 21
398.89907
 31
0.0
  0
LINE
  5
AF49
330
AE81
100
AcDbEntity
  8
1
  6
Continuous
100
AcDbLine
 10
33.44304000000001
 20
400.454267
 30
0.0
 11
38.312305
 21
400.454267
 31
0.0
  0
ARC
  5
AF4A
330
AE81
100
AcDbEntity
  8
1
  6
Continuous
100
AcDbCircle
 10
35.99924699999999
 20
393.066688
 30
0.0
 40
2.004309
100
AcDbArc
 50
215.5377
 51
256.5374
  0
LINE
  5
AF4B
330
AE81
100
AcDbEntity
  8
1
  6
Continuous
100
AcDbLine
 10
30.238353
 20
387.177578
 30
0.0
 11
26.167986
 21
393.283129
 31
0.0
  0
LINE
  5
AF4C
330
AE81
100
AcDbEntity
  8
1
  6
Continuous
100
AcDbLine
 10
25.335935
 20
392.728429
 30
0.0
 11
29.406303
 21
386.6228779999998
 31
0.0
  0
ARC
  5
AF4D
330
AE81
100
AcDbEntity
  8
1
  6
Continuous
100
AcDbCircle
 10
31.070403
 20
387.7322779999998
 30
0.0
 40
1.0
100
AcDbArc
 50
213.690068
 51
270.0
  0
ARC
  5
AF4E
330
AE81
100
AcDbEntity
  8
1
  6
Continuous
100
AcDbCircle
 10
31.070403
 20
387.7322779999998
 30
0.0
 40
2.0
100
AcDbArc
 50
213.690068
 51
270.0
  0
LINE
  5
AF4F
330
AE81
100
AcDbEntity
  8
1
  6
Continuous
100
AcDbLine
 10
35.333369
 20
386.7322779999998
 30
0.0
 11
31.070403
 21
386.7322779999998
 31
0.0
  0
LINE
  5
AF50
330
AE81
100
AcDbEntity
  8
1
  6
Continuous
100
AcDbLine
 10
31.070403
 20
385.7322779999998
 30
0.0
 11
35.333369
 21
385.7322779999998
 31
0.0
  0
ARC
  5
AF51
330
AE81
100
AcDbEntity
  8
1
  6
Continuous
100
AcDbCircle
 10
42.532651
 20
397.7322779999998
 30
0.0
 40
10.032628
100
AcDbArc
 50
144.462
 51
215.5377
  0
LINE
  5
AF52
330
AE81
100
AcDbEntity
  8
1
  6
Continuous
100
AcDbLine
 10
35.06612899999999
 20
395.7886769999999
 30
0.0
 11
33.581982
 21
395.7886769999999
 31
0.0
  0
ARC
  5
AF53
330
AE81
100
AcDbEntity
  8
1
  6
Continuous
100
AcDbCircle
 10
34.565624
 20
393.845076
 30
0.0
 40
0.388957
100
AcDbArc
 50
206.0144
 51
270.0
  0
ARC
  5
AF54
330
AE81
100
AcDbEntity
  8
1
  6
Continuous
100
AcDbCircle
 10
42.532651
 20
397.7322779999998
 30
0.0
 40
9.254918999999999
100
AcDbArc
 50
202.944
 51
206.0144
  0
ARC
  5
AF55
330
AE81
100
AcDbEntity
  8
1
  6
Continuous
100
AcDbCircle
 10
34.080908
 20
394.156115
 30
0.0
 40
0.077791
100
AcDbArc
 50
90.0
 51
202.944
  0
ARC
  5
AF56
330
AE81
100
AcDbEntity
  8
1
  6
Continuous
100
AcDbCircle
 10
33.581982
 20
395.711312
 30
0.0
 40
0.077791
100
AcDbArc
 50
90.0
 51
192.7289
  0
ARC
  5
AF57
330
AE81
100
AcDbEntity
  8
1
  6
Continuous
100
AcDbCircle
 10
42.532651
 20
397.7322779999998
 30
0.0
 40
9.254918999999999
100
AcDbArc
 50
192.7289
 51
193.2680999999999
  0
ARC
  5
AF58
330
AE81
100
AcDbEntity
  8
1
  6
Continuous
100
AcDbCircle
 10
42.532651
 20
397.7322779999998
 30
0.0
 40
9.254918999999999
100
AcDbArc
 50
193.2680999999999
 51
195.2574999999999
  0
ARC
  5
AF59
330
AE81
100
AcDbEntity
  8
1
  6
Continuous
100
AcDbCircle
 10
33.97985900000001
 20
395.4002729999999
 30
0.0
 40
0.388957
100
AcDbArc
 50
195.2574999999999
 51
270.0
  0
LINE
  5
AF5A
330
AE81
100
AcDbEntity
  8
1
  6
Continuous
100
AcDbLine
 10
35.06612899999999
 20
399.677458
 30
0.0
 11
33.804604
 21
399.677458
 31
0.0
  0
LINE
  5
AF5B
330
AE81
100
AcDbEntity
  8
1
  6
Continuous
100
AcDbLine
 10
33.80933999999999
 20
401.232654
 30
0.0
 11
35.61084199999999
 21
401.232654
 31
0.0
  0
LINE
  5
AF5C
330
AE81
100
AcDbEntity
  8
1
  6
Continuous
100
AcDbLine
 10
35.61084199999999
 20
402.0110419999999
 30
0.0
 11
33.949861
 21
402.0110419999999
 31
0.0
  0
ARC
  5
AF5D
330
AE81
100
AcDbEntity
  8
1
  6
Continuous
100
AcDbCircle
 10
33.804604
 20
399.289053
 30
0.0
 40
0.388957
100
AcDbArc
 50
90.0
 51
169.896
  0
ARC
  5
AF5E
330
AE81
100
AcDbEntity
  8
1
  6
Continuous
100
AcDbCircle
 10
42.532651
 20
397.7322779999998
 30
0.0
 40
9.254918999999999
100
AcDbArc
 50
169.896
 51
172.2069999999999
  0
ARC
  5
AF5F
330
AE81
100
AcDbEntity
  8
1
  6
Continuous
100
AcDbCircle
 10
33.439882
 20
398.978014
 30
0.0
 40
0.077791
100
AcDbArc
 50
172.2069999999999
 51
270.0
  0
ARC
  5
AF60
330
AE81
100
AcDbEntity
  8
1
  6
Continuous
100
AcDbCircle
 10
31.070403
 20
407.7322779999998
 30
0.0
 40
1.0
100
AcDbArc
 50
90.0
 51
146.3099319999999
  0
ARC
  5
AF61
330
AE81
100
AcDbEntity
  8
1
  6
Continuous
100
AcDbCircle
 10
31.070403
 20
407.7322779999998
 30
0.0
 40
2.0
100
AcDbArc
 50
90.0
 51
146.3099319999999
  0
ARC
  5
AF62
330
AE81
100
AcDbEntity
  8
1
  6
Continuous
100
AcDbCircle
 10
27.000036
 20
401.626727
 30
0.0
 40
1.0
100
AcDbArc
 50
146.3099319999999
 51
180.0
  0
LINE
  5
AF63
330
AE81
100
AcDbEntity
  8
1
  6
Continuous
100
AcDbLine
 10
26.00003599999999
 20
393.837829
 30
0.0
 11
26.00003599999999
 21
401.626727
 31
0.0
  0
ARC
  5
AF64
330
AE81
100
AcDbEntity
  8
1
  6
Continuous
100
AcDbCircle
 10
27.000036
 20
393.837829
 30
0.0
 40
1.0
100
AcDbArc
 50
180.0
 51
213.690068
  0
ARC
  5
AF65
330
AE81
100
AcDbEntity
  8
1
  6
Continuous
100
AcDbCircle
 10
27.50003599999999
 20
401.2322779999998
 30
0.0
 40
0.5
100
AcDbArc
 50
90.0
 51
180.0
  0
ARC
  5
AF66
330
AE81
100
AcDbEntity
  8
1
  6
Continuous
100
AcDbCircle
 10
27.000036
 20
393.837829
 30
0.0
 40
2.0
100
AcDbArc
 50
180.0
 51
213.690068
  0
ARC
  5
AF67
330
AE81
100
AcDbEntity
  8
1
  6
Continuous
100
AcDbCircle
 10
27.000036
 20
401.626727
 30
0.0
 40
2.0
100
AcDbArc
 50
146.3099319999999
 51
180.0
  0
ARC
  5
AF68
330
AE81
100
AcDbEntity
  8
1
  6
Continuous
100
AcDbCircle
 10
30.500036
 20
401.2322779999998
 30
0.0
 40
0.5
100
AcDbArc
 50
0.0
 51
90.0
  0
ARC
  5
AF69
330
AE81
100
AcDbEntity
  8
1
  6
Continuous
100
AcDbCircle
 10
30.500036
 20
394.2322779999998
 30
0.0
 40
0.5
100
AcDbArc
 50
270.0
 51
0.0
  0
ARC
  5
AF6A
330
AE81
100
AcDbEntity
  8
1
  6
Continuous
100
AcDbCircle
 10
27.50003599999999
 20
394.2322779999998
 30
0.0
 40
0.5
100
AcDbArc
 50
180.0
 51
270.0
  0
LINE
  5
AF6B
330
AE81
100
AcDbEntity
  8
1
  6
Continuous
100
AcDbLine
 10
27.50003599999999
 20
401.7322779999998
 30
0.0
 11
30.500036
 21
401.7322779999998
 31
0.0
  0
LINE
  5
AF6C
330
AE81
100
AcDbEntity
  8
1
  6
Continuous
100
AcDbLine
 10
27.50003599999999
 20
393.7322779999998
 30
0.0
 11
30.500036
 21
393.7322779999998
 31
0.0
  0
LINE
  5
AF6D
330
AE81
100
AcDbEntity
  8
1
  6
Continuous
100
AcDbLine
 10
31.00003599999999
 20
401.2322779999998
 30
0.0
 11
31.00003599999999
 21
394.2322779999998
 31
0.0
  0
LINE
  5
AF6E
330
AE81
100
AcDbEntity
  8
1
  6
Continuous
100
AcDbLine
 10
27.000036
 20
401.2322779999998
 30
0.0
 11
27.000036
 21
394.2322779999998
 31
0.0
  0
LINE
  5
AF6F
330
AE81
100
AcDbEntity
  8
1
  6
Continuous
100
AcDbLine
 10
30.238353
 20
408.286978
 30
0.0
 11
26.167986
 21
402.181427
 31
0.0
  0
LINE
  5
AF70
330
AE81
100
AcDbEntity
  8
1
  6
Continuous
100
AcDbLine
 10
25.335935
 20
402.736127
 30
0.0
 11
29.406303
 21
408.841678
 31
0.0
  0
LINE
  5
AF71
330
AE81
100
AcDbEntity
  8
1
  6
Continuous
100
AcDbLine
 10
31.070403
 20
408.7322779999998
 30
0.0
 11
35.333369
 21
408.7322779999998
 31
0.0
  0
LINE
  5
AF72
330
AE81
100
AcDbEntity
  8
1
  6
Continuous
100
AcDbLine
 10
31.070403
 20
409.7322779999998
 30
0.0
 11
35.333369
 21
409.7322779999998
 31
0.0
  0
LINE
  5
AF73
330
AE81
100
AcDbEntity
  8
1
  6
Continuous
100
AcDbLine
 10
25.00003599999999
 20
401.626727
 30
0.0
 11
25.00003599999999
 21
393.837829
 31
0.0
  0
LINE
  5
AF74
330
AE81
100
AcDbEntity
  8
1
  6
Continuous
100
AcDbLine
 10
46.00003599999999
 20
394.4822779999999
 30
0.0
 11
35.933369
 21
386.932278
 31
0.0
  0
LINE
  5
AF75
330
AE81
100
AcDbEntity
  8
1
  6
Continuous
100
AcDbLine
 10
36.533369
 20
386.132278
 30
0.0
 11
46.00003599999999
 21
393.2322779999998
 31
0.0
  0
ARC
  5
AF76
330
AE81
100
AcDbEntity
  8
1
  6
Continuous
100
AcDbCircle
 10
35.99924699999999
 20
393.066688
 30
0.0
 40
2.004309
100
AcDbArc
 50
270.0
 51
324.4619999999999
  0
LINE
  5
AF77
330
AE81
100
AcDbEntity
  8
1
  6
Continuous
100
AcDbLine
 10
53.000036
 20
400.8322779999998
 30
0.0
 11
70.500036
 21
400.8322779999998
 31
0.0
  0
LINE
  5
AF78
330
AE81
100
AcDbEntity
  8
1
  6
Continuous
100
AcDbLine
 10
53.000036
 20
394.632278
 30
0.0
 11
69.50003599999999
 21
394.632278
 31
0.0
  0
ARC
  5
AF79
330
AE81
100
AcDbEntity
  8
1
  6
Continuous
100
AcDbCircle
 10
52.70003599999999
 20
393.5322779999999
 30
0.0
 40
0.3
100
AcDbArc
 50
270.0
 51
0.0
  0
ARC
  5
AF7A
330
AE81
100
AcDbEntity
  8
1
  6
Continuous
100
AcDbCircle
 10
52.70003599999999
 20
401.932278
 30
0.0
 40
0.3
100
AcDbArc
 50
0.0
 51
90.0
  0
LINE
  5
AF7B
330
AE81
100
AcDbEntity
  8
1
  6
Continuous
100
AcDbLine
 10
53.000036
 20
394.632278
 30
0.0
 11
53.000036
 21
393.5322779999999
 31
0.0
  0
LINE
  5
AF7C
330
AE81
100
AcDbEntity
  8
1
  6
Continuous
100
AcDbLine
 10
53.000036
 20
401.932278
 30
0.0
 11
53.000036
 21
400.8322779999998
 31
0.0
  0
LINE
  5
AF7D
330
AE81
100
AcDbEntity
  8
1
  6
Continuous
100
AcDbLine
 10
49.500036
 20
398.4322779999999
 30
0.0
 11
49.500036
 21
397.2322779999998
 31
0.0
  0
LINE
  5
AF7E
330
AE81
100
AcDbEntity
  8
1
  6
Continuous
100
AcDbLine
 10
46.00003599999999
 20
394.4822779999999
 30
0.0
 11
46.00003599999999
 21
400.9822779999998
 31
0.0
  0
ARC
  5
AF7F
330
AE81
100
AcDbEntity
  8
1
  6
Continuous
100
AcDbCircle
 10
29.467421
 20
397.7322779999998
 30
0.0
 40
10.032628
100
AcDbArc
 50
324.4619999999999
 51
35.53800000000001
  0
LINE
  5
AF80
330
AE81
100
AcDbEntity
  8
1
  6
Continuous
100
AcDbLine
 10
35.99924699999999
 20
397.3438729999998
 30
0.0
 11
35.99924699999999
 21
396.567065
 31
0.0
  0
ARC
  5
AF81
330
AE81
100
AcDbEntity
  8
1
  6
Continuous
100
AcDbCircle
 10
37.43444799999999
 20
393.845076
 30
0.0
 40
0.388957
100
AcDbArc
 50
270.0
 51
333.9859999999999
  0
ARC
  5
AF82
330
AE81
100
AcDbEntity
  8
1
  6
Continuous
100
AcDbCircle
 10
38.02021299999999
 20
395.4002729999999
 30
0.0
 40
0.388957
100
AcDbArc
 50
270.0
 51
344.7419999999998
  0
ARC
  5
AF83
330
AE81
100
AcDbEntity
  8
1
  6
Continuous
100
AcDbCircle
 10
29.467421
 20
397.7322779999998
 30
0.0
 40
9.254918999999999
100
AcDbArc
 50
344.7419999999998
 51
344.794
  0
ARC
  5
AF84
330
AE81
100
AcDbEntity
  8
1
  6
Continuous
100
AcDbCircle
 10
29.467421
 20
397.7322779999998
 30
0.0
 40
9.254918999999999
100
AcDbArc
 50
344.794
 51
347.2709999999998
  0
ARC
  5
AF85
330
AE81
100
AcDbEntity
  8
1
  6
Continuous
100
AcDbCircle
 10
38.41808999999999
 20
395.711312
 30
0.0
 40
0.077791
100
AcDbArc
 50
347.2709999999998
 51
90.0
  0
LINE
  5
AF86
330
AE81
100
AcDbEntity
  8
1
  6
Continuous
100
AcDbLine
 10
38.41808999999999
 20
395.7886769999999
 30
0.0
 11
36.93236399999999
 21
395.7886769999999
 31
0.0
  0
ARC
  5
AF87
330
AE81
100
AcDbEntity
  8
1
  6
Continuous
100
AcDbCircle
 10
37.91758499999999
 20
394.156115
 30
0.0
 40
0.077791
100
AcDbArc
 50
337.0559999999999
 51
90.0
  0
ARC
  5
AF88
330
AE81
100
AcDbEntity
  8
1
  6
Continuous
100
AcDbCircle
 10
29.467421
 20
397.7322779999998
 30
0.0
 40
9.254918999999999
100
AcDbArc
 50
333.9859999999999
 51
337.0559999999999
  0
LINE
  5
AF89
330
AE81
100
AcDbEntity
  8
1
  6
Continuous
100
AcDbLine
 10
35.99924699999999
 20
399.677458
 30
0.0
 11
35.99924699999999
 21
399.289053
 31
0.0
  0
LINE
  5
AF8A
330
AE81
100
AcDbEntity
  8
1
  6
Continuous
100
AcDbLine
 10
35.99924699999999
 20
401.621059
 30
0.0
 11
37.865482
 21
401.621059
 31
0.0
  0
LINE
  5
AF8B
330
AE81
100
AcDbEntity
  8
1
  6
Continuous
100
AcDbLine
 10
35.99924699999999
 20
404.403045
 30
0.0
 11
35.99924699999999
 21
402.795745
 31
0.0
  0
ARC
  5
AF8C
330
AE81
100
AcDbEntity
  8
1
  6
Continuous
100
AcDbCircle
 10
35.99924699999999
 20
402.3994459999998
 30
0.0
 40
2.004309
100
AcDbArc
 50
35.53800000000001
 51
45.69899999999999
  0
ARC
  5
AF8D
330
AE81
100
AcDbEntity
  8
1
  6
Continuous
100
AcDbCircle
 10
38.19546799999999
 20
399.289053
 30
0.0
 40
0.388957
100
AcDbArc
 50
10.10399999999999
 51
90.0
  0
ARC
  5
AF8E
330
AE81
100
AcDbEntity
  8
1
  6
Continuous
100
AcDbCircle
 10
38.56019000000001
 20
398.978014
 30
0.0
 40
0.077791
100
AcDbArc
 50
270.0
 51
7.792999999999999
  0
ARC
  5
AF8F
330
AE81
100
AcDbEntity
  8
1
  6
Continuous
100
AcDbCircle
 10
29.467421
 20
397.7322779999998
 30
0.0
 40
9.254918999999999
100
AcDbArc
 50
7.792999999999999
 51
10.10399999999999
  0
LINE
  5
AF90
330
AE81
100
AcDbEntity
  8
1
  6
Continuous
100
AcDbLine
 10
38.19546799999999
 20
399.677458
 30
0.0
 11
35.99924699999999
 21
399.677458
 31
0.0
  0
LINE
  5
AF91
330
AE81
100
AcDbEntity
  8
1
  6
Continuous
100
AcDbLine
 10
46.00003599999999
 20
402.2322779999998
 30
0.0
 11
52.70003599999999
 21
402.2322779999998
 31
0.0
  0
LINE
  5
AF92
330
AE81
100
AcDbEntity
  8
1
  6
Continuous
100
AcDbLine
 10
46.00003599999999
 20
393.2322779999998
 30
0.0
 11
52.70003599999999
 21
393.2322779999998
 31
0.0
  0
LINE
  5
AF93
330
AE81
100
AcDbEntity
  8
1
  6
Continuous
100
AcDbLine
 10
35.933369
 20
408.5322779999998
 30
0.0
 11
46.00003599999999
 21
400.9822779999998
 31
0.0
  0
LINE
  5
AF94
330
AE81
100
AcDbEntity
  8
1
  6
Continuous
100
AcDbLine
 10
36.533369
 20
409.3322779999998
 30
0.0
 11
46.00003599999999
 21
402.2322779999998
 31
0.0
  0
ARC
  5
AF95
330
AE81
100
AcDbEntity
  8
1
  6
Continuous
100
AcDbCircle
 10
72.50003599999998
 20
398.1322779999999
 30
0.0
 40
0.5
100
AcDbArc
 50
313.1718549999999
 51
45.08664600000001
  0
LINE
  5
AF96
330
AE81
100
AcDbEntity
  8
4
  6
CENTER
100
AcDbLine
 10
248.510437
 20
275.7219819999999
 30
0.0
 11
208.547977
 21
275.7219819999999
 31
0.0
  0
LINE
  5
AF97
330
AE81
100
AcDbEntity
  8
1
  6
Continuous
100
AcDbLine
 10
214.6089669999999
 20
286.7205039999999
 30
0.0
 11
241.708967
 21
286.7205039999999
 31
0.0
  0
LINE
  5
AF98
330
AE81
100
AcDbEntity
  8
1
  6
Continuous
100
AcDbLine
 10
214.6089669999999
 20
288.7219819999999
 30
0.0
 11
241.708967
 21
288.7219819999999
 31
0.0
  0
LINE
  5
AF99
330
AE81
100
AcDbEntity
  8
5
  6
PHANTOM
100
AcDbLine
 10
204.6089669999999
 20
265.371982
 30
0.0
 11
168.289919
 21
229.0529339999999
 31
0.0
  0
LINE
  5
AF9A
330
AE81
100
AcDbEntity
  8
5
  6
PHANTOM
100
AcDbLine
 10
206.0300349999999
 20
275.2783309999999
 30
0.0
 11
153.79423
 21
223.042527
 31
0.0
  0
ARC
  5
AF9B
330
AE81
100
AcDbEntity
  8
5
  6
PHANTOM
100
AcDbCircle
 10
154.501337
 20
222.33542
 30
0.0
 40
1.0
100
AcDbArc
 50
135.0
 51
225.0
  0
LINE
  5
AF9C
330
AE81
100
AcDbEntity
  8
5
  6
PHANTOM
100
AcDbLine
 10
156.0216169999999
 20
219.400927
 30
0.0
 11
153.79423
 21
221.6283129999999
 31
0.0
  0
ARC
  5
AF9D
330
AE81
100
AcDbEntity
  8
5
  6
PHANTOM
100
AcDbCircle
 10
156.7287229999999
 20
220.1080339999999
 30
0.0
 40
1.0
100
AcDbArc
 50
225.0
 51
235.5580589999999
  0
ARC
  5
AF9E
330
AE81
100
AcDbEntity
  8
5
  6
PHANTOM
100
AcDbCircle
 10
171.1183459999999
 20
226.224507
 30
0.0
 40
4.0
100
AcDbArc
 50
135.0
 51
225.0
  0
LINE
  5
AF9F
330
AE81
100
AcDbEntity
  8
5
  6
PHANTOM
100
AcDbLine
 10
173.6992859999999
 20
217.9867129999999
 30
0.0
 11
168.289919
 21
223.3960799999999
 31
0.0
  0
ARC
  5
AFA0
330
AE81
100
AcDbEntity
  8
5
  6
PHANTOM
100
AcDbCircle
 10
172.2850719999999
 20
216.5725
 30
0.0
 40
2.0
100
AcDbArc
 50
315.0
 51
45.0
  0
LINE
  5
AFA1
330
AE81
100
AcDbEntity
  8
5
  6
PHANTOM
100
AcDbLine
 10
208.958967
 20
265.371982
 30
0.0
 11
204.6089669999999
 21
265.371982
 31
0.0
  0
ARC
  5
AFA2
330
AE81
100
AcDbEntity
  8
5
  6
PHANTOM
100
AcDbCircle
 10
210.458967
 20
284.5719819999999
 30
0.0
 40
1.5
100
AcDbArc
 50
103.4933989999999
 51
180.0
  0
ARC
  5
AFA3
330
AE81
100
AcDbEntity
  8
5
  6
PHANTOM
100
AcDbCircle
 10
198.9589669999999
 20
282.349399
 30
0.0
 40
10.0
100
AcDbArc
 50
315.0
 51
0.0
  0
LINE
  5
AFA4
330
AE81
100
AcDbEntity
  8
5
  6
PHANTOM
100
AcDbLine
 10
208.958967
 20
282.349399
 30
0.0
 11
208.958967
 21
284.5719819999999
 31
0.0
  0
ARC
  5
AFA5
330
AE81
100
AcDbEntity
  8
1
  6
Continuous
100
AcDbCircle
 10
205.5190909999999
 20
278.7978959999999
 30
0.0
 40
1.5
100
AcDbArc
 50
135.0
 51
225.0
  0
LINE
  5
AFA6
330
AE81
100
AcDbEntity
  8
1
  6
Continuous
100
AcDbLine
 10
207.6404119999999
 20
283.040537
 30
0.0
 11
204.458431
 21
279.8585569999999
 31
0.0
  0
ARC
  5
AFA7
330
AE81
100
AcDbEntity
  8
1
  6
Continuous
100
AcDbCircle
 10
198.9589669999999
 20
269.0945649999999
 30
0.0
 40
10.0
100
AcDbArc
 50
0.0
 51
45.0
  0
LINE
  5
AFA8
330
AE81
100
AcDbEntity
  8
1
  6
Continuous
100
AcDbLine
 10
206.0300349999999
 20
276.165633
 30
0.0
 11
204.458431
 21
277.737236
 31
0.0
  0
ARC
  5
AFA9
330
AE81
100
AcDbEntity
  8
1
  6
Continuous
100
AcDbCircle
 10
214.958967
 20
275.7219819999999
 30
0.0
 40
10.34999999999999
100
AcDbArc
 50
117.943395
 51
135.0
  0
LINE
  5
AFAA
330
AE81
100
AcDbEntity
  8
1
  6
Continuous
100
AcDbLine
 10
211.608967
 20
299.7219819999999
 30
0.0
 11
210.1089669999999
 21
296.721982
 31
0.0
  0
LINE
  5
AFAB
330
AE81
100
AcDbEntity
  8
1
  6
Continuous
100
AcDbLine
 10
211.608967
 20
299.7219819999999
 30
0.0
 11
214.6089669999999
 21
299.7219819999999
 31
0.0
  0
LINE
  5
AFAC
330
AE81
100
AcDbEntity
  8
1
  6
Continuous
100
AcDbLine
 10
225.6089669999999
 20
263.0219819999999
 30
0.0
 11
225.6089669999999
 21
275.7219819999999
 31
0.0
  0
LINE
  5
AFAD
330
AE81
100
AcDbEntity
  8
1
  6
Continuous
100
AcDbLine
 10
240.5089669999999
 20
284.728331
 30
0.0
 11
240.5089669999999
 21
262.7219819999999
 31
0.0
  0
LINE
  5
AFAE
330
AE81
100
AcDbEntity
  8
1
  6
Continuous
100
AcDbLine
 10
242.5089669999999
 20
286.980312
 30
0.0
 11
242.5089669999999
 21
262.7219819999999
 31
0.0
  0
LINE
  5
AFAF
330
AE81
100
AcDbEntity
  8
1
  6
Continuous
100
AcDbLine
 10
240.1089669999999
 20
286.7205039999999
 30
0.0
 11
240.1089669999999
 21
264.0219819999999
 31
0.0
  0
LINE
  5
AFB0
330
AE81
100
AcDbEntity
  8
1
  6
Continuous
100
AcDbLine
 10
282.551841
 20
286.7219819999999
 30
0.0
 11
282.551841
 21
264.7219819999999
 31
0.0
  0
LINE
  5
AFB1
330
AE81
100
AcDbEntity
  8
1
  6
Continuous
100
AcDbLine
 10
284.551841
 20
286.7219819999999
 30
0.0
 11
284.551841
 21
264.7219819999999
 31
0.0
  0
LINE
  5
AFB2
330
AE81
100
AcDbEntity
  8
1
  6
Continuous
100
AcDbLine
 10
226.6089669999999
 20
224.721982
 30
0.0
 11
226.6089669999999
 21
215.7219819999999
 31
0.0
  0
LINE
  5
AFB3
330
AE81
100
AcDbEntity
  8
1
  6
Continuous
100
AcDbLine
 10
226.6089669999999
 20
224.721982
 30
0.0
 11
224.6089669999999
 21
224.721982
 31
0.0
  0
ARC
  5
AFB4
330
AE81
100
AcDbEntity
  8
1
  6
Continuous
100
AcDbCircle
 10
224.6089669999999
 20
225.7219819999999
 30
0.0
 40
1.0
100
AcDbArc
 50
180.0
 51
270.0
  0
LINE
  5
AFB5
330
AE81
100
AcDbEntity
  8
1
  6
Continuous
100
AcDbLine
 10
226.6089669999999
 20
215.7219819999999
 30
0.0
 11
224.6089669999999
 21
215.7219819999999
 31
0.0
  0
LINE
  5
AFB6
330
AE81
100
AcDbEntity
  8
4
  6
CENTER
100
AcDbLine
 10
229.6089669999999
 20
220.2219819999999
 30
0.0
 11
220.6089669999999
 21
220.2219819999999
 31
0.0
  0
LINE
  5
AFB7
330
AE81
100
AcDbEntity
  8
1
  6
Continuous
100
AcDbLine
 10
223.6089669999999
 20
263.0219819999999
 30
0.0
 11
239.1089669999999
 21
263.0219819999999
 31
0.0
  0
ARC
  5
AFB8
330
AE81
100
AcDbEntity
  8
1
  6
Continuous
100
AcDbCircle
 10
224.6089669999999
 20
246.7219819999999
 30
0.0
 40
1.0
100
AcDbArc
 50
90.0
 51
180.0
  0
ARC
  5
AFB9
330
AE81
100
AcDbEntity
  8
1
  6
Continuous
100
AcDbCircle
 10
224.6089669999999
 20
257.7219819999999
 30
0.0
 40
1.0
100
AcDbArc
 50
180.0
 51
270.0
  0
LINE
  5
AFBA
330
AE81
100
AcDbEntity
  8
1
  6
Continuous
100
AcDbLine
 10
226.6089669999999
 20
256.7219819999999
 30
0.0
 11
226.6089669999999
 21
247.721982
 31
0.0
  0
LINE
  5
AFBB
330
AE81
100
AcDbEntity
  8
1
  6
Continuous
100
AcDbLine
 10
226.6089669999999
 20
247.721982
 30
0.0
 11
224.6089669999999
 21
247.721982
 31
0.0
  0
LINE
  5
AFBC
330
AE81
100
AcDbEntity
  8
1
  6
Continuous
100
AcDbLine
 10
226.6089669999999
 20
256.7219819999999
 30
0.0
 11
224.6089669999999
 21
256.7219819999999
 31
0.0
  0
LINE
  5
AFBD
330
AE81
100
AcDbEntity
  8
4
  6
CENTER
100
AcDbLine
 10
229.6089669999999
 20
252.221982
 30
0.0
 11
220.6089669999999
 21
252.221982
 31
0.0
  0
LINE
  5
AFBE
330
AE81
100
AcDbEntity
  8
1
  6
Continuous
100
AcDbLine
 10
242.5089669999999
 20
262.7219819999999
 30
0.0
 11
240.5089669999999
 21
262.7219819999999
 31
0.0
  0
ARC
  5
AFBF
330
AE81
100
AcDbEntity
  8
1
  6
Continuous
100
AcDbCircle
 10
239.1089669999999
 20
264.0219819999999
 30
0.0
 40
1.0
100
AcDbArc
 50
270.0
 51
0.0
  0
LINE
  5
AFC0
330
AE81
100
AcDbEntity
  8
1
  6
Continuous
100
AcDbLine
 10
282.551841
 20
264.7219819999999
 30
0.0
 11
284.551841
 21
264.7219819999999
 31
0.0
  0
LINE
  5
AFC1
330
AE81
100
AcDbEntity
  8
1
  6
Continuous
100
AcDbLine
 10
245.508967
 20
282.2980749999999
 30
0.0
 11
245.508967
 21
269.145889
 31
0.0
  0
LINE
  5
AFC2
330
AE81
100
AcDbEntity
  8
1
  6
Continuous
100
AcDbLine
 10
242.5089669999999
 20
286.980312
 30
0.0
 11
241.9089669999999
 21
286.980312
 31
0.0
  0
LINE
  5
AFC3
330
AE81
100
AcDbEntity
  8
1
  6
Continuous
100
AcDbLine
 10
242.5089669999999
 20
285.7219819999999
 30
0.0
 11
241.9089669999999
 21
285.7219819999999
 31
0.0
  0
LINE
  5
AFC4
330
AE81
100
AcDbEntity
  8
1
  6
Continuous
100
AcDbLine
 10
242.5089669999999
 20
270.7219819999999
 30
0.0
 11
240.5089669999999
 21
270.7219819999999
 31
0.0
  0
LINE
  5
AFC5
330
AE81
100
AcDbEntity
  8
1
  6
Continuous
100
AcDbLine
 10
242.5089669999999
 20
269.2219819999999
 30
0.0
 11
240.5089669999999
 21
269.2219819999999
 31
0.0
  0
ARC
  5
AFC6
330
AE81
100
AcDbEntity
  8
1
  6
Continuous
100
AcDbCircle
 10
241.708967
 20
286.920504
 30
0.0
 40
0.2
100
AcDbArc
 50
270.0
 51
0.0
  0
ARC
  5
AFC7
330
AE81
100
AcDbEntity
  8
1
  6
Continuous
100
AcDbCircle
 10
241.708967
 20
284.928331
 30
0.0
 40
0.2
100
AcDbArc
 50
270.0
 51
0.0
  0
ARC
  5
AFC8
330
AE81
100
AcDbEntity
  8
1
  6
Continuous
100
AcDbCircle
 10
241.708967
 20
288.5219819999999
 30
0.0
 40
0.2
100
AcDbArc
 50
0.0
 51
90.0
  0
LINE
  5
AFC9
330
AE81
100
AcDbEntity
  8
1
  6
Continuous
100
AcDbLine
 10
241.9089669999999
 20
288.5219819999999
 30
0.0
 11
241.9089669999999
 21
284.928331
 31
0.0
  0
LINE
  5
AFCA
330
AE81
100
AcDbEntity
  8
1
  6
Continuous
100
AcDbLine
 10
241.708967
 20
284.728331
 30
0.0
 11
240.1089669999999
 21
284.728331
 31
0.0
  0
ARC
  5
AFCB
330
AE81
100
AcDbEntity
  8
1
  6
Continuous
100
AcDbCircle
 10
245.2089669999999
 20
282.2980749999999
 30
0.0
 40
0.3
100
AcDbArc
 50
0.0
 51
90.0
  0
ARC
  5
AFCC
330
AE81
100
AcDbEntity
  8
1
  6
Continuous
100
AcDbCircle
 10
245.2089669999999
 20
269.145889
 30
0.0
 40
0.3
100
AcDbArc
 50
270.0
 51
0.0
  0
LINE
  5
AFCD
330
AE81
100
AcDbEntity
  8
1
  6
Continuous
100
AcDbLine
 10
245.2089669999999
 20
268.845889
 30
0.0
 11
242.5089669999999
 21
268.845889
 31
0.0
  0
LINE
  5
AFCE
330
AE81
100
AcDbEntity
  8
1
  6
Continuous
100
AcDbLine
 10
245.2089669999999
 20
282.5980749999999
 30
0.0
 11
242.5089669999999
 21
282.5980749999999
 31
0.0
  0
LINE
  5
AFCF
330
AE81
100
AcDbEntity
  8
1
  6
Continuous
100
AcDbLine
 10
242.5089669999999
 20
275.7219819999999
 30
0.0
 11
245.2089669999999
 21
275.7219819999999
 31
0.0
  0
LINE
  5
AFD0
330
AE81
100
AcDbEntity
  8
2
  6
Continuous
100
AcDbLine
 10
245.2089669999999
 20
275.7219819999999
 30
0.0
 11
242.5089669999999
 21
282.5980749999999
 31
0.0
  0
LINE
  5
AFD1
330
AE81
100
AcDbEntity
  8
2
  6
Continuous
100
AcDbLine
 10
245.2089669999999
 20
275.7219819999999
 30
0.0
 11
242.5089669999999
 21
268.845889
 31
0.0
  0
LINE
  5
AFD2
330
AE81
100
AcDbEntity
  8
2
  6
Continuous
100
AcDbLine
 10
242.5089669999999
 20
275.7219819999999
 30
0.0
 11
245.2089669999999
 21
268.845889
 31
0.0
  0
LINE
  5
AFD3
330
AE81
100
AcDbEntity
  8
2
  6
Continuous
100
AcDbLine
 10
245.2089669999999
 20
282.5980749999999
 30
0.0
 11
242.5089669999999
 21
275.7219819999999
 31
0.0
  0
LINE
  5
AFD4
330
AE81
100
AcDbEntity
  8
1
  6
Continuous
100
AcDbLine
 10
240.5089669999999
 20
282.7219819999999
 30
0.0
 11
240.1089669999999
 21
282.7219819999999
 31
0.0
  0
LINE
  5
AFD5
330
AE81
100
AcDbEntity
  8
1
  6
Continuous
100
AcDbLine
 10
240.5089669999999
 20
268.7219819999999
 30
0.0
 11
240.1089669999999
 21
268.7219819999999
 31
0.0
  0
LINE
  5
AFD6
330
AE81
100
AcDbEntity
  8
1
  6
Continuous
100
AcDbLine
 10
282.551841
 20
286.7219819999999
 30
0.0
 11
284.551841
 21
286.7219819999999
 31
0.0
  0
LINE
  5
AFD7
330
AE81
100
AcDbEntity
  8
1
  6
Continuous
100
AcDbLine
 10
286.051841
 20
283.7219819999999
 30
0.0
 11
286.051841
 21
267.7219819999999
 31
0.0
  0
LINE
  5
AFD8
330
AE81
100
AcDbEntity
  8
1
  6
Continuous
100
AcDbLine
 10
284.551841
 20
267.7219819999999
 30
0.0
 11
286.051841
 21
267.7219819999999
 31
0.0
  0
LINE
  5
AFD9
330
AE81
100
AcDbEntity
  8
1
  6
Continuous
100
AcDbLine
 10
284.551841
 20
283.7219819999999
 30
0.0
 11
286.051841
 21
283.7219819999999
 31
0.0
  0
LINE
  5
AFDA
330
AE81
100
AcDbEntity
  8
1
  6
Continuous
100
AcDbLine
 10
241.9089669999999
 20
391.382282
 30
0.0
 11
214.6089669999999
 21
391.382282
 31
0.0
  0
LINE
  5
AFDB
330
AE81
100
AcDbEntity
  8
1
  6
Continuous
100
AcDbLine
 10
241.9089669999999
 20
404.0822819999998
 30
0.0
 11
214.6089669999999
 21
404.0822819999998
 31
0.0
  0
LINE
  5
AFDC
330
AE81
100
AcDbEntity
  8
1
  6
Continuous
100
AcDbLine
 10
240.1089669999999
 20
385.032282
 30
0.0
 11
214.6089669999999
 21
385.032282
 31
0.0
  0
LINE
  5
AFDD
330
AE81
100
AcDbEntity
  8
1
  6
Continuous
100
AcDbLine
 10
240.1089669999999
 20
410.432282
 30
0.0
 11
214.6089669999999
 21
410.432282
 31
0.0
  0
LINE
  5
AFDE
330
AE81
100
AcDbEntity
  8
4
  6
CENTER
100
AcDbLine
 10
250.5089669999999
 20
397.7322819999998
 30
0.0
 11
199.019091
 21
397.7322819999998
 31
0.0
  0
ARC
  5
AFDF
330
AE81
100
AcDbEntity
  8
1
  6
Continuous
100
AcDbCircle
 10
217.3316589999999
 20
397.7322819999998
 30
0.0
 40
13.312568
100
AcDbArc
 50
128.9713279999999
 51
231.028672
  0
LINE
  5
AFE0
330
AE81
100
AcDbEntity
  8
1
  6
Continuous
100
AcDbLine
 10
210.1089669999999
 20
410.732282
 30
0.0
 11
210.1089669999999
 21
384.732282
 31
0.0
  0
LINE
  5
AFE1
330
AE81
100
AcDbEntity
  8
1
  6
Continuous
100
AcDbLine
 10
211.608967
 20
413.7322819999998
 30
0.0
 11
211.608967
 21
381.732282
 31
0.0
  0
LINE
  5
AFE2
330
AE81
100
AcDbEntity
  8
1
  6
Continuous
100
AcDbLine
 10
213.1089669999999
 20
413.7322819999998
 30
0.0
 11
213.1089669999999
 21
381.732282
 31
0.0
  0
LINE
  5
AFE3
330
AE81
100
AcDbEntity
  8
1
  6
Continuous
100
AcDbLine
 10
214.6089669999999
 20
381.732282
 30
0.0
 11
214.6089669999999
 21
413.7322819999998
 31
0.0
  0
LINE
  5
AFE4
330
AE81
100
AcDbEntity
  8
1
  6
Continuous
100
AcDbLine
 10
210.1089669999999
 20
384.732282
 30
0.0
 11
211.608967
 21
381.732282
 31
0.0
  0
LINE
  5
AFE5
330
AE81
100
AcDbEntity
  8
1
  6
Continuous
100
AcDbLine
 10
214.6089669999999
 20
381.732282
 30
0.0
 11
211.608967
 21
381.732282
 31
0.0
  0
LINE
  5
AFE6
330
AE81
100
AcDbEntity
  8
1
  6
Continuous
100
AcDbLine
 10
210.1089669999999
 20
387.382282
 30
0.0
 11
208.958967
 21
387.382282
 31
0.0
  0
LINE
  5
AFE7
330
AE81
100
AcDbEntity
  8
1
  6
Continuous
100
AcDbLine
 10
210.1089669999999
 20
410.732282
 30
0.0
 11
211.608967
 21
413.7322819999998
 31
0.0
  0
LINE
  5
AFE8
330
AE81
100
AcDbEntity
  8
1
  6
Continuous
100
AcDbLine
 10
214.6089669999999
 20
413.7322819999998
 30
0.0
 11
211.608967
 21
413.7322819999998
 31
0.0
  0
LINE
  5
AFE9
330
AE81
100
AcDbEntity
  8
1
  6
Continuous
100
AcDbLine
 10
210.1089669999999
 20
408.0822819999998
 30
0.0
 11
208.958967
 21
408.0822819999998
 31
0.0
  0
LINE
  5
AFEA
330
AE81
100
AcDbEntity
  8
1
  6
Continuous
100
AcDbLine
 10
242.5089669999999
 20
386.473982
 30
0.0
 11
242.5089669999999
 21
410.732282
 31
0.0
  0
LINE
  5
AFEB
330
AE81
100
AcDbEntity
  8
1
  6
Continuous
100
AcDbLine
 10
241.9089669999999
 20
391.382282
 30
0.0
 11
241.9089669999999
 21
404.0822819999998
 31
0.0
  0
LINE
  5
AFEC
330
AE81
100
AcDbEntity
  8
2
  6
Continuous
100
AcDbLine
 10
242.5089669999999
 20
397.7322819999998
 30
0.0
 11
245.2089669999999
 21
390.8561890000001
 31
0.0
  0
LINE
  5
AFED
330
AE81
100
AcDbEntity
  8
2
  6
Continuous
100
AcDbLine
 10
245.2089669999999
 20
397.7322819999998
 30
0.0
 11
242.5089669999999
 21
390.8561890000001
 31
0.0
  0
LINE
  5
AFEE
330
AE81
100
AcDbEntity
  8
1
  6
Continuous
100
AcDbLine
 10
245.508967
 20
404.308375
 30
0.0
 11
245.508967
 21
391.1561890000001
 31
0.0
  0
LINE
  5
AFEF
330
AE81
100
AcDbEntity
  8
1
  6
Continuous
100
AcDbLine
 10
242.5089669999999
 20
387.732282
 30
0.0
 11
240.1089669999999
 21
387.732282
 31
0.0
  0
LINE
  5
AFF0
330
AE81
100
AcDbEntity
  8
1
  6
Continuous
100
AcDbLine
 10
242.5089669999999
 20
386.473982
 30
0.0
 11
240.1089669999999
 21
386.473982
 31
0.0
  0
LINE
  5
AFF1
330
AE81
100
AcDbEntity
  8
1
  6
Continuous
100
AcDbLine
 10
240.1089669999999
 20
385.032282
 30
0.0
 11
240.1089669999999
 21
391.382282
 31
0.0
  0
LINE
  5
AFF2
330
AE81
100
AcDbEntity
  8
1
  6
Continuous
100
AcDbLine
 10
245.2089669999999
 20
390.8561890000001
 30
0.0
 11
242.5089669999999
 21
390.8561890000001
 31
0.0
  0
ARC
  5
AFF3
330
AE81
100
AcDbEntity
  8
1
  6
Continuous
100
AcDbCircle
 10
245.2089669999999
 20
391.1561890000001
 30
0.0
 40
0.3
100
AcDbArc
 50
270.0
 51
0.0
  0
LINE
  5
AFF4
330
AE81
100
AcDbEntity
  8
1
  6
Continuous
100
AcDbLine
 10
242.5089669999999
 20
410.732282
 30
0.0
 11
240.1089669999999
 21
410.732282
 31
0.0
  0
LINE
  5
AFF5
330
AE81
100
AcDbEntity
  8
1
  6
Continuous
100
AcDbLine
 10
240.1089669999999
 20
404.0822819999998
 30
0.0
 11
240.1089669999999
 21
410.732282
 31
0.0
  0
LINE
  5
AFF6
330
AE81
100
AcDbEntity
  8
2
  6
Continuous
100
AcDbLine
 10
245.2089669999999
 20
404.608375
 30
0.0
 11
242.5089669999999
 21
397.7322819999998
 31
0.0
  0
LINE
  5
AFF7
330
AE81
100
AcDbEntity
  8
2
  6
Continuous
100
AcDbLine
 10
245.2089669999999
 20
397.7322819999998
 30
0.0
 11
242.5089669999999
 21
404.608375
 31
0.0
  0
LINE
  5
AFF8
330
AE81
100
AcDbEntity
  8
1
  6
Continuous
100
AcDbLine
 10
242.5089669999999
 20
397.7322819999998
 30
0.0
 11
245.2089669999999
 21
397.7322819999998
 31
0.0
  0
LINE
  5
AFF9
330
AE81
100
AcDbEntity
  8
1
  6
Continuous
100
AcDbLine
 10
245.2089669999999
 20
404.608375
 30
0.0
 11
242.5089669999999
 21
404.608375
 31
0.0
  0
ARC
  5
AFFA
330
AE81
100
AcDbEntity
  8
1
  6
Continuous
100
AcDbCircle
 10
245.2089669999999
 20
404.308375
 30
0.0
 40
0.3
100
AcDbArc
 50
0.0
 51
90.0
  0
LINE
  5
AFFB
330
AE81
100
AcDbEntity
  8
1
  6
Continuous
100
AcDbLine
 10
286.051841
 20
405.7322769999998
 30
0.0
 11
286.051841
 21
389.732277
 31
0.0
  0
LINE
  5
AFFC
330
AE81
100
AcDbEntity
  8
1
  6
Continuous
100
AcDbLine
 10
284.551841
 20
408.732277
 30
0.0
 11
284.551841
 21
386.732277
 31
0.0
  0
LINE
  5
AFFD
330
AE81
100
AcDbEntity
  8
1
  6
Continuous
100
AcDbLine
 10
282.551841
 20
408.732277
 30
0.0
 11
282.551841
 21
386.732277
 31
0.0
  0
LINE
  5
AFFE
330
AE81
100
AcDbEntity
  8
1
  6
Continuous
100
AcDbLine
 10
284.551841
 20
389.732277
 30
0.0
 11
286.051841
 21
389.732277
 31
0.0
  0
LINE
  5
AFFF
330
AE81
100
AcDbEntity
  8
1
  6
Continuous
100
AcDbLine
 10
282.551841
 20
386.732277
 30
0.0
 11
284.551841
 21
386.732277
 31
0.0
  0
LINE
  5
B000
330
AE81
100
AcDbEntity
  8
1
  6
Continuous
100
AcDbLine
 10
284.551841
 20
405.7322769999998
 30
0.0
 11
286.051841
 21
405.7322769999998
 31
0.0
  0
LINE
  5
B001
330
AE81
100
AcDbEntity
  8
1
  6
Continuous
100
AcDbLine
 10
282.551841
 20
408.732277
 30
0.0
 11
284.551841
 21
408.732277
 31
0.0
  0
LINE
  5
B002
330
AE81
100
AcDbEntity
  8
1
  6
Continuous
100
AcDbLine
 10
531.7196909999998
 20
164.221982
 30
0.0
 11
531.7196909999998
 21
297.2219819999999
 31
0.0
  0
LINE
  5
B003
330
AE81
100
AcDbEntity
  8
1
  6
Continuous
100
AcDbLine
 10
492.719691
 20
297.2219819999999
 30
0.0
 11
492.719691
 21
164.221982
 31
0.0
  0
LINE
  5
B004
330
AE81
100
AcDbEntity
  8
1
  6
Continuous
100
AcDbLine
 10
335.540247
 20
161.721982
 30
0.0
 11
335.540247
 21
299.7219819999999
 31
0.0
  0
LINE
  5
B005
330
AE81
100
AcDbEntity
  8
1
  6
Continuous
100
AcDbLine
 10
347.740247
 20
211.7219819999999
 30
0.0
 11
347.740247
 21
261.2219819999999
 31
0.0
  0
LINE
  5
B006
330
AE81
100
AcDbEntity
  8
1
  6
Continuous
100
AcDbLine
 10
496.719691
 20
299.7219819999999
 30
0.0
 11
496.719691
 21
161.721982
 31
0.0
  0
LINE
  5
B007
330
AE81
100
AcDbEntity
  8
1
  6
Continuous
100
AcDbLine
 10
527.7196909999998
 20
299.7219819999999
 30
0.0
 11
527.7196909999998
 21
161.721982
 31
0.0
  0
LINE
  5
B008
330
AE81
100
AcDbEntity
  8
4
  6
CENTER
100
AcDbLine
 10
512.219691
 20
226.652025
 30
0.0
 11
512.219691
 21
156.721982
 31
0.0
  0
LINE
  5
B009
330
AE81
100
AcDbEntity
  8
1
  6
Continuous
100
AcDbLine
 10
333.040247
 20
299.7219819999999
 30
0.0
 11
333.040247
 21
161.721982
 31
0.0
  0
LINE
  5
B00A
330
AE81
100
AcDbEntity
  8
1
  6
Continuous
100
AcDbLine
 10
291.551841
 20
68.159089
 30
0.0
 11
291.551841
 21
58.159089
 31
0.0
  0
ARC
  5
B00B
330
AE81
100
AcDbEntity
  8
1
  6
Continuous
100
AcDbCircle
 10
284.3265489999999
 20
65.659089
 30
0.0
 40
7.225291999999998
100
AcDbArc
 50
339.756734
 51
20.243266
  0
ARC
  5
B00C
330
AE81
100
AcDbEntity
  8
1
  6
Continuous
100
AcDbCircle
 10
294.777133
 20
65.659089
 30
0.0
 40
7.225291999999998
100
AcDbArc
 50
159.7567339999999
 51
200.243266
  0
ARC
  5
B00D
330
AE81
100
AcDbEntity
  8
1
  6
Continuous
100
AcDbCircle
 10
340.340247
 20
63.159089
 30
0.0
 40
12.0
100
AcDbArc
 50
344.5059999999998
 51
15.494
  0
LINE
  5
B00E
330
AE81
100
AcDbEntity
  8
1
  6
Continuous
100
AcDbLine
 10
347.740247
 20
63.159089
 30
0.0
 11
349.040247
 21
64.459089
 31
0.0
  0
LINE
  5
B00F
330
AE81
100
AcDbEntity
  8
1
  6
Continuous
100
AcDbLine
 10
347.740247
 20
50.159089
 30
0.0
 11
347.740247
 21
76.15908899999998
 31
0.0
  0
LINE
  5
B010
330
AE81
100
AcDbEntity
  8
1
  6
Continuous
100
AcDbLine
 10
345.240247
 20
50.159089
 30
0.0
 11
345.240247
 21
76.15908899999998
 31
0.0
  0
LINE
  5
B011
330
AE81
100
AcDbEntity
  8
1
  6
Continuous
100
AcDbLine
 10
349.040247
 20
67.75908900000001
 30
0.0
 11
349.040247
 21
58.559089
 31
0.0
  0
LINE
  5
B012
330
AE81
100
AcDbEntity
  8
1
  6
Continuous
100
AcDbLine
 10
287.551841
 20
69.259089
 30
0.0
 11
287.551841
 21
57.059089
 31
0.0
  0
ARC
  5
B013
330
AE81
100
AcDbEntity
  8
1
  6
Continuous
100
AcDbCircle
 10
284.3265489999999
 20
60.659089
 30
0.0
 40
7.225291999999998
100
AcDbArc
 50
339.756734
 51
20.243266
  0
ARC
  5
B014
330
AE81
100
AcDbEntity
  8
1
  6
Continuous
100
AcDbCircle
 10
294.777133
 20
60.659089
 30
0.0
 40
7.225291999999998
100
AcDbArc
 50
159.7567339999999
 51
200.243266
  0
LINE
  5
B015
330
AE81
100
AcDbEntity
  8
1
  6
Continuous
100
AcDbLine
 10
291.551841
 20
58.159089
 30
0.0
 11
287.551841
 21
58.159089
 31
0.0
  0
LINE
  5
B016
330
AE81
100
AcDbEntity
  8
1
  6
Continuous
100
AcDbLine
 10
287.998133
 20
63.159089
 30
0.0
 11
291.1055489999999
 21
63.159089
 31
0.0
  0
LINE
  5
B017
330
AE81
100
AcDbEntity
  8
1
  6
Continuous
100
AcDbLine
 10
335.540247
 20
47.659089
 30
0.0
 11
345.240247
 21
47.659089
 31
0.0
  0
LINE
  5
B018
330
AE81
100
AcDbEntity
  8
1
  6
Continuous
100
AcDbLine
 10
335.540247
 20
50.159089
 30
0.0
 11
345.240247
 21
50.159089
 31
0.0
  0
LINE
  5
B019
330
AE81
100
AcDbEntity
  8
4
  6
CENTER
100
AcDbLine
 10
328.040247
 20
63.159089
 30
0.0
 11
357.340247
 21
63.159089
 31
0.0
  0
LINE
  5
B01A
330
AE81
100
AcDbEntity
  8
1
  6
Continuous
100
AcDbLine
 10
335.540247
 20
43.65908899999999
 30
0.0
 11
335.540247
 21
47.659089
 31
0.0
  0
LINE
  5
B01B
330
AE81
100
AcDbEntity
  8
1
  6
Continuous
100
AcDbLine
 10
333.040247
 20
43.65908899999999
 30
0.0
 11
333.040247
 21
47.659089
 31
0.0
  0
LINE
  5
B01C
330
AE81
100
AcDbEntity
  8
1
  6
Continuous
100
AcDbLine
 10
333.040247
 20
43.65908899999999
 30
0.0
 11
335.540247
 21
43.65908899999999
 31
0.0
  0
ARC
  5
B01D
330
AE81
100
AcDbEntity
  8
1
  6
Continuous
100
AcDbCircle
 10
335.540247
 20
47.659089
 30
0.0
 40
2.5
100
AcDbArc
 50
90.0
 51
180.0
  0
ARC
  5
B01E
330
AE81
100
AcDbEntity
  8
1
  6
Continuous
100
AcDbCircle
 10
345.240247
 20
50.159089
 30
0.0
 40
2.5
100
AcDbArc
 50
270.0
 51
0.0
  0
LINE
  5
B01F
330
AE81
100
AcDbEntity
  8
1
  6
Continuous
100
AcDbLine
 10
350.501247
 20
58.787089
 30
0.0
 11
349.040247
 21
58.659089
 31
0.0
  0
LINE
  5
B020
330
AE81
100
AcDbEntity
  8
1
  6
Continuous
100
AcDbLine
 10
349.040247
 20
58.559089
 30
0.0
 11
347.740247
 21
58.559089
 31
0.0
  0
LINE
  5
B021
330
AE81
100
AcDbEntity
  8
1
  6
Continuous
100
AcDbLine
 10
347.740247
 20
61.85908900000001
 30
0.0
 11
349.040247
 21
63.159089
 31
0.0
  0
ARC
  5
B022
330
AE81
100
AcDbEntity
  8
1
  6
Continuous
100
AcDbCircle
 10
350.362247
 20
60.38108900000001
 30
0.0
 40
1.6
100
AcDbArc
 50
275.0
 51
344.5059999999998
  0
LINE
  5
B023
330
AE81
100
AcDbEntity
  8
1
  6
Continuous
100
AcDbLine
 10
291.551841
 20
68.159089
 30
0.0
 11
287.551841
 21
68.159089
 31
0.0
  0
LINE
  5
B024
330
AE81
100
AcDbEntity
  8
1
  6
Continuous
100
AcDbLine
 10
335.540247
 20
78.65908899999998
 30
0.0
 11
345.240247
 21
78.65908899999998
 31
0.0
  0
LINE
  5
B025
330
AE81
100
AcDbEntity
  8
1
  6
Continuous
100
AcDbLine
 10
335.540247
 20
76.15908899999998
 30
0.0
 11
345.240247
 21
76.15908899999998
 31
0.0
  0
LINE
  5
B026
330
AE81
100
AcDbEntity
  8
1
  6
Continuous
100
AcDbLine
 10
335.540247
 20
78.65908899999998
 30
0.0
 11
335.540247
 21
82.65908899999997
 31
0.0
  0
LINE
  5
B027
330
AE81
100
AcDbEntity
  8
1
  6
Continuous
100
AcDbLine
 10
333.040247
 20
78.65908899999998
 30
0.0
 11
333.040247
 21
82.65908899999997
 31
0.0
  0
LINE
  5
B028
330
AE81
100
AcDbEntity
  8
1
  6
Continuous
100
AcDbLine
 10
333.040247
 20
82.65908899999997
 30
0.0
 11
335.540247
 21
82.65908899999997
 31
0.0
  0
ARC
  5
B029
330
AE81
100
AcDbEntity
  8
1
  6
Continuous
100
AcDbCircle
 10
335.540247
 20
78.65908899999998
 30
0.0
 40
2.5
100
AcDbArc
 50
180.0
 51
270.0
  0
ARC
  5
B02A
330
AE81
100
AcDbEntity
  8
1
  6
Continuous
100
AcDbCircle
 10
345.240247
 20
76.15908899999998
 30
0.0
 40
2.5
100
AcDbArc
 50
0.0
 51
90.0
  0
LINE
  5
B02B
330
AE81
100
AcDbEntity
  8
1
  6
Continuous
100
AcDbLine
 10
350.501247
 20
67.53108899999999
 30
0.0
 11
349.040247
 21
67.65908899999999
 31
0.0
  0
LINE
  5
B02C
330
AE81
100
AcDbEntity
  8
1
  6
Continuous
100
AcDbLine
 10
349.040247
 20
67.75908900000001
 30
0.0
 11
347.740247
 21
67.75908900000001
 31
0.0
  0
ARC
  5
B02D
330
AE81
100
AcDbEntity
  8
1
  6
Continuous
100
AcDbCircle
 10
350.362247
 20
65.937089
 30
0.0
 40
1.6
100
AcDbArc
 50
15.494
 51
84.99990000000002
  0
LINE
  5
B02E
330
AE81
100
AcDbEntity
  8
1
  6
Continuous
100
AcDbLine
 10
345.240247
 20
164.221982
 30
0.0
 11
345.240247
 21
211.7219819999999
 31
0.0
  0
LINE
  5
B02F
330
AE81
100
AcDbEntity
  8
1
  6
Continuous
100
AcDbLine
 10
333.040247
 20
161.721982
 30
0.0
 11
342.740247
 21
161.721982
 31
0.0
  0
ARC
  5
B030
330
AE81
100
AcDbEntity
  8
1
  6
Continuous
100
AcDbCircle
 10
342.740247
 20
164.221982
 30
0.0
 40
2.5
100
AcDbArc
 50
270.0
 51
0.0
  0
LINE
  5
B031
330
AE81
100
AcDbEntity
  8
1
  6
Continuous
100
AcDbLine
 10
345.240247
 20
211.7219819999999
 30
0.0
 11
347.740247
 21
211.7219819999999
 31
0.0
  0
LINE
  5
B032
330
AE81
100
AcDbEntity
  8
1
  6
Continuous
100
AcDbLine
 10
496.719691
 20
211.7219819999999
 30
0.0
 11
527.7196909999998
 21
211.7219819999999
 31
0.0
  0
ARC
  5
B033
330
AE81
100
AcDbEntity
  8
1
  6
Continuous
100
AcDbCircle
 10
512.219691
 20
185.421982
 30
0.0
 40
12.7
100
AcDbArc
 50
180.0
 51
0.0
  0
LINE
  5
B034
330
AE81
100
AcDbEntity
  8
4
  6
CENTER
100
AcDbLine
 10
510.019691
 20
195.7219819999999
 30
0.0
 11
501.4196909999998
 21
195.7219819999999
 31
0.0
  0
LINE
  5
B035
330
AE81
100
AcDbEntity
  8
1
  6
Continuous
100
AcDbLine
 10
500.519691
 20
211.2219819999999
 30
0.0
 11
524.240273
 21
211.2219819999999
 31
0.0
  0
ARC
  5
B036
330
AE81
100
AcDbEntity
  8
1
  6
Continuous
100
AcDbCircle
 10
502.519691
 20
175.7219819999999
 30
0.0
 40
3.0
100
AcDbArc
 50
180.0
 51
270.0
  0
LINE
  5
B037
330
AE81
100
AcDbEntity
  8
1
  6
Continuous
100
AcDbLine
 10
501.219691
 20
161.721982
 30
0.0
 11
523.2196909999998
 21
161.721982
 31
0.0
  0
LINE
  5
B038
330
AE81
100
AcDbEntity
  8
1
  6
Continuous
100
AcDbLine
 10
499.219691
 20
211.7219819999999
 30
0.0
 11
499.219691
 21
161.721982
 31
0.0
  0
LINE
  5
B039
330
AE81
100
AcDbEntity
  8
1
  6
Continuous
100
AcDbLine
 10
495.219691
 20
161.721982
 30
0.0
 11
499.219691
 21
161.721982
 31
0.0
  0
ARC
  5
B03A
330
AE81
100
AcDbEntity
  8
1
  6
Continuous
100
AcDbCircle
 10
495.219691
 20
164.221982
 30
0.0
 40
2.5
100
AcDbArc
 50
180.0
 51
270.0
  0
ARC
  5
B03B
330
AE81
100
AcDbEntity
  8
1
  6
Continuous
100
AcDbCircle
 10
501.219691
 20
166.7219819999999
 30
0.0
 40
5.0
100
AcDbArc
 50
246.421822
 51
270.0
  0
LINE
  5
B03C
330
AE81
100
AcDbEntity
  8
1
  6
Continuous
100
AcDbLine
 10
499.519691
 20
211.7219819999999
 30
0.0
 11
499.519691
 21
175.7219819999999
 31
0.0
  0
ARC
  5
B03D
330
AE81
100
AcDbEntity
  8
1
  6
Continuous
100
AcDbCircle
 10
500.519691
 20
210.221982
 30
0.0
 40
1.0
100
AcDbArc
 50
90.0
 51
180.0
  0
LINE
  5
B03E
330
AE81
100
AcDbEntity
  8
1
  6
Continuous
100
AcDbLine
 10
525.219691
 20
211.7219819999999
 30
0.0
 11
525.219691
 21
161.721982
 31
0.0
  0
LINE
  5
B03F
330
AE81
100
AcDbEntity
  8
1
  6
Continuous
100
AcDbLine
 10
525.219691
 20
161.721982
 30
0.0
 11
529.219691
 21
161.721982
 31
0.0
  0
ARC
  5
B040
330
AE81
100
AcDbEntity
  8
1
  6
Continuous
100
AcDbCircle
 10
529.219691
 20
164.221982
 30
0.0
 40
2.5
100
AcDbArc
 50
270.0
 51
0.0
  0
ARC
  5
B041
330
AE81
100
AcDbEntity
  8
1
  6
Continuous
100
AcDbCircle
 10
523.2196909999998
 20
166.7219819999999
 30
0.0
 40
5.0
100
AcDbArc
 50
270.0
 51
293.5781779999999
  0
LINE
  5
B042
330
AE81
100
AcDbEntity
  8
1
  6
Continuous
100
AcDbLine
 10
524.9196910000001
 20
175.7219819999999
 30
0.0
 11
524.9196910000001
 21
211.7219819999999
 31
0.0
  0
LINE
  5
B043
330
AE81
100
AcDbEntity
  8
1
  6
Continuous
100
AcDbLine
 10
502.519691
 20
172.721982
 30
0.0
 11
521.919691
 21
172.721982
 31
0.0
  0
ARC
  5
B044
330
AE81
100
AcDbEntity
  8
1
  6
Continuous
100
AcDbCircle
 10
521.919691
 20
175.7219819999999
 30
0.0
 40
3.0
100
AcDbArc
 50
270.0
 51
0.0
  0
ARC
  5
B045
330
AE81
100
AcDbEntity
  8
1
  6
Continuous
100
AcDbCircle
 10
518.7196909999999
 20
195.7219819999999
 30
0.0
 40
1.3
100
AcDbArc
 50
298.3282509999999
 51
331.671749
  0
ARC
  5
B046
330
AE81
100
AcDbEntity
  8
1
  6
Continuous
100
AcDbCircle
 10
518.7196909999999
 20
195.7219819999999
 30
0.0
 40
1.3
100
AcDbArc
 50
28.32825099999999
 51
61.671749
  0
CIRCLE
  5
B047
330
AE81
100
AcDbEntity
  8
1
  6
Continuous
100
AcDbCircle
 10
518.7196909999999
 20
195.7219819999999
 30
0.0
 40
2.25
  0
LINE
  5
B048
330
AE81
100
AcDbEntity
  8
4
  6
CENTER
100
AcDbLine
 10
523.019691
 20
195.7219819999999
 30
0.0
 11
514.419691
 21
195.7219819999999
 31
0.0
  0
CIRCLE
  5
B049
330
AE81
100
AcDbEntity
  8
1
  6
Continuous
100
AcDbCircle
 10
518.7196909999999
 20
195.7219819999999
 30
0.0
 40
2.799999999999998
  0
ARC
  5
B04A
330
AE81
100
AcDbEntity
  8
1
  6
Continuous
100
AcDbCircle
 10
518.7196909999999
 20
195.7219819999999
 30
0.0
 40
1.3
100
AcDbArc
 50
208.328251
 51
241.6717490000001
  0
ARC
  5
B04B
330
AE81
100
AcDbEntity
  8
1
  6
Continuous
100
AcDbCircle
 10
518.7196909999999
 20
195.7219819999999
 30
0.0
 40
1.3
100
AcDbArc
 50
118.3282509999999
 51
151.671749
  0
LINE
  5
B04C
330
AE81
100
AcDbEntity
  8
1
  6
Continuous
100
AcDbLine
 10
518.4478730000002
 20
194.910886
 30
0.0
 11
518.1028119999998
 21
194.5776649999999
 31
0.0
  0
LINE
  5
B04D
330
AE81
100
AcDbEntity
  8
1
  6
Continuous
100
AcDbLine
 10
518.7196909999999
 20
195.015228
 30
0.0
 11
518.4478730000002
 21
194.910886
 31
0.0
  0
LINE
  5
B04E
330
AE81
100
AcDbEntity
  8
1
  6
Continuous
100
AcDbLine
 10
518.7196909999999
 20
195.015228
 30
0.0
 11
518.9915099999998
 21
194.910886
 31
0.0
  0
LINE
  5
B04F
330
AE81
100
AcDbEntity
  8
1
  6
Continuous
100
AcDbLine
 10
518.9915099999998
 20
194.910886
 30
0.0
 11
519.33657
 21
194.5776659999999
 31
0.0
  0
LINE
  5
B050
330
AE81
100
AcDbEntity
  8
1
  6
Continuous
100
AcDbLine
 10
518.9915099999998
 20
196.5330769999999
 30
0.0
 11
519.33657
 21
196.866299
 31
0.0
  0
LINE
  5
B051
330
AE81
100
AcDbEntity
  8
1
  6
Continuous
100
AcDbLine
 10
518.7196909999999
 20
196.428735
 30
0.0
 11
518.9915099999998
 21
196.5330769999999
 31
0.0
  0
LINE
  5
B052
330
AE81
100
AcDbEntity
  8
1
  6
Continuous
100
AcDbLine
 10
518.7196909999999
 20
196.428735
 30
0.0
 11
518.4478730000002
 21
196.5330769999999
 31
0.0
  0
LINE
  5
B053
330
AE81
100
AcDbEntity
  8
1
  6
Continuous
100
AcDbLine
 10
518.4478730000002
 20
196.5330769999999
 30
0.0
 11
518.1028119999998
 21
196.8662979999999
 31
0.0
  0
LINE
  5
B054
330
AE81
100
AcDbEntity
  8
1
  6
Continuous
100
AcDbLine
 10
517.908596
 20
195.4501629999999
 30
0.0
 11
517.575374
 21
195.105103
 31
0.0
  0
LINE
  5
B055
330
AE81
100
AcDbEntity
  8
1
  6
Continuous
100
AcDbLine
 10
517.908596
 20
195.9938
 30
0.0
 11
517.575375
 21
196.338861
 31
0.0
  0
LINE
  5
B056
330
AE81
100
AcDbEntity
  8
1
  6
Continuous
100
AcDbLine
 10
518.0129379999998
 20
195.7219819999999
 30
0.0
 11
517.908596
 21
195.4501629999999
 31
0.0
  0
LINE
  5
B057
330
AE81
100
AcDbEntity
  8
1
  6
Continuous
100
AcDbLine
 10
518.0129379999998
 20
195.7219819999999
 30
0.0
 11
517.908596
 21
195.9938
 31
0.0
  0
ARC
  5
B058
330
AE81
100
AcDbEntity
  8
1
  6
Continuous
100
AcDbCircle
 10
505.719691
 20
195.7219819999999
 30
0.0
 40
1.3
100
AcDbArc
 50
208.328251
 51
241.6717490000001
  0
ARC
  5
B059
330
AE81
100
AcDbEntity
  8
1
  6
Continuous
100
AcDbCircle
 10
505.719691
 20
195.7219819999999
 30
0.0
 40
1.3
100
AcDbArc
 50
118.3282509999999
 51
151.671749
  0
ARC
  5
B05A
330
AE81
100
AcDbEntity
  8
1
  6
Continuous
100
AcDbCircle
 10
505.719691
 20
195.7219819999999
 30
0.0
 40
1.3
100
AcDbArc
 50
298.3282509999999
 51
331.671749
  0
ARC
  5
B05B
330
AE81
100
AcDbEntity
  8
1
  6
Continuous
100
AcDbCircle
 10
505.719691
 20
195.7219819999999
 30
0.0
 40
1.3
100
AcDbArc
 50
28.32825099999999
 51
61.671749
  0
LINE
  5
B05C
330
AE81
100
AcDbEntity
  8
1
  6
Continuous
100
AcDbLine
 10
505.447873
 20
194.910886
 30
0.0
 11
505.102812
 21
194.5776649999999
 31
0.0
  0
LINE
  5
B05D
330
AE81
100
AcDbEntity
  8
1
  6
Continuous
100
AcDbLine
 10
505.719691
 20
195.015228
 30
0.0
 11
505.447873
 21
194.910886
 31
0.0
  0
LINE
  5
B05E
330
AE81
100
AcDbEntity
  8
1
  6
Continuous
100
AcDbLine
 10
505.719691
 20
195.015228
 30
0.0
 11
505.9915099999998
 21
194.910886
 31
0.0
  0
LINE
  5
B05F
330
AE81
100
AcDbEntity
  8
1
  6
Continuous
100
AcDbLine
 10
505.9915099999998
 20
194.910886
 30
0.0
 11
506.33657
 21
194.5776659999999
 31
0.0
  0
LINE
  5
B060
330
AE81
100
AcDbEntity
  8
1
  6
Continuous
100
AcDbLine
 10
506.530787
 20
195.4501629999999
 30
0.0
 11
506.8640069999998
 21
195.105103
 31
0.0
  0
LINE
  5
B061
330
AE81
100
AcDbEntity
  8
1
  6
Continuous
100
AcDbLine
 10
506.426445
 20
195.7219819999999
 30
0.0
 11
506.530787
 21
195.4501629999999
 31
0.0
  0
LINE
  5
B062
330
AE81
100
AcDbEntity
  8
1
  6
Continuous
100
AcDbLine
 10
506.426445
 20
195.7219819999999
 30
0.0
 11
506.530787
 21
195.9938
 31
0.0
  0
LINE
  5
B063
330
AE81
100
AcDbEntity
  8
1
  6
Continuous
100
AcDbLine
 10
506.530787
 20
195.9938
 30
0.0
 11
506.864008
 21
196.338861
 31
0.0
  0
LINE
  5
B064
330
AE81
100
AcDbEntity
  8
1
  6
Continuous
100
AcDbLine
 10
505.9915099999998
 20
196.5330769999999
 30
0.0
 11
506.33657
 21
196.866299
 31
0.0
  0
LINE
  5
B065
330
AE81
100
AcDbEntity
  8
1
  6
Continuous
100
AcDbLine
 10
505.719691
 20
196.428735
 30
0.0
 11
505.9915099999998
 21
196.5330769999999
 31
0.0
  0
LINE
  5
B066
330
AE81
100
AcDbEntity
  8
1
  6
Continuous
100
AcDbLine
 10
505.719691
 20
196.428735
 30
0.0
 11
505.447873
 21
196.5330769999999
 31
0.0
  0
LINE
  5
B067
330
AE81
100
AcDbEntity
  8
1
  6
Continuous
100
AcDbLine
 10
505.447873
 20
196.5330769999999
 30
0.0
 11
505.102812
 21
196.8662979999999
 31
0.0
  0
LINE
  5
B068
330
AE81
100
AcDbEntity
  8
1
  6
Continuous
100
AcDbLine
 10
504.908596
 20
195.4501629999999
 30
0.0
 11
504.575374
 21
195.105103
 31
0.0
  0
LINE
  5
B069
330
AE81
100
AcDbEntity
  8
1
  6
Continuous
100
AcDbLine
 10
504.908596
 20
195.9938
 30
0.0
 11
504.575375
 21
196.338861
 31
0.0
  0
LINE
  5
B06A
330
AE81
100
AcDbEntity
  8
1
  6
Continuous
100
AcDbLine
 10
505.0129379999998
 20
195.7219819999999
 30
0.0
 11
504.908596
 21
195.4501629999999
 31
0.0
  0
LINE
  5
B06B
330
AE81
100
AcDbEntity
  8
1
  6
Continuous
100
AcDbLine
 10
505.0129379999998
 20
195.7219819999999
 30
0.0
 11
504.908596
 21
195.9938
 31
0.0
  0
CIRCLE
  5
B06C
330
AE81
100
AcDbEntity
  8
1
  6
Continuous
100
AcDbCircle
 10
505.719691
 20
195.7219819999999
 30
0.0
 40
2.25
  0
LINE
  5
B06D
330
AE81
100
AcDbEntity
  8
4
  6
CENTER
100
AcDbLine
 10
518.7196909999999
 20
200.021982
 30
0.0
 11
518.7196909999999
 21
191.421982
 31
0.0
  0
LINE
  5
B06E
330
AE81
100
AcDbEntity
  8
4
  6
CENTER
100
AcDbLine
 10
505.719691
 20
200.021982
 30
0.0
 11
505.719691
 21
191.421982
 31
0.0
  0
CIRCLE
  5
B06F
330
AE81
100
AcDbEntity
  8
1
  6
Continuous
100
AcDbCircle
 10
505.719691
 20
195.7219819999999
 30
0.0
 40
2.799999999999998
  0
LINE
  5
B070
330
AE81
100
AcDbEntity
  8
1
  6
Continuous
100
AcDbLine
 10
519.2196909999998
 20
208.721982
 30
0.0
 11
519.2196909999998
 21
203.7219819999999
 31
0.0
  0
LINE
  5
B071
330
AE81
100
AcDbEntity
  8
1
  6
Continuous
100
AcDbLine
 10
505.219691
 20
208.721982
 30
0.0
 11
505.219691
 21
203.7219819999999
 31
0.0
  0
LINE
  5
B072
330
AE81
100
AcDbEntity
  8
1
  6
Continuous
100
AcDbLine
 10
505.219691
 20
203.7219819999999
 30
0.0
 11
519.2196909999998
 21
203.7219819999999
 31
0.0
  0
LINE
  5
B073
330
AE81
100
AcDbEntity
  8
1
  6
Continuous
100
AcDbLine
 10
505.219691
 20
208.721982
 30
0.0
 11
519.2196909999998
 21
208.721982
 31
0.0
  0
LINE
  5
B074
330
AE81
100
AcDbEntity
  8
1
  6
Continuous
100
AcDbLine
 10
519.530787
 20
195.4501629999999
 30
0.0
 11
519.864007
 21
195.105103
 31
0.0
  0
LINE
  5
B075
330
AE81
100
AcDbEntity
  8
1
  6
Continuous
100
AcDbLine
 10
519.426445
 20
195.7219819999999
 30
0.0
 11
519.530787
 21
195.4501629999999
 31
0.0
  0
LINE
  5
B076
330
AE81
100
AcDbEntity
  8
1
  6
Continuous
100
AcDbLine
 10
519.426445
 20
195.7219819999999
 30
0.0
 11
519.530787
 21
195.9938
 31
0.0
  0
LINE
  5
B077
330
AE81
100
AcDbEntity
  8
1
  6
Continuous
100
AcDbLine
 10
519.530787
 20
195.9938
 30
0.0
 11
519.864008
 21
196.338861
 31
0.0
  0
ARC
  5
B078
330
AE81
100
AcDbEntity
  8
1
  6
Continuous
100
AcDbCircle
 10
523.919691
 20
210.221982
 30
0.0
 40
1.0
100
AcDbArc
 50
0.0
 51
90.0
  0
LINE
  5
B079
330
AE81
100
AcDbEntity
  8
4
  6
CENTER
100
AcDbLine
 10
526.719691
 20
275.7219819999999
 30
0.0
 11
425.719691
 21
275.7219819999999
 31
0.0
  0
LINE
  5
B07A
330
AE81
100
AcDbEntity
  8
1
  6
Continuous
100
AcDbLine
 10
345.240247
 20
297.2219819999999
 30
0.0
 11
345.240247
 21
261.2219819999999
 31
0.0
  0
LINE
  5
B07B
330
AE81
100
AcDbEntity
  8
4
  6
CENTER
100
AcDbLine
 10
337.342319
 20
220.2219819999999
 30
0.0
 11
355.340247
 21
220.2219819999999
 31
0.0
  0
ARC
  5
B07C
330
AE81
100
AcDbEntity
  8
1
  6
Continuous
100
AcDbCircle
 10
350.362247
 20
222.9999819999999
 30
0.0
 40
1.6
100
AcDbArc
 50
15.494
 51
84.99990000000002
  0
LINE
  5
B07D
330
AE81
100
AcDbEntity
  8
1
  6
Continuous
100
AcDbLine
 10
350.501247
 20
224.5939819999999
 30
0.0
 11
349.040247
 21
224.721982
 31
0.0
  0
ARC
  5
B07E
330
AE81
100
AcDbEntity
  8
1
  6
Continuous
100
AcDbCircle
 10
350.362247
 20
217.4439819999999
 30
0.0
 40
1.6
100
AcDbArc
 50
275.0
 51
344.5059999999998
  0
LINE
  5
B07F
330
AE81
100
AcDbEntity
  8
1
  6
Continuous
100
AcDbLine
 10
350.501247
 20
215.8499819999999
 30
0.0
 11
349.040247
 21
215.7219819999999
 31
0.0
  0
ARC
  5
B080
330
AE81
100
AcDbEntity
  8
1
  6
Continuous
100
AcDbCircle
 10
340.340247
 20
220.2219819999999
 30
0.0
 40
12.0
100
AcDbArc
 50
344.5059999999998
 51
15.494
  0
LINE
  5
B081
330
AE81
100
AcDbEntity
  8
1
  6
Continuous
100
AcDbLine
 10
347.740247
 20
218.9219819999999
 30
0.0
 11
349.040247
 21
220.2219819999999
 31
0.0
  0
LINE
  5
B082
330
AE81
100
AcDbEntity
  8
1
  6
Continuous
100
AcDbLine
 10
347.740247
 20
220.2219819999999
 30
0.0
 11
349.040247
 21
221.5219819999999
 31
0.0
  0
LINE
  5
B083
330
AE81
100
AcDbEntity
  8
1
  6
Continuous
100
AcDbLine
 10
349.040247
 20
215.621982
 30
0.0
 11
347.740247
 21
215.621982
 31
0.0
  0
LINE
  5
B084
330
AE81
100
AcDbEntity
  8
1
  6
Continuous
100
AcDbLine
 10
349.040247
 20
224.821982
 30
0.0
 11
347.740247
 21
224.821982
 31
0.0
  0
LINE
  5
B085
330
AE81
100
AcDbEntity
  8
1
  6
Continuous
100
AcDbLine
 10
349.040247
 20
224.821982
 30
0.0
 11
349.040247
 21
215.621982
 31
0.0
  0
LINE
  5
B086
330
AE81
100
AcDbEntity
  8
4
  6
CENTER
100
AcDbLine
 10
337.342319
 20
252.221982
 30
0.0
 11
355.340247
 21
252.221982
 31
0.0
  0
ARC
  5
B087
330
AE81
100
AcDbEntity
  8
1
  6
Continuous
100
AcDbCircle
 10
350.362247
 20
254.999982
 30
0.0
 40
1.6
100
AcDbArc
 50
15.494
 51
84.99990000000002
  0
LINE
  5
B088
330
AE81
100
AcDbEntity
  8
1
  6
Continuous
100
AcDbLine
 10
350.501247
 20
256.593982
 30
0.0
 11
349.040247
 21
256.7219819999999
 31
0.0
  0
ARC
  5
B089
330
AE81
100
AcDbEntity
  8
1
  6
Continuous
100
AcDbCircle
 10
350.362247
 20
249.4439819999999
 30
0.0
 40
1.6
100
AcDbArc
 50
275.0
 51
344.5059999999998
  0
LINE
  5
B08A
330
AE81
100
AcDbEntity
  8
1
  6
Continuous
100
AcDbLine
 10
350.501247
 20
247.8499819999999
 30
0.0
 11
349.040247
 21
247.721982
 31
0.0
  0
ARC
  5
B08B
330
AE81
100
AcDbEntity
  8
1
  6
Continuous
100
AcDbCircle
 10
340.340247
 20
252.221982
 30
0.0
 40
12.0
100
AcDbArc
 50
344.5059999999998
 51
15.494
  0
LINE
  5
B08C
330
AE81
100
AcDbEntity
  8
1
  6
Continuous
100
AcDbLine
 10
347.740247
 20
250.9219819999999
 30
0.0
 11
349.040247
 21
252.221982
 31
0.0
  0
LINE
  5
B08D
330
AE81
100
AcDbEntity
  8
1
  6
Continuous
100
AcDbLine
 10
347.740247
 20
252.221982
 30
0.0
 11
349.040247
 21
253.521982
 31
0.0
  0
LINE
  5
B08E
330
AE81
100
AcDbEntity
  8
1
  6
Continuous
100
AcDbLine
 10
345.240247
 20
261.2219819999999
 30
0.0
 11
347.740247
 21
261.2219819999999
 31
0.0
  0
LINE
  5
B08F
330
AE81
100
AcDbEntity
  8
1
  6
Continuous
100
AcDbLine
 10
349.040247
 20
247.6219819999999
 30
0.0
 11
347.740247
 21
247.6219819999999
 31
0.0
  0
LINE
  5
B090
330
AE81
100
AcDbEntity
  8
1
  6
Continuous
100
AcDbLine
 10
349.040247
 20
256.8219819999999
 30
0.0
 11
347.740247
 21
256.8219819999999
 31
0.0
  0
LINE
  5
B091
330
AE81
100
AcDbEntity
  8
1
  6
Continuous
100
AcDbLine
 10
349.040247
 20
256.8219819999999
 30
0.0
 11
349.040247
 21
247.6219819999999
 31
0.0
  0
ARC
  5
B092
330
AE81
100
AcDbEntity
  8
1
  6
Continuous
100
AcDbCircle
 10
288.9958609999999
 20
280.052482
 30
0.0
 40
2.555979999999999
100
AcDbArc
 50
325.6283629999999
 51
25.628363
  0
LINE
  5
B093
330
AE81
100
AcDbEntity
  8
1
  6
Continuous
100
AcDbLine
 10
291.551841
 20
280.7224819999999
 30
0.0
 11
291.1055489999999
 21
281.495482
 31
0.0
  0
LINE
  5
B094
330
AE81
100
AcDbEntity
  8
1
  6
Continuous
100
AcDbLine
 10
287.998133
 20
278.6094819999999
 30
0.0
 11
291.1055489999999
 21
278.6094819999999
 31
0.0
  0
LINE
  5
B095
330
AE81
100
AcDbEntity
  8
1
  6
Continuous
100
AcDbLine
 10
287.998133
 20
281.495482
 30
0.0
 11
291.1055489999999
 21
281.495482
 31
0.0
  0
ARC
  5
B096
330
AE81
100
AcDbEntity
  8
1
  6
Continuous
100
AcDbCircle
 10
290.107821
 20
280.052482
 30
0.0
 40
2.555979999999999
100
AcDbArc
 50
154.371637
 51
214.371637
  0
LINE
  5
B097
330
AE81
100
AcDbEntity
  8
1
  6
Continuous
100
AcDbLine
 10
287.551841
 20
280.7224819999999
 30
0.0
 11
287.998133
 21
281.495482
 31
0.0
  0
LINE
  5
B098
330
AE81
100
AcDbEntity
  8
1
  6
Continuous
100
AcDbLine
 10
291.551841
 20
270.7214819999999
 30
0.0
 11
291.1055489999999
 21
269.9484819999999
 31
0.0
  0
ARC
  5
B099
330
AE81
100
AcDbEntity
  8
1
  6
Continuous
100
AcDbCircle
 10
288.9958609999999
 20
271.3914819999999
 30
0.0
 40
2.555979999999999
100
AcDbArc
 50
334.371637
 51
34.371637
  0
LINE
  5
B09A
330
AE81
100
AcDbEntity
  8
1
  6
Continuous
100
AcDbLine
 10
287.551841
 20
270.7214819999999
 30
0.0
 11
287.998133
 21
269.9484819999999
 31
0.0
  0
ARC
  5
B09B
330
AE81
100
AcDbEntity
  8
1
  6
Continuous
100
AcDbCircle
 10
290.107821
 20
271.3914819999999
 30
0.0
 40
2.555979999999999
100
AcDbArc
 50
145.6283629999999
 51
205.6283629999999
  0
LINE
  5
B09C
330
AE81
100
AcDbEntity
  8
1
  6
Continuous
100
AcDbLine
 10
287.998133
 20
269.9484819999999
 30
0.0
 11
291.1055489999999
 21
269.9484819999999
 31
0.0
  0
ARC
  5
B09D
330
AE81
100
AcDbEntity
  8
1
  6
Continuous
100
AcDbCircle
 10
290.107841
 20
271.3924819999999
 30
0.0
 40
2.55582
100
AcDbArc
 50
214.3528569999999
 51
214.3839999999999
  0
ARC
  5
B09E
330
AE81
100
AcDbEntity
  8
1
  6
Continuous
100
AcDbCircle
 10
288.9958410000001
 20
271.3924819999999
 30
0.0
 40
2.55582
100
AcDbArc
 50
325.6159999999999
 51
325.647143
  0
LINE
  5
B09F
330
AE81
100
AcDbEntity
  8
1
  6
Continuous
100
AcDbLine
 10
287.998133
 20
272.8354819999999
 30
0.0
 11
291.1055489999999
 21
272.8354819999999
 31
0.0
  0
ARC
  5
B0A0
330
AE81
100
AcDbEntity
  8
1
  6
Continuous
100
AcDbCircle
 10
281.9908919999999
 20
275.7224819999999
 30
0.0
 40
9.560949
100
AcDbArc
 50
342.4247879999999
 51
17.575212
  0
LINE
  5
B0A1
330
AE81
100
AcDbEntity
  8
1
  6
Continuous
100
AcDbLine
 10
291.551841
 20
280.7224819999999
 30
0.0
 11
291.551841
 21
270.7214819999999
 31
0.0
  0
ARC
  5
B0A2
330
AE81
100
AcDbEntity
  8
1
  6
Continuous
100
AcDbCircle
 10
297.11279
 20
275.7224819999999
 30
0.0
 40
9.560949
100
AcDbArc
 50
162.4247879999999
 51
197.575212
  0
LINE
  5
B0A3
330
AE81
100
AcDbEntity
  8
1
  6
Continuous
100
AcDbLine
 10
287.551841
 20
281.8219819999999
 30
0.0
 11
287.551841
 21
269.621982
 31
0.0
  0
LINE
  5
B0A4
330
AE81
100
AcDbEntity
  8
1
  6
Continuous
100
AcDbLine
 10
333.040247
 20
299.7219819999999
 30
0.0
 11
342.740247
 21
299.7219819999999
 31
0.0
  0
ARC
  5
B0A5
330
AE81
100
AcDbEntity
  8
1
  6
Continuous
100
AcDbCircle
 10
342.740247
 20
297.2219819999999
 30
0.0
 40
2.5
100
AcDbArc
 50
0.0
 51
90.0
  0
LINE
  5
B0A6
330
AE81
100
AcDbEntity
  8
1
  6
Continuous
100
AcDbLine
 10
291.551841
 20
402.732277
 30
0.0
 11
287.551841
 21
402.732277
 31
0.0
  0
LINE
  5
B0A7
330
AE81
100
AcDbEntity
  8
1
  6
Continuous
100
AcDbLine
 10
287.998133
 20
397.732277
 30
0.0
 11
291.1055489999999
 21
397.732277
 31
0.0
  0
LINE
  5
B0A8
330
AE81
100
AcDbEntity
  8
1
  6
Continuous
100
AcDbLine
 10
291.551841
 20
392.732277
 30
0.0
 11
287.551841
 21
392.732277
 31
0.0
  0
ARC
  5
B0A9
330
AE81
100
AcDbEntity
  8
1
  6
Continuous
100
AcDbCircle
 10
294.777133
 20
395.232277
 30
0.0
 40
7.225291999999998
100
AcDbArc
 50
159.7567339999999
 51
200.243266
  0
ARC
  5
B0AA
330
AE81
100
AcDbEntity
  8
1
  6
Continuous
100
AcDbCircle
 10
284.3265489999999
 20
395.232277
 30
0.0
 40
7.225291999999998
100
AcDbArc
 50
339.756734
 51
20.243266
  0
ARC
  5
B0AB
330
AE81
100
AcDbEntity
  8
1
  6
Continuous
100
AcDbCircle
 10
294.777133
 20
400.232277
 30
0.0
 40
7.225291999999998
100
AcDbArc
 50
159.7567339999999
 51
200.243266
  0
ARC
  5
B0AC
330
AE81
100
AcDbEntity
  8
1
  6
Continuous
100
AcDbCircle
 10
284.3265489999999
 20
400.232277
 30
0.0
 40
7.225291999999998
100
AcDbArc
 50
339.756734
 51
20.243266
  0
LINE
  5
B0AD
330
AE81
100
AcDbEntity
  8
1
  6
Continuous
100
AcDbLine
 10
291.551841
 20
402.732277
 30
0.0
 11
291.551841
 21
392.732277
 31
0.0
  0
LINE
  5
B0AE
330
AE81
100
AcDbEntity
  8
1
  6
Continuous
100
AcDbLine
 10
287.551841
 20
403.8322769999998
 30
0.0
 11
287.551841
 21
391.6322769999999
 31
0.0
  0
LINE
  5
B0AF
330
AE81
100
AcDbEntity
  8
1
  6
Continuous
100
AcDbLine
 10
347.740247
 20
384.732277
 30
0.0
 11
347.740247
 21
410.732277
 31
0.0
  0
LINE
  5
B0B0
330
AE81
100
AcDbEntity
  8
1
  6
Continuous
100
AcDbLine
 10
345.240247
 20
384.732277
 30
0.0
 11
345.240247
 21
410.732277
 31
0.0
  0
LINE
  5
B0B1
330
AE81
100
AcDbEntity
  8
1
  6
Continuous
100
AcDbLine
 10
335.540247
 20
382.2322769999999
 30
0.0
 11
345.240247
 21
382.2322769999999
 31
0.0
  0
LINE
  5
B0B2
330
AE81
100
AcDbEntity
  8
1
  6
Continuous
100
AcDbLine
 10
335.540247
 20
384.732277
 30
0.0
 11
345.240247
 21
384.732277
 31
0.0
  0
ARC
  5
B0B3
330
AE81
100
AcDbEntity
  8
1
  6
Continuous
100
AcDbCircle
 10
335.540247
 20
382.2322769999999
 30
0.0
 40
2.5
100
AcDbArc
 50
90.0
 51
180.0
  0
LINE
  5
B0B4
330
AE81
100
AcDbEntity
  8
1
  6
Continuous
100
AcDbLine
 10
333.040247
 20
378.232277
 30
0.0
 11
335.540247
 21
378.232277
 31
0.0
  0
LINE
  5
B0B5
330
AE81
100
AcDbEntity
  8
1
  6
Continuous
100
AcDbLine
 10
335.540247
 20
378.232277
 30
0.0
 11
335.540247
 21
382.2322769999999
 31
0.0
  0
LINE
  5
B0B6
330
AE81
100
AcDbEntity
  8
1
  6
Continuous
100
AcDbLine
 10
333.040247
 20
378.232277
 30
0.0
 11
333.040247
 21
382.2322769999999
 31
0.0
  0
ARC
  5
B0B7
330
AE81
100
AcDbEntity
  8
1
  6
Continuous
100
AcDbCircle
 10
345.240247
 20
384.732277
 30
0.0
 40
2.5
100
AcDbArc
 50
270.0
 51
0.0
  0
LINE
  5
B0B8
330
AE81
100
AcDbEntity
  8
1
  6
Continuous
100
AcDbLine
 10
335.540247
 20
413.232277
 30
0.0
 11
345.240247
 21
413.232277
 31
0.0
  0
LINE
  5
B0B9
330
AE81
100
AcDbEntity
  8
1
  6
Continuous
100
AcDbLine
 10
335.540247
 20
410.732277
 30
0.0
 11
345.240247
 21
410.732277
 31
0.0
  0
LINE
  5
B0BA
330
AE81
100
AcDbEntity
  8
4
  6
CENTER
100
AcDbLine
 10
328.040247
 20
397.732277
 30
0.0
 11
357.340247
 21
397.732277
 31
0.0
  0
ARC
  5
B0BB
330
AE81
100
AcDbEntity
  8
1
  6
Continuous
100
AcDbCircle
 10
335.540247
 20
413.232277
 30
0.0
 40
2.5
100
AcDbArc
 50
180.0
 51
270.0
  0
ARC
  5
B0BC
330
AE81
100
AcDbEntity
  8
1
  6
Continuous
100
AcDbCircle
 10
340.340247
 20
397.732277
 30
0.0
 40
12.0
100
AcDbArc
 50
344.5059999999998
 51
15.494
  0
LINE
  5
B0BD
330
AE81
100
AcDbEntity
  8
1
  6
Continuous
100
AcDbLine
 10
347.740247
 20
396.4322769999998
 30
0.0
 11
349.040247
 21
397.732277
 31
0.0
  0
LINE
  5
B0BE
330
AE81
100
AcDbEntity
  8
1
  6
Continuous
100
AcDbLine
 10
347.740247
 20
397.732277
 30
0.0
 11
349.040247
 21
399.032277
 31
0.0
  0
LINE
  5
B0BF
330
AE81
100
AcDbEntity
  8
1
  6
Continuous
100
AcDbLine
 10
349.040247
 20
393.1322769999999
 30
0.0
 11
347.740247
 21
393.1322769999999
 31
0.0
  0
LINE
  5
B0C0
330
AE81
100
AcDbEntity
  8
1
  6
Continuous
100
AcDbLine
 10
349.040247
 20
402.332277
 30
0.0
 11
347.740247
 21
402.332277
 31
0.0
  0
LINE
  5
B0C1
330
AE81
100
AcDbEntity
  8
1
  6
Continuous
100
AcDbLine
 10
350.501247
 20
402.104277
 30
0.0
 11
349.040247
 21
402.232277
 31
0.0
  0
LINE
  5
B0C2
330
AE81
100
AcDbEntity
  8
1
  6
Continuous
100
AcDbLine
 10
350.501247
 20
393.360277
 30
0.0
 11
349.040247
 21
393.232277
 31
0.0
  0
LINE
  5
B0C3
330
AE81
100
AcDbEntity
  8
1
  6
Continuous
100
AcDbLine
 10
349.040247
 20
402.332277
 30
0.0
 11
349.040247
 21
393.1322769999999
 31
0.0
  0
ARC
  5
B0C4
330
AE81
100
AcDbEntity
  8
1
  6
Continuous
100
AcDbCircle
 10
350.362247
 20
400.5102769999998
 30
0.0
 40
1.6
100
AcDbArc
 50
15.494
 51
84.99990000000002
  0
ARC
  5
B0C5
330
AE81
100
AcDbEntity
  8
1
  6
Continuous
100
AcDbCircle
 10
350.362247
 20
394.9542769999998
 30
0.0
 40
1.6
100
AcDbArc
 50
275.0
 51
344.5059999999998
  0
ARC
  5
B0C6
330
AE81
100
AcDbEntity
  8
1
  6
Continuous
100
AcDbCircle
 10
345.240247
 20
410.732277
 30
0.0
 40
2.5
100
AcDbArc
 50
0.0
 51
90.0
  0
CIRCLE
  5
B0C7
330
AE81
100
AcDbEntity
  8
1
  6
Continuous
100
AcDbCircle
 10
512.219691
 20
275.7219819999999
 30
0.0
 40
11.0
  0
LINE
  5
B0C8
330
AE81
100
AcDbEntity
  8
1
  6
Continuous
100
AcDbLine
 10
527.7196909999998
 20
261.2219819999999
 30
0.0
 11
496.719691
 21
261.2219819999999
 31
0.0
  0
LINE
  5
B0C9
330
AE81
100
AcDbEntity
  8
1
  6
Continuous
100
AcDbLine
 10
502.693411
 20
270.2219819999999
 30
0.0
 11
500.961361
 21
269.2219819999999
 31
0.0
  0
ARC
  5
B0CA
330
AE81
100
AcDbEntity
  8
1
  6
Continuous
100
AcDbCircle
 10
512.219691
 20
275.7219819999999
 30
0.0
 40
13.0
100
AcDbArc
 50
210.0
 51
60.0
  0
ARC
  5
B0CB
330
AE81
100
AcDbEntity
  8
1
  6
Continuous
100
AcDbCircle
 10
502.519691
 20
266.021982
 30
0.0
 40
3.0
100
AcDbArc
 50
180.0
 51
270.0
  0
ARC
  5
B0CC
330
AE81
100
AcDbEntity
  8
1
  6
Continuous
100
AcDbCircle
 10
502.519691
 20
285.7219819999999
 30
0.0
 40
3.0
100
AcDbArc
 50
90.0
 51
180.0
  0
ARC
  5
B0CD
330
AE81
100
AcDbEntity
  8
1
  6
Continuous
100
AcDbCircle
 10
512.219691
 20
275.7219819999999
 30
0.0
 40
12.7
100
AcDbArc
 50
119.9999999999999
 51
210.0
  0
LINE
  5
B0CE
330
AE81
100
AcDbEntity
  8
1
  6
Continuous
100
AcDbLine
 10
501.219691
 20
299.7219819999999
 30
0.0
 11
523.2196909999998
 21
299.7219819999999
 31
0.0
  0
ARC
  5
B0CF
330
AE81
100
AcDbEntity
  8
5
  6
PHANTOM
100
AcDbCircle
 10
432.719691
 20
267.371982
 30
0.0
 40
2.0
100
AcDbArc
 50
180.0
 51
270.0
  0
LINE
  5
B0D0
330
AE81
100
AcDbEntity
  8
1
  6
Continuous
100
AcDbLine
 10
499.219691
 20
261.2219819999999
 30
0.0
 11
499.219691
 21
299.7219819999999
 31
0.0
  0
LINE
  5
B0D1
330
AE81
100
AcDbEntity
  8
1
  6
Continuous
100
AcDbLine
 10
499.519691
 20
285.7219819999999
 30
0.0
 11
499.519691
 21
261.2219819999999
 31
0.0
  0
LINE
  5
B0D2
330
AE81
100
AcDbEntity
  8
5
  6
PHANTOM
100
AcDbLine
 10
432.719691
 20
286.0719819999999
 30
0.0
 11
492.719691
 21
286.0719819999999
 31
0.0
  0
LINE
  5
B0D3
330
AE81
100
AcDbEntity
  8
5
  6
PHANTOM
100
AcDbLine
 10
432.719691
 20
265.371982
 30
0.0
 11
492.719691
 21
265.371982
 31
0.0
  0
LINE
  5
B0D4
330
AE81
100
AcDbEntity
  8
5
  6
PHANTOM
100
AcDbLine
 10
430.719691
 20
284.0719819999999
 30
0.0
 11
430.719691
 21
267.371982
 31
0.0
  0
ARC
  5
B0D5
330
AE81
100
AcDbEntity
  8
5
  6
PHANTOM
100
AcDbCircle
 10
432.719691
 20
284.0719819999999
 30
0.0
 40
2.0
100
AcDbArc
 50
90.0
 51
180.0
  0
ARC
  5
B0D6
330
AE81
100
AcDbEntity
  8
1
  6
Continuous
100
AcDbCircle
 10
495.219691
 20
297.2219819999999
 30
0.0
 40
2.5
100
AcDbArc
 50
90.0
 51
180.0
  0
LINE
  5
B0D7
330
AE81
100
AcDbEntity
  8
1
  6
Continuous
100
AcDbLine
 10
495.219691
 20
299.7219819999999
 30
0.0
 11
499.219691
 21
299.7219819999999
 31
0.0
  0
ARC
  5
B0D8
330
AE81
100
AcDbEntity
  8
1
  6
Continuous
100
AcDbCircle
 10
501.219691
 20
294.7219819999999
 30
0.0
 40
5.0
100
AcDbArc
 50
90.0
 51
113.578178
  0
LINE
  5
B0D9
330
AE81
100
AcDbEntity
  8
1
  6
Continuous
100
AcDbLine
 10
525.219691
 20
261.2219819999999
 30
0.0
 11
525.219691
 21
299.7219819999999
 31
0.0
  0
LINE
  5
B0DA
330
AE81
100
AcDbEntity
  8
4
  6
CENTER
100
AcDbLine
 10
512.219691
 20
304.7219819999999
 30
0.0
 11
512.219691
 21
234.3879089999999
 31
0.0
  0
LINE
  5
B0DB
330
AE81
100
AcDbEntity
  8
1
  6
Continuous
100
AcDbLine
 10
524.9196910000001
 20
261.2219819999999
 30
0.0
 11
524.9196910000001
 21
272.9452929999999
 31
0.0
  0
ARC
  5
B0DC
330
AE81
100
AcDbEntity
  8
1
  6
Continuous
100
AcDbCircle
 10
521.919691
 20
266.021982
 30
0.0
 40
3.0
100
AcDbArc
 50
270.0
 51
0.0
  0
LINE
  5
B0DD
330
AE81
100
AcDbEntity
  8
1
  6
Continuous
100
AcDbLine
 10
513.240753
 20
220.2219819999999
 30
0.0
 11
513.4691479999998
 21
220.850599
 31
0.0
  0
LINE
  5
B0DE
330
AE81
100
AcDbEntity
  8
1
  6
Continuous
100
AcDbLine
 10
513.4691479999998
 20
220.850599
 30
0.0
 11
514.2236309999998
 21
221.631952
 31
0.0
  0
LINE
  5
B0DF
330
AE81
100
AcDbEntity
  8
1
  6
Continuous
100
AcDbLine
 10
513.240753
 20
220.2219819999999
 30
0.0
 11
513.4691479999998
 21
219.593364
 31
0.0
  0
LINE
  5
B0E0
330
AE81
100
AcDbEntity
  8
1
  6
Continuous
100
AcDbLine
 10
513.4691479999998
 20
219.593364
 30
0.0
 11
514.2236309999998
 21
218.8120109999999
 31
0.0
  0
ARC
  5
B0E1
330
AE81
100
AcDbEntity
  8
1
  6
Continuous
100
AcDbCircle
 10
512.219691
 20
220.2219819999999
 30
0.0
 40
2.45
100
AcDbArc
 50
35.129
 51
54.87089
  0
ARC
  5
B0E2
330
AE81
100
AcDbEntity
  8
1
  6
Continuous
100
AcDbCircle
 10
512.219691
 20
220.2219819999999
 30
0.0
 40
2.45
100
AcDbArc
 50
305.129
 51
324.8709999999999
  0
LINE
  5
B0E3
330
AE81
100
AcDbEntity
  8
1
  6
Continuous
100
AcDbLine
 10
512.219691
 20
221.2430439999999
 30
0.0
 11
512.8483089999998
 21
221.471439
 31
0.0
  0
LINE
  5
B0E4
330
AE81
100
AcDbEntity
  8
1
  6
Continuous
100
AcDbLine
 10
512.219691
 20
221.2430439999999
 30
0.0
 11
511.591073
 21
221.471439
 31
0.0
  0
LINE
  5
B0E5
330
AE81
100
AcDbEntity
  8
1
  6
Continuous
100
AcDbLine
 10
511.199336
 20
220.2226889999999
 30
0.0
 11
510.970233
 21
220.850599
 31
0.0
  0
LINE
  5
B0E6
330
AE81
100
AcDbEntity
  8
1
  6
Continuous
100
AcDbLine
 10
511.199336
 20
220.2226889999999
 30
0.0
 11
510.970233
 21
219.593364
 31
0.0
  0
LINE
  5
B0E7
330
AE81
100
AcDbEntity
  8
1
  6
Continuous
100
AcDbLine
 10
512.220398
 20
219.2016259999999
 30
0.0
 11
511.591073
 21
218.972524
 31
0.0
  0
LINE
  5
B0E8
330
AE81
100
AcDbEntity
  8
1
  6
Continuous
100
AcDbLine
 10
512.220398
 20
219.2016259999999
 30
0.0
 11
512.8483089999998
 21
218.972524
 31
0.0
  0
ARC
  5
B0E9
330
AE81
100
AcDbEntity
  8
1
  6
Continuous
100
AcDbCircle
 10
512.219691
 20
220.2219819999999
 30
0.0
 40
2.45
100
AcDbArc
 50
125.1291
 51
144.8709
  0
ARC
  5
B0EA
330
AE81
100
AcDbEntity
  8
1
  6
Continuous
100
AcDbCircle
 10
512.219691
 20
220.2219819999999
 30
0.0
 40
2.45
100
AcDbArc
 50
215.1289999999999
 51
234.871
  0
LINE
  5
B0EB
330
AE81
100
AcDbEntity
  8
1
  6
Continuous
100
AcDbLine
 10
511.591073
 20
221.471439
 30
0.0
 11
510.80972
 21
222.225922
 31
0.0
  0
LINE
  5
B0EC
330
AE81
100
AcDbEntity
  8
1
  6
Continuous
100
AcDbLine
 10
510.970233
 20
220.850599
 30
0.0
 11
510.21575
 21
221.631952
 31
0.0
  0
LINE
  5
B0ED
330
AE81
100
AcDbEntity
  8
1
  6
Continuous
100
AcDbLine
 10
510.970233
 20
219.593364
 30
0.0
 11
510.21575
 21
218.8120109999999
 31
0.0
  0
LINE
  5
B0EE
330
AE81
100
AcDbEntity
  8
1
  6
Continuous
100
AcDbLine
 10
511.591073
 20
218.972524
 30
0.0
 11
510.80972
 21
218.218041
 31
0.0
  0
LINE
  5
B0EF
330
AE81
100
AcDbEntity
  8
1
  6
Continuous
100
AcDbLine
 10
512.8483089999998
 20
221.471439
 30
0.0
 11
513.629662
 21
222.225922
 31
0.0
  0
LINE
  5
B0F0
330
AE81
100
AcDbEntity
  8
1
  6
Continuous
100
AcDbLine
 10
512.8483089999998
 20
218.972524
 30
0.0
 11
513.629662
 21
218.218041
 31
0.0
  0
CIRCLE
  5
B0F1
330
AE81
100
AcDbEntity
  8
1
  6
Continuous
100
AcDbCircle
 10
512.219691
 20
220.2219819999999
 30
0.0
 40
4.5
  0
ARC
  5
B0F2
330
AE81
100
AcDbEntity
  8
1
  6
Continuous
100
AcDbCircle
 10
506.9040679999998
 20
230.598786
 30
0.0
 40
0.76574
100
AcDbArc
 50
41.0679
 51
138.932
  0
ARC
  5
B0F3
330
AE81
100
AcDbEntity
  8
1
  6
Continuous
100
AcDbCircle
 10
506.9040679999998
 20
230.2022659999999
 30
0.0
 40
0.76574
100
AcDbArc
 50
221.0679999999999
 51
318.932
  0
ARC
  5
B0F4
330
AE81
100
AcDbEntity
  8
1
  6
Continuous
100
AcDbCircle
 10
506.6765379999998
 20
230.4005259999999
 30
0.0
 40
1.067529999999998
100
AcDbArc
 50
318.932
 51
41.0679
  0
ARC
  5
B0F5
330
AE81
100
AcDbEntity
  8
1
  6
Continuous
100
AcDbCircle
 10
507.1315929999998
 20
230.4005259999999
 30
0.0
 40
1.067529999999998
100
AcDbArc
 50
138.932
 51
221.0679999999999
  0
ARC
  5
B0F6
330
AE81
100
AcDbEntity
  8
1
  6
Continuous
100
AcDbCircle
 10
514.0563929999998
 20
230.1311259999999
 30
0.0
 40
0.72
100
AcDbArc
 50
269.5819999999999
 51
11.6541
  0
ARC
  5
B0F7
330
AE81
100
AcDbEntity
  8
1
  6
Continuous
100
AcDbCircle
 10
514.051143
 20
230.1765609999999
 30
0.0
 40
0.76574
100
AcDbArc
 50
221.0679999999999
 51
276.591
  0
ARC
  5
B0F8
330
AE81
100
AcDbEntity
  8
1
  6
Continuous
100
AcDbCircle
 10
514.278643
 20
230.3748259999999
 30
0.0
 40
1.067529999999998
100
AcDbArc
 50
138.932
 51
221.0679999999999
  0
ARC
  5
B0F9
330
AE81
100
AcDbEntity
  8
1
  6
Continuous
100
AcDbCircle
 10
514.051143
 20
230.573086
 30
0.0
 40
0.76574
100
AcDbArc
 50
70.80719999999998
 51
138.932
  0
ARC
  5
B0FA
330
AE81
100
AcDbEntity
  8
1
  6
Continuous
100
AcDbCircle
 10
514.134193
 20
230.811641
 30
0.0
 40
0.513145
100
AcDbArc
 50
5.659239999999998
 51
70.80719999999998
  0
ARC
  5
B0FB
330
AE81
100
AcDbEntity
  8
1
  6
Continuous
100
AcDbCircle
 10
509.0857429999998
 20
229.974311
 30
0.0
 40
0.513145
100
AcDbArc
 50
289.1929999999998
 51
354.341
  0
ARC
  5
B0FC
330
AE81
100
AcDbEntity
  8
1
  6
Continuous
100
AcDbCircle
 10
509.0857429999998
 20
230.847941
 30
0.0
 40
0.513145
100
AcDbArc
 50
5.659239999999998
 51
70.80719999999998
  0
ARC
  5
B0FD
330
AE81
100
AcDbEntity
  8
1
  6
Continuous
100
AcDbCircle
 10
509.0026929999998
 20
230.609386
 30
0.0
 40
0.76574
100
AcDbArc
 50
70.80719999999998
 51
138.932
  0
ARC
  5
B0FE
330
AE81
100
AcDbEntity
  8
1
  6
Continuous
100
AcDbCircle
 10
509.0026929999998
 20
230.212866
 30
0.0
 40
0.76574
100
AcDbArc
 50
221.0679999999999
 51
289.1929999999998
  0
ARC
  5
B0FF
330
AE81
100
AcDbEntity
  8
1
  6
Continuous
100
AcDbCircle
 10
509.230243
 20
230.4111259999999
 30
0.0
 40
1.067529999999998
100
AcDbArc
 50
138.932
 51
221.0679999999999
  0
LINE
  5
B100
330
AE81
100
AcDbEntity
  8
1
  6
Continuous
100
AcDbLine
 10
516.7397929999999
 20
230.272886
 30
0.0
 11
516.066093
 21
231.443366
 31
0.0
  0
LINE
  5
B101
330
AE81
100
AcDbEntity
  8
1
  6
Continuous
100
AcDbLine
 10
516.7397929999999
 20
230.2692759999999
 30
0.0
 11
517.4183929999998
 21
231.4446259999999
 31
0.0
  0
LINE
  5
B102
330
AE81
100
AcDbEntity
  8
1
  6
Continuous
100
AcDbLine
 10
515.3412429999998
 20
231.428731
 30
0.0
 11
515.3412429999998
 21
229.327291
 31
0.0
  0
LINE
  5
B103
330
AE81
100
AcDbEntity
  8
1
  6
Continuous
100
AcDbLine
 10
514.761543
 20
229.978496
 30
0.0
 11
514.761543
 21
229.341766
 31
0.0
  0
LINE
  5
B104
330
AE81
100
AcDbEntity
  8
1
  6
Continuous
100
AcDbLine
 10
516.7397929999999
 20
230.2692809999999
 30
0.0
 11
516.7397929999999
 21
229.327291
 31
0.0
  0
LINE
  5
B105
330
AE81
100
AcDbEntity
  8
1
  6
Continuous
100
AcDbLine
 10
518.6056929999998
 20
231.3780109999999
 30
0.0
 11
517.812243
 21
229.334491
 31
0.0
  0
LINE
  5
B106
330
AE81
100
AcDbEntity
  8
1
  6
Continuous
100
AcDbLine
 10
512.4209929999998
 20
231.428731
 30
0.0
 11
512.4209929999998
 21
229.327291
 31
0.0
  0
LINE
  5
B107
330
AE81
100
AcDbEntity
  8
1
  6
Continuous
100
AcDbLine
 10
511.7179929999998
 20
231.428731
 30
0.0
 11
511.7179929999998
 21
229.327291
 31
0.0
  0
LINE
  5
B108
330
AE81
100
AcDbEntity
  8
1
  6
Continuous
100
AcDbLine
 10
514.0586429999998
 20
230.276571
 30
0.0
 11
514.761543
 21
230.276571
 31
0.0
  0
LINE
  5
B109
330
AE81
100
AcDbEntity
  8
1
  6
Continuous
100
AcDbLine
 10
510.4209929999998
 20
231.428731
 30
0.0
 11
510.4209929999998
 21
229.327291
 31
0.0
  0
LINE
  5
B10A
330
AE81
100
AcDbEntity
  8
1
  6
Continuous
100
AcDbLine
 10
504.1020879999998
 20
231.341766
 30
0.0
 11
505.732508
 21
231.341766
 31
0.0
  0
LINE
  5
B10B
330
AE81
100
AcDbEntity
  8
1
  6
Continuous
100
AcDbLine
 10
504.913708
 20
231.341766
 30
0.0
 11
504.913708
 21
229.341766
 31
0.0
  0
LINE
  5
B10C
330
AE81
100
AcDbEntity
  8
1
  6
Continuous
100
AcDbLine
 10
510.4209929999998
 20
230.3780109999999
 30
0.0
 11
511.7179929999998
 21
230.3780109999999
 31
0.0
  0
LINE
  5
B10D
330
AE81
100
AcDbEntity
  8
1
  6
Continuous
100
AcDbLine
 10
518.6056929999998
 20
231.381606
 30
0.0
 11
519.3629929999998
 21
229.3344859999999
 31
0.0
  0
LINE
  5
B10E
330
AE81
100
AcDbEntity
  8
1
  6
Continuous
100
AcDbLine
 10
518.051393
 20
229.9359209999999
 30
0.0
 11
519.1419429999998
 21
229.9359209999999
 31
0.0
  0
LINE
  5
B10F
330
AE81
100
AcDbEntity
  8
4
  6
CENTER
100
AcDbLine
 10
507.969691
 20
220.2219819999999
 30
0.0
 11
516.4696909999999
 21
220.2219819999999
 31
0.0
  0
LINE
  5
B110
330
AE81
100
AcDbEntity
  8
1
  6
Continuous
100
AcDbLine
 10
514.9963799999998
 20
263.0219819999999
 30
0.0
 11
521.919691
 21
263.0219819999999
 31
0.0
  0
LINE
  5
B111
330
AE81
100
AcDbEntity
  8
1
  6
Continuous
100
AcDbLine
 10
513.240753
 20
252.221982
 30
0.0
 11
513.4691479999998
 21
252.850599
 31
0.0
  0
LINE
  5
B112
330
AE81
100
AcDbEntity
  8
1
  6
Continuous
100
AcDbLine
 10
513.4691479999998
 20
252.850599
 30
0.0
 11
514.2236309999998
 21
253.631952
 31
0.0
  0
LINE
  5
B113
330
AE81
100
AcDbEntity
  8
1
  6
Continuous
100
AcDbLine
 10
513.240753
 20
252.221982
 30
0.0
 11
513.4691479999998
 21
251.593364
 31
0.0
  0
LINE
  5
B114
330
AE81
100
AcDbEntity
  8
1
  6
Continuous
100
AcDbLine
 10
513.4691479999998
 20
251.593364
 30
0.0
 11
514.2236309999998
 21
250.8120109999999
 31
0.0
  0
ARC
  5
B115
330
AE81
100
AcDbEntity
  8
1
  6
Continuous
100
AcDbCircle
 10
512.219691
 20
252.221982
 30
0.0
 40
2.45
100
AcDbArc
 50
35.129
 51
54.87089
  0
ARC
  5
B116
330
AE81
100
AcDbEntity
  8
1
  6
Continuous
100
AcDbCircle
 10
512.219691
 20
252.221982
 30
0.0
 40
2.45
100
AcDbArc
 50
305.129
 51
324.8709999999999
  0
LINE
  5
B117
330
AE81
100
AcDbEntity
  8
1
  6
Continuous
100
AcDbLine
 10
512.219691
 20
253.243044
 30
0.0
 11
512.8483089999998
 21
253.4714389999999
 31
0.0
  0
LINE
  5
B118
330
AE81
100
AcDbEntity
  8
1
  6
Continuous
100
AcDbLine
 10
512.219691
 20
253.243044
 30
0.0
 11
511.591073
 21
253.4714389999999
 31
0.0
  0
LINE
  5
B119
330
AE81
100
AcDbEntity
  8
1
  6
Continuous
100
AcDbLine
 10
511.199336
 20
252.222689
 30
0.0
 11
510.970233
 21
252.850599
 31
0.0
  0
LINE
  5
B11A
330
AE81
100
AcDbEntity
  8
1
  6
Continuous
100
AcDbLine
 10
511.199336
 20
252.222689
 30
0.0
 11
510.970233
 21
251.593364
 31
0.0
  0
LINE
  5
B11B
330
AE81
100
AcDbEntity
  8
1
  6
Continuous
100
AcDbLine
 10
512.220398
 20
251.2016259999999
 30
0.0
 11
511.591073
 21
250.972524
 31
0.0
  0
LINE
  5
B11C
330
AE81
100
AcDbEntity
  8
1
  6
Continuous
100
AcDbLine
 10
512.220398
 20
251.2016259999999
 30
0.0
 11
512.8483089999998
 21
250.972524
 31
0.0
  0
ARC
  5
B11D
330
AE81
100
AcDbEntity
  8
1
  6
Continuous
100
AcDbCircle
 10
512.219691
 20
252.221982
 30
0.0
 40
2.45
100
AcDbArc
 50
125.1291
 51
144.8709
  0
ARC
  5
B11E
330
AE81
100
AcDbEntity
  8
1
  6
Continuous
100
AcDbCircle
 10
512.219691
 20
252.221982
 30
0.0
 40
2.45
100
AcDbArc
 50
215.1289999999999
 51
234.871
  0
LINE
  5
B11F
330
AE81
100
AcDbEntity
  8
1
  6
Continuous
100
AcDbLine
 10
511.591073
 20
253.4714389999999
 30
0.0
 11
510.80972
 21
254.225922
 31
0.0
  0
LINE
  5
B120
330
AE81
100
AcDbEntity
  8
1
  6
Continuous
100
AcDbLine
 10
510.970233
 20
252.850599
 30
0.0
 11
510.21575
 21
253.631952
 31
0.0
  0
LINE
  5
B121
330
AE81
100
AcDbEntity
  8
1
  6
Continuous
100
AcDbLine
 10
510.970233
 20
251.593364
 30
0.0
 11
510.21575
 21
250.8120109999999
 31
0.0
  0
LINE
  5
B122
330
AE81
100
AcDbEntity
  8
1
  6
Continuous
100
AcDbLine
 10
511.591073
 20
250.972524
 30
0.0
 11
510.80972
 21
250.218041
 31
0.0
  0
LINE
  5
B123
330
AE81
100
AcDbEntity
  8
1
  6
Continuous
100
AcDbLine
 10
512.8483089999998
 20
253.4714389999999
 30
0.0
 11
513.629662
 21
254.225922
 31
0.0
  0
LINE
  5
B124
330
AE81
100
AcDbEntity
  8
1
  6
Continuous
100
AcDbLine
 10
512.8483089999998
 20
250.972524
 30
0.0
 11
513.629662
 21
250.218041
 31
0.0
  0
CIRCLE
  5
B125
330
AE81
100
AcDbEntity
  8
1
  6
Continuous
100
AcDbCircle
 10
512.219691
 20
252.221982
 30
0.0
 40
4.5
  0
LINE
  5
B126
330
AE81
100
AcDbEntity
  8
4
  6
CENTER
100
AcDbLine
 10
507.969691
 20
252.221982
 30
0.0
 11
516.4696909999999
 21
252.221982
 31
0.0
  0
LINE
  5
B127
330
AE81
100
AcDbEntity
  8
1
  6
Continuous
100
AcDbLine
 10
502.519691
 20
263.0219819999999
 30
0.0
 11
509.443003
 21
263.0219819999999
 31
0.0
  0
CIRCLE
  5
B128
330
AE81
100
AcDbEntity
  8
1
  6
Continuous
100
AcDbCircle
 10
512.219691
 20
275.7219819999999
 30
0.0
 40
8.0
  0
LINE
  5
B129
330
AE81
100
AcDbEntity
  8
1
  6
Continuous
100
AcDbLine
 10
502.519691
 20
288.7219819999999
 30
0.0
 11
521.919691
 21
288.7219819999999
 31
0.0
  0
LINE
  5
B12A
330
AE81
100
AcDbEntity
  8
1
  6
Continuous
100
AcDbLine
 10
517.219691
 20
272.8349819999999
 30
0.0
 11
517.219691
 21
278.6089819999999
 31
0.0
  0
LINE
  5
B12B
330
AE81
100
AcDbEntity
  8
1
  6
Continuous
100
AcDbLine
 10
512.219691
 20
277.205805
 30
0.0
 11
512.216726
 21
277.206711
 31
0.0
  0
LINE
  5
B12C
330
AE81
100
AcDbEntity
  8
1
  6
Continuous
100
AcDbLine
 10
512.219691
 20
277.205805
 30
0.0
 11
512.222655
 21
277.206711
 31
0.0
  0
LINE
  5
B12D
330
AE81
100
AcDbEntity
  8
1
  6
Continuous
100
AcDbLine
 10
512.222655
 20
277.206711
 30
0.0
 11
513.573182
 21
278.5108989999999
 31
0.0
  0
LINE
  5
B12E
330
AE81
100
AcDbEntity
  8
1
  6
Continuous
100
AcDbLine
 10
510.8661999999998
 20
278.5108989999999
 30
0.0
 11
512.216726
 21
277.206711
 31
0.0
  0
LINE
  5
B12F
330
AE81
100
AcDbEntity
  8
1
  6
Continuous
100
AcDbLine
 10
512.219691
 20
281.4949819999999
 30
0.0
 11
507.219691
 21
278.6089819999999
 31
0.0
  0
ARC
  5
B130
330
AE81
100
AcDbEntity
  8
1
  6
Continuous
100
AcDbCircle
 10
512.219691
 20
275.7219819999999
 30
0.0
 40
3.1
100
AcDbArc
 50
115.887785
 51
154.1122149999999
  0
LINE
  5
B131
330
AE81
100
AcDbEntity
  8
1
  6
Continuous
100
AcDbLine
 10
513.573182
 20
272.933064
 30
0.0
 11
512.222655
 21
274.2372519999999
 31
0.0
  0
LINE
  5
B132
330
AE81
100
AcDbEntity
  8
1
  6
Continuous
100
AcDbLine
 10
513.7035139999998
 20
275.7219819999999
 30
0.0
 11
513.70442
 21
275.724946
 31
0.0
  0
LINE
  5
B133
330
AE81
100
AcDbEntity
  8
1
  6
Continuous
100
AcDbLine
 10
513.7035139999998
 20
275.7219819999999
 30
0.0
 11
513.70442
 21
275.719017
 31
0.0
  0
LINE
  5
B134
330
AE81
100
AcDbEntity
  8
1
  6
Continuous
100
AcDbLine
 10
512.219691
 20
274.2381579999999
 30
0.0
 11
512.222655
 21
274.2372519999999
 31
0.0
  0
LINE
  5
B135
330
AE81
100
AcDbEntity
  8
1
  6
Continuous
100
AcDbLine
 10
512.219691
 20
274.2381579999999
 30
0.0
 11
512.216726
 21
274.2372519999999
 31
0.0
  0
LINE
  5
B136
330
AE81
100
AcDbEntity
  8
1
  6
Continuous
100
AcDbLine
 10
510.7358679999999
 20
275.7219819999999
 30
0.0
 11
510.734961
 21
275.719017
 31
0.0
  0
LINE
  5
B137
330
AE81
100
AcDbEntity
  8
1
  6
Continuous
100
AcDbLine
 10
510.7358679999999
 20
275.7219819999999
 30
0.0
 11
510.734961
 21
275.724946
 31
0.0
  0
LINE
  5
B138
330
AE81
100
AcDbEntity
  8
1
  6
Continuous
100
AcDbLine
 10
512.216726
 20
274.2372519999999
 30
0.0
 11
510.8661999999998
 21
272.933064
 31
0.0
  0
LINE
  5
B139
330
AE81
100
AcDbEntity
  8
1
  6
Continuous
100
AcDbLine
 10
507.219691
 20
272.8349819999999
 30
0.0
 11
512.219691
 21
269.9479819999999
 31
0.0
  0
ARC
  5
B13A
330
AE81
100
AcDbEntity
  8
1
  6
Continuous
100
AcDbCircle
 10
512.219691
 20
275.7219819999999
 30
0.0
 40
3.1
100
AcDbArc
 50
205.887785
 51
244.112215
  0
LINE
  5
B13B
330
AE81
100
AcDbEntity
  8
1
  6
Continuous
100
AcDbLine
 10
510.734961
 20
275.719017
 30
0.0
 11
509.430773
 21
274.368491
 31
0.0
  0
LINE
  5
B13C
330
AE81
100
AcDbEntity
  8
1
  6
Continuous
100
AcDbLine
 10
507.219691
 20
272.8349819999999
 30
0.0
 11
507.219691
 21
278.6089819999999
 31
0.0
  0
LINE
  5
B13D
330
AE81
100
AcDbEntity
  8
1
  6
Continuous
100
AcDbLine
 10
509.430773
 20
277.0754729999999
 30
0.0
 11
510.734961
 21
275.724946
 31
0.0
  0
LINE
  5
B13E
330
AE81
100
AcDbEntity
  8
1
  6
Continuous
100
AcDbLine
 10
512.219691
 20
281.4949819999999
 30
0.0
 11
517.219691
 21
278.6089819999999
 31
0.0
  0
LINE
  5
B13F
330
AE81
100
AcDbEntity
  8
1
  6
Continuous
100
AcDbLine
 10
517.219691
 20
272.8349819999999
 30
0.0
 11
512.219691
 21
269.9479819999999
 31
0.0
  0
CIRCLE
  5
B140
330
AE81
100
AcDbEntity
  8
1
  6
Continuous
100
AcDbCircle
 10
512.219691
 20
275.7219819999999
 30
0.0
 40
5.0
  0
CIRCLE
  5
B141
330
AE81
100
AcDbEntity
  8
1
  6
Continuous
100
AcDbCircle
 10
512.219691
 20
275.7219819999999
 30
0.0
 40
4.049999999999998
  0
ARC
  5
B142
330
AE81
100
AcDbEntity
  8
1
  6
Continuous
100
AcDbCircle
 10
512.219691
 20
275.7219819999999
 30
0.0
 40
3.1
100
AcDbArc
 50
295.887785
 51
334.1122149999999
  0
LINE
  5
B143
330
AE81
100
AcDbEntity
  8
1
  6
Continuous
100
AcDbLine
 10
515.008609
 20
274.368491
 30
0.0
 11
513.70442
 21
275.719017
 31
0.0
  0
LINE
  5
B144
330
AE81
100
AcDbEntity
  8
1
  6
Continuous
100
AcDbLine
 10
513.70442
 20
275.724946
 30
0.0
 11
515.008609
 21
277.0754729999999
 31
0.0
  0
ARC
  5
B145
330
AE81
100
AcDbEntity
  8
1
  6
Continuous
100
AcDbCircle
 10
512.219691
 20
275.7219819999999
 30
0.0
 40
3.1
100
AcDbArc
 50
25.887785
 51
64.112215
  0
CIRCLE
  5
B146
330
AE81
100
AcDbEntity
  8
1
  6
Continuous
100
AcDbCircle
 10
512.219691
 20
275.7219819999999
 30
0.0
 40
6.099999999999998
  0
LINE
  5
B147
330
AE81
100
AcDbEntity
  8
1
  6
Continuous
100
AcDbLine
 10
517.719691
 20
285.248261
 30
0.0
 11
518.7196909999999
 21
286.980312
 31
0.0
  0
LINE
  5
B148
330
AE81
100
AcDbEntity
  8
1
  6
Continuous
100
AcDbLine
 10
505.869691
 20
286.7205039999999
 30
0.0
 11
505.869691
 21
288.7219819999999
 31
0.0
  0
LINE
  5
B149
330
AE81
100
AcDbEntity
  8
1
  6
Continuous
100
AcDbLine
 10
518.569691
 20
286.7205039999999
 30
0.0
 11
518.569691
 21
288.7219819999999
 31
0.0
  0
LINE
  5
B14A
330
AE81
100
AcDbEntity
  8
1
  6
Continuous
100
AcDbLine
 10
505.869691
 20
286.7205039999999
 30
0.0
 11
506.7196909999998
 21
285.248261
 31
0.0
  0
LINE
  5
B14B
330
AE81
100
AcDbEntity
  8
1
  6
Continuous
100
AcDbLine
 10
524.9196910000001
 20
278.498671
 30
0.0
 11
524.9196910000001
 21
285.7219819999999
 31
0.0
  0
ARC
  5
B14C
330
AE81
100
AcDbEntity
  8
1
  6
Continuous
100
AcDbCircle
 10
521.919691
 20
285.7219819999999
 30
0.0
 40
3.0
100
AcDbArc
 50
0.0
 51
90.0
  0
ARC
  5
B14D
330
AE81
100
AcDbEntity
  8
1
  6
Continuous
100
AcDbCircle
 10
529.219691
 20
297.2219819999999
 30
0.0
 40
2.5
100
AcDbArc
 50
0.0
 51
90.0
  0
LINE
  5
B14E
330
AE81
100
AcDbEntity
  8
1
  6
Continuous
100
AcDbLine
 10
525.219691
 20
299.7219819999999
 30
0.0
 11
529.219691
 21
299.7219819999999
 31
0.0
  0
ARC
  5
B14F
330
AE81
100
AcDbEntity
  8
1
  6
Continuous
100
AcDbCircle
 10
523.2196909999998
 20
294.7219819999999
 30
0.0
 40
5.0
100
AcDbArc
 50
66.42182199999999
 51
90.0
  0
LINE
  5
B150
330
AE81
100
AcDbEntity
  8
1
  6
Continuous
100
AcDbLine
 10
333.040247
 20
417.232277
 30
0.0
 11
335.540247
 21
417.232277
 31
0.0
  0
LINE
  5
B151
330
AE81
100
AcDbEntity
  8
5
  6
PHANTOM
100
AcDbLine
 10
856.4547369999997
 20
211.176272
 30
0.0
 11
868.27623
 21
219.2833339999999
 31
0.0
  0
LINE
  5
B152
330
AE81
100
AcDbEntity
  8
5
  6
PHANTOM
100
AcDbLine
 10
818.409347
 20
275.2783309999999
 30
0.0
 11
870.6451519999998
 21
223.042527
 31
0.0
  0
LINE
  5
B153
330
AE81
100
AcDbEntity
  8
5
  6
PHANTOM
100
AcDbLine
 10
850.7400960000001
 20
215.1582859999999
 30
0.0
 11
854.545721
 21
211.352661
 31
0.0
  0
LINE
  5
B154
330
AE81
100
AcDbEntity
  8
1
  6
Continuous
100
AcDbLine
 10
676.6991349999998
 20
211.7219819999999
 30
0.0
 11
676.6991349999998
 21
261.2219819999999
 31
0.0
  0
LINE
  5
B155
330
AE81
100
AcDbEntity
  8
1
  6
Continuous
100
AcDbLine
 10
688.899135
 20
161.721982
 30
0.0
 11
688.899135
 21
299.7219819999999
 31
0.0
  0
LINE
  5
B156
330
AE81
100
AcDbEntity
  8
1
  6
Continuous
100
AcDbLine
 10
691.3991349999998
 20
299.7219819999999
 30
0.0
 11
691.3991349999998
 21
161.721982
 31
0.0
  0
ARC
  5
B157
330
AE81
100
AcDbEntity
  8
1
  6
Continuous
100
AcDbCircle
 10
799.830415
 20
214.721982
 30
0.0
 40
1.0
100
AcDbArc
 50
0.0
 51
90.0
  0
LINE
  5
B158
330
AE81
100
AcDbEntity
  8
1
  6
Continuous
100
AcDbLine
 10
800.830415
 20
211.2219819999999
 30
0.0
 11
800.830415
 21
268.654444
 31
0.0
  0
LINE
  5
B159
330
AE81
100
AcDbEntity
  8
1
  6
Continuous
100
AcDbLine
 10
815.480415
 20
269.0945649999999
 30
0.0
 11
815.480415
 21
195.221982
 31
0.0
  0
LINE
  5
B15A
330
AE81
100
AcDbEntity
  8
1
  6
Continuous
100
AcDbLine
 10
809.830415
 20
161.721982
 30
0.0
 11
809.830415
 21
299.7219819999999
 31
0.0
  0
LINE
  5
B15B
330
AE81
100
AcDbEntity
  8
1
  6
Continuous
100
AcDbLine
 10
811.3304150000001
 20
299.7219819999999
 30
0.0
 11
811.3304150000001
 21
161.721982
 31
0.0
  0
LINE
  5
B15C
330
AE81
100
AcDbEntity
  8
1
  6
Continuous
100
AcDbLine
 10
812.8304149999999
 20
299.7219819999999
 30
0.0
 11
812.8304149999999
 21
161.721982
 31
0.0
  0
LINE
  5
B15D
330
AE81
100
AcDbEntity
  8
1
  6
Continuous
100
AcDbLine
 10
814.330415
 20
296.721982
 30
0.0
 11
814.330415
 21
164.721982
 31
0.0
  0
LINE
  5
B15E
330
AE81
100
AcDbEntity
  8
1
  6
Continuous
100
AcDbLine
 10
679.1991349999998
 20
164.221982
 30
0.0
 11
679.1991349999998
 21
211.7219819999999
 31
0.0
  0
ARC
  5
B15F
330
AE81
100
AcDbEntity
  8
1
  6
Continuous
100
AcDbCircle
 10
681.6991349999998
 20
164.221982
 30
0.0
 40
2.5
100
AcDbArc
 50
180.0
 51
270.0
  0
LINE
  5
B160
330
AE81
100
AcDbEntity
  8
1
  6
Continuous
100
AcDbLine
 10
691.3991349999998
 20
161.721982
 30
0.0
 11
681.6991349999998
 21
161.721982
 31
0.0
  0
LINE
  5
B161
330
AE81
100
AcDbEntity
  8
1
  6
Continuous
100
AcDbLine
 10
679.1991349999998
 20
211.7219819999999
 30
0.0
 11
676.6991349999998
 21
211.7219819999999
 31
0.0
  0
LINE
  5
B162
330
AE81
100
AcDbEntity
  8
1
  6
Continuous
100
AcDbLine
 10
800.830415
 20
211.2219819999999
 30
0.0
 11
786.830415
 21
211.2219819999999
 31
0.0
  0
LINE
  5
B163
330
AE81
100
AcDbEntity
  8
1
  6
Continuous
100
AcDbLine
 10
809.830415
 20
172.721982
 30
0.0
 11
786.830415
 21
172.721982
 31
0.0
  0
LINE
  5
B164
330
AE81
100
AcDbEntity
  8
1
  6
Continuous
100
AcDbLine
 10
785.830415
 20
210.221982
 30
0.0
 11
785.830415
 21
173.7219819999999
 31
0.0
  0
ARC
  5
B165
330
AE81
100
AcDbEntity
  8
1
  6
Continuous
100
AcDbCircle
 10
786.830415
 20
173.7219819999999
 30
0.0
 40
1.0
100
AcDbArc
 50
180.0
 51
270.0
  0
ARC
  5
B166
330
AE81
100
AcDbEntity
  8
1
  6
Continuous
100
AcDbCircle
 10
786.830415
 20
210.221982
 30
0.0
 40
1.0
100
AcDbArc
 50
90.0
 51
180.0
  0
LINE
  5
B167
330
AE81
100
AcDbEntity
  8
1
  6
Continuous
100
AcDbLine
 10
814.330415
 20
164.721982
 30
0.0
 11
812.8304149999999
 21
161.721982
 31
0.0
  0
LINE
  5
B168
330
AE81
100
AcDbEntity
  8
1
  6
Continuous
100
AcDbLine
 10
812.8304149999999
 20
161.721982
 30
0.0
 11
809.830415
 21
161.721982
 31
0.0
  0
ARC
  5
B169
330
AE81
100
AcDbEntity
  8
1
  6
Continuous
100
AcDbCircle
 10
814.480415
 20
195.221982
 30
0.0
 40
1.0
100
AcDbArc
 50
270.0
 51
0.0
  0
LINE
  5
B16A
330
AE81
100
AcDbEntity
  8
1
  6
Continuous
100
AcDbLine
 10
814.330415
 20
194.221982
 30
0.0
 11
814.480415
 21
194.221982
 31
0.0
  0
LINE
  5
B16B
330
AE81
100
AcDbEntity
  8
5
  6
PHANTOM
100
AcDbLine
 10
852.15431
 20
213.744072
 30
0.0
 11
853.568523
 21
212.329859
 31
0.0
  0
ARC
  5
B16C
330
AE81
100
AcDbEntity
  8
5
  6
PHANTOM
100
AcDbCircle
 10
855.6063810000001
 20
212.413322
 30
0.0
 40
1.5
100
AcDbArc
 50
225.0
 51
304.4419410000001
  0
LINE
  5
B16D
330
AE81
100
AcDbEntity
  8
1
  6
Continuous
100
AcDbLine
 10
679.1991349999998
 20
297.2219819999999
 30
0.0
 11
679.1991349999998
 21
261.2219819999999
 31
0.0
  0
LINE
  5
B16E
330
AE81
100
AcDbEntity
  8
4
  6
CENTER
100
AcDbLine
 10
687.0970629999998
 20
220.2219819999999
 30
0.0
 11
669.0991349999998
 21
220.2219819999999
 31
0.0
  0
LINE
  5
B16F
330
AE81
100
AcDbEntity
  8
4
  6
CENTER
100
AcDbLine
 10
687.0970629999998
 20
252.221982
 30
0.0
 11
669.0991349999998
 21
252.221982
 31
0.0
  0
LINE
  5
B170
330
AE81
100
AcDbEntity
  8
1
  6
Continuous
100
AcDbLine
 10
676.6991349999998
 20
220.2219819999999
 30
0.0
 11
675.3991349999998
 21
218.9219819999999
 31
0.0
  0
LINE
  5
B171
330
AE81
100
AcDbEntity
  8
1
  6
Continuous
100
AcDbLine
 10
673.938135
 20
224.5939819999999
 30
0.0
 11
675.3991349999998
 21
224.721982
 31
0.0
  0
LINE
  5
B172
330
AE81
100
AcDbEntity
  8
1
  6
Continuous
100
AcDbLine
 10
675.3991349999998
 20
224.821982
 30
0.0
 11
676.6991349999998
 21
224.821982
 31
0.0
  0
ARC
  5
B173
330
AE81
100
AcDbEntity
  8
1
  6
Continuous
100
AcDbCircle
 10
674.077135
 20
222.9999819999999
 30
0.0
 40
1.6
100
AcDbArc
 50
95.00010000000001
 51
164.5059999999999
  0
LINE
  5
B174
330
AE81
100
AcDbEntity
  8
1
  6
Continuous
100
AcDbLine
 10
673.938135
 20
215.8499819999999
 30
0.0
 11
675.3991349999998
 21
215.7219819999999
 31
0.0
  0
LINE
  5
B175
330
AE81
100
AcDbEntity
  8
1
  6
Continuous
100
AcDbLine
 10
675.3991349999998
 20
215.621982
 30
0.0
 11
676.6991349999998
 21
215.621982
 31
0.0
  0
ARC
  5
B176
330
AE81
100
AcDbEntity
  8
1
  6
Continuous
100
AcDbCircle
 10
674.077135
 20
217.4439819999999
 30
0.0
 40
1.6
100
AcDbArc
 50
195.494
 51
265.0
  0
ARC
  5
B177
330
AE81
100
AcDbEntity
  8
1
  6
Continuous
100
AcDbCircle
 10
684.0991349999998
 20
220.2219819999999
 30
0.0
 40
12.0
100
AcDbArc
 50
164.5059999999999
 51
195.494
  0
LINE
  5
B178
330
AE81
100
AcDbEntity
  8
1
  6
Continuous
100
AcDbLine
 10
675.3991349999998
 20
224.821982
 30
0.0
 11
675.3991349999998
 21
215.621982
 31
0.0
  0
LINE
  5
B179
330
AE81
100
AcDbEntity
  8
1
  6
Continuous
100
AcDbLine
 10
676.6991349999998
 20
221.5219819999999
 30
0.0
 11
675.3991349999998
 21
220.2219819999999
 31
0.0
  0
ARC
  5
B17A
330
AE81
100
AcDbEntity
  8
1
  6
Continuous
100
AcDbCircle
 10
684.0991349999998
 20
252.221982
 30
0.0
 40
12.0
100
AcDbArc
 50
164.5059999999999
 51
195.494
  0
LINE
  5
B17B
330
AE81
100
AcDbEntity
  8
1
  6
Continuous
100
AcDbLine
 10
673.938135
 20
256.593982
 30
0.0
 11
675.3991349999998
 21
256.7219819999999
 31
0.0
  0
LINE
  5
B17C
330
AE81
100
AcDbEntity
  8
1
  6
Continuous
100
AcDbLine
 10
673.938135
 20
247.8499819999999
 30
0.0
 11
675.3991349999998
 21
247.721982
 31
0.0
  0
LINE
  5
B17D
330
AE81
100
AcDbEntity
  8
1
  6
Continuous
100
AcDbLine
 10
676.6991349999998
 20
253.521982
 30
0.0
 11
675.3991349999998
 21
252.221982
 31
0.0
  0
LINE
  5
B17E
330
AE81
100
AcDbEntity
  8
1
  6
Continuous
100
AcDbLine
 10
676.6991349999998
 20
252.221982
 30
0.0
 11
675.3991349999998
 21
250.9219819999999
 31
0.0
  0
LINE
  5
B17F
330
AE81
100
AcDbEntity
  8
1
  6
Continuous
100
AcDbLine
 10
679.1991349999998
 20
261.2219819999999
 30
0.0
 11
676.6991349999998
 21
261.2219819999999
 31
0.0
  0
LINE
  5
B180
330
AE81
100
AcDbEntity
  8
1
  6
Continuous
100
AcDbLine
 10
675.3991349999998
 20
247.6219819999999
 30
0.0
 11
676.6991349999998
 21
247.6219819999999
 31
0.0
  0
LINE
  5
B181
330
AE81
100
AcDbEntity
  8
1
  6
Continuous
100
AcDbLine
 10
675.3991349999998
 20
256.8219819999999
 30
0.0
 11
676.6991349999998
 21
256.8219819999999
 31
0.0
  0
LINE
  5
B182
330
AE81
100
AcDbEntity
  8
1
  6
Continuous
100
AcDbLine
 10
675.3991349999998
 20
256.8219819999999
 30
0.0
 11
675.3991349999998
 21
247.6219819999999
 31
0.0
  0
ARC
  5
B183
330
AE81
100
AcDbEntity
  8
1
  6
Continuous
100
AcDbCircle
 10
674.077135
 20
254.999982
 30
0.0
 40
1.6
100
AcDbArc
 50
95.00010000000001
 51
164.5059999999999
  0
ARC
  5
B184
330
AE81
100
AcDbEntity
  8
1
  6
Continuous
100
AcDbCircle
 10
674.077135
 20
249.4439819999999
 30
0.0
 40
1.6
100
AcDbArc
 50
195.494
 51
265.0
  0
ARC
  5
B185
330
AE81
100
AcDbEntity
  8
1
  6
Continuous
100
AcDbCircle
 10
681.6991349999998
 20
297.2219819999999
 30
0.0
 40
2.5
100
AcDbArc
 50
90.0
 51
180.0
  0
LINE
  5
B186
330
AE81
100
AcDbEntity
  8
1
  6
Continuous
100
AcDbLine
 10
691.3991349999998
 20
299.7219819999999
 30
0.0
 11
681.6991349999998
 21
299.7219819999999
 31
0.0
  0
LINE
  5
B187
330
AE81
100
AcDbEntity
  8
4
  6
CENTER
100
AcDbLine
 10
775.9289449999998
 20
275.7219819999999
 30
0.0
 11
815.8914049999998
 21
275.7219819999999
 31
0.0
  0
LINE
  5
B188
330
AE81
100
AcDbEntity
  8
1
  6
Continuous
100
AcDbLine
 10
809.830415
 20
286.7205039999999
 30
0.0
 11
783.930415
 21
286.7205039999999
 31
0.0
  0
LINE
  5
B189
330
AE81
100
AcDbEntity
  8
1
  6
Continuous
100
AcDbLine
 10
809.830415
 20
288.7219819999999
 30
0.0
 11
782.7304149999998
 21
288.7219819999999
 31
0.0
  0
LINE
  5
B18A
330
AE81
100
AcDbEntity
  8
1
  6
Continuous
100
AcDbLine
 10
800.830415
 20
263.0219819999999
 30
0.0
 11
785.330415
 21
263.0219819999999
 31
0.0
  0
LINE
  5
B18B
330
AE81
100
AcDbEntity
  8
1
  6
Continuous
100
AcDbLine
 10
741.887541
 20
286.7219819999999
 30
0.0
 11
741.887541
 21
264.7219819999999
 31
0.0
  0
LINE
  5
B18C
330
AE81
100
AcDbEntity
  8
1
  6
Continuous
100
AcDbLine
 10
739.887541
 20
286.7219819999999
 30
0.0
 11
739.887541
 21
264.7219819999999
 31
0.0
  0
LINE
  5
B18D
330
AE81
100
AcDbEntity
  8
1
  6
Continuous
100
AcDbLine
 10
784.330415
 20
286.7205039999999
 30
0.0
 11
784.330415
 21
264.0219819999999
 31
0.0
  0
LINE
  5
B18E
330
AE81
100
AcDbEntity
  8
1
  6
Continuous
100
AcDbLine
 10
783.930415
 20
286.980312
 30
0.0
 11
783.930415
 21
262.7219819999999
 31
0.0
  0
LINE
  5
B18F
330
AE81
100
AcDbEntity
  8
1
  6
Continuous
100
AcDbLine
 10
781.930415
 20
286.980312
 30
0.0
 11
781.930415
 21
262.7219819999999
 31
0.0
  0
LINE
  5
B190
330
AE81
100
AcDbEntity
  8
1
  6
Continuous
100
AcDbLine
 10
741.887541
 20
264.7219819999999
 30
0.0
 11
739.887541
 21
264.7219819999999
 31
0.0
  0
LINE
  5
B191
330
AE81
100
AcDbEntity
  8
1
  6
Continuous
100
AcDbLine
 10
781.930415
 20
262.7219819999999
 30
0.0
 11
783.930415
 21
262.7219819999999
 31
0.0
  0
ARC
  5
B192
330
AE81
100
AcDbEntity
  8
1
  6
Continuous
100
AcDbCircle
 10
785.330415
 20
264.0219819999999
 30
0.0
 40
1.0
100
AcDbArc
 50
180.0
 51
270.0
  0
LINE
  5
B193
330
AE81
100
AcDbEntity
  8
1
  6
Continuous
100
AcDbLine
 10
733.333832
 20
281.4949819999999
 30
0.0
 11
736.4412489999998
 21
281.4949819999999
 31
0.0
  0
LINE
  5
B194
330
AE81
100
AcDbEntity
  8
1
  6
Continuous
100
AcDbLine
 10
733.333832
 20
278.6089819999999
 30
0.0
 11
736.4412489999998
 21
278.6089819999999
 31
0.0
  0
LINE
  5
B195
330
AE81
100
AcDbEntity
  8
1
  6
Continuous
100
AcDbLine
 10
733.333832
 20
272.8349819999999
 30
0.0
 11
736.4412489999998
 21
272.8349819999999
 31
0.0
  0
LINE
  5
B196
330
AE81
100
AcDbEntity
  8
1
  6
Continuous
100
AcDbLine
 10
733.333832
 20
269.9479819999999
 30
0.0
 11
736.4412489999998
 21
269.9479819999999
 31
0.0
  0
LINE
  5
B197
330
AE81
100
AcDbEntity
  8
4
  6
CENTER
100
AcDbLine
 10
729.887541
 20
275.7219819999999
 30
0.0
 11
744.887541
 21
275.7219819999999
 31
0.0
  0
LINE
  5
B198
330
AE81
100
AcDbEntity
  8
1
  6
Continuous
100
AcDbLine
 10
732.8875410000001
 20
280.7219819999999
 30
0.0
 11
733.333832
 21
281.4949819999999
 31
0.0
  0
ARC
  5
B199
330
AE81
100
AcDbEntity
  8
1
  6
Continuous
100
AcDbCircle
 10
735.44352
 20
280.051982
 30
0.0
 40
2.555979999999999
100
AcDbArc
 50
154.371637
 51
214.371637
  0
ARC
  5
B19A
330
AE81
100
AcDbEntity
  8
1
  6
Continuous
100
AcDbCircle
 10
735.4435409999998
 20
271.391982
 30
0.0
 40
2.55582
100
AcDbArc
 50
214.3528569999999
 51
214.3839999999999
  0
ARC
  5
B19B
330
AE81
100
AcDbEntity
  8
1
  6
Continuous
100
AcDbCircle
 10
735.44352
 20
271.390982
 30
0.0
 40
2.555979999999999
100
AcDbArc
 50
145.6283629999999
 51
205.6283629999999
  0
LINE
  5
B19C
330
AE81
100
AcDbEntity
  8
1
  6
Continuous
100
AcDbLine
 10
732.8875410000001
 20
270.720982
 30
0.0
 11
733.333832
 21
269.9479819999999
 31
0.0
  0
LINE
  5
B19D
330
AE81
100
AcDbEntity
  8
1
  6
Continuous
100
AcDbLine
 10
732.8875410000001
 20
280.7219819999999
 30
0.0
 11
732.8875410000001
 21
270.720982
 31
0.0
  0
ARC
  5
B19E
330
AE81
100
AcDbEntity
  8
1
  6
Continuous
100
AcDbCircle
 10
742.448489
 20
275.7219819999999
 30
0.0
 40
9.560949
100
AcDbArc
 50
162.4247879999999
 51
197.575212
  0
LINE
  5
B19F
330
AE81
100
AcDbEntity
  8
1
  6
Continuous
100
AcDbLine
 10
736.8875410000002
 20
280.7219819999999
 30
0.0
 11
736.4412489999998
 21
281.4949819999999
 31
0.0
  0
ARC
  5
B1A0
330
AE81
100
AcDbEntity
  8
1
  6
Continuous
100
AcDbCircle
 10
734.3315610000002
 20
280.051982
 30
0.0
 40
2.555979999999999
100
AcDbArc
 50
325.6283629999999
 51
25.628363
  0
ARC
  5
B1A1
330
AE81
100
AcDbEntity
  8
1
  6
Continuous
100
AcDbCircle
 10
734.331541
 20
271.391982
 30
0.0
 40
2.55582
100
AcDbArc
 50
325.6159999999999
 51
325.647143
  0
ARC
  5
B1A2
330
AE81
100
AcDbEntity
  8
1
  6
Continuous
100
AcDbCircle
 10
734.3315610000002
 20
271.390982
 30
0.0
 40
2.555979999999999
100
AcDbArc
 50
334.371637
 51
34.371637
  0
LINE
  5
B1A3
330
AE81
100
AcDbEntity
  8
1
  6
Continuous
100
AcDbLine
 10
736.8875410000002
 20
270.720982
 30
0.0
 11
736.4412489999998
 21
269.9479819999999
 31
0.0
  0
ARC
  5
B1A4
330
AE81
100
AcDbEntity
  8
1
  6
Continuous
100
AcDbCircle
 10
727.326592
 20
275.7219819999999
 30
0.0
 40
9.560949
100
AcDbArc
 50
342.4247879999999
 51
17.575212
  0
LINE
  5
B1A5
330
AE81
100
AcDbEntity
  8
1
  6
Continuous
100
AcDbLine
 10
736.8875410000002
 20
281.8219819999999
 30
0.0
 11
736.8875410000002
 21
269.621982
 31
0.0
  0
LINE
  5
B1A6
330
AE81
100
AcDbEntity
  8
1
  6
Continuous
100
AcDbLine
 10
741.887541
 20
286.7219819999999
 30
0.0
 11
739.887541
 21
286.7219819999999
 31
0.0
  0
LINE
  5
B1A7
330
AE81
100
AcDbEntity
  8
1
  6
Continuous
100
AcDbLine
 10
738.387541
 20
283.7219819999999
 30
0.0
 11
738.387541
 21
267.7219819999999
 31
0.0
  0
LINE
  5
B1A8
330
AE81
100
AcDbEntity
  8
1
  6
Continuous
100
AcDbLine
 10
739.887541
 20
267.7219819999999
 30
0.0
 11
738.387541
 21
267.7219819999999
 31
0.0
  0
LINE
  5
B1A9
330
AE81
100
AcDbEntity
  8
1
  6
Continuous
100
AcDbLine
 10
739.887541
 20
283.7219819999999
 30
0.0
 11
738.387541
 21
283.7219819999999
 31
0.0
  0
LINE
  5
B1AA
330
AE81
100
AcDbEntity
  8
1
  6
Continuous
100
AcDbLine
 10
738.387541
 20
277.2219819999999
 30
0.0
 11
736.8875410000002
 21
275.7219819999999
 31
0.0
  0
LINE
  5
B1AB
330
AE81
100
AcDbEntity
  8
1
  6
Continuous
100
AcDbLine
 10
738.387541
 20
275.7219819999999
 30
0.0
 11
736.8875410000002
 21
274.2219819999999
 31
0.0
  0
LINE
  5
B1AC
330
AE81
100
AcDbEntity
  8
1
  6
Continuous
100
AcDbLine
 10
736.8875410000002
 20
281.8219819999999
 30
0.0
 11
738.387541
 21
281.8219819999999
 31
0.0
  0
LINE
  5
B1AD
330
AE81
100
AcDbEntity
  8
1
  6
Continuous
100
AcDbLine
 10
736.8875410000002
 20
269.621982
 30
0.0
 11
738.387541
 21
269.621982
 31
0.0
  0
LINE
  5
B1AE
330
AE81
100
AcDbEntity
  8
1
  6
Continuous
100
AcDbLine
 10
781.930415
 20
286.980312
 30
0.0
 11
783.930415
 21
286.980312
 31
0.0
  0
ARC
  5
B1AF
330
AE81
100
AcDbEntity
  8
1
  6
Continuous
100
AcDbCircle
 10
782.7304149999998
 20
288.5219819999999
 30
0.0
 40
0.2
100
AcDbArc
 50
90.0
 51
180.0
  0
LINE
  5
B1B0
330
AE81
100
AcDbEntity
  8
1
  6
Continuous
100
AcDbLine
 10
778.930415
 20
282.2980749999999
 30
0.0
 11
778.930415
 21
269.145889
 31
0.0
  0
LINE
  5
B1B1
330
AE81
100
AcDbEntity
  8
1
  6
Continuous
100
AcDbLine
 10
783.930415
 20
284.728331
 30
0.0
 11
784.330415
 21
284.728331
 31
0.0
  0
ARC
  5
B1B2
330
AE81
100
AcDbEntity
  8
1
  6
Continuous
100
AcDbCircle
 10
779.230415
 20
282.2980749999999
 30
0.0
 40
0.3
100
AcDbArc
 50
90.0
 51
180.0
  0
ARC
  5
B1B3
330
AE81
100
AcDbEntity
  8
1
  6
Continuous
100
AcDbCircle
 10
779.230415
 20
269.145889
 30
0.0
 40
0.3
100
AcDbArc
 50
180.0
 51
270.0
  0
LINE
  5
B1B4
330
AE81
100
AcDbEntity
  8
1
  6
Continuous
100
AcDbLine
 10
779.230415
 20
268.845889
 30
0.0
 11
781.930415
 21
268.845889
 31
0.0
  0
LINE
  5
B1B5
330
AE81
100
AcDbEntity
  8
1
  6
Continuous
100
AcDbLine
 10
779.230415
 20
282.5980749999999
 30
0.0
 11
781.930415
 21
282.5980749999999
 31
0.0
  0
LINE
  5
B1B6
330
AE81
100
AcDbEntity
  8
1
  6
Continuous
100
AcDbLine
 10
781.930415
 20
275.7219819999999
 30
0.0
 11
779.230415
 21
275.7219819999999
 31
0.0
  0
LINE
  5
B1B7
330
AE81
100
AcDbEntity
  8
2
  6
Continuous
100
AcDbLine
 10
779.230415
 20
275.7219819999999
 30
0.0
 11
781.930415
 21
282.5980749999999
 31
0.0
  0
LINE
  5
B1B8
330
AE81
100
AcDbEntity
  8
2
  6
Continuous
100
AcDbLine
 10
779.230415
 20
275.7219819999999
 30
0.0
 11
781.930415
 21
268.845889
 31
0.0
  0
LINE
  5
B1B9
330
AE81
100
AcDbEntity
  8
2
  6
Continuous
100
AcDbLine
 10
781.930415
 20
275.7219819999999
 30
0.0
 11
779.230415
 21
268.845889
 31
0.0
  0
LINE
  5
B1BA
330
AE81
100
AcDbEntity
  8
2
  6
Continuous
100
AcDbLine
 10
779.230415
 20
282.5980749999999
 30
0.0
 11
781.930415
 21
275.7219819999999
 31
0.0
  0
LINE
  5
B1BB
330
AE81
100
AcDbEntity
  8
1
  6
Continuous
100
AcDbLine
 10
783.930415
 20
282.7219819999999
 30
0.0
 11
784.330415
 21
282.7219819999999
 31
0.0
  0
LINE
  5
B1BC
330
AE81
100
AcDbEntity
  8
1
  6
Continuous
100
AcDbLine
 10
783.930415
 20
268.7219819999999
 30
0.0
 11
784.330415
 21
268.7219819999999
 31
0.0
  0
LINE
  5
B1BD
330
AE81
100
AcDbEntity
  8
1
  6
Continuous
100
AcDbLine
 10
782.530415
 20
288.5219819999999
 30
0.0
 11
782.530415
 21
286.980312
 31
0.0
  0
LINE
  5
B1BE
330
AE81
100
AcDbEntity
  8
5
  6
PHANTOM
100
AcDbLine
 10
819.830415
 20
265.371982
 30
0.0
 11
856.149463
 21
229.0529339999999
 31
0.0
  0
LINE
  5
B1BF
330
AE81
100
AcDbEntity
  8
1
  6
Continuous
100
AcDbLine
 10
798.830415
 20
263.0219819999999
 30
0.0
 11
798.830415
 21
275.7219819999999
 31
0.0
  0
LINE
  5
B1C0
330
AE81
100
AcDbEntity
  8
1
  6
Continuous
100
AcDbLine
 10
797.830415
 20
224.721982
 30
0.0
 11
799.830415
 21
224.721982
 31
0.0
  0
ARC
  5
B1C1
330
AE81
100
AcDbEntity
  8
1
  6
Continuous
100
AcDbCircle
 10
799.830415
 20
225.7219819999999
 30
0.0
 40
1.0
100
AcDbArc
 50
270.0
 51
0.0
  0
LINE
  5
B1C2
330
AE81
100
AcDbEntity
  8
4
  6
CENTER
100
AcDbLine
 10
794.830415
 20
220.2219819999999
 30
0.0
 11
803.830415
 21
220.2219819999999
 31
0.0
  0
LINE
  5
B1C3
330
AE81
100
AcDbEntity
  8
1
  6
Continuous
100
AcDbLine
 10
797.830415
 20
215.7219819999999
 30
0.0
 11
799.830415
 21
215.7219819999999
 31
0.0
  0
LINE
  5
B1C4
330
AE81
100
AcDbEntity
  8
1
  6
Continuous
100
AcDbLine
 10
797.830415
 20
224.721982
 30
0.0
 11
797.830415
 21
215.7219819999999
 31
0.0
  0
ARC
  5
B1C5
330
AE81
100
AcDbEntity
  8
1
  6
Continuous
100
AcDbCircle
 10
799.830415
 20
246.7219819999999
 30
0.0
 40
1.0
100
AcDbArc
 50
0.0
 51
90.0
  0
ARC
  5
B1C6
330
AE81
100
AcDbEntity
  8
1
  6
Continuous
100
AcDbCircle
 10
799.830415
 20
257.7219819999999
 30
0.0
 40
1.0
100
AcDbArc
 50
270.0
 51
0.0
  0
LINE
  5
B1C7
330
AE81
100
AcDbEntity
  8
1
  6
Continuous
100
AcDbLine
 10
797.830415
 20
256.7219819999999
 30
0.0
 11
797.830415
 21
247.721982
 31
0.0
  0
LINE
  5
B1C8
330
AE81
100
AcDbEntity
  8
1
  6
Continuous
100
AcDbLine
 10
797.830415
 20
247.721982
 30
0.0
 11
799.830415
 21
247.721982
 31
0.0
  0
LINE
  5
B1C9
330
AE81
100
AcDbEntity
  8
1
  6
Continuous
100
AcDbLine
 10
797.830415
 20
256.7219819999999
 30
0.0
 11
799.830415
 21
256.7219819999999
 31
0.0
  0
LINE
  5
B1CA
330
AE81
100
AcDbEntity
  8
4
  6
CENTER
100
AcDbLine
 10
794.830415
 20
252.221982
 30
0.0
 11
803.830415
 21
252.221982
 31
0.0
  0
ARC
  5
B1CB
330
AE81
100
AcDbEntity
  8
5
  6
PHANTOM
100
AcDbCircle
 10
853.3210359999998
 20
226.224507
 30
0.0
 40
4.0
100
AcDbArc
 50
315.0
 51
45.0
  0
ARC
  5
B1CC
330
AE81
100
AcDbEntity
  8
5
  6
PHANTOM
100
AcDbCircle
 10
852.15431
 20
216.5725
 30
0.0
 40
2.0
100
AcDbArc
 50
135.0
 51
225.0
  0
LINE
  5
B1CD
330
AE81
100
AcDbEntity
  8
5
  6
PHANTOM
100
AcDbLine
 10
850.7400960000001
 20
217.9867129999999
 30
0.0
 11
856.149463
 21
223.3960799999999
 31
0.0
  0
LINE
  5
B1CE
330
AE81
100
AcDbEntity
  8
5
  6
PHANTOM
100
AcDbLine
 10
815.480415
 20
282.349399
 30
0.0
 11
815.480415
 21
284.5719819999999
 31
0.0
  0
ARC
  5
B1CF
330
AE81
100
AcDbEntity
  8
1
  6
Continuous
100
AcDbCircle
 10
809.4804149999998
 20
275.7219819999999
 30
0.0
 40
10.34999999999999
100
AcDbArc
 50
45.0
 51
62.056605
  0
ARC
  5
B1D0
330
AE81
100
AcDbEntity
  8
1
  6
Continuous
100
AcDbCircle
 10
818.920291
 20
278.7978959999999
 30
0.0
 40
1.5
100
AcDbArc
 50
315.0
 51
45.0
  0
LINE
  5
B1D1
330
AE81
100
AcDbEntity
  8
1
  6
Continuous
100
AcDbLine
 10
818.409347
 20
276.165633
 30
0.0
 11
819.9809509999999
 21
277.737236
 31
0.0
  0
LINE
  5
B1D2
330
AE81
100
AcDbEntity
  8
5
  6
PHANTOM
100
AcDbLine
 10
815.480415
 20
265.371982
 30
0.0
 11
819.830415
 21
265.371982
 31
0.0
  0
ARC
  5
B1D3
330
AE81
100
AcDbEntity
  8
5
  6
PHANTOM
100
AcDbCircle
 10
825.480415
 20
282.349399
 30
0.0
 40
10.0
100
AcDbArc
 50
180.0
 51
225.0
  0
LINE
  5
B1D4
330
AE81
100
AcDbEntity
  8
1
  6
Continuous
100
AcDbLine
 10
816.7989700000001
 20
283.040537
 30
0.0
 11
819.9809509999999
 21
279.8585569999999
 31
0.0
  0
ARC
  5
B1D5
330
AE81
100
AcDbEntity
  8
1
  6
Continuous
100
AcDbCircle
 10
825.480415
 20
269.0945649999999
 30
0.0
 40
10.0
100
AcDbArc
 50
135.0
 51
180.0
  0
ARC
  5
B1D6
330
AE81
100
AcDbEntity
  8
5
  6
PHANTOM
100
AcDbCircle
 10
813.9804149999999
 20
284.5719819999999
 30
0.0
 40
1.5
100
AcDbArc
 50
0.0
 51
76.506601
  0
LINE
  5
B1D7
330
AE81
100
AcDbEntity
  8
1
  6
Continuous
100
AcDbLine
 10
812.8304149999999
 20
299.7219819999999
 30
0.0
 11
814.330415
 21
296.721982
 31
0.0
  0
LINE
  5
B1D8
330
AE81
100
AcDbEntity
  8
1
  6
Continuous
100
AcDbLine
 10
812.8304149999999
 20
299.7219819999999
 30
0.0
 11
809.830415
 21
299.7219819999999
 31
0.0
  0
ARC
  5
B1D9
330
AE81
100
AcDbEntity
  8
5
  6
PHANTOM
100
AcDbCircle
 10
869.9380449999999
 20
222.33542
 30
0.0
 40
1.0
100
AcDbArc
 50
315.0
 51
45.0
  0
ARC
  5
B1DA
330
AE81
100
AcDbEntity
  8
5
  6
PHANTOM
100
AcDbCircle
 10
867.7106589999999
 20
220.1080339999999
 30
0.0
 40
1.0
100
AcDbArc
 50
304.4419410000001
 51
315.0
  0
LINE
  5
B1DB
330
AE81
100
AcDbEntity
  8
5
  6
PHANTOM
100
AcDbLine
 10
868.417765
 20
219.400927
 30
0.0
 11
870.6451519999998
 21
221.6283129999999
 31
0.0
  0
LINE
  5
B1DC
330
AE81
100
AcDbEntity
  8
1
  6
Continuous
100
AcDbLine
 10
38.5
 20
349.3164499999999
 30
0.0
 11
25.5
 21
349.3164499999999
 31
0.0
  0
LINE
  5
B1DD
330
AE81
100
AcDbEntity
  8
1
  6
Continuous
100
AcDbLine
 10
38.5
 20
361.3164499999999
 30
0.0
 11
25.5
 21
361.3164499999999
 31
0.0
  0
LINE
  5
B1DE
330
AE81
100
AcDbEntity
  8
1
  6
Continuous
100
AcDbLine
 10
27.092308
 20
350.604912
 30
0.0
 11
37.29230799999999
 21
354.854912
 31
0.0
  0
LINE
  5
B1DF
330
AE81
100
AcDbEntity
  8
1
  6
Continuous
100
AcDbLine
 10
27.092308
 20
360.0279889999998
 30
0.0
 11
37.29230799999999
 21
355.7779889999998
 31
0.0
  0
ARC
  5
B1E0
330
AE81
100
AcDbEntity
  8
1
  6
Continuous
100
AcDbCircle
 10
25.5
 20
349.8164499999999
 30
0.0
 40
0.5
100
AcDbArc
 50
180.0
 51
270.0
  0
LINE
  5
B1E1
330
AE81
100
AcDbEntity
  8
1
  6
Continuous
100
AcDbLine
 10
25.0
 20
360.8164499999999
 30
0.0
 11
25.0
 21
349.8164499999999
 31
0.0
  0
ARC
  5
B1E2
330
AE81
100
AcDbEntity
  8
1
  6
Continuous
100
AcDbCircle
 10
25.5
 20
360.8164499999999
 30
0.0
 40
0.5
100
AcDbArc
 50
90.0
 51
180.0
  0
LINE
  5
B1E3
330
AE81
100
AcDbEntity
  8
1
  6
Continuous
100
AcDbLine
 10
26.4
 20
351.0664499999998
 30
0.0
 11
26.4
 21
359.5664499999998
 31
0.0
  0
ARC
  5
B1E4
330
AE81
100
AcDbEntity
  8
1
  6
Continuous
100
AcDbCircle
 10
26.89999999999999
 20
359.5664499999998
 30
0.0
 40
0.5
100
AcDbArc
 50
67.380135
 51
180.0
  0
ARC
  5
B1E5
330
AE81
100
AcDbEntity
  8
1
  6
Continuous
100
AcDbCircle
 10
26.89999999999999
 20
351.0664499999998
 30
0.0
 40
0.5
100
AcDbArc
 50
180.0
 51
292.6198649999999
  0
ARC
  5
B1E6
330
AE81
100
AcDbEntity
  8
1
  6
Continuous
100
AcDbCircle
 10
38.5
 20
349.8164499999999
 30
0.0
 40
0.5
100
AcDbArc
 50
270.0
 51
0.0
  0
LINE
  5
B1E7
330
AE81
100
AcDbEntity
  8
1
  6
Continuous
100
AcDbLine
 10
39.0
 20
360.8164499999999
 30
0.0
 11
39.0
 21
349.8164499999999
 31
0.0
  0
ARC
  5
B1E8
330
AE81
100
AcDbEntity
  8
1
  6
Continuous
100
AcDbCircle
 10
38.5
 20
360.8164499999999
 30
0.0
 40
0.5
100
AcDbArc
 50
0.0
 51
90.0
  0
ARC
  5
B1E9
330
AE81
100
AcDbEntity
  8
1
  6
Continuous
100
AcDbCircle
 10
37.1
 20
355.3164499999998
 30
0.0
 40
0.5
100
AcDbArc
 50
292.6198649999999
 51
67.380135
  0
ENDSEC
  0
SECTION
  2
OBJECTS
  0
DICTIONARY
  5
AE6F
330
0
100
AcDbDictionary
281
     1
  3
ACAD_CIP_PREVIOUS_PRODUCT_INFO
350
B253
  3
ACAD_COLOR
350
B235
  3
ACAD_DETAILVIEWSTYLE
350
B24E
  3
ACAD_GROUP
350
AE70
  3
ACAD_LAYOUT
350
AE7C
  3
ACAD_MATERIAL
350
B203
  3
ACAD_MLEADERSTYLE
350
B24A
  3
ACAD_MLINESTYLE
350
AE79
  3
ACAD_PLOTSETTINGS
350
AE7B
  3
ACAD_PLOTSTYLENAME
350
B201
  3
ACAD_SCALELIST
350
B238
  3
ACAD_SECTIONVIEWSTYLE
350
B24C
  3
ACAD_TABLESTYLE
350
B236
  3
ACAD_VISUALSTYLE
350
B21C
  3
ACDB_RECOMPOSE_DATA
350
B271
  3
AcDbVariableDictionary
350
B264
  3
DWGPROPS
350
B272
  0
DICTIONARY
  5
B254
330
AE73
100
AcDbDictionary
280
     1
281
     1
  3
ADSK_XREC_LAYER_RECONCILED
360
B255
  0
DICTIONARY
  5
B256
330
AE89
100
AcDbDictionary
280
     1
281
     1
  3
ADSK_XREC_LAYER_RECONCILED
360
B257
  0
DICTIONARY
  5
B258
330
AE8A
100
AcDbDictionary
280
     1
281
     1
  3
ADSK_XREC_LAYER_RECONCILED
360
B259
  0
DICTIONARY
  5
B25A
330
AE8B
100
AcDbDictionary
280
     1
281
     1
  3
ADSK_XREC_LAYER_RECONCILED
360
B25B
  0
DICTIONARY
  5
B25C
330
AE8C
100
AcDbDictionary
280
     1
281
     1
  3
ADSK_XREC_LAYER_RECONCILED
360
B25D
  0
DICTIONARY
  5
B25E
330
AE8D
100
AcDbDictionary
280
     1
281
     1
  3
ADSK_XREC_LAYER_RECONCILED
360
B25F
  0
DICTIONARY
  5
B260
330
AE8E
100
AcDbDictionary
280
     1
281
     1
  3
ADSK_XREC_LAYER_RECONCILED
360
B261
  0
DICTIONARY
  5
B262
330
AE8F
100
AcDbDictionary
280
     1
281
     1
  3
ADSK_XREC_LAYER_RECONCILED
360
B263
  0
DICTIONARY
  5
B1FC
330
AE81
100
AcDbDictionary
281
     1
  3
ACAD_LAYOUTSELFREF
350
B1FD
  0
DICTIONARY
  5
B1FA
330
AE7D
100
AcDbDictionary
281
     1
  3
ACAD_LAYOUTSELFREF
350
B1FB
  0
XRECORD
  5
B253
102
{ACAD_REACTORS
330
AE6F
102
}
330
AE6F
100
AcDbXrecord
280
     1
300
ACDLT
300
2014
300
ACDLT_F_S
  0
DICTIONARY
  5
B235
102
{ACAD_REACTORS
330
AE6F
102
}
330
AE6F
100
AcDbDictionary
281
     1
  0
DICTIONARY
  5
B24E
102
{ACAD_REACTORS
330
AE6F
102
}
330
AE6F
100
AcDbDictionary
281
     1
  3
Imperial24
350
B24F
  0
DICTIONARY
  5
AE70
102
{ACAD_REACTORS
330
AE6F
102
}
330
AE6F
100
AcDbDictionary
281
     1
  0
DICTIONARY
  5
AE7C
102
{ACAD_REACTORS
330
AE6F
102
}
330
AE6F
100
AcDbDictionary
281
     1
  3
Model
350
B250
  3
レイアウト1
350
B251
  0
DICTIONARY
  5
B203
102
{ACAD_REACTORS
330
AE6F
102
}
330
AE6F
100
AcDbDictionary
281
     1
  3
ByBlock
350
B20C
  3
ByLayer
350
B204
  3
Global
350
B214
  0
DICTIONARY
  5
B24A
102
{ACAD_REACTORS
330
AE6F
102
}
330
AE6F
100
AcDbDictionary
281
     1
  3
Standard
350
B24B
  0
DICTIONARY
  5
AE79
102
{ACAD_REACTORS
330
AE6F
102
}
330
AE6F
100
AcDbDictionary
281
     1
  3
STANDARD
350
AE7A
  0
DICTIONARY
  5
AE7B
102
{ACAD_REACTORS
330
AE6F
102
}
330
AE6F
100
AcDbDictionary
281
     1
  0
ACDBDICTIONARYWDFLT
  5
B201
102
{ACAD_REACTORS
330
AE6F
102
}
330
AE6F
100
AcDbDictionary
281
     1
  3
Normal
350
B202
100
AcDbDictionaryWithDefault
340
B202
  0
DICTIONARY
  5
B238
102
{ACAD_REACTORS
330
AE6F
102
}
330
AE6F
100
AcDbDictionary
281
     1
  3
A0
350
B239
  3
A1
350
B23A
  3
A2
350
B23B
  3
A3
350
B23C
  3
A4
350
B23D
  3
A5
350
B23E
  3
A6
350
B23F
  3
A7
350
B240
  3
A8
350
B241
  3
A9
350
B242
  3
B0
350
B243
  3
B1
350
B244
  3
B2
350
B245
  3
B3
350
B246
  3
B4
350
B247
  3
B5
350
B248
  3
B6
350
B249
  0
DICTIONARY
  5
B24C
102
{ACAD_REACTORS
330
AE6F
102
}
330
AE6F
100
AcDbDictionary
281
     1
  3
Imperial24
350
B24D
  0
DICTIONARY
  5
B236
102
{ACAD_REACTORS
330
AE6F
102
}
330
AE6F
100
AcDbDictionary
281
     1
  3
Standard
350
B237
  0
DICTIONARY
  5
B21C
102
{ACAD_REACTORS
330
AE6F
102
}
330
AE6F
100
AcDbDictionary
281
     1
  3
2dWireframe
350
B222
  3
Basic
350
B221
  3
Brighten
350
B228
  3
ColorChange
350
B22C
  3
Conceptual
350
B225
  3
Dim
350
B227
  3
EdgeColorOff
350
B234
  3
Facepattern
350
B22B
  3
Flat
350
B21D
  3
FlatWithEdges
350
B21E
  3
Gouraud
350
B21F
  3
GouraudWithEdges
350
B220
  3
Hidden
350
B224
  3
JitterOff
350
B232
  3
Linepattern
350
B22A
  3
OverhangOff
350
B233
  3
Realistic
350
B226
  3
Shaded
350
B231
  3
Shaded with edges
350
B230
  3
Shades of Gray
350
B22D
  3
Sketchy
350
B22E
  3
Thicken
350
B229
  3
Wireframe
350
B223
  3
X-Ray
350
B22F
  0
XRECORD
  5
B271
102
{ACAD_REACTORS
330
AE6F
102
}
330
AE6F
100
AcDbXrecord
280
     1
 90
        1
330
B237
  0
DICTIONARY
  5
B264
102
{ACAD_REACTORS
330
AE6F
102
}
330
AE6F
100
AcDbDictionary
281
     1
  3
CANNOSCALE
350
B269
  3
CMLEADERSTYLE
350
B266
  3
CTABLESTYLE
350
B265
  3
CVIEWDETAILSTYLE
350
B267
  3
CVIEWSECTIONSTYLE
350
B268
  3
DIMASSOC
350
B26C
  3
INDEXCTL
350
B26B
  3
SORTENTS
350
B26A
  3
XCLIPFRAME
350
B26D
  0
XRECORD
  5
B272
102
{ACAD_REACTORS
330
AE6F
102
}
330
AE6F
100
AcDbXrecord
280
     1
  1
DWGPROPS COOKIE
  2

  3

  4

  6

  7

  8
Yoshitsune
  9

300
=
301
=
302
=
303
=
304
=
305
=
306
=
307
=
308
=
309
=
 40
0.0009178356481481
 41
2451417.577121297
 42
2457192.642229479
  1

 90
        0
  0
XRECORD
  5
B255
102
{ACAD_REACTORS
330
B254
102
}
330
B254
100
AcDbXrecord
280
     1
290
     1
  0
XRECORD
  5
B257
102
{ACAD_REACTORS
330
B256
102
}
330
B256
100
AcDbXrecord
280
     1
290
     1
  0
XRECORD
  5
B259
102
{ACAD_REACTORS
330
B258
102
}
330
B258
100
AcDbXrecord
280
     1
290
     1
  0
XRECORD
  5
B25B
102
{ACAD_REACTORS
330
B25A
102
}
330
B25A
100
AcDbXrecord
280
     1
290
     1
  0
XRECORD
  5
B25D
102
{ACAD_REACTORS
330
B25C
102
}
330
B25C
100
AcDbXrecord
280
     1
290
     1
  0
XRECORD
  5
B25F
102
{ACAD_REACTORS
330
B25E
102
}
330
B25E
100
AcDbXrecord
280
     1
290
     1
  0
XRECORD
  5
B261
102
{ACAD_REACTORS
330
B260
102
}
330
B260
100
AcDbXrecord
280
     1
290
     1
  0
XRECORD
  5
B263
102
{ACAD_REACTORS
330
B262
102
}
330
B262
100
AcDbXrecord
280
     1
290
     1
  0
XRECORD
  5
B1FD
102
{ACAD_REACTORS
330
B1FC
102
}
330
B1FC
100
AcDbXrecord
280
     1
340
AE81
  0
XRECORD
  5
B1FB
102
{ACAD_REACTORS
330
B1FA
102
}
330
B1FA
100
AcDbXrecord
280
     1
340
AE7D
  0
ACDBDETAILVIEWSTYLE
  5
B24F
102
{ACAD_XDICTIONARY
360
B2AA
102
}
102
{ACAD_REACTORS
330
B24E
102
}
330
B24E
100
AcDbModelDocViewStyle
 70
     0
  3
Imperial24
290
     0
100
AcDbDetailViewStyle
 70
     0
 71
     0
 90
        3
 71
     1
340
AE74
 40
0.24
340
0
 40
0.24
300

 40
0.36
280
     3
 71
     2
340
AE78
 90
       25
 71
     3
340
AE74
 40
0.24
 90
        1
 40
0.75
 90
        1
300
%<\AcVar ViewType \f "%tc1">% %<\AcVar ViewDetailId>%\PSCALE %<\AcVar ViewScale \f "%sn">%
 71
     4
340
AE78
 90
       25
340
AE78
 90
       25
280
     0
  0
LAYOUT
  5
B250
102
{ACAD_XDICTIONARY
360
B2AC
102
}
102
{ACAD_REACTORS
330
AE7C
102
}
330
AE7C
100
AcDbPlotSettings
  1

  2
Canon LBP9100C
  4

  6

 40
0.0
 41
0.0
 42
0.0
 43
0.0
 44
0.0
 45
0.0
 46
0.0
 47
0.0
 48
0.0
 49
0.0
140
0.0
141
0.0
142
1.0
143
1.0
 70
  1712
 72
     0
 73
     0
 74
     0
  7

 75
     0
147
1.0
148
0.0
149
0.0
100
AcDbLayout
  1
Model
 70
     1
 71
     0
 10
0.0
 20
0.0
 11
12.0
 21
9.0
 12
0.0
 22
0.0
 32
0.0
 14
0.0
 24
0.0
 34
0.0
 15
0.0
 25
0.0
 35
0.0
146
0.0
 13
0.0
 23
0.0
 33
0.0
 16
1.0
 26
0.0
 36
0.0
 17
0.0
 27
1.0
 37
0.0
 76
     0
330
AE81
331
B1F9
  0
LAYOUT
  5
B251
102
{ACAD_XDICTIONARY
360
B2AE
102
}
102
{ACAD_REACTORS
330
AE7C
102
}
330
AE7C
100
AcDbPlotSettings
  1

  2
Canon LBP9100C
  4

  6

 40
0.0
 41
0.0
 42
0.0
 43
0.0
 44
0.0
 45
0.0
 46
0.0
 47
0.0
 48
0.0
 49
0.0
140
0.0
141
0.0
142
1.0
143
1.0
 70
   688
 72
     0
 73
     0
 74
     5
  7

 75
    16
147
1.0
148
0.0
149
0.0
100
AcDbLayout
  1
レイアウト1
 70
     0
 71
     1
 10
0.0
 20
0.0
 11
420.0
 21
297.0
 12
0.0
 22
0.0
 32
0.0
 14
1.000000000000000E+20
 24
1.000000000000000E+20
 34
1.000000000000000E+20
 15
-1.000000000000000E+20
 25
-1.000000000000000E+20
 35
-1.000000000000000E+20
146
0.0
 13
0.0
 23
0.0
 33
0.0
 16
1.0
 26
0.0
 36
0.0
 17
0.0
 27
1.0
 37
0.0
 76
     0
330
AE7D
  0
MATERIAL
  5
B20C
102
{ACAD_XDICTIONARY
360
B20D
102
}
102
{ACAD_REACTORS
330
B203
102
}
330
B203
100
AcDbMaterial
  1
ByBlock
 72
     0
 43
0.0208333333333333
 43
0.0
 43
0.0
 43
0.0
 43
0.0
 43
0.0208333333333333
 43
0.0
 43
0.0
 43
0.0
 43
0.0
 43
1.0
 43
0.0
 43
0.0
 43
0.0
 43
0.0
 43
1.0
 77
     0
 47
0.0208333333333333
 47
0.0
 47
0.0
 47
0.0
 47
0.0
 47
0.0208333333333333
 47
0.0
 47
0.0
 47
0.0
 47
0.0
 47
1.0
 47
0.0
 47
0.0
 47
0.0
 47
0.0
 47
1.0
171
     0
 49
0.0208333333333333
 49
0.0
 49
0.0
 49
0.0
 49
0.0
 49
0.0208333333333333
 49
0.0
 49
0.0
 49
0.0
 49
0.0
 49
1.0
 49
0.0
 49
0.0
 49
0.0
 49
0.0
 49
1.0
175
     0
142
0.0208333333333333
142
0.0
142
0.0
142
0.0
142
0.0
142
0.0208333333333333
142
0.0
142
0.0
142
0.0
142
0.0
142
1.0
142
0.0
142
0.0
142
0.0
142
0.0
142
1.0
179
     0
144
0.0208333333333333
144
0.0
144
0.0
144
0.0
144
0.0
144
0.0208333333333333
144
0.0
144
0.0
144
0.0
144
0.0
144
1.0
144
0.0
144
0.0
144
0.0
144
0.0
144
1.0
147
0.0208333333333333
147
0.0
147
0.0
147
0.0
147
0.0
147
0.0208333333333333
147
0.0
147
0.0
147
0.0
147
0.0
147
1.0
147
0.0
147
0.0
147
0.0
147
0.0
147
1.0
  0
MATERIAL
  5
B204
102
{ACAD_XDICTIONARY
360
B205
102
}
102
{ACAD_REACTORS
330
B203
102
}
330
B203
100
AcDbMaterial
  1
ByLayer
 72
     0
 43
0.0208333333333333
 43
0.0
 43
0.0
 43
0.0
 43
0.0
 43
0.0208333333333333
 43
0.0
 43
0.0
 43
0.0
 43
0.0
 43
1.0
 43
0.0
 43
0.0
 43
0.0
 43
0.0
 43
1.0
 77
     0
 47
0.0208333333333333
 47
0.0
 47
0.0
 47
0.0
 47
0.0
 47
0.0208333333333333
 47
0.0
 47
0.0
 47
0.0
 47
0.0
 47
1.0
 47
0.0
 47
0.0
 47
0.0
 47
0.0
 47
1.0
171
     0
 49
0.0208333333333333
 49
0.0
 49
0.0
 49
0.0
 49
0.0
 49
0.0208333333333333
 49
0.0
 49
0.0
 49
0.0
 49
0.0
 49
1.0
 49
0.0
 49
0.0
 49
0.0
 49
0.0
 49
1.0
175
     0
142
0.0208333333333333
142
0.0
142
0.0
142
0.0
142
0.0
142
0.0208333333333333
142
0.0
142
0.0
142
0.0
142
0.0
142
1.0
142
0.0
142
0.0
142
0.0
142
0.0
142
1.0
179
     0
144
0.0208333333333333
144
0.0
144
0.0
144
0.0
144
0.0
144
0.0208333333333333
144
0.0
144
0.0
144
0.0
144
0.0
144
1.0
144
0.0
144
0.0
144
0.0
144
0.0
144
1.0
147
0.0208333333333333
147
0.0
147
0.0
147
0.0
147
0.0
147
0.0208333333333333
147
0.0
147
0.0
147
0.0
147
0.0
147
1.0
147
0.0
147
0.0
147
0.0
147
0.0
147
1.0
  0
MATERIAL
  5
B214
102
{ACAD_XDICTIONARY
360
B215
102
}
102
{ACAD_REACTORS
330
B203
102
}
330
B203
100
AcDbMaterial
  1
Global
 72
     0
 43
0.0208333333333333
 43
0.0
 43
0.0
 43
0.0
 43
0.0
 43
0.0208333333333333
 43
0.0
 43
0.0
 43
0.0
 43
0.0
 43
1.0
 43
0.0
 43
0.0
 43
0.0
 43
0.0
 43
1.0
 77
     0
 47
0.0208333333333333
 47
0.0
 47
0.0
 47
0.0
 47
0.0
 47
0.0208333333333333
 47
0.0
 47
0.0
 47
0.0
 47
0.0
 47
1.0
 47
0.0
 47
0.0
 47
0.0
 47
0.0
 47
1.0
171
     0
 49
0.0208333333333333
 49
0.0
 49
0.0
 49
0.0
 49
0.0
 49
0.0208333333333333
 49
0.0
 49
0.0
 49
0.0
 49
0.0
 49
1.0
 49
0.0
 49
0.0
 49
0.0
 49
0.0
 49
1.0
175
     0
142
0.0208333333333333
142
0.0
142
0.0
142
0.0
142
0.0
142
0.0208333333333333
142
0.0
142
0.0
142
0.0
142
0.0
142
1.0
142
0.0
142
0.0
142
0.0
142
0.0
142
1.0
179
     0
144
0.0208333333333333
144
0.0
144
0.0
144
0.0
144
0.0
144
0.0208333333333333
144
0.0
144
0.0
144
0.0
144
0.0
144
1.0
144
0.0
144
0.0
144
0.0
144
0.0
144
1.0
147
0.0208333333333333
147
0.0
147
0.0
147
0.0
147
0.0
147
0.0208333333333333
147
0.0
147
0.0
147
0.0
147
0.0
147
1.0
147
0.0
147
0.0
147
0.0
147
0.0
147
1.0
  0
MLEADERSTYLE
  5
B24B
102
{ACAD_REACTORS
330
B24A
102
}
330
B24A
100
AcDbMLeaderStyle
170
     2
171
     1
172
     0
 90
        2
 40
0.0
 41
0.0
173
     1
 91
-1056964608
340
AE76
 92
       -2
290
     1
 42
0.09
291
     1
 43
0.36
  3
Standard
 44
0.18
300

342
AE74
174
     1
178
     6
175
     1
176
     0
 93
-1056964608
 45
0.18
292
     0
297
     0
 46
0.18
 94
-1056964608
 47
1.0
 49
1.0
140
1.0
293
     1
141
0.0
294
     1
177
     0
142
1.0
295
     0
296
     0
143
0.125
1001
ACAD_MLEADERVER
1070
     2
  0
MLINESTYLE
  5
AE7A
102
{ACAD_REACTORS
330
AE79
102
}
330
AE79
100
AcDbMlineStyle
  2
STANDARD
 70
     0
  3

 62
   256
 51
90.0
 52
90.0
 71
     2
 49
0.5
 62
   256
  6
BYLAYER
 49
-0.5
 62
   256
  6
BYLAYER
  0
ACDBPLACEHOLDER
  5
B202
102
{ACAD_REACTORS
330
B201
102
}
330
B201
  0
SCALE
  5
B239
102
{ACAD_REACTORS
330
B238
102
}
330
B238
100
AcDbScale
 70
     0
300
1:1
140
1.0
141
1.0
290
     1
  0
SCALE
  5
B23A
102
{ACAD_REACTORS
330
B238
102
}
330
B238
100
AcDbScale
 70
     0
300
1/128" = 1'-0"
140
0.0078125
141
12.0
290
     0
  0
SCALE
  5
B23B
102
{ACAD_REACTORS
330
B238
102
}
330
B238
100
AcDbScale
 70
     0
300
1/64" = 1'-0"
140
0.015625
141
12.0
290
     0
  0
SCALE
  5
B23C
102
{ACAD_REACTORS
330
B238
102
}
330
B238
100
AcDbScale
 70
     0
300
1/32" = 1'-0"
140
0.03125
141
12.0
290
     0
  0
SCALE
  5
B23D
102
{ACAD_REACTORS
330
B238
102
}
330
B238
100
AcDbScale
 70
     0
300
1/16" = 1'-0"
140
0.0625
141
12.0
290
     0
  0
SCALE
  5
B23E
102
{ACAD_REACTORS
330
B238
102
}
330
B238
100
AcDbScale
 70
     0
300
3/32" = 1'-0"
140
0.09375
141
12.0
290
     0
  0
SCALE
  5
B23F
102
{ACAD_REACTORS
330
B238
102
}
330
B238
100
AcDbScale
 70
     0
300
1/8" = 1'-0"
140
0.125
141
12.0
290
     0
  0
SCALE
  5
B240
102
{ACAD_REACTORS
330
B238
102
}
330
B238
100
AcDbScale
 70
     0
300
3/16" = 1'-0"
140
0.1875
141
12.0
290
     0
  0
SCALE
  5
B241
102
{ACAD_REACTORS
330
B238
102
}
330
B238
100
AcDbScale
 70
     0
300
1/4" = 1'-0"
140
0.25
141
12.0
290
     0
  0
SCALE
  5
B242
102
{ACAD_REACTORS
330
B238
102
}
330
B238
100
AcDbScale
 70
     0
300
3/8" = 1'-0"
140
0.375
141
12.0
290
     0
  0
SCALE
  5
B243
102
{ACAD_REACTORS
330
B238
102
}
330
B238
100
AcDbScale
 70
     0
300
1/2" = 1'-0"
140
0.5
141
12.0
290
     0
  0
SCALE
  5
B244
102
{ACAD_REACTORS
330
B238
102
}
330
B238
100
AcDbScale
 70
     0
300
3/4" = 1'-0"
140
0.75
141
12.0
290
     0
  0
SCALE
  5
B245
102
{ACAD_REACTORS
330
B238
102
}
330
B238
100
AcDbScale
 70
     0
300
1" = 1'-0"
140
1.0
141
12.0
290
     0
  0
SCALE
  5
B246
102
{ACAD_REACTORS
330
B238
102
}
330
B238
100
AcDbScale
 70
     0
300
1-1/2" = 1'-0"
140
1.5
141
12.0
290
     0
  0
SCALE
  5
B247
102
{ACAD_REACTORS
330
B238
102
}
330
B238
100
AcDbScale
 70
     0
300
3" = 1'-0"
140
3.0
141
12.0
290
     0
  0
SCALE
  5
B248
102
{ACAD_REACTORS
330
B238
102
}
330
B238
100
AcDbScale
 70
     0
300
6" = 1'-0"
140
6.0
141
12.0
290
     0
  0
SCALE
  5
B249
102
{ACAD_REACTORS
330
B238
102
}
330
B238
100
AcDbScale
 70
     0
300
1'-0" = 1'-0"
140
12.0
141
12.0
290
     0
  0
ACDBSECTIONVIEWSTYLE
  5
B24D
102
{ACAD_XDICTIONARY
360
B2A8
102
}
102
{ACAD_REACTORS
330
B24C
102
}
330
B24C
100
AcDbModelDocViewStyle
 70
     0
  3
Imperial24
290
     0
100
AcDbSectionViewStyle
 70
     0
 71
     0
 90
       78
 71
     1
340
AE74
 40
0.24
340
0
340
0
 40
0.24
300
I, O, Q, S, X, Z
 40
0.48
 90
        3
 40
0.18
 90
        1
 71
     2
340
AE78
 90
       25
340
AE78
 90
       50
 40
0.24
 40
0.0
 40
0.24
 71
     3
340
AE74
 40
0.24
 90
        1
 40
0.75
 90
        1
300
%<\AcVar ViewType \f "%tc1">% %<\AcVar ViewSectionStartId>%-%<\AcVar ViewSectionEndId>%\PSCALE %<\AcVar ViewScale \f "%sn">%
 71
     4
300
ANSI31
 40
1.0
 90
        0
290
     0
290
     0
 90
        6
 40
0.0
 40
1.570796326794896
 40
0.2617993877991494
 40
1.308996938995747
 40
-0.2617993877991494
 40
1.832595714594046
  0
TABLESTYLE
  5
B237
102
{ACAD_XDICTIONARY
360
B26F
102
}
102
{ACAD_REACTORS
330
B236
102
}
330
B236
100
AcDbTableStyle
  3
Standard
 70
     0
 71
     0
 40
0.06
 41
0.06
280
     0
281
     0
  7
STANDARD
140
0.18
170
     2
 62
     0
 63
     7
283
     0
274
    -2
284
     1
 64
     0
275
    -2
285
     1
 65
     0
276
    -2
286
     1
 66
     0
277
    -2
287
     1
 67
     0
278
    -2
288
     1
 68
     0
279
    -2
289
     1
 69
     0
  7
STANDARD
140
0.25
170
     5
 62
     0
 63
     7
283
     0
274
    -2
284
     1
 64
     0
275
    -2
285
     1
 65
     0
276
    -2
286
     1
 66
     0
277
    -2
287
     1
 67
     0
278
    -2
288
     1
 68
     0
279
    -2
289
     1
 69
     0
  7
STANDARD
140
0.18
170
     5
 62
     0
 63
     7
283
     0
274
    -2
284
     1
 64
     0
275
    -2
285
     1
 65
     0
276
    -2
286
     1
 66
     0
277
    -2
287
     1
 67
     0
278
    -2
288
     1
 68
     0
279
    -2
289
     1
 69
     0
  0
VISUALSTYLE
  5
B222
102
{ACAD_XDICTIONARY
360
B280
102
}
102
{ACAD_REACTORS
330
B21C
102
}
330
B21C
100
AcDbVisualStyle
  2
2dWireframe
 70
     4
 71
     0
 72
     2
 73
     0
 90
        0
 40
-0.6
 41
-30.0
 62
     5
 63
     7
 74
     1
 91
        4
 64
     7
 65
   257
 75
     1
175
     1
 42
1.0
 92
        0
 66
   257
 43
1.0
 76
     1
 77
     6
 78
     2
 67
     7
 79
     5
170
     0
171
     0
290
     0
174
     0
 93
        1
 44
0.0
173
     0
291
     0
 45
0.0
1001
ACAD
1000
AcDbSavedByObjectVersion
1070
     0
  0
VISUALSTYLE
  5
B221
102
{ACAD_XDICTIONARY
360
B27E
102
}
102
{ACAD_REACTORS
330
B21C
102
}
330
B21C
100
AcDbVisualStyle
  2
Basic
 70
     7
 71
     1
 72
     0
 73
     1
 90
        0
 40
-0.6
 41
-30.0
 62
     5
 63
     7
 74
     0
 91
        4
 64
     7
 65
   257
 75
     1
175
     1
 42
1.0
 92
        8
 66
     7
 43
1.0
 76
     1
 77
     6
 78
     2
 67
     7
 79
     5
170
     0
171
     0
290
     0
174
     0
 93
        1
 44
0.0
173
     0
291
     1
 45
0.0
1001
ACAD
1000
AcDbSavedByObjectVersion
1070
     0
  0
VISUALSTYLE
  5
B228
102
{ACAD_XDICTIONARY
360
B28C
102
}
102
{ACAD_REACTORS
330
B21C
102
}
330
B21C
100
AcDbVisualStyle
  2
Brighten
 70
    12
 71
     2
 72
     2
 73
     0
 90
        0
 40
-0.6
 41
-30.0
 62
     5
 63
     7
 74
     1
 91
        4
 64
     7
 65
   257
 75
     1
175
     1
 42
1.0
 92
        8
 66
     7
 43
1.0
 76
     1
 77
     6
 78
     2
 67
     7
 79
     5
170
     0
171
     0
290
     0
174
     0
 93
        1
 44
50.0
173
     0
291
     1
 45
0.0
1001
ACAD
1000
AcDbSavedByObjectVersion
1070
     0
  0
VISUALSTYLE
  5
B22C
102
{ACAD_XDICTIONARY
360
B294
102
}
102
{ACAD_REACTORS
330
B21C
102
}
330
B21C
100
AcDbVisualStyle
  2
ColorChange
 70
    16
 71
     2
 72
     2
 73
     3
 90
        0
 40
-0.6
 41
-30.0
 62
     5
 63
     8
 74
     1
 91
        4
 64
     7
 65
   257
 75
     1
175
     1
 42
1.0
 92
        8
 66
     8
 43
1.0
 76
     1
 77
     6
 78
     2
 67
     7
 79
     5
170
     0
171
     0
290
     0
174
     0
 93
        1
 44
0.0
173
     0
291
     1
 45
0.0
1001
ACAD
1000
AcDbSavedByObjectVersion
1070
     0
  0
VISUALSTYLE
  5
B225
102
{ACAD_XDICTIONARY
360
B286
102
}
102
{ACAD_REACTORS
330
B21C
102
}
330
B21C
100
AcDbVisualStyle
  2
Conceptual
 70
     9
 71
     3
 72
     2
 73
     0
 90
        0
 40
-0.6
 41
-30.0
 62
     5
 63
     7
 74
     2
 91
        2
 64
     7
 65
   257
 75
     1
175
     1
 42
179.0
 92
        8
 66
     7
 43
1.0
 76
     1
 77
     6
 78
     2
 67
     7
 79
     3
170
     0
171
     0
290
     0
174
     0
 93
        1
 44
0.0
173
     0
291
     0
 45
0.0
1001
ACAD
1000
AcDbSavedByObjectVersion
1070
     0
  0
VISUALSTYLE
  5
B227
102
{ACAD_XDICTIONARY
360
B28A
102
}
102
{ACAD_REACTORS
330
B21C
102
}
330
B21C
100
AcDbVisualStyle
  2
Dim
 70
    11
 71
     2
 72
     2
 73
     0
 90
        0
 40
-0.6
 41
-30.0
 62
     5
 63
     7
 74
     1
 91
        4
 64
     7
 65
   257
 75
     1
175
     1
 42
1.0
 92
        8
 66
     7
 43
1.0
 76
     1
 77
     6
 78
     2
 67
     7
 79
     5
170
     0
171
     0
290
     0
174
     0
 93
        1
 44
-50.0
173
     0
291
     1
 45
0.0
1001
ACAD
1000
AcDbSavedByObjectVersion
1070
     0
  0
VISUALSTYLE
  5
B234
102
{ACAD_XDICTIONARY
360
B2A4
102
}
102
{ACAD_REACTORS
330
B21C
102
}
330
B21C
100
AcDbVisualStyle
  2
EdgeColorOff
 70
    22
 71
     2
 72
     2
 73
     0
 90
        0
 40
-0.6
 41
-30.0
 62
     5
 63
     7
 74
     1
 91
        4
 64
     7
 65
   257
 75
     1
175
     1
 42
1.0
 92
        8
 66
     7
 43
1.0
 76
     1
 77
     6
 78
     2
 67
     7
 79
     5
170
     0
171
     0
290
     0
174
     0
 93
        1
 44
0.0
173
     0
291
     1
 45
0.0
1001
ACAD
1000
AcDbSavedByObjectVersion
1070
     0
  0
VISUALSTYLE
  5
B22B
102
{ACAD_XDICTIONARY
360
B292
102
}
102
{ACAD_REACTORS
330
B21C
102
}
330
B21C
100
AcDbVisualStyle
  2
Facepattern
 70
    15
 71
     2
 72
     2
 73
     0
 90
        0
 40
-0.6
 41
-30.0
 62
     5
 63
     7
 74
     1
 91
        4
 64
     7
 65
   257
 75
     1
175
     1
 42
1.0
 92
        8
 66
     7
 43
1.0
 76
     1
 77
     6
 78
     2
 67
     7
 79
     5
170
     0
171
     0
290
     0
174
     0
 93
        1
 44
0.0
173
     0
291
     1
 45
0.0
1001
ACAD
1000
AcDbSavedByObjectVersion
1070
     0
  0
VISUALSTYLE
  5
B21D
102
{ACAD_XDICTIONARY
360
B276
102
}
102
{ACAD_REACTORS
330
B21C
102
}
330
B21C
100
AcDbVisualStyle
  2
Flat
 70
     0
 71
     2
 72
     1
 73
     1
 90
        2
 40
-0.6
 41
30.0
 62
     5
 63
     7
 74
     0
 91
        0
 64
     7
 65
   257
 75
     1
175
     1
 42
1.0
 92
        8
 66
     7
 43
1.0
 76
     1
 77
     6
 78
     2
 67
     7
 79
     5
170
     0
171
     0
290
     0
174
     0
 93
       13
 44
0.0
173
     0
291
     1
 45
0.0
1001
ACAD
1000
AcDbSavedByObjectVersion
1070
     0
  0
VISUALSTYLE
  5
B21E
102
{ACAD_XDICTIONARY
360
B278
102
}
102
{ACAD_REACTORS
330
B21C
102
}
330
B21C
100
AcDbVisualStyle
  2
FlatWithEdges
 70
     1
 71
     2
 72
     1
 73
     1
 90
        2
 40
-0.6
 41
30.0
 62
     5
 63
     7
 74
     1
 91
        0
 64
     7
 65
   257
 75
     1
175
     1
 42
1.0
 92
        0
 66
   257
 43
1.0
 76
     1
 77
     6
 78
     2
 67
     7
 79
     5
170
     0
171
     0
290
     0
174
     0
 93
       13
 44
0.0
173
     0
291
     1
 45
0.0
1001
ACAD
1000
AcDbSavedByObjectVersion
1070
     0
  0
VISUALSTYLE
  5
B21F
102
{ACAD_XDICTIONARY
360
B27A
102
}
102
{ACAD_REACTORS
330
B21C
102
}
330
B21C
100
AcDbVisualStyle
  2
Gouraud
 70
     2
 71
     2
 72
     2
 73
     1
 90
        2
 40
-0.6
 41
30.0
 62
     5
 63
     7
 74
     0
 91
        0
 64
     7
 65
   257
 75
     1
175
     1
 42
1.0
 92
        0
 66
     7
 43
1.0
 76
     1
 77
     6
 78
     2
 67
     7
 79
     5
170
     0
171
     0
290
     0
174
     0
 93
       13
 44
0.0
173
     0
291
     1
 45
0.0
1001
ACAD
1000
AcDbSavedByObjectVersion
1070
     0
  0
VISUALSTYLE
  5
B220
102
{ACAD_XDICTIONARY
360
B27C
102
}
102
{ACAD_REACTORS
330
B21C
102
}
330
B21C
100
AcDbVisualStyle
  2
GouraudWithEdges
 70
     3
 71
     2
 72
     2
 73
     1
 90
        2
 40
-0.6
 41
30.0
 62
     5
 63
     7
 74
     1
 91
        0
 64
     7
 65
   257
 75
     1
175
     1
 42
1.0
 92
        0
 66
   257
 43
1.0
 76
     1
 77
     6
 78
     2
 67
     7
 79
     5
170
     0
171
     0
290
     0
174
     0
 93
       13
 44
0.0
173
     0
291
     1
 45
0.0
1001
ACAD
1000
AcDbSavedByObjectVersion
1070
     0
  0
VISUALSTYLE
  5
B224
102
{ACAD_XDICTIONARY
360
B284
102
}
102
{ACAD_REACTORS
330
B21C
102
}
330
B21C
100
AcDbVisualStyle
  2
Hidden
 70
     6
 71
     1
 72
     2
 73
     2
 90
        0
 40
-0.6
 41
-30.0
 62
     5
 63
     7
 74
     2
 91
        2
 64
     7
 65
   257
 75
     2
175
     1
 42
40.0
 92
        0
 66
   257
 43
1.0
 76
     1
 77
     6
 78
     2
 67
     7
 79
     3
170
     0
171
     0
290
     0
174
     0
 93
        1
 44
0.0
173
     0
291
     0
 45
0.0
1001
ACAD
1000
AcDbSavedByObjectVersion
1070
     0
  0
VISUALSTYLE
  5
B232
102
{ACAD_XDICTIONARY
360
B2A0
102
}
102
{ACAD_REACTORS
330
B21C
102
}
330
B21C
100
AcDbVisualStyle
  2
JitterOff
 70
    20
 71
     2
 72
     2
 73
     0
 90
        0
 40
-0.6
 41
-30.0
 62
     5
 63
     7
 74
     1
 91
        4
 64
     7
 65
   257
 75
     1
175
     1
 42
1.0
 92
       10
 66
     7
 43
1.0
 76
     1
 77
     6
 78
     2
 67
     7
 79
     5
170
     0
171
     0
290
     0
174
     0
 93
        1
 44
0.0
173
     0
291
     1
 45
0.0
1001
ACAD
1000
AcDbSavedByObjectVersion
1070
     0
  0
VISUALSTYLE
  5
B22A
102
{ACAD_XDICTIONARY
360
B290
102
}
102
{ACAD_REACTORS
330
B21C
102
}
330
B21C
100
AcDbVisualStyle
  2
Linepattern
 70
    14
 71
     2
 72
     2
 73
     0
 90
        0
 40
-0.6
 41
-30.0
 62
     5
 63
     7
 74
     1
 91
        4
 64
     7
 65
   257
 75
     7
175
     7
 42
1.0
 92
        8
 66
     7
 43
1.0
 76
     1
 77
     6
 78
     2
 67
     7
 79
     5
170
     0
171
     0
290
     0
174
     0
 93
        1
 44
0.0
173
     0
291
     1
 45
0.0
1001
ACAD
1000
AcDbSavedByObjectVersion
1070
     0
  0
VISUALSTYLE
  5
B233
102
{ACAD_XDICTIONARY
360
B2A2
102
}
102
{ACAD_REACTORS
330
B21C
102
}
330
B21C
100
AcDbVisualStyle
  2
OverhangOff
 70
    21
 71
     2
 72
     2
 73
     0
 90
        0
 40
-0.6
 41
-30.0
 62
     5
 63
     7
 74
     1
 91
        4
 64
     7
 65
   257
 75
     1
175
     1
 42
1.0
 92
        9
 66
     7
 43
1.0
 76
     1
 77
     6
 78
     2
 67
     7
 79
     5
170
     0
171
     0
290
     0
174
     0
 93
        1
 44
0.0
173
     0
291
     1
 45
0.0
1001
ACAD
1000
AcDbSavedByObjectVersion
1070
     0
  0
VISUALSTYLE
  5
B226
102
{ACAD_XDICTIONARY
360
B288
102
}
102
{ACAD_REACTORS
330
B21C
102
}
330
B21C
100
AcDbVisualStyle
  2
Realistic
 70
     8
 71
     2
 72
     3
 73
     0
 90
        2
 40
-0.6
 41
30.0
 62
     5
 63
     7
 74
     0
 91
        0
 64
     7
 65
   257
 75
     1
175
     1
 42
1.0
 92
        8
 66
   257
 43
1.0
 76
     1
 77
     6
 78
     2
 67
     7
 79
     3
170
     0
171
     0
290
     0
174
     0
 93
       13
 44
0.0
173
     0
291
     0
 45
0.0
1001
ACAD
1000
AcDbSavedByObjectVersion
1070
     0
  0
VISUALSTYLE
  5
B231
102
{ACAD_XDICTIONARY
360
B29E
102
}
102
{ACAD_REACTORS
330
B21C
102
}
330
B21C
100
AcDbVisualStyle
  2
Shaded
 70
    27
 71
     2
 72
     2
 73
     1
 90
        2
 40
-0.6
 41
30.0
 62
     5
 63
     7
 74
     0
 91
        4
 64
     7
 65
   257
 75
     1
175
     1
 42
1.0
 92
        8
 66
   257
 43
1.0
 76
     1
 77
     6
 78
     2
 67
     8
 79
     3
170
     0
171
     0
290
     0
174
     0
 93
        5
 44
0.0
173
     0
291
     0
 45
0.0
1001
ACAD
1000
AcDbSavedByObjectVersion
1070
     0
  0
VISUALSTYLE
  5
B230
102
{ACAD_XDICTIONARY
360
B29C
102
}
102
{ACAD_REACTORS
330
B21C
102
}
330
B21C
100
AcDbVisualStyle
  2
Shaded with edges
 70
    26
 71
     2
 72
     2
 73
     1
 90
        2
 40
-0.6
 41
30.0
 62
     5
 63
     7
 74
     1
 91
       10
 64
     7
 65
   257
 75
     2
175
     1
 42
1.0
 92
        8
 66
   257
 43
1.0
 76
     1
 77
     6
 78
     2
 67
     7
 79
     3
170
     0
171
     0
290
     0
174
     0
 93
        5
 44
0.0
173
     0
291
     0
 45
0.0
1001
ACAD
1000
AcDbSavedByObjectVersion
1070
     0
  0
VISUALSTYLE
  5
B22D
102
{ACAD_XDICTIONARY
360
B296
102
}
102
{ACAD_REACTORS
330
B21C
102
}
330
B21C
100
AcDbVisualStyle
  2
Shades of Gray
 70
    23
 71
     2
 72
     2
 73
     3
 90
        0
 40
-0.6
 41
-30.0
 62
     5
 63
     7
 74
     2
 91
        2
 64
     7
 65
     7
 75
     1
175
     1
 42
40.0
 92
        8
 66
     7
 43
1.0
 76
     1
 77
     6
 78
     2
 67
     7
 79
     3
170
     0
171
     0
290
     0
174
     0
 93
        1
 44
0.0
173
     0
291
     0
 45
0.0
1001
ACAD
1000
AcDbSavedByObjectVersion
1070
     0
  0
VISUALSTYLE
  5
B22E
102
{ACAD_XDICTIONARY
360
B298
102
}
102
{ACAD_REACTORS
330
B21C
102
}
330
B21C
100
AcDbVisualStyle
  2
Sketchy
 70
    24
 71
     1
 72
     2
 73
     2
 90
        0
 40
-0.6
 41
-30.0
 62
     5
 63
     7
 74
     2
 91
        2
 64
     7
 65
     7
 75
     1
175
     1
 42
40.0
 92
       11
 66
     7
 43
1.0
 76
     1
 77
     6
 78
     2
 67
     7
 79
     6
170
     0
171
     0
290
     0
174
     0
 93
        1
 44
0.0
173
     0
291
     0
 45
0.0
1001
ACAD
1000
AcDbSavedByObjectVersion
1070
     0
  0
VISUALSTYLE
  5
B229
102
{ACAD_XDICTIONARY
360
B28E
102
}
102
{ACAD_REACTORS
330
B21C
102
}
330
B21C
100
AcDbVisualStyle
  2
Thicken
 70
    13
 71
     2
 72
     2
 73
     0
 90
        0
 40
-0.6
 41
-30.0
 62
     5
 63
     7
 74
     1
 91
        4
 64
     7
 65
   257
 75
     1
175
     1
 42
1.0
 92
       12
 66
     7
 43
1.0
 76
     1
 77
     6
 78
     2
 67
     7
 79
     5
170
     0
171
     0
290
     0
174
     0
 93
        1
 44
0.0
173
     0
291
     1
 45
0.0
1001
ACAD
1000
AcDbSavedByObjectVersion
1070
     0
  0
VISUALSTYLE
  5
B223
102
{ACAD_XDICTIONARY
360
B282
102
}
102
{ACAD_REACTORS
330
B21C
102
}
330
B21C
100
AcDbVisualStyle
  2
Wireframe
 70
     5
 71
     0
 72
     2
 73
     0
 90
        0
 40
-0.6
 41
-30.0
 62
     5
 63
     7
 74
     1
 91
        4
 64
     7
 65
   257
 75
     1
175
     1
 42
1.0
 92
        0
 66
   257
 43
1.0
 76
     1
 77
     6
 78
     2
 67
     7
 79
     3
170
     0
171
     0
290
     0
174
     0
 93
        1
 44
0.0
173
     0
291
     0
 45
0.0
1001
ACAD
1000
AcDbSavedByObjectVersion
1070
     0
  0
VISUALSTYLE
  5
B22F
102
{ACAD_XDICTIONARY
360
B29A
102
}
102
{ACAD_REACTORS
330
B21C
102
}
330
B21C
100
AcDbVisualStyle
  2
X-Ray
 70
    25
 71
     2
 72
     2
 73
     1
 90
        1
 40
0.5
 41
-30.0
 62
     5
 63
     7
 74
     1
 91
        0
 64
     7
 65
   257
 75
     1
175
     1
 42
1.0
 92
        8
 66
     7
 43
1.0
 76
     1
 77
     6
 78
     2
 67
     7
 79
     3
170
     0
171
     0
290
     0
174
     0
 93
       13
 44
0.0
173
     0
291
     0
 45
0.0
1001
ACAD
1000
AcDbSavedByObjectVersion
1070
     0
  0
DICTIONARYVAR
  5
B269
102
{ACAD_REACTORS
330
B264
102
}
330
B264
100
DictionaryVariables
280
     0
  1
1:1
  0
DICTIONARYVAR
  5
B266
102
{ACAD_REACTORS
330
B264
102
}
330
B264
100
DictionaryVariables
280
     0
  1
STANDARD
  0
DICTIONARYVAR
  5
B265
102
{ACAD_REACTORS
330
B264
102
}
330
B264
100
DictionaryVariables
280
     0
  1
STANDARD
  0
DICTIONARYVAR
  5
B267
102
{ACAD_REACTORS
330
B264
102
}
330
B264
100
DictionaryVariables
280
     0
  1
Imperial24
  0
DICTIONARYVAR
  5
B268
102
{ACAD_REACTORS
330
B264
102
}
330
B264
100
DictionaryVariables
280
     0
  1
Imperial24
  0
DICTIONARYVAR
  5
B26C
102
{ACAD_REACTORS
330
B264
102
}
330
B264
100
DictionaryVariables
280
     0
  1
1
  0
DICTIONARYVAR
  5
B26B
102
{ACAD_REACTORS
330
B264
102
}
330
B264
100
DictionaryVariables
280
     0
  1
0
  0
DICTIONARYVAR
  5
B26A
102
{ACAD_REACTORS
330
B264
102
}
330
B264
100
DictionaryVariables
280
     0
  1
127
  0
DICTIONARYVAR
  5
B26D
102
{ACAD_REACTORS
330
B264
102
}
330
B264
100
DictionaryVariables
280
     0
  1
2
  0
DICTIONARY
  5
B2AA
330
B24F
100
AcDbDictionary
280
     1
281
     1
  3
ACAD_XREC_ROUNDTRIP
360
B2AB
  0
DICTIONARY
  5
B2AC
330
B250
100
AcDbDictionary
280
     1
281
     1
  3
ACAD_XREC_ROUNDTRIP
360
B2AD
  0
DICTIONARY
  5
B2AE
330
B251
100
AcDbDictionary
280
     1
281
     1
  3
ACAD_XREC_ROUNDTRIP
360
B2AF
  0
DICTIONARY
  5
B20D
330
B20C
100
AcDbDictionary
280
     1
281
     1
  3
ACAD_XREC_ROUNDTRIP
360
B274
  3
BUMPTILE
360
B20F
  3
DIFFUSETILE
360
B20E
  3
OPACITYTILE
360
B212
  3
REFLECTIONTILE
360
B211
  3
REFRACTIONTILE
360
B213
  3
SPECULARTILE
360
B210
  0
DICTIONARY
  5
B205
330
B204
100
AcDbDictionary
280
     1
281
     1
  3
ACAD_XREC_ROUNDTRIP
360
B273
  3
BUMPTILE
360
B207
  3
DIFFUSETILE
360
B206
  3
OPACITYTILE
360
B20A
  3
REFLECTIONTILE
360
B209
  3
REFRACTIONTILE
360
B20B
  3
SPECULARTILE
360
B208
  0
DICTIONARY
  5
B215
330
B214
100
AcDbDictionary
280
     1
281
     1
  3
ACAD_XREC_ROUNDTRIP
360
B275
  3
BUMPTILE
360
B217
  3
DIFFUSETILE
360
B216
  3
OPACITYTILE
360
B21A
  3
REFLECTIONTILE
360
B219
  3
REFRACTIONTILE
360
B21B
  3
SPECULARTILE
360
B218
  0
DICTIONARY
  5
B2A8
330
B24D
100
AcDbDictionary
280
     1
281
     1
  3
ACAD_XREC_ROUNDTRIP
360
B2A9
  0
DICTIONARY
  5
B26F
330
B237
100
AcDbDictionary
280
     1
281
     1
  3
ACAD_ROUNDTRIP_2008_TABLESTYLE_CELLSTYLEMAP
360
B270
  3
ACAD_XREC_ROUNDTRIP
360
B2A6
  0
DICTIONARY
  5
B280
330
B222
100
AcDbDictionary
280
     1
281
     1
  3
ACAD_XREC_ROUNDTRIP
360
B281
  0
DICTIONARY
  5
B27E
330
B221
100
AcDbDictionary
280
     1
281
     1
  3
ACAD_XREC_ROUNDTRIP
360
B27F
  0
DICTIONARY
  5
B28C
330
B228
100
AcDbDictionary
280
     1
281
     1
  3
ACAD_XREC_ROUNDTRIP
360
B28D
  0
DICTIONARY
  5
B294
330
B22C
100
AcDbDictionary
280
     1
281
     1
  3
ACAD_XREC_ROUNDTRIP
360
B295
  0
DICTIONARY
  5
B286
330
B225
100
AcDbDictionary
280
     1
281
     1
  3
ACAD_XREC_ROUNDTRIP
360
B287
  0
DICTIONARY
  5
B28A
330
B227
100
AcDbDictionary
280
     1
281
     1
  3
ACAD_XREC_ROUNDTRIP
360
B28B
  0
DICTIONARY
  5
B2A4
330
B234
100
AcDbDictionary
280
     1
281
     1
  3
ACAD_XREC_ROUNDTRIP
360
B2A5
  0
DICTIONARY
  5
B292
330
B22B
100
AcDbDictionary
280
     1
281
     1
  3
ACAD_XREC_ROUNDTRIP
360
B293
  0
DICTIONARY
  5
B276
330
B21D
100
AcDbDictionary
280
     1
281
     1
  3
ACAD_XREC_ROUNDTRIP
360
B277
  0
DICTIONARY
  5
B278
330
B21E
100
AcDbDictionary
280
     1
281
     1
  3
ACAD_XREC_ROUNDTRIP
360
B279
  0
DICTIONARY
  5
B27A
330
B21F
100
AcDbDictionary
280
     1
281
     1
  3
ACAD_XREC_ROUNDTRIP
360
B27B
  0
DICTIONARY
  5
B27C
330
B220
100
AcDbDictionary
280
     1
281
     1
  3
ACAD_XREC_ROUNDTRIP
360
B27D
  0
DICTIONARY
  5
B284
330
B224
100
AcDbDictionary
280
     1
281
     1
  3
ACAD_XREC_ROUNDTRIP
360
B285
  0
DICTIONARY
  5
B2A0
330
B232
100
AcDbDictionary
280
     1
281
     1
  3
ACAD_XREC_ROUNDTRIP
360
B2A1
  0
DICTIONARY
  5
B290
330
B22A
100
AcDbDictionary
280
     1
281
     1
  3
ACAD_XREC_ROUNDTRIP
360
B291
  0
DICTIONARY
  5
B2A2
330
B233
100
AcDbDictionary
280
     1
281
     1
  3
ACAD_XREC_ROUNDTRIP
360
B2A3
  0
DICTIONARY
  5
B288
330
B226
100
AcDbDictionary
280
     1
281
     1
  3
ACAD_XREC_ROUNDTRIP
360
B289
  0
DICTIONARY
  5
B29E
330
B231
100
AcDbDictionary
280
     1
281
     1
  3
ACAD_XREC_ROUNDTRIP
360
B29F
  0
DICTIONARY
  5
B29C
330
B230
100
AcDbDictionary
280
     1
281
     1
  3
ACAD_XREC_ROUNDTRIP
360
B29D
  0
DICTIONARY
  5
B296
330
B22D
100
AcDbDictionary
280
     1
281
     1
  3
ACAD_XREC_ROUNDTRIP
360
B297
  0
DICTIONARY
  5
B298
330
B22E
100
AcDbDictionary
280
     1
281
     1
  3
ACAD_XREC_ROUNDTRIP
360
B299
  0
DICTIONARY
  5
B28E
330
B229
100
AcDbDictionary
280
     1
281
     1
  3
ACAD_XREC_ROUNDTRIP
360
B28F
  0
DICTIONARY
  5
B282
330
B223
100
AcDbDictionary
280
     1
281
     1
  3
ACAD_XREC_ROUNDTRIP
360
B283
  0
DICTIONARY
  5
B29A
330
B22F
100
AcDbDictionary
280
     1
281
     1
  3
ACAD_XREC_ROUNDTRIP
360
B29B
  0
XRECORD
  5
B2AB
102
{ACAD_REACTORS
330
B2AA
102
}
330
B2AA
100
AcDbXrecord
280
     1
102
DISPLAYNAME
  1
Imperial24
102
FLAGS
 90
        0
  0
XRECORD
  5
B2AD
102
{ACAD_REACTORS
330
B2AC
102
}
330
B2AC
100
AcDbXrecord
280
     1
102
SHADEPLOT
 70
     0
102
SHADEPLOTRESLEVEL
 70
     2
102
SHADEPLOTCUSTOMDPI
 70
   300
  0
XRECORD
  5
B2AF
102
{ACAD_REACTORS
330
B2AE
102
}
330
B2AE
100
AcDbXrecord
280
     1
102
SHADEPLOT
 70
     0
102
SHADEPLOTRESLEVEL
 70
     2
102
SHADEPLOTCUSTOMDPI
 70
   300
  0
XRECORD
  5
B274
102
{ACAD_REACTORS
330
B20D
102
}
330
B20D
100
AcDbXrecord
280
     1
102
MATERIAL
148
0.0
149
0.0
149
0.0
 93
        0
 94
      127
282
     0
 72
     0
 77
     0
171
     0
175
     0
179
     0
273
     0
  0
XRECORD
  5
B20F
102
{ACAD_REACTORS
330
B20D
102
}
330
B20D
100
AcDbXrecord
280
     1
270
     1
271
     1
  0
XRECORD
  5
B20E
102
{ACAD_REACTORS
330
B20D
102
}
330
B20D
100
AcDbXrecord
280
     1
270
     1
271
     1
  0
XRECORD
  5
B212
102
{ACAD_REACTORS
330
B20D
102
}
330
B20D
100
AcDbXrecord
280
     1
270
     1
271
     1
  0
XRECORD
  5
B211
102
{ACAD_REACTORS
330
B20D
102
}
330
B20D
100
AcDbXrecord
280
     1
270
     1
271
     1
  0
XRECORD
  5
B213
102
{ACAD_REACTORS
330
B20D
102
}
330
B20D
100
AcDbXrecord
280
     1
270
     1
271
     1
  0
XRECORD
  5
B210
102
{ACAD_REACTORS
330
B20D
102
}
330
B20D
100
AcDbXrecord
280
     1
270
     1
271
     1
  0
XRECORD
  5
B273
102
{ACAD_REACTORS
330
B205
102
}
330
B205
100
AcDbXrecord
280
     1
102
MATERIAL
148
0.0
149
0.0
149
0.0
 93
        0
 94
      127
282
     0
 72
     0
 77
     0
171
     0
175
     0
179
     0
273
     0
  0
XRECORD
  5
B207
102
{ACAD_REACTORS
330
B205
102
}
330
B205
100
AcDbXrecord
280
     1
270
     1
271
     1
  0
XRECORD
  5
B206
102
{ACAD_REACTORS
330
B205
102
}
330
B205
100
AcDbXrecord
280
     1
270
     1
271
     1
  0
XRECORD
  5
B20A
102
{ACAD_REACTORS
330
B205
102
}
330
B205
100
AcDbXrecord
280
     1
270
     1
271
     1
  0
XRECORD
  5
B209
102
{ACAD_REACTORS
330
B205
102
}
330
B205
100
AcDbXrecord
280
     1
270
     1
271
     1
  0
XRECORD
  5
B20B
102
{ACAD_REACTORS
330
B205
102
}
330
B205
100
AcDbXrecord
280
     1
270
     1
271
     1
  0
XRECORD
  5
B208
102
{ACAD_REACTORS
330
B205
102
}
330
B205
100
AcDbXrecord
280
     1
270
     1
271
     1
  0
XRECORD
  5
B275
102
{ACAD_REACTORS
330
B215
102
}
330
B215
100
AcDbXrecord
280
     1
102
MATERIAL
148
0.0
149
0.0
149
0.0
 93
        0
 94
      127
282
     0
 72
     0
 77
     0
171
     0
175
     0
179
     0
273
     0
  0
XRECORD
  5
B217
102
{ACAD_REACTORS
330
B215
102
}
330
B215
100
AcDbXrecord
280
     1
270
     1
271
     1
  0
XRECORD
  5
B216
102
{ACAD_REACTORS
330
B215
102
}
330
B215
100
AcDbXrecord
280
     1
270
     1
271
     1
  0
XRECORD
  5
B21A
102
{ACAD_REACTORS
330
B215
102
}
330
B215
100
AcDbXrecord
280
     1
270
     1
271
     1
  0
XRECORD
  5
B219
102
{ACAD_REACTORS
330
B215
102
}
330
B215
100
AcDbXrecord
280
     1
270
     1
271
     1
  0
XRECORD
  5
B21B
102
{ACAD_REACTORS
330
B215
102
}
330
B215
100
AcDbXrecord
280
     1
270
     1
271
     1
  0
XRECORD
  5
B218
102
{ACAD_REACTORS
330
B215
102
}
330
B215
100
AcDbXrecord
280
     1
270
     1
271
     1
  0
XRECORD
  5
B2A9
102
{ACAD_REACTORS
330
B2A8
102
}
330
B2A8
100
AcDbXrecord
280
     1
102
DISPLAYNAME
  1
Imperial24
102
FLAGS
 90
        0
  0
CELLSTYLEMAP
  5
B270
102
{ACAD_REACTORS
330
B26F
102
}
330
B26F
100
AcDbCellStyleMap
 90
        3
300
CELLSTYLE
  1
TABLEFORMAT_BEGIN
 90
        5
170
     1
 91
        0
 92
    32768
 62
   257
 93
        1
300
CONTENTFORMAT
  1
CONTENTFORMAT_BEGIN
 90
        0
 91
        0
 92
      512
 93
        0
300

 40
0.0
140
1.0
 94
        5
 62
     0
340
AE74
144
0.25
309
CONTENTFORMAT_END
171
     0
 94
        0
309
TABLEFORMAT_END
  1
CELLSTYLE_BEGIN
 90
        1
 91
        1
300
_TITLE
309
CELLSTYLE_END
300
CELLSTYLE
  1
TABLEFORMAT_BEGIN
 90
        5
170
     1
 91
        0
 92
        0
 62
   257
 93
        1
300
CONTENTFORMAT
  1
CONTENTFORMAT_BEGIN
 90
        0
 91
        0
 92
      512
 93
        0
300

 40
0.0
140
1.0
 94
        5
 62
     0
340
AE74
144
0.18
309
CONTENTFORMAT_END
171
     0
 94
        0
309
TABLEFORMAT_END
  1
CELLSTYLE_BEGIN
 90
        2
 91
        1
300
_HEADER
309
CELLSTYLE_END
300
CELLSTYLE
  1
TABLEFORMAT_BEGIN
 90
        5
170
     1
 91
        0
 92
        0
 62
   257
 93
        1
300
CONTENTFORMAT
  1
CONTENTFORMAT_BEGIN
 90
        0
 91
        0
 92
      512
 93
        0
300

 40
0.0
140
1.0
 94
        2
 62
     0
340
AE74
144
0.18
309
CONTENTFORMAT_END
171
     0
 94
        0
309
TABLEFORMAT_END
  1
CELLSTYLE_BEGIN
 90
        3
 91
        2
300
_DATA
309
CELLSTYLE_END
  0
XRECORD
  5
B2A6
102
{ACAD_REACTORS
330
B26F
102
}
330
B26F
100
AcDbXrecord
280
     1
102
ACAD_ROUNDTRIP_PRE2007_TABLESTYLE
 90
      512
 91
        0
  1

 92
      512
 93
        0
  2

 94
      512
 95
        0
  3

  0
XRECORD
  5
B281
102
{ACAD_REACTORS
330
B280
102
}
330
B280
100
AcDbXrecord
280
     1
102
RTVSPost2010Prop28
280
     1
102
RTVSPost2010PropOp28
 70
     1
102
RTVSPost2010Prop29
280
     1
102
RTVSPost2010PropOp29
 70
     1
102
RTVSPost2010Prop30
280
     0
102
RTVSPost2010PropOp30
 70
     1
102
RTVSPost2010Prop31
280
     0
102
RTVSPost2010PropOp31
 70
     1
102
RTVSPost2010Prop32
280
     0
102
RTVSPost2010PropOp32
 70
     1
102
RTVSPost2010Prop33
280
     0
102
RTVSPost2010PropOp33
 70
     1
102
RTVSPost2010Prop34
280
     0
102
RTVSPost2010PropOp34
 70
     1
102
RTVSPost2010Prop35
280
     0
102
RTVSPost2010PropOp35
 70
     1
102
RTVSPost2010Prop36
280
     0
102
RTVSPost2010PropOp36
 70
     1
102
RTVSPost2010Prop37
 90
       50
102
RTVSPost2010PropOp37
 70
     1
102
RTVSPost2010Prop38
140
0.0
102
RTVSPost2010PropOp38
 70
     1
102
RTVSPost2010Prop39
140
1.0
102
RTVSPost2010PropOp39
 70
     1
102
RTVSPost2010Prop40
 90
        0
102
RTVSPost2010PropOp40
 70
     1
102
RTVSPost2010Prop41ColorIndex
 90
       18
102
RTVSPost2010Prop41ColorRGB
 90
        0
102
RTVSPost2010PropOp41
 70
     1
102
RTVSPost2010Prop42
 90
       50
102
RTVSPost2010PropOp42
 70
     1
102
RTVSPost2010Prop43
 90
        3
102
RTVSPost2010PropOp43
 70
     1
102
RTVSPost2010Prop44ColorIndex
 90
        5
102
RTVSPost2010Prop44ColorRGB
 90
      255
102
RTVSPost2010PropOp44
 70
     1
102
RTVSPost2010Prop45
280
     0
102
RTVSPost2010PropOp45
 70
     1
102
RTVSPost2010Prop46
 90
       50
102
RTVSPost2010PropOp46
 70
     1
102
RTVSPost2010Prop47
 90
       50
102
RTVSPost2010PropOp47
 70
     1
102
RTVSPost2010Prop48
 90
       50
102
RTVSPost2010PropOp48
 70
     1
102
RTVSPost2010Prop49
280
     0
102
RTVSPost2010PropOp49
 70
     1
102
RTVSPost2010Prop50
 90
       50
102
RTVSPost2010PropOp50
 70
     1
102
RTVSPost2010Prop51ColorIndex
 90
      256
102
RTVSPost2010Prop51ColorRGB
 90
-16777216
102
RTVSPost2010PropOp51
 70
     0
102
RTVSPost2010Prop52
140
1.0
102
RTVSPost2010PropOp52
 70
     0
102
RTVSPost2010Prop53
 90
        2
102
RTVSPost2010PropOp53
 70
     1
102
RTVSPost2010Prop54
  1
strokes_ogs.tif
102
RTVSPost2010PropOp54
 70
     1
102
RTVSPost2010Prop55
280
     0
102
RTVSPost2010PropOp55
 70
     1
102
RTVSPost2010Prop56
140
1.0
102
RTVSPost2010PropOp56
 70
     1
102
RTVSPost2010Prop57
140
1.0
102
RTVSPost2010PropOp57
 70
     1
102
RTVSPropertyOp0
 70
     1
102
RTVSPropertyOp1
 70
     1
102
RTVSPropertyOp2
 70
     1
102
RTVSPropertyOp3
 70
     1
102
RTVSPropertyOp4
 70
     1
102
RTVSPropertyOp5
 70
     1
102
RTVSPropertyOp6
 70
     1
102
RTVSPropertyOp7
 70
     1
102
RTVSPropertyOp8
 70
     1
102
RTVSPropertyOp9
 70
     1
102
RTVSPropertyOp10
 70
     1
102
RTVSPropertyOp11
 70
     1
102
RTVSPropertyOp12
 70
     1
102
RTVSPropertyOp13
 70
     1
102
RTVSPropertyOp14
 70
     1
102
RTVSPropertyOp15
 70
     1
102
RTVSPropertyOp16
 70
     1
102
RTVSPropertyOp17
 70
     1
102
RTVSPropertyOp18
 70
     1
102
RTVSPropertyOp19
 70
     1
102
RTVSPropertyOp20
 70
     1
102
RTVSPropertyOp21
 70
     1
102
RTVSPropertyOp22
 70
     1
102
RTVSPropertyOp23
 70
     1
102
RTVSPropertyOp24
 70
     1
102
RTVSPropertyOp25
 70
     1
102
RTVSPropertyOp26
 70
     1
102
RTVSPropertyOp27
 70
     1
102
RTVSPropertyOp28
 70
     1
102
RTVSPropertyOp29
 70
     1
102
RTVSPropertyOp30
 70
     1
102
RTVSPropertyOp31
 70
     1
102
RTVSPropertyOp32
 70
     1
102
RTVSPropertyOp33
 70
     1
102
RTVSPropertyOp34
 70
     1
102
RTVSPropertyOp35
 70
     1
102
RTVSPropertyOp36
 70
     1
102
RTVSPropertyOp37
 70
     1
102
RTVSPropertyOp38
 70
     1
102
RTVSPropertyOp39
 70
     1
102
RTVSPropertyOp40
 70
     1
102
RTVSPropertyOp41
 70
     1
102
RTVSPropertyOp42
 70
     1
102
RTVSPropertyOp43
 70
     1
102
RTVSPropertyOp44
 70
     1
102
RTVSPropertyOp45
 70
     1
102
RTVSPropertyOp46
 70
     1
102
RTVSPropertyOp47
 70
     1
102
RTVSPropertyOp48
 70
     1
102
RTVSPropertyOp49
 70
     1
102
RTVSPropertyOp50
 70
     1
102
RTVSPropertyOp51
 70
     0
102
RTVSPropertyOp52
 70
     0
102
RTVSPropertyOp53
 70
     1
102
RTVSPropertyOp54
 70
     1
102
RTVSPropertyOp55
 70
     1
102
RTVSPropertyOp56
 70
     1
102
RTVSPropertyOp57
 70
     1
102
RTVSPropertyOp58
 70
     1
102
RTVSPropertyOp59
 70
     1
102
RTVSPropertyOp60
 70
     1
102
RTVSPropertyOp61
 70
     1
102
RTVSPropertyOp62
 70
     1
  0
XRECORD
  5
B27F
102
{ACAD_REACTORS
330
B27E
102
}
330
B27E
100
AcDbXrecord
280
     1
102
RTVSPost2010Prop28
280
     0
102
RTVSPost2010PropOp28
 70
     1
102
RTVSPost2010Prop29
280
     1
102
RTVSPost2010PropOp29
 70
     1
102
RTVSPost2010Prop30
280
     1
102
RTVSPost2010PropOp30
 70
     1
102
RTVSPost2010Prop31
280
     0
102
RTVSPost2010PropOp31
 70
     1
102
RTVSPost2010Prop32
280
     0
102
RTVSPost2010PropOp32
 70
     1
102
RTVSPost2010Prop33
280
     0
102
RTVSPost2010PropOp33
 70
     1
102
RTVSPost2010Prop34
280
     0
102
RTVSPost2010PropOp34
 70
     1
102
RTVSPost2010Prop35
280
     0
102
RTVSPost2010PropOp35
 70
     1
102
RTVSPost2010Prop36
280
     0
102
RTVSPost2010PropOp36
 70
     1
102
RTVSPost2010Prop37
 90
       50
102
RTVSPost2010PropOp37
 70
     1
102
RTVSPost2010Prop38
140
0.0
102
RTVSPost2010PropOp38
 70
     1
102
RTVSPost2010Prop39
140
1.0
102
RTVSPost2010PropOp39
 70
     1
102
RTVSPost2010Prop40
 90
        0
102
RTVSPost2010PropOp40
 70
     1
102
RTVSPost2010Prop41ColorIndex
 90
       18
102
RTVSPost2010Prop41ColorRGB
 90
        0
102
RTVSPost2010PropOp41
 70
     1
102
RTVSPost2010Prop42
 90
       50
102
RTVSPost2010PropOp42
 70
     1
102
RTVSPost2010Prop43
 90
        3
102
RTVSPost2010PropOp43
 70
     1
102
RTVSPost2010Prop44ColorIndex
 90
        5
102
RTVSPost2010Prop44ColorRGB
 90
      255
102
RTVSPost2010PropOp44
 70
     1
102
RTVSPost2010Prop45
280
     0
102
RTVSPost2010PropOp45
 70
     1
102
RTVSPost2010Prop46
 90
       50
102
RTVSPost2010PropOp46
 70
     1
102
RTVSPost2010Prop47
 90
       50
102
RTVSPost2010PropOp47
 70
     1
102
RTVSPost2010Prop48
 90
       50
102
RTVSPost2010PropOp48
 70
     1
102
RTVSPost2010Prop49
280
     0
102
RTVSPost2010PropOp49
 70
     1
102
RTVSPost2010Prop50
 90
       50
102
RTVSPost2010PropOp50
 70
     1
102
RTVSPost2010Prop51ColorIndex
 90
      256
102
RTVSPost2010Prop51ColorRGB
 90
-16777216
102
RTVSPost2010PropOp51
 70
     0
102
RTVSPost2010Prop52
140
1.0
102
RTVSPost2010PropOp52
 70
     0
102
RTVSPost2010Prop53
 90
        2
102
RTVSPost2010PropOp53
 70
     1
102
RTVSPost2010Prop54
  1
strokes_ogs.tif
102
RTVSPost2010PropOp54
 70
     1
102
RTVSPost2010Prop55
280
     0
102
RTVSPost2010PropOp55
 70
     1
102
RTVSPost2010Prop56
140
1.0
102
RTVSPost2010PropOp56
 70
     1
102
RTVSPost2010Prop57
140
1.0
102
RTVSPost2010PropOp57
 70
     1
102
RTVSPropertyOp0
 70
     1
102
RTVSPropertyOp1
 70
     1
102
RTVSPropertyOp2
 70
     1
102
RTVSPropertyOp3
 70
     1
102
RTVSPropertyOp4
 70
     1
102
RTVSPropertyOp5
 70
     1
102
RTVSPropertyOp6
 70
     1
102
RTVSPropertyOp7
 70
     1
102
RTVSPropertyOp8
 70
     1
102
RTVSPropertyOp9
 70
     1
102
RTVSPropertyOp10
 70
     1
102
RTVSPropertyOp11
 70
     1
102
RTVSPropertyOp12
 70
     1
102
RTVSPropertyOp13
 70
     1
102
RTVSPropertyOp14
 70
     1
102
RTVSPropertyOp15
 70
     1
102
RTVSPropertyOp16
 70
     1
102
RTVSPropertyOp17
 70
     1
102
RTVSPropertyOp18
 70
     1
102
RTVSPropertyOp19
 70
     1
102
RTVSPropertyOp20
 70
     1
102
RTVSPropertyOp21
 70
     1
102
RTVSPropertyOp22
 70
     1
102
RTVSPropertyOp23
 70
     1
102
RTVSPropertyOp24
 70
     1
102
RTVSPropertyOp25
 70
     1
102
RTVSPropertyOp26
 70
     1
102
RTVSPropertyOp27
 70
     1
102
RTVSPropertyOp28
 70
     1
102
RTVSPropertyOp29
 70
     1
102
RTVSPropertyOp30
 70
     1
102
RTVSPropertyOp31
 70
     1
102
RTVSPropertyOp32
 70
     1
102
RTVSPropertyOp33
 70
     1
102
RTVSPropertyOp34
 70
     1
102
RTVSPropertyOp35
 70
     1
102
RTVSPropertyOp36
 70
     1
102
RTVSPropertyOp37
 70
     1
102
RTVSPropertyOp38
 70
     1
102
RTVSPropertyOp39
 70
     1
102
RTVSPropertyOp40
 70
     1
102
RTVSPropertyOp41
 70
     1
102
RTVSPropertyOp42
 70
     1
102
RTVSPropertyOp43
 70
     1
102
RTVSPropertyOp44
 70
     1
102
RTVSPropertyOp45
 70
     1
102
RTVSPropertyOp46
 70
     1
102
RTVSPropertyOp47
 70
     1
102
RTVSPropertyOp48
 70
     1
102
RTVSPropertyOp49
 70
     1
102
RTVSPropertyOp50
 70
     1
102
RTVSPropertyOp51
 70
     0
102
RTVSPropertyOp52
 70
     0
102
RTVSPropertyOp53
 70
     1
102
RTVSPropertyOp54
 70
     1
102
RTVSPropertyOp55
 70
     1
102
RTVSPropertyOp56
 70
     1
102
RTVSPropertyOp57
 70
     1
102
RTVSPropertyOp58
 70
     1
102
RTVSPropertyOp59
 70
     1
102
RTVSPropertyOp60
 70
     1
102
RTVSPropertyOp61
 70
     1
102
RTVSPropertyOp62
 70
     1
  0
XRECORD
  5
B28D
102
{ACAD_REACTORS
330
B28C
102
}
330
B28C
100
AcDbXrecord
280
     1
102
RTVSPost2010Prop28
280
     0
102
RTVSPost2010PropOp28
 70
     1
102
RTVSPost2010Prop29
280
     1
102
RTVSPost2010PropOp29
 70
     1
102
RTVSPost2010Prop30
280
     1
102
RTVSPost2010PropOp30
 70
     1
102
RTVSPost2010Prop31
280
     0
102
RTVSPost2010PropOp31
 70
     1
102
RTVSPost2010Prop32
280
     0
102
RTVSPost2010PropOp32
 70
     1
102
RTVSPost2010Prop33
280
     0
102
RTVSPost2010PropOp33
 70
     1
102
RTVSPost2010Prop34
280
     0
102
RTVSPost2010PropOp34
 70
     1
102
RTVSPost2010Prop35
280
     0
102
RTVSPost2010PropOp35
 70
     1
102
RTVSPost2010Prop36
280
     0
102
RTVSPost2010PropOp36
 70
     1
102
RTVSPost2010Prop37
 90
       50
102
RTVSPost2010PropOp37
 70
     1
102
RTVSPost2010Prop38
140
0.0
102
RTVSPost2010PropOp38
 70
     1
102
RTVSPost2010Prop39
140
1.0
102
RTVSPost2010PropOp39
 70
     1
102
RTVSPost2010Prop40
 90
        0
102
RTVSPost2010PropOp40
 70
     1
102
RTVSPost2010Prop41ColorIndex
 90
       18
102
RTVSPost2010Prop41ColorRGB
 90
        0
102
RTVSPost2010PropOp41
 70
     1
102
RTVSPost2010Prop42
 90
       50
102
RTVSPost2010PropOp42
 70
     1
102
RTVSPost2010Prop43
 90
        3
102
RTVSPost2010PropOp43
 70
     1
102
RTVSPost2010Prop44ColorIndex
 90
        5
102
RTVSPost2010Prop44ColorRGB
 90
      255
102
RTVSPost2010PropOp44
 70
     1
102
RTVSPost2010Prop45
280
     0
102
RTVSPost2010PropOp45
 70
     1
102
RTVSPost2010Prop46
 90
       50
102
RTVSPost2010PropOp46
 70
     1
102
RTVSPost2010Prop47
 90
       50
102
RTVSPost2010PropOp47
 70
     1
102
RTVSPost2010Prop48
 90
       50
102
RTVSPost2010PropOp48
 70
     1
102
RTVSPost2010Prop49
280
     0
102
RTVSPost2010PropOp49
 70
     1
102
RTVSPost2010Prop50
 90
       50
102
RTVSPost2010PropOp50
 70
     1
102
RTVSPost2010Prop51ColorIndex
 90
      256
102
RTVSPost2010Prop51ColorRGB
 90
-16777216
102
RTVSPost2010PropOp51
 70
     0
102
RTVSPost2010Prop52
140
1.0
102
RTVSPost2010PropOp52
 70
     0
102
RTVSPost2010Prop53
 90
        2
102
RTVSPost2010PropOp53
 70
     1
102
RTVSPost2010Prop54
  1
strokes_ogs.tif
102
RTVSPost2010PropOp54
 70
     1
102
RTVSPost2010Prop55
280
     0
102
RTVSPost2010PropOp55
 70
     1
102
RTVSPost2010Prop56
140
1.0
102
RTVSPost2010PropOp56
 70
     1
102
RTVSPost2010Prop57
140
1.0
102
RTVSPost2010PropOp57
 70
     1
102
RTVSPropertyOp0
 70
     1
102
RTVSPropertyOp1
 70
     1
102
RTVSPropertyOp2
 70
     1
102
RTVSPropertyOp3
 70
     1
102
RTVSPropertyOp4
 70
     1
102
RTVSPropertyOp5
 70
     1
102
RTVSPropertyOp6
 70
     1
102
RTVSPropertyOp7
 70
     1
102
RTVSPropertyOp8
 70
     1
102
RTVSPropertyOp9
 70
     1
102
RTVSPropertyOp10
 70
     1
102
RTVSPropertyOp11
 70
     1
102
RTVSPropertyOp12
 70
     1
102
RTVSPropertyOp13
 70
     1
102
RTVSPropertyOp14
 70
     1
102
RTVSPropertyOp15
 70
     1
102
RTVSPropertyOp16
 70
     1
102
RTVSPropertyOp17
 70
     1
102
RTVSPropertyOp18
 70
     1
102
RTVSPropertyOp19
 70
     1
102
RTVSPropertyOp20
 70
     1
102
RTVSPropertyOp21
 70
     1
102
RTVSPropertyOp22
 70
     1
102
RTVSPropertyOp23
 70
     1
102
RTVSPropertyOp24
 70
     1
102
RTVSPropertyOp25
 70
     1
102
RTVSPropertyOp26
 70
     1
102
RTVSPropertyOp27
 70
     1
102
RTVSPropertyOp28
 70
     1
102
RTVSPropertyOp29
 70
     1
102
RTVSPropertyOp30
 70
     1
102
RTVSPropertyOp31
 70
     1
102
RTVSPropertyOp32
 70
     1
102
RTVSPropertyOp33
 70
     1
102
RTVSPropertyOp34
 70
     1
102
RTVSPropertyOp35
 70
     1
102
RTVSPropertyOp36
 70
     1
102
RTVSPropertyOp37
 70
     1
102
RTVSPropertyOp38
 70
     1
102
RTVSPropertyOp39
 70
     1
102
RTVSPropertyOp40
 70
     1
102
RTVSPropertyOp41
 70
     1
102
RTVSPropertyOp42
 70
     1
102
RTVSPropertyOp43
 70
     1
102
RTVSPropertyOp44
 70
     1
102
RTVSPropertyOp45
 70
     1
102
RTVSPropertyOp46
 70
     1
102
RTVSPropertyOp47
 70
     1
102
RTVSPropertyOp48
 70
     1
102
RTVSPropertyOp49
 70
     1
102
RTVSPropertyOp50
 70
     1
102
RTVSPropertyOp51
 70
     0
102
RTVSPropertyOp52
 70
     0
102
RTVSPropertyOp53
 70
     1
102
RTVSPropertyOp54
 70
     1
102
RTVSPropertyOp55
 70
     1
102
RTVSPropertyOp56
 70
     1
102
RTVSPropertyOp57
 70
     1
102
RTVSPropertyOp58
 70
     1
102
RTVSPropertyOp59
 70
     1
102
RTVSPropertyOp60
 70
     1
102
RTVSPropertyOp61
 70
     1
102
RTVSPropertyOp62
 70
     1
  0
XRECORD
  5
B295
102
{ACAD_REACTORS
330
B294
102
}
330
B294
100
AcDbXrecord
280
     1
102
RTVSPost2010Prop28
280
     0
102
RTVSPost2010PropOp28
 70
     1
102
RTVSPost2010Prop29
280
     1
102
RTVSPost2010PropOp29
 70
     1
102
RTVSPost2010Prop30
280
     1
102
RTVSPost2010PropOp30
 70
     1
102
RTVSPost2010Prop31
280
     0
102
RTVSPost2010PropOp31
 70
     1
102
RTVSPost2010Prop32
280
     0
102
RTVSPost2010PropOp32
 70
     1
102
RTVSPost2010Prop33
280
     0
102
RTVSPost2010PropOp33
 70
     1
102
RTVSPost2010Prop34
280
     0
102
RTVSPost2010PropOp34
 70
     1
102
RTVSPost2010Prop35
280
     0
102
RTVSPost2010PropOp35
 70
     1
102
RTVSPost2010Prop36
280
     0
102
RTVSPost2010PropOp36
 70
     1
102
RTVSPost2010Prop37
 90
       50
102
RTVSPost2010PropOp37
 70
     1
102
RTVSPost2010Prop38
140
0.0
102
RTVSPost2010PropOp38
 70
     1
102
RTVSPost2010Prop39
140
1.0
102
RTVSPost2010PropOp39
 70
     1
102
RTVSPost2010Prop40
 90
        0
102
RTVSPost2010PropOp40
 70
     1
102
RTVSPost2010Prop41ColorIndex
 90
       18
102
RTVSPost2010Prop41ColorRGB
 90
        0
102
RTVSPost2010PropOp41
 70
     1
102
RTVSPost2010Prop42
 90
       50
102
RTVSPost2010PropOp42
 70
     1
102
RTVSPost2010Prop43
 90
        3
102
RTVSPost2010PropOp43
 70
     1
102
RTVSPost2010Prop44ColorIndex
 90
        5
102
RTVSPost2010Prop44ColorRGB
 90
      255
102
RTVSPost2010PropOp44
 70
     1
102
RTVSPost2010Prop45
280
     0
102
RTVSPost2010PropOp45
 70
     1
102
RTVSPost2010Prop46
 90
       50
102
RTVSPost2010PropOp46
 70
     1
102
RTVSPost2010Prop47
 90
       50
102
RTVSPost2010PropOp47
 70
     1
102
RTVSPost2010Prop48
 90
       50
102
RTVSPost2010PropOp48
 70
     1
102
RTVSPost2010Prop49
280
     0
102
RTVSPost2010PropOp49
 70
     1
102
RTVSPost2010Prop50
 90
       50
102
RTVSPost2010PropOp50
 70
     1
102
RTVSPost2010Prop51ColorIndex
 90
      256
102
RTVSPost2010Prop51ColorRGB
 90
-16777216
102
RTVSPost2010PropOp51
 70
     0
102
RTVSPost2010Prop52
140
1.0
102
RTVSPost2010PropOp52
 70
     0
102
RTVSPost2010Prop53
 90
        2
102
RTVSPost2010PropOp53
 70
     1
102
RTVSPost2010Prop54
  1
strokes_ogs.tif
102
RTVSPost2010PropOp54
 70
     1
102
RTVSPost2010Prop55
280
     0
102
RTVSPost2010PropOp55
 70
     1
102
RTVSPost2010Prop56
140
1.0
102
RTVSPost2010PropOp56
 70
     1
102
RTVSPost2010Prop57
140
1.0
102
RTVSPost2010PropOp57
 70
     1
102
RTVSPropertyOp0
 70
     1
102
RTVSPropertyOp1
 70
     1
102
RTVSPropertyOp2
 70
     1
102
RTVSPropertyOp3
 70
     1
102
RTVSPropertyOp4
 70
     1
102
RTVSPropertyOp5
 70
     1
102
RTVSPropertyOp6
 70
     1
102
RTVSPropertyOp7
 70
     1
102
RTVSPropertyOp8
 70
     1
102
RTVSPropertyOp9
 70
     1
102
RTVSPropertyOp10
 70
     1
102
RTVSPropertyOp11
 70
     1
102
RTVSPropertyOp12
 70
     1
102
RTVSPropertyOp13
 70
     1
102
RTVSPropertyOp14
 70
     1
102
RTVSPropertyOp15
 70
     1
102
RTVSPropertyOp16
 70
     1
102
RTVSPropertyOp17
 70
     1
102
RTVSPropertyOp18
 70
     1
102
RTVSPropertyOp19
 70
     1
102
RTVSPropertyOp20
 70
     1
102
RTVSPropertyOp21
 70
     1
102
RTVSPropertyOp22
 70
     1
102
RTVSPropertyOp23
 70
     1
102
RTVSPropertyOp24
 70
     1
102
RTVSPropertyOp25
 70
     1
102
RTVSPropertyOp26
 70
     1
102
RTVSPropertyOp27
 70
     1
102
RTVSPropertyOp28
 70
     1
102
RTVSPropertyOp29
 70
     1
102
RTVSPropertyOp30
 70
     1
102
RTVSPropertyOp31
 70
     1
102
RTVSPropertyOp32
 70
     1
102
RTVSPropertyOp33
 70
     1
102
RTVSPropertyOp34
 70
     1
102
RTVSPropertyOp35
 70
     1
102
RTVSPropertyOp36
 70
     1
102
RTVSPropertyOp37
 70
     1
102
RTVSPropertyOp38
 70
     1
102
RTVSPropertyOp39
 70
     1
102
RTVSPropertyOp40
 70
     1
102
RTVSPropertyOp41
 70
     1
102
RTVSPropertyOp42
 70
     1
102
RTVSPropertyOp43
 70
     1
102
RTVSPropertyOp44
 70
     1
102
RTVSPropertyOp45
 70
     1
102
RTVSPropertyOp46
 70
     1
102
RTVSPropertyOp47
 70
     1
102
RTVSPropertyOp48
 70
     1
102
RTVSPropertyOp49
 70
     1
102
RTVSPropertyOp50
 70
     1
102
RTVSPropertyOp51
 70
     0
102
RTVSPropertyOp52
 70
     0
102
RTVSPropertyOp53
 70
     1
102
RTVSPropertyOp54
 70
     1
102
RTVSPropertyOp55
 70
     1
102
RTVSPropertyOp56
 70
     1
102
RTVSPropertyOp57
 70
     1
102
RTVSPropertyOp58
 70
     1
102
RTVSPropertyOp59
 70
     1
102
RTVSPropertyOp60
 70
     1
102
RTVSPropertyOp61
 70
     1
102
RTVSPropertyOp62
 70
     1
  0
XRECORD
  5
B287
102
{ACAD_REACTORS
330
B286
102
}
330
B286
100
AcDbXrecord
280
     1
102
RTVSPost2010Prop28
280
     0
102
RTVSPost2010PropOp28
 70
     1
102
RTVSPost2010Prop29
280
     1
102
RTVSPost2010PropOp29
 70
     1
102
RTVSPost2010Prop30
280
     1
102
RTVSPost2010PropOp30
 70
     1
102
RTVSPost2010Prop31
280
     0
102
RTVSPost2010PropOp31
 70
     1
102
RTVSPost2010Prop32
280
     0
102
RTVSPost2010PropOp32
 70
     1
102
RTVSPost2010Prop33
280
     0
102
RTVSPost2010PropOp33
 70
     1
102
RTVSPost2010Prop34
280
     0
102
RTVSPost2010PropOp34
 70
     1
102
RTVSPost2010Prop35
280
     0
102
RTVSPost2010PropOp35
 70
     1
102
RTVSPost2010Prop36
280
     0
102
RTVSPost2010PropOp36
 70
     1
102
RTVSPost2010Prop37
 90
       50
102
RTVSPost2010PropOp37
 70
     1
102
RTVSPost2010Prop38
140
0.0
102
RTVSPost2010PropOp38
 70
     1
102
RTVSPost2010Prop39
140
1.0
102
RTVSPost2010PropOp39
 70
     1
102
RTVSPost2010Prop40
 90
        0
102
RTVSPost2010PropOp40
 70
     1
102
RTVSPost2010Prop41ColorIndex
 90
       18
102
RTVSPost2010Prop41ColorRGB
 90
        0
102
RTVSPost2010PropOp41
 70
     1
102
RTVSPost2010Prop42
 90
       50
102
RTVSPost2010PropOp42
 70
     1
102
RTVSPost2010Prop43
 90
        3
102
RTVSPost2010PropOp43
 70
     1
102
RTVSPost2010Prop44ColorIndex
 90
        5
102
RTVSPost2010Prop44ColorRGB
 90
      255
102
RTVSPost2010PropOp44
 70
     1
102
RTVSPost2010Prop45
280
     0
102
RTVSPost2010PropOp45
 70
     1
102
RTVSPost2010Prop46
 90
       50
102
RTVSPost2010PropOp46
 70
     1
102
RTVSPost2010Prop47
 90
       50
102
RTVSPost2010PropOp47
 70
     1
102
RTVSPost2010Prop48
 90
       50
102
RTVSPost2010PropOp48
 70
     1
102
RTVSPost2010Prop49
280
     0
102
RTVSPost2010PropOp49
 70
     1
102
RTVSPost2010Prop50
 90
       50
102
RTVSPost2010PropOp50
 70
     1
102
RTVSPost2010Prop51ColorIndex
 90
      256
102
RTVSPost2010Prop51ColorRGB
 90
-16777216
102
RTVSPost2010PropOp51
 70
     0
102
RTVSPost2010Prop52
140
1.0
102
RTVSPost2010PropOp52
 70
     0
102
RTVSPost2010Prop53
 90
        2
102
RTVSPost2010PropOp53
 70
     1
102
RTVSPost2010Prop54
  1
strokes_ogs.tif
102
RTVSPost2010PropOp54
 70
     1
102
RTVSPost2010Prop55
280
     0
102
RTVSPost2010PropOp55
 70
     1
102
RTVSPost2010Prop56
140
1.0
102
RTVSPost2010PropOp56
 70
     1
102
RTVSPost2010Prop57
140
1.0
102
RTVSPost2010PropOp57
 70
     1
102
RTVSPropertyOp0
 70
     1
102
RTVSPropertyOp1
 70
     1
102
RTVSPropertyOp2
 70
     1
102
RTVSPropertyOp3
 70
     1
102
RTVSPropertyOp4
 70
     1
102
RTVSPropertyOp5
 70
     1
102
RTVSPropertyOp6
 70
     1
102
RTVSPropertyOp7
 70
     1
102
RTVSPropertyOp8
 70
     1
102
RTVSPropertyOp9
 70
     1
102
RTVSPropertyOp10
 70
     1
102
RTVSPropertyOp11
 70
     1
102
RTVSPropertyOp12
 70
     1
102
RTVSPropertyOp13
 70
     1
102
RTVSPropertyOp14
 70
     1
102
RTVSPropertyOp15
 70
     1
102
RTVSPropertyOp16
 70
     1
102
RTVSPropertyOp17
 70
     1
102
RTVSPropertyOp18
 70
     1
102
RTVSPropertyOp19
 70
     1
102
RTVSPropertyOp20
 70
     1
102
RTVSPropertyOp21
 70
     1
102
RTVSPropertyOp22
 70
     1
102
RTVSPropertyOp23
 70
     1
102
RTVSPropertyOp24
 70
     1
102
RTVSPropertyOp25
 70
     1
102
RTVSPropertyOp26
 70
     1
102
RTVSPropertyOp27
 70
     1
102
RTVSPropertyOp28
 70
     1
102
RTVSPropertyOp29
 70
     1
102
RTVSPropertyOp30
 70
     1
102
RTVSPropertyOp31
 70
     1
102
RTVSPropertyOp32
 70
     1
102
RTVSPropertyOp33
 70
     1
102
RTVSPropertyOp34
 70
     1
102
RTVSPropertyOp35
 70
     1
102
RTVSPropertyOp36
 70
     1
102
RTVSPropertyOp37
 70
     1
102
RTVSPropertyOp38
 70
     1
102
RTVSPropertyOp39
 70
     1
102
RTVSPropertyOp40
 70
     1
102
RTVSPropertyOp41
 70
     1
102
RTVSPropertyOp42
 70
     1
102
RTVSPropertyOp43
 70
     1
102
RTVSPropertyOp44
 70
     1
102
RTVSPropertyOp45
 70
     1
102
RTVSPropertyOp46
 70
     1
102
RTVSPropertyOp47
 70
     1
102
RTVSPropertyOp48
 70
     1
102
RTVSPropertyOp49
 70
     1
102
RTVSPropertyOp50
 70
     1
102
RTVSPropertyOp51
 70
     0
102
RTVSPropertyOp52
 70
     0
102
RTVSPropertyOp53
 70
     1
102
RTVSPropertyOp54
 70
     1
102
RTVSPropertyOp55
 70
     1
102
RTVSPropertyOp56
 70
     1
102
RTVSPropertyOp57
 70
     1
102
RTVSPropertyOp58
 70
     1
102
RTVSPropertyOp59
 70
     1
102
RTVSPropertyOp60
 70
     1
102
RTVSPropertyOp61
 70
     1
102
RTVSPropertyOp62
 70
     1
  0
XRECORD
  5
B28B
102
{ACAD_REACTORS
330
B28A
102
}
330
B28A
100
AcDbXrecord
280
     1
102
RTVSPost2010Prop28
280
     0
102
RTVSPost2010PropOp28
 70
     1
102
RTVSPost2010Prop29
280
     1
102
RTVSPost2010PropOp29
 70
     1
102
RTVSPost2010Prop30
280
     1
102
RTVSPost2010PropOp30
 70
     1
102
RTVSPost2010Prop31
280
     0
102
RTVSPost2010PropOp31
 70
     1
102
RTVSPost2010Prop32
280
     0
102
RTVSPost2010PropOp32
 70
     1
102
RTVSPost2010Prop33
280
     0
102
RTVSPost2010PropOp33
 70
     1
102
RTVSPost2010Prop34
280
     0
102
RTVSPost2010PropOp34
 70
     1
102
RTVSPost2010Prop35
280
     0
102
RTVSPost2010PropOp35
 70
     1
102
RTVSPost2010Prop36
280
     0
102
RTVSPost2010PropOp36
 70
     1
102
RTVSPost2010Prop37
 90
       50
102
RTVSPost2010PropOp37
 70
     1
102
RTVSPost2010Prop38
140
0.0
102
RTVSPost2010PropOp38
 70
     1
102
RTVSPost2010Prop39
140
1.0
102
RTVSPost2010PropOp39
 70
     1
102
RTVSPost2010Prop40
 90
        0
102
RTVSPost2010PropOp40
 70
     1
102
RTVSPost2010Prop41ColorIndex
 90
       18
102
RTVSPost2010Prop41ColorRGB
 90
        0
102
RTVSPost2010PropOp41
 70
     1
102
RTVSPost2010Prop42
 90
       50
102
RTVSPost2010PropOp42
 70
     1
102
RTVSPost2010Prop43
 90
        3
102
RTVSPost2010PropOp43
 70
     1
102
RTVSPost2010Prop44ColorIndex
 90
        5
102
RTVSPost2010Prop44ColorRGB
 90
      255
102
RTVSPost2010PropOp44
 70
     1
102
RTVSPost2010Prop45
280
     0
102
RTVSPost2010PropOp45
 70
     1
102
RTVSPost2010Prop46
 90
       50
102
RTVSPost2010PropOp46
 70
     1
102
RTVSPost2010Prop47
 90
       50
102
RTVSPost2010PropOp47
 70
     1
102
RTVSPost2010Prop48
 90
       50
102
RTVSPost2010PropOp48
 70
     1
102
RTVSPost2010Prop49
280
     0
102
RTVSPost2010PropOp49
 70
     1
102
RTVSPost2010Prop50
 90
       50
102
RTVSPost2010PropOp50
 70
     1
102
RTVSPost2010Prop51ColorIndex
 90
      256
102
RTVSPost2010Prop51ColorRGB
 90
-16777216
102
RTVSPost2010PropOp51
 70
     0
102
RTVSPost2010Prop52
140
1.0
102
RTVSPost2010PropOp52
 70
     0
102
RTVSPost2010Prop53
 90
        2
102
RTVSPost2010PropOp53
 70
     1
102
RTVSPost2010Prop54
  1
strokes_ogs.tif
102
RTVSPost2010PropOp54
 70
     1
102
RTVSPost2010Prop55
280
     0
102
RTVSPost2010PropOp55
 70
     1
102
RTVSPost2010Prop56
140
1.0
102
RTVSPost2010PropOp56
 70
     1
102
RTVSPost2010Prop57
140
1.0
102
RTVSPost2010PropOp57
 70
     1
102
RTVSPropertyOp0
 70
     1
102
RTVSPropertyOp1
 70
     1
102
RTVSPropertyOp2
 70
     1
102
RTVSPropertyOp3
 70
     1
102
RTVSPropertyOp4
 70
     1
102
RTVSPropertyOp5
 70
     1
102
RTVSPropertyOp6
 70
     1
102
RTVSPropertyOp7
 70
     1
102
RTVSPropertyOp8
 70
     1
102
RTVSPropertyOp9
 70
     1
102
RTVSPropertyOp10
 70
     1
102
RTVSPropertyOp11
 70
     1
102
RTVSPropertyOp12
 70
     1
102
RTVSPropertyOp13
 70
     1
102
RTVSPropertyOp14
 70
     1
102
RTVSPropertyOp15
 70
     1
102
RTVSPropertyOp16
 70
     1
102
RTVSPropertyOp17
 70
     1
102
RTVSPropertyOp18
 70
     1
102
RTVSPropertyOp19
 70
     1
102
RTVSPropertyOp20
 70
     1
102
RTVSPropertyOp21
 70
     1
102
RTVSPropertyOp22
 70
     1
102
RTVSPropertyOp23
 70
     1
102
RTVSPropertyOp24
 70
     1
102
RTVSPropertyOp25
 70
     1
102
RTVSPropertyOp26
 70
     1
102
RTVSPropertyOp27
 70
     1
102
RTVSPropertyOp28
 70
     1
102
RTVSPropertyOp29
 70
     1
102
RTVSPropertyOp30
 70
     1
102
RTVSPropertyOp31
 70
     1
102
RTVSPropertyOp32
 70
     1
102
RTVSPropertyOp33
 70
     1
102
RTVSPropertyOp34
 70
     1
102
RTVSPropertyOp35
 70
     1
102
RTVSPropertyOp36
 70
     1
102
RTVSPropertyOp37
 70
     1
102
RTVSPropertyOp38
 70
     1
102
RTVSPropertyOp39
 70
     1
102
RTVSPropertyOp40
 70
     1
102
RTVSPropertyOp41
 70
     1
102
RTVSPropertyOp42
 70
     1
102
RTVSPropertyOp43
 70
     1
102
RTVSPropertyOp44
 70
     1
102
RTVSPropertyOp45
 70
     1
102
RTVSPropertyOp46
 70
     1
102
RTVSPropertyOp47
 70
     1
102
RTVSPropertyOp48
 70
     1
102
RTVSPropertyOp49
 70
     1
102
RTVSPropertyOp50
 70
     1
102
RTVSPropertyOp51
 70
     0
102
RTVSPropertyOp52
 70
     0
102
RTVSPropertyOp53
 70
     1
102
RTVSPropertyOp54
 70
     1
102
RTVSPropertyOp55
 70
     1
102
RTVSPropertyOp56
 70
     1
102
RTVSPropertyOp57
 70
     1
102
RTVSPropertyOp58
 70
     1
102
RTVSPropertyOp59
 70
     1
102
RTVSPropertyOp60
 70
     1
102
RTVSPropertyOp61
 70
     1
102
RTVSPropertyOp62
 70
     1
  0
XRECORD
  5
B2A5
102
{ACAD_REACTORS
330
B2A4
102
}
330
B2A4
100
AcDbXrecord
280
     1
102
RTVSPost2010Prop28
280
     0
102
RTVSPost2010PropOp28
 70
     1
102
RTVSPost2010Prop29
280
     1
102
RTVSPost2010PropOp29
 70
     1
102
RTVSPost2010Prop30
280
     1
102
RTVSPost2010PropOp30
 70
     1
102
RTVSPost2010Prop31
280
     0
102
RTVSPost2010PropOp31
 70
     1
102
RTVSPost2010Prop32
280
     0
102
RTVSPost2010PropOp32
 70
     1
102
RTVSPost2010Prop33
280
     0
102
RTVSPost2010PropOp33
 70
     1
102
RTVSPost2010Prop34
280
     0
102
RTVSPost2010PropOp34
 70
     1
102
RTVSPost2010Prop35
280
     0
102
RTVSPost2010PropOp35
 70
     1
102
RTVSPost2010Prop36
280
     0
102
RTVSPost2010PropOp36
 70
     1
102
RTVSPost2010Prop37
 90
       50
102
RTVSPost2010PropOp37
 70
     0
102
RTVSPost2010Prop38
140
0.0
102
RTVSPost2010PropOp38
 70
     0
102
RTVSPost2010Prop39
140
1.0
102
RTVSPost2010PropOp39
 70
     0
102
RTVSPost2010Prop40
 90
        0
102
RTVSPost2010PropOp40
 70
     0
102
RTVSPost2010Prop41ColorIndex
 90
       18
102
RTVSPost2010Prop41ColorRGB
 90
        0
102
RTVSPost2010PropOp41
 70
     0
102
RTVSPost2010Prop42
 90
       50
102
RTVSPost2010PropOp42
 70
     0
102
RTVSPost2010Prop43
 90
        3
102
RTVSPost2010PropOp43
 70
     0
102
RTVSPost2010Prop44ColorIndex
 90
        5
102
RTVSPost2010Prop44ColorRGB
 90
      255
102
RTVSPost2010PropOp44
 70
     0
102
RTVSPost2010Prop45
280
     0
102
RTVSPost2010PropOp45
 70
     1
102
RTVSPost2010Prop46
 90
       50
102
RTVSPost2010PropOp46
 70
     0
102
RTVSPost2010Prop47
 90
       50
102
RTVSPost2010PropOp47
 70
     0
102
RTVSPost2010Prop48
 90
       50
102
RTVSPost2010PropOp48
 70
     0
102
RTVSPost2010Prop49
280
     0
102
RTVSPost2010PropOp49
 70
     1
102
RTVSPost2010Prop50
 90
       50
102
RTVSPost2010PropOp50
 70
     0
102
RTVSPost2010Prop51ColorIndex
 90
      256
102
RTVSPost2010Prop51ColorRGB
 90
-16777216
102
RTVSPost2010PropOp51
 70
     0
102
RTVSPost2010Prop52
140
1.0
102
RTVSPost2010PropOp52
 70
     0
102
RTVSPost2010Prop53
 90
        2
102
RTVSPost2010PropOp53
 70
     0
102
RTVSPost2010Prop54
  1
strokes_ogs.tif
102
RTVSPost2010PropOp54
 70
     0
102
RTVSPost2010Prop55
280
     0
102
RTVSPost2010PropOp55
 70
     1
102
RTVSPost2010Prop56
140
1.0
102
RTVSPost2010PropOp56
 70
     0
102
RTVSPost2010Prop57
140
1.0
102
RTVSPost2010PropOp57
 70
     0
102
RTVSPropertyOp0
 70
     0
102
RTVSPropertyOp1
 70
     0
102
RTVSPropertyOp2
 70
     0
102
RTVSPropertyOp3
 70
     0
102
RTVSPropertyOp4
 70
     0
102
RTVSPropertyOp5
 70
     0
102
RTVSPropertyOp6
 70
     0
102
RTVSPropertyOp7
 70
     0
102
RTVSPropertyOp8
 70
     0
102
RTVSPropertyOp9
 70
     0
102
RTVSPropertyOp10
 70
     0
102
RTVSPropertyOp11
 70
     0
102
RTVSPropertyOp12
 70
     0
102
RTVSPropertyOp13
 70
     0
102
RTVSPropertyOp14
 70
     2
102
RTVSPropertyOp15
 70
     0
102
RTVSPropertyOp16
 70
     0
102
RTVSPropertyOp17
 70
     0
102
RTVSPropertyOp18
 70
     0
102
RTVSPropertyOp19
 70
     0
102
RTVSPropertyOp20
 70
     0
102
RTVSPropertyOp21
 70
     0
102
RTVSPropertyOp22
 70
     0
102
RTVSPropertyOp23
 70
     0
102
RTVSPropertyOp24
 70
     0
102
RTVSPropertyOp25
 70
     0
102
RTVSPropertyOp26
 70
     0
102
RTVSPropertyOp27
 70
     0
102
RTVSPropertyOp28
 70
     1
102
RTVSPropertyOp29
 70
     1
102
RTVSPropertyOp30
 70
     1
102
RTVSPropertyOp31
 70
     1
102
RTVSPropertyOp32
 70
     1
102
RTVSPropertyOp33
 70
     1
102
RTVSPropertyOp34
 70
     1
102
RTVSPropertyOp35
 70
     1
102
RTVSPropertyOp36
 70
     1
102
RTVSPropertyOp37
 70
     0
102
RTVSPropertyOp38
 70
     0
102
RTVSPropertyOp39
 70
     0
102
RTVSPropertyOp40
 70
     0
102
RTVSPropertyOp41
 70
     0
102
RTVSPropertyOp42
 70
     0
102
RTVSPropertyOp43
 70
     0
102
RTVSPropertyOp44
 70
     0
102
RTVSPropertyOp45
 70
     1
102
RTVSPropertyOp46
 70
     0
102
RTVSPropertyOp47
 70
     0
102
RTVSPropertyOp48
 70
     0
102
RTVSPropertyOp49
 70
     1
102
RTVSPropertyOp50
 70
     0
102
RTVSPropertyOp51
 70
     0
102
RTVSPropertyOp52
 70
     0
102
RTVSPropertyOp53
 70
     0
102
RTVSPropertyOp54
 70
     0
102
RTVSPropertyOp55
 70
     1
102
RTVSPropertyOp56
 70
     0
102
RTVSPropertyOp57
 70
     0
102
RTVSPropertyOp58
 70
     0
102
RTVSPropertyOp59
 70
     0
102
RTVSPropertyOp60
 70
     0
102
RTVSPropertyOp61
 70
     0
102
RTVSPropertyOp62
 70
     0
  0
XRECORD
  5
B293
102
{ACAD_REACTORS
330
B292
102
}
330
B292
100
AcDbXrecord
280
     1
102
RTVSPost2010Prop28
280
     0
102
RTVSPost2010PropOp28
 70
     1
102
RTVSPost2010Prop29
280
     1
102
RTVSPost2010PropOp29
 70
     1
102
RTVSPost2010Prop30
280
     1
102
RTVSPost2010PropOp30
 70
     1
102
RTVSPost2010Prop31
280
     0
102
RTVSPost2010PropOp31
 70
     1
102
RTVSPost2010Prop32
280
     0
102
RTVSPost2010PropOp32
 70
     1
102
RTVSPost2010Prop33
280
     0
102
RTVSPost2010PropOp33
 70
     1
102
RTVSPost2010Prop34
280
     0
102
RTVSPost2010PropOp34
 70
     1
102
RTVSPost2010Prop35
280
     0
102
RTVSPost2010PropOp35
 70
     1
102
RTVSPost2010Prop36
280
     0
102
RTVSPost2010PropOp36
 70
     1
102
RTVSPost2010Prop37
 90
       50
102
RTVSPost2010PropOp37
 70
     1
102
RTVSPost2010Prop38
140
0.0
102
RTVSPost2010PropOp38
 70
     1
102
RTVSPost2010Prop39
140
1.0
102
RTVSPost2010PropOp39
 70
     1
102
RTVSPost2010Prop40
 90
        0
102
RTVSPost2010PropOp40
 70
     1
102
RTVSPost2010Prop41ColorIndex
 90
       18
102
RTVSPost2010Prop41ColorRGB
 90
        0
102
RTVSPost2010PropOp41
 70
     1
102
RTVSPost2010Prop42
 90
       50
102
RTVSPost2010PropOp42
 70
     1
102
RTVSPost2010Prop43
 90
        3
102
RTVSPost2010PropOp43
 70
     1
102
RTVSPost2010Prop44ColorIndex
 90
        5
102
RTVSPost2010Prop44ColorRGB
 90
      255
102
RTVSPost2010PropOp44
 70
     1
102
RTVSPost2010Prop45
280
     0
102
RTVSPost2010PropOp45
 70
     1
102
RTVSPost2010Prop46
 90
       50
102
RTVSPost2010PropOp46
 70
     1
102
RTVSPost2010Prop47
 90
       50
102
RTVSPost2010PropOp47
 70
     1
102
RTVSPost2010Prop48
 90
       50
102
RTVSPost2010PropOp48
 70
     1
102
RTVSPost2010Prop49
280
     0
102
RTVSPost2010PropOp49
 70
     1
102
RTVSPost2010Prop50
 90
       50
102
RTVSPost2010PropOp50
 70
     1
102
RTVSPost2010Prop51ColorIndex
 90
      256
102
RTVSPost2010Prop51ColorRGB
 90
-16777216
102
RTVSPost2010PropOp51
 70
     0
102
RTVSPost2010Prop52
140
1.0
102
RTVSPost2010PropOp52
 70
     0
102
RTVSPost2010Prop53
 90
        2
102
RTVSPost2010PropOp53
 70
     1
102
RTVSPost2010Prop54
  1
strokes_ogs.tif
102
RTVSPost2010PropOp54
 70
     1
102
RTVSPost2010Prop55
280
     0
102
RTVSPost2010PropOp55
 70
     1
102
RTVSPost2010Prop56
140
1.0
102
RTVSPost2010PropOp56
 70
     1
102
RTVSPost2010Prop57
140
1.0
102
RTVSPost2010PropOp57
 70
     1
102
RTVSPropertyOp0
 70
     1
102
RTVSPropertyOp1
 70
     1
102
RTVSPropertyOp2
 70
     1
102
RTVSPropertyOp3
 70
     1
102
RTVSPropertyOp4
 70
     1
102
RTVSPropertyOp5
 70
     1
102
RTVSPropertyOp6
 70
     1
102
RTVSPropertyOp7
 70
     1
102
RTVSPropertyOp8
 70
     1
102
RTVSPropertyOp9
 70
     1
102
RTVSPropertyOp10
 70
     1
102
RTVSPropertyOp11
 70
     1
102
RTVSPropertyOp12
 70
     1
102
RTVSPropertyOp13
 70
     1
102
RTVSPropertyOp14
 70
     1
102
RTVSPropertyOp15
 70
     1
102
RTVSPropertyOp16
 70
     1
102
RTVSPropertyOp17
 70
     1
102
RTVSPropertyOp18
 70
     1
102
RTVSPropertyOp19
 70
     1
102
RTVSPropertyOp20
 70
     1
102
RTVSPropertyOp21
 70
     1
102
RTVSPropertyOp22
 70
     1
102
RTVSPropertyOp23
 70
     1
102
RTVSPropertyOp24
 70
     1
102
RTVSPropertyOp25
 70
     1
102
RTVSPropertyOp26
 70
     1
102
RTVSPropertyOp27
 70
     1
102
RTVSPropertyOp28
 70
     1
102
RTVSPropertyOp29
 70
     1
102
RTVSPropertyOp30
 70
     1
102
RTVSPropertyOp31
 70
     1
102
RTVSPropertyOp32
 70
     1
102
RTVSPropertyOp33
 70
     1
102
RTVSPropertyOp34
 70
     1
102
RTVSPropertyOp35
 70
     1
102
RTVSPropertyOp36
 70
     1
102
RTVSPropertyOp37
 70
     1
102
RTVSPropertyOp38
 70
     1
102
RTVSPropertyOp39
 70
     1
102
RTVSPropertyOp40
 70
     1
102
RTVSPropertyOp41
 70
     1
102
RTVSPropertyOp42
 70
     1
102
RTVSPropertyOp43
 70
     1
102
RTVSPropertyOp44
 70
     1
102
RTVSPropertyOp45
 70
     1
102
RTVSPropertyOp46
 70
     1
102
RTVSPropertyOp47
 70
     1
102
RTVSPropertyOp48
 70
     1
102
RTVSPropertyOp49
 70
     1
102
RTVSPropertyOp50
 70
     1
102
RTVSPropertyOp51
 70
     0
102
RTVSPropertyOp52
 70
     0
102
RTVSPropertyOp53
 70
     1
102
RTVSPropertyOp54
 70
     1
102
RTVSPropertyOp55
 70
     1
102
RTVSPropertyOp56
 70
     1
102
RTVSPropertyOp57
 70
     1
102
RTVSPropertyOp58
 70
     1
102
RTVSPropertyOp59
 70
     1
102
RTVSPropertyOp60
 70
     1
102
RTVSPropertyOp61
 70
     1
102
RTVSPropertyOp62
 70
     1
  0
XRECORD
  5
B277
102
{ACAD_REACTORS
330
B276
102
}
330
B276
100
AcDbXrecord
280
     1
102
RTVSPost2010Prop28
280
     0
102
RTVSPost2010PropOp28
 70
     1
102
RTVSPost2010Prop29
280
     1
102
RTVSPost2010PropOp29
 70
     1
102
RTVSPost2010Prop30
280
     1
102
RTVSPost2010PropOp30
 70
     1
102
RTVSPost2010Prop31
280
     0
102
RTVSPost2010PropOp31
 70
     1
102
RTVSPost2010Prop32
280
     0
102
RTVSPost2010PropOp32
 70
     1
102
RTVSPost2010Prop33
280
     0
102
RTVSPost2010PropOp33
 70
     1
102
RTVSPost2010Prop34
280
     0
102
RTVSPost2010PropOp34
 70
     1
102
RTVSPost2010Prop35
280
     0
102
RTVSPost2010PropOp35
 70
     1
102
RTVSPost2010Prop36
280
     0
102
RTVSPost2010PropOp36
 70
     1
102
RTVSPost2010Prop37
 90
       50
102
RTVSPost2010PropOp37
 70
     1
102
RTVSPost2010Prop38
140
0.0
102
RTVSPost2010PropOp38
 70
     1
102
RTVSPost2010Prop39
140
1.0
102
RTVSPost2010PropOp39
 70
     1
102
RTVSPost2010Prop40
 90
        0
102
RTVSPost2010PropOp40
 70
     1
102
RTVSPost2010Prop41ColorIndex
 90
       18
102
RTVSPost2010Prop41ColorRGB
 90
        0
102
RTVSPost2010PropOp41
 70
     1
102
RTVSPost2010Prop42
 90
       50
102
RTVSPost2010PropOp42
 70
     1
102
RTVSPost2010Prop43
 90
        3
102
RTVSPost2010PropOp43
 70
     1
102
RTVSPost2010Prop44ColorIndex
 90
        5
102
RTVSPost2010Prop44ColorRGB
 90
      255
102
RTVSPost2010PropOp44
 70
     1
102
RTVSPost2010Prop45
280
     0
102
RTVSPost2010PropOp45
 70
     1
102
RTVSPost2010Prop46
 90
       50
102
RTVSPost2010PropOp46
 70
     1
102
RTVSPost2010Prop47
 90
       50
102
RTVSPost2010PropOp47
 70
     1
102
RTVSPost2010Prop48
 90
       50
102
RTVSPost2010PropOp48
 70
     1
102
RTVSPost2010Prop49
280
     0
102
RTVSPost2010PropOp49
 70
     1
102
RTVSPost2010Prop50
 90
       50
102
RTVSPost2010PropOp50
 70
     1
102
RTVSPost2010Prop51ColorIndex
 90
      256
102
RTVSPost2010Prop51ColorRGB
 90
-16777216
102
RTVSPost2010PropOp51
 70
     0
102
RTVSPost2010Prop52
140
1.0
102
RTVSPost2010PropOp52
 70
     0
102
RTVSPost2010Prop53
 90
        2
102
RTVSPost2010PropOp53
 70
     1
102
RTVSPost2010Prop54
  1
strokes_ogs.tif
102
RTVSPost2010PropOp54
 70
     1
102
RTVSPost2010Prop55
280
     0
102
RTVSPost2010PropOp55
 70
     1
102
RTVSPost2010Prop56
140
1.0
102
RTVSPost2010PropOp56
 70
     1
102
RTVSPost2010Prop57
140
1.0
102
RTVSPost2010PropOp57
 70
     1
102
RTVSPropertyOp0
 70
     1
102
RTVSPropertyOp1
 70
     1
102
RTVSPropertyOp2
 70
     1
102
RTVSPropertyOp3
 70
     1
102
RTVSPropertyOp4
 70
     1
102
RTVSPropertyOp5
 70
     1
102
RTVSPropertyOp6
 70
     1
102
RTVSPropertyOp7
 70
     1
102
RTVSPropertyOp8
 70
     1
102
RTVSPropertyOp9
 70
     1
102
RTVSPropertyOp10
 70
     1
102
RTVSPropertyOp11
 70
     1
102
RTVSPropertyOp12
 70
     1
102
RTVSPropertyOp13
 70
     1
102
RTVSPropertyOp14
 70
     1
102
RTVSPropertyOp15
 70
     1
102
RTVSPropertyOp16
 70
     1
102
RTVSPropertyOp17
 70
     1
102
RTVSPropertyOp18
 70
     1
102
RTVSPropertyOp19
 70
     1
102
RTVSPropertyOp20
 70
     1
102
RTVSPropertyOp21
 70
     1
102
RTVSPropertyOp22
 70
     1
102
RTVSPropertyOp23
 70
     1
102
RTVSPropertyOp24
 70
     1
102
RTVSPropertyOp25
 70
     1
102
RTVSPropertyOp26
 70
     1
102
RTVSPropertyOp27
 70
     1
102
RTVSPropertyOp28
 70
     1
102
RTVSPropertyOp29
 70
     1
102
RTVSPropertyOp30
 70
     1
102
RTVSPropertyOp31
 70
     1
102
RTVSPropertyOp32
 70
     1
102
RTVSPropertyOp33
 70
     1
102
RTVSPropertyOp34
 70
     1
102
RTVSPropertyOp35
 70
     1
102
RTVSPropertyOp36
 70
     1
102
RTVSPropertyOp37
 70
     1
102
RTVSPropertyOp38
 70
     1
102
RTVSPropertyOp39
 70
     1
102
RTVSPropertyOp40
 70
     1
102
RTVSPropertyOp41
 70
     1
102
RTVSPropertyOp42
 70
     1
102
RTVSPropertyOp43
 70
     1
102
RTVSPropertyOp44
 70
     1
102
RTVSPropertyOp45
 70
     1
102
RTVSPropertyOp46
 70
     1
102
RTVSPropertyOp47
 70
     1
102
RTVSPropertyOp48
 70
     1
102
RTVSPropertyOp49
 70
     1
102
RTVSPropertyOp50
 70
     1
102
RTVSPropertyOp51
 70
     0
102
RTVSPropertyOp52
 70
     0
102
RTVSPropertyOp53
 70
     1
102
RTVSPropertyOp54
 70
     1
102
RTVSPropertyOp55
 70
     1
102
RTVSPropertyOp56
 70
     1
102
RTVSPropertyOp57
 70
     1
102
RTVSPropertyOp58
 70
     1
102
RTVSPropertyOp59
 70
     1
102
RTVSPropertyOp60
 70
     1
102
RTVSPropertyOp61
 70
     1
102
RTVSPropertyOp62
 70
     1
  0
XRECORD
  5
B279
102
{ACAD_REACTORS
330
B278
102
}
330
B278
100
AcDbXrecord
280
     1
102
RTVSPost2010Prop28
280
     0
102
RTVSPost2010PropOp28
 70
     1
102
RTVSPost2010Prop29
280
     1
102
RTVSPost2010PropOp29
 70
     1
102
RTVSPost2010Prop30
280
     1
102
RTVSPost2010PropOp30
 70
     1
102
RTVSPost2010Prop31
280
     0
102
RTVSPost2010PropOp31
 70
     1
102
RTVSPost2010Prop32
280
     0
102
RTVSPost2010PropOp32
 70
     1
102
RTVSPost2010Prop33
280
     0
102
RTVSPost2010PropOp33
 70
     1
102
RTVSPost2010Prop34
280
     0
102
RTVSPost2010PropOp34
 70
     1
102
RTVSPost2010Prop35
280
     0
102
RTVSPost2010PropOp35
 70
     1
102
RTVSPost2010Prop36
280
     0
102
RTVSPost2010PropOp36
 70
     1
102
RTVSPost2010Prop37
 90
       50
102
RTVSPost2010PropOp37
 70
     1
102
RTVSPost2010Prop38
140
0.0
102
RTVSPost2010PropOp38
 70
     1
102
RTVSPost2010Prop39
140
1.0
102
RTVSPost2010PropOp39
 70
     1
102
RTVSPost2010Prop40
 90
        0
102
RTVSPost2010PropOp40
 70
     1
102
RTVSPost2010Prop41ColorIndex
 90
       18
102
RTVSPost2010Prop41ColorRGB
 90
        0
102
RTVSPost2010PropOp41
 70
     1
102
RTVSPost2010Prop42
 90
       50
102
RTVSPost2010PropOp42
 70
     1
102
RTVSPost2010Prop43
 90
        3
102
RTVSPost2010PropOp43
 70
     1
102
RTVSPost2010Prop44ColorIndex
 90
        5
102
RTVSPost2010Prop44ColorRGB
 90
      255
102
RTVSPost2010PropOp44
 70
     1
102
RTVSPost2010Prop45
280
     0
102
RTVSPost2010PropOp45
 70
     1
102
RTVSPost2010Prop46
 90
       50
102
RTVSPost2010PropOp46
 70
     1
102
RTVSPost2010Prop47
 90
       50
102
RTVSPost2010PropOp47
 70
     1
102
RTVSPost2010Prop48
 90
       50
102
RTVSPost2010PropOp48
 70
     1
102
RTVSPost2010Prop49
280
     0
102
RTVSPost2010PropOp49
 70
     1
102
RTVSPost2010Prop50
 90
       50
102
RTVSPost2010PropOp50
 70
     1
102
RTVSPost2010Prop51ColorIndex
 90
      256
102
RTVSPost2010Prop51ColorRGB
 90
-16777216
102
RTVSPost2010PropOp51
 70
     0
102
RTVSPost2010Prop52
140
1.0
102
RTVSPost2010PropOp52
 70
     0
102
RTVSPost2010Prop53
 90
        2
102
RTVSPost2010PropOp53
 70
     1
102
RTVSPost2010Prop54
  1
strokes_ogs.tif
102
RTVSPost2010PropOp54
 70
     1
102
RTVSPost2010Prop55
280
     0
102
RTVSPost2010PropOp55
 70
     1
102
RTVSPost2010Prop56
140
1.0
102
RTVSPost2010PropOp56
 70
     1
102
RTVSPost2010Prop57
140
1.0
102
RTVSPost2010PropOp57
 70
     1
102
RTVSPropertyOp0
 70
     1
102
RTVSPropertyOp1
 70
     1
102
RTVSPropertyOp2
 70
     1
102
RTVSPropertyOp3
 70
     1
102
RTVSPropertyOp4
 70
     1
102
RTVSPropertyOp5
 70
     1
102
RTVSPropertyOp6
 70
     1
102
RTVSPropertyOp7
 70
     1
102
RTVSPropertyOp8
 70
     1
102
RTVSPropertyOp9
 70
     1
102
RTVSPropertyOp10
 70
     1
102
RTVSPropertyOp11
 70
     1
102
RTVSPropertyOp12
 70
     1
102
RTVSPropertyOp13
 70
     1
102
RTVSPropertyOp14
 70
     1
102
RTVSPropertyOp15
 70
     1
102
RTVSPropertyOp16
 70
     1
102
RTVSPropertyOp17
 70
     1
102
RTVSPropertyOp18
 70
     1
102
RTVSPropertyOp19
 70
     1
102
RTVSPropertyOp20
 70
     1
102
RTVSPropertyOp21
 70
     1
102
RTVSPropertyOp22
 70
     1
102
RTVSPropertyOp23
 70
     1
102
RTVSPropertyOp24
 70
     1
102
RTVSPropertyOp25
 70
     1
102
RTVSPropertyOp26
 70
     1
102
RTVSPropertyOp27
 70
     1
102
RTVSPropertyOp28
 70
     1
102
RTVSPropertyOp29
 70
     1
102
RTVSPropertyOp30
 70
     1
102
RTVSPropertyOp31
 70
     1
102
RTVSPropertyOp32
 70
     1
102
RTVSPropertyOp33
 70
     1
102
RTVSPropertyOp34
 70
     1
102
RTVSPropertyOp35
 70
     1
102
RTVSPropertyOp36
 70
     1
102
RTVSPropertyOp37
 70
     1
102
RTVSPropertyOp38
 70
     1
102
RTVSPropertyOp39
 70
     1
102
RTVSPropertyOp40
 70
     1
102
RTVSPropertyOp41
 70
     1
102
RTVSPropertyOp42
 70
     1
102
RTVSPropertyOp43
 70
     1
102
RTVSPropertyOp44
 70
     1
102
RTVSPropertyOp45
 70
     1
102
RTVSPropertyOp46
 70
     1
102
RTVSPropertyOp47
 70
     1
102
RTVSPropertyOp48
 70
     1
102
RTVSPropertyOp49
 70
     1
102
RTVSPropertyOp50
 70
     1
102
RTVSPropertyOp51
 70
     0
102
RTVSPropertyOp52
 70
     0
102
RTVSPropertyOp53
 70
     1
102
RTVSPropertyOp54
 70
     1
102
RTVSPropertyOp55
 70
     1
102
RTVSPropertyOp56
 70
     1
102
RTVSPropertyOp57
 70
     1
102
RTVSPropertyOp58
 70
     1
102
RTVSPropertyOp59
 70
     1
102
RTVSPropertyOp60
 70
     1
102
RTVSPropertyOp61
 70
     1
102
RTVSPropertyOp62
 70
     1
  0
XRECORD
  5
B27B
102
{ACAD_REACTORS
330
B27A
102
}
330
B27A
100
AcDbXrecord
280
     1
102
RTVSPost2010Prop28
280
     0
102
RTVSPost2010PropOp28
 70
     1
102
RTVSPost2010Prop29
280
     1
102
RTVSPost2010PropOp29
 70
     1
102
RTVSPost2010Prop30
280
     1
102
RTVSPost2010PropOp30
 70
     1
102
RTVSPost2010Prop31
280
     0
102
RTVSPost2010PropOp31
 70
     1
102
RTVSPost2010Prop32
280
     0
102
RTVSPost2010PropOp32
 70
     1
102
RTVSPost2010Prop33
280
     0
102
RTVSPost2010PropOp33
 70
     1
102
RTVSPost2010Prop34
280
     0
102
RTVSPost2010PropOp34
 70
     1
102
RTVSPost2010Prop35
280
     0
102
RTVSPost2010PropOp35
 70
     1
102
RTVSPost2010Prop36
280
     0
102
RTVSPost2010PropOp36
 70
     1
102
RTVSPost2010Prop37
 90
       50
102
RTVSPost2010PropOp37
 70
     1
102
RTVSPost2010Prop38
140
0.0
102
RTVSPost2010PropOp38
 70
     1
102
RTVSPost2010Prop39
140
1.0
102
RTVSPost2010PropOp39
 70
     1
102
RTVSPost2010Prop40
 90
        0
102
RTVSPost2010PropOp40
 70
     1
102
RTVSPost2010Prop41ColorIndex
 90
       18
102
RTVSPost2010Prop41ColorRGB
 90
        0
102
RTVSPost2010PropOp41
 70
     1
102
RTVSPost2010Prop42
 90
       50
102
RTVSPost2010PropOp42
 70
     1
102
RTVSPost2010Prop43
 90
        3
102
RTVSPost2010PropOp43
 70
     1
102
RTVSPost2010Prop44ColorIndex
 90
        5
102
RTVSPost2010Prop44ColorRGB
 90
      255
102
RTVSPost2010PropOp44
 70
     1
102
RTVSPost2010Prop45
280
     0
102
RTVSPost2010PropOp45
 70
     1
102
RTVSPost2010Prop46
 90
       50
102
RTVSPost2010PropOp46
 70
     1
102
RTVSPost2010Prop47
 90
       50
102
RTVSPost2010PropOp47
 70
     1
102
RTVSPost2010Prop48
 90
       50
102
RTVSPost2010PropOp48
 70
     1
102
RTVSPost2010Prop49
280
     0
102
RTVSPost2010PropOp49
 70
     1
102
RTVSPost2010Prop50
 90
       50
102
RTVSPost2010PropOp50
 70
     1
102
RTVSPost2010Prop51ColorIndex
 90
      256
102
RTVSPost2010Prop51ColorRGB
 90
-16777216
102
RTVSPost2010PropOp51
 70
     0
102
RTVSPost2010Prop52
140
1.0
102
RTVSPost2010PropOp52
 70
     0
102
RTVSPost2010Prop53
 90
        2
102
RTVSPost2010PropOp53
 70
     1
102
RTVSPost2010Prop54
  1
strokes_ogs.tif
102
RTVSPost2010PropOp54
 70
     1
102
RTVSPost2010Prop55
280
     0
102
RTVSPost2010PropOp55
 70
     1
102
RTVSPost2010Prop56
140
1.0
102
RTVSPost2010PropOp56
 70
     1
102
RTVSPost2010Prop57
140
1.0
102
RTVSPost2010PropOp57
 70
     1
102
RTVSPropertyOp0
 70
     1
102
RTVSPropertyOp1
 70
     1
102
RTVSPropertyOp2
 70
     1
102
RTVSPropertyOp3
 70
     1
102
RTVSPropertyOp4
 70
     1
102
RTVSPropertyOp5
 70
     1
102
RTVSPropertyOp6
 70
     1
102
RTVSPropertyOp7
 70
     1
102
RTVSPropertyOp8
 70
     1
102
RTVSPropertyOp9
 70
     1
102
RTVSPropertyOp10
 70
     1
102
RTVSPropertyOp11
 70
     1
102
RTVSPropertyOp12
 70
     1
102
RTVSPropertyOp13
 70
     1
102
RTVSPropertyOp14
 70
     1
102
RTVSPropertyOp15
 70
     1
102
RTVSPropertyOp16
 70
     1
102
RTVSPropertyOp17
 70
     1
102
RTVSPropertyOp18
 70
     1
102
RTVSPropertyOp19
 70
     1
102
RTVSPropertyOp20
 70
     1
102
RTVSPropertyOp21
 70
     1
102
RTVSPropertyOp22
 70
     1
102
RTVSPropertyOp23
 70
     1
102
RTVSPropertyOp24
 70
     1
102
RTVSPropertyOp25
 70
     1
102
RTVSPropertyOp26
 70
     1
102
RTVSPropertyOp27
 70
     1
102
RTVSPropertyOp28
 70
     1
102
RTVSPropertyOp29
 70
     1
102
RTVSPropertyOp30
 70
     1
102
RTVSPropertyOp31
 70
     1
102
RTVSPropertyOp32
 70
     1
102
RTVSPropertyOp33
 70
     1
102
RTVSPropertyOp34
 70
     1
102
RTVSPropertyOp35
 70
     1
102
RTVSPropertyOp36
 70
     1
102
RTVSPropertyOp37
 70
     1
102
RTVSPropertyOp38
 70
     1
102
RTVSPropertyOp39
 70
     1
102
RTVSPropertyOp40
 70
     1
102
RTVSPropertyOp41
 70
     1
102
RTVSPropertyOp42
 70
     1
102
RTVSPropertyOp43
 70
     1
102
RTVSPropertyOp44
 70
     1
102
RTVSPropertyOp45
 70
     1
102
RTVSPropertyOp46
 70
     1
102
RTVSPropertyOp47
 70
     1
102
RTVSPropertyOp48
 70
     1
102
RTVSPropertyOp49
 70
     1
102
RTVSPropertyOp50
 70
     1
102
RTVSPropertyOp51
 70
     0
102
RTVSPropertyOp52
 70
     0
102
RTVSPropertyOp53
 70
     1
102
RTVSPropertyOp54
 70
     1
102
RTVSPropertyOp55
 70
     1
102
RTVSPropertyOp56
 70
     1
102
RTVSPropertyOp57
 70
     1
102
RTVSPropertyOp58
 70
     1
102
RTVSPropertyOp59
 70
     1
102
RTVSPropertyOp60
 70
     1
102
RTVSPropertyOp61
 70
     1
102
RTVSPropertyOp62
 70
     1
  0
XRECORD
  5
B27D
102
{ACAD_REACTORS
330
B27C
102
}
330
B27C
100
AcDbXrecord
280
     1
102
RTVSPost2010Prop28
280
     0
102
RTVSPost2010PropOp28
 70
     1
102
RTVSPost2010Prop29
280
     1
102
RTVSPost2010PropOp29
 70
     1
102
RTVSPost2010Prop30
280
     1
102
RTVSPost2010PropOp30
 70
     1
102
RTVSPost2010Prop31
280
     0
102
RTVSPost2010PropOp31
 70
     1
102
RTVSPost2010Prop32
280
     0
102
RTVSPost2010PropOp32
 70
     1
102
RTVSPost2010Prop33
280
     0
102
RTVSPost2010PropOp33
 70
     1
102
RTVSPost2010Prop34
280
     0
102
RTVSPost2010PropOp34
 70
     1
102
RTVSPost2010Prop35
280
     0
102
RTVSPost2010PropOp35
 70
     1
102
RTVSPost2010Prop36
280
     0
102
RTVSPost2010PropOp36
 70
     1
102
RTVSPost2010Prop37
 90
       50
102
RTVSPost2010PropOp37
 70
     1
102
RTVSPost2010Prop38
140
0.0
102
RTVSPost2010PropOp38
 70
     1
102
RTVSPost2010Prop39
140
1.0
102
RTVSPost2010PropOp39
 70
     1
102
RTVSPost2010Prop40
 90
        0
102
RTVSPost2010PropOp40
 70
     1
102
RTVSPost2010Prop41ColorIndex
 90
       18
102
RTVSPost2010Prop41ColorRGB
 90
        0
102
RTVSPost2010PropOp41
 70
     1
102
RTVSPost2010Prop42
 90
       50
102
RTVSPost2010PropOp42
 70
     1
102
RTVSPost2010Prop43
 90
        3
102
RTVSPost2010PropOp43
 70
     1
102
RTVSPost2010Prop44ColorIndex
 90
        5
102
RTVSPost2010Prop44ColorRGB
 90
      255
102
RTVSPost2010PropOp44
 70
     1
102
RTVSPost2010Prop45
280
     0
102
RTVSPost2010PropOp45
 70
     1
102
RTVSPost2010Prop46
 90
       50
102
RTVSPost2010PropOp46
 70
     1
102
RTVSPost2010Prop47
 90
       50
102
RTVSPost2010PropOp47
 70
     1
102
RTVSPost2010Prop48
 90
       50
102
RTVSPost2010PropOp48
 70
     1
102
RTVSPost2010Prop49
280
     0
102
RTVSPost2010PropOp49
 70
     1
102
RTVSPost2010Prop50
 90
       50
102
RTVSPost2010PropOp50
 70
     1
102
RTVSPost2010Prop51ColorIndex
 90
      256
102
RTVSPost2010Prop51ColorRGB
 90
-16777216
102
RTVSPost2010PropOp51
 70
     0
102
RTVSPost2010Prop52
140
1.0
102
RTVSPost2010PropOp52
 70
     0
102
RTVSPost2010Prop53
 90
        2
102
RTVSPost2010PropOp53
 70
     1
102
RTVSPost2010Prop54
  1
strokes_ogs.tif
102
RTVSPost2010PropOp54
 70
     1
102
RTVSPost2010Prop55
280
     0
102
RTVSPost2010PropOp55
 70
     1
102
RTVSPost2010Prop56
140
1.0
102
RTVSPost2010PropOp56
 70
     1
102
RTVSPost2010Prop57
140
1.0
102
RTVSPost2010PropOp57
 70
     1
102
RTVSPropertyOp0
 70
     1
102
RTVSPropertyOp1
 70
     1
102
RTVSPropertyOp2
 70
     1
102
RTVSPropertyOp3
 70
     1
102
RTVSPropertyOp4
 70
     1
102
RTVSPropertyOp5
 70
     1
102
RTVSPropertyOp6
 70
     1
102
RTVSPropertyOp7
 70
     1
102
RTVSPropertyOp8
 70
     1
102
RTVSPropertyOp9
 70
     1
102
RTVSPropertyOp10
 70
     1
102
RTVSPropertyOp11
 70
     1
102
RTVSPropertyOp12
 70
     1
102
RTVSPropertyOp13
 70
     1
102
RTVSPropertyOp14
 70
     1
102
RTVSPropertyOp15
 70
     1
102
RTVSPropertyOp16
 70
     1
102
RTVSPropertyOp17
 70
     1
102
RTVSPropertyOp18
 70
     1
102
RTVSPropertyOp19
 70
     1
102
RTVSPropertyOp20
 70
     1
102
RTVSPropertyOp21
 70
     1
102
RTVSPropertyOp22
 70
     1
102
RTVSPropertyOp23
 70
     1
102
RTVSPropertyOp24
 70
     1
102
RTVSPropertyOp25
 70
     1
102
RTVSPropertyOp26
 70
     1
102
RTVSPropertyOp27
 70
     1
102
RTVSPropertyOp28
 70
     1
102
RTVSPropertyOp29
 70
     1
102
RTVSPropertyOp30
 70
     1
102
RTVSPropertyOp31
 70
     1
102
RTVSPropertyOp32
 70
     1
102
RTVSPropertyOp33
 70
     1
102
RTVSPropertyOp34
 70
     1
102
RTVSPropertyOp35
 70
     1
102
RTVSPropertyOp36
 70
     1
102
RTVSPropertyOp37
 70
     1
102
RTVSPropertyOp38
 70
     1
102
RTVSPropertyOp39
 70
     1
102
RTVSPropertyOp40
 70
     1
102
RTVSPropertyOp41
 70
     1
102
RTVSPropertyOp42
 70
     1
102
RTVSPropertyOp43
 70
     1
102
RTVSPropertyOp44
 70
     1
102
RTVSPropertyOp45
 70
     1
102
RTVSPropertyOp46
 70
     1
102
RTVSPropertyOp47
 70
     1
102
RTVSPropertyOp48
 70
     1
102
RTVSPropertyOp49
 70
     1
102
RTVSPropertyOp50
 70
     1
102
RTVSPropertyOp51
 70
     0
102
RTVSPropertyOp52
 70
     0
102
RTVSPropertyOp53
 70
     1
102
RTVSPropertyOp54
 70
     1
102
RTVSPropertyOp55
 70
     1
102
RTVSPropertyOp56
 70
     1
102
RTVSPropertyOp57
 70
     1
102
RTVSPropertyOp58
 70
     1
102
RTVSPropertyOp59
 70
     1
102
RTVSPropertyOp60
 70
     1
102
RTVSPropertyOp61
 70
     1
102
RTVSPropertyOp62
 70
     1
  0
XRECORD
  5
B285
102
{ACAD_REACTORS
330
B284
102
}
330
B284
100
AcDbXrecord
280
     1
102
RTVSPost2010Prop28
280
     0
102
RTVSPost2010PropOp28
 70
     1
102
RTVSPost2010Prop29
280
     1
102
RTVSPost2010PropOp29
 70
     1
102
RTVSPost2010Prop30
280
     1
102
RTVSPost2010PropOp30
 70
     1
102
RTVSPost2010Prop31
280
     0
102
RTVSPost2010PropOp31
 70
     1
102
RTVSPost2010Prop32
280
     0
102
RTVSPost2010PropOp32
 70
     1
102
RTVSPost2010Prop33
280
     0
102
RTVSPost2010PropOp33
 70
     1
102
RTVSPost2010Prop34
280
     0
102
RTVSPost2010PropOp34
 70
     1
102
RTVSPost2010Prop35
280
     0
102
RTVSPost2010PropOp35
 70
     1
102
RTVSPost2010Prop36
280
     0
102
RTVSPost2010PropOp36
 70
     1
102
RTVSPost2010Prop37
 90
       50
102
RTVSPost2010PropOp37
 70
     1
102
RTVSPost2010Prop38
140
0.0
102
RTVSPost2010PropOp38
 70
     1
102
RTVSPost2010Prop39
140
1.0
102
RTVSPost2010PropOp39
 70
     1
102
RTVSPost2010Prop40
 90
        0
102
RTVSPost2010PropOp40
 70
     1
102
RTVSPost2010Prop41ColorIndex
 90
       18
102
RTVSPost2010Prop41ColorRGB
 90
        0
102
RTVSPost2010PropOp41
 70
     1
102
RTVSPost2010Prop42
 90
       50
102
RTVSPost2010PropOp42
 70
     1
102
RTVSPost2010Prop43
 90
        3
102
RTVSPost2010PropOp43
 70
     1
102
RTVSPost2010Prop44ColorIndex
 90
        5
102
RTVSPost2010Prop44ColorRGB
 90
      255
102
RTVSPost2010PropOp44
 70
     1
102
RTVSPost2010Prop45
280
     0
102
RTVSPost2010PropOp45
 70
     1
102
RTVSPost2010Prop46
 90
       50
102
RTVSPost2010PropOp46
 70
     1
102
RTVSPost2010Prop47
 90
       50
102
RTVSPost2010PropOp47
 70
     1
102
RTVSPost2010Prop48
 90
       50
102
RTVSPost2010PropOp48
 70
     1
102
RTVSPost2010Prop49
280
     0
102
RTVSPost2010PropOp49
 70
     1
102
RTVSPost2010Prop50
 90
       50
102
RTVSPost2010PropOp50
 70
     1
102
RTVSPost2010Prop51ColorIndex
 90
      256
102
RTVSPost2010Prop51ColorRGB
 90
-16777216
102
RTVSPost2010PropOp51
 70
     0
102
RTVSPost2010Prop52
140
1.0
102
RTVSPost2010PropOp52
 70
     0
102
RTVSPost2010Prop53
 90
        2
102
RTVSPost2010PropOp53
 70
     1
102
RTVSPost2010Prop54
  1
strokes_ogs.tif
102
RTVSPost2010PropOp54
 70
     1
102
RTVSPost2010Prop55
280
     0
102
RTVSPost2010PropOp55
 70
     1
102
RTVSPost2010Prop56
140
1.0
102
RTVSPost2010PropOp56
 70
     1
102
RTVSPost2010Prop57
140
1.0
102
RTVSPost2010PropOp57
 70
     1
102
RTVSPropertyOp0
 70
     1
102
RTVSPropertyOp1
 70
     1
102
RTVSPropertyOp2
 70
     1
102
RTVSPropertyOp3
 70
     1
102
RTVSPropertyOp4
 70
     1
102
RTVSPropertyOp5
 70
     1
102
RTVSPropertyOp6
 70
     1
102
RTVSPropertyOp7
 70
     1
102
RTVSPropertyOp8
 70
     1
102
RTVSPropertyOp9
 70
     1
102
RTVSPropertyOp10
 70
     1
102
RTVSPropertyOp11
 70
     1
102
RTVSPropertyOp12
 70
     1
102
RTVSPropertyOp13
 70
     1
102
RTVSPropertyOp14
 70
     1
102
RTVSPropertyOp15
 70
     1
102
RTVSPropertyOp16
 70
     1
102
RTVSPropertyOp17
 70
     1
102
RTVSPropertyOp18
 70
     1
102
RTVSPropertyOp19
 70
     1
102
RTVSPropertyOp20
 70
     1
102
RTVSPropertyOp21
 70
     1
102
RTVSPropertyOp22
 70
     1
102
RTVSPropertyOp23
 70
     1
102
RTVSPropertyOp24
 70
     1
102
RTVSPropertyOp25
 70
     1
102
RTVSPropertyOp26
 70
     1
102
RTVSPropertyOp27
 70
     1
102
RTVSPropertyOp28
 70
     1
102
RTVSPropertyOp29
 70
     1
102
RTVSPropertyOp30
 70
     1
102
RTVSPropertyOp31
 70
     1
102
RTVSPropertyOp32
 70
     1
102
RTVSPropertyOp33
 70
     1
102
RTVSPropertyOp34
 70
     1
102
RTVSPropertyOp35
 70
     1
102
RTVSPropertyOp36
 70
     1
102
RTVSPropertyOp37
 70
     1
102
RTVSPropertyOp38
 70
     1
102
RTVSPropertyOp39
 70
     1
102
RTVSPropertyOp40
 70
     1
102
RTVSPropertyOp41
 70
     1
102
RTVSPropertyOp42
 70
     1
102
RTVSPropertyOp43
 70
     1
102
RTVSPropertyOp44
 70
     1
102
RTVSPropertyOp45
 70
     1
102
RTVSPropertyOp46
 70
     1
102
RTVSPropertyOp47
 70
     1
102
RTVSPropertyOp48
 70
     1
102
RTVSPropertyOp49
 70
     1
102
RTVSPropertyOp50
 70
     1
102
RTVSPropertyOp51
 70
     0
102
RTVSPropertyOp52
 70
     0
102
RTVSPropertyOp53
 70
     1
102
RTVSPropertyOp54
 70
     1
102
RTVSPropertyOp55
 70
     1
102
RTVSPropertyOp56
 70
     1
102
RTVSPropertyOp57
 70
     1
102
RTVSPropertyOp58
 70
     1
102
RTVSPropertyOp59
 70
     1
102
RTVSPropertyOp60
 70
     1
102
RTVSPropertyOp61
 70
     1
102
RTVSPropertyOp62
 70
     1
  0
XRECORD
  5
B2A1
102
{ACAD_REACTORS
330
B2A0
102
}
330
B2A0
100
AcDbXrecord
280
     1
102
RTVSPost2010Prop28
280
     0
102
RTVSPost2010PropOp28
 70
     1
102
RTVSPost2010Prop29
280
     1
102
RTVSPost2010PropOp29
 70
     1
102
RTVSPost2010Prop30
280
     1
102
RTVSPost2010PropOp30
 70
     1
102
RTVSPost2010Prop31
280
     0
102
RTVSPost2010PropOp31
 70
     1
102
RTVSPost2010Prop32
280
     0
102
RTVSPost2010PropOp32
 70
     1
102
RTVSPost2010Prop33
280
     0
102
RTVSPost2010PropOp33
 70
     1
102
RTVSPost2010Prop34
280
     0
102
RTVSPost2010PropOp34
 70
     1
102
RTVSPost2010Prop35
280
     0
102
RTVSPost2010PropOp35
 70
     1
102
RTVSPost2010Prop36
280
     0
102
RTVSPost2010PropOp36
 70
     1
102
RTVSPost2010Prop37
 90
       50
102
RTVSPost2010PropOp37
 70
     0
102
RTVSPost2010Prop38
140
0.0
102
RTVSPost2010PropOp38
 70
     0
102
RTVSPost2010Prop39
140
1.0
102
RTVSPost2010PropOp39
 70
     0
102
RTVSPost2010Prop40
 90
        0
102
RTVSPost2010PropOp40
 70
     0
102
RTVSPost2010Prop41ColorIndex
 90
       18
102
RTVSPost2010Prop41ColorRGB
 90
        0
102
RTVSPost2010PropOp41
 70
     0
102
RTVSPost2010Prop42
 90
       50
102
RTVSPost2010PropOp42
 70
     0
102
RTVSPost2010Prop43
 90
        3
102
RTVSPost2010PropOp43
 70
     0
102
RTVSPost2010Prop44ColorIndex
 90
        5
102
RTVSPost2010Prop44ColorRGB
 90
      255
102
RTVSPost2010PropOp44
 70
     0
102
RTVSPost2010Prop45
280
     0
102
RTVSPost2010PropOp45
 70
     1
102
RTVSPost2010Prop46
 90
       50
102
RTVSPost2010PropOp46
 70
     0
102
RTVSPost2010Prop47
 90
       50
102
RTVSPost2010PropOp47
 70
     0
102
RTVSPost2010Prop48
 90
       50
102
RTVSPost2010PropOp48
 70
     0
102
RTVSPost2010Prop49
280
     0
102
RTVSPost2010PropOp49
 70
     1
102
RTVSPost2010Prop50
 90
       50
102
RTVSPost2010PropOp50
 70
     0
102
RTVSPost2010Prop51ColorIndex
 90
      256
102
RTVSPost2010Prop51ColorRGB
 90
-16777216
102
RTVSPost2010PropOp51
 70
     0
102
RTVSPost2010Prop52
140
1.0
102
RTVSPost2010PropOp52
 70
     0
102
RTVSPost2010Prop53
 90
        2
102
RTVSPost2010PropOp53
 70
     0
102
RTVSPost2010Prop54
  1
strokes_ogs.tif
102
RTVSPost2010PropOp54
 70
     0
102
RTVSPost2010Prop55
280
     0
102
RTVSPost2010PropOp55
 70
     1
102
RTVSPost2010Prop56
140
1.0
102
RTVSPost2010PropOp56
 70
     0
102
RTVSPost2010Prop57
140
1.0
102
RTVSPost2010PropOp57
 70
     0
102
RTVSPropertyOp0
 70
     0
102
RTVSPropertyOp1
 70
     0
102
RTVSPropertyOp2
 70
     0
102
RTVSPropertyOp3
 70
     0
102
RTVSPropertyOp4
 70
     0
102
RTVSPropertyOp5
 70
     0
102
RTVSPropertyOp6
 70
     0
102
RTVSPropertyOp7
 70
     0
102
RTVSPropertyOp8
 70
     0
102
RTVSPropertyOp9
 70
     0
102
RTVSPropertyOp10
 70
     0
102
RTVSPropertyOp11
 70
     0
102
RTVSPropertyOp12
 70
     0
102
RTVSPropertyOp13
 70
     0
102
RTVSPropertyOp14
 70
     2
102
RTVSPropertyOp15
 70
     0
102
RTVSPropertyOp16
 70
     0
102
RTVSPropertyOp17
 70
     0
102
RTVSPropertyOp18
 70
     0
102
RTVSPropertyOp19
 70
     0
102
RTVSPropertyOp20
 70
     0
102
RTVSPropertyOp21
 70
     0
102
RTVSPropertyOp22
 70
     0
102
RTVSPropertyOp23
 70
     0
102
RTVSPropertyOp24
 70
     0
102
RTVSPropertyOp25
 70
     0
102
RTVSPropertyOp26
 70
     0
102
RTVSPropertyOp27
 70
     0
102
RTVSPropertyOp28
 70
     1
102
RTVSPropertyOp29
 70
     1
102
RTVSPropertyOp30
 70
     1
102
RTVSPropertyOp31
 70
     1
102
RTVSPropertyOp32
 70
     1
102
RTVSPropertyOp33
 70
     1
102
RTVSPropertyOp34
 70
     1
102
RTVSPropertyOp35
 70
     1
102
RTVSPropertyOp36
 70
     1
102
RTVSPropertyOp37
 70
     0
102
RTVSPropertyOp38
 70
     0
102
RTVSPropertyOp39
 70
     0
102
RTVSPropertyOp40
 70
     0
102
RTVSPropertyOp41
 70
     0
102
RTVSPropertyOp42
 70
     0
102
RTVSPropertyOp43
 70
     0
102
RTVSPropertyOp44
 70
     0
102
RTVSPropertyOp45
 70
     1
102
RTVSPropertyOp46
 70
     0
102
RTVSPropertyOp47
 70
     0
102
RTVSPropertyOp48
 70
     0
102
RTVSPropertyOp49
 70
     1
102
RTVSPropertyOp50
 70
     0
102
RTVSPropertyOp51
 70
     0
102
RTVSPropertyOp52
 70
     0
102
RTVSPropertyOp53
 70
     0
102
RTVSPropertyOp54
 70
     0
102
RTVSPropertyOp55
 70
     1
102
RTVSPropertyOp56
 70
     0
102
RTVSPropertyOp57
 70
     0
102
RTVSPropertyOp58
 70
     0
102
RTVSPropertyOp59
 70
     0
102
RTVSPropertyOp60
 70
     0
102
RTVSPropertyOp61
 70
     0
102
RTVSPropertyOp62
 70
     0
  0
XRECORD
  5
B291
102
{ACAD_REACTORS
330
B290
102
}
330
B290
100
AcDbXrecord
280
     1
102
RTVSPost2010Prop28
280
     0
102
RTVSPost2010PropOp28
 70
     1
102
RTVSPost2010Prop29
280
     1
102
RTVSPost2010PropOp29
 70
     1
102
RTVSPost2010Prop30
280
     1
102
RTVSPost2010PropOp30
 70
     1
102
RTVSPost2010Prop31
280
     0
102
RTVSPost2010PropOp31
 70
     1
102
RTVSPost2010Prop32
280
     0
102
RTVSPost2010PropOp32
 70
     1
102
RTVSPost2010Prop33
280
     0
102
RTVSPost2010PropOp33
 70
     1
102
RTVSPost2010Prop34
280
     0
102
RTVSPost2010PropOp34
 70
     1
102
RTVSPost2010Prop35
280
     0
102
RTVSPost2010PropOp35
 70
     1
102
RTVSPost2010Prop36
280
     0
102
RTVSPost2010PropOp36
 70
     1
102
RTVSPost2010Prop37
 90
       50
102
RTVSPost2010PropOp37
 70
     1
102
RTVSPost2010Prop38
140
0.0
102
RTVSPost2010PropOp38
 70
     1
102
RTVSPost2010Prop39
140
1.0
102
RTVSPost2010PropOp39
 70
     1
102
RTVSPost2010Prop40
 90
        0
102
RTVSPost2010PropOp40
 70
     1
102
RTVSPost2010Prop41ColorIndex
 90
       18
102
RTVSPost2010Prop41ColorRGB
 90
        0
102
RTVSPost2010PropOp41
 70
     1
102
RTVSPost2010Prop42
 90
       50
102
RTVSPost2010PropOp42
 70
     1
102
RTVSPost2010Prop43
 90
        3
102
RTVSPost2010PropOp43
 70
     1
102
RTVSPost2010Prop44ColorIndex
 90
        5
102
RTVSPost2010Prop44ColorRGB
 90
      255
102
RTVSPost2010PropOp44
 70
     1
102
RTVSPost2010Prop45
280
     0
102
RTVSPost2010PropOp45
 70
     1
102
RTVSPost2010Prop46
 90
       50
102
RTVSPost2010PropOp46
 70
     1
102
RTVSPost2010Prop47
 90
       50
102
RTVSPost2010PropOp47
 70
     1
102
RTVSPost2010Prop48
 90
       50
102
RTVSPost2010PropOp48
 70
     1
102
RTVSPost2010Prop49
280
     0
102
RTVSPost2010PropOp49
 70
     1
102
RTVSPost2010Prop50
 90
       50
102
RTVSPost2010PropOp50
 70
     1
102
RTVSPost2010Prop51ColorIndex
 90
      256
102
RTVSPost2010Prop51ColorRGB
 90
-16777216
102
RTVSPost2010PropOp51
 70
     0
102
RTVSPost2010Prop52
140
1.0
102
RTVSPost2010PropOp52
 70
     0
102
RTVSPost2010Prop53
 90
        2
102
RTVSPost2010PropOp53
 70
     1
102
RTVSPost2010Prop54
  1
strokes_ogs.tif
102
RTVSPost2010PropOp54
 70
     1
102
RTVSPost2010Prop55
280
     0
102
RTVSPost2010PropOp55
 70
     1
102
RTVSPost2010Prop56
140
1.0
102
RTVSPost2010PropOp56
 70
     1
102
RTVSPost2010Prop57
140
1.0
102
RTVSPost2010PropOp57
 70
     1
102
RTVSPropertyOp0
 70
     1
102
RTVSPropertyOp1
 70
     1
102
RTVSPropertyOp2
 70
     1
102
RTVSPropertyOp3
 70
     1
102
RTVSPropertyOp4
 70
     1
102
RTVSPropertyOp5
 70
     1
102
RTVSPropertyOp6
 70
     1
102
RTVSPropertyOp7
 70
     1
102
RTVSPropertyOp8
 70
     1
102
RTVSPropertyOp9
 70
     1
102
RTVSPropertyOp10
 70
     1
102
RTVSPropertyOp11
 70
     1
102
RTVSPropertyOp12
 70
     1
102
RTVSPropertyOp13
 70
     1
102
RTVSPropertyOp14
 70
     1
102
RTVSPropertyOp15
 70
     1
102
RTVSPropertyOp16
 70
     1
102
RTVSPropertyOp17
 70
     1
102
RTVSPropertyOp18
 70
     1
102
RTVSPropertyOp19
 70
     1
102
RTVSPropertyOp20
 70
     1
102
RTVSPropertyOp21
 70
     1
102
RTVSPropertyOp22
 70
     1
102
RTVSPropertyOp23
 70
     1
102
RTVSPropertyOp24
 70
     1
102
RTVSPropertyOp25
 70
     1
102
RTVSPropertyOp26
 70
     1
102
RTVSPropertyOp27
 70
     1
102
RTVSPropertyOp28
 70
     1
102
RTVSPropertyOp29
 70
     1
102
RTVSPropertyOp30
 70
     1
102
RTVSPropertyOp31
 70
     1
102
RTVSPropertyOp32
 70
     1
102
RTVSPropertyOp33
 70
     1
102
RTVSPropertyOp34
 70
     1
102
RTVSPropertyOp35
 70
     1
102
RTVSPropertyOp36
 70
     1
102
RTVSPropertyOp37
 70
     1
102
RTVSPropertyOp38
 70
     1
102
RTVSPropertyOp39
 70
     1
102
RTVSPropertyOp40
 70
     1
102
RTVSPropertyOp41
 70
     1
102
RTVSPropertyOp42
 70
     1
102
RTVSPropertyOp43
 70
     1
102
RTVSPropertyOp44
 70
     1
102
RTVSPropertyOp45
 70
     1
102
RTVSPropertyOp46
 70
     1
102
RTVSPropertyOp47
 70
     1
102
RTVSPropertyOp48
 70
     1
102
RTVSPropertyOp49
 70
     1
102
RTVSPropertyOp50
 70
     1
102
RTVSPropertyOp51
 70
     0
102
RTVSPropertyOp52
 70
     0
102
RTVSPropertyOp53
 70
     1
102
RTVSPropertyOp54
 70
     1
102
RTVSPropertyOp55
 70
     1
102
RTVSPropertyOp56
 70
     1
102
RTVSPropertyOp57
 70
     1
102
RTVSPropertyOp58
 70
     1
102
RTVSPropertyOp59
 70
     1
102
RTVSPropertyOp60
 70
     1
102
RTVSPropertyOp61
 70
     1
102
RTVSPropertyOp62
 70
     1
  0
XRECORD
  5
B2A3
102
{ACAD_REACTORS
330
B2A2
102
}
330
B2A2
100
AcDbXrecord
280
     1
102
RTVSPost2010Prop28
280
     0
102
RTVSPost2010PropOp28
 70
     1
102
RTVSPost2010Prop29
280
     1
102
RTVSPost2010PropOp29
 70
     1
102
RTVSPost2010Prop30
280
     1
102
RTVSPost2010PropOp30
 70
     1
102
RTVSPost2010Prop31
280
     0
102
RTVSPost2010PropOp31
 70
     1
102
RTVSPost2010Prop32
280
     0
102
RTVSPost2010PropOp32
 70
     1
102
RTVSPost2010Prop33
280
     0
102
RTVSPost2010PropOp33
 70
     1
102
RTVSPost2010Prop34
280
     0
102
RTVSPost2010PropOp34
 70
     1
102
RTVSPost2010Prop35
280
     0
102
RTVSPost2010PropOp35
 70
     1
102
RTVSPost2010Prop36
280
     0
102
RTVSPost2010PropOp36
 70
     1
102
RTVSPost2010Prop37
 90
       50
102
RTVSPost2010PropOp37
 70
     0
102
RTVSPost2010Prop38
140
0.0
102
RTVSPost2010PropOp38
 70
     0
102
RTVSPost2010Prop39
140
1.0
102
RTVSPost2010PropOp39
 70
     0
102
RTVSPost2010Prop40
 90
        0
102
RTVSPost2010PropOp40
 70
     0
102
RTVSPost2010Prop41ColorIndex
 90
       18
102
RTVSPost2010Prop41ColorRGB
 90
        0
102
RTVSPost2010PropOp41
 70
     0
102
RTVSPost2010Prop42
 90
       50
102
RTVSPost2010PropOp42
 70
     0
102
RTVSPost2010Prop43
 90
        3
102
RTVSPost2010PropOp43
 70
     0
102
RTVSPost2010Prop44ColorIndex
 90
        5
102
RTVSPost2010Prop44ColorRGB
 90
      255
102
RTVSPost2010PropOp44
 70
     0
102
RTVSPost2010Prop45
280
     0
102
RTVSPost2010PropOp45
 70
     1
102
RTVSPost2010Prop46
 90
       50
102
RTVSPost2010PropOp46
 70
     0
102
RTVSPost2010Prop47
 90
       50
102
RTVSPost2010PropOp47
 70
     0
102
RTVSPost2010Prop48
 90
       50
102
RTVSPost2010PropOp48
 70
     0
102
RTVSPost2010Prop49
280
     0
102
RTVSPost2010PropOp49
 70
     1
102
RTVSPost2010Prop50
 90
       50
102
RTVSPost2010PropOp50
 70
     0
102
RTVSPost2010Prop51ColorIndex
 90
      256
102
RTVSPost2010Prop51ColorRGB
 90
-16777216
102
RTVSPost2010PropOp51
 70
     0
102
RTVSPost2010Prop52
140
1.0
102
RTVSPost2010PropOp52
 70
     0
102
RTVSPost2010Prop53
 90
        2
102
RTVSPost2010PropOp53
 70
     0
102
RTVSPost2010Prop54
  1
strokes_ogs.tif
102
RTVSPost2010PropOp54
 70
     0
102
RTVSPost2010Prop55
280
     0
102
RTVSPost2010PropOp55
 70
     1
102
RTVSPost2010Prop56
140
1.0
102
RTVSPost2010PropOp56
 70
     0
102
RTVSPost2010Prop57
140
1.0
102
RTVSPost2010PropOp57
 70
     0
102
RTVSPropertyOp0
 70
     0
102
RTVSPropertyOp1
 70
     0
102
RTVSPropertyOp2
 70
     0
102
RTVSPropertyOp3
 70
     0
102
RTVSPropertyOp4
 70
     0
102
RTVSPropertyOp5
 70
     0
102
RTVSPropertyOp6
 70
     0
102
RTVSPropertyOp7
 70
     0
102
RTVSPropertyOp8
 70
     0
102
RTVSPropertyOp9
 70
     0
102
RTVSPropertyOp10
 70
     0
102
RTVSPropertyOp11
 70
     0
102
RTVSPropertyOp12
 70
     0
102
RTVSPropertyOp13
 70
     0
102
RTVSPropertyOp14
 70
     2
102
RTVSPropertyOp15
 70
     0
102
RTVSPropertyOp16
 70
     0
102
RTVSPropertyOp17
 70
     0
102
RTVSPropertyOp18
 70
     0
102
RTVSPropertyOp19
 70
     0
102
RTVSPropertyOp20
 70
     0
102
RTVSPropertyOp21
 70
     0
102
RTVSPropertyOp22
 70
     0
102
RTVSPropertyOp23
 70
     0
102
RTVSPropertyOp24
 70
     0
102
RTVSPropertyOp25
 70
     0
102
RTVSPropertyOp26
 70
     0
102
RTVSPropertyOp27
 70
     0
102
RTVSPropertyOp28
 70
     1
102
RTVSPropertyOp29
 70
     1
102
RTVSPropertyOp30
 70
     1
102
RTVSPropertyOp31
 70
     1
102
RTVSPropertyOp32
 70
     1
102
RTVSPropertyOp33
 70
     1
102
RTVSPropertyOp34
 70
     1
102
RTVSPropertyOp35
 70
     1
102
RTVSPropertyOp36
 70
     1
102
RTVSPropertyOp37
 70
     0
102
RTVSPropertyOp38
 70
     0
102
RTVSPropertyOp39
 70
     0
102
RTVSPropertyOp40
 70
     0
102
RTVSPropertyOp41
 70
     0
102
RTVSPropertyOp42
 70
     0
102
RTVSPropertyOp43
 70
     0
102
RTVSPropertyOp44
 70
     0
102
RTVSPropertyOp45
 70
     1
102
RTVSPropertyOp46
 70
     0
102
RTVSPropertyOp47
 70
     0
102
RTVSPropertyOp48
 70
     0
102
RTVSPropertyOp49
 70
     1
102
RTVSPropertyOp50
 70
     0
102
RTVSPropertyOp51
 70
     0
102
RTVSPropertyOp52
 70
     0
102
RTVSPropertyOp53
 70
     0
102
RTVSPropertyOp54
 70
     0
102
RTVSPropertyOp55
 70
     1
102
RTVSPropertyOp56
 70
     0
102
RTVSPropertyOp57
 70
     0
102
RTVSPropertyOp58
 70
     0
102
RTVSPropertyOp59
 70
     0
102
RTVSPropertyOp60
 70
     0
102
RTVSPropertyOp61
 70
     0
102
RTVSPropertyOp62
 70
     0
  0
XRECORD
  5
B289
102
{ACAD_REACTORS
330
B288
102
}
330
B288
100
AcDbXrecord
280
     1
102
RTVSPost2010Prop28
280
     0
102
RTVSPost2010PropOp28
 70
     1
102
RTVSPost2010Prop29
280
     1
102
RTVSPost2010PropOp29
 70
     1
102
RTVSPost2010Prop30
280
     1
102
RTVSPost2010PropOp30
 70
     1
102
RTVSPost2010Prop31
280
     0
102
RTVSPost2010PropOp31
 70
     1
102
RTVSPost2010Prop32
280
     0
102
RTVSPost2010PropOp32
 70
     1
102
RTVSPost2010Prop33
280
     0
102
RTVSPost2010PropOp33
 70
     1
102
RTVSPost2010Prop34
280
     0
102
RTVSPost2010PropOp34
 70
     1
102
RTVSPost2010Prop35
280
     0
102
RTVSPost2010PropOp35
 70
     1
102
RTVSPost2010Prop36
280
     0
102
RTVSPost2010PropOp36
 70
     1
102
RTVSPost2010Prop37
 90
       50
102
RTVSPost2010PropOp37
 70
     1
102
RTVSPost2010Prop38
140
0.0
102
RTVSPost2010PropOp38
 70
     1
102
RTVSPost2010Prop39
140
1.0
102
RTVSPost2010PropOp39
 70
     1
102
RTVSPost2010Prop40
 90
        0
102
RTVSPost2010PropOp40
 70
     1
102
RTVSPost2010Prop41ColorIndex
 90
       18
102
RTVSPost2010Prop41ColorRGB
 90
        0
102
RTVSPost2010PropOp41
 70
     1
102
RTVSPost2010Prop42
 90
       50
102
RTVSPost2010PropOp42
 70
     1
102
RTVSPost2010Prop43
 90
        3
102
RTVSPost2010PropOp43
 70
     1
102
RTVSPost2010Prop44ColorIndex
 90
        5
102
RTVSPost2010Prop44ColorRGB
 90
      255
102
RTVSPost2010PropOp44
 70
     1
102
RTVSPost2010Prop45
280
     0
102
RTVSPost2010PropOp45
 70
     1
102
RTVSPost2010Prop46
 90
       50
102
RTVSPost2010PropOp46
 70
     1
102
RTVSPost2010Prop47
 90
       50
102
RTVSPost2010PropOp47
 70
     1
102
RTVSPost2010Prop48
 90
       50
102
RTVSPost2010PropOp48
 70
     1
102
RTVSPost2010Prop49
280
     0
102
RTVSPost2010PropOp49
 70
     1
102
RTVSPost2010Prop50
 90
       50
102
RTVSPost2010PropOp50
 70
     1
102
RTVSPost2010Prop51ColorIndex
 90
      256
102
RTVSPost2010Prop51ColorRGB
 90
-16777216
102
RTVSPost2010PropOp51
 70
     0
102
RTVSPost2010Prop52
140
1.0
102
RTVSPost2010PropOp52
 70
     0
102
RTVSPost2010Prop53
 90
        2
102
RTVSPost2010PropOp53
 70
     1
102
RTVSPost2010Prop54
  1
strokes_ogs.tif
102
RTVSPost2010PropOp54
 70
     1
102
RTVSPost2010Prop55
280
     0
102
RTVSPost2010PropOp55
 70
     1
102
RTVSPost2010Prop56
140
1.0
102
RTVSPost2010PropOp56
 70
     1
102
RTVSPost2010Prop57
140
1.0
102
RTVSPost2010PropOp57
 70
     1
102
RTVSPropertyOp0
 70
     1
102
RTVSPropertyOp1
 70
     1
102
RTVSPropertyOp2
 70
     1
102
RTVSPropertyOp3
 70
     1
102
RTVSPropertyOp4
 70
     1
102
RTVSPropertyOp5
 70
     1
102
RTVSPropertyOp6
 70
     1
102
RTVSPropertyOp7
 70
     1
102
RTVSPropertyOp8
 70
     1
102
RTVSPropertyOp9
 70
     1
102
RTVSPropertyOp10
 70
     1
102
RTVSPropertyOp11
 70
     1
102
RTVSPropertyOp12
 70
     1
102
RTVSPropertyOp13
 70
     1
102
RTVSPropertyOp14
 70
     1
102
RTVSPropertyOp15
 70
     1
102
RTVSPropertyOp16
 70
     1
102
RTVSPropertyOp17
 70
     1
102
RTVSPropertyOp18
 70
     1
102
RTVSPropertyOp19
 70
     1
102
RTVSPropertyOp20
 70
     1
102
RTVSPropertyOp21
 70
     1
102
RTVSPropertyOp22
 70
     1
102
RTVSPropertyOp23
 70
     1
102
RTVSPropertyOp24
 70
     1
102
RTVSPropertyOp25
 70
     1
102
RTVSPropertyOp26
 70
     1
102
RTVSPropertyOp27
 70
     1
102
RTVSPropertyOp28
 70
     1
102
RTVSPropertyOp29
 70
     1
102
RTVSPropertyOp30
 70
     1
102
RTVSPropertyOp31
 70
     1
102
RTVSPropertyOp32
 70
     1
102
RTVSPropertyOp33
 70
     1
102
RTVSPropertyOp34
 70
     1
102
RTVSPropertyOp35
 70
     1
102
RTVSPropertyOp36
 70
     1
102
RTVSPropertyOp37
 70
     1
102
RTVSPropertyOp38
 70
     1
102
RTVSPropertyOp39
 70
     1
102
RTVSPropertyOp40
 70
     1
102
RTVSPropertyOp41
 70
     1
102
RTVSPropertyOp42
 70
     1
102
RTVSPropertyOp43
 70
     1
102
RTVSPropertyOp44
 70
     1
102
RTVSPropertyOp45
 70
     1
102
RTVSPropertyOp46
 70
     1
102
RTVSPropertyOp47
 70
     1
102
RTVSPropertyOp48
 70
     1
102
RTVSPropertyOp49
 70
     1
102
RTVSPropertyOp50
 70
     1
102
RTVSPropertyOp51
 70
     0
102
RTVSPropertyOp52
 70
     0
102
RTVSPropertyOp53
 70
     1
102
RTVSPropertyOp54
 70
     1
102
RTVSPropertyOp55
 70
     1
102
RTVSPropertyOp56
 70
     1
102
RTVSPropertyOp57
 70
     1
102
RTVSPropertyOp58
 70
     1
102
RTVSPropertyOp59
 70
     1
102
RTVSPropertyOp60
 70
     1
102
RTVSPropertyOp61
 70
     1
102
RTVSPropertyOp62
 70
     1
  0
XRECORD
  5
B29F
102
{ACAD_REACTORS
330
B29E
102
}
330
B29E
100
AcDbXrecord
280
     1
102
RTVSPost2010Prop28
280
     0
102
RTVSPost2010PropOp28
 70
     1
102
RTVSPost2010Prop29
280
     1
102
RTVSPost2010PropOp29
 70
     1
102
RTVSPost2010Prop30
280
     1
102
RTVSPost2010PropOp30
 70
     1
102
RTVSPost2010Prop31
280
     0
102
RTVSPost2010PropOp31
 70
     1
102
RTVSPost2010Prop32
280
     0
102
RTVSPost2010PropOp32
 70
     1
102
RTVSPost2010Prop33
280
     0
102
RTVSPost2010PropOp33
 70
     1
102
RTVSPost2010Prop34
280
     0
102
RTVSPost2010PropOp34
 70
     1
102
RTVSPost2010Prop35
280
     0
102
RTVSPost2010PropOp35
 70
     1
102
RTVSPost2010Prop36
280
     0
102
RTVSPost2010PropOp36
 70
     1
102
RTVSPost2010Prop37
 90
       50
102
RTVSPost2010PropOp37
 70
     1
102
RTVSPost2010Prop38
140
0.0
102
RTVSPost2010PropOp38
 70
     1
102
RTVSPost2010Prop39
140
1.0
102
RTVSPost2010PropOp39
 70
     1
102
RTVSPost2010Prop40
 90
        0
102
RTVSPost2010PropOp40
 70
     1
102
RTVSPost2010Prop41ColorIndex
 90
       18
102
RTVSPost2010Prop41ColorRGB
 90
        0
102
RTVSPost2010PropOp41
 70
     1
102
RTVSPost2010Prop42
 90
       50
102
RTVSPost2010PropOp42
 70
     1
102
RTVSPost2010Prop43
 90
        3
102
RTVSPost2010PropOp43
 70
     1
102
RTVSPost2010Prop44ColorIndex
 90
        5
102
RTVSPost2010Prop44ColorRGB
 90
      255
102
RTVSPost2010PropOp44
 70
     1
102
RTVSPost2010Prop45
280
     0
102
RTVSPost2010PropOp45
 70
     1
102
RTVSPost2010Prop46
 90
       50
102
RTVSPost2010PropOp46
 70
     1
102
RTVSPost2010Prop47
 90
       50
102
RTVSPost2010PropOp47
 70
     1
102
RTVSPost2010Prop48
 90
       50
102
RTVSPost2010PropOp48
 70
     1
102
RTVSPost2010Prop49
280
     0
102
RTVSPost2010PropOp49
 70
     1
102
RTVSPost2010Prop50
 90
       50
102
RTVSPost2010PropOp50
 70
     1
102
RTVSPost2010Prop51ColorIndex
 90
      256
102
RTVSPost2010Prop51ColorRGB
 90
-16777216
102
RTVSPost2010PropOp51
 70
     0
102
RTVSPost2010Prop52
140
1.0
102
RTVSPost2010PropOp52
 70
     0
102
RTVSPost2010Prop53
 90
        2
102
RTVSPost2010PropOp53
 70
     1
102
RTVSPost2010Prop54
  1
strokes_ogs.tif
102
RTVSPost2010PropOp54
 70
     1
102
RTVSPost2010Prop55
280
     0
102
RTVSPost2010PropOp55
 70
     1
102
RTVSPost2010Prop56
140
1.0
102
RTVSPost2010PropOp56
 70
     1
102
RTVSPost2010Prop57
140
1.0
102
RTVSPost2010PropOp57
 70
     1
102
RTVSPropertyOp0
 70
     1
102
RTVSPropertyOp1
 70
     1
102
RTVSPropertyOp2
 70
     1
102
RTVSPropertyOp3
 70
     1
102
RTVSPropertyOp4
 70
     1
102
RTVSPropertyOp5
 70
     1
102
RTVSPropertyOp6
 70
     1
102
RTVSPropertyOp7
 70
     1
102
RTVSPropertyOp8
 70
     1
102
RTVSPropertyOp9
 70
     1
102
RTVSPropertyOp10
 70
     1
102
RTVSPropertyOp11
 70
     1
102
RTVSPropertyOp12
 70
     1
102
RTVSPropertyOp13
 70
     1
102
RTVSPropertyOp14
 70
     1
102
RTVSPropertyOp15
 70
     1
102
RTVSPropertyOp16
 70
     1
102
RTVSPropertyOp17
 70
     1
102
RTVSPropertyOp18
 70
     1
102
RTVSPropertyOp19
 70
     1
102
RTVSPropertyOp20
 70
     1
102
RTVSPropertyOp21
 70
     1
102
RTVSPropertyOp22
 70
     1
102
RTVSPropertyOp23
 70
     1
102
RTVSPropertyOp24
 70
     1
102
RTVSPropertyOp25
 70
     1
102
RTVSPropertyOp26
 70
     1
102
RTVSPropertyOp27
 70
     1
102
RTVSPropertyOp28
 70
     1
102
RTVSPropertyOp29
 70
     1
102
RTVSPropertyOp30
 70
     1
102
RTVSPropertyOp31
 70
     1
102
RTVSPropertyOp32
 70
     1
102
RTVSPropertyOp33
 70
     1
102
RTVSPropertyOp34
 70
     1
102
RTVSPropertyOp35
 70
     1
102
RTVSPropertyOp36
 70
     1
102
RTVSPropertyOp37
 70
     1
102
RTVSPropertyOp38
 70
     1
102
RTVSPropertyOp39
 70
     1
102
RTVSPropertyOp40
 70
     1
102
RTVSPropertyOp41
 70
     1
102
RTVSPropertyOp42
 70
     1
102
RTVSPropertyOp43
 70
     1
102
RTVSPropertyOp44
 70
     1
102
RTVSPropertyOp45
 70
     1
102
RTVSPropertyOp46
 70
     1
102
RTVSPropertyOp47
 70
     1
102
RTVSPropertyOp48
 70
     1
102
RTVSPropertyOp49
 70
     1
102
RTVSPropertyOp50
 70
     1
102
RTVSPropertyOp51
 70
     0
102
RTVSPropertyOp52
 70
     0
102
RTVSPropertyOp53
 70
     1
102
RTVSPropertyOp54
 70
     1
102
RTVSPropertyOp55
 70
     1
102
RTVSPropertyOp56
 70
     1
102
RTVSPropertyOp57
 70
     1
102
RTVSPropertyOp58
 70
     1
102
RTVSPropertyOp59
 70
     1
102
RTVSPropertyOp60
 70
     1
102
RTVSPropertyOp61
 70
     1
102
RTVSPropertyOp62
 70
     1
  0
XRECORD
  5
B29D
102
{ACAD_REACTORS
330
B29C
102
}
330
B29C
100
AcDbXrecord
280
     1
102
RTVSPost2010Prop28
280
     0
102
RTVSPost2010PropOp28
 70
     1
102
RTVSPost2010Prop29
280
     1
102
RTVSPost2010PropOp29
 70
     1
102
RTVSPost2010Prop30
280
     1
102
RTVSPost2010PropOp30
 70
     1
102
RTVSPost2010Prop31
280
     0
102
RTVSPost2010PropOp31
 70
     1
102
RTVSPost2010Prop32
280
     0
102
RTVSPost2010PropOp32
 70
     1
102
RTVSPost2010Prop33
280
     0
102
RTVSPost2010PropOp33
 70
     1
102
RTVSPost2010Prop34
280
     0
102
RTVSPost2010PropOp34
 70
     1
102
RTVSPost2010Prop35
280
     0
102
RTVSPost2010PropOp35
 70
     1
102
RTVSPost2010Prop36
280
     0
102
RTVSPost2010PropOp36
 70
     1
102
RTVSPost2010Prop37
 90
       50
102
RTVSPost2010PropOp37
 70
     1
102
RTVSPost2010Prop38
140
0.0
102
RTVSPost2010PropOp38
 70
     1
102
RTVSPost2010Prop39
140
1.0
102
RTVSPost2010PropOp39
 70
     1
102
RTVSPost2010Prop40
 90
        0
102
RTVSPost2010PropOp40
 70
     1
102
RTVSPost2010Prop41ColorIndex
 90
       18
102
RTVSPost2010Prop41ColorRGB
 90
        0
102
RTVSPost2010PropOp41
 70
     1
102
RTVSPost2010Prop42
 90
       50
102
RTVSPost2010PropOp42
 70
     1
102
RTVSPost2010Prop43
 90
        3
102
RTVSPost2010PropOp43
 70
     1
102
RTVSPost2010Prop44ColorIndex
 90
        5
102
RTVSPost2010Prop44ColorRGB
 90
      255
102
RTVSPost2010PropOp44
 70
     1
102
RTVSPost2010Prop45
280
     0
102
RTVSPost2010PropOp45
 70
     1
102
RTVSPost2010Prop46
 90
       50
102
RTVSPost2010PropOp46
 70
     1
102
RTVSPost2010Prop47
 90
       50
102
RTVSPost2010PropOp47
 70
     1
102
RTVSPost2010Prop48
 90
       50
102
RTVSPost2010PropOp48
 70
     1
102
RTVSPost2010Prop49
280
     0
102
RTVSPost2010PropOp49
 70
     1
102
RTVSPost2010Prop50
 90
       50
102
RTVSPost2010PropOp50
 70
     1
102
RTVSPost2010Prop51ColorIndex
 90
      256
102
RTVSPost2010Prop51ColorRGB
 90
-16777216
102
RTVSPost2010PropOp51
 70
     0
102
RTVSPost2010Prop52
140
1.0
102
RTVSPost2010PropOp52
 70
     0
102
RTVSPost2010Prop53
 90
        2
102
RTVSPost2010PropOp53
 70
     1
102
RTVSPost2010Prop54
  1
strokes_ogs.tif
102
RTVSPost2010PropOp54
 70
     1
102
RTVSPost2010Prop55
280
     0
102
RTVSPost2010PropOp55
 70
     1
102
RTVSPost2010Prop56
140
1.0
102
RTVSPost2010PropOp56
 70
     1
102
RTVSPost2010Prop57
140
1.0
102
RTVSPost2010PropOp57
 70
     1
102
RTVSPropertyOp0
 70
     1
102
RTVSPropertyOp1
 70
     1
102
RTVSPropertyOp2
 70
     1
102
RTVSPropertyOp3
 70
     1
102
RTVSPropertyOp4
 70
     1
102
RTVSPropertyOp5
 70
     1
102
RTVSPropertyOp6
 70
     1
102
RTVSPropertyOp7
 70
     1
102
RTVSPropertyOp8
 70
     1
102
RTVSPropertyOp9
 70
     1
102
RTVSPropertyOp10
 70
     1
102
RTVSPropertyOp11
 70
     1
102
RTVSPropertyOp12
 70
     1
102
RTVSPropertyOp13
 70
     1
102
RTVSPropertyOp14
 70
     1
102
RTVSPropertyOp15
 70
     1
102
RTVSPropertyOp16
 70
     1
102
RTVSPropertyOp17
 70
     1
102
RTVSPropertyOp18
 70
     1
102
RTVSPropertyOp19
 70
     1
102
RTVSPropertyOp20
 70
     1
102
RTVSPropertyOp21
 70
     1
102
RTVSPropertyOp22
 70
     1
102
RTVSPropertyOp23
 70
     1
102
RTVSPropertyOp24
 70
     1
102
RTVSPropertyOp25
 70
     1
102
RTVSPropertyOp26
 70
     1
102
RTVSPropertyOp27
 70
     1
102
RTVSPropertyOp28
 70
     1
102
RTVSPropertyOp29
 70
     1
102
RTVSPropertyOp30
 70
     1
102
RTVSPropertyOp31
 70
     1
102
RTVSPropertyOp32
 70
     1
102
RTVSPropertyOp33
 70
     1
102
RTVSPropertyOp34
 70
     1
102
RTVSPropertyOp35
 70
     1
102
RTVSPropertyOp36
 70
     1
102
RTVSPropertyOp37
 70
     1
102
RTVSPropertyOp38
 70
     1
102
RTVSPropertyOp39
 70
     1
102
RTVSPropertyOp40
 70
     1
102
RTVSPropertyOp41
 70
     1
102
RTVSPropertyOp42
 70
     1
102
RTVSPropertyOp43
 70
     1
102
RTVSPropertyOp44
 70
     1
102
RTVSPropertyOp45
 70
     1
102
RTVSPropertyOp46
 70
     1
102
RTVSPropertyOp47
 70
     1
102
RTVSPropertyOp48
 70
     1
102
RTVSPropertyOp49
 70
     1
102
RTVSPropertyOp50
 70
     1
102
RTVSPropertyOp51
 70
     0
102
RTVSPropertyOp52
 70
     0
102
RTVSPropertyOp53
 70
     1
102
RTVSPropertyOp54
 70
     1
102
RTVSPropertyOp55
 70
     1
102
RTVSPropertyOp56
 70
     1
102
RTVSPropertyOp57
 70
     1
102
RTVSPropertyOp58
 70
     1
102
RTVSPropertyOp59
 70
     1
102
RTVSPropertyOp60
 70
     1
102
RTVSPropertyOp61
 70
     1
102
RTVSPropertyOp62
 70
     1
  0
XRECORD
  5
B297
102
{ACAD_REACTORS
330
B296
102
}
330
B296
100
AcDbXrecord
280
     1
102
RTVSPost2010Prop28
280
     0
102
RTVSPost2010PropOp28
 70
     1
102
RTVSPost2010Prop29
280
     1
102
RTVSPost2010PropOp29
 70
     1
102
RTVSPost2010Prop30
280
     1
102
RTVSPost2010PropOp30
 70
     1
102
RTVSPost2010Prop31
280
     0
102
RTVSPost2010PropOp31
 70
     1
102
RTVSPost2010Prop32
280
     0
102
RTVSPost2010PropOp32
 70
     1
102
RTVSPost2010Prop33
280
     0
102
RTVSPost2010PropOp33
 70
     1
102
RTVSPost2010Prop34
280
     0
102
RTVSPost2010PropOp34
 70
     1
102
RTVSPost2010Prop35
280
     0
102
RTVSPost2010PropOp35
 70
     1
102
RTVSPost2010Prop36
280
     0
102
RTVSPost2010PropOp36
 70
     1
102
RTVSPost2010Prop37
 90
       50
102
RTVSPost2010PropOp37
 70
     1
102
RTVSPost2010Prop38
140
0.0
102
RTVSPost2010PropOp38
 70
     1
102
RTVSPost2010Prop39
140
1.0
102
RTVSPost2010PropOp39
 70
     1
102
RTVSPost2010Prop40
 90
        0
102
RTVSPost2010PropOp40
 70
     1
102
RTVSPost2010Prop41ColorIndex
 90
       18
102
RTVSPost2010Prop41ColorRGB
 90
        0
102
RTVSPost2010PropOp41
 70
     1
102
RTVSPost2010Prop42
 90
       50
102
RTVSPost2010PropOp42
 70
     1
102
RTVSPost2010Prop43
 90
        3
102
RTVSPost2010PropOp43
 70
     1
102
RTVSPost2010Prop44ColorIndex
 90
        5
102
RTVSPost2010Prop44ColorRGB
 90
      255
102
RTVSPost2010PropOp44
 70
     1
102
RTVSPost2010Prop45
280
     0
102
RTVSPost2010PropOp45
 70
     1
102
RTVSPost2010Prop46
 90
       50
102
RTVSPost2010PropOp46
 70
     1
102
RTVSPost2010Prop47
 90
       50
102
RTVSPost2010PropOp47
 70
     1
102
RTVSPost2010Prop48
 90
       50
102
RTVSPost2010PropOp48
 70
     1
102
RTVSPost2010Prop49
280
     0
102
RTVSPost2010PropOp49
 70
     1
102
RTVSPost2010Prop50
 90
       50
102
RTVSPost2010PropOp50
 70
     1
102
RTVSPost2010Prop51ColorIndex
 90
      256
102
RTVSPost2010Prop51ColorRGB
 90
-16777216
102
RTVSPost2010PropOp51
 70
     0
102
RTVSPost2010Prop52
140
1.0
102
RTVSPost2010PropOp52
 70
     0
102
RTVSPost2010Prop53
 90
        2
102
RTVSPost2010PropOp53
 70
     1
102
RTVSPost2010Prop54
  1
strokes_ogs.tif
102
RTVSPost2010PropOp54
 70
     1
102
RTVSPost2010Prop55
280
     0
102
RTVSPost2010PropOp55
 70
     1
102
RTVSPost2010Prop56
140
1.0
102
RTVSPost2010PropOp56
 70
     1
102
RTVSPost2010Prop57
140
1.0
102
RTVSPost2010PropOp57
 70
     1
102
RTVSPropertyOp0
 70
     1
102
RTVSPropertyOp1
 70
     1
102
RTVSPropertyOp2
 70
     1
102
RTVSPropertyOp3
 70
     1
102
RTVSPropertyOp4
 70
     1
102
RTVSPropertyOp5
 70
     1
102
RTVSPropertyOp6
 70
     1
102
RTVSPropertyOp7
 70
     1
102
RTVSPropertyOp8
 70
     1
102
RTVSPropertyOp9
 70
     1
102
RTVSPropertyOp10
 70
     1
102
RTVSPropertyOp11
 70
     1
102
RTVSPropertyOp12
 70
     1
102
RTVSPropertyOp13
 70
     1
102
RTVSPropertyOp14
 70
     1
102
RTVSPropertyOp15
 70
     1
102
RTVSPropertyOp16
 70
     1
102
RTVSPropertyOp17
 70
     1
102
RTVSPropertyOp18
 70
     1
102
RTVSPropertyOp19
 70
     1
102
RTVSPropertyOp20
 70
     1
102
RTVSPropertyOp21
 70
     1
102
RTVSPropertyOp22
 70
     1
102
RTVSPropertyOp23
 70
     1
102
RTVSPropertyOp24
 70
     1
102
RTVSPropertyOp25
 70
     1
102
RTVSPropertyOp26
 70
     1
102
RTVSPropertyOp27
 70
     1
102
RTVSPropertyOp28
 70
     1
102
RTVSPropertyOp29
 70
     1
102
RTVSPropertyOp30
 70
     1
102
RTVSPropertyOp31
 70
     1
102
RTVSPropertyOp32
 70
     1
102
RTVSPropertyOp33
 70
     1
102
RTVSPropertyOp34
 70
     1
102
RTVSPropertyOp35
 70
     1
102
RTVSPropertyOp36
 70
     1
102
RTVSPropertyOp37
 70
     1
102
RTVSPropertyOp38
 70
     1
102
RTVSPropertyOp39
 70
     1
102
RTVSPropertyOp40
 70
     1
102
RTVSPropertyOp41
 70
     1
102
RTVSPropertyOp42
 70
     1
102
RTVSPropertyOp43
 70
     1
102
RTVSPropertyOp44
 70
     1
102
RTVSPropertyOp45
 70
     1
102
RTVSPropertyOp46
 70
     1
102
RTVSPropertyOp47
 70
     1
102
RTVSPropertyOp48
 70
     1
102
RTVSPropertyOp49
 70
     1
102
RTVSPropertyOp50
 70
     1
102
RTVSPropertyOp51
 70
     0
102
RTVSPropertyOp52
 70
     0
102
RTVSPropertyOp53
 70
     1
102
RTVSPropertyOp54
 70
     1
102
RTVSPropertyOp55
 70
     1
102
RTVSPropertyOp56
 70
     1
102
RTVSPropertyOp57
 70
     1
102
RTVSPropertyOp58
 70
     1
102
RTVSPropertyOp59
 70
     1
102
RTVSPropertyOp60
 70
     1
102
RTVSPropertyOp61
 70
     1
102
RTVSPropertyOp62
 70
     1
  0
XRECORD
  5
B299
102
{ACAD_REACTORS
330
B298
102
}
330
B298
100
AcDbXrecord
280
     1
102
RTVSPost2010Prop28
280
     0
102
RTVSPost2010PropOp28
 70
     1
102
RTVSPost2010Prop29
280
     1
102
RTVSPost2010PropOp29
 70
     1
102
RTVSPost2010Prop30
280
     1
102
RTVSPost2010PropOp30
 70
     1
102
RTVSPost2010Prop31
280
     0
102
RTVSPost2010PropOp31
 70
     1
102
RTVSPost2010Prop32
280
     0
102
RTVSPost2010PropOp32
 70
     1
102
RTVSPost2010Prop33
280
     0
102
RTVSPost2010PropOp33
 70
     1
102
RTVSPost2010Prop34
280
     0
102
RTVSPost2010PropOp34
 70
     1
102
RTVSPost2010Prop35
280
     0
102
RTVSPost2010PropOp35
 70
     1
102
RTVSPost2010Prop36
280
     0
102
RTVSPost2010PropOp36
 70
     1
102
RTVSPost2010Prop37
 90
       50
102
RTVSPost2010PropOp37
 70
     1
102
RTVSPost2010Prop38
140
0.0
102
RTVSPost2010PropOp38
 70
     1
102
RTVSPost2010Prop39
140
1.0
102
RTVSPost2010PropOp39
 70
     1
102
RTVSPost2010Prop40
 90
        0
102
RTVSPost2010PropOp40
 70
     1
102
RTVSPost2010Prop41ColorIndex
 90
       18
102
RTVSPost2010Prop41ColorRGB
 90
        0
102
RTVSPost2010PropOp41
 70
     1
102
RTVSPost2010Prop42
 90
       50
102
RTVSPost2010PropOp42
 70
     1
102
RTVSPost2010Prop43
 90
        3
102
RTVSPost2010PropOp43
 70
     1
102
RTVSPost2010Prop44ColorIndex
 90
        5
102
RTVSPost2010Prop44ColorRGB
 90
      255
102
RTVSPost2010PropOp44
 70
     1
102
RTVSPost2010Prop45
280
     0
102
RTVSPost2010PropOp45
 70
     1
102
RTVSPost2010Prop46
 90
       50
102
RTVSPost2010PropOp46
 70
     1
102
RTVSPost2010Prop47
 90
       50
102
RTVSPost2010PropOp47
 70
     1
102
RTVSPost2010Prop48
 90
       50
102
RTVSPost2010PropOp48
 70
     1
102
RTVSPost2010Prop49
280
     0
102
RTVSPost2010PropOp49
 70
     1
102
RTVSPost2010Prop50
 90
       50
102
RTVSPost2010PropOp50
 70
     1
102
RTVSPost2010Prop51ColorIndex
 90
      256
102
RTVSPost2010Prop51ColorRGB
 90
-16777216
102
RTVSPost2010PropOp51
 70
     0
102
RTVSPost2010Prop52
140
1.0
102
RTVSPost2010PropOp52
 70
     0
102
RTVSPost2010Prop53
 90
        2
102
RTVSPost2010PropOp53
 70
     1
102
RTVSPost2010Prop54
  1
strokes_ogs.tif
102
RTVSPost2010PropOp54
 70
     1
102
RTVSPost2010Prop55
280
     0
102
RTVSPost2010PropOp55
 70
     1
102
RTVSPost2010Prop56
140
1.0
102
RTVSPost2010PropOp56
 70
     1
102
RTVSPost2010Prop57
140
1.0
102
RTVSPost2010PropOp57
 70
     1
102
RTVSPropertyOp0
 70
     1
102
RTVSPropertyOp1
 70
     1
102
RTVSPropertyOp2
 70
     1
102
RTVSPropertyOp3
 70
     1
102
RTVSPropertyOp4
 70
     1
102
RTVSPropertyOp5
 70
     1
102
RTVSPropertyOp6
 70
     1
102
RTVSPropertyOp7
 70
     1
102
RTVSPropertyOp8
 70
     1
102
RTVSPropertyOp9
 70
     1
102
RTVSPropertyOp10
 70
     1
102
RTVSPropertyOp11
 70
     1
102
RTVSPropertyOp12
 70
     1
102
RTVSPropertyOp13
 70
     1
102
RTVSPropertyOp14
 70
     1
102
RTVSPropertyOp15
 70
     1
102
RTVSPropertyOp16
 70
     1
102
RTVSPropertyOp17
 70
     1
102
RTVSPropertyOp18
 70
     1
102
RTVSPropertyOp19
 70
     1
102
RTVSPropertyOp20
 70
     1
102
RTVSPropertyOp21
 70
     1
102
RTVSPropertyOp22
 70
     1
102
RTVSPropertyOp23
 70
     1
102
RTVSPropertyOp24
 70
     1
102
RTVSPropertyOp25
 70
     1
102
RTVSPropertyOp26
 70
     1
102
RTVSPropertyOp27
 70
     1
102
RTVSPropertyOp28
 70
     1
102
RTVSPropertyOp29
 70
     1
102
RTVSPropertyOp30
 70
     1
102
RTVSPropertyOp31
 70
     1
102
RTVSPropertyOp32
 70
     1
102
RTVSPropertyOp33
 70
     1
102
RTVSPropertyOp34
 70
     1
102
RTVSPropertyOp35
 70
     1
102
RTVSPropertyOp36
 70
     1
102
RTVSPropertyOp37
 70
     1
102
RTVSPropertyOp38
 70
     1
102
RTVSPropertyOp39
 70
     1
102
RTVSPropertyOp40
 70
     1
102
RTVSPropertyOp41
 70
     1
102
RTVSPropertyOp42
 70
     1
102
RTVSPropertyOp43
 70
     1
102
RTVSPropertyOp44
 70
     1
102
RTVSPropertyOp45
 70
     1
102
RTVSPropertyOp46
 70
     1
102
RTVSPropertyOp47
 70
     1
102
RTVSPropertyOp48
 70
     1
102
RTVSPropertyOp49
 70
     1
102
RTVSPropertyOp50
 70
     1
102
RTVSPropertyOp51
 70
     0
102
RTVSPropertyOp52
 70
     0
102
RTVSPropertyOp53
 70
     1
102
RTVSPropertyOp54
 70
     1
102
RTVSPropertyOp55
 70
     1
102
RTVSPropertyOp56
 70
     1
102
RTVSPropertyOp57
 70
     1
102
RTVSPropertyOp58
 70
     1
102
RTVSPropertyOp59
 70
     1
102
RTVSPropertyOp60
 70
     1
102
RTVSPropertyOp61
 70
     1
102
RTVSPropertyOp62
 70
     1
  0
XRECORD
  5
B28F
102
{ACAD_REACTORS
330
B28E
102
}
330
B28E
100
AcDbXrecord
280
     1
102
RTVSPost2010Prop28
280
     0
102
RTVSPost2010PropOp28
 70
     1
102
RTVSPost2010Prop29
280
     1
102
RTVSPost2010PropOp29
 70
     1
102
RTVSPost2010Prop30
280
     1
102
RTVSPost2010PropOp30
 70
     1
102
RTVSPost2010Prop31
280
     0
102
RTVSPost2010PropOp31
 70
     1
102
RTVSPost2010Prop32
280
     0
102
RTVSPost2010PropOp32
 70
     1
102
RTVSPost2010Prop33
280
     0
102
RTVSPost2010PropOp33
 70
     1
102
RTVSPost2010Prop34
280
     0
102
RTVSPost2010PropOp34
 70
     1
102
RTVSPost2010Prop35
280
     0
102
RTVSPost2010PropOp35
 70
     1
102
RTVSPost2010Prop36
280
     0
102
RTVSPost2010PropOp36
 70
     1
102
RTVSPost2010Prop37
 90
       50
102
RTVSPost2010PropOp37
 70
     1
102
RTVSPost2010Prop38
140
0.0
102
RTVSPost2010PropOp38
 70
     1
102
RTVSPost2010Prop39
140
1.0
102
RTVSPost2010PropOp39
 70
     1
102
RTVSPost2010Prop40
 90
        0
102
RTVSPost2010PropOp40
 70
     1
102
RTVSPost2010Prop41ColorIndex
 90
       18
102
RTVSPost2010Prop41ColorRGB
 90
        0
102
RTVSPost2010PropOp41
 70
     1
102
RTVSPost2010Prop42
 90
       50
102
RTVSPost2010PropOp42
 70
     1
102
RTVSPost2010Prop43
 90
        3
102
RTVSPost2010PropOp43
 70
     1
102
RTVSPost2010Prop44ColorIndex
 90
        5
102
RTVSPost2010Prop44ColorRGB
 90
      255
102
RTVSPost2010PropOp44
 70
     1
102
RTVSPost2010Prop45
280
     0
102
RTVSPost2010PropOp45
 70
     1
102
RTVSPost2010Prop46
 90
       50
102
RTVSPost2010PropOp46
 70
     1
102
RTVSPost2010Prop47
 90
       50
102
RTVSPost2010PropOp47
 70
     1
102
RTVSPost2010Prop48
 90
       50
102
RTVSPost2010PropOp48
 70
     1
102
RTVSPost2010Prop49
280
     0
102
RTVSPost2010PropOp49
 70
     1
102
RTVSPost2010Prop50
 90
       50
102
RTVSPost2010PropOp50
 70
     1
102
RTVSPost2010Prop51ColorIndex
 90
      256
102
RTVSPost2010Prop51ColorRGB
 90
-16777216
102
RTVSPost2010PropOp51
 70
     0
102
RTVSPost2010Prop52
140
1.0
102
RTVSPost2010PropOp52
 70
     0
102
RTVSPost2010Prop53
 90
        2
102
RTVSPost2010PropOp53
 70
     1
102
RTVSPost2010Prop54
  1
strokes_ogs.tif
102
RTVSPost2010PropOp54
 70
     1
102
RTVSPost2010Prop55
280
     0
102
RTVSPost2010PropOp55
 70
     1
102
RTVSPost2010Prop56
140
1.0
102
RTVSPost2010PropOp56
 70
     1
102
RTVSPost2010Prop57
140
1.0
102
RTVSPost2010PropOp57
 70
     1
102
RTVSPropertyOp0
 70
     1
102
RTVSPropertyOp1
 70
     1
102
RTVSPropertyOp2
 70
     1
102
RTVSPropertyOp3
 70
     1
102
RTVSPropertyOp4
 70
     1
102
RTVSPropertyOp5
 70
     1
102
RTVSPropertyOp6
 70
     1
102
RTVSPropertyOp7
 70
     1
102
RTVSPropertyOp8
 70
     1
102
RTVSPropertyOp9
 70
     1
102
RTVSPropertyOp10
 70
     1
102
RTVSPropertyOp11
 70
     1
102
RTVSPropertyOp12
 70
     1
102
RTVSPropertyOp13
 70
     1
102
RTVSPropertyOp14
 70
     1
102
RTVSPropertyOp15
 70
     1
102
RTVSPropertyOp16
 70
     1
102
RTVSPropertyOp17
 70
     1
102
RTVSPropertyOp18
 70
     1
102
RTVSPropertyOp19
 70
     1
102
RTVSPropertyOp20
 70
     1
102
RTVSPropertyOp21
 70
     1
102
RTVSPropertyOp22
 70
     1
102
RTVSPropertyOp23
 70
     1
102
RTVSPropertyOp24
 70
     1
102
RTVSPropertyOp25
 70
     1
102
RTVSPropertyOp26
 70
     1
102
RTVSPropertyOp27
 70
     1
102
RTVSPropertyOp28
 70
     1
102
RTVSPropertyOp29
 70
     1
102
RTVSPropertyOp30
 70
     1
102
RTVSPropertyOp31
 70
     1
102
RTVSPropertyOp32
 70
     1
102
RTVSPropertyOp33
 70
     1
102
RTVSPropertyOp34
 70
     1
102
RTVSPropertyOp35
 70
     1
102
RTVSPropertyOp36
 70
     1
102
RTVSPropertyOp37
 70
     1
102
RTVSPropertyOp38
 70
     1
102
RTVSPropertyOp39
 70
     1
102
RTVSPropertyOp40
 70
     1
102
RTVSPropertyOp41
 70
     1
102
RTVSPropertyOp42
 70
     1
102
RTVSPropertyOp43
 70
     1
102
RTVSPropertyOp44
 70
     1
102
RTVSPropertyOp45
 70
     1
102
RTVSPropertyOp46
 70
     1
102
RTVSPropertyOp47
 70
     1
102
RTVSPropertyOp48
 70
     1
102
RTVSPropertyOp49
 70
     1
102
RTVSPropertyOp50
 70
     1
102
RTVSPropertyOp51
 70
     0
102
RTVSPropertyOp52
 70
     0
102
RTVSPropertyOp53
 70
     1
102
RTVSPropertyOp54
 70
     1
102
RTVSPropertyOp55
 70
     1
102
RTVSPropertyOp56
 70
     1
102
RTVSPropertyOp57
 70
     1
102
RTVSPropertyOp58
 70
     1
102
RTVSPropertyOp59
 70
     1
102
RTVSPropertyOp60
 70
     1
102
RTVSPropertyOp61
 70
     1
102
RTVSPropertyOp62
 70
     1
  0
XRECORD
  5
B283
102
{ACAD_REACTORS
330
B282
102
}
330
B282
100
AcDbXrecord
280
     1
102
RTVSPost2010Prop28
280
     0
102
RTVSPost2010PropOp28
 70
     1
102
RTVSPost2010Prop29
280
     1
102
RTVSPost2010PropOp29
 70
     1
102
RTVSPost2010Prop30
280
     1
102
RTVSPost2010PropOp30
 70
     1
102
RTVSPost2010Prop31
280
     0
102
RTVSPost2010PropOp31
 70
     1
102
RTVSPost2010Prop32
280
     0
102
RTVSPost2010PropOp32
 70
     1
102
RTVSPost2010Prop33
280
     0
102
RTVSPost2010PropOp33
 70
     1
102
RTVSPost2010Prop34
280
     0
102
RTVSPost2010PropOp34
 70
     1
102
RTVSPost2010Prop35
280
     0
102
RTVSPost2010PropOp35
 70
     1
102
RTVSPost2010Prop36
280
     0
102
RTVSPost2010PropOp36
 70
     1
102
RTVSPost2010Prop37
 90
       50
102
RTVSPost2010PropOp37
 70
     1
102
RTVSPost2010Prop38
140
0.0
102
RTVSPost2010PropOp38
 70
     1
102
RTVSPost2010Prop39
140
1.0
102
RTVSPost2010PropOp39
 70
     1
102
RTVSPost2010Prop40
 90
        0
102
RTVSPost2010PropOp40
 70
     1
102
RTVSPost2010Prop41ColorIndex
 90
       18
102
RTVSPost2010Prop41ColorRGB
 90
        0
102
RTVSPost2010PropOp41
 70
     1
102
RTVSPost2010Prop42
 90
       50
102
RTVSPost2010PropOp42
 70
     1
102
RTVSPost2010Prop43
 90
        3
102
RTVSPost2010PropOp43
 70
     1
102
RTVSPost2010Prop44ColorIndex
 90
        5
102
RTVSPost2010Prop44ColorRGB
 90
      255
102
RTVSPost2010PropOp44
 70
     1
102
RTVSPost2010Prop45
280
     0
102
RTVSPost2010PropOp45
 70
     1
102
RTVSPost2010Prop46
 90
       50
102
RTVSPost2010PropOp46
 70
     1
102
RTVSPost2010Prop47
 90
       50
102
RTVSPost2010PropOp47
 70
     1
102
RTVSPost2010Prop48
 90
       50
102
RTVSPost2010PropOp48
 70
     1
102
RTVSPost2010Prop49
280
     0
102
RTVSPost2010PropOp49
 70
     1
102
RTVSPost2010Prop50
 90
       50
102
RTVSPost2010PropOp50
 70
     1
102
RTVSPost2010Prop51ColorIndex
 90
      256
102
RTVSPost2010Prop51ColorRGB
 90
-16777216
102
RTVSPost2010PropOp51
 70
     0
102
RTVSPost2010Prop52
140
1.0
102
RTVSPost2010PropOp52
 70
     0
102
RTVSPost2010Prop53
 90
        2
102
RTVSPost2010PropOp53
 70
     1
102
RTVSPost2010Prop54
  1
strokes_ogs.tif
102
RTVSPost2010PropOp54
 70
     1
102
RTVSPost2010Prop55
280
     0
102
RTVSPost2010PropOp55
 70
     1
102
RTVSPost2010Prop56
140
1.0
102
RTVSPost2010PropOp56
 70
     1
102
RTVSPost2010Prop57
140
1.0
102
RTVSPost2010PropOp57
 70
     1
102
RTVSPropertyOp0
 70
     1
102
RTVSPropertyOp1
 70
     1
102
RTVSPropertyOp2
 70
     1
102
RTVSPropertyOp3
 70
     1
102
RTVSPropertyOp4
 70
     1
102
RTVSPropertyOp5
 70
     1
102
RTVSPropertyOp6
 70
     1
102
RTVSPropertyOp7
 70
     1
102
RTVSPropertyOp8
 70
     1
102
RTVSPropertyOp9
 70
     1
102
RTVSPropertyOp10
 70
     1
102
RTVSPropertyOp11
 70
     1
102
RTVSPropertyOp12
 70
     1
102
RTVSPropertyOp13
 70
     1
102
RTVSPropertyOp14
 70
     1
102
RTVSPropertyOp15
 70
     1
102
RTVSPropertyOp16
 70
     1
102
RTVSPropertyOp17
 70
     1
102
RTVSPropertyOp18
 70
     1
102
RTVSPropertyOp19
 70
     1
102
RTVSPropertyOp20
 70
     1
102
RTVSPropertyOp21
 70
     1
102
RTVSPropertyOp22
 70
     1
102
RTVSPropertyOp23
 70
     1
102
RTVSPropertyOp24
 70
     1
102
RTVSPropertyOp25
 70
     1
102
RTVSPropertyOp26
 70
     1
102
RTVSPropertyOp27
 70
     1
102
RTVSPropertyOp28
 70
     1
102
RTVSPropertyOp29
 70
     1
102
RTVSPropertyOp30
 70
     1
102
RTVSPropertyOp31
 70
     1
102
RTVSPropertyOp32
 70
     1
102
RTVSPropertyOp33
 70
     1
102
RTVSPropertyOp34
 70
     1
102
RTVSPropertyOp35
 70
     1
102
RTVSPropertyOp36
 70
     1
102
RTVSPropertyOp37
 70
     1
102
RTVSPropertyOp38
 70
     1
102
RTVSPropertyOp39
 70
     1
102
RTVSPropertyOp40
 70
     1
102
RTVSPropertyOp41
 70
     1
102
RTVSPropertyOp42
 70
     1
102
RTVSPropertyOp43
 70
     1
102
RTVSPropertyOp44
 70
     1
102
RTVSPropertyOp45
 70
     1
102
RTVSPropertyOp46
 70
     1
102
RTVSPropertyOp47
 70
     1
102
RTVSPropertyOp48
 70
     1
102
RTVSPropertyOp49
 70
     1
102
RTVSPropertyOp50
 70
     1
102
RTVSPropertyOp51
 70
     0
102
RTVSPropertyOp52
 70
     0
102
RTVSPropertyOp53
 70
     1
102
RTVSPropertyOp54
 70
     1
102
RTVSPropertyOp55
 70
     1
102
RTVSPropertyOp56
 70
     1
102
RTVSPropertyOp57
 70
     1
102
RTVSPropertyOp58
 70
     1
102
RTVSPropertyOp59
 70
     1
102
RTVSPropertyOp60
 70
     1
102
RTVSPropertyOp61
 70
     1
102
RTVSPropertyOp62
 70
     1
  0
XRECORD
  5
B29B
102
{ACAD_REACTORS
330
B29A
102
}
330
B29A
100
AcDbXrecord
280
     1
102
RTVSPost2010Prop28
280
     0
102
RTVSPost2010PropOp28
 70
     1
102
RTVSPost2010Prop29
280
     1
102
RTVSPost2010PropOp29
 70
     1
102
RTVSPost2010Prop30
280
     1
102
RTVSPost2010PropOp30
 70
     1
102
RTVSPost2010Prop31
280
     0
102
RTVSPost2010PropOp31
 70
     1
102
RTVSPost2010Prop32
280
     0
102
RTVSPost2010PropOp32
 70
     1
102
RTVSPost2010Prop33
280
     0
102
RTVSPost2010PropOp33
 70
     1
102
RTVSPost2010Prop34
280
     0
102
RTVSPost2010PropOp34
 70
     1
102
RTVSPost2010Prop35
280
     0
102
RTVSPost2010PropOp35
 70
     1
102
RTVSPost2010Prop36
280
     0
102
RTVSPost2010PropOp36
 70
     1
102
RTVSPost2010Prop37
 90
       50
102
RTVSPost2010PropOp37
 70
     1
102
RTVSPost2010Prop38
140
0.0
102
RTVSPost2010PropOp38
 70
     1
102
RTVSPost2010Prop39
140
1.0
102
RTVSPost2010PropOp39
 70
     1
102
RTVSPost2010Prop40
 90
        0
102
RTVSPost2010PropOp40
 70
     1
102
RTVSPost2010Prop41ColorIndex
 90
       18
102
RTVSPost2010Prop41ColorRGB
 90
        0
102
RTVSPost2010PropOp41
 70
     1
102
RTVSPost2010Prop42
 90
       50
102
RTVSPost2010PropOp42
 70
     1
102
RTVSPost2010Prop43
 90
        3
102
RTVSPost2010PropOp43
 70
     1
102
RTVSPost2010Prop44ColorIndex
 90
        5
102
RTVSPost2010Prop44ColorRGB
 90
      255
102
RTVSPost2010PropOp44
 70
     1
102
RTVSPost2010Prop45
280
     0
102
RTVSPost2010PropOp45
 70
     1
102
RTVSPost2010Prop46
 90
       50
102
RTVSPost2010PropOp46
 70
     1
102
RTVSPost2010Prop47
 90
       50
102
RTVSPost2010PropOp47
 70
     1
102
RTVSPost2010Prop48
 90
       50
102
RTVSPost2010PropOp48
 70
     1
102
RTVSPost2010Prop49
280
     0
102
RTVSPost2010PropOp49
 70
     1
102
RTVSPost2010Prop50
 90
       50
102
RTVSPost2010PropOp50
 70
     1
102
RTVSPost2010Prop51ColorIndex
 90
      256
102
RTVSPost2010Prop51ColorRGB
 90
-16777216
102
RTVSPost2010PropOp51
 70
     0
102
RTVSPost2010Prop52
140
1.0
102
RTVSPost2010PropOp52
 70
     0
102
RTVSPost2010Prop53
 90
        2
102
RTVSPost2010PropOp53
 70
     1
102
RTVSPost2010Prop54
  1
strokes_ogs.tif
102
RTVSPost2010PropOp54
 70
     1
102
RTVSPost2010Prop55
280
     0
102
RTVSPost2010PropOp55
 70
     1
102
RTVSPost2010Prop56
140
1.0
102
RTVSPost2010PropOp56
 70
     1
102
RTVSPost2010Prop57
140
1.0
102
RTVSPost2010PropOp57
 70
     1
102
RTVSPropertyOp0
 70
     1
102
RTVSPropertyOp1
 70
     1
102
RTVSPropertyOp2
 70
     1
102
RTVSPropertyOp3
 70
     1
102
RTVSPropertyOp4
 70
     1
102
RTVSPropertyOp5
 70
     1
102
RTVSPropertyOp6
 70
     1
102
RTVSPropertyOp7
 70
     1
102
RTVSPropertyOp8
 70
     1
102
RTVSPropertyOp9
 70
     1
102
RTVSPropertyOp10
 70
     1
102
RTVSPropertyOp11
 70
     1
102
RTVSPropertyOp12
 70
     1
102
RTVSPropertyOp13
 70
     1
102
RTVSPropertyOp14
 70
     1
102
RTVSPropertyOp15
 70
     1
102
RTVSPropertyOp16
 70
     1
102
RTVSPropertyOp17
 70
     1
102
RTVSPropertyOp18
 70
     1
102
RTVSPropertyOp19
 70
     1
102
RTVSPropertyOp20
 70
     1
102
RTVSPropertyOp21
 70
     1
102
RTVSPropertyOp22
 70
     1
102
RTVSPropertyOp23
 70
     1
102
RTVSPropertyOp24
 70
     1
102
RTVSPropertyOp25
 70
     1
102
RTVSPropertyOp26
 70
     1
102
RTVSPropertyOp27
 70
     1
102
RTVSPropertyOp28
 70
     1
102
RTVSPropertyOp29
 70
     1
102
RTVSPropertyOp30
 70
     1
102
RTVSPropertyOp31
 70
     1
102
RTVSPropertyOp32
 70
     1
102
RTVSPropertyOp33
 70
     1
102
RTVSPropertyOp34
 70
     1
102
RTVSPropertyOp35
 70
     1
102
RTVSPropertyOp36
 70
     1
102
RTVSPropertyOp37
 70
     1
102
RTVSPropertyOp38
 70
     1
102
RTVSPropertyOp39
 70
     1
102
RTVSPropertyOp40
 70
     1
102
RTVSPropertyOp41
 70
     1
102
RTVSPropertyOp42
 70
     1
102
RTVSPropertyOp43
 70
     1
102
RTVSPropertyOp44
 70
     1
102
RTVSPropertyOp45
 70
     1
102
RTVSPropertyOp46
 70
     1
102
RTVSPropertyOp47
 70
     1
102
RTVSPropertyOp48
 70
     1
102
RTVSPropertyOp49
 70
     1
102
RTVSPropertyOp50
 70
     1
102
RTVSPropertyOp51
 70
     0
102
RTVSPropertyOp52
 70
     0
102
RTVSPropertyOp53
 70
     1
102
RTVSPropertyOp54
 70
     1
102
RTVSPropertyOp55
 70
     1
102
RTVSPropertyOp56
 70
     1
102
RTVSPropertyOp57
 70
     1
102
RTVSPropertyOp58
 70
     1
102
RTVSPropertyOp59
 70
     1
102
RTVSPropertyOp60
 70
     1
102
RTVSPropertyOp61
 70
     1
102
RTVSPropertyOp62
 70
     1
  0
ENDSEC
  0
EOF
