  0
SECTION
  2
HEADER
  9
$ACADVER
  1
AC1015
  9
$ACADMAINTVER
 70
    20
  9
$DWGCODEPAGE
  3
ANSI_932
  9
$INSBASE
 10
0.0
 20
0.0
 30
0.0
  9
$EXTMIN
 10
10.0
 20
9.999999999999998
 30
0.0
  9
$EXTMAX
 10
842.5923560000001
 20
353.482277
 30
0.0
  9
$LIMMIN
 10
0.0
 20
0.0
  9
$LIMMAX
 10
888.94
 20
612.829848
  9
$ORTHOMODE
 70
     1
  9
$REGENMODE
 70
     1
  9
$FILLMODE
 70
     1
  9
$QTEXTMODE
 70
     0
  9
$MIRRTEXT
 70
     1
  9
$LTSCALE
 40
20.0
  9
$ATTMODE
 70
     1
  9
$TEXTSIZE
 40
5.0
  9
$TRACEWID
 40
1.0
  9
$TEXTSTYLE
  7
STANDARD
  9
$CLAYER
  8
0
  9
$CELTYPE
  6
BYLAYER
  9
$CECOLOR
 62
   256
  9
$CELTSCALE
 40
1.0
  9
$DISPSILH
 70
     0
  9
$DIMSCALE
 40
1.0
  9
$DIMASZ
 40
2.5
  9
$DIMEXO
 40
1.0
  9
$DIMDLI
 40
10.0
  9
$DIMRND
 40
0.0
  9
$DIMDLE
 40
0.0
  9
$DIMEXE
 40
1.0
  9
$DIMTP
 40
0.0
  9
$DIMTM
 40
0.0
  9
$DIMTXT
 40
3.2
  9
$DIMCEN
 40
0.0
  9
$DIMTSZ
 40
0.0
  9
$DIMTOL
 70
     0
  9
$DIMLIM
 70
     0
  9
$DIMTIH
 70
     0
  9
$DIMTOH
 70
     0
  9
$DIMSE1
 70
     0
  9
$DIMSE2
 70
     0
  9
$DIMTAD
 70
     3
  9
$DIMZIN
 70
     8
  9
$DIMBLK
  1

  9
$DIMASO
 70
     1
  9
$DIMSHO
 70
     1
  9
$DIMPOST
  1

  9
$DIMAPOST
  1

  9
$DIMALT
 70
     0
  9
$DIMALTD
 70
     2
  9
$DIMALTF
 40
25.4
  9
$DIMLFAC
 40
1.0
  9
$DIMTOFL
 70
     1
  9
$DIMTVP
 40
0.0
  9
$DIMTIX
 70
     0
  9
$DIMSOXD
 70
     0
  9
$DIMSAH
 70
     1
  9
$DIMBLK1
  1
OPEN
  9
$DIMBLK2
  1
OPEN
  9
$DIMSTYLE
  2
STANDARD
  9
$DIMCLRD
 70
     0
  9
$DIMCLRE
 70
     0
  9
$DIMCLRT
 70
     0
  9
$DIMTFAC
 40
1.0
  9
$DIMGAP
 40
1.0
  9
$DIMJUST
 70
     0
  9
$DIMSD1
 70
     0
  9
$DIMSD2
 70
     0
  9
$DIMTOLJ
 70
     1
  9
$DIMTZIN
 70
     0
  9
$DIMALTZ
 70
     0
  9
$DIMALTTZ
 70
     0
  9
$DIMUPT
 70
     0
  9
$DIMDEC
 70
     4
  9
$DIMTDEC
 70
     4
  9
$DIMALTU
 70
     2
  9
$DIMALTTD
 70
     2
  9
$DIMTXSTY
  7
STANDARD
  9
$DIMAUNIT
 70
     0
  9
$DIMADEC
 70
     0
  9
$DIMALTRND
 40
0.0
  9
$DIMAZIN
 70
     0
  9
$DIMDSEP
 70
    46
  9
$DIMATFIT
 70
     3
  9
$DIMFRAC
 70
     0
  9
$DIMLDRBLK
  1
OPEN
  9
$DIMLUNIT
 70
     2
  9
$DIMLWD
 70
    -2
  9
$DIMLWE
 70
    -2
  9
$DIMTMOVE
 70
     0
  9
$LUNITS
 70
     2
  9
$LUPREC
 70
     4
  9
$SKETCHINC
 40
1.0
  9
$FILLETRAD
 40
2.5
  9
$AUNITS
 70
     0
  9
$AUPREC
 70
     2
  9
$MENU
  1
.
  9
$ELEVATION
 40
0.0
  9
$PELEVATION
 40
0.0
  9
$THICKNESS
 40
0.0
  9
$LIMCHECK
 70
     0
  9
$CHAMFERA
 40
10.0
  9
$CHAMFERB
 40
10.0
  9
$CHAMFERC
 40
0.0
  9
$CHAMFERD
 40
0.0
  9
$SKPOLY
 70
     0
  9
$TDCREATE
 40
2451417.577616551
  9
$TDUCREATE
 40
2451417.202616551
  9
$TDUPDATE
 40
2457192.642239595
  9
$TDUUPDATE
 40
2457192.267239595
  9
$TDINDWG
 40
0.0003263773
  9
$TDUSRTIMER
 40
0.0003261921
  9
$USRTIMER
 70
     1
  9
$ANGBASE
 50
0.0
  9
$ANGDIR
 70
     0
  9
$PDMODE
 70
     0
  9
$PDSIZE
 40
0.0
  9
$PLINEWID
 40
0.0
  9
$SPLFRAME
 70
     0
  9
$SPLINETYPE
 70
     6
  9
$SPLINESEGS
 70
     8
  9
$HANDSEED
  5
B110
  9
$SURFTAB1
 70
     6
  9
$SURFTAB2
 70
     6
  9
$SURFTYPE
 70
     6
  9
$SURFU
 70
     6
  9
$SURFV
 70
     6
  9
$UCSBASE
  2

  9
$UCSNAME
  2

  9
$UCSORG
 10
0.0
 20
0.0
 30
0.0
  9
$UCSXDIR
 10
1.0
 20
0.0
 30
0.0
  9
$UCSYDIR
 10
0.0
 20
1.0
 30
0.0
  9
$UCSORTHOREF
  2

  9
$UCSORTHOVIEW
 70
     0
  9
$UCSORGTOP
 10
0.0
 20
0.0
 30
0.0
  9
$UCSORGBOTTOM
 10
0.0
 20
0.0
 30
0.0
  9
$UCSORGLEFT
 10
0.0
 20
0.0
 30
0.0
  9
$UCSORGRIGHT
 10
0.0
 20
0.0
 30
0.0
  9
$UCSORGFRONT
 10
0.0
 20
0.0
 30
0.0
  9
$UCSORGBACK
 10
0.0
 20
0.0
 30
0.0
  9
$PUCSBASE
  2

  9
$PUCSNAME
  2

  9
$PUCSORG
 10
0.0
 20
0.0
 30
0.0
  9
$PUCSXDIR
 10
1.0
 20
0.0
 30
0.0
  9
$PUCSYDIR
 10
0.0
 20
1.0
 30
0.0
  9
$PUCSORTHOREF
  2

  9
$PUCSORTHOVIEW
 70
     0
  9
$PUCSORGTOP
 10
0.0
 20
0.0
 30
0.0
  9
$PUCSORGBOTTOM
 10
0.0
 20
0.0
 30
0.0
  9
$PUCSORGLEFT
 10
0.0
 20
0.0
 30
0.0
  9
$PUCSORGRIGHT
 10
0.0
 20
0.0
 30
0.0
  9
$PUCSORGFRONT
 10
0.0
 20
0.0
 30
0.0
  9
$PUCSORGBACK
 10
0.0
 20
0.0
 30
0.0
  9
$USERI1
 70
     0
  9
$USERI2
 70
     0
  9
$USERI3
 70
     0
  9
$USERI4
 70
     0
  9
$USERI5
 70
     0
  9
$USERR1
 40
0.0
  9
$USERR2
 40
0.0
  9
$USERR3
 40
0.0
  9
$USERR4
 40
0.0
  9
$USERR5
 40
0.0
  9
$WORLDVIEW
 70
     1
  9
$SHADEDGE
 70
     3
  9
$SHADEDIF
 70
    70
  9
$TILEMODE
 70
     1
  9
$MAXACTVP
 70
    16
  9
$PINSBASE
 10
0.0
 20
0.0
 30
0.0
  9
$PLIMCHECK
 70
     0
  9
$PEXTMIN
 10
1.000000000000000E+20
 20
1.000000000000000E+20
 30
1.000000000000000E+20
  9
$PEXTMAX
 10
-1.000000000000000E+20
 20
-1.000000000000000E+20
 30
-1.000000000000000E+20
  9
$PLIMMIN
 10
0.0
 20
0.0
  9
$PLIMMAX
 10
420.0
 20
297.0
  9
$UNITMODE
 70
     0
  9
$VISRETAIN
 70
     0
  9
$PLINEGEN
 70
     0
  9
$PSLTSCALE
 70
     0
  9
$TREEDEPTH
 70
  3020
  9
$CMLSTYLE
  2
STANDARD
  9
$CMLJUST
 70
     0
  9
$CMLSCALE
 40
1.0
  9
$PROXYGRAPHICS
 70
     1
  9
$MEASUREMENT
 70
     0
  9
$CELWEIGHT
370
    -1
  9
$ENDCAPS
280
     0
  9
$JOINSTYLE
280
     0
  9
$LWDISPLAY
290
     0
  9
$INSUNITS
 70
     0
  9
$HYPERLINKBASE
  1

  9
$STYLESHEET
  1

  9
$XEDIT
290
     1
  9
$CEPSNTYPE
380
     0
  9
$PSTYLEMODE
290
     1
  9
$FINGERPRINTGUID
  2
{470CE2E8-068F-4335-A8C6-1C2EECE58F1E}
  9
$VERSIONGUID
  2
{13576DB2-75CA-4F2D-900C-416AFA902F18}
  9
$EXTNAMES
290
     1
  9
$PSVPSCALE
 40
0.0
  9
$OLESTARTUP
290
     0
  0
ENDSEC
  0
SECTION
  2
CLASSES
  0
CLASS
  1
ACDBDICTIONARYWDFLT
  2
AcDbDictionaryWithDefault
  3
ObjectDBX Classes
 90
        0
280
     0
281
     0
  0
CLASS
  1
ACDBPLACEHOLDER
  2
AcDbPlaceHolder
  3
ObjectDBX Classes
 90
        0
280
     0
281
     0
  0
CLASS
  1
LAYOUT
  2
AcDbLayout
  3
ObjectDBX Classes
 90
        0
280
     0
281
     0
  0
CLASS
  1
DICTIONARYVAR
  2
AcDbDictionaryVar
  3
ObjectDBX Classes
 90
        0
280
     0
281
     0
  0
CLASS
  1
MATERIAL
  2
AcDbMaterial
  3
ObjectDBX Classes
 90
     1153
280
     0
281
     0
  0
CLASS
  1
VISUALSTYLE
  2
AcDbVisualStyle
  3
ObjectDBX Classes
 90
     4095
280
     0
281
     0
  0
CLASS
  1
TABLESTYLE
  2
AcDbTableStyle
  3
ObjectDBX Classes
 90
     4095
280
     0
281
     0
  0
CLASS
  1
SCALE
  2
AcDbScale
  3
ObjectDBX Classes
 90
     1153
280
     0
281
     0
  0
CLASS
  1
MLEADERSTYLE
  2
AcDbMLeaderStyle
  3
ACDB_MLEADERSTYLE_CLASS
 90
     4095
280
     0
281
     0
  0
CLASS
  1
ACDBSECTIONVIEWSTYLE
  2
AcDbSectionViewStyle
  3
ObjectDBX Classes
 90
     1025
280
     0
281
     0
  0
CLASS
  1
ACDBDETAILVIEWSTYLE
  2
AcDbDetailViewStyle
  3
ObjectDBX Classes
 90
     1025
280
     0
281
     0
  0
CLASS
  1
CELLSTYLEMAP
  2
AcDbCellStyleMap
  3
ObjectDBX Classes
 90
     1152
280
     0
281
     0
  0
ENDSEC
  0
SECTION
  2
TABLES
  0
TABLE
  2
VPORT
  5
ACF7
330
0
100
AcDbSymbolTable
 70
     1
  0
VPORT
  5
B059
330
ACF7
100
AcDbSymbolTableRecord
100
AcDbViewportTableRecord
  2
*ACTIVE
 70
     0
 10
0.0
 20
0.0
 11
1.0
 21
1.0
 12
569.6633705687798
 22
181.7421660583899
 13
0.0
 23
0.0
 14
10.0
 24
10.0
 15
10.0
 25
10.0
 16
0.0
 26
0.0
 36
1.0
 17
0.0
 27
0.0
 37
0.0
 40
478.6446548938017
 41
1.899603698811096
 42
50.0
 43
0.0
 44
0.0
 50
0.0
 51
0.0
 71
     0
 72
   100
 73
     1
 74
     0
 75
     0
 76
     0
 77
     0
 78
     0
281
     0
 65
     1
110
0.0
120
0.0
130
0.0
111
1.0
121
0.0
131
0.0
112
0.0
122
1.0
132
0.0
 79
     0
146
0.0
1001
ACAD_NAV_VCDISPLAY
1070
     3
  0
ENDTAB
  0
TABLE
  2
LTYPE
  5
ACF4
330
0
100
AcDbSymbolTable
 70
     4
  0
LTYPE
  5
AD02
330
ACF4
100
AcDbSymbolTableRecord
100
AcDbLinetypeTableRecord
  2
BYBLOCK
 70
     0
  3

 72
    65
 73
     0
 40
0.0
  0
LTYPE
  5
AD03
330
ACF4
100
AcDbSymbolTableRecord
100
AcDbLinetypeTableRecord
  2
BYLAYER
 70
     0
  3

 72
    65
 73
     0
 40
0.0
  0
LTYPE
  5
AD04
330
ACF4
100
AcDbSymbolTableRecord
100
AcDbLinetypeTableRecord
  2
CONTINUOUS
 70
     0
  3
Solid line
 72
    65
 73
     0
 40
0.0
  0
LTYPE
  5
AD12
330
ACF4
100
AcDbSymbolTableRecord
100
AcDbLinetypeTableRecord
  2
DASHED
 70
     0
  3
__ __ __ __ __ __ __ __ __ __ __ __ __ __ __ __
 72
    65
 73
     2
 40
0.75
 49
0.5
 74
     0
 49
-0.25
 74
     0
  0
LTYPE
  5
AD13
330
ACF4
100
AcDbSymbolTableRecord
100
AcDbLinetypeTableRecord
  2
CENTER
 70
     0
  3
____ _ ____ _ ____ _ ____ _ ____ _ ____ _ ____ 
 72
    65
 73
     4
 40
2.0
 49
1.25
 74
     0
 49
-0.25
 74
     0
 49
0.25
 74
     0
 49
-0.25
 74
     0
  0
LTYPE
  5
AD14
330
ACF4
100
AcDbSymbolTableRecord
100
AcDbLinetypeTableRecord
  2
PHANTOM
 70
     0
  3
______  __  __  ______  __  __  ______  __  __ 
 72
    65
 73
     6
 40
2.5
 49
1.25
 74
     0
 49
-0.25
 74
     0
 49
0.25
 74
     0
 49
-0.25
 74
     0
 49
0.25
 74
     0
 49
-0.25
 74
     0
  0
ENDTAB
  0
TABLE
  2
LAYER
  5
ACF1
330
0
100
AcDbSymbolTable
 70
     8
  0
LAYER
  5
ACFF
102
{ACAD_XDICTIONARY
360
B0B4
102
}
330
ACF1
100
AcDbSymbolTableRecord
100
AcDbLayerTableRecord
  2
0
 70
     0
 62
     7
  6
CONTINUOUS
370
    -3
390
B062
  0
LAYER
  5
AD15
102
{ACAD_XDICTIONARY
360
B0B6
102
}
330
ACF1
100
AcDbSymbolTableRecord
100
AcDbLayerTableRecord
  2
4
 70
     0
 62
     1
  6
CENTER
370
    -3
390
B062
  0
LAYER
  5
AD16
102
{ACAD_XDICTIONARY
360
B0B8
102
}
330
ACF1
100
AcDbSymbolTableRecord
100
AcDbLayerTableRecord
  2
5
 70
     0
 62
     6
  6
PHANTOM
370
    -3
390
B062
  0
LAYER
  5
AD17
102
{ACAD_XDICTIONARY
360
B0BA
102
}
330
ACF1
100
AcDbSymbolTableRecord
100
AcDbLayerTableRecord
  2
1
 70
     0
 62
     7
  6
CONTINUOUS
370
    -3
390
B062
  0
LAYER
  5
AD18
102
{ACAD_XDICTIONARY
360
B0BC
102
}
330
ACF1
100
AcDbSymbolTableRecord
100
AcDbLayerTableRecord
  2
2
 70
     0
 62
     4
  6
CONTINUOUS
370
    -3
390
B062
  0
LAYER
  5
AD19
102
{ACAD_XDICTIONARY
360
B0BE
102
}
330
ACF1
100
AcDbSymbolTableRecord
100
AcDbLayerTableRecord
  2
3
 70
     0
 62
     2
  6
DASHED
370
    -3
390
B062
  0
LAYER
  5
AD1A
102
{ACAD_XDICTIONARY
360
B0C0
102
}
330
ACF1
100
AcDbSymbolTableRecord
100
AcDbLayerTableRecord
  2
6
 70
     0
 62
     5
  6
CONTINUOUS
370
    -3
390
B062
  0
LAYER
  5
AD1B
102
{ACAD_XDICTIONARY
360
B0C2
102
}
330
ACF1
100
AcDbSymbolTableRecord
100
AcDbLayerTableRecord
  2
7
 70
     0
 62
     3
  6
CONTINUOUS
370
    -3
390
B062
  0
ENDTAB
  0
TABLE
  2
STYLE
  5
ACF2
330
0
100
AcDbSymbolTable
 70
     1
  0
STYLE
  5
AD00
330
ACF2
100
AcDbSymbolTableRecord
100
AcDbTextStyleTableRecord
  2
STANDARD
 70
     0
 40
0.0
 41
1.0
 50
0.0
 71
     0
 42
5.0
  3
txt
  4

  0
ENDTAB
  0
TABLE
  2
VIEW
  5
ACF5
330
0
100
AcDbSymbolTable
 70
     0
  0
ENDTAB
  0
TABLE
  2
UCS
  5
ACF6
330
0
100
AcDbSymbolTable
 70
     0
  0
ENDTAB
  0
TABLE
  2
APPID
  5
ACF8
330
0
100
AcDbSymbolTable
 70
     3
  0
APPID
  5
AD01
330
ACF8
100
AcDbSymbolTableRecord
100
AcDbRegAppTableRecord
  2
ACAD
 70
     0
  0
APPID
  5
B0CE
330
ACF8
100
AcDbSymbolTableRecord
100
AcDbRegAppTableRecord
  2
ACAD_NAV_VCDISPLAY
 70
     0
  0
APPID
  5
B107
330
ACF8
100
AcDbSymbolTableRecord
100
AcDbRegAppTableRecord
  2
ACAD_MLEADERVER
 70
     0
  0
ENDTAB
  0
TABLE
  2
DIMSTYLE
  5
ACF9
330
0
100
AcDbSymbolTable
 70
     1
100
AcDbDimStyleTable
 71
     0
  0
DIMSTYLE
105
AD1D
330
ACF9
100
AcDbSymbolTableRecord
100
AcDbDimStyleTableRecord
  2
STANDARD
 70
     0
 41
2.5
 42
1.0
 43
10.0
 44
1.0
 73
     0
 74
     0
 77
     3
 78
     8
140
3.2
141
0.0
147
1.0
172
     1
173
     1
284
     8
285
     8
286
     8
340
AD00
  0
ENDTAB
  0
TABLE
  2
BLOCK_RECORD
  5
ACF0
330
0
100
AcDbSymbolTable
 70
     1
  0
BLOCK_RECORD
  5
AD0D
102
{ACAD_XDICTIONARY
360
B05C
102
}
330
ACF0
100
AcDbSymbolTableRecord
100
AcDbBlockTableRecord
  2
*MODEL_SPACE
340
B0B0
  0
BLOCK_RECORD
  5
AD09
102
{ACAD_XDICTIONARY
360
B05A
102
}
330
ACF0
100
AcDbSymbolTableRecord
100
AcDbBlockTableRecord
  2
*PAPER_SPACE
340
B0B1
  0
BLOCK_RECORD
  5
AD1F
330
ACF0
100
AcDbSymbolTableRecord
100
AcDbBlockTableRecord
  2
_OPEN
340
0
  0
ENDTAB
  0
ENDSEC
  0
SECTION
  2
BLOCKS
  0
BLOCK
  5
AD0E
330
AD0D
100
AcDbEntity
  8
0
100
AcDbBlockBegin
  2
*MODEL_SPACE
 70
     0
 10
0.0
 20
0.0
 30
0.0
  3
*MODEL_SPACE
  1

  0
ENDBLK
  5
AD0F
330
AD0D
100
AcDbEntity
  8
0
100
AcDbBlockEnd
  0
BLOCK
  5
AD0A
330
AD09
100
AcDbEntity
 67
     1
  8
0
100
AcDbBlockBegin
  2
*PAPER_SPACE
 70
     0
 10
0.0
 20
0.0
 30
0.0
  3
*PAPER_SPACE
  1

  0
ENDBLK
  5
AD0B
330
AD09
100
AcDbEntity
 67
     1
  8
0
100
AcDbBlockEnd
  0
BLOCK
  5
AD20
330
AD1F
100
AcDbEntity
  8
0
100
AcDbBlockBegin
  2
_OPEN
 70
     0
 10
0.0
 20
0.0
 30
0.0
  3
_OPEN
  1

  0
LINE
  5
AD21
330
AD1F
100
AcDbEntity
  8
0
  6
ByBlock
 62
     0
100
AcDbLine
 10
-1.0
 20
0.166667
 30
0.0
 11
0.0
 21
0.0
 31
0.0
  0
LINE
  5
AD22
330
AD1F
100
AcDbEntity
  8
0
  6
ByBlock
 62
     0
100
AcDbLine
 10
0.0
 20
0.0
 30
0.0
 11
-1.0
 21
-0.166667
 31
0.0
  0
LINE
  5
AD23
330
AD1F
100
AcDbEntity
  8
0
  6
ByBlock
 62
     0
100
AcDbLine
 10
0.0
 20
0.0
 30
0.0
 11
-1.0
 21
0.0
 31
0.0
  0
ENDBLK
  5
AD24
330
AD1F
100
AcDbEntity
  8
0
100
AcDbBlockEnd
  0
ENDSEC
  0
SECTION
  2
ENTITIES
  0
LINE
  5
AD25
330
AD0D
100
AcDbEntity
  8
1
  6
Continuous
100
AcDbLine
 10
62.25
 20
251.721982
 30
0.0
 11
62.25
 21
141.7219819999999
 31
0.0
  0
LINE
  5
AD26
330
AD0D
100
AcDbEntity
  8
1
  6
Continuous
100
AcDbLine
 10
26.75
 20
251.721982
 30
0.0
 11
26.75
 21
141.7219819999999
 31
0.0
  0
LINE
  5
AD27
330
AD0D
100
AcDbEntity
  8
1
  6
Continuous
100
AcDbLine
 10
58.75
 20
248.7219819999999
 30
0.0
 11
58.75
 21
144.7219819999999
 31
0.0
  0
LINE
  5
AD28
330
AD0D
100
AcDbEntity
  8
1
  6
Continuous
100
AcDbLine
 10
30.25
 20
248.7219819999999
 30
0.0
 11
30.25
 21
144.7219819999999
 31
0.0
  0
LINE
  5
AD29
330
AD0D
100
AcDbEntity
  8
1
  6
Continuous
100
AcDbLine
 10
217.3089669999999
 20
139.7219819999999
 30
0.0
 11
217.3089669999999
 21
253.721982
 31
0.0
  0
LINE
  5
AD2A
330
AD0D
100
AcDbEntity
  8
1
  6
Continuous
100
AcDbLine
 10
226.3089669999999
 20
189.221982
 30
0.0
 11
226.3089669999999
 21
219.221982
 31
0.0
  0
LINE
  5
AD2B
330
AD0D
100
AcDbEntity
  8
1
  6
Continuous
100
AcDbLine
 10
212.308967
 20
226.2916209999999
 30
0.0
 11
212.308967
 21
171.0880069999999
 31
0.0
  0
LINE
  5
AD2C
330
AD0D
100
AcDbEntity
  8
5
  6
PHANTOM
100
AcDbLine
 10
205.448132
 20
219.2398269999999
 30
0.0
 11
183.221395
 21
197.0130899999999
 31
0.0
  0
LINE
  5
AD2D
330
AD0D
100
AcDbEntity
  8
5
  6
PHANTOM
100
AcDbLine
 10
209.080035
 20
231.357011
 30
0.0
 11
170.139919
 21
192.416896
 31
0.0
  0
LINE
  5
AD2E
330
AD0D
100
AcDbEntity
  8
1
  6
Continuous
100
AcDbLine
 10
214.308967
 20
139.7219819999999
 30
0.0
 11
214.308967
 21
253.721982
 31
0.0
  0
LINE
  5
AD2F
330
AD0D
100
AcDbEntity
  8
1
  6
Continuous
100
AcDbLine
 10
215.8089669999999
 20
139.7219819999999
 30
0.0
 11
215.8089669999999
 21
253.721982
 31
0.0
  0
LINE
  5
AD30
330
AD0D
100
AcDbEntity
  8
1
  6
Continuous
100
AcDbLine
 10
212.808967
 20
142.221982
 30
0.0
 11
212.808967
 21
251.2219819999999
 31
0.0
  0
LINE
  5
AD31
330
AD0D
100
AcDbEntity
  8
1
  6
Continuous
100
AcDbLine
 10
56.0
 20
248.7219819999999
 30
0.0
 11
56.0
 21
144.7219819999999
 31
0.0
  0
LINE
  5
AD32
330
AD0D
100
AcDbEntity
  8
1
  6
Continuous
100
AcDbLine
 10
33.0
 20
144.7219819999999
 30
0.0
 11
33.0
 21
248.7219819999999
 31
0.0
  0
LINE
  5
AD33
330
AD0D
100
AcDbEntity
  8
1
  6
Continuous
100
AcDbLine
 10
53.85
 20
232.7219819999999
 30
0.0
 11
53.85
 21
172.221982
 31
0.0
  0
LINE
  5
AD34
330
AD0D
100
AcDbEntity
  8
1
  6
Continuous
100
AcDbLine
 10
35.15
 20
232.7219819999999
 30
0.0
 11
35.15
 21
172.221982
 31
0.0
  0
LINE
  5
AD35
330
AD0D
100
AcDbEntity
  8
1
  6
Continuous
100
AcDbLine
 10
54.15
 20
160.721982
 30
0.0
 11
54.15
 21
232.7219819999999
 31
0.0
  0
LINE
  5
AD36
330
AD0D
100
AcDbEntity
  8
1
  6
Continuous
100
AcDbLine
 10
34.85
 20
160.721982
 30
0.0
 11
34.85
 21
232.7219819999999
 31
0.0
  0
LINE
  5
AD37
330
AD0D
100
AcDbEntity
  8
1
  6
Continuous
100
AcDbLine
 10
58.5
 20
248.7219819999999
 30
0.0
 11
58.5
 21
144.7219819999999
 31
0.0
  0
LINE
  5
AD38
330
AD0D
100
AcDbEntity
  8
1
  6
Continuous
100
AcDbLine
 10
30.5
 20
248.7219819999999
 30
0.0
 11
30.5
 21
144.7219819999999
 31
0.0
  0
LINE
  5
AD39
330
AD0D
100
AcDbEntity
  8
4
  6
CENTER
100
AcDbLine
 10
44.5
 20
258.7219819999999
 30
0.0
 11
44.5
 21
134.721982
 31
0.0
  0
TEXT
  5
AD3A
330
AD0D
100
AcDbEntity
  8
7
  6
Continuous
100
AcDbText
 10
10.0
 20
26.0
 30
0.0
 40
3.0
  1
CODE No.13263
100
AcDbText
  0
TEXT
  5
AD3B
330
AD0D
100
AcDbEntity
  8
7
  6
Continuous
100
AcDbText
 10
10.0
 20
18.0
 30
0.0
 40
3.0
  1
TYPE No.THA-405S-2K
100
AcDbText
  0
TEXT
  5
AD3C
330
AD0D
100
AcDbEntity
  8
1
  6
Continuous
100
AcDbText
 10
10.0
 20
10.0
 30
0.0
 40
1.399999999999999
  1
LAYER
100
AcDbText
  0
TEXT
  5
AD3D
330
AD0D
100
AcDbEntity
  8
5
  6
PHANTOM
100
AcDbText
 10
25.97951099999999
 20
10.04873699999999
 30
0.0
 40
1.399999999999999
  1
5
100
AcDbText
  0
TEXT
  5
AD3E
330
AD0D
100
AcDbEntity
  8
6
  6
Continuous
100
AcDbText
 10
27.979511
 20
10.04873699999999
 30
0.0
 40
1.399999999999999
  1
6
100
AcDbText
  0
TEXT
  5
AD3F
330
AD0D
100
AcDbEntity
  8
2
  6
Continuous
100
AcDbText
 10
19.97951099999999
 20
10.04873699999999
 30
0.0
 40
1.399999999999999
  1
2
100
AcDbText
  0
TEXT
  5
AD40
330
AD0D
100
AcDbEntity
  8
3
  6
DASHED
100
AcDbText
 10
21.979511
 20
10.04873699999999
 30
0.0
 40
1.399999999999999
  1
3
100
AcDbText
  0
TEXT
  5
AD41
330
AD0D
100
AcDbEntity
  8
4
  6
CENTER
100
AcDbText
 10
23.97951099999999
 20
10.04873699999999
 30
0.0
 40
1.399999999999999
  1
4
100
AcDbText
  0
TEXT
  5
AD42
330
AD0D
100
AcDbEntity
  8
7
  6
Continuous
100
AcDbText
 10
29.97951099999999
 20
10.04873699999999
 30
0.0
 40
1.399999999999999
  1
7
100
AcDbText
  0
TEXT
  5
AD43
330
AD0D
100
AcDbEntity
  8
1
  6
Continuous
100
AcDbText
 10
17.97951099999998
 20
10.04873699999999
 30
0.0
 40
1.399999999999999
  1
1
100
AcDbText
  0
LINE
  5
AD44
330
AD0D
100
AcDbEntity
  8
1
  6
Continuous
100
AcDbLine
 10
53.5
 20
142.221982
 30
0.0
 11
35.5
 21
142.221982
 31
0.0
  0
LINE
  5
AD45
330
AD0D
100
AcDbEntity
  8
1
  6
Continuous
100
AcDbLine
 10
60.25
 20
139.7219819999999
 30
0.0
 11
28.75
 21
139.7219819999999
 31
0.0
  0
ARC
  5
AD46
330
AD0D
100
AcDbEntity
  8
1
  6
Continuous
100
AcDbCircle
 10
28.75
 20
141.7219819999999
 30
0.0
 40
2.0
100
AcDbArc
 50
180.0
 51
270.0
  0
ARC
  5
AD47
330
AD0D
100
AcDbEntity
  8
1
  6
Continuous
100
AcDbCircle
 10
35.25
 20
144.7219819999999
 30
0.0
 40
5.0
100
AcDbArc
 50
180.0
 51
270.0
  0
ARC
  5
AD48
330
AD0D
100
AcDbEntity
  8
1
  6
Continuous
100
AcDbCircle
 10
35.5
 20
144.7219819999999
 30
0.0
 40
2.5
100
AcDbArc
 50
180.0
 51
270.0
  0
ARC
  5
AD49
330
AD0D
100
AcDbEntity
  8
1
  6
Continuous
100
AcDbCircle
 10
35.5
 20
144.7219819999999
 30
0.0
 40
5.0
100
AcDbArc
 50
180.0
 51
270.0
  0
ARC
  5
AD4A
330
AD0D
100
AcDbEntity
  8
1
  6
Continuous
100
AcDbCircle
 10
53.5
 20
144.7219819999999
 30
0.0
 40
2.5
100
AcDbArc
 50
270.0
 51
0.0
  0
ARC
  5
AD4B
330
AD0D
100
AcDbEntity
  8
1
  6
Continuous
100
AcDbCircle
 10
53.5
 20
144.7219819999999
 30
0.0
 40
5.0
100
AcDbArc
 50
270.0
 51
0.0
  0
ARC
  5
AD4C
330
AD0D
100
AcDbEntity
  8
1
  6
Continuous
100
AcDbCircle
 10
60.25
 20
141.7219819999999
 30
0.0
 40
2.0
100
AcDbArc
 50
270.0
 51
0.0
  0
ARC
  5
AD4D
330
AD0D
100
AcDbEntity
  8
1
  6
Continuous
100
AcDbCircle
 10
53.75
 20
144.7219819999999
 30
0.0
 40
5.0
100
AcDbArc
 50
270.0
 51
0.0
  0
ARC
  5
AD4E
330
AD0D
100
AcDbEntity
  8
1
  6
Continuous
100
AcDbCircle
 10
37.14999999999999
 20
172.221982
 30
0.0
 40
2.0
100
AcDbArc
 50
180.0
 51
270.0
  0
LINE
  5
AD4F
330
AD0D
100
AcDbEntity
  8
1
  6
Continuous
100
AcDbLine
 10
34.9
 20
170.7219819999999
 30
0.0
 11
35.827125
 21
170.7219819999999
 31
0.0
  0
LINE
  5
AD50
330
AD0D
100
AcDbEntity
  8
4
  6
CENTER
100
AcDbLine
 10
33.39999999999999
 20
160.721982
 30
0.0
 11
55.6
 21
160.721982
 31
0.0
  0
LINE
  5
AD51
330
AD0D
100
AcDbEntity
  8
1
  6
Continuous
100
AcDbLine
 10
34.9
 20
169.7219819999999
 30
0.0
 11
54.1
 21
169.7219819999999
 31
0.0
  0
ARC
  5
AD52
330
AD0D
100
AcDbEntity
  8
1
  6
Continuous
100
AcDbCircle
 10
44.5
 20
160.721982
 30
0.0
 40
9.599999999999999
100
AcDbArc
 50
180.0
 51
0.0
  0
ARC
  5
AD53
330
AD0D
100
AcDbEntity
  8
1
  6
Continuous
100
AcDbCircle
 10
44.5
 20
160.721982
 30
0.0
 40
9.65
100
AcDbArc
 50
180.0
 51
0.0
  0
LINE
  5
AD54
330
AD0D
100
AcDbEntity
  8
1
  6
Continuous
100
AcDbLine
 10
34.9
 20
160.721982
 30
0.0
 11
34.9
 21
182.721982
 31
0.0
  0
LINE
  5
AD55
330
AD0D
100
AcDbEntity
  8
1
  6
Continuous
100
AcDbLine
 10
34.9
 20
173.7219819999999
 30
0.0
 11
35.15
 21
173.7219819999999
 31
0.0
  0
ARC
  5
AD56
330
AD0D
100
AcDbEntity
  8
1
  6
Continuous
100
AcDbCircle
 10
36.4
 20
182.721982
 30
0.0
 40
1.5
100
AcDbArc
 50
146.44269
 51
180.0
  0
ARC
  5
AD57
330
AD0D
100
AcDbEntity
  8
1
  6
Continuous
100
AcDbCircle
 10
35.85
 20
183.7219819999999
 30
0.0
 40
1.0
100
AcDbArc
 50
134.427004
 51
180.0
  0
LINE
  5
AD58
330
AD0D
100
AcDbEntity
  8
1
  6
Continuous
100
AcDbLine
 10
54.1
 20
160.721982
 30
0.0
 11
54.1
 21
182.721982
 31
0.0
  0
ARC
  5
AD59
330
AD0D
100
AcDbEntity
  8
1
  6
Continuous
100
AcDbCircle
 10
51.85
 20
172.221982
 30
0.0
 40
2.0
100
AcDbArc
 50
270.0
 51
0.0
  0
LINE
  5
AD5A
330
AD0D
100
AcDbEntity
  8
1
  6
Continuous
100
AcDbLine
 10
53.172876
 20
170.7219819999999
 30
0.0
 11
54.1
 21
170.7219819999999
 31
0.0
  0
CIRCLE
  5
AD5B
330
AD0D
100
AcDbEntity
  8
1
  6
Continuous
100
AcDbCircle
 10
44.5
 20
155.571982
 30
0.0
 40
0.75
  0
LINE
  5
AD5C
330
AD0D
100
AcDbEntity
  8
1
  6
Continuous
100
AcDbLine
 10
43.5
 20
157.071982
 30
0.0
 11
45.49999999999999
 21
157.071982
 31
0.0
  0
LINE
  5
AD5D
330
AD0D
100
AcDbEntity
  8
1
  6
Continuous
100
AcDbLine
 10
43.5
 20
164.071982
 30
0.0
 11
45.49999999999999
 21
164.071982
 31
0.0
  0
LINE
  5
AD5E
330
AD0D
100
AcDbEntity
  8
1
  6
Continuous
100
AcDbLine
 10
45.49999999999999
 20
157.071982
 30
0.0
 11
45.49999999999999
 21
164.071982
 31
0.0
  0
LINE
  5
AD5F
330
AD0D
100
AcDbEntity
  8
1
  6
Continuous
100
AcDbLine
 10
43.5
 20
157.071982
 30
0.0
 11
43.5
 21
164.071982
 31
0.0
  0
CIRCLE
  5
AD60
330
AD0D
100
AcDbEntity
  8
1
  6
Continuous
100
AcDbCircle
 10
44.5
 20
160.721982
 30
0.0
 40
7.65
  0
LINE
  5
AD61
330
AD0D
100
AcDbEntity
  8
1
  6
Continuous
100
AcDbLine
 10
51.85
 20
170.221982
 30
0.0
 11
37.14999999999999
 21
170.221982
 31
0.0
  0
CIRCLE
  5
AD62
330
AD0D
100
AcDbEntity
  8
1
  6
Continuous
100
AcDbCircle
 10
44.5
 20
160.721982
 30
0.0
 40
7.799999999999998
  0
LINE
  5
AD63
330
AD0D
100
AcDbEntity
  8
1
  6
Continuous
100
AcDbLine
 10
40.45
 20
170.221982
 30
0.0
 11
40.45
 21
169.7219819999999
 31
0.0
  0
LINE
  5
AD64
330
AD0D
100
AcDbEntity
  8
1
  6
Continuous
100
AcDbLine
 10
48.55
 20
170.221982
 30
0.0
 11
48.55
 21
169.7219819999999
 31
0.0
  0
LINE
  5
AD65
330
AD0D
100
AcDbEntity
  8
1
  6
Continuous
100
AcDbLine
 10
53.85
 20
173.7219819999999
 30
0.0
 11
54.1
 21
173.7219819999999
 31
0.0
  0
ARC
  5
AD66
330
AD0D
100
AcDbEntity
  8
1
  6
Continuous
100
AcDbCircle
 10
52.6
 20
182.721982
 30
0.0
 40
1.5
100
AcDbArc
 50
0.0
 51
33.55731
  0
ARC
  5
AD67
330
AD0D
100
AcDbEntity
  8
1
  6
Continuous
100
AcDbCircle
 10
53.15
 20
183.7219819999999
 30
0.0
 40
1.0
100
AcDbArc
 50
0.0
 51
45.572996
  0
LINE
  5
AD68
330
AD0D
100
AcDbEntity
  8
1
  6
Continuous
100
AcDbLine
 10
215.8089669999999
 20
72.185551
 30
0.0
 11
214.308967
 21
72.185551
 31
0.0
  0
LINE
  5
AD69
330
AD0D
100
AcDbEntity
  8
4
  6
CENTER
100
AcDbLine
 10
250.5089669999999
 20
58.18555100000001
 30
0.0
 11
202.2176189999999
 21
58.18555100000001
 31
0.0
  0
LINE
  5
AD6A
330
AD0D
100
AcDbEntity
  8
1
  6
Continuous
100
AcDbLine
 10
215.8089669999999
 20
44.185551
 30
0.0
 11
214.308967
 21
44.185551
 31
0.0
  0
LINE
  5
AD6B
330
AD0D
100
AcDbEntity
  8
1
  6
Continuous
100
AcDbLine
 10
212.308967
 20
67.53555099999998
 30
0.0
 11
212.308967
 21
48.835551
 31
0.0
  0
LINE
  5
AD6C
330
AD0D
100
AcDbEntity
  8
1
  6
Continuous
100
AcDbLine
 10
212.808967
 20
46.685551
 30
0.0
 11
212.808967
 21
69.685551
 31
0.0
  0
LINE
  5
AD6D
330
AD0D
100
AcDbEntity
  8
1
  6
Continuous
100
AcDbLine
 10
214.308967
 20
44.185551
 30
0.0
 11
214.308967
 21
72.185551
 31
0.0
  0
ARC
  5
AD6E
330
AD0D
100
AcDbEntity
  8
1
  6
Continuous
100
AcDbCircle
 10
218.348691
 20
58.18555100000001
 30
0.0
 40
11.13107199999999
100
AcDbArc
 50
122.860835
 51
237.139165
  0
LINE
  5
AD6F
330
AD0D
100
AcDbEntity
  8
1
  6
Continuous
100
AcDbLine
 10
212.808967
 20
48.835551
 30
0.0
 11
212.308967
 21
48.835551
 31
0.0
  0
LINE
  5
AD70
330
AD0D
100
AcDbEntity
  8
1
  6
Continuous
100
AcDbLine
 10
212.808967
 20
46.685551
 30
0.0
 11
214.308967
 21
44.185551
 31
0.0
  0
LINE
  5
AD71
330
AD0D
100
AcDbEntity
  8
1
  6
Continuous
100
AcDbLine
 10
212.808967
 20
67.53555099999998
 30
0.0
 11
212.308967
 21
67.53555099999998
 31
0.0
  0
LINE
  5
AD72
330
AD0D
100
AcDbEntity
  8
1
  6
Continuous
100
AcDbLine
 10
212.808967
 20
69.685551
 30
0.0
 11
214.308967
 21
72.185551
 31
0.0
  0
LINE
  5
AD73
330
AD0D
100
AcDbEntity
  8
1
  6
Continuous
100
AcDbLine
 10
240.8089669999999
 20
69.685551
 30
0.0
 11
240.8089669999999
 21
46.685551
 31
0.0
  0
LINE
  5
AD74
330
AD0D
100
AcDbEntity
  8
1
  6
Continuous
100
AcDbLine
 10
217.3089669999999
 20
43.935551
 30
0.0
 11
217.3089669999999
 21
72.435551
 31
0.0
  0
LINE
  5
AD75
330
AD0D
100
AcDbEntity
  8
1
  6
Continuous
100
AcDbLine
 10
215.8089669999999
 20
43.935551
 30
0.0
 11
215.8089669999999
 21
72.435551
 31
0.0
  0
LINE
  5
AD76
330
AD0D
100
AcDbEntity
  8
1
  6
Continuous
100
AcDbLine
 10
242.5089669999999
 20
46.935551
 30
0.0
 11
242.5089669999999
 21
67.92835100000001
 31
0.0
  0
LINE
  5
AD77
330
AD0D
100
AcDbEntity
  8
1
  6
Continuous
100
AcDbLine
 10
240.8089669999999
 20
46.685551
 30
0.0
 11
217.3089669999999
 21
46.685551
 31
0.0
  0
LINE
  5
AD78
330
AD0D
100
AcDbEntity
  8
1
  6
Continuous
100
AcDbLine
 10
217.3089669999999
 20
43.935551
 30
0.0
 11
215.8089669999999
 21
43.935551
 31
0.0
  0
LINE
  5
AD79
330
AD0D
100
AcDbEntity
  8
1
  6
Continuous
100
AcDbLine
 10
242.5089669999999
 20
46.935551
 30
0.0
 11
240.8089669999999
 21
46.935551
 31
0.0
  0
LINE
  5
AD7A
330
AD0D
100
AcDbEntity
  8
1
  6
Continuous
100
AcDbLine
 10
240.8089669999999
 20
69.685551
 30
0.0
 11
217.3089669999999
 21
69.685551
 31
0.0
  0
LINE
  5
AD7B
330
AD0D
100
AcDbEntity
  8
1
  6
Continuous
100
AcDbLine
 10
217.3089669999999
 20
72.435551
 30
0.0
 11
215.8089669999999
 21
72.435551
 31
0.0
  0
LINE
  5
AD7C
330
AD0D
100
AcDbEntity
  8
2
  6
Continuous
100
AcDbLine
 10
245.2089669999999
 20
63.647431
 30
0.0
 11
242.5089669999999
 21
58.18555100000001
 31
0.0
  0
LINE
  5
AD7D
330
AD0D
100
AcDbEntity
  8
2
  6
Continuous
100
AcDbLine
 10
242.5089669999999
 20
63.647431
 30
0.0
 11
245.2089669999999
 21
58.18555100000001
 31
0.0
  0
ARC
  5
AD7E
330
AD0D
100
AcDbEntity
  8
1
  6
Continuous
100
AcDbCircle
 10
245.2089669999999
 20
63.347431
 30
0.0
 40
0.3
100
AcDbArc
 50
0.0
 51
90.0
  0
LINE
  5
AD7F
330
AD0D
100
AcDbEntity
  8
1
  6
Continuous
100
AcDbLine
 10
245.2089669999999
 20
63.647431
 30
0.0
 11
242.5089669999999
 21
63.647431
 31
0.0
  0
LINE
  5
AD80
330
AD0D
100
AcDbEntity
  8
1
  6
Continuous
100
AcDbLine
 10
245.508967
 20
58.18555100000001
 30
0.0
 11
242.5089669999999
 21
58.18555100000001
 31
0.0
  0
ARC
  5
AD81
330
AD0D
100
AcDbEntity
  8
1
  6
Continuous
100
AcDbCircle
 10
245.2089669999999
 20
53.02367199999999
 30
0.0
 40
0.3
100
AcDbArc
 50
270.0
 51
0.0
  0
LINE
  5
AD82
330
AD0D
100
AcDbEntity
  8
1
  6
Continuous
100
AcDbLine
 10
245.2089669999999
 20
52.723672
 30
0.0
 11
242.5089669999999
 21
52.723672
 31
0.0
  0
LINE
  5
AD83
330
AD0D
100
AcDbEntity
  8
1
  6
Continuous
100
AcDbLine
 10
242.5089669999999
 20
67.92835100000001
 30
0.0
 11
240.8089669999999
 21
67.92835100000001
 31
0.0
  0
LINE
  5
AD84
330
AD0D
100
AcDbEntity
  8
1
  6
Continuous
100
AcDbLine
 10
245.508967
 20
63.347431
 30
0.0
 11
245.508967
 21
53.02367199999999
 31
0.0
  0
LINE
  5
AD85
330
AD0D
100
AcDbEntity
  8
2
  6
Continuous
100
AcDbLine
 10
242.5089669999999
 20
58.18555100000001
 30
0.0
 11
245.2089669999999
 21
52.723672
 31
0.0
  0
LINE
  5
AD86
330
AD0D
100
AcDbEntity
  8
2
  6
Continuous
100
AcDbLine
 10
245.2089669999999
 20
58.18555100000001
 30
0.0
 11
242.5089669999999
 21
52.723672
 31
0.0
  0
LINE
  5
AD87
330
AD0D
100
AcDbEntity
  8
1
  6
Continuous
100
AcDbLine
 10
214.308967
 20
139.7219819999999
 30
0.0
 11
217.3089669999999
 21
139.7219819999999
 31
0.0
  0
LINE
  5
AD88
330
AD0D
100
AcDbEntity
  8
1
  6
Continuous
100
AcDbLine
 10
212.808967
 20
142.221982
 30
0.0
 11
214.308967
 21
139.7219819999999
 31
0.0
  0
LINE
  5
AD89
330
AD0D
100
AcDbEntity
  8
5
  6
PHANTOM
100
AcDbLine
 10
184.988181
 20
181.902156
 30
0.0
 11
172.745223
 21
188.4579659999999
 31
0.0
  0
ARC
  5
AD8A
330
AD0D
100
AcDbEntity
  8
5
  6
PHANTOM
100
AcDbCircle
 10
173.217281
 20
189.339533
 30
0.0
 40
1.0
100
AcDbArc
 50
225.0
 51
241.832021
  0
LINE
  5
AD8B
330
AD0D
100
AcDbEntity
  8
5
  6
PHANTOM
100
AcDbLine
 10
172.510175
 20
188.632427
 30
0.0
 11
170.139919
 21
191.0026819999999
 31
0.0
  0
ARC
  5
AD8C
330
AD0D
100
AcDbEntity
  8
5
  6
PHANTOM
100
AcDbCircle
 10
170.847026
 20
191.7097889999999
 30
0.0
 40
1.0
100
AcDbArc
 50
135.0
 51
225.0
  0
ARC
  5
AD8D
330
AD0D
100
AcDbEntity
  8
1
  6
Continuous
100
AcDbCircle
 10
213.3089669999999
 20
171.0880069999999
 30
0.0
 40
1.0
100
AcDbArc
 50
180.0
 51
239.9999999999999
  0
ARC
  5
AD8E
330
AD0D
100
AcDbEntity
  8
5
  6
PHANTOM
100
AcDbCircle
 10
186.049822
 20
194.1846619999999
 30
0.0
 40
4.0
100
AcDbArc
 50
135.0
 51
225.0
  0
LINE
  5
AD8F
330
AD0D
100
AcDbEntity
  8
5
  6
PHANTOM
100
AcDbLine
 10
188.171142
 20
186.4064879999999
 30
0.0
 11
183.221395
 21
191.356235
 31
0.0
  0
ARC
  5
AD90
330
AD0D
100
AcDbEntity
  8
5
  6
PHANTOM
100
AcDbCircle
 10
186.756929
 20
184.992274
 30
0.0
 40
2.0
100
AcDbArc
 50
315.0
 51
45.0
  0
LINE
  5
AD91
330
AD0D
100
AcDbEntity
  8
5
  6
PHANTOM
100
AcDbLine
 10
188.171142
 20
183.578061
 30
0.0
 11
186.756929
 21
182.163847
 31
0.0
  0
ARC
  5
AD92
330
AD0D
100
AcDbEntity
  8
5
  6
PHANTOM
100
AcDbCircle
 10
185.696268
 20
183.224507
 30
0.0
 40
1.5
100
AcDbArc
 50
241.832021
 51
315.0
  0
LINE
  5
AD93
330
AD0D
100
AcDbEntity
  8
1
  6
Continuous
100
AcDbLine
 10
240.8089669999999
 20
186.2219819999999
 30
0.0
 11
240.8089669999999
 21
150.221982
 31
0.0
  0
LINE
  5
AD94
330
AD0D
100
AcDbEntity
  8
1
  6
Continuous
100
AcDbLine
 10
217.3089669999999
 20
149.221982
 30
0.0
 11
239.808967
 21
149.221982
 31
0.0
  0
ARC
  5
AD95
330
AD0D
100
AcDbEntity
  8
1
  6
Continuous
100
AcDbCircle
 10
239.808967
 20
150.221982
 30
0.0
 40
1.0
100
AcDbArc
 50
270.0
 51
0.0
  0
LINE
  5
AD96
330
AD0D
100
AcDbEntity
  8
1
  6
Continuous
100
AcDbLine
 10
228.3089669999999
 20
187.2219819999999
 30
0.0
 11
239.808967
 21
187.2219819999999
 31
0.0
  0
ARC
  5
AD97
330
AD0D
100
AcDbEntity
  8
1
  6
Continuous
100
AcDbCircle
 10
228.3089669999999
 20
189.221982
 30
0.0
 40
2.0
100
AcDbArc
 50
180.0
 51
270.0
  0
ARC
  5
AD98
330
AD0D
100
AcDbEntity
  8
1
  6
Continuous
100
AcDbCircle
 10
239.808967
 20
186.2219819999999
 30
0.0
 40
1.0
100
AcDbArc
 50
0.0
 51
90.0
  0
LINE
  5
AD99
330
AD0D
100
AcDbEntity
  8
5
  6
PHANTOM
100
AcDbLine
 10
44.5
 20
223.3719819999999
 30
0.0
 11
105.0
 21
223.3719819999999
 31
0.0
  0
LINE
  5
AD9A
330
AD0D
100
AcDbEntity
  8
5
  6
PHANTOM
100
AcDbLine
 10
44.5
 20
242.0719819999999
 30
0.0
 11
105.0
 21
242.0719819999999
 31
0.0
  0
LINE
  5
AD9B
330
AD0D
100
AcDbEntity
  8
4
  6
CENTER
100
AcDbLine
 10
112.0
 20
232.7219819999999
 30
0.0
 11
25.5
 21
232.7219819999999
 31
0.0
  0
ARC
  5
AD9C
330
AD0D
100
AcDbEntity
  8
1
  6
Continuous
100
AcDbCircle
 10
44.5
 20
226.589318
 30
0.0
 40
9.349999999999999
100
AcDbArc
 50
0.0
 51
180.0
  0
ARC
  5
AD9D
330
AD0D
100
AcDbEntity
  8
1
  6
Continuous
100
AcDbCircle
 10
44.5
 20
232.7219819999999
 30
0.0
 40
9.349999999999999
100
AcDbArc
 50
0.0
 51
180.0
  0
ARC
  5
AD9E
330
AD0D
100
AcDbEntity
  8
1
  6
Continuous
100
AcDbCircle
 10
44.5
 20
232.7219819999999
 30
0.0
 40
9.65
100
AcDbArc
 50
0.0
 51
180.0
  0
LINE
  5
AD9F
330
AD0D
100
AcDbEntity
  8
1
  6
Continuous
100
AcDbLine
 10
35.5
 20
251.2219819999999
 30
0.0
 11
53.5
 21
251.2219819999999
 31
0.0
  0
LINE
  5
ADA0
330
AD0D
100
AcDbEntity
  8
1
  6
Continuous
100
AcDbLine
 10
60.25
 20
253.721982
 30
0.0
 11
28.75
 21
253.721982
 31
0.0
  0
ARC
  5
ADA1
330
AD0D
100
AcDbEntity
  8
1
  6
Continuous
100
AcDbCircle
 10
28.75
 20
251.721982
 30
0.0
 40
2.0
100
AcDbArc
 50
90.0
 51
180.0
  0
ARC
  5
ADA2
330
AD0D
100
AcDbEntity
  8
1
  6
Continuous
100
AcDbCircle
 10
35.25
 20
248.7219819999999
 30
0.0
 40
5.0
100
AcDbArc
 50
90.0
 51
180.0
  0
ARC
  5
ADA3
330
AD0D
100
AcDbEntity
  8
1
  6
Continuous
100
AcDbCircle
 10
35.5
 20
248.7219819999999
 30
0.0
 40
2.5
100
AcDbArc
 50
90.0
 51
180.0
  0
ARC
  5
ADA4
330
AD0D
100
AcDbEntity
  8
1
  6
Continuous
100
AcDbCircle
 10
35.5
 20
248.7219819999999
 30
0.0
 40
5.0
100
AcDbArc
 50
90.0
 51
180.0
  0
ARC
  5
ADA5
330
AD0D
100
AcDbEntity
  8
1
  6
Continuous
100
AcDbCircle
 10
53.5
 20
248.7219819999999
 30
0.0
 40
2.5
100
AcDbArc
 50
0.0
 51
90.0
  0
ARC
  5
ADA6
330
AD0D
100
AcDbEntity
  8
1
  6
Continuous
100
AcDbCircle
 10
53.5
 20
248.7219819999999
 30
0.0
 40
5.0
100
AcDbArc
 50
0.0
 51
90.0
  0
ARC
  5
ADA7
330
AD0D
100
AcDbEntity
  8
1
  6
Continuous
100
AcDbCircle
 10
60.25
 20
251.721982
 30
0.0
 40
2.0
100
AcDbArc
 50
0.0
 51
90.0
  0
ARC
  5
ADA8
330
AD0D
100
AcDbEntity
  8
1
  6
Continuous
100
AcDbCircle
 10
53.75
 20
248.7219819999999
 30
0.0
 40
5.0
100
AcDbArc
 50
0.0
 51
90.0
  0
ARC
  5
ADA9
330
AD0D
100
AcDbEntity
  8
5
  6
PHANTOM
100
AcDbCircle
 10
105.0
 20
225.3719819999999
 30
0.0
 40
2.0
100
AcDbArc
 50
270.0
 51
0.0
  0
LINE
  5
ADAA
330
AD0D
100
AcDbEntity
  8
5
  6
PHANTOM
100
AcDbLine
 10
107.0
 20
240.0719819999999
 30
0.0
 11
107.0
 21
225.3719819999999
 31
0.0
  0
ARC
  5
ADAB
330
AD0D
100
AcDbEntity
  8
5
  6
PHANTOM
100
AcDbCircle
 10
105.0
 20
240.0719819999999
 30
0.0
 40
2.0
100
AcDbArc
 50
0.0
 51
90.0
  0
LINE
  5
ADAC
330
AD0D
100
AcDbEntity
  8
1
  6
Continuous
100
AcDbLine
 10
69.50003599999999
 20
332.6322779999999
 30
0.0
 11
72.84213000000002
 21
335.767625
 31
0.0
  0
LINE
  5
ADAD
330
AD0D
100
AcDbEntity
  8
1
  6
Continuous
100
AcDbLine
 10
70.500036
 20
338.8322779999999
 30
0.0
 11
72.853054
 21
336.4863660000001
 31
0.0
  0
LINE
  5
ADAE
330
AD0D
100
AcDbEntity
  8
1
  6
Continuous
100
AcDbLine
 10
49.500036
 20
335.2322779999999
 30
0.0
 11
72.27148199999998
 21
335.2322779999999
 31
0.0
  0
LINE
  5
ADAF
330
AD0D
100
AcDbEntity
  8
1
  6
Continuous
100
AcDbLine
 10
49.500036
 20
336.432278
 30
0.0
 11
72.907306
 21
336.432278
 31
0.0
  0
LINE
  5
ADB0
330
AD0D
100
AcDbEntity
  8
4
  6
CENTER
100
AcDbLine
 10
22.000036
 20
335.7322779999999
 30
0.0
 11
74.288944
 21
335.7322779999999
 31
0.0
  0
LINE
  5
ADB1
330
AD0D
100
AcDbEntity
  8
1
  6
Continuous
100
AcDbLine
 10
35.933369
 20
346.5322779999998
 30
0.0
 11
46.00003599999999
 21
338.9822779999999
 31
0.0
  0
LINE
  5
ADB2
330
AD0D
100
AcDbEntity
  8
1
  6
Continuous
100
AcDbLine
 10
36.533369
 20
347.3322779999999
 30
0.0
 11
46.00003599999999
 21
340.2322779999999
 31
0.0
  0
LINE
  5
ADB3
330
AD0D
100
AcDbEntity
  8
1
  6
Continuous
100
AcDbLine
 10
30.238353
 20
346.2869779999999
 30
0.0
 11
26.167986
 21
340.181427
 31
0.0
  0
LINE
  5
ADB4
330
AD0D
100
AcDbEntity
  8
1
  6
Continuous
100
AcDbLine
 10
25.335935
 20
340.7361269999999
 30
0.0
 11
29.406303
 21
346.841678
 31
0.0
  0
ARC
  5
ADB5
330
AD0D
100
AcDbEntity
  8
1
  6
Continuous
100
AcDbCircle
 10
35.333369
 20
325.7322779999999
 30
0.0
 40
1.0
100
AcDbArc
 50
270.0
 51
306.8698979999999
  0
ARC
  5
ADB6
330
AD0D
100
AcDbEntity
  8
1
  6
Continuous
100
AcDbCircle
 10
35.333369
 20
325.7322779999999
 30
0.0
 40
2.0
100
AcDbArc
 50
270.0
 51
306.8698979999999
  0
LINE
  5
ADB7
330
AD0D
100
AcDbEntity
  8
1
  6
Continuous
100
AcDbLine
 10
33.286731
 20
336.1222609999999
 30
0.0
 11
38.713341
 21
336.1222609999999
 31
0.0
  0
LINE
  5
ADB8
330
AD0D
100
AcDbEntity
  8
1
  6
Continuous
100
AcDbLine
 10
33.86618
 20
330.6782839999999
 30
0.0
 11
37.219721
 21
330.6782839999999
 31
0.0
  0
LINE
  5
ADB9
330
AD0D
100
AcDbEntity
  8
1
  6
Continuous
100
AcDbLine
 10
37.43444799999999
 20
331.455093
 30
0.0
 11
34.565624
 21
331.455093
 31
0.0
  0
LINE
  5
ADBA
330
AD0D
100
AcDbEntity
  8
1
  6
Continuous
100
AcDbLine
 10
34.080908
 20
332.23348
 30
0.0
 11
37.91758499999999
 21
332.23348
 31
0.0
  0
LINE
  5
ADBB
330
AD0D
100
AcDbEntity
  8
1
  6
Continuous
100
AcDbLine
 10
33.97985900000001
 20
333.010289
 30
0.0
 11
38.02021299999999
 21
333.010289
 31
0.0
  0
LINE
  5
ADBC
330
AD0D
100
AcDbEntity
  8
1
  6
Continuous
100
AcDbLine
 10
33.351465
 20
334.567065
 30
0.0
 11
38.64860699999999
 21
334.567065
 31
0.0
  0
LINE
  5
ADBD
330
AD0D
100
AcDbEntity
  8
1
  6
Continuous
100
AcDbLine
 10
33.286731
 20
335.3438729999999
 30
0.0
 11
38.713341
 21
335.3438729999999
 31
0.0
  0
LINE
  5
ADBE
330
AD0D
100
AcDbEntity
  8
1
  6
Continuous
100
AcDbLine
 10
37.454974
 20
340.4057620000001
 30
0.0
 11
34.177219
 21
341.2851979999999
 31
0.0
  0
ARC
  5
ADBF
330
AD0D
100
AcDbEntity
  8
1
  6
Continuous
100
AcDbCircle
 10
35.61084199999999
 20
339.6210589999999
 30
0.0
 40
0.388957
100
AcDbArc
 50
270.0
 51
90.0
  0
ARC
  5
ADC0
330
AD0D
100
AcDbEntity
  8
1
  6
Continuous
100
AcDbCircle
 10
35.99924699999999
 20
340.399446
 30
0.0
 40
2.004309
100
AcDbArc
 50
62.24999999999999
 51
144.462
  0
LINE
  5
ADC1
330
AD0D
100
AcDbEntity
  8
1
  6
Continuous
100
AcDbLine
 10
33.439882
 20
336.8990699999999
 30
0.0
 11
38.56019000000001
 21
336.8990699999999
 31
0.0
  0
LINE
  5
ADC2
330
AD0D
100
AcDbEntity
  8
1
  6
Continuous
100
AcDbLine
 10
33.44304000000001
 20
338.454267
 30
0.0
 11
38.312305
 21
338.454267
 31
0.0
  0
ARC
  5
ADC3
330
AD0D
100
AcDbEntity
  8
1
  6
Continuous
100
AcDbCircle
 10
42.532651
 20
335.7322779999999
 30
0.0
 40
10.032628
100
AcDbArc
 50
144.462
 51
215.5377
  0
LINE
  5
ADC4
330
AD0D
100
AcDbEntity
  8
1
  6
Continuous
100
AcDbLine
 10
35.06612899999999
 20
333.788677
 30
0.0
 11
33.581982
 21
333.788677
 31
0.0
  0
ARC
  5
ADC5
330
AD0D
100
AcDbEntity
  8
1
  6
Continuous
100
AcDbCircle
 10
34.565624
 20
331.845076
 30
0.0
 40
0.388957
100
AcDbArc
 50
206.0144
 51
270.0
  0
ARC
  5
ADC6
330
AD0D
100
AcDbEntity
  8
1
  6
Continuous
100
AcDbCircle
 10
42.532651
 20
335.7322779999999
 30
0.0
 40
9.254918999999999
100
AcDbArc
 50
202.944
 51
206.0144
  0
ARC
  5
ADC7
330
AD0D
100
AcDbEntity
  8
1
  6
Continuous
100
AcDbCircle
 10
34.080908
 20
332.1561149999999
 30
0.0
 40
0.077791
100
AcDbArc
 50
90.0
 51
202.944
  0
ARC
  5
ADC8
330
AD0D
100
AcDbEntity
  8
1
  6
Continuous
100
AcDbCircle
 10
33.581982
 20
333.711312
 30
0.0
 40
0.077791
100
AcDbArc
 50
90.0
 51
192.7289
  0
ARC
  5
ADC9
330
AD0D
100
AcDbEntity
  8
1
  6
Continuous
100
AcDbCircle
 10
42.532651
 20
335.7322779999999
 30
0.0
 40
9.254918999999999
100
AcDbArc
 50
192.7289
 51
193.2680999999999
  0
ARC
  5
ADCA
330
AD0D
100
AcDbEntity
  8
1
  6
Continuous
100
AcDbCircle
 10
42.532651
 20
335.7322779999999
 30
0.0
 40
9.254918999999999
100
AcDbArc
 50
193.2680999999999
 51
195.2574999999999
  0
ARC
  5
ADCB
330
AD0D
100
AcDbEntity
  8
1
  6
Continuous
100
AcDbCircle
 10
33.97985900000001
 20
333.4002729999999
 30
0.0
 40
0.388957
100
AcDbArc
 50
195.2574999999999
 51
270.0
  0
LINE
  5
ADCC
330
AD0D
100
AcDbEntity
  8
1
  6
Continuous
100
AcDbLine
 10
35.06612899999999
 20
337.677458
 30
0.0
 11
33.804604
 21
337.677458
 31
0.0
  0
LINE
  5
ADCD
330
AD0D
100
AcDbEntity
  8
1
  6
Continuous
100
AcDbLine
 10
33.80933999999999
 20
339.232654
 30
0.0
 11
35.61084199999999
 21
339.232654
 31
0.0
  0
LINE
  5
ADCE
330
AD0D
100
AcDbEntity
  8
1
  6
Continuous
100
AcDbLine
 10
35.61084199999999
 20
340.0110419999998
 30
0.0
 11
33.949861
 21
340.0110419999998
 31
0.0
  0
ARC
  5
ADCF
330
AD0D
100
AcDbEntity
  8
1
  6
Continuous
100
AcDbCircle
 10
33.804604
 20
337.2890529999999
 30
0.0
 40
0.388957
100
AcDbArc
 50
90.0
 51
169.896
  0
ARC
  5
ADD0
330
AD0D
100
AcDbEntity
  8
1
  6
Continuous
100
AcDbCircle
 10
42.532651
 20
335.7322779999999
 30
0.0
 40
9.254918999999999
100
AcDbArc
 50
169.896
 51
172.2069999999999
  0
ARC
  5
ADD1
330
AD0D
100
AcDbEntity
  8
1
  6
Continuous
100
AcDbCircle
 10
33.439882
 20
336.978014
 30
0.0
 40
0.077791
100
AcDbArc
 50
172.2069999999999
 51
270.0
  0
ARC
  5
ADD2
330
AD0D
100
AcDbEntity
  8
1
  6
Continuous
100
AcDbCircle
 10
35.99924699999999
 20
331.0666879999999
 30
0.0
 40
2.004309
100
AcDbArc
 50
215.5377
 51
256.5374
  0
LINE
  5
ADD3
330
AD0D
100
AcDbEntity
  8
1
  6
Continuous
100
AcDbLine
 10
30.238353
 20
325.177578
 30
0.0
 11
26.167986
 21
331.283129
 31
0.0
  0
ARC
  5
ADD4
330
AD0D
100
AcDbEntity
  8
1
  6
Continuous
100
AcDbCircle
 10
27.000036
 20
339.626727
 30
0.0
 40
1.0
100
AcDbArc
 50
146.3099319999999
 51
180.0
  0
LINE
  5
ADD5
330
AD0D
100
AcDbEntity
  8
1
  6
Continuous
100
AcDbLine
 10
26.00003599999999
 20
331.837829
 30
0.0
 11
26.00003599999999
 21
339.626727
 31
0.0
  0
ARC
  5
ADD6
330
AD0D
100
AcDbEntity
  8
1
  6
Continuous
100
AcDbCircle
 10
27.000036
 20
331.837829
 30
0.0
 40
1.0
100
AcDbArc
 50
180.0
 51
213.690068
  0
ARC
  5
ADD7
330
AD0D
100
AcDbEntity
  8
1
  6
Continuous
100
AcDbCircle
 10
31.070403
 20
325.7322779999999
 30
0.0
 40
1.0
100
AcDbArc
 50
213.690068
 51
270.0
  0
ARC
  5
ADD8
330
AD0D
100
AcDbEntity
  8
1
  6
Continuous
100
AcDbCircle
 10
27.50003599999999
 20
339.2322779999999
 30
0.0
 40
0.5
100
AcDbArc
 50
90.0
 51
180.0
  0
ARC
  5
ADD9
330
AD0D
100
AcDbEntity
  8
1
  6
Continuous
100
AcDbCircle
 10
31.070403
 20
325.7322779999999
 30
0.0
 40
2.0
100
AcDbArc
 50
213.690068
 51
270.0
  0
ARC
  5
ADDA
330
AD0D
100
AcDbEntity
  8
1
  6
Continuous
100
AcDbCircle
 10
27.000036
 20
331.837829
 30
0.0
 40
2.0
100
AcDbArc
 50
180.0
 51
213.690068
  0
ARC
  5
ADDB
330
AD0D
100
AcDbEntity
  8
1
  6
Continuous
100
AcDbCircle
 10
27.000036
 20
339.626727
 30
0.0
 40
2.0
100
AcDbArc
 50
146.3099319999999
 51
180.0
  0
ARC
  5
ADDC
330
AD0D
100
AcDbEntity
  8
1
  6
Continuous
100
AcDbCircle
 10
30.500036
 20
339.2322779999999
 30
0.0
 40
0.5
100
AcDbArc
 50
0.0
 51
90.0
  0
ARC
  5
ADDD
330
AD0D
100
AcDbEntity
  8
1
  6
Continuous
100
AcDbCircle
 10
30.500036
 20
332.2322779999999
 30
0.0
 40
0.5
100
AcDbArc
 50
270.0
 51
0.0
  0
ARC
  5
ADDE
330
AD0D
100
AcDbEntity
  8
1
  6
Continuous
100
AcDbCircle
 10
27.50003599999999
 20
332.2322779999999
 30
0.0
 40
0.5
100
AcDbArc
 50
180.0
 51
270.0
  0
LINE
  5
ADDF
330
AD0D
100
AcDbEntity
  8
1
  6
Continuous
100
AcDbLine
 10
25.335935
 20
330.728429
 30
0.0
 11
29.406303
 21
324.6228779999999
 31
0.0
  0
LINE
  5
ADE0
330
AD0D
100
AcDbEntity
  8
1
  6
Continuous
100
AcDbLine
 10
27.50003599999999
 20
339.7322779999999
 30
0.0
 11
30.500036
 21
339.7322779999999
 31
0.0
  0
LINE
  5
ADE1
330
AD0D
100
AcDbEntity
  8
1
  6
Continuous
100
AcDbLine
 10
27.50003599999999
 20
331.7322779999999
 30
0.0
 11
30.500036
 21
331.7322779999999
 31
0.0
  0
LINE
  5
ADE2
330
AD0D
100
AcDbEntity
  8
1
  6
Continuous
100
AcDbLine
 10
31.00003599999999
 20
339.2322779999999
 30
0.0
 11
31.00003599999999
 21
332.2322779999999
 31
0.0
  0
LINE
  5
ADE3
330
AD0D
100
AcDbEntity
  8
1
  6
Continuous
100
AcDbLine
 10
27.000036
 20
339.2322779999999
 30
0.0
 11
27.000036
 21
332.2322779999999
 31
0.0
  0
LINE
  5
ADE4
330
AD0D
100
AcDbEntity
  8
1
  6
Continuous
100
AcDbLine
 10
35.333369
 20
324.7322779999999
 30
0.0
 11
31.070403
 21
324.7322779999999
 31
0.0
  0
LINE
  5
ADE5
330
AD0D
100
AcDbEntity
  8
1
  6
Continuous
100
AcDbLine
 10
31.070403
 20
323.7322779999999
 30
0.0
 11
35.333369
 21
323.7322779999999
 31
0.0
  0
LINE
  5
ADE6
330
AD0D
100
AcDbEntity
  8
1
  6
Continuous
100
AcDbLine
 10
25.00003599999999
 20
339.626727
 30
0.0
 11
25.00003599999999
 21
331.837829
 31
0.0
  0
LINE
  5
ADE7
330
AD0D
100
AcDbEntity
  8
1
  6
Continuous
100
AcDbLine
 10
53.000036
 20
338.8322779999999
 30
0.0
 11
70.500036
 21
338.8322779999999
 31
0.0
  0
LINE
  5
ADE8
330
AD0D
100
AcDbEntity
  8
1
  6
Continuous
100
AcDbLine
 10
53.000036
 20
332.6322779999999
 30
0.0
 11
69.50003599999999
 21
332.6322779999999
 31
0.0
  0
ARC
  5
ADE9
330
AD0D
100
AcDbEntity
  8
1
  6
Continuous
100
AcDbCircle
 10
52.70003599999999
 20
331.5322779999999
 30
0.0
 40
0.3
100
AcDbArc
 50
270.0
 51
0.0
  0
ARC
  5
ADEA
330
AD0D
100
AcDbEntity
  8
1
  6
Continuous
100
AcDbCircle
 10
52.70003599999999
 20
339.9322779999999
 30
0.0
 40
0.3
100
AcDbArc
 50
0.0
 51
90.0
  0
LINE
  5
ADEB
330
AD0D
100
AcDbEntity
  8
1
  6
Continuous
100
AcDbLine
 10
53.000036
 20
332.6322779999999
 30
0.0
 11
53.000036
 21
331.5322779999999
 31
0.0
  0
LINE
  5
ADEC
330
AD0D
100
AcDbEntity
  8
1
  6
Continuous
100
AcDbLine
 10
53.000036
 20
339.9322779999999
 30
0.0
 11
53.000036
 21
338.8322779999999
 31
0.0
  0
LINE
  5
ADED
330
AD0D
100
AcDbEntity
  8
1
  6
Continuous
100
AcDbLine
 10
49.500036
 20
336.432278
 30
0.0
 11
49.500036
 21
335.2322779999999
 31
0.0
  0
LINE
  5
ADEE
330
AD0D
100
AcDbEntity
  8
1
  6
Continuous
100
AcDbLine
 10
46.00003599999999
 20
332.4822779999999
 30
0.0
 11
46.00003599999999
 21
338.9822779999999
 31
0.0
  0
LINE
  5
ADEF
330
AD0D
100
AcDbEntity
  8
1
  6
Continuous
100
AcDbLine
 10
46.00003599999999
 20
332.4822779999999
 30
0.0
 11
35.933369
 21
324.9322779999999
 31
0.0
  0
LINE
  5
ADF0
330
AD0D
100
AcDbEntity
  8
1
  6
Continuous
100
AcDbLine
 10
36.533369
 20
324.1322779999999
 30
0.0
 11
46.00003599999999
 21
331.2322779999999
 31
0.0
  0
ARC
  5
ADF1
330
AD0D
100
AcDbEntity
  8
1
  6
Continuous
100
AcDbCircle
 10
35.99924699999999
 20
331.0666879999999
 30
0.0
 40
2.004309
100
AcDbArc
 50
270.0
 51
324.4619999999999
  0
ARC
  5
ADF2
330
AD0D
100
AcDbEntity
  8
1
  6
Continuous
100
AcDbCircle
 10
29.467421
 20
335.7322779999999
 30
0.0
 40
10.032628
100
AcDbArc
 50
324.4619999999999
 51
35.53800000000001
  0
LINE
  5
ADF3
330
AD0D
100
AcDbEntity
  8
1
  6
Continuous
100
AcDbLine
 10
35.99924699999999
 20
335.3438729999999
 30
0.0
 11
35.99924699999999
 21
334.567065
 31
0.0
  0
ARC
  5
ADF4
330
AD0D
100
AcDbEntity
  8
1
  6
Continuous
100
AcDbCircle
 10
37.43444799999999
 20
331.845076
 30
0.0
 40
0.388957
100
AcDbArc
 50
270.0
 51
333.9859999999999
  0
ARC
  5
ADF5
330
AD0D
100
AcDbEntity
  8
1
  6
Continuous
100
AcDbCircle
 10
38.02021299999999
 20
333.4002729999999
 30
0.0
 40
0.388957
100
AcDbArc
 50
270.0
 51
344.7419999999998
  0
ARC
  5
ADF6
330
AD0D
100
AcDbEntity
  8
1
  6
Continuous
100
AcDbCircle
 10
29.467421
 20
335.7322779999999
 30
0.0
 40
9.254918999999999
100
AcDbArc
 50
344.7419999999998
 51
344.794
  0
ARC
  5
ADF7
330
AD0D
100
AcDbEntity
  8
1
  6
Continuous
100
AcDbCircle
 10
29.467421
 20
335.7322779999999
 30
0.0
 40
9.254918999999999
100
AcDbArc
 50
344.794
 51
347.2709999999998
  0
ARC
  5
ADF8
330
AD0D
100
AcDbEntity
  8
1
  6
Continuous
100
AcDbCircle
 10
38.41808999999999
 20
333.711312
 30
0.0
 40
0.077791
100
AcDbArc
 50
347.2709999999998
 51
90.0
  0
LINE
  5
ADF9
330
AD0D
100
AcDbEntity
  8
1
  6
Continuous
100
AcDbLine
 10
38.41808999999999
 20
333.788677
 30
0.0
 11
36.93236399999999
 21
333.788677
 31
0.0
  0
ARC
  5
ADFA
330
AD0D
100
AcDbEntity
  8
1
  6
Continuous
100
AcDbCircle
 10
37.91758499999999
 20
332.1561149999999
 30
0.0
 40
0.077791
100
AcDbArc
 50
337.0559999999999
 51
90.0
  0
ARC
  5
ADFB
330
AD0D
100
AcDbEntity
  8
1
  6
Continuous
100
AcDbCircle
 10
29.467421
 20
335.7322779999999
 30
0.0
 40
9.254918999999999
100
AcDbArc
 50
333.9859999999999
 51
337.0559999999999
  0
LINE
  5
ADFC
330
AD0D
100
AcDbEntity
  8
1
  6
Continuous
100
AcDbLine
 10
35.99924699999999
 20
337.677458
 30
0.0
 11
35.99924699999999
 21
337.2890529999999
 31
0.0
  0
LINE
  5
ADFD
330
AD0D
100
AcDbEntity
  8
1
  6
Continuous
100
AcDbLine
 10
35.99924699999999
 20
339.6210589999999
 30
0.0
 11
37.865482
 21
339.6210589999999
 31
0.0
  0
LINE
  5
ADFE
330
AD0D
100
AcDbEntity
  8
1
  6
Continuous
100
AcDbLine
 10
35.99924699999999
 20
342.403045
 30
0.0
 11
35.99924699999999
 21
340.795745
 31
0.0
  0
ARC
  5
ADFF
330
AD0D
100
AcDbEntity
  8
1
  6
Continuous
100
AcDbCircle
 10
35.99924699999999
 20
340.399446
 30
0.0
 40
2.004309
100
AcDbArc
 50
35.53800000000001
 51
45.69899999999999
  0
ARC
  5
AE00
330
AD0D
100
AcDbEntity
  8
1
  6
Continuous
100
AcDbCircle
 10
38.19546799999999
 20
337.2890529999999
 30
0.0
 40
0.388957
100
AcDbArc
 50
10.10399999999999
 51
90.0
  0
ARC
  5
AE01
330
AD0D
100
AcDbEntity
  8
1
  6
Continuous
100
AcDbCircle
 10
38.56019000000001
 20
336.978014
 30
0.0
 40
0.077791
100
AcDbArc
 50
270.0
 51
7.792999999999999
  0
ARC
  5
AE02
330
AD0D
100
AcDbEntity
  8
1
  6
Continuous
100
AcDbCircle
 10
29.467421
 20
335.7322779999999
 30
0.0
 40
9.254918999999999
100
AcDbArc
 50
7.792999999999999
 51
10.10399999999999
  0
LINE
  5
AE03
330
AD0D
100
AcDbEntity
  8
1
  6
Continuous
100
AcDbLine
 10
38.19546799999999
 20
337.677458
 30
0.0
 11
35.99924699999999
 21
337.677458
 31
0.0
  0
LINE
  5
AE04
330
AD0D
100
AcDbEntity
  8
1
  6
Continuous
100
AcDbLine
 10
46.00003599999999
 20
340.2322779999999
 30
0.0
 11
52.70003599999999
 21
340.2322779999999
 31
0.0
  0
LINE
  5
AE05
330
AD0D
100
AcDbEntity
  8
1
  6
Continuous
100
AcDbLine
 10
46.00003599999999
 20
331.2322779999999
 30
0.0
 11
52.70003599999999
 21
331.2322779999999
 31
0.0
  0
ARC
  5
AE06
330
AD0D
100
AcDbEntity
  8
1
  6
Continuous
100
AcDbCircle
 10
35.333369
 20
345.7322779999998
 30
0.0
 40
1.0
100
AcDbArc
 50
53.130102
 51
90.0
  0
ARC
  5
AE07
330
AD0D
100
AcDbEntity
  8
1
  6
Continuous
100
AcDbCircle
 10
35.333369
 20
345.7322779999998
 30
0.0
 40
2.0
100
AcDbArc
 50
53.130102
 51
90.0
  0
ARC
  5
AE08
330
AD0D
100
AcDbEntity
  8
1
  6
Continuous
100
AcDbCircle
 10
31.070403
 20
345.7322779999998
 30
0.0
 40
1.0
100
AcDbArc
 50
90.0
 51
146.3099319999999
  0
ARC
  5
AE09
330
AD0D
100
AcDbEntity
  8
1
  6
Continuous
100
AcDbCircle
 10
31.070403
 20
345.7322779999998
 30
0.0
 40
2.0
100
AcDbArc
 50
90.0
 51
146.3099319999999
  0
LINE
  5
AE0A
330
AD0D
100
AcDbEntity
  8
1
  6
Continuous
100
AcDbLine
 10
31.070403
 20
346.7322779999999
 30
0.0
 11
35.333369
 21
346.7322779999999
 31
0.0
  0
LINE
  5
AE0B
330
AD0D
100
AcDbEntity
  8
1
  6
Continuous
100
AcDbLine
 10
31.070403
 20
347.7322779999998
 30
0.0
 11
35.333369
 21
347.7322779999998
 31
0.0
  0
ARC
  5
AE0C
330
AD0D
100
AcDbEntity
  8
1
  6
Continuous
100
AcDbCircle
 10
72.50003599999998
 20
336.132278
 30
0.0
 40
0.5
100
AcDbArc
 50
313.1718549999999
 51
45.08664600000001
  0
LINE
  5
AE0D
330
AD0D
100
AcDbEntity
  8
4
  6
CENTER
100
AcDbLine
 10
211.4649889999999
 20
232.7219819999999
 30
0.0
 11
250.5089669999999
 21
232.7219819999999
 31
0.0
  0
LINE
  5
AE0E
330
AD0D
100
AcDbEntity
  8
1
  6
Continuous
100
AcDbLine
 10
214.308967
 20
253.721982
 30
0.0
 11
217.3089669999999
 21
253.721982
 31
0.0
  0
LINE
  5
AE0F
330
AD0D
100
AcDbEntity
  8
5
  6
PHANTOM
100
AcDbLine
 10
207.4589669999999
 20
223.3719819999999
 30
0.0
 11
205.448132
 21
219.2398269999999
 31
0.0
  0
ARC
  5
AE10
330
AD0D
100
AcDbEntity
  8
5
  6
PHANTOM
100
AcDbCircle
 10
202.0089669999999
 20
238.428079
 30
0.0
 40
10.0
100
AcDbArc
 50
315.0
 51
0.0
  0
LINE
  5
AE11
330
AD0D
100
AcDbEntity
  8
5
  6
PHANTOM
100
AcDbLine
 10
212.008967
 20
241.071982
 30
0.0
 11
212.008967
 21
238.428079
 31
0.0
  0
ARC
  5
AE12
330
AD0D
100
AcDbEntity
  8
5
  6
PHANTOM
100
AcDbCircle
 10
213.0089669999999
 20
241.071982
 30
0.0
 40
1.0
100
AcDbArc
 50
101.5369589999999
 51
180.0
  0
ARC
  5
AE13
330
AD0D
100
AcDbEntity
  8
1
  6
Continuous
100
AcDbCircle
 10
202.308967
 20
226.2916209999999
 30
0.0
 40
10.0
100
AcDbArc
 50
0.0
 51
45.0
  0
LINE
  5
AE14
330
AD0D
100
AcDbEntity
  8
1
  6
Continuous
100
AcDbLine
 10
207.5105129999999
 20
235.2322109999999
 30
0.0
 11
209.380035
 21
233.362689
 31
0.0
  0
ARC
  5
AE15
330
AD0D
100
AcDbEntity
  8
1
  6
Continuous
100
AcDbCircle
 10
208.2176189999999
 20
235.939318
 30
0.0
 40
1.0
100
AcDbArc
 50
135.0
 51
225.0
  0
LINE
  5
AE16
330
AD0D
100
AcDbEntity
  8
1
  6
Continuous
100
AcDbLine
 10
210.197518
 20
239.3334299999999
 30
0.0
 11
207.5105129999999
 21
236.6464249999999
 31
0.0
  0
ARC
  5
AE17
330
AD0D
100
AcDbEntity
  8
1
  6
Continuous
100
AcDbCircle
 10
216.808967
 20
232.7219819999999
 30
0.0
 40
9.349999999999999
100
AcDbArc
 50
115.328498
 51
135.0
  0
LINE
  5
AE18
330
AD0D
100
AcDbEntity
  8
1
  6
Continuous
100
AcDbLine
 10
214.308967
 20
253.721982
 30
0.0
 11
212.808967
 21
251.2219819999999
 31
0.0
  0
LINE
  5
AE19
330
AD0D
100
AcDbEntity
  8
1
  6
Continuous
100
AcDbLine
 10
229.8089669999999
 20
221.221982
 30
0.0
 11
229.8089669999999
 21
232.7219819999999
 31
0.0
  0
LINE
  5
AE1A
330
AD0D
100
AcDbEntity
  8
1
  6
Continuous
100
AcDbLine
 10
240.5089669999999
 20
240.340908
 30
0.0
 11
240.5089669999999
 21
221.471982
 31
0.0
  0
LINE
  5
AE1B
330
AD0D
100
AcDbEntity
  8
1
  6
Continuous
100
AcDbLine
 10
242.5089669999999
 20
221.471982
 30
0.0
 11
242.5089669999999
 21
242.464768
 31
0.0
  0
LINE
  5
AE1C
330
AD0D
100
AcDbEntity
  8
1
  6
Continuous
100
AcDbLine
 10
240.3089669999999
 20
222.2219819999999
 30
0.0
 11
240.3089669999999
 21
241.6812740000001
 31
0.0
  0
LINE
  5
AE1D
330
AD0D
100
AcDbEntity
  8
4
  6
CENTER
100
AcDbLine
 10
235.808967
 20
204.221982
 30
0.0
 11
221.308967
 21
204.221982
 31
0.0
  0
LINE
  5
AE1E
330
AD0D
100
AcDbEntity
  8
1
  6
Continuous
100
AcDbLine
 10
228.3089669999999
 20
221.221982
 30
0.0
 11
239.308967
 21
221.221982
 31
0.0
  0
ARC
  5
AE1F
330
AD0D
100
AcDbEntity
  8
1
  6
Continuous
100
AcDbCircle
 10
227.308967
 20
198.7219819999999
 30
0.0
 40
1.0
100
AcDbArc
 50
87.19057300000001
 51
180.0
  0
ARC
  5
AE20
330
AD0D
100
AcDbEntity
  8
1
  6
Continuous
100
AcDbCircle
 10
227.308967
 20
209.7219819999999
 30
0.0
 40
1.0
100
AcDbArc
 50
180.0
 51
272.809427
  0
ARC
  5
AE21
330
AD0D
100
AcDbEntity
  8
1
  6
Continuous
100
AcDbCircle
 10
228.3089669999999
 20
219.221982
 30
0.0
 40
2.0
100
AcDbArc
 50
90.0
 51
180.0
  0
LINE
  5
AE22
330
AD0D
100
AcDbEntity
  8
1
  6
Continuous
100
AcDbLine
 10
230.808967
 20
199.7219819999999
 30
0.0
 11
227.308967
 21
199.7219819999999
 31
0.0
  0
LINE
  5
AE23
330
AD0D
100
AcDbEntity
  8
1
  6
Continuous
100
AcDbLine
 10
230.808967
 20
208.721982
 30
0.0
 11
227.308967
 21
208.721982
 31
0.0
  0
LINE
  5
AE24
330
AD0D
100
AcDbEntity
  8
1
  6
Continuous
100
AcDbLine
 10
230.808967
 20
199.7219819999999
 30
0.0
 11
230.808967
 21
208.721982
 31
0.0
  0
LINE
  5
AE25
330
AD0D
100
AcDbEntity
  8
1
  6
Continuous
100
AcDbLine
 10
242.5089669999999
 20
221.471982
 30
0.0
 11
240.5089669999999
 21
221.471982
 31
0.0
  0
ARC
  5
AE26
330
AD0D
100
AcDbEntity
  8
1
  6
Continuous
100
AcDbCircle
 10
239.308967
 20
222.2219819999999
 30
0.0
 40
1.0
100
AcDbArc
 50
270.0
 51
0.0
  0
LINE
  5
AE27
330
AD0D
100
AcDbEntity
  8
1
  6
Continuous
100
AcDbLine
 10
239.308967
 20
242.681274
 30
0.0
 11
217.3089669999999
 21
242.681274
 31
0.0
  0
LINE
  5
AE28
330
AD0D
100
AcDbEntity
  8
1
  6
Continuous
100
AcDbLine
 10
217.3089669999999
 20
244.221982
 30
0.0
 11
241.9089669999999
 21
244.221982
 31
0.0
  0
LINE
  5
AE29
330
AD0D
100
AcDbEntity
  8
1
  6
Continuous
100
AcDbLine
 10
245.508967
 20
237.883862
 30
0.0
 11
245.508967
 21
227.5601029999999
 31
0.0
  0
LINE
  5
AE2A
330
AD0D
100
AcDbEntity
  8
2
  6
Continuous
100
AcDbLine
 10
242.5089669999999
 20
232.7219819999999
 30
0.0
 11
245.2089669999999
 21
227.260103
 31
0.0
  0
LINE
  5
AE2B
330
AD0D
100
AcDbEntity
  8
2
  6
Continuous
100
AcDbLine
 10
245.2089669999999
 20
238.1838619999999
 30
0.0
 11
242.5089669999999
 21
232.7219819999999
 31
0.0
  0
LINE
  5
AE2C
330
AD0D
100
AcDbEntity
  8
2
  6
Continuous
100
AcDbLine
 10
245.2089669999999
 20
232.7219819999999
 30
0.0
 11
242.5089669999999
 21
227.260103
 31
0.0
  0
LINE
  5
AE2D
330
AD0D
100
AcDbEntity
  8
2
  6
Continuous
100
AcDbLine
 10
242.5089669999999
 20
238.1838619999999
 30
0.0
 11
245.2089669999999
 21
232.7219819999999
 31
0.0
  0
LINE
  5
AE2E
330
AD0D
100
AcDbEntity
  8
1
  6
Continuous
100
AcDbLine
 10
240.5089669999999
 20
238.6219819999999
 30
0.0
 11
240.3089669999999
 21
238.6219819999999
 31
0.0
  0
LINE
  5
AE2F
330
AD0D
100
AcDbEntity
  8
1
  6
Continuous
100
AcDbLine
 10
240.5089669999999
 20
226.821982
 30
0.0
 11
240.3089669999999
 21
226.821982
 31
0.0
  0
LINE
  5
AE30
330
AD0D
100
AcDbEntity
  8
1
  6
Continuous
100
AcDbLine
 10
242.5089669999999
 20
227.0969819999999
 30
0.0
 11
240.5089669999999
 21
227.0969819999999
 31
0.0
  0
LINE
  5
AE31
330
AD0D
100
AcDbEntity
  8
1
  6
Continuous
100
AcDbLine
 10
242.5089669999999
 20
228.6219819999999
 30
0.0
 11
240.5089669999999
 21
228.6219819999999
 31
0.0
  0
ARC
  5
AE32
330
AD0D
100
AcDbEntity
  8
1
  6
Continuous
100
AcDbCircle
 10
239.308967
 20
241.6812740000001
 30
0.0
 40
1.0
100
AcDbArc
 50
0.0
 51
90.0
  0
LINE
  5
AE33
330
AD0D
100
AcDbEntity
  8
1
  6
Continuous
100
AcDbLine
 10
242.1089669999999
 20
244.0219819999999
 30
0.0
 11
242.1089669999999
 21
240.540908
 31
0.0
  0
ARC
  5
AE34
330
AD0D
100
AcDbEntity
  8
1
  6
Continuous
100
AcDbCircle
 10
245.2089669999999
 20
227.5601029999999
 30
0.0
 40
0.3
100
AcDbArc
 50
270.0
 51
0.0
  0
LINE
  5
AE35
330
AD0D
100
AcDbEntity
  8
1
  6
Continuous
100
AcDbLine
 10
245.2089669999999
 20
227.260103
 30
0.0
 11
242.5089669999999
 21
227.260103
 31
0.0
  0
ARC
  5
AE36
330
AD0D
100
AcDbEntity
  8
1
  6
Continuous
100
AcDbCircle
 10
245.2089669999999
 20
237.883862
 30
0.0
 40
0.3
100
AcDbArc
 50
0.0
 51
90.0
  0
LINE
  5
AE37
330
AD0D
100
AcDbEntity
  8
1
  6
Continuous
100
AcDbLine
 10
245.2089669999999
 20
238.1838619999999
 30
0.0
 11
242.5089669999999
 21
238.1838619999999
 31
0.0
  0
LINE
  5
AE38
330
AD0D
100
AcDbEntity
  8
1
  6
Continuous
100
AcDbLine
 10
245.508967
 20
232.7219819999999
 30
0.0
 11
242.5089669999999
 21
232.7219819999999
 31
0.0
  0
LINE
  5
AE39
330
AD0D
100
AcDbEntity
  8
1
  6
Continuous
100
AcDbLine
 10
242.5089669999999
 20
242.464768
 30
0.0
 11
242.1089669999999
 21
242.464768
 31
0.0
  0
LINE
  5
AE3A
330
AD0D
100
AcDbEntity
  8
1
  6
Continuous
100
AcDbLine
 10
242.5089669999999
 20
241.021982
 30
0.0
 11
242.1089669999999
 21
241.021982
 31
0.0
  0
ARC
  5
AE3B
330
AD0D
100
AcDbEntity
  8
1
  6
Continuous
100
AcDbCircle
 10
241.9089669999999
 20
244.0219819999999
 30
0.0
 40
0.2
100
AcDbArc
 50
0.0
 51
90.0
  0
LINE
  5
AE3C
330
AD0D
100
AcDbEntity
  8
1
  6
Continuous
100
AcDbLine
 10
242.1089669999999
 20
240.340908
 30
0.0
 11
240.3089669999999
 21
240.340908
 31
0.0
  0
LINE
  5
AE3D
330
AD0D
100
AcDbEntity
  8
1
  6
Continuous
100
AcDbLine
 10
242.1089669999999
 20
244.0219819999999
 30
0.0
 11
242.1089669999999
 21
240.340908
 31
0.0
  0
LINE
  5
AE3E
330
AD0D
100
AcDbEntity
  8
1
  6
Continuous
100
AcDbLine
 10
215.8089669999999
 20
321.732282
 30
0.0
 11
214.308967
 21
321.732282
 31
0.0
  0
LINE
  5
AE3F
330
AD0D
100
AcDbEntity
  8
1
  6
Continuous
100
AcDbLine
 10
215.8089669999999
 20
349.7322819999998
 30
0.0
 11
214.308967
 21
349.7322819999998
 31
0.0
  0
LINE
  5
AE40
330
AD0D
100
AcDbEntity
  8
4
  6
CENTER
100
AcDbLine
 10
250.5089669999999
 20
335.732282
 30
0.0
 11
202.2176189999999
 21
335.732282
 31
0.0
  0
LINE
  5
AE41
330
AD0D
100
AcDbEntity
  8
1
  6
Continuous
100
AcDbLine
 10
214.308967
 20
321.732282
 30
0.0
 11
214.308967
 21
349.7322819999998
 31
0.0
  0
LINE
  5
AE42
330
AD0D
100
AcDbEntity
  8
1
  6
Continuous
100
AcDbLine
 10
212.808967
 20
324.232282
 30
0.0
 11
212.808967
 21
347.232282
 31
0.0
  0
ARC
  5
AE43
330
AD0D
100
AcDbEntity
  8
1
  6
Continuous
100
AcDbCircle
 10
218.348691
 20
335.732282
 30
0.0
 40
11.13107199999999
100
AcDbArc
 50
122.860835
 51
237.139165
  0
LINE
  5
AE44
330
AD0D
100
AcDbEntity
  8
1
  6
Continuous
100
AcDbLine
 10
212.808967
 20
324.232282
 30
0.0
 11
214.308967
 21
321.732282
 31
0.0
  0
LINE
  5
AE45
330
AD0D
100
AcDbEntity
  8
1
  6
Continuous
100
AcDbLine
 10
212.808967
 20
326.3822819999999
 30
0.0
 11
212.308967
 21
326.3822819999999
 31
0.0
  0
LINE
  5
AE46
330
AD0D
100
AcDbEntity
  8
1
  6
Continuous
100
AcDbLine
 10
212.808967
 20
345.0822819999999
 30
0.0
 11
212.308967
 21
345.0822819999999
 31
0.0
  0
LINE
  5
AE47
330
AD0D
100
AcDbEntity
  8
1
  6
Continuous
100
AcDbLine
 10
212.808967
 20
347.232282
 30
0.0
 11
214.308967
 21
349.7322819999998
 31
0.0
  0
LINE
  5
AE48
330
AD0D
100
AcDbEntity
  8
1
  6
Continuous
100
AcDbLine
 10
240.5089669999999
 20
341.4822819999999
 30
0.0
 11
240.5089669999999
 21
346.982282
 31
0.0
  0
LINE
  5
AE49
330
AD0D
100
AcDbEntity
  8
1
  6
Continuous
100
AcDbLine
 10
240.3089669999999
 20
341.4822819999999
 30
0.0
 11
240.3089669999999
 21
347.232282
 31
0.0
  0
LINE
  5
AE4A
330
AD0D
100
AcDbEntity
  8
1
  6
Continuous
100
AcDbLine
 10
242.5089669999999
 20
325.9894819999999
 30
0.0
 11
242.5089669999999
 21
346.982282
 31
0.0
  0
LINE
  5
AE4B
330
AD0D
100
AcDbEntity
  8
1
  6
Continuous
100
AcDbLine
 10
215.8089669999999
 20
321.482282
 30
0.0
 11
215.8089669999999
 21
349.9822819999999
 31
0.0
  0
LINE
  5
AE4C
330
AD0D
100
AcDbEntity
  8
1
  6
Continuous
100
AcDbLine
 10
217.3089669999999
 20
321.482282
 30
0.0
 11
217.3089669999999
 21
349.9822819999999
 31
0.0
  0
LINE
  5
AE4D
330
AD0D
100
AcDbEntity
  8
1
  6
Continuous
100
AcDbLine
 10
240.3089669999999
 20
324.232282
 30
0.0
 11
217.3089669999999
 21
324.232282
 31
0.0
  0
LINE
  5
AE4E
330
AD0D
100
AcDbEntity
  8
1
  6
Continuous
100
AcDbLine
 10
242.1089669999999
 20
329.982282
 30
0.0
 11
217.3089669999999
 21
329.982282
 31
0.0
  0
LINE
  5
AE4F
330
AD0D
100
AcDbEntity
  8
1
  6
Continuous
100
AcDbLine
 10
242.1089669999999
 20
341.4822819999999
 30
0.0
 11
217.3089669999999
 21
341.4822819999999
 31
0.0
  0
LINE
  5
AE50
330
AD0D
100
AcDbEntity
  8
1
  6
Continuous
100
AcDbLine
 10
217.3089669999999
 20
321.482282
 30
0.0
 11
215.8089669999999
 21
321.482282
 31
0.0
  0
LINE
  5
AE51
330
AD0D
100
AcDbEntity
  8
1
  6
Continuous
100
AcDbLine
 10
245.508967
 20
335.732282
 30
0.0
 11
242.5089669999999
 21
335.732282
 31
0.0
  0
LINE
  5
AE52
330
AD0D
100
AcDbEntity
  8
1
  6
Continuous
100
AcDbLine
 10
245.2089669999999
 20
341.194162
 30
0.0
 11
242.5089669999999
 21
341.194162
 31
0.0
  0
ARC
  5
AE53
330
AD0D
100
AcDbEntity
  8
1
  6
Continuous
100
AcDbCircle
 10
245.2089669999999
 20
340.894162
 30
0.0
 40
0.3
100
AcDbArc
 50
0.0
 51
90.0
  0
LINE
  5
AE54
330
AD0D
100
AcDbEntity
  8
2
  6
Continuous
100
AcDbLine
 10
242.5089669999999
 20
341.194162
 30
0.0
 11
245.2089669999999
 21
335.732282
 31
0.0
  0
LINE
  5
AE55
330
AD0D
100
AcDbEntity
  8
2
  6
Continuous
100
AcDbLine
 10
245.2089669999999
 20
341.194162
 30
0.0
 11
242.5089669999999
 21
335.732282
 31
0.0
  0
LINE
  5
AE56
330
AD0D
100
AcDbEntity
  8
1
  6
Continuous
100
AcDbLine
 10
245.2089669999999
 20
330.270403
 30
0.0
 11
242.5089669999999
 21
330.270403
 31
0.0
  0
ARC
  5
AE57
330
AD0D
100
AcDbEntity
  8
1
  6
Continuous
100
AcDbCircle
 10
245.2089669999999
 20
330.570403
 30
0.0
 40
0.3
100
AcDbArc
 50
270.0
 51
0.0
  0
LINE
  5
AE58
330
AD0D
100
AcDbEntity
  8
2
  6
Continuous
100
AcDbLine
 10
245.2089669999999
 20
335.732282
 30
0.0
 11
242.5089669999999
 21
330.270403
 31
0.0
  0
LINE
  5
AE59
330
AD0D
100
AcDbEntity
  8
2
  6
Continuous
100
AcDbLine
 10
242.5089669999999
 20
335.732282
 30
0.0
 11
245.2089669999999
 21
330.270403
 31
0.0
  0
LINE
  5
AE5A
330
AD0D
100
AcDbEntity
  8
1
  6
Continuous
100
AcDbLine
 10
245.508967
 20
340.894162
 30
0.0
 11
245.508967
 21
330.570403
 31
0.0
  0
LINE
  5
AE5B
330
AD0D
100
AcDbEntity
  8
1
  6
Continuous
100
AcDbLine
 10
242.5089669999999
 20
341.357282
 30
0.0
 11
242.1089669999999
 21
341.357282
 31
0.0
  0
LINE
  5
AE5C
330
AD0D
100
AcDbEntity
  8
1
  6
Continuous
100
AcDbLine
 10
242.5089669999999
 20
325.9894819999999
 30
0.0
 11
240.5089669999999
 21
325.9894819999999
 31
0.0
  0
LINE
  5
AE5D
330
AD0D
100
AcDbEntity
  8
1
  6
Continuous
100
AcDbLine
 10
242.5089669999999
 20
327.5322819999999
 30
0.0
 11
240.5089669999999
 21
327.5322819999999
 31
0.0
  0
LINE
  5
AE5E
330
AD0D
100
AcDbEntity
  8
1
  6
Continuous
100
AcDbLine
 10
240.5089669999999
 20
325.9894819999999
 30
0.0
 11
240.5089669999999
 21
329.982282
 31
0.0
  0
LINE
  5
AE5F
330
AD0D
100
AcDbEntity
  8
1
  6
Continuous
100
AcDbLine
 10
240.5089669999999
 20
329.8322819999999
 30
0.0
 11
240.3089669999999
 21
329.8322819999999
 31
0.0
  0
LINE
  5
AE60
330
AD0D
100
AcDbEntity
  8
1
  6
Continuous
100
AcDbLine
 10
240.5089669999999
 20
341.6322819999999
 30
0.0
 11
240.3089669999999
 21
341.6322819999999
 31
0.0
  0
LINE
  5
AE61
330
AD0D
100
AcDbEntity
  8
1
  6
Continuous
100
AcDbLine
 10
240.3089669999999
 20
324.232282
 30
0.0
 11
240.3089669999999
 21
329.982282
 31
0.0
  0
LINE
  5
AE62
330
AD0D
100
AcDbEntity
  8
1
  6
Continuous
100
AcDbLine
 10
242.1089669999999
 20
329.982282
 30
0.0
 11
242.1089669999999
 21
341.4822819999999
 31
0.0
  0
LINE
  5
AE63
330
AD0D
100
AcDbEntity
  8
1
  6
Continuous
100
AcDbLine
 10
240.3089669999999
 20
347.232282
 30
0.0
 11
217.3089669999999
 21
347.232282
 31
0.0
  0
LINE
  5
AE64
330
AD0D
100
AcDbEntity
  8
1
  6
Continuous
100
AcDbLine
 10
217.3089669999999
 20
349.9822819999999
 30
0.0
 11
215.8089669999999
 21
349.9822819999999
 31
0.0
  0
LINE
  5
AE65
330
AD0D
100
AcDbEntity
  8
1
  6
Continuous
100
AcDbLine
 10
242.5089669999999
 20
346.982282
 30
0.0
 11
240.3089669999999
 21
346.982282
 31
0.0
  0
LINE
  5
AE66
330
AD0D
100
AcDbEntity
  8
1
  6
Continuous
100
AcDbLine
 10
371.4685069999999
 20
221.221982
 30
0.0
 11
371.4685069999999
 21
187.2219819999999
 31
0.0
  0
LINE
  5
AE67
330
AD0D
100
AcDbEntity
  8
1
  6
Continuous
100
AcDbLine
 10
357.768507
 20
253.721982
 30
0.0
 11
357.768507
 21
139.7219819999999
 31
0.0
  0
LINE
  5
AE68
330
AD0D
100
AcDbEntity
  8
1
  6
Continuous
100
AcDbLine
 10
355.768507
 20
253.721982
 30
0.0
 11
355.768507
 21
139.7219819999999
 31
0.0
  0
LINE
  5
AE69
330
AD0D
100
AcDbEntity
  8
1
  6
Continuous
100
AcDbLine
 10
519.969691
 20
253.721982
 30
0.0
 11
519.969691
 21
139.7219819999999
 31
0.0
  0
LINE
  5
AE6A
330
AD0D
100
AcDbEntity
  8
1
  6
Continuous
100
AcDbLine
 10
492.469691
 20
253.721982
 30
0.0
 11
492.469691
 21
139.7219819999999
 31
0.0
  0
LINE
  5
AE6B
330
AD0D
100
AcDbEntity
  8
1
  6
Continuous
100
AcDbLine
 10
488.469691
 20
251.721982
 30
0.0
 11
488.469691
 21
141.7219819999999
 31
0.0
  0
LINE
  5
AE6C
330
AD0D
100
AcDbEntity
  8
1
  6
Continuous
100
AcDbLine
 10
523.969691
 20
251.721982
 30
0.0
 11
523.969691
 21
141.7219819999999
 31
0.0
  0
LINE
  5
AE6D
330
AD0D
100
AcDbEntity
  8
4
  6
CENTER
100
AcDbLine
 10
506.2196909999998
 20
258.7219819999999
 30
0.0
 11
506.2196909999998
 21
134.721982
 31
0.0
  0
LINE
  5
AE6E
330
AD0D
100
AcDbEntity
  8
4
  6
CENTER
100
AcDbLine
 10
351.7685469999999
 20
58.18554599999998
 30
0.0
 11
381.068547
 21
58.18554599999998
 31
0.0
  0
LINE
  5
AE6F
330
AD0D
100
AcDbEntity
  8
1
  6
Continuous
100
AcDbLine
 10
357.768547
 20
69.935546
 30
0.0
 11
369.468547
 21
69.935546
 31
0.0
  0
LINE
  5
AE70
330
AD0D
100
AcDbEntity
  8
1
  6
Continuous
100
AcDbLine
 10
357.768547
 20
71.935546
 30
0.0
 11
369.468547
 21
71.935546
 31
0.0
  0
LINE
  5
AE71
330
AD0D
100
AcDbEntity
  8
1
  6
Continuous
100
AcDbLine
 10
357.768547
 20
46.435546
 30
0.0
 11
369.468547
 21
46.435546
 31
0.0
  0
LINE
  5
AE72
330
AD0D
100
AcDbEntity
  8
1
  6
Continuous
100
AcDbLine
 10
357.768547
 20
44.435546
 30
0.0
 11
369.468547
 21
44.435546
 31
0.0
  0
LINE
  5
AE73
330
AD0D
100
AcDbEntity
  8
1
  6
Continuous
100
AcDbLine
 10
293.644313
 20
67.18552599999999
 30
0.0
 11
293.644313
 21
49.185526
 31
0.0
  0
LINE
  5
AE74
330
AD0D
100
AcDbEntity
  8
1
  6
Continuous
100
AcDbLine
 10
292.144313
 20
67.18552599999999
 30
0.0
 11
292.144313
 21
49.185526
 31
0.0
  0
LINE
  5
AE75
330
AD0D
100
AcDbEntity
  8
1
  6
Continuous
100
AcDbLine
 10
292.144313
 20
49.185526
 30
0.0
 11
293.644313
 21
49.185526
 31
0.0
  0
LINE
  5
AE76
330
AD0D
100
AcDbEntity
  8
1
  6
Continuous
100
AcDbLine
 10
355.768547
 20
40.435546
 30
0.0
 11
355.768547
 21
44.435546
 31
0.0
  0
LINE
  5
AE77
330
AD0D
100
AcDbEntity
  8
1
  6
Continuous
100
AcDbLine
 10
355.768547
 20
40.435546
 30
0.0
 11
357.768547
 21
40.435546
 31
0.0
  0
LINE
  5
AE78
330
AD0D
100
AcDbEntity
  8
1
  6
Continuous
100
AcDbLine
 10
357.768547
 20
40.435546
 30
0.0
 11
357.768547
 21
44.435546
 31
0.0
  0
ARC
  5
AE79
330
AD0D
100
AcDbEntity
  8
1
  6
Continuous
100
AcDbCircle
 10
357.768547
 20
44.435546
 30
0.0
 40
2.0
100
AcDbArc
 50
90.0
 51
180.0
  0
LINE
  5
AE7A
330
AD0D
100
AcDbEntity
  8
1
  6
Continuous
100
AcDbLine
 10
299.2443129999998
 20
62.185526
 30
0.0
 11
295.7443129999999
 21
62.185526
 31
0.0
  0
ARC
  5
AE7B
330
AD0D
100
AcDbEntity
  8
1
  6
Continuous
100
AcDbCircle
 10
293.469336
 20
56.18552600000001
 30
0.0
 40
5.774976999999998
100
AcDbArc
 50
339.7375
 51
20.2625
  0
ARC
  5
AE7C
330
AD0D
100
AcDbEntity
  8
1
  6
Continuous
100
AcDbCircle
 10
301.51929
 20
56.18552600000001
 30
0.0
 40
5.774976999999998
100
AcDbArc
 50
159.7375
 51
200.2625
  0
LINE
  5
AE7D
330
AD0D
100
AcDbEntity
  8
1
  6
Continuous
100
AcDbLine
 10
299.2443129999998
 20
54.185526
 30
0.0
 11
295.7443129999999
 21
54.185526
 31
0.0
  0
LINE
  5
AE7E
330
AD0D
100
AcDbEntity
  8
1
  6
Continuous
100
AcDbLine
 10
296.1016929999999
 20
58.185526
 30
0.0
 11
298.8869329999999
 21
58.185526
 31
0.0
  0
LINE
  5
AE7F
330
AD0D
100
AcDbEntity
  8
1
  6
Continuous
100
AcDbLine
 10
299.2443129999998
 20
62.185526
 30
0.0
 11
299.2443129999998
 21
54.185526
 31
0.0
  0
ARC
  5
AE80
330
AD0D
100
AcDbEntity
  8
1
  6
Continuous
100
AcDbCircle
 10
301.51929
 20
60.185526
 30
0.0
 40
5.774976999999998
100
AcDbArc
 50
159.7375
 51
200.2625
  0
ARC
  5
AE81
330
AD0D
100
AcDbEntity
  8
1
  6
Continuous
100
AcDbCircle
 10
293.469336
 20
60.185526
 30
0.0
 40
5.774976999999998
100
AcDbArc
 50
339.7375
 51
20.2625
  0
LINE
  5
AE82
330
AD0D
100
AcDbEntity
  8
1
  6
Continuous
100
AcDbLine
 10
294.4443129999999
 20
56.885526
 30
0.0
 11
295.7443129999999
 21
58.185526
 31
0.0
  0
LINE
  5
AE83
330
AD0D
100
AcDbEntity
  8
1
  6
Continuous
100
AcDbLine
 10
294.4443129999999
 20
58.185526
 30
0.0
 11
295.7443129999999
 21
59.485526
 31
0.0
  0
LINE
  5
AE84
330
AD0D
100
AcDbEntity
  8
4
  6
CENTER
100
AcDbLine
 10
304.2443129999999
 20
58.185526
 30
0.0
 11
287.144313
 21
58.185526
 31
0.0
  0
LINE
  5
AE85
330
AD0D
100
AcDbEntity
  8
1
  6
Continuous
100
AcDbLine
 10
295.7443129999999
 20
62.78552600000001
 30
0.0
 11
294.4443129999999
 21
62.78552600000001
 31
0.0
  0
LINE
  5
AE86
330
AD0D
100
AcDbEntity
  8
1
  6
Continuous
100
AcDbLine
 10
294.4443129999999
 20
64.68552599999999
 30
0.0
 11
293.644313
 21
64.68552599999999
 31
0.0
  0
LINE
  5
AE87
330
AD0D
100
AcDbEntity
  8
1
  6
Continuous
100
AcDbLine
 10
292.144313
 20
67.18552599999999
 30
0.0
 11
293.644313
 21
67.18552599999999
 31
0.0
  0
LINE
  5
AE88
330
AD0D
100
AcDbEntity
  8
1
  6
Continuous
100
AcDbLine
 10
295.7443129999999
 20
53.585526
 30
0.0
 11
294.4443129999999
 21
53.585526
 31
0.0
  0
LINE
  5
AE89
330
AD0D
100
AcDbEntity
  8
1
  6
Continuous
100
AcDbLine
 10
294.4443129999999
 20
51.685526
 30
0.0
 11
293.644313
 21
51.685526
 31
0.0
  0
LINE
  5
AE8A
330
AD0D
100
AcDbEntity
  8
1
  6
Continuous
100
AcDbLine
 10
294.4443129999999
 20
64.68552599999999
 30
0.0
 11
294.4443129999999
 21
51.685526
 31
0.0
  0
LINE
  5
AE8B
330
AD0D
100
AcDbEntity
  8
1
  6
Continuous
100
AcDbLine
 10
295.7443129999999
 20
62.78552600000001
 30
0.0
 11
295.7443129999999
 21
53.585526
 31
0.0
  0
LINE
  5
AE8C
330
AD0D
100
AcDbEntity
  8
1
  6
Continuous
100
AcDbLine
 10
293.644313
 20
64.68552599999999
 30
0.0
 11
293.644313
 21
51.685526
 31
0.0
  0
LINE
  5
AE8D
330
AD0D
100
AcDbEntity
  8
1
  6
Continuous
100
AcDbLine
 10
357.768547
 20
71.935546
 30
0.0
 11
357.768547
 21
75.935546
 31
0.0
  0
LINE
  5
AE8E
330
AD0D
100
AcDbEntity
  8
1
  6
Continuous
100
AcDbLine
 10
355.768547
 20
71.935546
 30
0.0
 11
355.768547
 21
75.935546
 31
0.0
  0
ARC
  5
AE8F
330
AD0D
100
AcDbEntity
  8
1
  6
Continuous
100
AcDbCircle
 10
357.768547
 20
71.935546
 30
0.0
 40
2.0
100
AcDbArc
 50
180.0
 51
270.0
  0
LINE
  5
AE90
330
AD0D
100
AcDbEntity
  8
1
  6
Continuous
100
AcDbLine
 10
355.768547
 20
75.935546
 30
0.0
 11
357.768547
 21
75.935546
 31
0.0
  0
LINE
  5
AE91
330
AD0D
100
AcDbEntity
  8
1
  6
Continuous
100
AcDbLine
 10
371.468547
 20
46.435546
 30
0.0
 11
371.468547
 21
69.935546
 31
0.0
  0
LINE
  5
AE92
330
AD0D
100
AcDbEntity
  8
1
  6
Continuous
100
AcDbLine
 10
369.468547
 20
46.435546
 30
0.0
 11
369.468547
 21
69.935546
 31
0.0
  0
ARC
  5
AE93
330
AD0D
100
AcDbEntity
  8
1
  6
Continuous
100
AcDbCircle
 10
369.468547
 20
46.435546
 30
0.0
 40
2.0
100
AcDbArc
 50
270.0
 51
0.0
  0
ARC
  5
AE94
330
AD0D
100
AcDbEntity
  8
1
  6
Continuous
100
AcDbCircle
 10
369.468547
 20
69.935546
 30
0.0
 40
2.0
100
AcDbArc
 50
0.0
 51
90.0
  0
ARC
  5
AE95
330
AD0D
100
AcDbEntity
  8
1
  6
Continuous
100
AcDbCircle
 10
374.090547
 20
60.96354599999999
 30
0.0
 40
1.6
100
AcDbArc
 50
15.494
 51
84.99990000000002
  0
LINE
  5
AE96
330
AD0D
100
AcDbEntity
  8
1
  6
Continuous
100
AcDbLine
 10
374.229547
 20
62.55754599999999
 30
0.0
 11
372.768547
 21
62.68554599999998
 31
0.0
  0
LINE
  5
AE97
330
AD0D
100
AcDbEntity
  8
1
  6
Continuous
100
AcDbLine
 10
372.768547
 20
59.485546
 30
0.0
 11
371.468547
 21
58.18554599999998
 31
0.0
  0
LINE
  5
AE98
330
AD0D
100
AcDbEntity
  8
1
  6
Continuous
100
AcDbLine
 10
372.768547
 20
62.78554599999999
 30
0.0
 11
371.468547
 21
62.78554599999999
 31
0.0
  0
LINE
  5
AE99
330
AD0D
100
AcDbEntity
  8
1
  6
Continuous
100
AcDbLine
 10
372.768547
 20
58.18554599999998
 30
0.0
 11
371.468547
 21
56.88554599999999
 31
0.0
  0
ARC
  5
AE9A
330
AD0D
100
AcDbEntity
  8
1
  6
Continuous
100
AcDbCircle
 10
374.090547
 20
55.40754599999999
 30
0.0
 40
1.6
100
AcDbArc
 50
275.0
 51
344.5059999999998
  0
LINE
  5
AE9B
330
AD0D
100
AcDbEntity
  8
1
  6
Continuous
100
AcDbLine
 10
374.229547
 20
53.81354599999998
 30
0.0
 11
372.768547
 21
53.68554599999999
 31
0.0
  0
LINE
  5
AE9C
330
AD0D
100
AcDbEntity
  8
1
  6
Continuous
100
AcDbLine
 10
372.768547
 20
53.58554599999999
 30
0.0
 11
371.468547
 21
53.58554599999999
 31
0.0
  0
LINE
  5
AE9D
330
AD0D
100
AcDbEntity
  8
1
  6
Continuous
100
AcDbLine
 10
372.768547
 20
62.68554599999998
 30
0.0
 11
372.768547
 21
53.68554599999999
 31
0.0
  0
LINE
  5
AE9E
330
AD0D
100
AcDbEntity
  8
1
  6
Continuous
100
AcDbLine
 10
372.768547
 20
62.78554599999999
 30
0.0
 11
372.768547
 21
53.58554599999999
 31
0.0
  0
ARC
  5
AE9F
330
AD0D
100
AcDbEntity
  8
1
  6
Continuous
100
AcDbCircle
 10
364.068547
 20
58.18554599999998
 30
0.0
 40
12.0
100
AcDbArc
 50
344.5059999999998
 51
15.494
  0
LINE
  5
AEA0
330
AD0D
100
AcDbEntity
  8
1
  6
Continuous
100
AcDbLine
 10
355.768507
 20
139.7219819999999
 30
0.0
 11
367.4685069999999
 21
139.7219819999999
 31
0.0
  0
LINE
  5
AEA1
330
AD0D
100
AcDbEntity
  8
1
  6
Continuous
100
AcDbLine
 10
369.4685069999999
 20
187.2219819999999
 30
0.0
 11
369.4685069999999
 21
141.7219819999999
 31
0.0
  0
ARC
  5
AEA2
330
AD0D
100
AcDbEntity
  8
1
  6
Continuous
100
AcDbCircle
 10
367.4685069999999
 20
141.7219819999999
 30
0.0
 40
2.0
100
AcDbArc
 50
270.0
 51
0.0
  0
LINE
  5
AEA3
330
AD0D
100
AcDbEntity
  8
1
  6
Continuous
100
AcDbLine
 10
369.4685069999999
 20
187.2219819999999
 30
0.0
 11
371.4685069999999
 21
187.2219819999999
 31
0.0
  0
LINE
  5
AEA4
330
AD0D
100
AcDbEntity
  8
1
  6
Continuous
100
AcDbLine
 10
492.469691
 20
187.2219819999999
 30
0.0
 11
519.969691
 21
187.2219819999999
 31
0.0
  0
CIRCLE
  5
AEA5
330
AD0D
100
AcDbEntity
  8
1
  6
Continuous
100
AcDbCircle
 10
499.719691
 20
171.071982
 30
0.0
 40
3.1
  0
CIRCLE
  5
AEA6
330
AD0D
100
AcDbEntity
  8
1
  6
Continuous
100
AcDbCircle
 10
499.719691
 20
171.071982
 30
0.0
 40
3.0
  0
LINE
  5
AEA7
330
AD0D
100
AcDbEntity
  8
4
  6
CENTER
100
AcDbLine
 10
504.019691
 20
171.071982
 30
0.0
 11
495.419691
 21
171.071982
 31
0.0
  0
LINE
  5
AEA8
330
AD0D
100
AcDbEntity
  8
1
  6
Continuous
100
AcDbLine
 10
511.219691
 20
180.2219819999999
 30
0.0
 11
501.219691
 21
180.2219819999999
 31
0.0
  0
LINE
  5
AEA9
330
AD0D
100
AcDbEntity
  8
1
  6
Continuous
100
AcDbLine
 10
511.219691
 20
184.221982
 30
0.0
 11
501.219691
 21
184.221982
 31
0.0
  0
ARC
  5
AEAA
330
AD0D
100
AcDbEntity
  8
1
  6
Continuous
100
AcDbCircle
 10
506.2196909999998
 20
160.721982
 30
0.0
 40
11.5
100
AcDbArc
 50
180.0
 51
0.0
  0
LINE
  5
AEAB
330
AD0D
100
AcDbEntity
  8
1
  6
Continuous
100
AcDbLine
 10
515.2196909999998
 20
139.7219819999999
 30
0.0
 11
497.219691
 21
139.7219819999999
 31
0.0
  0
LINE
  5
AEAC
330
AD0D
100
AcDbEntity
  8
1
  6
Continuous
100
AcDbLine
 10
515.719691
 20
149.221982
 30
0.0
 11
496.719691
 21
149.221982
 31
0.0
  0
LINE
  5
AEAD
330
AD0D
100
AcDbEntity
  8
1
  6
Continuous
100
AcDbLine
 10
494.469691
 20
139.7219819999999
 30
0.0
 11
494.469691
 21
187.2219819999999
 31
0.0
  0
ARC
  5
AEAE
330
AD0D
100
AcDbEntity
  8
1
  6
Continuous
100
AcDbCircle
 10
490.469691
 20
141.7219819999999
 30
0.0
 40
2.0
100
AcDbArc
 50
180.0
 51
270.0
  0
LINE
  5
AEAF
330
AD0D
100
AcDbEntity
  8
1
  6
Continuous
100
AcDbLine
 10
490.469691
 20
139.7219819999999
 30
0.0
 11
494.469691
 21
139.7219819999999
 31
0.0
  0
ARC
  5
AEB0
330
AD0D
100
AcDbEntity
  8
1
  6
Continuous
100
AcDbCircle
 10
497.219691
 20
144.7219819999999
 30
0.0
 40
5.0
100
AcDbArc
 50
236.632987
 51
270.0
  0
LINE
  5
AEB1
330
AD0D
100
AcDbEntity
  8
4
  6
CENTER
100
AcDbLine
 10
499.719691
 20
175.371982
 30
0.0
 11
499.719691
 21
166.771982
 31
0.0
  0
LINE
  5
AEB2
330
AD0D
100
AcDbEntity
  8
1
  6
Continuous
100
AcDbLine
 10
494.719691
 20
187.2219819999999
 30
0.0
 11
494.719691
 21
151.221982
 31
0.0
  0
ARC
  5
AEB3
330
AD0D
100
AcDbEntity
  8
1
  6
Continuous
100
AcDbCircle
 10
499.719691
 20
171.071982
 30
0.0
 40
1.8
100
AcDbArc
 50
208.328251
 51
241.6717490000001
  0
ARC
  5
AEB4
330
AD0D
100
AcDbEntity
  8
1
  6
Continuous
100
AcDbCircle
 10
499.719691
 20
171.071982
 30
0.0
 40
1.8
100
AcDbArc
 50
118.3282509999999
 51
151.671749
  0
ARC
  5
AEB5
330
AD0D
100
AcDbEntity
  8
1
  6
Continuous
100
AcDbCircle
 10
499.719691
 20
171.071982
 30
0.0
 40
1.8
100
AcDbArc
 50
298.3282509999999
 51
331.671749
  0
ARC
  5
AEB6
330
AD0D
100
AcDbEntity
  8
1
  6
Continuous
100
AcDbCircle
 10
499.719691
 20
171.071982
 30
0.0
 40
1.8
100
AcDbArc
 50
28.32825099999999
 51
61.671749
  0
LINE
  5
AEB7
330
AD0D
100
AcDbEntity
  8
1
  6
Continuous
100
AcDbLine
 10
499.3433269999998
 20
169.9489269999999
 30
0.0
 11
498.865551
 21
169.4875429999999
 31
0.0
  0
LINE
  5
AEB8
330
AD0D
100
AcDbEntity
  8
1
  6
Continuous
100
AcDbLine
 10
499.719691
 20
170.0934
 30
0.0
 11
499.3433269999998
 21
169.9489269999999
 31
0.0
  0
LINE
  5
AEB9
330
AD0D
100
AcDbEntity
  8
1
  6
Continuous
100
AcDbLine
 10
499.719691
 20
170.0934
 30
0.0
 11
500.096055
 21
169.9489269999999
 31
0.0
  0
LINE
  5
AEBA
330
AD0D
100
AcDbEntity
  8
1
  6
Continuous
100
AcDbLine
 10
500.096055
 20
169.9489269999999
 30
0.0
 11
500.5738299999999
 21
169.4875429999999
 31
0.0
  0
LINE
  5
AEBB
330
AD0D
100
AcDbEntity
  8
1
  6
Continuous
100
AcDbLine
 10
500.842745
 20
170.6956179999999
 30
0.0
 11
501.304129
 21
170.2178419999999
 31
0.0
  0
LINE
  5
AEBC
330
AD0D
100
AcDbEntity
  8
1
  6
Continuous
100
AcDbLine
 10
500.698273
 20
171.071982
 30
0.0
 11
500.842745
 21
170.6956179999999
 31
0.0
  0
LINE
  5
AEBD
330
AD0D
100
AcDbEntity
  8
1
  6
Continuous
100
AcDbLine
 10
500.698273
 20
171.071982
 30
0.0
 11
500.842745
 21
171.4483459999999
 31
0.0
  0
LINE
  5
AEBE
330
AD0D
100
AcDbEntity
  8
1
  6
Continuous
100
AcDbLine
 10
500.842745
 20
171.4483459999999
 30
0.0
 11
501.304129
 21
171.9261209999999
 31
0.0
  0
LINE
  5
AEBF
330
AD0D
100
AcDbEntity
  8
1
  6
Continuous
100
AcDbLine
 10
500.096054
 20
172.195037
 30
0.0
 11
500.5738299999999
 21
172.65642
 31
0.0
  0
LINE
  5
AEC0
330
AD0D
100
AcDbEntity
  8
1
  6
Continuous
100
AcDbLine
 10
499.719691
 20
172.0505639999999
 30
0.0
 11
500.096054
 21
172.195037
 31
0.0
  0
LINE
  5
AEC1
330
AD0D
100
AcDbEntity
  8
1
  6
Continuous
100
AcDbLine
 10
499.719691
 20
172.0505639999999
 30
0.0
 11
499.3433269999998
 21
172.195036
 31
0.0
  0
LINE
  5
AEC2
330
AD0D
100
AcDbEntity
  8
1
  6
Continuous
100
AcDbLine
 10
499.3433269999998
 20
172.195036
 30
0.0
 11
498.865551
 21
172.65642
 31
0.0
  0
LINE
  5
AEC3
330
AD0D
100
AcDbEntity
  8
1
  6
Continuous
100
AcDbLine
 10
498.5966349999998
 20
170.6956179999999
 30
0.0
 11
498.135253
 21
170.2178419999999
 31
0.0
  0
LINE
  5
AEC4
330
AD0D
100
AcDbEntity
  8
1
  6
Continuous
100
AcDbLine
 10
498.596636
 20
171.4483459999999
 30
0.0
 11
498.135253
 21
171.9261209999999
 31
0.0
  0
LINE
  5
AEC5
330
AD0D
100
AcDbEntity
  8
1
  6
Continuous
100
AcDbLine
 10
498.741109
 20
171.071982
 30
0.0
 11
498.5966349999998
 21
170.6956179999999
 31
0.0
  0
LINE
  5
AEC6
330
AD0D
100
AcDbEntity
  8
1
  6
Continuous
100
AcDbLine
 10
498.741109
 20
171.071982
 30
0.0
 11
498.596636
 21
171.4483459999999
 31
0.0
  0
ARC
  5
AEC7
330
AD0D
100
AcDbEntity
  8
1
  6
Continuous
100
AcDbCircle
 10
496.719691
 20
151.221982
 30
0.0
 40
2.0
100
AcDbArc
 50
180.0
 51
270.0
  0
ARC
  5
AEC8
330
AD0D
100
AcDbEntity
  8
1
  6
Continuous
100
AcDbCircle
 10
497.7196909999998
 20
152.221982
 30
0.0
 40
3.0
100
AcDbArc
 50
180.0
 51
270.0
  0
LINE
  5
AEC9
330
AD0D
100
AcDbEntity
  8
1
  6
Continuous
100
AcDbLine
 10
501.219691
 20
184.221982
 30
0.0
 11
501.219691
 21
180.2219819999999
 31
0.0
  0
ARC
  5
AECA
330
AD0D
100
AcDbEntity
  8
1
  6
Continuous
100
AcDbCircle
 10
495.719691
 20
186.2219819999999
 30
0.0
 40
1.0
100
AcDbArc
 50
90.0
 51
180.0
  0
LINE
  5
AECB
330
AD0D
100
AcDbEntity
  8
1
  6
Continuous
100
AcDbLine
 10
517.969691
 20
139.7219819999999
 30
0.0
 11
517.969691
 21
187.2219819999999
 31
0.0
  0
LINE
  5
AECC
330
AD0D
100
AcDbEntity
  8
1
  6
Continuous
100
AcDbLine
 10
517.969691
 20
139.7219819999999
 30
0.0
 11
521.969691
 21
139.7219819999999
 31
0.0
  0
ARC
  5
AECD
330
AD0D
100
AcDbEntity
  8
1
  6
Continuous
100
AcDbCircle
 10
515.2196909999998
 20
144.7219819999999
 30
0.0
 40
5.0
100
AcDbArc
 50
270.0
 51
303.3670129999999
  0
ARC
  5
AECE
330
AD0D
100
AcDbEntity
  8
1
  6
Continuous
100
AcDbCircle
 10
521.969691
 20
141.7219819999999
 30
0.0
 40
2.0
100
AcDbArc
 50
270.0
 51
0.0
  0
CIRCLE
  5
AECF
330
AD0D
100
AcDbEntity
  8
1
  6
Continuous
100
AcDbCircle
 10
512.719691
 20
171.071982
 30
0.0
 40
3.1
  0
CIRCLE
  5
AED0
330
AD0D
100
AcDbEntity
  8
1
  6
Continuous
100
AcDbCircle
 10
512.719691
 20
171.071982
 30
0.0
 40
3.0
  0
LINE
  5
AED1
330
AD0D
100
AcDbEntity
  8
4
  6
CENTER
100
AcDbLine
 10
512.719691
 20
175.371982
 30
0.0
 11
512.719691
 21
166.771982
 31
0.0
  0
LINE
  5
AED2
330
AD0D
100
AcDbEntity
  8
1
  6
Continuous
100
AcDbLine
 10
517.719691
 20
187.2219819999999
 30
0.0
 11
517.719691
 21
151.221982
 31
0.0
  0
ARC
  5
AED3
330
AD0D
100
AcDbEntity
  8
1
  6
Continuous
100
AcDbCircle
 10
512.719691
 20
171.071982
 30
0.0
 40
1.8
100
AcDbArc
 50
208.328251
 51
241.6717490000001
  0
ARC
  5
AED4
330
AD0D
100
AcDbEntity
  8
1
  6
Continuous
100
AcDbCircle
 10
512.719691
 20
171.071982
 30
0.0
 40
1.8
100
AcDbArc
 50
118.3282509999999
 51
151.671749
  0
ARC
  5
AED5
330
AD0D
100
AcDbEntity
  8
1
  6
Continuous
100
AcDbCircle
 10
512.719691
 20
171.071982
 30
0.0
 40
1.8
100
AcDbArc
 50
298.3282509999999
 51
331.671749
  0
ARC
  5
AED6
330
AD0D
100
AcDbEntity
  8
1
  6
Continuous
100
AcDbCircle
 10
512.719691
 20
171.071982
 30
0.0
 40
1.8
100
AcDbArc
 50
28.32825099999999
 51
61.671749
  0
LINE
  5
AED7
330
AD0D
100
AcDbEntity
  8
1
  6
Continuous
100
AcDbLine
 10
512.3433269999998
 20
169.9489269999999
 30
0.0
 11
511.8655509999999
 21
169.4875429999999
 31
0.0
  0
LINE
  5
AED8
330
AD0D
100
AcDbEntity
  8
1
  6
Continuous
100
AcDbLine
 10
512.719691
 20
170.0934
 30
0.0
 11
512.3433269999998
 21
169.9489269999999
 31
0.0
  0
LINE
  5
AED9
330
AD0D
100
AcDbEntity
  8
1
  6
Continuous
100
AcDbLine
 10
512.719691
 20
170.0934
 30
0.0
 11
513.096055
 21
169.9489269999999
 31
0.0
  0
LINE
  5
AEDA
330
AD0D
100
AcDbEntity
  8
1
  6
Continuous
100
AcDbLine
 10
513.096055
 20
169.9489269999999
 30
0.0
 11
513.5738299999998
 21
169.4875429999999
 31
0.0
  0
LINE
  5
AEDB
330
AD0D
100
AcDbEntity
  8
1
  6
Continuous
100
AcDbLine
 10
513.842745
 20
170.6956179999999
 30
0.0
 11
514.304129
 21
170.2178419999999
 31
0.0
  0
LINE
  5
AEDC
330
AD0D
100
AcDbEntity
  8
1
  6
Continuous
100
AcDbLine
 10
513.698273
 20
171.071982
 30
0.0
 11
513.842745
 21
170.6956179999999
 31
0.0
  0
LINE
  5
AEDD
330
AD0D
100
AcDbEntity
  8
1
  6
Continuous
100
AcDbLine
 10
513.698273
 20
171.071982
 30
0.0
 11
513.842745
 21
171.4483459999999
 31
0.0
  0
LINE
  5
AEDE
330
AD0D
100
AcDbEntity
  8
1
  6
Continuous
100
AcDbLine
 10
513.842745
 20
171.4483459999999
 30
0.0
 11
514.304129
 21
171.9261209999999
 31
0.0
  0
LINE
  5
AEDF
330
AD0D
100
AcDbEntity
  8
1
  6
Continuous
100
AcDbLine
 10
513.096054
 20
172.195037
 30
0.0
 11
513.5738299999998
 21
172.65642
 31
0.0
  0
LINE
  5
AEE0
330
AD0D
100
AcDbEntity
  8
1
  6
Continuous
100
AcDbLine
 10
512.719691
 20
172.0505639999999
 30
0.0
 11
513.096054
 21
172.195037
 31
0.0
  0
LINE
  5
AEE1
330
AD0D
100
AcDbEntity
  8
1
  6
Continuous
100
AcDbLine
 10
512.719691
 20
172.0505639999999
 30
0.0
 11
512.3433269999998
 21
172.195036
 31
0.0
  0
LINE
  5
AEE2
330
AD0D
100
AcDbEntity
  8
1
  6
Continuous
100
AcDbLine
 10
512.3433269999998
 20
172.195036
 30
0.0
 11
511.8655509999999
 21
172.65642
 31
0.0
  0
LINE
  5
AEE3
330
AD0D
100
AcDbEntity
  8
1
  6
Continuous
100
AcDbLine
 10
511.5966349999998
 20
170.6956179999999
 30
0.0
 11
511.135253
 21
170.2178419999999
 31
0.0
  0
LINE
  5
AEE4
330
AD0D
100
AcDbEntity
  8
1
  6
Continuous
100
AcDbLine
 10
511.596636
 20
171.4483459999999
 30
0.0
 11
511.135253
 21
171.9261209999999
 31
0.0
  0
LINE
  5
AEE5
330
AD0D
100
AcDbEntity
  8
1
  6
Continuous
100
AcDbLine
 10
511.741109
 20
171.071982
 30
0.0
 11
511.5966349999998
 21
170.6956179999999
 31
0.0
  0
LINE
  5
AEE6
330
AD0D
100
AcDbEntity
  8
1
  6
Continuous
100
AcDbLine
 10
511.741109
 20
171.071982
 30
0.0
 11
511.596636
 21
171.4483459999999
 31
0.0
  0
LINE
  5
AEE7
330
AD0D
100
AcDbEntity
  8
4
  6
CENTER
100
AcDbLine
 10
517.0196909999998
 20
171.071982
 30
0.0
 11
508.419691
 21
171.071982
 31
0.0
  0
ARC
  5
AEE8
330
AD0D
100
AcDbEntity
  8
1
  6
Continuous
100
AcDbCircle
 10
515.719691
 20
151.221982
 30
0.0
 40
2.0
100
AcDbArc
 50
270.0
 51
0.0
  0
ARC
  5
AEE9
330
AD0D
100
AcDbEntity
  8
1
  6
Continuous
100
AcDbCircle
 10
514.7196909999999
 20
152.221982
 30
0.0
 40
3.0
100
AcDbArc
 50
270.0
 51
0.0
  0
LINE
  5
AEEA
330
AD0D
100
AcDbEntity
  8
1
  6
Continuous
100
AcDbLine
 10
511.219691
 20
184.221982
 30
0.0
 11
511.219691
 21
180.2219819999999
 31
0.0
  0
ARC
  5
AEEB
330
AD0D
100
AcDbEntity
  8
1
  6
Continuous
100
AcDbCircle
 10
516.719691
 20
186.2219819999999
 30
0.0
 40
1.0
100
AcDbArc
 50
0.0
 51
90.0
  0
LINE
  5
AEEC
330
AD0D
100
AcDbEntity
  8
1
  6
Continuous
100
AcDbLine
 10
355.768507
 20
253.721982
 30
0.0
 11
367.4685069999999
 21
253.721982
 31
0.0
  0
LINE
  5
AEED
330
AD0D
100
AcDbEntity
  8
1
  6
Continuous
100
AcDbLine
 10
299.2443129999998
 20
236.576056
 30
0.0
 11
299.2443129999998
 21
228.5760559999999
 31
0.0
  0
LINE
  5
AEEE
330
AD0D
100
AcDbEntity
  8
1
  6
Continuous
100
AcDbLine
 10
295.7443129999999
 20
236.576056
 30
0.0
 11
296.1016929999999
 21
237.195056
 31
0.0
  0
ARC
  5
AEEF
330
AD0D
100
AcDbEntity
  8
1
  6
Continuous
100
AcDbCircle
 10
297.789399
 20
236.0400559999999
 30
0.0
 40
2.045087
100
AcDbArc
 50
154.3862009999999
 51
214.3862009999999
  0
LINE
  5
AEF0
330
AD0D
100
AcDbEntity
  8
1
  6
Continuous
100
AcDbLine
 10
296.1016929999999
 20
237.195056
 30
0.0
 11
298.8869329999999
 21
237.195056
 31
0.0
  0
LINE
  5
AEF1
330
AD0D
100
AcDbEntity
  8
1
  6
Continuous
100
AcDbLine
 10
296.1016929999999
 20
234.8850559999999
 30
0.0
 11
298.8869329999999
 21
234.8850559999999
 31
0.0
  0
LINE
  5
AEF2
330
AD0D
100
AcDbEntity
  8
1
  6
Continuous
100
AcDbLine
 10
299.2443129999998
 20
236.576056
 30
0.0
 11
298.8869329999999
 21
237.195056
 31
0.0
  0
ARC
  5
AEF3
330
AD0D
100
AcDbEntity
  8
1
  6
Continuous
100
AcDbCircle
 10
297.1992259999999
 20
236.0400559999999
 30
0.0
 40
2.045087
100
AcDbArc
 50
325.613799
 51
25.61379899999999
  0
ARC
  5
AEF4
330
AD0D
100
AcDbEntity
  8
1
  6
Continuous
100
AcDbCircle
 10
297.789399
 20
229.1120559999999
 30
0.0
 40
2.045087
100
AcDbArc
 50
145.613799
 51
205.613799
  0
LINE
  5
AEF5
330
AD0D
100
AcDbEntity
  8
1
  6
Continuous
100
AcDbLine
 10
296.1016929999999
 20
230.266056
 30
0.0
 11
298.8869329999999
 21
230.266056
 31
0.0
  0
LINE
  5
AEF6
330
AD0D
100
AcDbEntity
  8
1
  6
Continuous
100
AcDbLine
 10
296.1016929999999
 20
227.9570559999999
 30
0.0
 11
298.8869329999999
 21
227.9570559999999
 31
0.0
  0
LINE
  5
AEF7
330
AD0D
100
AcDbEntity
  8
1
  6
Continuous
100
AcDbLine
 10
295.7443129999999
 20
228.5760559999999
 30
0.0
 11
296.1016929999999
 21
227.9570559999999
 31
0.0
  0
LINE
  5
AEF8
330
AD0D
100
AcDbEntity
  8
1
  6
Continuous
100
AcDbLine
 10
299.2443129999998
 20
228.5760559999999
 30
0.0
 11
298.8869329999999
 21
227.9570559999999
 31
0.0
  0
ARC
  5
AEF9
330
AD0D
100
AcDbEntity
  8
1
  6
Continuous
100
AcDbCircle
 10
297.1992259999999
 20
229.1120559999999
 30
0.0
 40
2.045087
100
AcDbArc
 50
334.3862009999999
 51
34.386201
  0
ARC
  5
AEFA
330
AD0D
100
AcDbEntity
  8
1
  6
Continuous
100
AcDbCircle
 10
303.385358
 20
232.575556
 30
0.0
 40
7.641045
100
AcDbArc
 50
162.407253
 51
197.592747
  0
ARC
  5
AEFB
330
AD0D
100
AcDbEntity
  8
1
  6
Continuous
100
AcDbCircle
 10
291.603268
 20
232.575556
 30
0.0
 40
7.641045
100
AcDbArc
 50
342.4072529999999
 51
17.59274699999999
  0
LINE
  5
AEFC
330
AD0D
100
AcDbEntity
  8
1
  6
Continuous
100
AcDbLine
 10
294.4443129999999
 20
231.2755559999999
 30
0.0
 11
295.7443129999999
 21
232.575556
 31
0.0
  0
LINE
  5
AEFD
330
AD0D
100
AcDbEntity
  8
1
  6
Continuous
100
AcDbLine
 10
294.4443129999999
 20
232.575556
 30
0.0
 11
295.7443129999999
 21
233.875556
 31
0.0
  0
LINE
  5
AEFE
330
AD0D
100
AcDbEntity
  8
4
  6
CENTER
100
AcDbLine
 10
304.2443129999999
 20
232.575556
 30
0.0
 11
287.144313
 21
232.575556
 31
0.0
  0
LINE
  5
AEFF
330
AD0D
100
AcDbEntity
  8
1
  6
Continuous
100
AcDbLine
 10
294.4443129999999
 20
239.075556
 30
0.0
 11
294.4443129999999
 21
226.075556
 31
0.0
  0
LINE
  5
AF00
330
AD0D
100
AcDbEntity
  8
1
  6
Continuous
100
AcDbLine
 10
295.7443129999999
 20
237.1755559999999
 30
0.0
 11
295.7443129999999
 21
227.975556
 31
0.0
  0
LINE
  5
AF01
330
AD0D
100
AcDbEntity
  8
1
  6
Continuous
100
AcDbLine
 10
295.7443129999999
 20
237.1755559999999
 30
0.0
 11
294.4443129999999
 21
237.1755559999999
 31
0.0
  0
LINE
  5
AF02
330
AD0D
100
AcDbEntity
  8
1
  6
Continuous
100
AcDbLine
 10
295.7443129999999
 20
227.975556
 30
0.0
 11
294.4443129999999
 21
227.975556
 31
0.0
  0
LINE
  5
AF03
330
AD0D
100
AcDbEntity
  8
1
  6
Continuous
100
AcDbLine
 10
294.4443129999999
 20
239.075556
 30
0.0
 11
293.644313
 21
239.075556
 31
0.0
  0
LINE
  5
AF04
330
AD0D
100
AcDbEntity
  8
1
  6
Continuous
100
AcDbLine
 10
294.4443129999999
 20
226.075556
 30
0.0
 11
293.644313
 21
226.075556
 31
0.0
  0
LINE
  5
AF05
330
AD0D
100
AcDbEntity
  8
1
  6
Continuous
100
AcDbLine
 10
292.144313
 20
223.575556
 30
0.0
 11
293.644313
 21
223.575556
 31
0.0
  0
LINE
  5
AF06
330
AD0D
100
AcDbEntity
  8
1
  6
Continuous
100
AcDbLine
 10
292.144313
 20
241.575556
 30
0.0
 11
293.644313
 21
241.575556
 31
0.0
  0
LINE
  5
AF07
330
AD0D
100
AcDbEntity
  8
1
  6
Continuous
100
AcDbLine
 10
293.644313
 20
241.575556
 30
0.0
 11
293.644313
 21
223.575556
 31
0.0
  0
LINE
  5
AF08
330
AD0D
100
AcDbEntity
  8
1
  6
Continuous
100
AcDbLine
 10
292.144313
 20
241.575556
 30
0.0
 11
292.144313
 21
223.575556
 31
0.0
  0
LINE
  5
AF09
330
AD0D
100
AcDbEntity
  8
1
  6
Continuous
100
AcDbLine
 10
293.644313
 20
239.075556
 30
0.0
 11
293.644313
 21
226.075556
 31
0.0
  0
LINE
  5
AF0A
330
AD0D
100
AcDbEntity
  8
1
  6
Continuous
100
AcDbLine
 10
369.4685069999999
 20
221.221982
 30
0.0
 11
369.4685069999999
 21
251.721982
 31
0.0
  0
LINE
  5
AF0B
330
AD0D
100
AcDbEntity
  8
4
  6
CENTER
100
AcDbLine
 10
381.068507
 20
204.221982
 30
0.0
 11
375.2614529999998
 21
204.221982
 31
0.0
  0
ARC
  5
AF0C
330
AD0D
100
AcDbEntity
  8
1
  6
Continuous
100
AcDbCircle
 10
374.090507
 20
206.999982
 30
0.0
 40
1.6
100
AcDbArc
 50
15.494
 51
84.99990000000002
  0
LINE
  5
AF0D
330
AD0D
100
AcDbEntity
  8
1
  6
Continuous
100
AcDbLine
 10
374.2295069999999
 20
208.593982
 30
0.0
 11
372.768507
 21
208.721982
 31
0.0
  0
ARC
  5
AF0E
330
AD0D
100
AcDbEntity
  8
1
  6
Continuous
100
AcDbCircle
 10
374.090507
 20
201.443982
 30
0.0
 40
1.6
100
AcDbArc
 50
275.0
 51
344.5059999999998
  0
LINE
  5
AF0F
330
AD0D
100
AcDbEntity
  8
1
  6
Continuous
100
AcDbLine
 10
374.2295069999999
 20
199.849982
 30
0.0
 11
372.768507
 21
199.7219819999999
 31
0.0
  0
LINE
  5
AF10
330
AD0D
100
AcDbEntity
  8
1
  6
Continuous
100
AcDbLine
 10
372.768507
 20
208.721982
 30
0.0
 11
372.768507
 21
199.7219819999999
 31
0.0
  0
ARC
  5
AF11
330
AD0D
100
AcDbEntity
  8
1
  6
Continuous
100
AcDbCircle
 10
364.0685069999999
 20
204.221982
 30
0.0
 40
12.0
100
AcDbArc
 50
344.5059999999998
 51
15.494
  0
LINE
  5
AF12
330
AD0D
100
AcDbEntity
  8
1
  6
Continuous
100
AcDbLine
 10
372.768507
 20
204.221982
 30
0.0
 11
371.4685069999999
 21
202.921982
 31
0.0
  0
LINE
  5
AF13
330
AD0D
100
AcDbEntity
  8
1
  6
Continuous
100
AcDbLine
 10
372.768507
 20
205.521982
 30
0.0
 11
371.4685069999999
 21
204.221982
 31
0.0
  0
LINE
  5
AF14
330
AD0D
100
AcDbEntity
  8
4
  6
CENTER
100
AcDbLine
 10
361.673152
 20
204.221982
 30
0.0
 11
372.428048
 21
204.221982
 31
0.0
  0
LINE
  5
AF15
330
AD0D
100
AcDbEntity
  8
1
  6
Continuous
100
AcDbLine
 10
369.4685069999999
 20
221.221982
 30
0.0
 11
371.4685069999999
 21
221.221982
 31
0.0
  0
LINE
  5
AF16
330
AD0D
100
AcDbEntity
  8
1
  6
Continuous
100
AcDbLine
 10
372.768507
 20
199.621982
 30
0.0
 11
371.4685069999999
 21
199.621982
 31
0.0
  0
LINE
  5
AF17
330
AD0D
100
AcDbEntity
  8
1
  6
Continuous
100
AcDbLine
 10
372.768507
 20
208.821982
 30
0.0
 11
371.4685069999999
 21
208.821982
 31
0.0
  0
LINE
  5
AF18
330
AD0D
100
AcDbEntity
  8
1
  6
Continuous
100
AcDbLine
 10
372.768507
 20
208.821982
 30
0.0
 11
372.768507
 21
199.621982
 31
0.0
  0
ARC
  5
AF19
330
AD0D
100
AcDbEntity
  8
1
  6
Continuous
100
AcDbCircle
 10
367.4685069999999
 20
251.721982
 30
0.0
 40
2.0
100
AcDbArc
 50
0.0
 51
90.0
  0
LINE
  5
AF1A
330
AD0D
100
AcDbEntity
  8
1
  6
Continuous
100
AcDbLine
 10
357.768547
 20
321.982277
 30
0.0
 11
369.468547
 21
321.982277
 31
0.0
  0
LINE
  5
AF1B
330
AD0D
100
AcDbEntity
  8
1
  6
Continuous
100
AcDbLine
 10
357.768547
 20
349.482277
 30
0.0
 11
369.468547
 21
349.482277
 31
0.0
  0
LINE
  5
AF1C
330
AD0D
100
AcDbEntity
  8
1
  6
Continuous
100
AcDbLine
 10
357.768547
 20
323.9822769999999
 30
0.0
 11
369.468547
 21
323.9822769999999
 31
0.0
  0
LINE
  5
AF1D
330
AD0D
100
AcDbEntity
  8
1
  6
Continuous
100
AcDbLine
 10
357.768547
 20
347.482277
 30
0.0
 11
369.468547
 21
347.482277
 31
0.0
  0
LINE
  5
AF1E
330
AD0D
100
AcDbEntity
  8
4
  6
CENTER
100
AcDbLine
 10
351.7685469999999
 20
335.732277
 30
0.0
 11
381.068547
 21
335.732277
 31
0.0
  0
ARC
  5
AF1F
330
AD0D
100
AcDbEntity
  8
1
  6
Continuous
100
AcDbCircle
 10
293.469336
 20
337.732256
 30
0.0
 40
5.774976999999998
100
AcDbArc
 50
339.7375
 51
20.2625
  0
ARC
  5
AF20
330
AD0D
100
AcDbEntity
  8
1
  6
Continuous
100
AcDbCircle
 10
301.51929
 20
337.732256
 30
0.0
 40
5.774976999999998
100
AcDbArc
 50
159.7375
 51
200.2625
  0
LINE
  5
AF21
330
AD0D
100
AcDbEntity
  8
1
  6
Continuous
100
AcDbLine
 10
296.1016929999999
 20
335.732256
 30
0.0
 11
298.8869329999999
 21
335.732256
 31
0.0
  0
LINE
  5
AF22
330
AD0D
100
AcDbEntity
  8
1
  6
Continuous
100
AcDbLine
 10
299.2443129999998
 20
339.732256
 30
0.0
 11
295.7443129999999
 21
339.732256
 31
0.0
  0
LINE
  5
AF23
330
AD0D
100
AcDbEntity
  8
1
  6
Continuous
100
AcDbLine
 10
299.2443129999998
 20
331.732256
 30
0.0
 11
295.7443129999999
 21
331.732256
 31
0.0
  0
LINE
  5
AF24
330
AD0D
100
AcDbEntity
  8
1
  6
Continuous
100
AcDbLine
 10
299.2443129999998
 20
339.732256
 30
0.0
 11
299.2443129999998
 21
331.732256
 31
0.0
  0
ARC
  5
AF25
330
AD0D
100
AcDbEntity
  8
1
  6
Continuous
100
AcDbCircle
 10
301.51929
 20
333.732256
 30
0.0
 40
5.774976999999998
100
AcDbArc
 50
159.7375
 51
200.2625
  0
ARC
  5
AF26
330
AD0D
100
AcDbEntity
  8
1
  6
Continuous
100
AcDbCircle
 10
293.469336
 20
333.732256
 30
0.0
 40
5.774976999999998
100
AcDbArc
 50
339.7375
 51
20.2625
  0
LINE
  5
AF27
330
AD0D
100
AcDbEntity
  8
1
  6
Continuous
100
AcDbLine
 10
292.144313
 20
344.7322559999999
 30
0.0
 11
293.644313
 21
344.7322559999999
 31
0.0
  0
LINE
  5
AF28
330
AD0D
100
AcDbEntity
  8
1
  6
Continuous
100
AcDbLine
 10
294.4443129999999
 20
342.232256
 30
0.0
 11
293.644313
 21
342.232256
 31
0.0
  0
LINE
  5
AF29
330
AD0D
100
AcDbEntity
  8
1
  6
Continuous
100
AcDbLine
 10
295.7443129999999
 20
340.332256
 30
0.0
 11
294.4443129999999
 21
340.332256
 31
0.0
  0
LINE
  5
AF2A
330
AD0D
100
AcDbEntity
  8
4
  6
CENTER
100
AcDbLine
 10
304.2443129999999
 20
335.732256
 30
0.0
 11
287.144313
 21
335.732256
 31
0.0
  0
LINE
  5
AF2B
330
AD0D
100
AcDbEntity
  8
1
  6
Continuous
100
AcDbLine
 10
294.4443129999999
 20
335.732256
 30
0.0
 11
295.7443129999999
 21
337.032256
 31
0.0
  0
LINE
  5
AF2C
330
AD0D
100
AcDbEntity
  8
1
  6
Continuous
100
AcDbLine
 10
294.4443129999999
 20
334.432256
 30
0.0
 11
295.7443129999999
 21
335.732256
 31
0.0
  0
LINE
  5
AF2D
330
AD0D
100
AcDbEntity
  8
1
  6
Continuous
100
AcDbLine
 10
292.144313
 20
326.732256
 30
0.0
 11
293.644313
 21
326.732256
 31
0.0
  0
LINE
  5
AF2E
330
AD0D
100
AcDbEntity
  8
1
  6
Continuous
100
AcDbLine
 10
294.4443129999999
 20
329.232256
 30
0.0
 11
293.644313
 21
329.232256
 31
0.0
  0
LINE
  5
AF2F
330
AD0D
100
AcDbEntity
  8
1
  6
Continuous
100
AcDbLine
 10
295.7443129999999
 20
331.1322559999999
 30
0.0
 11
294.4443129999999
 21
331.1322559999999
 31
0.0
  0
LINE
  5
AF30
330
AD0D
100
AcDbEntity
  8
1
  6
Continuous
100
AcDbLine
 10
293.644313
 20
342.232256
 30
0.0
 11
293.644313
 21
329.232256
 31
0.0
  0
LINE
  5
AF31
330
AD0D
100
AcDbEntity
  8
1
  6
Continuous
100
AcDbLine
 10
292.144313
 20
344.7322559999999
 30
0.0
 11
292.144313
 21
326.732256
 31
0.0
  0
LINE
  5
AF32
330
AD0D
100
AcDbEntity
  8
1
  6
Continuous
100
AcDbLine
 10
293.644313
 20
344.7322559999999
 30
0.0
 11
293.644313
 21
326.732256
 31
0.0
  0
LINE
  5
AF33
330
AD0D
100
AcDbEntity
  8
1
  6
Continuous
100
AcDbLine
 10
295.7443129999999
 20
340.332256
 30
0.0
 11
295.7443129999999
 21
331.1322559999999
 31
0.0
  0
LINE
  5
AF34
330
AD0D
100
AcDbEntity
  8
1
  6
Continuous
100
AcDbLine
 10
294.4443129999999
 20
342.232256
 30
0.0
 11
294.4443129999999
 21
329.232256
 31
0.0
  0
LINE
  5
AF35
330
AD0D
100
AcDbEntity
  8
1
  6
Continuous
100
AcDbLine
 10
357.768547
 20
317.982277
 30
0.0
 11
357.768547
 21
321.982277
 31
0.0
  0
LINE
  5
AF36
330
AD0D
100
AcDbEntity
  8
1
  6
Continuous
100
AcDbLine
 10
355.768547
 20
317.982277
 30
0.0
 11
355.768547
 21
321.982277
 31
0.0
  0
LINE
  5
AF37
330
AD0D
100
AcDbEntity
  8
1
  6
Continuous
100
AcDbLine
 10
355.768547
 20
317.982277
 30
0.0
 11
357.768547
 21
317.982277
 31
0.0
  0
ARC
  5
AF38
330
AD0D
100
AcDbEntity
  8
1
  6
Continuous
100
AcDbCircle
 10
357.768547
 20
321.982277
 30
0.0
 40
2.0
100
AcDbArc
 50
90.0
 51
180.0
  0
ARC
  5
AF39
330
AD0D
100
AcDbEntity
  8
1
  6
Continuous
100
AcDbCircle
 10
357.768547
 20
349.482277
 30
0.0
 40
2.0
100
AcDbArc
 50
180.0
 51
270.0
  0
LINE
  5
AF3A
330
AD0D
100
AcDbEntity
  8
1
  6
Continuous
100
AcDbLine
 10
355.768547
 20
349.482277
 30
0.0
 11
355.768547
 21
353.482277
 31
0.0
  0
LINE
  5
AF3B
330
AD0D
100
AcDbEntity
  8
1
  6
Continuous
100
AcDbLine
 10
357.768547
 20
349.482277
 30
0.0
 11
357.768547
 21
353.482277
 31
0.0
  0
LINE
  5
AF3C
330
AD0D
100
AcDbEntity
  8
1
  6
Continuous
100
AcDbLine
 10
355.768547
 20
353.482277
 30
0.0
 11
357.768547
 21
353.482277
 31
0.0
  0
LINE
  5
AF3D
330
AD0D
100
AcDbEntity
  8
1
  6
Continuous
100
AcDbLine
 10
369.468547
 20
323.9822769999999
 30
0.0
 11
369.468547
 21
347.482277
 31
0.0
  0
LINE
  5
AF3E
330
AD0D
100
AcDbEntity
  8
1
  6
Continuous
100
AcDbLine
 10
371.468547
 20
323.9822769999999
 30
0.0
 11
371.468547
 21
347.482277
 31
0.0
  0
ARC
  5
AF3F
330
AD0D
100
AcDbEntity
  8
1
  6
Continuous
100
AcDbCircle
 10
364.068547
 20
335.732277
 30
0.0
 40
12.0
100
AcDbArc
 50
344.5059999999998
 51
15.494
  0
LINE
  5
AF40
330
AD0D
100
AcDbEntity
  8
1
  6
Continuous
100
AcDbLine
 10
372.768547
 20
340.3322769999999
 30
0.0
 11
372.768547
 21
331.1322769999999
 31
0.0
  0
LINE
  5
AF41
330
AD0D
100
AcDbEntity
  8
1
  6
Continuous
100
AcDbLine
 10
372.768547
 20
335.732277
 30
0.0
 11
371.468547
 21
334.432277
 31
0.0
  0
LINE
  5
AF42
330
AD0D
100
AcDbEntity
  8
1
  6
Continuous
100
AcDbLine
 10
372.768547
 20
340.232277
 30
0.0
 11
372.768547
 21
331.232277
 31
0.0
  0
LINE
  5
AF43
330
AD0D
100
AcDbEntity
  8
1
  6
Continuous
100
AcDbLine
 10
372.768547
 20
331.1322769999999
 30
0.0
 11
371.468547
 21
331.1322769999999
 31
0.0
  0
LINE
  5
AF44
330
AD0D
100
AcDbEntity
  8
1
  6
Continuous
100
AcDbLine
 10
374.229547
 20
331.360277
 30
0.0
 11
372.768547
 21
331.232277
 31
0.0
  0
LINE
  5
AF45
330
AD0D
100
AcDbEntity
  8
1
  6
Continuous
100
AcDbLine
 10
372.768547
 20
340.3322769999999
 30
0.0
 11
371.468547
 21
340.3322769999999
 31
0.0
  0
LINE
  5
AF46
330
AD0D
100
AcDbEntity
  8
1
  6
Continuous
100
AcDbLine
 10
372.768547
 20
337.032277
 30
0.0
 11
371.468547
 21
335.732277
 31
0.0
  0
LINE
  5
AF47
330
AD0D
100
AcDbEntity
  8
1
  6
Continuous
100
AcDbLine
 10
374.229547
 20
340.104277
 30
0.0
 11
372.768547
 21
340.232277
 31
0.0
  0
ARC
  5
AF48
330
AD0D
100
AcDbEntity
  8
1
  6
Continuous
100
AcDbCircle
 10
374.090547
 20
332.9542769999999
 30
0.0
 40
1.6
100
AcDbArc
 50
275.0
 51
344.5059999999998
  0
ARC
  5
AF49
330
AD0D
100
AcDbEntity
  8
1
  6
Continuous
100
AcDbCircle
 10
374.090547
 20
338.5102769999999
 30
0.0
 40
1.6
100
AcDbArc
 50
15.494
 51
84.99990000000002
  0
ARC
  5
AF4A
330
AD0D
100
AcDbEntity
  8
1
  6
Continuous
100
AcDbCircle
 10
369.468547
 20
323.9822769999999
 30
0.0
 40
2.0
100
AcDbArc
 50
270.0
 51
0.0
  0
ARC
  5
AF4B
330
AD0D
100
AcDbEntity
  8
1
  6
Continuous
100
AcDbCircle
 10
369.468547
 20
347.482277
 30
0.0
 40
2.0
100
AcDbArc
 50
0.0
 51
90.0
  0
CIRCLE
  5
AF4C
330
AD0D
100
AcDbEntity
  8
1
  6
Continuous
100
AcDbCircle
 10
506.2196909999998
 20
232.7219819999999
 30
0.0
 40
9.0
  0
CIRCLE
  5
AF4D
330
AD0D
100
AcDbEntity
  8
1
  6
Continuous
100
AcDbCircle
 10
506.2196909999998
 20
232.7219819999999
 30
0.0
 40
6.5
  0
ARC
  5
AF4E
330
AD0D
100
AcDbEntity
  8
1
  6
Continuous
100
AcDbCircle
 10
500.961903
 20
216.186497
 30
0.0
 40
0.76574
100
AcDbArc
 50
41.0679
 51
138.932
  0
ARC
  5
AF4F
330
AD0D
100
AcDbEntity
  8
1
  6
Continuous
100
AcDbCircle
 10
500.961903
 20
215.7899769999999
 30
0.0
 40
0.76574
100
AcDbArc
 50
221.0679999999999
 51
318.932
  0
LINE
  5
AF50
330
AD0D
100
AcDbEntity
  8
4
  6
CENTER
100
AcDbLine
 10
498.719691
 20
204.221982
 30
0.0
 11
513.719691
 21
204.221982
 31
0.0
  0
LINE
  5
AF51
330
AD0D
100
AcDbEntity
  8
1
  6
Continuous
100
AcDbLine
 10
492.469691
 20
221.221982
 30
0.0
 11
519.969691
 21
221.221982
 31
0.0
  0
ARC
  5
AF52
330
AD0D
100
AcDbEntity
  8
1
  6
Continuous
100
AcDbCircle
 10
506.2196909999998
 20
232.7219819999999
 30
0.0
 40
11.25
100
AcDbArc
 50
210.0
 51
60.0
  0
LINE
  5
AF53
330
AD0D
100
AcDbEntity
  8
1
  6
Continuous
100
AcDbLine
 10
501.676564
 20
240.590908
 30
0.0
 11
500.4696909999998
 21
242.681274
 31
0.0
  0
LINE
  5
AF54
330
AD0D
100
AcDbEntity
  8
1
  6
Continuous
100
AcDbLine
 10
515.2196909999998
 20
253.721982
 30
0.0
 11
497.219691
 21
253.721982
 31
0.0
  0
LINE
  5
AF55
330
AD0D
100
AcDbEntity
  8
1
  6
Continuous
100
AcDbLine
 10
515.719691
 20
244.221982
 30
0.0
 11
496.719691
 21
244.221982
 31
0.0
  0
ARC
  5
AF56
330
AD0D
100
AcDbEntity
  8
1
  6
Continuous
100
AcDbCircle
 10
506.2196909999998
 20
232.7219819999999
 30
0.0
 40
11.5
100
AcDbArc
 50
119.9999999999999
 51
60.0
  0
LINE
  5
AF57
330
AD0D
100
AcDbEntity
  8
4
  6
CENTER
100
AcDbLine
 10
520.719691
 20
232.7219819999999
 30
0.0
 11
438.719691
 21
232.7219819999999
 31
0.0
  0
LINE
  5
AF58
330
AD0D
100
AcDbEntity
  8
1
  6
Continuous
100
AcDbLine
 10
494.469691
 20
221.221982
 30
0.0
 11
494.469691
 21
253.721982
 31
0.0
  0
LINE
  5
AF59
330
AD0D
100
AcDbEntity
  8
5
  6
PHANTOM
100
AcDbLine
 10
488.469691
 20
242.0719819999999
 30
0.0
 11
445.719691
 21
242.0719819999999
 31
0.0
  0
LINE
  5
AF5A
330
AD0D
100
AcDbEntity
  8
5
  6
PHANTOM
100
AcDbLine
 10
488.469691
 20
223.3719819999999
 30
0.0
 11
445.719691
 21
223.3719819999999
 31
0.0
  0
ARC
  5
AF5B
330
AD0D
100
AcDbEntity
  8
5
  6
PHANTOM
100
AcDbCircle
 10
445.719691
 20
240.0719819999999
 30
0.0
 40
2.0
100
AcDbArc
 50
90.0
 51
180.0
  0
LINE
  5
AF5C
330
AD0D
100
AcDbEntity
  8
5
  6
PHANTOM
100
AcDbLine
 10
443.7196909999998
 20
240.0719819999999
 30
0.0
 11
443.7196909999998
 21
225.3719819999999
 31
0.0
  0
ARC
  5
AF5D
330
AD0D
100
AcDbEntity
  8
5
  6
PHANTOM
100
AcDbCircle
 10
445.719691
 20
225.3719819999999
 30
0.0
 40
2.0
100
AcDbArc
 50
180.0
 51
270.0
  0
LINE
  5
AF5E
330
AD0D
100
AcDbEntity
  8
1
  6
Continuous
100
AcDbLine
 10
494.719691
 20
242.221982
 30
0.0
 11
494.719691
 21
221.221982
 31
0.0
  0
ARC
  5
AF5F
330
AD0D
100
AcDbEntity
  8
1
  6
Continuous
100
AcDbCircle
 10
497.7196909999998
 20
224.2219819999999
 30
0.0
 40
3.0
100
AcDbArc
 50
180.0
 51
270.0
  0
ARC
  5
AF60
330
AD0D
100
AcDbEntity
  8
1
  6
Continuous
100
AcDbCircle
 10
501.1894279999999
 20
215.988237
 30
0.0
 40
1.067529999999998
100
AcDbArc
 50
138.932
 51
221.0679999999999
  0
LINE
  5
AF61
330
AD0D
100
AcDbEntity
  8
1
  6
Continuous
100
AcDbLine
 10
498.159923
 20
216.929477
 30
0.0
 11
499.790343
 21
216.929477
 31
0.0
  0
LINE
  5
AF62
330
AD0D
100
AcDbEntity
  8
1
  6
Continuous
100
AcDbLine
 10
498.971543
 20
216.929477
 30
0.0
 11
498.971543
 21
214.929477
 31
0.0
  0
ARC
  5
AF63
330
AD0D
100
AcDbEntity
  8
1
  6
Continuous
100
AcDbCircle
 10
496.719691
 20
242.221982
 30
0.0
 40
2.0
100
AcDbArc
 50
90.0
 51
180.0
  0
LINE
  5
AF64
330
AD0D
100
AcDbEntity
  8
1
  6
Continuous
100
AcDbLine
 10
498.425462
 20
228.2219809999999
 30
0.0
 11
496.476905
 21
227.0969819999999
 31
0.0
  0
LINE
  5
AF65
330
AD0D
100
AcDbEntity
  8
1
  6
Continuous
100
AcDbLine
 10
500.4696909999998
 20
242.681274
 30
0.0
 11
500.4696909999998
 21
244.221982
 31
0.0
  0
ARC
  5
AF66
330
AD0D
100
AcDbEntity
  8
1
  6
Continuous
100
AcDbCircle
 10
497.7196909999998
 20
241.221982
 30
0.0
 40
3.0
100
AcDbArc
 50
90.0
 51
180.0
  0
LINE
  5
AF67
330
AD0D
100
AcDbEntity
  8
1
  6
Continuous
100
AcDbLine
 10
490.469691
 20
253.721982
 30
0.0
 11
494.469691
 21
253.721982
 31
0.0
  0
ARC
  5
AF68
330
AD0D
100
AcDbEntity
  8
1
  6
Continuous
100
AcDbCircle
 10
490.469691
 20
251.721982
 30
0.0
 40
2.0
100
AcDbArc
 50
90.0
 51
180.0
  0
ARC
  5
AF69
330
AD0D
100
AcDbEntity
  8
1
  6
Continuous
100
AcDbCircle
 10
497.219691
 20
248.7219819999999
 30
0.0
 40
5.0
100
AcDbArc
 50
90.0
 51
123.3670129999999
  0
LINE
  5
AF6A
330
AD0D
100
AcDbEntity
  8
1
  6
Continuous
100
AcDbLine
 10
517.969691
 20
221.221982
 30
0.0
 11
517.969691
 21
253.721982
 31
0.0
  0
LINE
  5
AF6B
330
AD0D
100
AcDbEntity
  8
1
  6
Continuous
100
AcDbLine
 10
517.719691
 20
242.221982
 30
0.0
 11
517.719691
 21
221.221982
 31
0.0
  0
ARC
  5
AF6C
330
AD0D
100
AcDbEntity
  8
1
  6
Continuous
100
AcDbCircle
 10
514.7196909999999
 20
224.2219819999999
 30
0.0
 40
3.0
100
AcDbArc
 50
270.0
 51
0.0
  0
LINE
  5
AF6D
330
AD0D
100
AcDbEntity
  8
1
  6
Continuous
100
AcDbLine
 10
507.240753
 20
204.221982
 30
0.0
 11
507.469148
 21
204.8505989999999
 31
0.0
  0
LINE
  5
AF6E
330
AD0D
100
AcDbEntity
  8
1
  6
Continuous
100
AcDbLine
 10
507.469148
 20
204.8505989999999
 30
0.0
 11
508.2236309999998
 21
205.631952
 31
0.0
  0
LINE
  5
AF6F
330
AD0D
100
AcDbEntity
  8
1
  6
Continuous
100
AcDbLine
 10
507.240753
 20
204.221982
 30
0.0
 11
507.469148
 21
203.5933639999999
 31
0.0
  0
LINE
  5
AF70
330
AD0D
100
AcDbEntity
  8
1
  6
Continuous
100
AcDbLine
 10
507.469148
 20
203.5933639999999
 30
0.0
 11
508.2236309999998
 21
202.812011
 31
0.0
  0
ARC
  5
AF71
330
AD0D
100
AcDbEntity
  8
1
  6
Continuous
100
AcDbCircle
 10
506.2196909999998
 20
204.221982
 30
0.0
 40
2.45
100
AcDbArc
 50
35.129
 51
54.87089
  0
ARC
  5
AF72
330
AD0D
100
AcDbEntity
  8
1
  6
Continuous
100
AcDbCircle
 10
506.2196909999998
 20
204.221982
 30
0.0
 40
2.45
100
AcDbArc
 50
305.129
 51
324.8709999999999
  0
LINE
  5
AF73
330
AD0D
100
AcDbEntity
  8
1
  6
Continuous
100
AcDbLine
 10
506.2196909999998
 20
205.243044
 30
0.0
 11
506.8483089999999
 21
205.471439
 31
0.0
  0
LINE
  5
AF74
330
AD0D
100
AcDbEntity
  8
1
  6
Continuous
100
AcDbLine
 10
506.2196909999998
 20
205.243044
 30
0.0
 11
505.591073
 21
205.471439
 31
0.0
  0
LINE
  5
AF75
330
AD0D
100
AcDbEntity
  8
1
  6
Continuous
100
AcDbLine
 10
505.1993359999998
 20
204.222689
 30
0.0
 11
504.970233
 21
204.8505989999999
 31
0.0
  0
LINE
  5
AF76
330
AD0D
100
AcDbEntity
  8
1
  6
Continuous
100
AcDbLine
 10
505.1993359999998
 20
204.222689
 30
0.0
 11
504.970233
 21
203.5933639999999
 31
0.0
  0
LINE
  5
AF77
330
AD0D
100
AcDbEntity
  8
1
  6
Continuous
100
AcDbLine
 10
506.220398
 20
203.201626
 30
0.0
 11
505.591073
 21
202.9725239999999
 31
0.0
  0
LINE
  5
AF78
330
AD0D
100
AcDbEntity
  8
1
  6
Continuous
100
AcDbLine
 10
506.220398
 20
203.201626
 30
0.0
 11
506.8483089999999
 21
202.9725239999999
 31
0.0
  0
ARC
  5
AF79
330
AD0D
100
AcDbEntity
  8
1
  6
Continuous
100
AcDbCircle
 10
506.2196909999998
 20
204.221982
 30
0.0
 40
2.45
100
AcDbArc
 50
125.1291
 51
144.8709
  0
ARC
  5
AF7A
330
AD0D
100
AcDbEntity
  8
1
  6
Continuous
100
AcDbCircle
 10
506.2196909999998
 20
204.221982
 30
0.0
 40
2.45
100
AcDbArc
 50
215.1289999999999
 51
234.871
  0
LINE
  5
AF7B
330
AD0D
100
AcDbEntity
  8
1
  6
Continuous
100
AcDbLine
 10
505.591073
 20
205.471439
 30
0.0
 11
504.8097199999999
 21
206.225922
 31
0.0
  0
LINE
  5
AF7C
330
AD0D
100
AcDbEntity
  8
1
  6
Continuous
100
AcDbLine
 10
504.970233
 20
204.8505989999999
 30
0.0
 11
504.21575
 21
205.631952
 31
0.0
  0
LINE
  5
AF7D
330
AD0D
100
AcDbEntity
  8
1
  6
Continuous
100
AcDbLine
 10
504.970233
 20
203.5933639999999
 30
0.0
 11
504.21575
 21
202.812011
 31
0.0
  0
LINE
  5
AF7E
330
AD0D
100
AcDbEntity
  8
1
  6
Continuous
100
AcDbLine
 10
505.591073
 20
202.9725239999999
 30
0.0
 11
504.8097199999999
 21
202.2180409999999
 31
0.0
  0
LINE
  5
AF7F
330
AD0D
100
AcDbEntity
  8
1
  6
Continuous
100
AcDbLine
 10
506.8483089999999
 20
205.471439
 30
0.0
 11
507.6296619999998
 21
206.225922
 31
0.0
  0
LINE
  5
AF80
330
AD0D
100
AcDbEntity
  8
1
  6
Continuous
100
AcDbLine
 10
506.8483089999999
 20
202.9725239999999
 30
0.0
 11
507.6296619999998
 21
202.2180409999999
 31
0.0
  0
CIRCLE
  5
AF81
330
AD0D
100
AcDbEntity
  8
1
  6
Continuous
100
AcDbCircle
 10
506.2196909999998
 20
204.221982
 30
0.0
 40
4.5
  0
ARC
  5
AF82
330
AD0D
100
AcDbEntity
  8
1
  6
Continuous
100
AcDbCircle
 10
500.734373
 20
215.988237
 30
0.0
 40
1.067529999999998
100
AcDbArc
 50
318.932
 51
41.0679
  0
ARC
  5
AF83
330
AD0D
100
AcDbEntity
  8
1
  6
Continuous
100
AcDbCircle
 10
508.114228
 20
215.718837
 30
0.0
 40
0.72
100
AcDbArc
 50
269.5819999999999
 51
11.6541
  0
ARC
  5
AF84
330
AD0D
100
AcDbEntity
  8
1
  6
Continuous
100
AcDbCircle
 10
508.108978
 20
215.7642720000001
 30
0.0
 40
0.76574
100
AcDbArc
 50
221.0679999999999
 51
276.591
  0
ARC
  5
AF85
330
AD0D
100
AcDbEntity
  8
1
  6
Continuous
100
AcDbCircle
 10
508.336478
 20
215.962537
 30
0.0
 40
1.067529999999998
100
AcDbArc
 50
138.932
 51
221.0679999999999
  0
ARC
  5
AF86
330
AD0D
100
AcDbEntity
  8
1
  6
Continuous
100
AcDbCircle
 10
508.108978
 20
216.160797
 30
0.0
 40
0.76574
100
AcDbArc
 50
70.80719999999998
 51
138.932
  0
ARC
  5
AF87
330
AD0D
100
AcDbEntity
  8
1
  6
Continuous
100
AcDbCircle
 10
508.192028
 20
216.399352
 30
0.0
 40
0.513145
100
AcDbArc
 50
5.659239999999998
 51
70.80719999999998
  0
ARC
  5
AF88
330
AD0D
100
AcDbEntity
  8
1
  6
Continuous
100
AcDbCircle
 10
503.143578
 20
215.562022
 30
0.0
 40
0.513145
100
AcDbArc
 50
289.1929999999998
 51
354.341
  0
ARC
  5
AF89
330
AD0D
100
AcDbEntity
  8
1
  6
Continuous
100
AcDbCircle
 10
503.143578
 20
216.435652
 30
0.0
 40
0.513145
100
AcDbArc
 50
5.659239999999998
 51
70.80719999999998
  0
ARC
  5
AF8A
330
AD0D
100
AcDbEntity
  8
1
  6
Continuous
100
AcDbCircle
 10
503.060528
 20
216.197097
 30
0.0
 40
0.76574
100
AcDbArc
 50
70.80719999999998
 51
138.932
  0
ARC
  5
AF8B
330
AD0D
100
AcDbEntity
  8
1
  6
Continuous
100
AcDbCircle
 10
503.060528
 20
215.8005769999999
 30
0.0
 40
0.76574
100
AcDbArc
 50
221.0679999999999
 51
289.1929999999998
  0
ARC
  5
AF8C
330
AD0D
100
AcDbEntity
  8
1
  6
Continuous
100
AcDbCircle
 10
503.288078
 20
215.998837
 30
0.0
 40
1.067529999999998
100
AcDbArc
 50
138.932
 51
221.0679999999999
  0
LINE
  5
AF8D
330
AD0D
100
AcDbEntity
  8
1
  6
Continuous
100
AcDbLine
 10
510.797628
 20
215.8605969999999
 30
0.0
 11
510.123928
 21
217.0310769999999
 31
0.0
  0
LINE
  5
AF8E
330
AD0D
100
AcDbEntity
  8
1
  6
Continuous
100
AcDbLine
 10
510.797628
 20
215.856987
 30
0.0
 11
511.476228
 21
217.032337
 31
0.0
  0
LINE
  5
AF8F
330
AD0D
100
AcDbEntity
  8
1
  6
Continuous
100
AcDbLine
 10
509.399078
 20
217.0164419999999
 30
0.0
 11
509.399078
 21
214.9150019999999
 31
0.0
  0
LINE
  5
AF90
330
AD0D
100
AcDbEntity
  8
1
  6
Continuous
100
AcDbLine
 10
508.819378
 20
215.5662069999999
 30
0.0
 11
508.819378
 21
214.929477
 31
0.0
  0
LINE
  5
AF91
330
AD0D
100
AcDbEntity
  8
1
  6
Continuous
100
AcDbLine
 10
510.797628
 20
215.856992
 30
0.0
 11
510.797628
 21
214.9150019999999
 31
0.0
  0
LINE
  5
AF92
330
AD0D
100
AcDbEntity
  8
1
  6
Continuous
100
AcDbLine
 10
512.663528
 20
216.965722
 30
0.0
 11
511.870078
 21
214.9222019999999
 31
0.0
  0
LINE
  5
AF93
330
AD0D
100
AcDbEntity
  8
1
  6
Continuous
100
AcDbLine
 10
506.478828
 20
217.0164419999999
 30
0.0
 11
506.478828
 21
214.9150019999999
 31
0.0
  0
LINE
  5
AF94
330
AD0D
100
AcDbEntity
  8
1
  6
Continuous
100
AcDbLine
 10
505.775828
 20
217.0164419999999
 30
0.0
 11
505.775828
 21
214.9150019999999
 31
0.0
  0
LINE
  5
AF95
330
AD0D
100
AcDbEntity
  8
1
  6
Continuous
100
AcDbLine
 10
508.116478
 20
215.8642819999999
 30
0.0
 11
508.819378
 21
215.8642819999999
 31
0.0
  0
LINE
  5
AF96
330
AD0D
100
AcDbEntity
  8
1
  6
Continuous
100
AcDbLine
 10
504.478828
 20
217.0164419999999
 30
0.0
 11
504.478828
 21
214.9150019999999
 31
0.0
  0
LINE
  5
AF97
330
AD0D
100
AcDbEntity
  8
1
  6
Continuous
100
AcDbLine
 10
504.478828
 20
215.965722
 30
0.0
 11
505.775828
 21
215.965722
 31
0.0
  0
LINE
  5
AF98
330
AD0D
100
AcDbEntity
  8
1
  6
Continuous
100
AcDbLine
 10
512.663528
 20
216.9693169999999
 30
0.0
 11
513.420828
 21
214.922197
 31
0.0
  0
LINE
  5
AF99
330
AD0D
100
AcDbEntity
  8
1
  6
Continuous
100
AcDbLine
 10
512.109228
 20
215.5236319999999
 30
0.0
 11
513.199778
 21
215.5236319999999
 31
0.0
  0
ARC
  5
AF9A
330
AD0D
100
AcDbEntity
  8
1
  6
Continuous
100
AcDbCircle
 10
506.2196909999998
 20
232.7219819999999
 30
0.0
 40
2.399999999999999
100
AcDbArc
 50
124.921342
 51
145.078658
  0
LINE
  5
AF9B
330
AD0D
100
AcDbEntity
  8
1
  6
Continuous
100
AcDbLine
 10
506.2196909999998
 20
237.340982
 30
0.0
 11
502.2196909999998
 21
235.030982
 31
0.0
  0
LINE
  5
AF9C
330
AD0D
100
AcDbEntity
  8
1
  6
Continuous
100
AcDbLine
 10
506.2196909999998
 20
237.340982
 30
0.0
 11
510.2196909999998
 21
235.030982
 31
0.0
  0
ARC
  5
AF9D
330
AD0D
100
AcDbEntity
  8
1
  6
Continuous
100
AcDbCircle
 10
506.2196909999998
 20
232.7219819999999
 30
0.0
 40
2.399999999999999
100
AcDbArc
 50
34.92134199999999
 51
55.078658
  0
LINE
  5
AF9E
330
AD0D
100
AcDbEntity
  8
1
  6
Continuous
100
AcDbLine
 10
507.215646
 20
232.7219819999999
 30
0.0
 11
507.430287
 21
233.3117029999999
 31
0.0
  0
LINE
  5
AF9F
330
AD0D
100
AcDbEntity
  8
1
  6
Continuous
100
AcDbLine
 10
507.593574
 20
230.754129
 30
0.0
 11
506.809412
 21
231.511385
 31
0.0
  0
LINE
  5
AFA0
330
AD0D
100
AcDbEntity
  8
1
  6
Continuous
100
AcDbLine
 10
507.215646
 20
232.7219819999999
 30
0.0
 11
507.430287
 21
232.132261
 31
0.0
  0
LINE
  5
AFA1
330
AD0D
100
AcDbEntity
  8
1
  6
Continuous
100
AcDbLine
 10
506.2196909999998
 20
233.717937
 30
0.0
 11
506.809412
 21
233.9325779999999
 31
0.0
  0
LINE
  5
AFA2
330
AD0D
100
AcDbEntity
  8
1
  6
Continuous
100
AcDbLine
 10
506.2196909999998
 20
231.7260259999999
 30
0.0
 11
506.809412
 21
231.511385
 31
0.0
  0
LINE
  5
AFA3
330
AD0D
100
AcDbEntity
  8
1
  6
Continuous
100
AcDbLine
 10
504.845808
 20
230.754129
 30
0.0
 11
505.62997
 21
231.511385
 31
0.0
  0
LINE
  5
AFA4
330
AD0D
100
AcDbEntity
  8
1
  6
Continuous
100
AcDbLine
 10
505.2237349999998
 20
232.7219819999999
 30
0.0
 11
505.009094
 21
233.3117029999999
 31
0.0
  0
LINE
  5
AFA5
330
AD0D
100
AcDbEntity
  8
1
  6
Continuous
100
AcDbLine
 10
505.2237349999998
 20
232.7219819999999
 30
0.0
 11
505.009094
 21
232.132261
 31
0.0
  0
LINE
  5
AFA6
330
AD0D
100
AcDbEntity
  8
1
  6
Continuous
100
AcDbLine
 10
504.2518379999998
 20
231.348098
 30
0.0
 11
505.009094
 21
232.132261
 31
0.0
  0
ARC
  5
AFA7
330
AD0D
100
AcDbEntity
  8
1
  6
Continuous
100
AcDbCircle
 10
506.2196909999998
 20
232.7219819999999
 30
0.0
 40
2.399999999999999
100
AcDbArc
 50
214.921342
 51
235.078658
  0
LINE
  5
AFA8
330
AD0D
100
AcDbEntity
  8
1
  6
Continuous
100
AcDbLine
 10
506.2196909999998
 20
231.7260259999999
 30
0.0
 11
505.62997
 21
231.511385
 31
0.0
  0
LINE
  5
AFA9
330
AD0D
100
AcDbEntity
  8
1
  6
Continuous
100
AcDbLine
 10
506.2196909999998
 20
233.717937
 30
0.0
 11
505.62997
 21
233.9325779999999
 31
0.0
  0
LINE
  5
AFAA
330
AD0D
100
AcDbEntity
  8
1
  6
Continuous
100
AcDbLine
 10
502.2196909999998
 20
230.4119819999999
 30
0.0
 11
506.2196909999998
 21
228.102982
 31
0.0
  0
LINE
  5
AFAB
330
AD0D
100
AcDbEntity
  8
1
  6
Continuous
100
AcDbLine
 10
510.2196909999998
 20
230.4129819999999
 30
0.0
 11
506.2196909999998
 21
228.102982
 31
0.0
  0
LINE
  5
AFAC
330
AD0D
100
AcDbEntity
  8
1
  6
Continuous
100
AcDbLine
 10
508.1875440000001
 20
231.348098
 30
0.0
 11
507.430287
 21
232.132261
 31
0.0
  0
ARC
  5
AFAD
330
AD0D
100
AcDbEntity
  8
1
  6
Continuous
100
AcDbCircle
 10
506.2196909999998
 20
232.7219819999999
 30
0.0
 40
2.399999999999999
100
AcDbArc
 50
304.921342
 51
325.078658
  0
LINE
  5
AFAE
330
AD0D
100
AcDbEntity
  8
1
  6
Continuous
100
AcDbLine
 10
502.2196909999998
 20
230.4119819999999
 30
0.0
 11
502.2196909999998
 21
235.030982
 31
0.0
  0
LINE
  5
AFAF
330
AD0D
100
AcDbEntity
  8
1
  6
Continuous
100
AcDbLine
 10
510.2196909999998
 20
230.4119819999999
 30
0.0
 11
510.2196909999998
 21
235.030982
 31
0.0
  0
CIRCLE
  5
AFB0
330
AD0D
100
AcDbEntity
  8
1
  6
Continuous
100
AcDbCircle
 10
506.2196909999998
 20
232.7219819999999
 30
0.0
 40
4.0
  0
CIRCLE
  5
AFB1
330
AD0D
100
AcDbEntity
  8
1
  6
Continuous
100
AcDbCircle
 10
506.2196909999998
 20
232.7219819999999
 30
0.0
 40
3.1
  0
LINE
  5
AFB2
330
AD0D
100
AcDbEntity
  8
1
  6
Continuous
100
AcDbLine
 10
507.593574
 20
234.689834
 30
0.0
 11
506.809412
 21
233.9325779999999
 31
0.0
  0
LINE
  5
AFB3
330
AD0D
100
AcDbEntity
  8
1
  6
Continuous
100
AcDbLine
 10
504.845808
 20
234.689834
 30
0.0
 11
505.62997
 21
233.9325779999999
 31
0.0
  0
LINE
  5
AFB4
330
AD0D
100
AcDbEntity
  8
1
  6
Continuous
100
AcDbLine
 10
504.2518379999998
 20
234.095865
 30
0.0
 11
505.009094
 21
233.3117029999999
 31
0.0
  0
LINE
  5
AFB5
330
AD0D
100
AcDbEntity
  8
1
  6
Continuous
100
AcDbLine
 10
508.1875440000001
 20
234.095865
 30
0.0
 11
507.430287
 21
233.3117029999999
 31
0.0
  0
ARC
  5
AFB6
330
AD0D
100
AcDbEntity
  8
1
  6
Continuous
100
AcDbCircle
 10
515.719691
 20
242.221982
 30
0.0
 40
2.0
100
AcDbArc
 50
0.0
 51
90.0
  0
LINE
  5
AFB7
330
AD0D
100
AcDbEntity
  8
1
  6
Continuous
100
AcDbLine
 10
511.969691
 20
242.681274
 30
0.0
 11
511.969691
 21
244.221982
 31
0.0
  0
ARC
  5
AFB8
330
AD0D
100
AcDbEntity
  8
1
  6
Continuous
100
AcDbCircle
 10
510.3298049999998
 20
240.840908
 30
0.0
 40
0.5
100
AcDbArc
 50
320.0660619999999
 51
330.0
  0
ARC
  5
AFB9
330
AD0D
100
AcDbEntity
  8
1
  6
Continuous
100
AcDbCircle
 10
502.1095769999998
 20
240.840908
 30
0.0
 40
0.5
100
AcDbArc
 50
210.0
 51
219.933938
  0
LINE
  5
AFBA
330
AD0D
100
AcDbEntity
  8
1
  6
Continuous
100
AcDbLine
 10
510.7196909999998
 20
240.51621
 30
0.0
 11
511.969691
 21
242.681274
 31
0.0
  0
ARC
  5
AFBB
330
AD0D
100
AcDbEntity
  8
1
  6
Continuous
100
AcDbCircle
 10
514.7196909999999
 20
241.221982
 30
0.0
 40
3.0
100
AcDbArc
 50
0.0
 51
90.0
  0
LINE
  5
AFBC
330
AD0D
100
AcDbEntity
  8
1
  6
Continuous
100
AcDbLine
 10
517.969691
 20
253.721982
 30
0.0
 11
521.969691
 21
253.721982
 31
0.0
  0
ARC
  5
AFBD
330
AD0D
100
AcDbEntity
  8
1
  6
Continuous
100
AcDbCircle
 10
515.2196909999998
 20
248.7219819999999
 30
0.0
 40
5.0
100
AcDbArc
 50
56.63298700000001
 51
90.0
  0
ARC
  5
AFBE
330
AD0D
100
AcDbEntity
  8
1
  6
Continuous
100
AcDbCircle
 10
521.969691
 20
251.721982
 30
0.0
 40
2.0
100
AcDbArc
 50
0.0
 51
90.0
  0
LINE
  5
AFBF
330
AD0D
100
AcDbEntity
  8
1
  6
Continuous
100
AcDbLine
 10
654.670875
 20
253.721982
 30
0.0
 11
654.670875
 21
139.7219819999999
 31
0.0
  0
LINE
  5
AFC0
330
AD0D
100
AcDbEntity
  8
1
  6
Continuous
100
AcDbLine
 10
656.670875
 20
253.721982
 30
0.0
 11
656.670875
 21
139.7219819999999
 31
0.0
  0
LINE
  5
AFC1
330
AD0D
100
AcDbEntity
  8
1
  6
Continuous
100
AcDbLine
 10
640.970875
 20
221.221982
 30
0.0
 11
640.970875
 21
187.2219819999999
 31
0.0
  0
LINE
  5
AFC2
330
AD0D
100
AcDbEntity
  8
1
  6
Continuous
100
AcDbLine
 10
795.1304150000002
 20
139.7219819999999
 30
0.0
 11
795.1304150000002
 21
253.721982
 31
0.0
  0
LINE
  5
AFC3
330
AD0D
100
AcDbEntity
  8
1
  6
Continuous
100
AcDbLine
 10
798.130415
 20
139.7219819999999
 30
0.0
 11
798.130415
 21
253.721982
 31
0.0
  0
LINE
  5
AFC4
330
AD0D
100
AcDbEntity
  8
1
  6
Continuous
100
AcDbLine
 10
796.630415
 20
139.7219819999999
 30
0.0
 11
796.630415
 21
253.721982
 31
0.0
  0
LINE
  5
AFC5
330
AD0D
100
AcDbEntity
  8
1
  6
Continuous
100
AcDbLine
 10
799.6304150000002
 20
142.221982
 30
0.0
 11
799.6304150000002
 21
251.2219819999999
 31
0.0
  0
LINE
  5
AFC6
330
AD0D
100
AcDbEntity
  8
1
  6
Continuous
100
AcDbLine
 10
800.1304150000002
 20
226.2916209999999
 30
0.0
 11
800.1304150000002
 21
171.0880069999999
 31
0.0
  0
LINE
  5
AFC7
330
AD0D
100
AcDbEntity
  8
5
  6
PHANTOM
100
AcDbLine
 10
806.99125
 20
219.2398269999999
 30
0.0
 11
829.217987
 21
197.0130899999999
 31
0.0
  0
LINE
  5
AFC8
330
AD0D
100
AcDbEntity
  8
5
  6
PHANTOM
100
AcDbLine
 10
803.3593469999997
 20
231.357011
 30
0.0
 11
842.2994630000001
 21
192.416896
 31
0.0
  0
LINE
  5
AFC9
330
AD0D
100
AcDbEntity
  8
1
  6
Continuous
100
AcDbLine
 10
786.1304150000002
 20
189.221982
 30
0.0
 11
786.1304150000002
 21
219.221982
 31
0.0
  0
ARC
  5
AFCA
330
AD0D
100
AcDbEntity
  8
1
  6
Continuous
100
AcDbCircle
 10
644.970875
 20
141.7219819999999
 30
0.0
 40
2.0
100
AcDbArc
 50
180.0
 51
270.0
  0
LINE
  5
AFCB
330
AD0D
100
AcDbEntity
  8
1
  6
Continuous
100
AcDbLine
 10
642.9708749999998
 20
187.2219819999999
 30
0.0
 11
642.9708749999998
 21
141.7219819999999
 31
0.0
  0
LINE
  5
AFCC
330
AD0D
100
AcDbEntity
  8
1
  6
Continuous
100
AcDbLine
 10
642.9708749999998
 20
187.2219819999999
 30
0.0
 11
640.970875
 21
187.2219819999999
 31
0.0
  0
LINE
  5
AFCD
330
AD0D
100
AcDbEntity
  8
1
  6
Continuous
100
AcDbLine
 10
656.670875
 20
139.7219819999999
 30
0.0
 11
644.970875
 21
139.7219819999999
 31
0.0
  0
LINE
  5
AFCE
330
AD0D
100
AcDbEntity
  8
1
  6
Continuous
100
AcDbLine
 10
795.1304150000002
 20
149.221982
 30
0.0
 11
772.630415
 21
149.221982
 31
0.0
  0
LINE
  5
AFCF
330
AD0D
100
AcDbEntity
  8
1
  6
Continuous
100
AcDbLine
 10
771.630415
 20
186.2219819999999
 30
0.0
 11
771.630415
 21
150.221982
 31
0.0
  0
ARC
  5
AFD0
330
AD0D
100
AcDbEntity
  8
1
  6
Continuous
100
AcDbCircle
 10
772.630415
 20
150.221982
 30
0.0
 40
1.0
100
AcDbArc
 50
180.0
 51
270.0
  0
ARC
  5
AFD1
330
AD0D
100
AcDbEntity
  8
1
  6
Continuous
100
AcDbCircle
 10
772.630415
 20
186.2219819999999
 30
0.0
 40
1.0
100
AcDbArc
 50
90.0
 51
180.0
  0
ARC
  5
AFD2
330
AD0D
100
AcDbEntity
  8
1
  6
Continuous
100
AcDbCircle
 10
784.130415
 20
189.221982
 30
0.0
 40
2.0
100
AcDbArc
 50
270.0
 51
0.0
  0
LINE
  5
AFD3
330
AD0D
100
AcDbEntity
  8
1
  6
Continuous
100
AcDbLine
 10
784.130415
 20
187.2219819999999
 30
0.0
 11
772.630415
 21
187.2219819999999
 31
0.0
  0
LINE
  5
AFD4
330
AD0D
100
AcDbEntity
  8
1
  6
Continuous
100
AcDbLine
 10
799.6304150000002
 20
142.221982
 30
0.0
 11
798.130415
 21
139.7219819999999
 31
0.0
  0
LINE
  5
AFD5
330
AD0D
100
AcDbEntity
  8
1
  6
Continuous
100
AcDbLine
 10
798.130415
 20
139.7219819999999
 30
0.0
 11
795.1304150000002
 21
139.7219819999999
 31
0.0
  0
ARC
  5
AFD6
330
AD0D
100
AcDbEntity
  8
5
  6
PHANTOM
100
AcDbCircle
 10
825.6824529999999
 20
184.992274
 30
0.0
 40
2.0
100
AcDbArc
 50
135.0
 51
225.0
  0
ARC
  5
AFD7
330
AD0D
100
AcDbEntity
  8
1
  6
Continuous
100
AcDbCircle
 10
799.1304150000002
 20
171.0880069999999
 30
0.0
 40
1.0
100
AcDbArc
 50
300.0
 51
0.0
  0
LINE
  5
AFD8
330
AD0D
100
AcDbEntity
  8
5
  6
PHANTOM
100
AcDbLine
 10
839.9292069999997
 20
188.632427
 30
0.0
 11
842.2994630000001
 21
191.0026819999999
 31
0.0
  0
ARC
  5
AFD9
330
AD0D
100
AcDbEntity
  8
5
  6
PHANTOM
100
AcDbCircle
 10
826.3895599999997
 20
194.1846619999999
 30
0.0
 40
4.0
100
AcDbArc
 50
315.0
 51
45.0
  0
LINE
  5
AFDA
330
AD0D
100
AcDbEntity
  8
5
  6
PHANTOM
100
AcDbLine
 10
824.2682399999999
 20
186.4064879999999
 30
0.0
 11
829.217987
 21
191.356235
 31
0.0
  0
LINE
  5
AFDB
330
AD0D
100
AcDbEntity
  8
5
  6
PHANTOM
100
AcDbLine
 10
824.2682399999999
 20
183.578061
 30
0.0
 11
825.6824529999999
 21
182.163847
 31
0.0
  0
ARC
  5
AFDC
330
AD0D
100
AcDbEntity
  8
5
  6
PHANTOM
100
AcDbCircle
 10
826.7431139999999
 20
183.224507
 30
0.0
 40
1.5
100
AcDbArc
 50
225.0
 51
298.167979
  0
ARC
  5
AFDD
330
AD0D
100
AcDbEntity
  8
5
  6
PHANTOM
100
AcDbCircle
 10
839.222101
 20
189.339533
 30
0.0
 40
1.0
100
AcDbArc
 50
298.167979
 51
315.0
  0
LINE
  5
AFDE
330
AD0D
100
AcDbEntity
  8
5
  6
PHANTOM
100
AcDbLine
 10
827.451201
 20
181.902156
 30
0.0
 11
839.694159
 21
188.4579659999999
 31
0.0
  0
ARC
  5
AFDF
330
AD0D
100
AcDbEntity
  8
5
  6
PHANTOM
100
AcDbCircle
 10
841.5923560000001
 20
191.7097889999999
 30
0.0
 40
1.0
100
AcDbArc
 50
315.0
 51
45.0
  0
ARC
  5
AFE0
330
AD0D
100
AcDbEntity
  8
1
  6
Continuous
100
AcDbCircle
 10
714.649982
 20
236.0400559999999
 30
0.0
 40
2.045087
100
AcDbArc
 50
325.613799
 51
25.61379899999999
  0
ARC
  5
AFE1
330
AD0D
100
AcDbEntity
  8
1
  6
Continuous
100
AcDbCircle
 10
714.649982
 20
229.1120559999999
 30
0.0
 40
2.045087
100
AcDbArc
 50
334.3862009999999
 51
34.386201
  0
LINE
  5
AFE2
330
AD0D
100
AcDbEntity
  8
1
  6
Continuous
100
AcDbLine
 10
716.695069
 20
228.5760559999999
 30
0.0
 11
716.3376889999998
 21
227.9570559999999
 31
0.0
  0
ARC
  5
AFE3
330
AD0D
100
AcDbEntity
  8
1
  6
Continuous
100
AcDbCircle
 10
709.054024
 20
232.575556
 30
0.0
 40
7.641045
100
AcDbArc
 50
342.4072529999999
 51
17.59274699999999
  0
LINE
  5
AFE4
330
AD0D
100
AcDbEntity
  8
1
  6
Continuous
100
AcDbLine
 10
716.695069
 20
236.576056
 30
0.0
 11
716.3376889999998
 21
237.195056
 31
0.0
  0
LINE
  5
AFE5
330
AD0D
100
AcDbEntity
  8
4
  6
CENTER
100
AcDbLine
 10
708.195069
 20
232.575556
 30
0.0
 11
725.295069
 21
232.575556
 31
0.0
  0
ARC
  5
AFE6
330
AD0D
100
AcDbEntity
  8
1
  6
Continuous
100
AcDbCircle
 10
644.970875
 20
251.721982
 30
0.0
 40
2.0
100
AcDbArc
 50
90.0
 51
180.0
  0
LINE
  5
AFE7
330
AD0D
100
AcDbEntity
  8
4
  6
CENTER
100
AcDbLine
 10
650.7662299999998
 20
204.221982
 30
0.0
 11
640.011334
 21
204.221982
 31
0.0
  0
LINE
  5
AFE8
330
AD0D
100
AcDbEntity
  8
1
  6
Continuous
100
AcDbLine
 10
642.9708749999998
 20
221.221982
 30
0.0
 11
642.9708749999998
 21
251.721982
 31
0.0
  0
LINE
  5
AFE9
330
AD0D
100
AcDbEntity
  8
1
  6
Continuous
100
AcDbLine
 10
639.670875
 20
208.721982
 30
0.0
 11
639.670875
 21
199.7219819999999
 31
0.0
  0
ARC
  5
AFEA
330
AD0D
100
AcDbEntity
  8
1
  6
Continuous
100
AcDbCircle
 10
648.3708749999998
 20
204.221982
 30
0.0
 40
12.0
100
AcDbArc
 50
164.5059999999999
 51
195.494
  0
LINE
  5
AFEB
330
AD0D
100
AcDbEntity
  8
1
  6
Continuous
100
AcDbLine
 10
639.670875
 20
204.221982
 30
0.0
 11
640.970875
 21
205.521982
 31
0.0
  0
LINE
  5
AFEC
330
AD0D
100
AcDbEntity
  8
1
  6
Continuous
100
AcDbLine
 10
639.670875
 20
208.821982
 30
0.0
 11
639.670875
 21
199.621982
 31
0.0
  0
ARC
  5
AFED
330
AD0D
100
AcDbEntity
  8
1
  6
Continuous
100
AcDbCircle
 10
638.348875
 20
201.443982
 30
0.0
 40
1.6
100
AcDbArc
 50
195.494
 51
265.0
  0
LINE
  5
AFEE
330
AD0D
100
AcDbEntity
  8
1
  6
Continuous
100
AcDbLine
 10
638.2098749999999
 20
199.849982
 30
0.0
 11
639.670875
 21
199.7219819999999
 31
0.0
  0
LINE
  5
AFEF
330
AD0D
100
AcDbEntity
  8
1
  6
Continuous
100
AcDbLine
 10
639.670875
 20
199.621982
 30
0.0
 11
640.970875
 21
199.621982
 31
0.0
  0
ARC
  5
AFF0
330
AD0D
100
AcDbEntity
  8
1
  6
Continuous
100
AcDbCircle
 10
638.348875
 20
206.999982
 30
0.0
 40
1.6
100
AcDbArc
 50
95.00010000000001
 51
164.5059999999999
  0
LINE
  5
AFF1
330
AD0D
100
AcDbEntity
  8
1
  6
Continuous
100
AcDbLine
 10
638.2098749999999
 20
208.593982
 30
0.0
 11
639.670875
 21
208.721982
 31
0.0
  0
LINE
  5
AFF2
330
AD0D
100
AcDbEntity
  8
1
  6
Continuous
100
AcDbLine
 10
639.670875
 20
202.921982
 30
0.0
 11
640.970875
 21
204.221982
 31
0.0
  0
LINE
  5
AFF3
330
AD0D
100
AcDbEntity
  8
1
  6
Continuous
100
AcDbLine
 10
642.9708749999998
 20
221.221982
 30
0.0
 11
640.970875
 21
221.221982
 31
0.0
  0
LINE
  5
AFF4
330
AD0D
100
AcDbEntity
  8
1
  6
Continuous
100
AcDbLine
 10
639.670875
 20
208.821982
 30
0.0
 11
640.970875
 21
208.821982
 31
0.0
  0
LINE
  5
AFF5
330
AD0D
100
AcDbEntity
  8
4
  6
CENTER
100
AcDbLine
 10
631.3708749999998
 20
204.221982
 30
0.0
 11
637.1779289999998
 21
204.221982
 31
0.0
  0
LINE
  5
AFF6
330
AD0D
100
AcDbEntity
  8
1
  6
Continuous
100
AcDbLine
 10
713.195069
 20
236.576056
 30
0.0
 11
713.195069
 21
228.5760559999999
 31
0.0
  0
ARC
  5
AFF7
330
AD0D
100
AcDbEntity
  8
1
  6
Continuous
100
AcDbCircle
 10
715.2401549999998
 20
236.0400559999999
 30
0.0
 40
2.045087
100
AcDbArc
 50
154.3862009999999
 51
214.3862009999999
  0
LINE
  5
AFF8
330
AD0D
100
AcDbEntity
  8
1
  6
Continuous
100
AcDbLine
 10
716.3376889999998
 20
234.8850559999999
 30
0.0
 11
713.552448
 21
234.8850559999999
 31
0.0
  0
LINE
  5
AFF9
330
AD0D
100
AcDbEntity
  8
1
  6
Continuous
100
AcDbLine
 10
716.3376889999998
 20
230.266056
 30
0.0
 11
713.552448
 21
230.266056
 31
0.0
  0
LINE
  5
AFFA
330
AD0D
100
AcDbEntity
  8
1
  6
Continuous
100
AcDbLine
 10
716.3376889999998
 20
227.9570559999999
 30
0.0
 11
713.552448
 21
227.9570559999999
 31
0.0
  0
LINE
  5
AFFB
330
AD0D
100
AcDbEntity
  8
1
  6
Continuous
100
AcDbLine
 10
713.195069
 20
228.5760559999999
 30
0.0
 11
713.552448
 21
227.9570559999999
 31
0.0
  0
ARC
  5
AFFC
330
AD0D
100
AcDbEntity
  8
1
  6
Continuous
100
AcDbCircle
 10
715.2401549999998
 20
229.1120559999999
 30
0.0
 40
2.045087
100
AcDbArc
 50
145.613799
 51
205.613799
  0
ARC
  5
AFFD
330
AD0D
100
AcDbEntity
  8
1
  6
Continuous
100
AcDbCircle
 10
720.836114
 20
232.575556
 30
0.0
 40
7.641045
100
AcDbArc
 50
162.407253
 51
197.592747
  0
LINE
  5
AFFE
330
AD0D
100
AcDbEntity
  8
1
  6
Continuous
100
AcDbLine
 10
716.3376889999998
 20
237.195056
 30
0.0
 11
713.552448
 21
237.195056
 31
0.0
  0
LINE
  5
AFFF
330
AD0D
100
AcDbEntity
  8
1
  6
Continuous
100
AcDbLine
 10
713.195069
 20
236.576056
 30
0.0
 11
713.552448
 21
237.195056
 31
0.0
  0
LINE
  5
B000
330
AD0D
100
AcDbEntity
  8
1
  6
Continuous
100
AcDbLine
 10
656.670875
 20
253.721982
 30
0.0
 11
644.970875
 21
253.721982
 31
0.0
  0
LINE
  5
B001
330
AD0D
100
AcDbEntity
  8
1
  6
Continuous
100
AcDbLine
 10
773.130415
 20
242.681274
 30
0.0
 11
795.1304150000002
 21
242.681274
 31
0.0
  0
LINE
  5
B002
330
AD0D
100
AcDbEntity
  8
1
  6
Continuous
100
AcDbLine
 10
795.1304150000002
 20
244.221982
 30
0.0
 11
770.530415
 21
244.221982
 31
0.0
  0
LINE
  5
B003
330
AD0D
100
AcDbEntity
  8
4
  6
CENTER
100
AcDbLine
 10
776.630415
 20
204.221982
 30
0.0
 11
791.1304150000002
 21
204.221982
 31
0.0
  0
LINE
  5
B004
330
AD0D
100
AcDbEntity
  8
4
  6
CENTER
100
AcDbLine
 10
800.9743929999999
 20
232.7219819999999
 30
0.0
 11
761.930415
 21
232.7219819999999
 31
0.0
  0
LINE
  5
B005
330
AD0D
100
AcDbEntity
  8
1
  6
Continuous
100
AcDbLine
 10
718.795069
 20
239.075556
 30
0.0
 11
718.795069
 21
226.075556
 31
0.0
  0
LINE
  5
B006
330
AD0D
100
AcDbEntity
  8
1
  6
Continuous
100
AcDbLine
 10
718.795069
 20
241.575556
 30
0.0
 11
718.795069
 21
223.575556
 31
0.0
  0
LINE
  5
B007
330
AD0D
100
AcDbEntity
  8
1
  6
Continuous
100
AcDbLine
 10
720.295069
 20
241.575556
 30
0.0
 11
718.795069
 21
241.575556
 31
0.0
  0
LINE
  5
B008
330
AD0D
100
AcDbEntity
  8
1
  6
Continuous
100
AcDbLine
 10
720.295069
 20
223.575556
 30
0.0
 11
718.795069
 21
223.575556
 31
0.0
  0
LINE
  5
B009
330
AD0D
100
AcDbEntity
  8
1
  6
Continuous
100
AcDbLine
 10
717.995069
 20
226.075556
 30
0.0
 11
718.795069
 21
226.075556
 31
0.0
  0
LINE
  5
B00A
330
AD0D
100
AcDbEntity
  8
1
  6
Continuous
100
AcDbLine
 10
717.995069
 20
239.075556
 30
0.0
 11
718.795069
 21
239.075556
 31
0.0
  0
LINE
  5
B00B
330
AD0D
100
AcDbEntity
  8
1
  6
Continuous
100
AcDbLine
 10
716.695069
 20
227.975556
 30
0.0
 11
717.995069
 21
227.975556
 31
0.0
  0
LINE
  5
B00C
330
AD0D
100
AcDbEntity
  8
1
  6
Continuous
100
AcDbLine
 10
716.695069
 20
237.1755559999999
 30
0.0
 11
717.995069
 21
237.1755559999999
 31
0.0
  0
LINE
  5
B00D
330
AD0D
100
AcDbEntity
  8
1
  6
Continuous
100
AcDbLine
 10
716.695069
 20
237.1755559999999
 30
0.0
 11
716.695069
 21
227.975556
 31
0.0
  0
LINE
  5
B00E
330
AD0D
100
AcDbEntity
  8
1
  6
Continuous
100
AcDbLine
 10
717.995069
 20
239.075556
 30
0.0
 11
717.995069
 21
226.075556
 31
0.0
  0
LINE
  5
B00F
330
AD0D
100
AcDbEntity
  8
1
  6
Continuous
100
AcDbLine
 10
717.995069
 20
232.575556
 30
0.0
 11
716.695069
 21
231.2755559999999
 31
0.0
  0
LINE
  5
B010
330
AD0D
100
AcDbEntity
  8
1
  6
Continuous
100
AcDbLine
 10
717.995069
 20
233.875556
 30
0.0
 11
716.695069
 21
232.575556
 31
0.0
  0
LINE
  5
B011
330
AD0D
100
AcDbEntity
  8
1
  6
Continuous
100
AcDbLine
 10
720.295069
 20
241.575556
 30
0.0
 11
720.295069
 21
223.575556
 31
0.0
  0
LINE
  5
B012
330
AD0D
100
AcDbEntity
  8
1
  6
Continuous
100
AcDbLine
 10
782.6304150000002
 20
221.221982
 30
0.0
 11
782.6304150000002
 21
232.7219819999999
 31
0.0
  0
LINE
  5
B013
330
AD0D
100
AcDbEntity
  8
1
  6
Continuous
100
AcDbLine
 10
771.930415
 20
242.464768
 30
0.0
 11
771.930415
 21
221.471982
 31
0.0
  0
LINE
  5
B014
330
AD0D
100
AcDbEntity
  8
1
  6
Continuous
100
AcDbLine
 10
769.930415
 20
221.471982
 30
0.0
 11
769.930415
 21
242.464768
 31
0.0
  0
LINE
  5
B015
330
AD0D
100
AcDbEntity
  8
1
  6
Continuous
100
AcDbLine
 10
772.130415
 20
222.2219819999999
 30
0.0
 11
772.130415
 21
241.6812740000001
 31
0.0
  0
LINE
  5
B016
330
AD0D
100
AcDbEntity
  8
1
  6
Continuous
100
AcDbLine
 10
769.930415
 20
221.471982
 30
0.0
 11
771.930415
 21
221.471982
 31
0.0
  0
ARC
  5
B017
330
AD0D
100
AcDbEntity
  8
1
  6
Continuous
100
AcDbCircle
 10
785.130415
 20
198.7219819999999
 30
0.0
 40
1.0
100
AcDbArc
 50
0.0
 51
90.0
  0
ARC
  5
B018
330
AD0D
100
AcDbEntity
  8
1
  6
Continuous
100
AcDbCircle
 10
785.130415
 20
209.7219819999999
 30
0.0
 40
1.0
100
AcDbArc
 50
270.0
 51
0.0
  0
ARC
  5
B019
330
AD0D
100
AcDbEntity
  8
1
  6
Continuous
100
AcDbCircle
 10
773.130415
 20
222.2219819999999
 30
0.0
 40
1.0
100
AcDbArc
 50
180.0
 51
270.0
  0
LINE
  5
B01A
330
AD0D
100
AcDbEntity
  8
1
  6
Continuous
100
AcDbLine
 10
781.6304150000002
 20
199.7219819999999
 30
0.0
 11
781.6304150000002
 21
208.721982
 31
0.0
  0
LINE
  5
B01B
330
AD0D
100
AcDbEntity
  8
1
  6
Continuous
100
AcDbLine
 10
781.6304150000002
 20
199.7219819999999
 30
0.0
 11
785.130415
 21
199.7219819999999
 31
0.0
  0
ARC
  5
B01C
330
AD0D
100
AcDbEntity
  8
1
  6
Continuous
100
AcDbCircle
 10
784.130415
 20
219.221982
 30
0.0
 40
2.0
100
AcDbArc
 50
0.0
 51
90.0
  0
LINE
  5
B01D
330
AD0D
100
AcDbEntity
  8
1
  6
Continuous
100
AcDbLine
 10
781.6304150000002
 20
208.721982
 30
0.0
 11
785.130415
 21
208.721982
 31
0.0
  0
LINE
  5
B01E
330
AD0D
100
AcDbEntity
  8
1
  6
Continuous
100
AcDbLine
 10
784.130415
 20
221.221982
 30
0.0
 11
773.130415
 21
221.221982
 31
0.0
  0
LINE
  5
B01F
330
AD0D
100
AcDbEntity
  8
1
  6
Continuous
100
AcDbLine
 10
769.930415
 20
242.464768
 30
0.0
 11
771.930415
 21
242.464768
 31
0.0
  0
LINE
  5
B020
330
AD0D
100
AcDbEntity
  8
1
  6
Continuous
100
AcDbLine
 10
766.930415
 20
237.883862
 30
0.0
 11
766.930415
 21
227.5601029999999
 31
0.0
  0
LINE
  5
B021
330
AD0D
100
AcDbEntity
  8
2
  6
Continuous
100
AcDbLine
 10
769.930415
 20
232.7219819999999
 30
0.0
 11
767.230415
 21
227.260103
 31
0.0
  0
LINE
  5
B022
330
AD0D
100
AcDbEntity
  8
2
  6
Continuous
100
AcDbLine
 10
767.230415
 20
232.7219819999999
 30
0.0
 11
769.930415
 21
227.260103
 31
0.0
  0
ARC
  5
B023
330
AD0D
100
AcDbEntity
  8
1
  6
Continuous
100
AcDbCircle
 10
767.230415
 20
227.5601029999999
 30
0.0
 40
0.3
100
AcDbArc
 50
180.0
 51
270.0
  0
LINE
  5
B024
330
AD0D
100
AcDbEntity
  8
1
  6
Continuous
100
AcDbLine
 10
767.230415
 20
227.260103
 30
0.0
 11
769.930415
 21
227.260103
 31
0.0
  0
LINE
  5
B025
330
AD0D
100
AcDbEntity
  8
2
  6
Continuous
100
AcDbLine
 10
767.230415
 20
238.1838619999999
 30
0.0
 11
769.930415
 21
232.7219819999999
 31
0.0
  0
LINE
  5
B026
330
AD0D
100
AcDbEntity
  8
2
  6
Continuous
100
AcDbLine
 10
769.930415
 20
238.1838619999999
 30
0.0
 11
767.230415
 21
232.7219819999999
 31
0.0
  0
ARC
  5
B027
330
AD0D
100
AcDbEntity
  8
1
  6
Continuous
100
AcDbCircle
 10
767.230415
 20
237.883862
 30
0.0
 40
0.3
100
AcDbArc
 50
90.0
 51
180.0
  0
LINE
  5
B028
330
AD0D
100
AcDbEntity
  8
1
  6
Continuous
100
AcDbLine
 10
767.230415
 20
238.1838619999999
 30
0.0
 11
769.930415
 21
238.1838619999999
 31
0.0
  0
LINE
  5
B029
330
AD0D
100
AcDbEntity
  8
1
  6
Continuous
100
AcDbLine
 10
766.930415
 20
232.7219819999999
 30
0.0
 11
769.930415
 21
232.7219819999999
 31
0.0
  0
LINE
  5
B02A
330
AD0D
100
AcDbEntity
  8
1
  6
Continuous
100
AcDbLine
 10
771.930415
 20
226.821982
 30
0.0
 11
772.130415
 21
226.821982
 31
0.0
  0
LINE
  5
B02B
330
AD0D
100
AcDbEntity
  8
1
  6
Continuous
100
AcDbLine
 10
771.930415
 20
238.6219819999999
 30
0.0
 11
772.130415
 21
238.6219819999999
 31
0.0
  0
ARC
  5
B02C
330
AD0D
100
AcDbEntity
  8
1
  6
Continuous
100
AcDbCircle
 10
773.130415
 20
241.6812740000001
 30
0.0
 40
1.0
100
AcDbArc
 50
90.0
 51
180.0
  0
LINE
  5
B02D
330
AD0D
100
AcDbEntity
  8
1
  6
Continuous
100
AcDbLine
 10
770.330415
 20
244.0219819999999
 30
0.0
 11
770.330415
 21
242.464768
 31
0.0
  0
ARC
  5
B02E
330
AD0D
100
AcDbEntity
  8
1
  6
Continuous
100
AcDbCircle
 10
770.530415
 20
244.0219819999999
 30
0.0
 40
0.2
100
AcDbArc
 50
90.0
 51
180.0
  0
LINE
  5
B02F
330
AD0D
100
AcDbEntity
  8
1
  6
Continuous
100
AcDbLine
 10
771.930415
 20
240.340908
 30
0.0
 11
772.130415
 21
240.340908
 31
0.0
  0
LINE
  5
B030
330
AD0D
100
AcDbEntity
  8
1
  6
Continuous
100
AcDbLine
 10
770.330415
 20
244.0219819999999
 30
0.0
 11
770.330415
 21
242.464768
 31
0.0
  0
LINE
  5
B031
330
AD0D
100
AcDbEntity
  8
5
  6
PHANTOM
100
AcDbLine
 10
804.9804149999998
 20
223.3719819999999
 30
0.0
 11
806.99125
 21
219.2398269999999
 31
0.0
  0
ARC
  5
B032
330
AD0D
100
AcDbEntity
  8
1
  6
Continuous
100
AcDbCircle
 10
810.130415
 20
226.2916209999999
 30
0.0
 40
10.0
100
AcDbArc
 50
135.0
 51
180.0
  0
ARC
  5
B033
330
AD0D
100
AcDbEntity
  8
5
  6
PHANTOM
100
AcDbCircle
 10
810.430415
 20
238.428079
 30
0.0
 40
10.0
100
AcDbArc
 50
180.0
 51
225.0
  0
LINE
  5
B034
330
AD0D
100
AcDbEntity
  8
5
  6
PHANTOM
100
AcDbLine
 10
800.4304150000001
 20
241.071982
 30
0.0
 11
800.4304150000001
 21
238.428079
 31
0.0
  0
ARC
  5
B035
330
AD0D
100
AcDbEntity
  8
5
  6
PHANTOM
100
AcDbCircle
 10
799.430415
 20
241.071982
 30
0.0
 40
1.0
100
AcDbArc
 50
0.0
 51
78.46304100000002
  0
LINE
  5
B036
330
AD0D
100
AcDbEntity
  8
1
  6
Continuous
100
AcDbLine
 10
804.928869
 20
235.2322109999999
 30
0.0
 11
803.0593469999999
 21
233.362689
 31
0.0
  0
ARC
  5
B037
330
AD0D
100
AcDbEntity
  8
1
  6
Continuous
100
AcDbCircle
 10
804.2217629999999
 20
235.939318
 30
0.0
 40
1.0
100
AcDbArc
 50
315.0
 51
45.0
  0
LINE
  5
B038
330
AD0D
100
AcDbEntity
  8
1
  6
Continuous
100
AcDbLine
 10
802.2418639999997
 20
239.3334299999999
 30
0.0
 11
804.928869
 21
236.6464249999999
 31
0.0
  0
ARC
  5
B039
330
AD0D
100
AcDbEntity
  8
1
  6
Continuous
100
AcDbCircle
 10
795.6304150000002
 20
232.7219819999999
 30
0.0
 40
9.349999999999999
100
AcDbArc
 50
45.0
 51
64.671502
  0
LINE
  5
B03A
330
AD0D
100
AcDbEntity
  8
1
  6
Continuous
100
AcDbLine
 10
798.130415
 20
253.721982
 30
0.0
 11
799.6304150000002
 21
251.2219819999999
 31
0.0
  0
LINE
  5
B03B
330
AD0D
100
AcDbEntity
  8
1
  6
Continuous
100
AcDbLine
 10
798.130415
 20
253.721982
 30
0.0
 11
795.1304150000002
 21
253.721982
 31
0.0
  0
LINE
  5
B03C
330
AD0D
100
AcDbEntity
  8
1
  6
Continuous
100
AcDbLine
 10
40.25
 20
292.1554669999999
 30
0.0
 11
27.25
 21
292.1554669999999
 31
0.0
  0
LINE
  5
B03D
330
AD0D
100
AcDbEntity
  8
1
  6
Continuous
100
AcDbLine
 10
40.25
 20
304.155467
 30
0.0
 11
27.25
 21
304.155467
 31
0.0
  0
LINE
  5
B03E
330
AD0D
100
AcDbEntity
  8
1
  6
Continuous
100
AcDbLine
 10
28.842308
 20
293.443929
 30
0.0
 11
39.042308
 21
297.693929
 31
0.0
  0
LINE
  5
B03F
330
AD0D
100
AcDbEntity
  8
1
  6
Continuous
100
AcDbLine
 10
28.842308
 20
302.867006
 30
0.0
 11
39.042308
 21
298.617005
 31
0.0
  0
ARC
  5
B040
330
AD0D
100
AcDbEntity
  8
1
  6
Continuous
100
AcDbCircle
 10
27.25
 20
292.6554669999999
 30
0.0
 40
0.5
100
AcDbArc
 50
180.0
 51
270.0
  0
LINE
  5
B041
330
AD0D
100
AcDbEntity
  8
1
  6
Continuous
100
AcDbLine
 10
26.75
 20
303.655467
 30
0.0
 11
26.75
 21
292.6554669999999
 31
0.0
  0
ARC
  5
B042
330
AD0D
100
AcDbEntity
  8
1
  6
Continuous
100
AcDbCircle
 10
27.25
 20
303.655467
 30
0.0
 40
0.5
100
AcDbArc
 50
90.0
 51
180.0
  0
LINE
  5
B043
330
AD0D
100
AcDbEntity
  8
1
  6
Continuous
100
AcDbLine
 10
28.14999999999999
 20
293.9054669999999
 30
0.0
 11
28.14999999999999
 21
302.4054669999999
 31
0.0
  0
ARC
  5
B044
330
AD0D
100
AcDbEntity
  8
1
  6
Continuous
100
AcDbCircle
 10
28.65
 20
302.4054669999999
 30
0.0
 40
0.5
100
AcDbArc
 50
67.380135
 51
180.0
  0
ARC
  5
B045
330
AD0D
100
AcDbEntity
  8
1
  6
Continuous
100
AcDbCircle
 10
28.65
 20
293.9054669999999
 30
0.0
 40
0.5
100
AcDbArc
 50
180.0
 51
292.6198649999999
  0
ARC
  5
B046
330
AD0D
100
AcDbEntity
  8
1
  6
Continuous
100
AcDbCircle
 10
40.25
 20
292.6554669999999
 30
0.0
 40
0.5
100
AcDbArc
 50
270.0
 51
0.0
  0
LINE
  5
B047
330
AD0D
100
AcDbEntity
  8
1
  6
Continuous
100
AcDbLine
 10
40.75
 20
303.655467
 30
0.0
 11
40.75
 21
292.6554669999999
 31
0.0
  0
ARC
  5
B048
330
AD0D
100
AcDbEntity
  8
1
  6
Continuous
100
AcDbCircle
 10
40.25
 20
303.655467
 30
0.0
 40
0.5
100
AcDbArc
 50
0.0
 51
90.0
  0
ARC
  5
B049
330
AD0D
100
AcDbEntity
  8
1
  6
Continuous
100
AcDbCircle
 10
38.85
 20
298.1554669999999
 30
0.0
 40
0.5
100
AcDbArc
 50
292.6198649999999
 51
67.380135
  0
ENDSEC
  0
SECTION
  2
OBJECTS
  0
DICTIONARY
  5
ACFB
330
0
100
AcDbDictionary
281
     1
  3
ACAD_CIP_PREVIOUS_PRODUCT_INFO
350
B0B3
  3
ACAD_COLOR
350
B095
  3
ACAD_DETAILVIEWSTYLE
350
B0AE
  3
ACAD_GROUP
350
ACFC
  3
ACAD_LAYOUT
350
AD08
  3
ACAD_MATERIAL
350
B063
  3
ACAD_MLEADERSTYLE
350
B0AA
  3
ACAD_MLINESTYLE
350
AD05
  3
ACAD_PLOTSETTINGS
350
AD07
  3
ACAD_PLOTSTYLENAME
350
B061
  3
ACAD_SCALELIST
350
B098
  3
ACAD_SECTIONVIEWSTYLE
350
B0AC
  3
ACAD_TABLESTYLE
350
B096
  3
ACAD_VISUALSTYLE
350
B07C
  3
ACDB_RECOMPOSE_DATA
350
B0D1
  3
AcDbVariableDictionary
350
B0C4
  3
DWGPROPS
350
B0D2
  0
DICTIONARY
  5
B0B4
330
ACFF
100
AcDbDictionary
280
     1
281
     1
  3
ADSK_XREC_LAYER_RECONCILED
360
B0B5
  0
DICTIONARY
  5
B0B6
330
AD15
100
AcDbDictionary
280
     1
281
     1
  3
ADSK_XREC_LAYER_RECONCILED
360
B0B7
  0
DICTIONARY
  5
B0B8
330
AD16
100
AcDbDictionary
280
     1
281
     1
  3
ADSK_XREC_LAYER_RECONCILED
360
B0B9
  0
DICTIONARY
  5
B0BA
330
AD17
100
AcDbDictionary
280
     1
281
     1
  3
ADSK_XREC_LAYER_RECONCILED
360
B0BB
  0
DICTIONARY
  5
B0BC
330
AD18
100
AcDbDictionary
280
     1
281
     1
  3
ADSK_XREC_LAYER_RECONCILED
360
B0BD
  0
DICTIONARY
  5
B0BE
330
AD19
100
AcDbDictionary
280
     1
281
     1
  3
ADSK_XREC_LAYER_RECONCILED
360
B0BF
  0
DICTIONARY
  5
B0C0
330
AD1A
100
AcDbDictionary
280
     1
281
     1
  3
ADSK_XREC_LAYER_RECONCILED
360
B0C1
  0
DICTIONARY
  5
B0C2
330
AD1B
100
AcDbDictionary
280
     1
281
     1
  3
ADSK_XREC_LAYER_RECONCILED
360
B0C3
  0
DICTIONARY
  5
B05C
330
AD0D
100
AcDbDictionary
281
     1
  3
ACAD_LAYOUTSELFREF
350
B05D
  0
DICTIONARY
  5
B05A
330
AD09
100
AcDbDictionary
281
     1
  3
ACAD_LAYOUTSELFREF
350
B05B
  0
XRECORD
  5
B0B3
102
{ACAD_REACTORS
330
ACFB
102
}
330
ACFB
100
AcDbXrecord
280
     1
300
ACDLT
300
2014
300
ACDLT_F_S
  0
DICTIONARY
  5
B095
102
{ACAD_REACTORS
330
ACFB
102
}
330
ACFB
100
AcDbDictionary
281
     1
  0
DICTIONARY
  5
B0AE
102
{ACAD_REACTORS
330
ACFB
102
}
330
ACFB
100
AcDbDictionary
281
     1
  3
Imperial24
350
B0AF
  0
DICTIONARY
  5
ACFC
102
{ACAD_REACTORS
330
ACFB
102
}
330
ACFB
100
AcDbDictionary
281
     1
  0
DICTIONARY
  5
AD08
102
{ACAD_REACTORS
330
ACFB
102
}
330
ACFB
100
AcDbDictionary
281
     1
  3
Model
350
B0B0
  3
レイアウト1
350
B0B1
  0
DICTIONARY
  5
B063
102
{ACAD_REACTORS
330
ACFB
102
}
330
ACFB
100
AcDbDictionary
281
     1
  3
ByBlock
350
B06C
  3
ByLayer
350
B064
  3
Global
350
B074
  0
DICTIONARY
  5
B0AA
102
{ACAD_REACTORS
330
ACFB
102
}
330
ACFB
100
AcDbDictionary
281
     1
  3
Standard
350
B0AB
  0
DICTIONARY
  5
AD05
102
{ACAD_REACTORS
330
ACFB
102
}
330
ACFB
100
AcDbDictionary
281
     1
  3
STANDARD
350
AD06
  0
DICTIONARY
  5
AD07
102
{ACAD_REACTORS
330
ACFB
102
}
330
ACFB
100
AcDbDictionary
281
     1
  0
ACDBDICTIONARYWDFLT
  5
B061
102
{ACAD_REACTORS
330
ACFB
102
}
330
ACFB
100
AcDbDictionary
281
     1
  3
Normal
350
B062
100
AcDbDictionaryWithDefault
340
B062
  0
DICTIONARY
  5
B098
102
{ACAD_REACTORS
330
ACFB
102
}
330
ACFB
100
AcDbDictionary
281
     1
  3
A0
350
B099
  3
A1
350
B09A
  3
A2
350
B09B
  3
A3
350
B09C
  3
A4
350
B09D
  3
A5
350
B09E
  3
A6
350
B09F
  3
A7
350
B0A0
  3
A8
350
B0A1
  3
A9
350
B0A2
  3
B0
350
B0A3
  3
B1
350
B0A4
  3
B2
350
B0A5
  3
B3
350
B0A6
  3
B4
350
B0A7
  3
B5
350
B0A8
  3
B6
350
B0A9
  0
DICTIONARY
  5
B0AC
102
{ACAD_REACTORS
330
ACFB
102
}
330
ACFB
100
AcDbDictionary
281
     1
  3
Imperial24
350
B0AD
  0
DICTIONARY
  5
B096
102
{ACAD_REACTORS
330
ACFB
102
}
330
ACFB
100
AcDbDictionary
281
     1
  3
Standard
350
B097
  0
DICTIONARY
  5
B07C
102
{ACAD_REACTORS
330
ACFB
102
}
330
ACFB
100
AcDbDictionary
281
     1
  3
2dWireframe
350
B082
  3
Basic
350
B081
  3
Brighten
350
B088
  3
ColorChange
350
B08C
  3
Conceptual
350
B085
  3
Dim
350
B087
  3
EdgeColorOff
350
B094
  3
Facepattern
350
B08B
  3
Flat
350
B07D
  3
FlatWithEdges
350
B07E
  3
Gouraud
350
B07F
  3
GouraudWithEdges
350
B080
  3
Hidden
350
B084
  3
JitterOff
350
B092
  3
Linepattern
350
B08A
  3
OverhangOff
350
B093
  3
Realistic
350
B086
  3
Shaded
350
B091
  3
Shaded with edges
350
B090
  3
Shades of Gray
350
B08D
  3
Sketchy
350
B08E
  3
Thicken
350
B089
  3
Wireframe
350
B083
  3
X-Ray
350
B08F
  0
XRECORD
  5
B0D1
102
{ACAD_REACTORS
330
ACFB
102
}
330
ACFB
100
AcDbXrecord
280
     1
 90
        1
330
B097
  0
DICTIONARY
  5
B0C4
102
{ACAD_REACTORS
330
ACFB
102
}
330
ACFB
100
AcDbDictionary
281
     1
  3
CANNOSCALE
350
B0C9
  3
CMLEADERSTYLE
350
B0C6
  3
CTABLESTYLE
350
B0C5
  3
CVIEWDETAILSTYLE
350
B0C7
  3
CVIEWSECTIONSTYLE
350
B0C8
  3
DIMASSOC
350
B0CC
  3
INDEXCTL
350
B0CB
  3
SORTENTS
350
B0CA
  3
XCLIPFRAME
350
B0CD
  0
XRECORD
  5
B0D2
102
{ACAD_REACTORS
330
ACFB
102
}
330
ACFB
100
AcDbXrecord
280
     1
  1
DWGPROPS COOKIE
  2

  3

  4

  6

  7

  8
Yoshitsune
  9

300
=
301
=
302
=
303
=
304
=
305
=
306
=
307
=
308
=
309
=
 40
0.0003257986111111
 41
2451417.577616551
 42
2457192.642239595
  1

 90
        0
  0
XRECORD
  5
B0B5
102
{ACAD_REACTORS
330
B0B4
102
}
330
B0B4
100
AcDbXrecord
280
     1
290
     1
  0
XRECORD
  5
B0B7
102
{ACAD_REACTORS
330
B0B6
102
}
330
B0B6
100
AcDbXrecord
280
     1
290
     1
  0
XRECORD
  5
B0B9
102
{ACAD_REACTORS
330
B0B8
102
}
330
B0B8
100
AcDbXrecord
280
     1
290
     1
  0
XRECORD
  5
B0BB
102
{ACAD_REACTORS
330
B0BA
102
}
330
B0BA
100
AcDbXrecord
280
     1
290
     1
  0
XRECORD
  5
B0BD
102
{ACAD_REACTORS
330
B0BC
102
}
330
B0BC
100
AcDbXrecord
280
     1
290
     1
  0
XRECORD
  5
B0BF
102
{ACAD_REACTORS
330
B0BE
102
}
330
B0BE
100
AcDbXrecord
280
     1
290
     1
  0
XRECORD
  5
B0C1
102
{ACAD_REACTORS
330
B0C0
102
}
330
B0C0
100
AcDbXrecord
280
     1
290
     1
  0
XRECORD
  5
B0C3
102
{ACAD_REACTORS
330
B0C2
102
}
330
B0C2
100
AcDbXrecord
280
     1
290
     1
  0
XRECORD
  5
B05D
102
{ACAD_REACTORS
330
B05C
102
}
330
B05C
100
AcDbXrecord
280
     1
340
AD0D
  0
XRECORD
  5
B05B
102
{ACAD_REACTORS
330
B05A
102
}
330
B05A
100
AcDbXrecord
280
     1
340
AD09
  0
ACDBDETAILVIEWSTYLE
  5
B0AF
102
{ACAD_XDICTIONARY
360
B10A
102
}
102
{ACAD_REACTORS
330
B0AE
102
}
330
B0AE
100
AcDbModelDocViewStyle
 70
     0
  3
Imperial24
290
     0
100
AcDbDetailViewStyle
 70
     0
 71
     0
 90
        3
 71
     1
340
AD00
 40
0.24
340
0
 40
0.24
300

 40
0.36
280
     3
 71
     2
340
AD04
 90
       25
 71
     3
340
AD00
 40
0.24
 90
        1
 40
0.75
 90
        1
300
%<\AcVar ViewType \f "%tc1">% %<\AcVar ViewDetailId>%\PSCALE %<\AcVar ViewScale \f "%sn">%
 71
     4
340
AD04
 90
       25
340
AD04
 90
       25
280
     0
  0
LAYOUT
  5
B0B0
102
{ACAD_XDICTIONARY
360
B10C
102
}
102
{ACAD_REACTORS
330
AD08
102
}
330
AD08
100
AcDbPlotSettings
  1

  2
Canon LBP9100C
  4

  6

 40
0.0
 41
0.0
 42
0.0
 43
0.0
 44
0.0
 45
0.0
 46
0.0
 47
0.0
 48
0.0
 49
0.0
140
0.0
141
0.0
142
1.0
143
1.0
 70
  1712
 72
     0
 73
     0
 74
     0
  7

 75
     0
147
1.0
148
0.0
149
0.0
100
AcDbLayout
  1
Model
 70
     1
 71
     0
 10
0.0
 20
0.0
 11
12.0
 21
9.0
 12
0.0
 22
0.0
 32
0.0
 14
0.0
 24
0.0
 34
0.0
 15
0.0
 25
0.0
 35
0.0
146
0.0
 13
0.0
 23
0.0
 33
0.0
 16
1.0
 26
0.0
 36
0.0
 17
0.0
 27
1.0
 37
0.0
 76
     0
330
AD0D
331
B059
  0
LAYOUT
  5
B0B1
102
{ACAD_XDICTIONARY
360
B10E
102
}
102
{ACAD_REACTORS
330
AD08
102
}
330
AD08
100
AcDbPlotSettings
  1

  2
Canon LBP9100C
  4

  6

 40
0.0
 41
0.0
 42
0.0
 43
0.0
 44
0.0
 45
0.0
 46
0.0
 47
0.0
 48
0.0
 49
0.0
140
0.0
141
0.0
142
1.0
143
1.0
 70
   688
 72
     0
 73
     0
 74
     5
  7

 75
    16
147
1.0
148
0.0
149
0.0
100
AcDbLayout
  1
レイアウト1
 70
     0
 71
     1
 10
0.0
 20
0.0
 11
420.0
 21
297.0
 12
0.0
 22
0.0
 32
0.0
 14
1.000000000000000E+20
 24
1.000000000000000E+20
 34
1.000000000000000E+20
 15
-1.000000000000000E+20
 25
-1.000000000000000E+20
 35
-1.000000000000000E+20
146
0.0
 13
0.0
 23
0.0
 33
0.0
 16
1.0
 26
0.0
 36
0.0
 17
0.0
 27
1.0
 37
0.0
 76
     0
330
AD09
  0
MATERIAL
  5
B06C
102
{ACAD_XDICTIONARY
360
B06D
102
}
102
{ACAD_REACTORS
330
B063
102
}
330
B063
100
AcDbMaterial
  1
ByBlock
 72
     0
 43
0.0208333333333333
 43
0.0
 43
0.0
 43
0.0
 43
0.0
 43
0.0208333333333333
 43
0.0
 43
0.0
 43
0.0
 43
0.0
 43
1.0
 43
0.0
 43
0.0
 43
0.0
 43
0.0
 43
1.0
 77
     0
 47
0.0208333333333333
 47
0.0
 47
0.0
 47
0.0
 47
0.0
 47
0.0208333333333333
 47
0.0
 47
0.0
 47
0.0
 47
0.0
 47
1.0
 47
0.0
 47
0.0
 47
0.0
 47
0.0
 47
1.0
171
     0
 49
0.0208333333333333
 49
0.0
 49
0.0
 49
0.0
 49
0.0
 49
0.0208333333333333
 49
0.0
 49
0.0
 49
0.0
 49
0.0
 49
1.0
 49
0.0
 49
0.0
 49
0.0
 49
0.0
 49
1.0
175
     0
142
0.0208333333333333
142
0.0
142
0.0
142
0.0
142
0.0
142
0.0208333333333333
142
0.0
142
0.0
142
0.0
142
0.0
142
1.0
142
0.0
142
0.0
142
0.0
142
0.0
142
1.0
179
     0
144
0.0208333333333333
144
0.0
144
0.0
144
0.0
144
0.0
144
0.0208333333333333
144
0.0
144
0.0
144
0.0
144
0.0
144
1.0
144
0.0
144
0.0
144
0.0
144
0.0
144
1.0
147
0.0208333333333333
147
0.0
147
0.0
147
0.0
147
0.0
147
0.0208333333333333
147
0.0
147
0.0
147
0.0
147
0.0
147
1.0
147
0.0
147
0.0
147
0.0
147
0.0
147
1.0
  0
MATERIAL
  5
B064
102
{ACAD_XDICTIONARY
360
B065
102
}
102
{ACAD_REACTORS
330
B063
102
}
330
B063
100
AcDbMaterial
  1
ByLayer
 72
     0
 43
0.0208333333333333
 43
0.0
 43
0.0
 43
0.0
 43
0.0
 43
0.0208333333333333
 43
0.0
 43
0.0
 43
0.0
 43
0.0
 43
1.0
 43
0.0
 43
0.0
 43
0.0
 43
0.0
 43
1.0
 77
     0
 47
0.0208333333333333
 47
0.0
 47
0.0
 47
0.0
 47
0.0
 47
0.0208333333333333
 47
0.0
 47
0.0
 47
0.0
 47
0.0
 47
1.0
 47
0.0
 47
0.0
 47
0.0
 47
0.0
 47
1.0
171
     0
 49
0.0208333333333333
 49
0.0
 49
0.0
 49
0.0
 49
0.0
 49
0.0208333333333333
 49
0.0
 49
0.0
 49
0.0
 49
0.0
 49
1.0
 49
0.0
 49
0.0
 49
0.0
 49
0.0
 49
1.0
175
     0
142
0.0208333333333333
142
0.0
142
0.0
142
0.0
142
0.0
142
0.0208333333333333
142
0.0
142
0.0
142
0.0
142
0.0
142
1.0
142
0.0
142
0.0
142
0.0
142
0.0
142
1.0
179
     0
144
0.0208333333333333
144
0.0
144
0.0
144
0.0
144
0.0
144
0.0208333333333333
144
0.0
144
0.0
144
0.0
144
0.0
144
1.0
144
0.0
144
0.0
144
0.0
144
0.0
144
1.0
147
0.0208333333333333
147
0.0
147
0.0
147
0.0
147
0.0
147
0.0208333333333333
147
0.0
147
0.0
147
0.0
147
0.0
147
1.0
147
0.0
147
0.0
147
0.0
147
0.0
147
1.0
  0
MATERIAL
  5
B074
102
{ACAD_XDICTIONARY
360
B075
102
}
102
{ACAD_REACTORS
330
B063
102
}
330
B063
100
AcDbMaterial
  1
Global
 72
     0
 43
0.0208333333333333
 43
0.0
 43
0.0
 43
0.0
 43
0.0
 43
0.0208333333333333
 43
0.0
 43
0.0
 43
0.0
 43
0.0
 43
1.0
 43
0.0
 43
0.0
 43
0.0
 43
0.0
 43
1.0
 77
     0
 47
0.0208333333333333
 47
0.0
 47
0.0
 47
0.0
 47
0.0
 47
0.0208333333333333
 47
0.0
 47
0.0
 47
0.0
 47
0.0
 47
1.0
 47
0.0
 47
0.0
 47
0.0
 47
0.0
 47
1.0
171
     0
 49
0.0208333333333333
 49
0.0
 49
0.0
 49
0.0
 49
0.0
 49
0.0208333333333333
 49
0.0
 49
0.0
 49
0.0
 49
0.0
 49
1.0
 49
0.0
 49
0.0
 49
0.0
 49
0.0
 49
1.0
175
     0
142
0.0208333333333333
142
0.0
142
0.0
142
0.0
142
0.0
142
0.0208333333333333
142
0.0
142
0.0
142
0.0
142
0.0
142
1.0
142
0.0
142
0.0
142
0.0
142
0.0
142
1.0
179
     0
144
0.0208333333333333
144
0.0
144
0.0
144
0.0
144
0.0
144
0.0208333333333333
144
0.0
144
0.0
144
0.0
144
0.0
144
1.0
144
0.0
144
0.0
144
0.0
144
0.0
144
1.0
147
0.0208333333333333
147
0.0
147
0.0
147
0.0
147
0.0
147
0.0208333333333333
147
0.0
147
0.0
147
0.0
147
0.0
147
1.0
147
0.0
147
0.0
147
0.0
147
0.0
147
1.0
  0
MLEADERSTYLE
  5
B0AB
102
{ACAD_REACTORS
330
B0AA
102
}
330
B0AA
100
AcDbMLeaderStyle
170
     2
171
     1
172
     0
 90
        2
 40
0.0
 41
0.0
173
     1
 91
-1056964608
340
AD02
 92
       -2
290
     1
 42
0.09
291
     1
 43
0.36
  3
Standard
 44
0.18
300

342
AD00
174
     1
178
     6
175
     1
176
     0
 93
-1056964608
 45
0.18
292
     0
297
     0
 46
0.18
 94
-1056964608
 47
1.0
 49
1.0
140
1.0
293
     1
141
0.0
294
     1
177
     0
142
1.0
295
     0
296
     0
143
0.125
1001
ACAD_MLEADERVER
1070
     2
  0
MLINESTYLE
  5
AD06
102
{ACAD_REACTORS
330
AD05
102
}
330
AD05
100
AcDbMlineStyle
  2
STANDARD
 70
     0
  3

 62
   256
 51
90.0
 52
90.0
 71
     2
 49
0.5
 62
   256
  6
BYLAYER
 49
-0.5
 62
   256
  6
BYLAYER
  0
ACDBPLACEHOLDER
  5
B062
102
{ACAD_REACTORS
330
B061
102
}
330
B061
  0
SCALE
  5
B099
102
{ACAD_REACTORS
330
B098
102
}
330
B098
100
AcDbScale
 70
     0
300
1:1
140
1.0
141
1.0
290
     1
  0
SCALE
  5
B09A
102
{ACAD_REACTORS
330
B098
102
}
330
B098
100
AcDbScale
 70
     0
300
1/128" = 1'-0"
140
0.0078125
141
12.0
290
     0
  0
SCALE
  5
B09B
102
{ACAD_REACTORS
330
B098
102
}
330
B098
100
AcDbScale
 70
     0
300
1/64" = 1'-0"
140
0.015625
141
12.0
290
     0
  0
SCALE
  5
B09C
102
{ACAD_REACTORS
330
B098
102
}
330
B098
100
AcDbScale
 70
     0
300
1/32" = 1'-0"
140
0.03125
141
12.0
290
     0
  0
SCALE
  5
B09D
102
{ACAD_REACTORS
330
B098
102
}
330
B098
100
AcDbScale
 70
     0
300
1/16" = 1'-0"
140
0.0625
141
12.0
290
     0
  0
SCALE
  5
B09E
102
{ACAD_REACTORS
330
B098
102
}
330
B098
100
AcDbScale
 70
     0
300
3/32" = 1'-0"
140
0.09375
141
12.0
290
     0
  0
SCALE
  5
B09F
102
{ACAD_REACTORS
330
B098
102
}
330
B098
100
AcDbScale
 70
     0
300
1/8" = 1'-0"
140
0.125
141
12.0
290
     0
  0
SCALE
  5
B0A0
102
{ACAD_REACTORS
330
B098
102
}
330
B098
100
AcDbScale
 70
     0
300
3/16" = 1'-0"
140
0.1875
141
12.0
290
     0
  0
SCALE
  5
B0A1
102
{ACAD_REACTORS
330
B098
102
}
330
B098
100
AcDbScale
 70
     0
300
1/4" = 1'-0"
140
0.25
141
12.0
290
     0
  0
SCALE
  5
B0A2
102
{ACAD_REACTORS
330
B098
102
}
330
B098
100
AcDbScale
 70
     0
300
3/8" = 1'-0"
140
0.375
141
12.0
290
     0
  0
SCALE
  5
B0A3
102
{ACAD_REACTORS
330
B098
102
}
330
B098
100
AcDbScale
 70
     0
300
1/2" = 1'-0"
140
0.5
141
12.0
290
     0
  0
SCALE
  5
B0A4
102
{ACAD_REACTORS
330
B098
102
}
330
B098
100
AcDbScale
 70
     0
300
3/4" = 1'-0"
140
0.75
141
12.0
290
     0
  0
SCALE
  5
B0A5
102
{ACAD_REACTORS
330
B098
102
}
330
B098
100
AcDbScale
 70
     0
300
1" = 1'-0"
140
1.0
141
12.0
290
     0
  0
SCALE
  5
B0A6
102
{ACAD_REACTORS
330
B098
102
}
330
B098
100
AcDbScale
 70
     0
300
1-1/2" = 1'-0"
140
1.5
141
12.0
290
     0
  0
SCALE
  5
B0A7
102
{ACAD_REACTORS
330
B098
102
}
330
B098
100
AcDbScale
 70
     0
300
3" = 1'-0"
140
3.0
141
12.0
290
     0
  0
SCALE
  5
B0A8
102
{ACAD_REACTORS
330
B098
102
}
330
B098
100
AcDbScale
 70
     0
300
6" = 1'-0"
140
6.0
141
12.0
290
     0
  0
SCALE
  5
B0A9
102
{ACAD_REACTORS
330
B098
102
}
330
B098
100
AcDbScale
 70
     0
300
1'-0" = 1'-0"
140
12.0
141
12.0
290
     0
  0
ACDBSECTIONVIEWSTYLE
  5
B0AD
102
{ACAD_XDICTIONARY
360
B108
102
}
102
{ACAD_REACTORS
330
B0AC
102
}
330
B0AC
100
AcDbModelDocViewStyle
 70
     0
  3
Imperial24
290
     0
100
AcDbSectionViewStyle
 70
     0
 71
     0
 90
       78
 71
     1
340
AD00
 40
0.24
340
0
340
0
 40
0.24
300
I, O, Q, S, X, Z
 40
0.48
 90
        3
 40
0.18
 90
        1
 71
     2
340
AD04
 90
       25
340
AD04
 90
       50
 40
0.24
 40
0.0
 40
0.24
 71
     3
340
AD00
 40
0.24
 90
        1
 40
0.75
 90
        1
300
%<\AcVar ViewType \f "%tc1">% %<\AcVar ViewSectionStartId>%-%<\AcVar ViewSectionEndId>%\PSCALE %<\AcVar ViewScale \f "%sn">%
 71
     4
300
ANSI31
 40
1.0
 90
        0
290
     0
290
     0
 90
        6
 40
0.0
 40
1.570796326794896
 40
0.2617993877991494
 40
1.308996938995747
 40
-0.2617993877991494
 40
1.832595714594046
  0
TABLESTYLE
  5
B097
102
{ACAD_XDICTIONARY
360
B0CF
102
}
102
{ACAD_REACTORS
330
B096
102
}
330
B096
100
AcDbTableStyle
  3
Standard
 70
     0
 71
     0
 40
0.06
 41
0.06
280
     0
281
     0
  7
STANDARD
140
0.18
170
     2
 62
     0
 63
     7
283
     0
274
    -2
284
     1
 64
     0
275
    -2
285
     1
 65
     0
276
    -2
286
     1
 66
     0
277
    -2
287
     1
 67
     0
278
    -2
288
     1
 68
     0
279
    -2
289
     1
 69
     0
  7
STANDARD
140
0.25
170
     5
 62
     0
 63
     7
283
     0
274
    -2
284
     1
 64
     0
275
    -2
285
     1
 65
     0
276
    -2
286
     1
 66
     0
277
    -2
287
     1
 67
     0
278
    -2
288
     1
 68
     0
279
    -2
289
     1
 69
     0
  7
STANDARD
140
0.18
170
     5
 62
     0
 63
     7
283
     0
274
    -2
284
     1
 64
     0
275
    -2
285
     1
 65
     0
276
    -2
286
     1
 66
     0
277
    -2
287
     1
 67
     0
278
    -2
288
     1
 68
     0
279
    -2
289
     1
 69
     0
  0
VISUALSTYLE
  5
B082
102
{ACAD_XDICTIONARY
360
B0E0
102
}
102
{ACAD_REACTORS
330
B07C
102
}
330
B07C
100
AcDbVisualStyle
  2
2dWireframe
 70
     4
 71
     0
 72
     2
 73
     0
 90
        0
 40
-0.6
 41
-30.0
 62
     5
 63
     7
 74
     1
 91
        4
 64
     7
 65
   257
 75
     1
175
     1
 42
1.0
 92
        0
 66
   257
 43
1.0
 76
     1
 77
     6
 78
     2
 67
     7
 79
     5
170
     0
171
     0
290
     0
174
     0
 93
        1
 44
0.0
173
     0
291
     0
 45
0.0
1001
ACAD
1000
AcDbSavedByObjectVersion
1070
     0
  0
VISUALSTYLE
  5
B081
102
{ACAD_XDICTIONARY
360
B0DE
102
}
102
{ACAD_REACTORS
330
B07C
102
}
330
B07C
100
AcDbVisualStyle
  2
Basic
 70
     7
 71
     1
 72
     0
 73
     1
 90
        0
 40
-0.6
 41
-30.0
 62
     5
 63
     7
 74
     0
 91
        4
 64
     7
 65
   257
 75
     1
175
     1
 42
1.0
 92
        8
 66
     7
 43
1.0
 76
     1
 77
     6
 78
     2
 67
     7
 79
     5
170
     0
171
     0
290
     0
174
     0
 93
        1
 44
0.0
173
     0
291
     1
 45
0.0
1001
ACAD
1000
AcDbSavedByObjectVersion
1070
     0
  0
VISUALSTYLE
  5
B088
102
{ACAD_XDICTIONARY
360
B0EC
102
}
102
{ACAD_REACTORS
330
B07C
102
}
330
B07C
100
AcDbVisualStyle
  2
Brighten
 70
    12
 71
     2
 72
     2
 73
     0
 90
        0
 40
-0.6
 41
-30.0
 62
     5
 63
     7
 74
     1
 91
        4
 64
     7
 65
   257
 75
     1
175
     1
 42
1.0
 92
        8
 66
     7
 43
1.0
 76
     1
 77
     6
 78
     2
 67
     7
 79
     5
170
     0
171
     0
290
     0
174
     0
 93
        1
 44
50.0
173
     0
291
     1
 45
0.0
1001
ACAD
1000
AcDbSavedByObjectVersion
1070
     0
  0
VISUALSTYLE
  5
B08C
102
{ACAD_XDICTIONARY
360
B0F4
102
}
102
{ACAD_REACTORS
330
B07C
102
}
330
B07C
100
AcDbVisualStyle
  2
ColorChange
 70
    16
 71
     2
 72
     2
 73
     3
 90
        0
 40
-0.6
 41
-30.0
 62
     5
 63
     8
 74
     1
 91
        4
 64
     7
 65
   257
 75
     1
175
     1
 42
1.0
 92
        8
 66
     8
 43
1.0
 76
     1
 77
     6
 78
     2
 67
     7
 79
     5
170
     0
171
     0
290
     0
174
     0
 93
        1
 44
0.0
173
     0
291
     1
 45
0.0
1001
ACAD
1000
AcDbSavedByObjectVersion
1070
     0
  0
VISUALSTYLE
  5
B085
102
{ACAD_XDICTIONARY
360
B0E6
102
}
102
{ACAD_REACTORS
330
B07C
102
}
330
B07C
100
AcDbVisualStyle
  2
Conceptual
 70
     9
 71
     3
 72
     2
 73
     0
 90
        0
 40
-0.6
 41
-30.0
 62
     5
 63
     7
 74
     2
 91
        2
 64
     7
 65
   257
 75
     1
175
     1
 42
179.0
 92
        8
 66
     7
 43
1.0
 76
     1
 77
     6
 78
     2
 67
     7
 79
     3
170
     0
171
     0
290
     0
174
     0
 93
        1
 44
0.0
173
     0
291
     0
 45
0.0
1001
ACAD
1000
AcDbSavedByObjectVersion
1070
     0
  0
VISUALSTYLE
  5
B087
102
{ACAD_XDICTIONARY
360
B0EA
102
}
102
{ACAD_REACTORS
330
B07C
102
}
330
B07C
100
AcDbVisualStyle
  2
Dim
 70
    11
 71
     2
 72
     2
 73
     0
 90
        0
 40
-0.6
 41
-30.0
 62
     5
 63
     7
 74
     1
 91
        4
 64
     7
 65
   257
 75
     1
175
     1
 42
1.0
 92
        8
 66
     7
 43
1.0
 76
     1
 77
     6
 78
     2
 67
     7
 79
     5
170
     0
171
     0
290
     0
174
     0
 93
        1
 44
-50.0
173
     0
291
     1
 45
0.0
1001
ACAD
1000
AcDbSavedByObjectVersion
1070
     0
  0
VISUALSTYLE
  5
B094
102
{ACAD_XDICTIONARY
360
B104
102
}
102
{ACAD_REACTORS
330
B07C
102
}
330
B07C
100
AcDbVisualStyle
  2
EdgeColorOff
 70
    22
 71
     2
 72
     2
 73
     0
 90
        0
 40
-0.6
 41
-30.0
 62
     5
 63
     7
 74
     1
 91
        4
 64
     7
 65
   257
 75
     1
175
     1
 42
1.0
 92
        8
 66
     7
 43
1.0
 76
     1
 77
     6
 78
     2
 67
     7
 79
     5
170
     0
171
     0
290
     0
174
     0
 93
        1
 44
0.0
173
     0
291
     1
 45
0.0
1001
ACAD
1000
AcDbSavedByObjectVersion
1070
     0
  0
VISUALSTYLE
  5
B08B
102
{ACAD_XDICTIONARY
360
B0F2
102
}
102
{ACAD_REACTORS
330
B07C
102
}
330
B07C
100
AcDbVisualStyle
  2
Facepattern
 70
    15
 71
     2
 72
     2
 73
     0
 90
        0
 40
-0.6
 41
-30.0
 62
     5
 63
     7
 74
     1
 91
        4
 64
     7
 65
   257
 75
     1
175
     1
 42
1.0
 92
        8
 66
     7
 43
1.0
 76
     1
 77
     6
 78
     2
 67
     7
 79
     5
170
     0
171
     0
290
     0
174
     0
 93
        1
 44
0.0
173
     0
291
     1
 45
0.0
1001
ACAD
1000
AcDbSavedByObjectVersion
1070
     0
  0
VISUALSTYLE
  5
B07D
102
{ACAD_XDICTIONARY
360
B0D6
102
}
102
{ACAD_REACTORS
330
B07C
102
}
330
B07C
100
AcDbVisualStyle
  2
Flat
 70
     0
 71
     2
 72
     1
 73
     1
 90
        2
 40
-0.6
 41
30.0
 62
     5
 63
     7
 74
     0
 91
        0
 64
     7
 65
   257
 75
     1
175
     1
 42
1.0
 92
        8
 66
     7
 43
1.0
 76
     1
 77
     6
 78
     2
 67
     7
 79
     5
170
     0
171
     0
290
     0
174
     0
 93
       13
 44
0.0
173
     0
291
     1
 45
0.0
1001
ACAD
1000
AcDbSavedByObjectVersion
1070
     0
  0
VISUALSTYLE
  5
B07E
102
{ACAD_XDICTIONARY
360
B0D8
102
}
102
{ACAD_REACTORS
330
B07C
102
}
330
B07C
100
AcDbVisualStyle
  2
FlatWithEdges
 70
     1
 71
     2
 72
     1
 73
     1
 90
        2
 40
-0.6
 41
30.0
 62
     5
 63
     7
 74
     1
 91
        0
 64
     7
 65
   257
 75
     1
175
     1
 42
1.0
 92
        0
 66
   257
 43
1.0
 76
     1
 77
     6
 78
     2
 67
     7
 79
     5
170
     0
171
     0
290
     0
174
     0
 93
       13
 44
0.0
173
     0
291
     1
 45
0.0
1001
ACAD
1000
AcDbSavedByObjectVersion
1070
     0
  0
VISUALSTYLE
  5
B07F
102
{ACAD_XDICTIONARY
360
B0DA
102
}
102
{ACAD_REACTORS
330
B07C
102
}
330
B07C
100
AcDbVisualStyle
  2
Gouraud
 70
     2
 71
     2
 72
     2
 73
     1
 90
        2
 40
-0.6
 41
30.0
 62
     5
 63
     7
 74
     0
 91
        0
 64
     7
 65
   257
 75
     1
175
     1
 42
1.0
 92
        0
 66
     7
 43
1.0
 76
     1
 77
     6
 78
     2
 67
     7
 79
     5
170
     0
171
     0
290
     0
174
     0
 93
       13
 44
0.0
173
     0
291
     1
 45
0.0
1001
ACAD
1000
AcDbSavedByObjectVersion
1070
     0
  0
VISUALSTYLE
  5
B080
102
{ACAD_XDICTIONARY
360
B0DC
102
}
102
{ACAD_REACTORS
330
B07C
102
}
330
B07C
100
AcDbVisualStyle
  2
GouraudWithEdges
 70
     3
 71
     2
 72
     2
 73
     1
 90
        2
 40
-0.6
 41
30.0
 62
     5
 63
     7
 74
     1
 91
        0
 64
     7
 65
   257
 75
     1
175
     1
 42
1.0
 92
        0
 66
   257
 43
1.0
 76
     1
 77
     6
 78
     2
 67
     7
 79
     5
170
     0
171
     0
290
     0
174
     0
 93
       13
 44
0.0
173
     0
291
     1
 45
0.0
1001
ACAD
1000
AcDbSavedByObjectVersion
1070
     0
  0
VISUALSTYLE
  5
B084
102
{ACAD_XDICTIONARY
360
B0E4
102
}
102
{ACAD_REACTORS
330
B07C
102
}
330
B07C
100
AcDbVisualStyle
  2
Hidden
 70
     6
 71
     1
 72
     2
 73
     2
 90
        0
 40
-0.6
 41
-30.0
 62
     5
 63
     7
 74
     2
 91
        2
 64
     7
 65
   257
 75
     2
175
     1
 42
40.0
 92
        0
 66
   257
 43
1.0
 76
     1
 77
     6
 78
     2
 67
     7
 79
     3
170
     0
171
     0
290
     0
174
     0
 93
        1
 44
0.0
173
     0
291
     0
 45
0.0
1001
ACAD
1000
AcDbSavedByObjectVersion
1070
     0
  0
VISUALSTYLE
  5
B092
102
{ACAD_XDICTIONARY
360
B100
102
}
102
{ACAD_REACTORS
330
B07C
102
}
330
B07C
100
AcDbVisualStyle
  2
JitterOff
 70
    20
 71
     2
 72
     2
 73
     0
 90
        0
 40
-0.6
 41
-30.0
 62
     5
 63
     7
 74
     1
 91
        4
 64
     7
 65
   257
 75
     1
175
     1
 42
1.0
 92
       10
 66
     7
 43
1.0
 76
     1
 77
     6
 78
     2
 67
     7
 79
     5
170
     0
171
     0
290
     0
174
     0
 93
        1
 44
0.0
173
     0
291
     1
 45
0.0
1001
ACAD
1000
AcDbSavedByObjectVersion
1070
     0
  0
VISUALSTYLE
  5
B08A
102
{ACAD_XDICTIONARY
360
B0F0
102
}
102
{ACAD_REACTORS
330
B07C
102
}
330
B07C
100
AcDbVisualStyle
  2
Linepattern
 70
    14
 71
     2
 72
     2
 73
     0
 90
        0
 40
-0.6
 41
-30.0
 62
     5
 63
     7
 74
     1
 91
        4
 64
     7
 65
   257
 75
     7
175
     7
 42
1.0
 92
        8
 66
     7
 43
1.0
 76
     1
 77
     6
 78
     2
 67
     7
 79
     5
170
     0
171
     0
290
     0
174
     0
 93
        1
 44
0.0
173
     0
291
     1
 45
0.0
1001
ACAD
1000
AcDbSavedByObjectVersion
1070
     0
  0
VISUALSTYLE
  5
B093
102
{ACAD_XDICTIONARY
360
B102
102
}
102
{ACAD_REACTORS
330
B07C
102
}
330
B07C
100
AcDbVisualStyle
  2
OverhangOff
 70
    21
 71
     2
 72
     2
 73
     0
 90
        0
 40
-0.6
 41
-30.0
 62
     5
 63
     7
 74
     1
 91
        4
 64
     7
 65
   257
 75
     1
175
     1
 42
1.0
 92
        9
 66
     7
 43
1.0
 76
     1
 77
     6
 78
     2
 67
     7
 79
     5
170
     0
171
     0
290
     0
174
     0
 93
        1
 44
0.0
173
     0
291
     1
 45
0.0
1001
ACAD
1000
AcDbSavedByObjectVersion
1070
     0
  0
VISUALSTYLE
  5
B086
102
{ACAD_XDICTIONARY
360
B0E8
102
}
102
{ACAD_REACTORS
330
B07C
102
}
330
B07C
100
AcDbVisualStyle
  2
Realistic
 70
     8
 71
     2
 72
     3
 73
     0
 90
        2
 40
-0.6
 41
30.0
 62
     5
 63
     7
 74
     0
 91
        0
 64
     7
 65
   257
 75
     1
175
     1
 42
1.0
 92
        8
 66
   257
 43
1.0
 76
     1
 77
     6
 78
     2
 67
     7
 79
     3
170
     0
171
     0
290
     0
174
     0
 93
       13
 44
0.0
173
     0
291
     0
 45
0.0
1001
ACAD
1000
AcDbSavedByObjectVersion
1070
     0
  0
VISUALSTYLE
  5
B091
102
{ACAD_XDICTIONARY
360
B0FE
102
}
102
{ACAD_REACTORS
330
B07C
102
}
330
B07C
100
AcDbVisualStyle
  2
Shaded
 70
    27
 71
     2
 72
     2
 73
     1
 90
        2
 40
-0.6
 41
30.0
 62
     5
 63
     7
 74
     0
 91
        4
 64
     7
 65
   257
 75
     1
175
     1
 42
1.0
 92
        8
 66
   257
 43
1.0
 76
     1
 77
     6
 78
     2
 67
     8
 79
     3
170
     0
171
     0
290
     0
174
     0
 93
        5
 44
0.0
173
     0
291
     0
 45
0.0
1001
ACAD
1000
AcDbSavedByObjectVersion
1070
     0
  0
VISUALSTYLE
  5
B090
102
{ACAD_XDICTIONARY
360
B0FC
102
}
102
{ACAD_REACTORS
330
B07C
102
}
330
B07C
100
AcDbVisualStyle
  2
Shaded with edges
 70
    26
 71
     2
 72
     2
 73
     1
 90
        2
 40
-0.6
 41
30.0
 62
     5
 63
     7
 74
     1
 91
       10
 64
     7
 65
   257
 75
     2
175
     1
 42
1.0
 92
        8
 66
   257
 43
1.0
 76
     1
 77
     6
 78
     2
 67
     7
 79
     3
170
     0
171
     0
290
     0
174
     0
 93
        5
 44
0.0
173
     0
291
     0
 45
0.0
1001
ACAD
1000
AcDbSavedByObjectVersion
1070
     0
  0
VISUALSTYLE
  5
B08D
102
{ACAD_XDICTIONARY
360
B0F6
102
}
102
{ACAD_REACTORS
330
B07C
102
}
330
B07C
100
AcDbVisualStyle
  2
Shades of Gray
 70
    23
 71
     2
 72
     2
 73
     3
 90
        0
 40
-0.6
 41
-30.0
 62
     5
 63
     7
 74
     2
 91
        2
 64
     7
 65
     7
 75
     1
175
     1
 42
40.0
 92
        8
 66
     7
 43
1.0
 76
     1
 77
     6
 78
     2
 67
     7
 79
     3
170
     0
171
     0
290
     0
174
     0
 93
        1
 44
0.0
173
     0
291
     0
 45
0.0
1001
ACAD
1000
AcDbSavedByObjectVersion
1070
     0
  0
VISUALSTYLE
  5
B08E
102
{ACAD_XDICTIONARY
360
B0F8
102
}
102
{ACAD_REACTORS
330
B07C
102
}
330
B07C
100
AcDbVisualStyle
  2
Sketchy
 70
    24
 71
     1
 72
     2
 73
     2
 90
        0
 40
-0.6
 41
-30.0
 62
     5
 63
     7
 74
     2
 91
        2
 64
     7
 65
     7
 75
     1
175
     1
 42
40.0
 92
       11
 66
     7
 43
1.0
 76
     1
 77
     6
 78
     2
 67
     7
 79
     6
170
     0
171
     0
290
     0
174
     0
 93
        1
 44
0.0
173
     0
291
     0
 45
0.0
1001
ACAD
1000
AcDbSavedByObjectVersion
1070
     0
  0
VISUALSTYLE
  5
B089
102
{ACAD_XDICTIONARY
360
B0EE
102
}
102
{ACAD_REACTORS
330
B07C
102
}
330
B07C
100
AcDbVisualStyle
  2
Thicken
 70
    13
 71
     2
 72
     2
 73
     0
 90
        0
 40
-0.6
 41
-30.0
 62
     5
 63
     7
 74
     1
 91
        4
 64
     7
 65
   257
 75
     1
175
     1
 42
1.0
 92
       12
 66
     7
 43
1.0
 76
     1
 77
     6
 78
     2
 67
     7
 79
     5
170
     0
171
     0
290
     0
174
     0
 93
        1
 44
0.0
173
     0
291
     1
 45
0.0
1001
ACAD
1000
AcDbSavedByObjectVersion
1070
     0
  0
VISUALSTYLE
  5
B083
102
{ACAD_XDICTIONARY
360
B0E2
102
}
102
{ACAD_REACTORS
330
B07C
102
}
330
B07C
100
AcDbVisualStyle
  2
Wireframe
 70
     5
 71
     0
 72
     2
 73
     0
 90
        0
 40
-0.6
 41
-30.0
 62
     5
 63
     7
 74
     1
 91
        4
 64
     7
 65
   257
 75
     1
175
     1
 42
1.0
 92
        0
 66
   257
 43
1.0
 76
     1
 77
     6
 78
     2
 67
     7
 79
     3
170
     0
171
     0
290
     0
174
     0
 93
        1
 44
0.0
173
     0
291
     0
 45
0.0
1001
ACAD
1000
AcDbSavedByObjectVersion
1070
     0
  0
VISUALSTYLE
  5
B08F
102
{ACAD_XDICTIONARY
360
B0FA
102
}
102
{ACAD_REACTORS
330
B07C
102
}
330
B07C
100
AcDbVisualStyle
  2
X-Ray
 70
    25
 71
     2
 72
     2
 73
     1
 90
        1
 40
0.5
 41
-30.0
 62
     5
 63
     7
 74
     1
 91
        0
 64
     7
 65
   257
 75
     1
175
     1
 42
1.0
 92
        8
 66
     7
 43
1.0
 76
     1
 77
     6
 78
     2
 67
     7
 79
     3
170
     0
171
     0
290
     0
174
     0
 93
       13
 44
0.0
173
     0
291
     0
 45
0.0
1001
ACAD
1000
AcDbSavedByObjectVersion
1070
     0
  0
DICTIONARYVAR
  5
B0C9
102
{ACAD_REACTORS
330
B0C4
102
}
330
B0C4
100
DictionaryVariables
280
     0
  1
1:1
  0
DICTIONARYVAR
  5
B0C6
102
{ACAD_REACTORS
330
B0C4
102
}
330
B0C4
100
DictionaryVariables
280
     0
  1
STANDARD
  0
DICTIONARYVAR
  5
B0C5
102
{ACAD_REACTORS
330
B0C4
102
}
330
B0C4
100
DictionaryVariables
280
     0
  1
STANDARD
  0
DICTIONARYVAR
  5
B0C7
102
{ACAD_REACTORS
330
B0C4
102
}
330
B0C4
100
DictionaryVariables
280
     0
  1
Imperial24
  0
DICTIONARYVAR
  5
B0C8
102
{ACAD_REACTORS
330
B0C4
102
}
330
B0C4
100
DictionaryVariables
280
     0
  1
Imperial24
  0
DICTIONARYVAR
  5
B0CC
102
{ACAD_REACTORS
330
B0C4
102
}
330
B0C4
100
DictionaryVariables
280
     0
  1
1
  0
DICTIONARYVAR
  5
B0CB
102
{ACAD_REACTORS
330
B0C4
102
}
330
B0C4
100
DictionaryVariables
280
     0
  1
0
  0
DICTIONARYVAR
  5
B0CA
102
{ACAD_REACTORS
330
B0C4
102
}
330
B0C4
100
DictionaryVariables
280
     0
  1
127
  0
DICTIONARYVAR
  5
B0CD
102
{ACAD_REACTORS
330
B0C4
102
}
330
B0C4
100
DictionaryVariables
280
     0
  1
2
  0
DICTIONARY
  5
B10A
330
B0AF
100
AcDbDictionary
280
     1
281
     1
  3
ACAD_XREC_ROUNDTRIP
360
B10B
  0
DICTIONARY
  5
B10C
330
B0B0
100
AcDbDictionary
280
     1
281
     1
  3
ACAD_XREC_ROUNDTRIP
360
B10D
  0
DICTIONARY
  5
B10E
330
B0B1
100
AcDbDictionary
280
     1
281
     1
  3
ACAD_XREC_ROUNDTRIP
360
B10F
  0
DICTIONARY
  5
B06D
330
B06C
100
AcDbDictionary
280
     1
281
     1
  3
ACAD_XREC_ROUNDTRIP
360
B0D4
  3
BUMPTILE
360
B06F
  3
DIFFUSETILE
360
B06E
  3
OPACITYTILE
360
B072
  3
REFLECTIONTILE
360
B071
  3
REFRACTIONTILE
360
B073
  3
SPECULARTILE
360
B070
  0
DICTIONARY
  5
B065
330
B064
100
AcDbDictionary
280
     1
281
     1
  3
ACAD_XREC_ROUNDTRIP
360
B0D3
  3
BUMPTILE
360
B067
  3
DIFFUSETILE
360
B066
  3
OPACITYTILE
360
B06A
  3
REFLECTIONTILE
360
B069
  3
REFRACTIONTILE
360
B06B
  3
SPECULARTILE
360
B068
  0
DICTIONARY
  5
B075
330
B074
100
AcDbDictionary
280
     1
281
     1
  3
ACAD_XREC_ROUNDTRIP
360
B0D5
  3
BUMPTILE
360
B077
  3
DIFFUSETILE
360
B076
  3
OPACITYTILE
360
B07A
  3
REFLECTIONTILE
360
B079
  3
REFRACTIONTILE
360
B07B
  3
SPECULARTILE
360
B078
  0
DICTIONARY
  5
B108
330
B0AD
100
AcDbDictionary
280
     1
281
     1
  3
ACAD_XREC_ROUNDTRIP
360
B109
  0
DICTIONARY
  5
B0CF
330
B097
100
AcDbDictionary
280
     1
281
     1
  3
ACAD_ROUNDTRIP_2008_TABLESTYLE_CELLSTYLEMAP
360
B0D0
  3
ACAD_XREC_ROUNDTRIP
360
B106
  0
DICTIONARY
  5
B0E0
330
B082
100
AcDbDictionary
280
     1
281
     1
  3
ACAD_XREC_ROUNDTRIP
360
B0E1
  0
DICTIONARY
  5
B0DE
330
B081
100
AcDbDictionary
280
     1
281
     1
  3
ACAD_XREC_ROUNDTRIP
360
B0DF
  0
DICTIONARY
  5
B0EC
330
B088
100
AcDbDictionary
280
     1
281
     1
  3
ACAD_XREC_ROUNDTRIP
360
B0ED
  0
DICTIONARY
  5
B0F4
330
B08C
100
AcDbDictionary
280
     1
281
     1
  3
ACAD_XREC_ROUNDTRIP
360
B0F5
  0
DICTIONARY
  5
B0E6
330
B085
100
AcDbDictionary
280
     1
281
     1
  3
ACAD_XREC_ROUNDTRIP
360
B0E7
  0
DICTIONARY
  5
B0EA
330
B087
100
AcDbDictionary
280
     1
281
     1
  3
ACAD_XREC_ROUNDTRIP
360
B0EB
  0
DICTIONARY
  5
B104
330
B094
100
AcDbDictionary
280
     1
281
     1
  3
ACAD_XREC_ROUNDTRIP
360
B105
  0
DICTIONARY
  5
B0F2
330
B08B
100
AcDbDictionary
280
     1
281
     1
  3
ACAD_XREC_ROUNDTRIP
360
B0F3
  0
DICTIONARY
  5
B0D6
330
B07D
100
AcDbDictionary
280
     1
281
     1
  3
ACAD_XREC_ROUNDTRIP
360
B0D7
  0
DICTIONARY
  5
B0D8
330
B07E
100
AcDbDictionary
280
     1
281
     1
  3
ACAD_XREC_ROUNDTRIP
360
B0D9
  0
DICTIONARY
  5
B0DA
330
B07F
100
AcDbDictionary
280
     1
281
     1
  3
ACAD_XREC_ROUNDTRIP
360
B0DB
  0
DICTIONARY
  5
B0DC
330
B080
100
AcDbDictionary
280
     1
281
     1
  3
ACAD_XREC_ROUNDTRIP
360
B0DD
  0
DICTIONARY
  5
B0E4
330
B084
100
AcDbDictionary
280
     1
281
     1
  3
ACAD_XREC_ROUNDTRIP
360
B0E5
  0
DICTIONARY
  5
B100
330
B092
100
AcDbDictionary
280
     1
281
     1
  3
ACAD_XREC_ROUNDTRIP
360
B101
  0
DICTIONARY
  5
B0F0
330
B08A
100
AcDbDictionary
280
     1
281
     1
  3
ACAD_XREC_ROUNDTRIP
360
B0F1
  0
DICTIONARY
  5
B102
330
B093
100
AcDbDictionary
280
     1
281
     1
  3
ACAD_XREC_ROUNDTRIP
360
B103
  0
DICTIONARY
  5
B0E8
330
B086
100
AcDbDictionary
280
     1
281
     1
  3
ACAD_XREC_ROUNDTRIP
360
B0E9
  0
DICTIONARY
  5
B0FE
330
B091
100
AcDbDictionary
280
     1
281
     1
  3
ACAD_XREC_ROUNDTRIP
360
B0FF
  0
DICTIONARY
  5
B0FC
330
B090
100
AcDbDictionary
280
     1
281
     1
  3
ACAD_XREC_ROUNDTRIP
360
B0FD
  0
DICTIONARY
  5
B0F6
330
B08D
100
AcDbDictionary
280
     1
281
     1
  3
ACAD_XREC_ROUNDTRIP
360
B0F7
  0
DICTIONARY
  5
B0F8
330
B08E
100
AcDbDictionary
280
     1
281
     1
  3
ACAD_XREC_ROUNDTRIP
360
B0F9
  0
DICTIONARY
  5
B0EE
330
B089
100
AcDbDictionary
280
     1
281
     1
  3
ACAD_XREC_ROUNDTRIP
360
B0EF
  0
DICTIONARY
  5
B0E2
330
B083
100
AcDbDictionary
280
     1
281
     1
  3
ACAD_XREC_ROUNDTRIP
360
B0E3
  0
DICTIONARY
  5
B0FA
330
B08F
100
AcDbDictionary
280
     1
281
     1
  3
ACAD_XREC_ROUNDTRIP
360
B0FB
  0
XRECORD
  5
B10B
102
{ACAD_REACTORS
330
B10A
102
}
330
B10A
100
AcDbXrecord
280
     1
102
DISPLAYNAME
  1
Imperial24
102
FLAGS
 90
        0
  0
XRECORD
  5
B10D
102
{ACAD_REACTORS
330
B10C
102
}
330
B10C
100
AcDbXrecord
280
     1
102
SHADEPLOT
 70
     0
102
SHADEPLOTRESLEVEL
 70
     2
102
SHADEPLOTCUSTOMDPI
 70
   300
  0
XRECORD
  5
B10F
102
{ACAD_REACTORS
330
B10E
102
}
330
B10E
100
AcDbXrecord
280
     1
102
SHADEPLOT
 70
     0
102
SHADEPLOTRESLEVEL
 70
     2
102
SHADEPLOTCUSTOMDPI
 70
   300
  0
XRECORD
  5
B0D4
102
{ACAD_REACTORS
330
B06D
102
}
330
B06D
100
AcDbXrecord
280
     1
102
MATERIAL
148
0.0
149
0.0
149
0.0
 93
        0
 94
      127
282
     0
 72
     0
 77
     0
171
     0
175
     0
179
     0
273
     0
  0
XRECORD
  5
B06F
102
{ACAD_REACTORS
330
B06D
102
}
330
B06D
100
AcDbXrecord
280
     1
270
     1
271
     1
  0
XRECORD
  5
B06E
102
{ACAD_REACTORS
330
B06D
102
}
330
B06D
100
AcDbXrecord
280
     1
270
     1
271
     1
  0
XRECORD
  5
B072
102
{ACAD_REACTORS
330
B06D
102
}
330
B06D
100
AcDbXrecord
280
     1
270
     1
271
     1
  0
XRECORD
  5
B071
102
{ACAD_REACTORS
330
B06D
102
}
330
B06D
100
AcDbXrecord
280
     1
270
     1
271
     1
  0
XRECORD
  5
B073
102
{ACAD_REACTORS
330
B06D
102
}
330
B06D
100
AcDbXrecord
280
     1
270
     1
271
     1
  0
XRECORD
  5
B070
102
{ACAD_REACTORS
330
B06D
102
}
330
B06D
100
AcDbXrecord
280
     1
270
     1
271
     1
  0
XRECORD
  5
B0D3
102
{ACAD_REACTORS
330
B065
102
}
330
B065
100
AcDbXrecord
280
     1
102
MATERIAL
148
0.0
149
0.0
149
0.0
 93
        0
 94
      127
282
     0
 72
     0
 77
     0
171
     0
175
     0
179
     0
273
     0
  0
XRECORD
  5
B067
102
{ACAD_REACTORS
330
B065
102
}
330
B065
100
AcDbXrecord
280
     1
270
     1
271
     1
  0
XRECORD
  5
B066
102
{ACAD_REACTORS
330
B065
102
}
330
B065
100
AcDbXrecord
280
     1
270
     1
271
     1
  0
XRECORD
  5
B06A
102
{ACAD_REACTORS
330
B065
102
}
330
B065
100
AcDbXrecord
280
     1
270
     1
271
     1
  0
XRECORD
  5
B069
102
{ACAD_REACTORS
330
B065
102
}
330
B065
100
AcDbXrecord
280
     1
270
     1
271
     1
  0
XRECORD
  5
B06B
102
{ACAD_REACTORS
330
B065
102
}
330
B065
100
AcDbXrecord
280
     1
270
     1
271
     1
  0
XRECORD
  5
B068
102
{ACAD_REACTORS
330
B065
102
}
330
B065
100
AcDbXrecord
280
     1
270
     1
271
     1
  0
XRECORD
  5
B0D5
102
{ACAD_REACTORS
330
B075
102
}
330
B075
100
AcDbXrecord
280
     1
102
MATERIAL
148
0.0
149
0.0
149
0.0
 93
        0
 94
      127
282
     0
 72
     0
 77
     0
171
     0
175
     0
179
     0
273
     0
  0
XRECORD
  5
B077
102
{ACAD_REACTORS
330
B075
102
}
330
B075
100
AcDbXrecord
280
     1
270
     1
271
     1
  0
XRECORD
  5
B076
102
{ACAD_REACTORS
330
B075
102
}
330
B075
100
AcDbXrecord
280
     1
270
     1
271
     1
  0
XRECORD
  5
B07A
102
{ACAD_REACTORS
330
B075
102
}
330
B075
100
AcDbXrecord
280
     1
270
     1
271
     1
  0
XRECORD
  5
B079
102
{ACAD_REACTORS
330
B075
102
}
330
B075
100
AcDbXrecord
280
     1
270
     1
271
     1
  0
XRECORD
  5
B07B
102
{ACAD_REACTORS
330
B075
102
}
330
B075
100
AcDbXrecord
280
     1
270
     1
271
     1
  0
XRECORD
  5
B078
102
{ACAD_REACTORS
330
B075
102
}
330
B075
100
AcDbXrecord
280
     1
270
     1
271
     1
  0
XRECORD
  5
B109
102
{ACAD_REACTORS
330
B108
102
}
330
B108
100
AcDbXrecord
280
     1
102
DISPLAYNAME
  1
Imperial24
102
FLAGS
 90
        0
  0
CELLSTYLEMAP
  5
B0D0
102
{ACAD_REACTORS
330
B0CF
102
}
330
B0CF
100
AcDbCellStyleMap
 90
        3
300
CELLSTYLE
  1
TABLEFORMAT_BEGIN
 90
        5
170
     1
 91
        0
 92
    32768
 62
   257
 93
        1
300
CONTENTFORMAT
  1
CONTENTFORMAT_BEGIN
 90
        0
 91
        0
 92
      512
 93
        0
300

 40
0.0
140
1.0
 94
        5
 62
     0
340
AD00
144
0.25
309
CONTENTFORMAT_END
171
     0
 94
        0
309
TABLEFORMAT_END
  1
CELLSTYLE_BEGIN
 90
        1
 91
        1
300
_TITLE
309
CELLSTYLE_END
300
CELLSTYLE
  1
TABLEFORMAT_BEGIN
 90
        5
170
     1
 91
        0
 92
        0
 62
   257
 93
        1
300
CONTENTFORMAT
  1
CONTENTFORMAT_BEGIN
 90
        0
 91
        0
 92
      512
 93
        0
300

 40
0.0
140
1.0
 94
        5
 62
     0
340
AD00
144
0.18
309
CONTENTFORMAT_END
171
     0
 94
        0
309
TABLEFORMAT_END
  1
CELLSTYLE_BEGIN
 90
        2
 91
        1
300
_HEADER
309
CELLSTYLE_END
300
CELLSTYLE
  1
TABLEFORMAT_BEGIN
 90
        5
170
     1
 91
        0
 92
        0
 62
   257
 93
        1
300
CONTENTFORMAT
  1
CONTENTFORMAT_BEGIN
 90
        0
 91
        0
 92
      512
 93
        0
300

 40
0.0
140
1.0
 94
        2
 62
     0
340
AD00
144
0.18
309
CONTENTFORMAT_END
171
     0
 94
        0
309
TABLEFORMAT_END
  1
CELLSTYLE_BEGIN
 90
        3
 91
        2
300
_DATA
309
CELLSTYLE_END
  0
XRECORD
  5
B106
102
{ACAD_REACTORS
330
B0CF
102
}
330
B0CF
100
AcDbXrecord
280
     1
102
ACAD_ROUNDTRIP_PRE2007_TABLESTYLE
 90
      512
 91
        0
  1

 92
      512
 93
        0
  2

 94
      512
 95
        0
  3

  0
XRECORD
  5
B0E1
102
{ACAD_REACTORS
330
B0E0
102
}
330
B0E0
100
AcDbXrecord
280
     1
102
RTVSPost2010Prop28
280
     1
102
RTVSPost2010PropOp28
 70
     1
102
RTVSPost2010Prop29
280
     1
102
RTVSPost2010PropOp29
 70
     1
102
RTVSPost2010Prop30
280
     0
102
RTVSPost2010PropOp30
 70
     1
102
RTVSPost2010Prop31
280
     0
102
RTVSPost2010PropOp31
 70
     1
102
RTVSPost2010Prop32
280
     0
102
RTVSPost2010PropOp32
 70
     1
102
RTVSPost2010Prop33
280
     0
102
RTVSPost2010PropOp33
 70
     1
102
RTVSPost2010Prop34
280
     0
102
RTVSPost2010PropOp34
 70
     1
102
RTVSPost2010Prop35
280
     0
102
RTVSPost2010PropOp35
 70
     1
102
RTVSPost2010Prop36
280
     0
102
RTVSPost2010PropOp36
 70
     1
102
RTVSPost2010Prop37
 90
       50
102
RTVSPost2010PropOp37
 70
     1
102
RTVSPost2010Prop38
140
0.0
102
RTVSPost2010PropOp38
 70
     1
102
RTVSPost2010Prop39
140
1.0
102
RTVSPost2010PropOp39
 70
     1
102
RTVSPost2010Prop40
 90
        0
102
RTVSPost2010PropOp40
 70
     1
102
RTVSPost2010Prop41ColorIndex
 90
       18
102
RTVSPost2010Prop41ColorRGB
 90
        0
102
RTVSPost2010PropOp41
 70
     1
102
RTVSPost2010Prop42
 90
       50
102
RTVSPost2010PropOp42
 70
     1
102
RTVSPost2010Prop43
 90
        3
102
RTVSPost2010PropOp43
 70
     1
102
RTVSPost2010Prop44ColorIndex
 90
        5
102
RTVSPost2010Prop44ColorRGB
 90
      255
102
RTVSPost2010PropOp44
 70
     1
102
RTVSPost2010Prop45
280
     0
102
RTVSPost2010PropOp45
 70
     1
102
RTVSPost2010Prop46
 90
       50
102
RTVSPost2010PropOp46
 70
     1
102
RTVSPost2010Prop47
 90
       50
102
RTVSPost2010PropOp47
 70
     1
102
RTVSPost2010Prop48
 90
       50
102
RTVSPost2010PropOp48
 70
     1
102
RTVSPost2010Prop49
280
     0
102
RTVSPost2010PropOp49
 70
     1
102
RTVSPost2010Prop50
 90
       50
102
RTVSPost2010PropOp50
 70
     1
102
RTVSPost2010Prop51ColorIndex
 90
      256
102
RTVSPost2010Prop51ColorRGB
 90
-16777216
102
RTVSPost2010PropOp51
 70
     0
102
RTVSPost2010Prop52
140
1.0
102
RTVSPost2010PropOp52
 70
     0
102
RTVSPost2010Prop53
 90
        2
102
RTVSPost2010PropOp53
 70
     1
102
RTVSPost2010Prop54
  1
strokes_ogs.tif
102
RTVSPost2010PropOp54
 70
     1
102
RTVSPost2010Prop55
280
     0
102
RTVSPost2010PropOp55
 70
     1
102
RTVSPost2010Prop56
140
1.0
102
RTVSPost2010PropOp56
 70
     1
102
RTVSPost2010Prop57
140
1.0
102
RTVSPost2010PropOp57
 70
     1
102
RTVSPropertyOp0
 70
     1
102
RTVSPropertyOp1
 70
     1
102
RTVSPropertyOp2
 70
     1
102
RTVSPropertyOp3
 70
     1
102
RTVSPropertyOp4
 70
     1
102
RTVSPropertyOp5
 70
     1
102
RTVSPropertyOp6
 70
     1
102
RTVSPropertyOp7
 70
     1
102
RTVSPropertyOp8
 70
     1
102
RTVSPropertyOp9
 70
     1
102
RTVSPropertyOp10
 70
     1
102
RTVSPropertyOp11
 70
     1
102
RTVSPropertyOp12
 70
     1
102
RTVSPropertyOp13
 70
     1
102
RTVSPropertyOp14
 70
     1
102
RTVSPropertyOp15
 70
     1
102
RTVSPropertyOp16
 70
     1
102
RTVSPropertyOp17
 70
     1
102
RTVSPropertyOp18
 70
     1
102
RTVSPropertyOp19
 70
     1
102
RTVSPropertyOp20
 70
     1
102
RTVSPropertyOp21
 70
     1
102
RTVSPropertyOp22
 70
     1
102
RTVSPropertyOp23
 70
     1
102
RTVSPropertyOp24
 70
     1
102
RTVSPropertyOp25
 70
     1
102
RTVSPropertyOp26
 70
     1
102
RTVSPropertyOp27
 70
     1
102
RTVSPropertyOp28
 70
     1
102
RTVSPropertyOp29
 70
     1
102
RTVSPropertyOp30
 70
     1
102
RTVSPropertyOp31
 70
     1
102
RTVSPropertyOp32
 70
     1
102
RTVSPropertyOp33
 70
     1
102
RTVSPropertyOp34
 70
     1
102
RTVSPropertyOp35
 70
     1
102
RTVSPropertyOp36
 70
     1
102
RTVSPropertyOp37
 70
     1
102
RTVSPropertyOp38
 70
     1
102
RTVSPropertyOp39
 70
     1
102
RTVSPropertyOp40
 70
     1
102
RTVSPropertyOp41
 70
     1
102
RTVSPropertyOp42
 70
     1
102
RTVSPropertyOp43
 70
     1
102
RTVSPropertyOp44
 70
     1
102
RTVSPropertyOp45
 70
     1
102
RTVSPropertyOp46
 70
     1
102
RTVSPropertyOp47
 70
     1
102
RTVSPropertyOp48
 70
     1
102
RTVSPropertyOp49
 70
     1
102
RTVSPropertyOp50
 70
     1
102
RTVSPropertyOp51
 70
     0
102
RTVSPropertyOp52
 70
     0
102
RTVSPropertyOp53
 70
     1
102
RTVSPropertyOp54
 70
     1
102
RTVSPropertyOp55
 70
     1
102
RTVSPropertyOp56
 70
     1
102
RTVSPropertyOp57
 70
     1
102
RTVSPropertyOp58
 70
     1
102
RTVSPropertyOp59
 70
     1
102
RTVSPropertyOp60
 70
     1
102
RTVSPropertyOp61
 70
     1
102
RTVSPropertyOp62
 70
     1
  0
XRECORD
  5
B0DF
102
{ACAD_REACTORS
330
B0DE
102
}
330
B0DE
100
AcDbXrecord
280
     1
102
RTVSPost2010Prop28
280
     0
102
RTVSPost2010PropOp28
 70
     1
102
RTVSPost2010Prop29
280
     1
102
RTVSPost2010PropOp29
 70
     1
102
RTVSPost2010Prop30
280
     1
102
RTVSPost2010PropOp30
 70
     1
102
RTVSPost2010Prop31
280
     0
102
RTVSPost2010PropOp31
 70
     1
102
RTVSPost2010Prop32
280
     0
102
RTVSPost2010PropOp32
 70
     1
102
RTVSPost2010Prop33
280
     0
102
RTVSPost2010PropOp33
 70
     1
102
RTVSPost2010Prop34
280
     0
102
RTVSPost2010PropOp34
 70
     1
102
RTVSPost2010Prop35
280
     0
102
RTVSPost2010PropOp35
 70
     1
102
RTVSPost2010Prop36
280
     0
102
RTVSPost2010PropOp36
 70
     1
102
RTVSPost2010Prop37
 90
       50
102
RTVSPost2010PropOp37
 70
     1
102
RTVSPost2010Prop38
140
0.0
102
RTVSPost2010PropOp38
 70
     1
102
RTVSPost2010Prop39
140
1.0
102
RTVSPost2010PropOp39
 70
     1
102
RTVSPost2010Prop40
 90
        0
102
RTVSPost2010PropOp40
 70
     1
102
RTVSPost2010Prop41ColorIndex
 90
       18
102
RTVSPost2010Prop41ColorRGB
 90
        0
102
RTVSPost2010PropOp41
 70
     1
102
RTVSPost2010Prop42
 90
       50
102
RTVSPost2010PropOp42
 70
     1
102
RTVSPost2010Prop43
 90
        3
102
RTVSPost2010PropOp43
 70
     1
102
RTVSPost2010Prop44ColorIndex
 90
        5
102
RTVSPost2010Prop44ColorRGB
 90
      255
102
RTVSPost2010PropOp44
 70
     1
102
RTVSPost2010Prop45
280
     0
102
RTVSPost2010PropOp45
 70
     1
102
RTVSPost2010Prop46
 90
       50
102
RTVSPost2010PropOp46
 70
     1
102
RTVSPost2010Prop47
 90
       50
102
RTVSPost2010PropOp47
 70
     1
102
RTVSPost2010Prop48
 90
       50
102
RTVSPost2010PropOp48
 70
     1
102
RTVSPost2010Prop49
280
     0
102
RTVSPost2010PropOp49
 70
     1
102
RTVSPost2010Prop50
 90
       50
102
RTVSPost2010PropOp50
 70
     1
102
RTVSPost2010Prop51ColorIndex
 90
      256
102
RTVSPost2010Prop51ColorRGB
 90
-16777216
102
RTVSPost2010PropOp51
 70
     0
102
RTVSPost2010Prop52
140
1.0
102
RTVSPost2010PropOp52
 70
     0
102
RTVSPost2010Prop53
 90
        2
102
RTVSPost2010PropOp53
 70
     1
102
RTVSPost2010Prop54
  1
strokes_ogs.tif
102
RTVSPost2010PropOp54
 70
     1
102
RTVSPost2010Prop55
280
     0
102
RTVSPost2010PropOp55
 70
     1
102
RTVSPost2010Prop56
140
1.0
102
RTVSPost2010PropOp56
 70
     1
102
RTVSPost2010Prop57
140
1.0
102
RTVSPost2010PropOp57
 70
     1
102
RTVSPropertyOp0
 70
     1
102
RTVSPropertyOp1
 70
     1
102
RTVSPropertyOp2
 70
     1
102
RTVSPropertyOp3
 70
     1
102
RTVSPropertyOp4
 70
     1
102
RTVSPropertyOp5
 70
     1
102
RTVSPropertyOp6
 70
     1
102
RTVSPropertyOp7
 70
     1
102
RTVSPropertyOp8
 70
     1
102
RTVSPropertyOp9
 70
     1
102
RTVSPropertyOp10
 70
     1
102
RTVSPropertyOp11
 70
     1
102
RTVSPropertyOp12
 70
     1
102
RTVSPropertyOp13
 70
     1
102
RTVSPropertyOp14
 70
     1
102
RTVSPropertyOp15
 70
     1
102
RTVSPropertyOp16
 70
     1
102
RTVSPropertyOp17
 70
     1
102
RTVSPropertyOp18
 70
     1
102
RTVSPropertyOp19
 70
     1
102
RTVSPropertyOp20
 70
     1
102
RTVSPropertyOp21
 70
     1
102
RTVSPropertyOp22
 70
     1
102
RTVSPropertyOp23
 70
     1
102
RTVSPropertyOp24
 70
     1
102
RTVSPropertyOp25
 70
     1
102
RTVSPropertyOp26
 70
     1
102
RTVSPropertyOp27
 70
     1
102
RTVSPropertyOp28
 70
     1
102
RTVSPropertyOp29
 70
     1
102
RTVSPropertyOp30
 70
     1
102
RTVSPropertyOp31
 70
     1
102
RTVSPropertyOp32
 70
     1
102
RTVSPropertyOp33
 70
     1
102
RTVSPropertyOp34
 70
     1
102
RTVSPropertyOp35
 70
     1
102
RTVSPropertyOp36
 70
     1
102
RTVSPropertyOp37
 70
     1
102
RTVSPropertyOp38
 70
     1
102
RTVSPropertyOp39
 70
     1
102
RTVSPropertyOp40
 70
     1
102
RTVSPropertyOp41
 70
     1
102
RTVSPropertyOp42
 70
     1
102
RTVSPropertyOp43
 70
     1
102
RTVSPropertyOp44
 70
     1
102
RTVSPropertyOp45
 70
     1
102
RTVSPropertyOp46
 70
     1
102
RTVSPropertyOp47
 70
     1
102
RTVSPropertyOp48
 70
     1
102
RTVSPropertyOp49
 70
     1
102
RTVSPropertyOp50
 70
     1
102
RTVSPropertyOp51
 70
     0
102
RTVSPropertyOp52
 70
     0
102
RTVSPropertyOp53
 70
     1
102
RTVSPropertyOp54
 70
     1
102
RTVSPropertyOp55
 70
     1
102
RTVSPropertyOp56
 70
     1
102
RTVSPropertyOp57
 70
     1
102
RTVSPropertyOp58
 70
     1
102
RTVSPropertyOp59
 70
     1
102
RTVSPropertyOp60
 70
     1
102
RTVSPropertyOp61
 70
     1
102
RTVSPropertyOp62
 70
     1
  0
XRECORD
  5
B0ED
102
{ACAD_REACTORS
330
B0EC
102
}
330
B0EC
100
AcDbXrecord
280
     1
102
RTVSPost2010Prop28
280
     0
102
RTVSPost2010PropOp28
 70
     1
102
RTVSPost2010Prop29
280
     1
102
RTVSPost2010PropOp29
 70
     1
102
RTVSPost2010Prop30
280
     1
102
RTVSPost2010PropOp30
 70
     1
102
RTVSPost2010Prop31
280
     0
102
RTVSPost2010PropOp31
 70
     1
102
RTVSPost2010Prop32
280
     0
102
RTVSPost2010PropOp32
 70
     1
102
RTVSPost2010Prop33
280
     0
102
RTVSPost2010PropOp33
 70
     1
102
RTVSPost2010Prop34
280
     0
102
RTVSPost2010PropOp34
 70
     1
102
RTVSPost2010Prop35
280
     0
102
RTVSPost2010PropOp35
 70
     1
102
RTVSPost2010Prop36
280
     0
102
RTVSPost2010PropOp36
 70
     1
102
RTVSPost2010Prop37
 90
       50
102
RTVSPost2010PropOp37
 70
     1
102
RTVSPost2010Prop38
140
0.0
102
RTVSPost2010PropOp38
 70
     1
102
RTVSPost2010Prop39
140
1.0
102
RTVSPost2010PropOp39
 70
     1
102
RTVSPost2010Prop40
 90
        0
102
RTVSPost2010PropOp40
 70
     1
102
RTVSPost2010Prop41ColorIndex
 90
       18
102
RTVSPost2010Prop41ColorRGB
 90
        0
102
RTVSPost2010PropOp41
 70
     1
102
RTVSPost2010Prop42
 90
       50
102
RTVSPost2010PropOp42
 70
     1
102
RTVSPost2010Prop43
 90
        3
102
RTVSPost2010PropOp43
 70
     1
102
RTVSPost2010Prop44ColorIndex
 90
        5
102
RTVSPost2010Prop44ColorRGB
 90
      255
102
RTVSPost2010PropOp44
 70
     1
102
RTVSPost2010Prop45
280
     0
102
RTVSPost2010PropOp45
 70
     1
102
RTVSPost2010Prop46
 90
       50
102
RTVSPost2010PropOp46
 70
     1
102
RTVSPost2010Prop47
 90
       50
102
RTVSPost2010PropOp47
 70
     1
102
RTVSPost2010Prop48
 90
       50
102
RTVSPost2010PropOp48
 70
     1
102
RTVSPost2010Prop49
280
     0
102
RTVSPost2010PropOp49
 70
     1
102
RTVSPost2010Prop50
 90
       50
102
RTVSPost2010PropOp50
 70
     1
102
RTVSPost2010Prop51ColorIndex
 90
      256
102
RTVSPost2010Prop51ColorRGB
 90
-16777216
102
RTVSPost2010PropOp51
 70
     0
102
RTVSPost2010Prop52
140
1.0
102
RTVSPost2010PropOp52
 70
     0
102
RTVSPost2010Prop53
 90
        2
102
RTVSPost2010PropOp53
 70
     1
102
RTVSPost2010Prop54
  1
strokes_ogs.tif
102
RTVSPost2010PropOp54
 70
     1
102
RTVSPost2010Prop55
280
     0
102
RTVSPost2010PropOp55
 70
     1
102
RTVSPost2010Prop56
140
1.0
102
RTVSPost2010PropOp56
 70
     1
102
RTVSPost2010Prop57
140
1.0
102
RTVSPost2010PropOp57
 70
     1
102
RTVSPropertyOp0
 70
     1
102
RTVSPropertyOp1
 70
     1
102
RTVSPropertyOp2
 70
     1
102
RTVSPropertyOp3
 70
     1
102
RTVSPropertyOp4
 70
     1
102
RTVSPropertyOp5
 70
     1
102
RTVSPropertyOp6
 70
     1
102
RTVSPropertyOp7
 70
     1
102
RTVSPropertyOp8
 70
     1
102
RTVSPropertyOp9
 70
     1
102
RTVSPropertyOp10
 70
     1
102
RTVSPropertyOp11
 70
     1
102
RTVSPropertyOp12
 70
     1
102
RTVSPropertyOp13
 70
     1
102
RTVSPropertyOp14
 70
     1
102
RTVSPropertyOp15
 70
     1
102
RTVSPropertyOp16
 70
     1
102
RTVSPropertyOp17
 70
     1
102
RTVSPropertyOp18
 70
     1
102
RTVSPropertyOp19
 70
     1
102
RTVSPropertyOp20
 70
     1
102
RTVSPropertyOp21
 70
     1
102
RTVSPropertyOp22
 70
     1
102
RTVSPropertyOp23
 70
     1
102
RTVSPropertyOp24
 70
     1
102
RTVSPropertyOp25
 70
     1
102
RTVSPropertyOp26
 70
     1
102
RTVSPropertyOp27
 70
     1
102
RTVSPropertyOp28
 70
     1
102
RTVSPropertyOp29
 70
     1
102
RTVSPropertyOp30
 70
     1
102
RTVSPropertyOp31
 70
     1
102
RTVSPropertyOp32
 70
     1
102
RTVSPropertyOp33
 70
     1
102
RTVSPropertyOp34
 70
     1
102
RTVSPropertyOp35
 70
     1
102
RTVSPropertyOp36
 70
     1
102
RTVSPropertyOp37
 70
     1
102
RTVSPropertyOp38
 70
     1
102
RTVSPropertyOp39
 70
     1
102
RTVSPropertyOp40
 70
     1
102
RTVSPropertyOp41
 70
     1
102
RTVSPropertyOp42
 70
     1
102
RTVSPropertyOp43
 70
     1
102
RTVSPropertyOp44
 70
     1
102
RTVSPropertyOp45
 70
     1
102
RTVSPropertyOp46
 70
     1
102
RTVSPropertyOp47
 70
     1
102
RTVSPropertyOp48
 70
     1
102
RTVSPropertyOp49
 70
     1
102
RTVSPropertyOp50
 70
     1
102
RTVSPropertyOp51
 70
     0
102
RTVSPropertyOp52
 70
     0
102
RTVSPropertyOp53
 70
     1
102
RTVSPropertyOp54
 70
     1
102
RTVSPropertyOp55
 70
     1
102
RTVSPropertyOp56
 70
     1
102
RTVSPropertyOp57
 70
     1
102
RTVSPropertyOp58
 70
     1
102
RTVSPropertyOp59
 70
     1
102
RTVSPropertyOp60
 70
     1
102
RTVSPropertyOp61
 70
     1
102
RTVSPropertyOp62
 70
     1
  0
XRECORD
  5
B0F5
102
{ACAD_REACTORS
330
B0F4
102
}
330
B0F4
100
AcDbXrecord
280
     1
102
RTVSPost2010Prop28
280
     0
102
RTVSPost2010PropOp28
 70
     1
102
RTVSPost2010Prop29
280
     1
102
RTVSPost2010PropOp29
 70
     1
102
RTVSPost2010Prop30
280
     1
102
RTVSPost2010PropOp30
 70
     1
102
RTVSPost2010Prop31
280
     0
102
RTVSPost2010PropOp31
 70
     1
102
RTVSPost2010Prop32
280
     0
102
RTVSPost2010PropOp32
 70
     1
102
RTVSPost2010Prop33
280
     0
102
RTVSPost2010PropOp33
 70
     1
102
RTVSPost2010Prop34
280
     0
102
RTVSPost2010PropOp34
 70
     1
102
RTVSPost2010Prop35
280
     0
102
RTVSPost2010PropOp35
 70
     1
102
RTVSPost2010Prop36
280
     0
102
RTVSPost2010PropOp36
 70
     1
102
RTVSPost2010Prop37
 90
       50
102
RTVSPost2010PropOp37
 70
     1
102
RTVSPost2010Prop38
140
0.0
102
RTVSPost2010PropOp38
 70
     1
102
RTVSPost2010Prop39
140
1.0
102
RTVSPost2010PropOp39
 70
     1
102
RTVSPost2010Prop40
 90
        0
102
RTVSPost2010PropOp40
 70
     1
102
RTVSPost2010Prop41ColorIndex
 90
       18
102
RTVSPost2010Prop41ColorRGB
 90
        0
102
RTVSPost2010PropOp41
 70
     1
102
RTVSPost2010Prop42
 90
       50
102
RTVSPost2010PropOp42
 70
     1
102
RTVSPost2010Prop43
 90
        3
102
RTVSPost2010PropOp43
 70
     1
102
RTVSPost2010Prop44ColorIndex
 90
        5
102
RTVSPost2010Prop44ColorRGB
 90
      255
102
RTVSPost2010PropOp44
 70
     1
102
RTVSPost2010Prop45
280
     0
102
RTVSPost2010PropOp45
 70
     1
102
RTVSPost2010Prop46
 90
       50
102
RTVSPost2010PropOp46
 70
     1
102
RTVSPost2010Prop47
 90
       50
102
RTVSPost2010PropOp47
 70
     1
102
RTVSPost2010Prop48
 90
       50
102
RTVSPost2010PropOp48
 70
     1
102
RTVSPost2010Prop49
280
     0
102
RTVSPost2010PropOp49
 70
     1
102
RTVSPost2010Prop50
 90
       50
102
RTVSPost2010PropOp50
 70
     1
102
RTVSPost2010Prop51ColorIndex
 90
      256
102
RTVSPost2010Prop51ColorRGB
 90
-16777216
102
RTVSPost2010PropOp51
 70
     0
102
RTVSPost2010Prop52
140
1.0
102
RTVSPost2010PropOp52
 70
     0
102
RTVSPost2010Prop53
 90
        2
102
RTVSPost2010PropOp53
 70
     1
102
RTVSPost2010Prop54
  1
strokes_ogs.tif
102
RTVSPost2010PropOp54
 70
     1
102
RTVSPost2010Prop55
280
     0
102
RTVSPost2010PropOp55
 70
     1
102
RTVSPost2010Prop56
140
1.0
102
RTVSPost2010PropOp56
 70
     1
102
RTVSPost2010Prop57
140
1.0
102
RTVSPost2010PropOp57
 70
     1
102
RTVSPropertyOp0
 70
     1
102
RTVSPropertyOp1
 70
     1
102
RTVSPropertyOp2
 70
     1
102
RTVSPropertyOp3
 70
     1
102
RTVSPropertyOp4
 70
     1
102
RTVSPropertyOp5
 70
     1
102
RTVSPropertyOp6
 70
     1
102
RTVSPropertyOp7
 70
     1
102
RTVSPropertyOp8
 70
     1
102
RTVSPropertyOp9
 70
     1
102
RTVSPropertyOp10
 70
     1
102
RTVSPropertyOp11
 70
     1
102
RTVSPropertyOp12
 70
     1
102
RTVSPropertyOp13
 70
     1
102
RTVSPropertyOp14
 70
     1
102
RTVSPropertyOp15
 70
     1
102
RTVSPropertyOp16
 70
     1
102
RTVSPropertyOp17
 70
     1
102
RTVSPropertyOp18
 70
     1
102
RTVSPropertyOp19
 70
     1
102
RTVSPropertyOp20
 70
     1
102
RTVSPropertyOp21
 70
     1
102
RTVSPropertyOp22
 70
     1
102
RTVSPropertyOp23
 70
     1
102
RTVSPropertyOp24
 70
     1
102
RTVSPropertyOp25
 70
     1
102
RTVSPropertyOp26
 70
     1
102
RTVSPropertyOp27
 70
     1
102
RTVSPropertyOp28
 70
     1
102
RTVSPropertyOp29
 70
     1
102
RTVSPropertyOp30
 70
     1
102
RTVSPropertyOp31
 70
     1
102
RTVSPropertyOp32
 70
     1
102
RTVSPropertyOp33
 70
     1
102
RTVSPropertyOp34
 70
     1
102
RTVSPropertyOp35
 70
     1
102
RTVSPropertyOp36
 70
     1
102
RTVSPropertyOp37
 70
     1
102
RTVSPropertyOp38
 70
     1
102
RTVSPropertyOp39
 70
     1
102
RTVSPropertyOp40
 70
     1
102
RTVSPropertyOp41
 70
     1
102
RTVSPropertyOp42
 70
     1
102
RTVSPropertyOp43
 70
     1
102
RTVSPropertyOp44
 70
     1
102
RTVSPropertyOp45
 70
     1
102
RTVSPropertyOp46
 70
     1
102
RTVSPropertyOp47
 70
     1
102
RTVSPropertyOp48
 70
     1
102
RTVSPropertyOp49
 70
     1
102
RTVSPropertyOp50
 70
     1
102
RTVSPropertyOp51
 70
     0
102
RTVSPropertyOp52
 70
     0
102
RTVSPropertyOp53
 70
     1
102
RTVSPropertyOp54
 70
     1
102
RTVSPropertyOp55
 70
     1
102
RTVSPropertyOp56
 70
     1
102
RTVSPropertyOp57
 70
     1
102
RTVSPropertyOp58
 70
     1
102
RTVSPropertyOp59
 70
     1
102
RTVSPropertyOp60
 70
     1
102
RTVSPropertyOp61
 70
     1
102
RTVSPropertyOp62
 70
     1
  0
XRECORD
  5
B0E7
102
{ACAD_REACTORS
330
B0E6
102
}
330
B0E6
100
AcDbXrecord
280
     1
102
RTVSPost2010Prop28
280
     0
102
RTVSPost2010PropOp28
 70
     1
102
RTVSPost2010Prop29
280
     1
102
RTVSPost2010PropOp29
 70
     1
102
RTVSPost2010Prop30
280
     1
102
RTVSPost2010PropOp30
 70
     1
102
RTVSPost2010Prop31
280
     0
102
RTVSPost2010PropOp31
 70
     1
102
RTVSPost2010Prop32
280
     0
102
RTVSPost2010PropOp32
 70
     1
102
RTVSPost2010Prop33
280
     0
102
RTVSPost2010PropOp33
 70
     1
102
RTVSPost2010Prop34
280
     0
102
RTVSPost2010PropOp34
 70
     1
102
RTVSPost2010Prop35
280
     0
102
RTVSPost2010PropOp35
 70
     1
102
RTVSPost2010Prop36
280
     0
102
RTVSPost2010PropOp36
 70
     1
102
RTVSPost2010Prop37
 90
       50
102
RTVSPost2010PropOp37
 70
     1
102
RTVSPost2010Prop38
140
0.0
102
RTVSPost2010PropOp38
 70
     1
102
RTVSPost2010Prop39
140
1.0
102
RTVSPost2010PropOp39
 70
     1
102
RTVSPost2010Prop40
 90
        0
102
RTVSPost2010PropOp40
 70
     1
102
RTVSPost2010Prop41ColorIndex
 90
       18
102
RTVSPost2010Prop41ColorRGB
 90
        0
102
RTVSPost2010PropOp41
 70
     1
102
RTVSPost2010Prop42
 90
       50
102
RTVSPost2010PropOp42
 70
     1
102
RTVSPost2010Prop43
 90
        3
102
RTVSPost2010PropOp43
 70
     1
102
RTVSPost2010Prop44ColorIndex
 90
        5
102
RTVSPost2010Prop44ColorRGB
 90
      255
102
RTVSPost2010PropOp44
 70
     1
102
RTVSPost2010Prop45
280
     0
102
RTVSPost2010PropOp45
 70
     1
102
RTVSPost2010Prop46
 90
       50
102
RTVSPost2010PropOp46
 70
     1
102
RTVSPost2010Prop47
 90
       50
102
RTVSPost2010PropOp47
 70
     1
102
RTVSPost2010Prop48
 90
       50
102
RTVSPost2010PropOp48
 70
     1
102
RTVSPost2010Prop49
280
     0
102
RTVSPost2010PropOp49
 70
     1
102
RTVSPost2010Prop50
 90
       50
102
RTVSPost2010PropOp50
 70
     1
102
RTVSPost2010Prop51ColorIndex
 90
      256
102
RTVSPost2010Prop51ColorRGB
 90
-16777216
102
RTVSPost2010PropOp51
 70
     0
102
RTVSPost2010Prop52
140
1.0
102
RTVSPost2010PropOp52
 70
     0
102
RTVSPost2010Prop53
 90
        2
102
RTVSPost2010PropOp53
 70
     1
102
RTVSPost2010Prop54
  1
strokes_ogs.tif
102
RTVSPost2010PropOp54
 70
     1
102
RTVSPost2010Prop55
280
     0
102
RTVSPost2010PropOp55
 70
     1
102
RTVSPost2010Prop56
140
1.0
102
RTVSPost2010PropOp56
 70
     1
102
RTVSPost2010Prop57
140
1.0
102
RTVSPost2010PropOp57
 70
     1
102
RTVSPropertyOp0
 70
     1
102
RTVSPropertyOp1
 70
     1
102
RTVSPropertyOp2
 70
     1
102
RTVSPropertyOp3
 70
     1
102
RTVSPropertyOp4
 70
     1
102
RTVSPropertyOp5
 70
     1
102
RTVSPropertyOp6
 70
     1
102
RTVSPropertyOp7
 70
     1
102
RTVSPropertyOp8
 70
     1
102
RTVSPropertyOp9
 70
     1
102
RTVSPropertyOp10
 70
     1
102
RTVSPropertyOp11
 70
     1
102
RTVSPropertyOp12
 70
     1
102
RTVSPropertyOp13
 70
     1
102
RTVSPropertyOp14
 70
     1
102
RTVSPropertyOp15
 70
     1
102
RTVSPropertyOp16
 70
     1
102
RTVSPropertyOp17
 70
     1
102
RTVSPropertyOp18
 70
     1
102
RTVSPropertyOp19
 70
     1
102
RTVSPropertyOp20
 70
     1
102
RTVSPropertyOp21
 70
     1
102
RTVSPropertyOp22
 70
     1
102
RTVSPropertyOp23
 70
     1
102
RTVSPropertyOp24
 70
     1
102
RTVSPropertyOp25
 70
     1
102
RTVSPropertyOp26
 70
     1
102
RTVSPropertyOp27
 70
     1
102
RTVSPropertyOp28
 70
     1
102
RTVSPropertyOp29
 70
     1
102
RTVSPropertyOp30
 70
     1
102
RTVSPropertyOp31
 70
     1
102
RTVSPropertyOp32
 70
     1
102
RTVSPropertyOp33
 70
     1
102
RTVSPropertyOp34
 70
     1
102
RTVSPropertyOp35
 70
     1
102
RTVSPropertyOp36
 70
     1
102
RTVSPropertyOp37
 70
     1
102
RTVSPropertyOp38
 70
     1
102
RTVSPropertyOp39
 70
     1
102
RTVSPropertyOp40
 70
     1
102
RTVSPropertyOp41
 70
     1
102
RTVSPropertyOp42
 70
     1
102
RTVSPropertyOp43
 70
     1
102
RTVSPropertyOp44
 70
     1
102
RTVSPropertyOp45
 70
     1
102
RTVSPropertyOp46
 70
     1
102
RTVSPropertyOp47
 70
     1
102
RTVSPropertyOp48
 70
     1
102
RTVSPropertyOp49
 70
     1
102
RTVSPropertyOp50
 70
     1
102
RTVSPropertyOp51
 70
     0
102
RTVSPropertyOp52
 70
     0
102
RTVSPropertyOp53
 70
     1
102
RTVSPropertyOp54
 70
     1
102
RTVSPropertyOp55
 70
     1
102
RTVSPropertyOp56
 70
     1
102
RTVSPropertyOp57
 70
     1
102
RTVSPropertyOp58
 70
     1
102
RTVSPropertyOp59
 70
     1
102
RTVSPropertyOp60
 70
     1
102
RTVSPropertyOp61
 70
     1
102
RTVSPropertyOp62
 70
     1
  0
XRECORD
  5
B0EB
102
{ACAD_REACTORS
330
B0EA
102
}
330
B0EA
100
AcDbXrecord
280
     1
102
RTVSPost2010Prop28
280
     0
102
RTVSPost2010PropOp28
 70
     1
102
RTVSPost2010Prop29
280
     1
102
RTVSPost2010PropOp29
 70
     1
102
RTVSPost2010Prop30
280
     1
102
RTVSPost2010PropOp30
 70
     1
102
RTVSPost2010Prop31
280
     0
102
RTVSPost2010PropOp31
 70
     1
102
RTVSPost2010Prop32
280
     0
102
RTVSPost2010PropOp32
 70
     1
102
RTVSPost2010Prop33
280
     0
102
RTVSPost2010PropOp33
 70
     1
102
RTVSPost2010Prop34
280
     0
102
RTVSPost2010PropOp34
 70
     1
102
RTVSPost2010Prop35
280
     0
102
RTVSPost2010PropOp35
 70
     1
102
RTVSPost2010Prop36
280
     0
102
RTVSPost2010PropOp36
 70
     1
102
RTVSPost2010Prop37
 90
       50
102
RTVSPost2010PropOp37
 70
     1
102
RTVSPost2010Prop38
140
0.0
102
RTVSPost2010PropOp38
 70
     1
102
RTVSPost2010Prop39
140
1.0
102
RTVSPost2010PropOp39
 70
     1
102
RTVSPost2010Prop40
 90
        0
102
RTVSPost2010PropOp40
 70
     1
102
RTVSPost2010Prop41ColorIndex
 90
       18
102
RTVSPost2010Prop41ColorRGB
 90
        0
102
RTVSPost2010PropOp41
 70
     1
102
RTVSPost2010Prop42
 90
       50
102
RTVSPost2010PropOp42
 70
     1
102
RTVSPost2010Prop43
 90
        3
102
RTVSPost2010PropOp43
 70
     1
102
RTVSPost2010Prop44ColorIndex
 90
        5
102
RTVSPost2010Prop44ColorRGB
 90
      255
102
RTVSPost2010PropOp44
 70
     1
102
RTVSPost2010Prop45
280
     0
102
RTVSPost2010PropOp45
 70
     1
102
RTVSPost2010Prop46
 90
       50
102
RTVSPost2010PropOp46
 70
     1
102
RTVSPost2010Prop47
 90
       50
102
RTVSPost2010PropOp47
 70
     1
102
RTVSPost2010Prop48
 90
       50
102
RTVSPost2010PropOp48
 70
     1
102
RTVSPost2010Prop49
280
     0
102
RTVSPost2010PropOp49
 70
     1
102
RTVSPost2010Prop50
 90
       50
102
RTVSPost2010PropOp50
 70
     1
102
RTVSPost2010Prop51ColorIndex
 90
      256
102
RTVSPost2010Prop51ColorRGB
 90
-16777216
102
RTVSPost2010PropOp51
 70
     0
102
RTVSPost2010Prop52
140
1.0
102
RTVSPost2010PropOp52
 70
     0
102
RTVSPost2010Prop53
 90
        2
102
RTVSPost2010PropOp53
 70
     1
102
RTVSPost2010Prop54
  1
strokes_ogs.tif
102
RTVSPost2010PropOp54
 70
     1
102
RTVSPost2010Prop55
280
     0
102
RTVSPost2010PropOp55
 70
     1
102
RTVSPost2010Prop56
140
1.0
102
RTVSPost2010PropOp56
 70
     1
102
RTVSPost2010Prop57
140
1.0
102
RTVSPost2010PropOp57
 70
     1
102
RTVSPropertyOp0
 70
     1
102
RTVSPropertyOp1
 70
     1
102
RTVSPropertyOp2
 70
     1
102
RTVSPropertyOp3
 70
     1
102
RTVSPropertyOp4
 70
     1
102
RTVSPropertyOp5
 70
     1
102
RTVSPropertyOp6
 70
     1
102
RTVSPropertyOp7
 70
     1
102
RTVSPropertyOp8
 70
     1
102
RTVSPropertyOp9
 70
     1
102
RTVSPropertyOp10
 70
     1
102
RTVSPropertyOp11
 70
     1
102
RTVSPropertyOp12
 70
     1
102
RTVSPropertyOp13
 70
     1
102
RTVSPropertyOp14
 70
     1
102
RTVSPropertyOp15
 70
     1
102
RTVSPropertyOp16
 70
     1
102
RTVSPropertyOp17
 70
     1
102
RTVSPropertyOp18
 70
     1
102
RTVSPropertyOp19
 70
     1
102
RTVSPropertyOp20
 70
     1
102
RTVSPropertyOp21
 70
     1
102
RTVSPropertyOp22
 70
     1
102
RTVSPropertyOp23
 70
     1
102
RTVSPropertyOp24
 70
     1
102
RTVSPropertyOp25
 70
     1
102
RTVSPropertyOp26
 70
     1
102
RTVSPropertyOp27
 70
     1
102
RTVSPropertyOp28
 70
     1
102
RTVSPropertyOp29
 70
     1
102
RTVSPropertyOp30
 70
     1
102
RTVSPropertyOp31
 70
     1
102
RTVSPropertyOp32
 70
     1
102
RTVSPropertyOp33
 70
     1
102
RTVSPropertyOp34
 70
     1
102
RTVSPropertyOp35
 70
     1
102
RTVSPropertyOp36
 70
     1
102
RTVSPropertyOp37
 70
     1
102
RTVSPropertyOp38
 70
     1
102
RTVSPropertyOp39
 70
     1
102
RTVSPropertyOp40
 70
     1
102
RTVSPropertyOp41
 70
     1
102
RTVSPropertyOp42
 70
     1
102
RTVSPropertyOp43
 70
     1
102
RTVSPropertyOp44
 70
     1
102
RTVSPropertyOp45
 70
     1
102
RTVSPropertyOp46
 70
     1
102
RTVSPropertyOp47
 70
     1
102
RTVSPropertyOp48
 70
     1
102
RTVSPropertyOp49
 70
     1
102
RTVSPropertyOp50
 70
     1
102
RTVSPropertyOp51
 70
     0
102
RTVSPropertyOp52
 70
     0
102
RTVSPropertyOp53
 70
     1
102
RTVSPropertyOp54
 70
     1
102
RTVSPropertyOp55
 70
     1
102
RTVSPropertyOp56
 70
     1
102
RTVSPropertyOp57
 70
     1
102
RTVSPropertyOp58
 70
     1
102
RTVSPropertyOp59
 70
     1
102
RTVSPropertyOp60
 70
     1
102
RTVSPropertyOp61
 70
     1
102
RTVSPropertyOp62
 70
     1
  0
XRECORD
  5
B105
102
{ACAD_REACTORS
330
B104
102
}
330
B104
100
AcDbXrecord
280
     1
102
RTVSPost2010Prop28
280
     0
102
RTVSPost2010PropOp28
 70
     1
102
RTVSPost2010Prop29
280
     1
102
RTVSPost2010PropOp29
 70
     1
102
RTVSPost2010Prop30
280
     1
102
RTVSPost2010PropOp30
 70
     1
102
RTVSPost2010Prop31
280
     0
102
RTVSPost2010PropOp31
 70
     1
102
RTVSPost2010Prop32
280
     0
102
RTVSPost2010PropOp32
 70
     1
102
RTVSPost2010Prop33
280
     0
102
RTVSPost2010PropOp33
 70
     1
102
RTVSPost2010Prop34
280
     0
102
RTVSPost2010PropOp34
 70
     1
102
RTVSPost2010Prop35
280
     0
102
RTVSPost2010PropOp35
 70
     1
102
RTVSPost2010Prop36
280
     0
102
RTVSPost2010PropOp36
 70
     1
102
RTVSPost2010Prop37
 90
       50
102
RTVSPost2010PropOp37
 70
     0
102
RTVSPost2010Prop38
140
0.0
102
RTVSPost2010PropOp38
 70
     0
102
RTVSPost2010Prop39
140
1.0
102
RTVSPost2010PropOp39
 70
     0
102
RTVSPost2010Prop40
 90
        0
102
RTVSPost2010PropOp40
 70
     0
102
RTVSPost2010Prop41ColorIndex
 90
       18
102
RTVSPost2010Prop41ColorRGB
 90
        0
102
RTVSPost2010PropOp41
 70
     0
102
RTVSPost2010Prop42
 90
       50
102
RTVSPost2010PropOp42
 70
     0
102
RTVSPost2010Prop43
 90
        3
102
RTVSPost2010PropOp43
 70
     0
102
RTVSPost2010Prop44ColorIndex
 90
        5
102
RTVSPost2010Prop44ColorRGB
 90
      255
102
RTVSPost2010PropOp44
 70
     0
102
RTVSPost2010Prop45
280
     0
102
RTVSPost2010PropOp45
 70
     1
102
RTVSPost2010Prop46
 90
       50
102
RTVSPost2010PropOp46
 70
     0
102
RTVSPost2010Prop47
 90
       50
102
RTVSPost2010PropOp47
 70
     0
102
RTVSPost2010Prop48
 90
       50
102
RTVSPost2010PropOp48
 70
     0
102
RTVSPost2010Prop49
280
     0
102
RTVSPost2010PropOp49
 70
     1
102
RTVSPost2010Prop50
 90
       50
102
RTVSPost2010PropOp50
 70
     0
102
RTVSPost2010Prop51ColorIndex
 90
      256
102
RTVSPost2010Prop51ColorRGB
 90
-16777216
102
RTVSPost2010PropOp51
 70
     0
102
RTVSPost2010Prop52
140
1.0
102
RTVSPost2010PropOp52
 70
     0
102
RTVSPost2010Prop53
 90
        2
102
RTVSPost2010PropOp53
 70
     0
102
RTVSPost2010Prop54
  1
strokes_ogs.tif
102
RTVSPost2010PropOp54
 70
     0
102
RTVSPost2010Prop55
280
     0
102
RTVSPost2010PropOp55
 70
     1
102
RTVSPost2010Prop56
140
1.0
102
RTVSPost2010PropOp56
 70
     0
102
RTVSPost2010Prop57
140
1.0
102
RTVSPost2010PropOp57
 70
     0
102
RTVSPropertyOp0
 70
     0
102
RTVSPropertyOp1
 70
     0
102
RTVSPropertyOp2
 70
     0
102
RTVSPropertyOp3
 70
     0
102
RTVSPropertyOp4
 70
     0
102
RTVSPropertyOp5
 70
     0
102
RTVSPropertyOp6
 70
     0
102
RTVSPropertyOp7
 70
     0
102
RTVSPropertyOp8
 70
     0
102
RTVSPropertyOp9
 70
     0
102
RTVSPropertyOp10
 70
     0
102
RTVSPropertyOp11
 70
     0
102
RTVSPropertyOp12
 70
     0
102
RTVSPropertyOp13
 70
     0
102
RTVSPropertyOp14
 70
     2
102
RTVSPropertyOp15
 70
     0
102
RTVSPropertyOp16
 70
     0
102
RTVSPropertyOp17
 70
     0
102
RTVSPropertyOp18
 70
     0
102
RTVSPropertyOp19
 70
     0
102
RTVSPropertyOp20
 70
     0
102
RTVSPropertyOp21
 70
     0
102
RTVSPropertyOp22
 70
     0
102
RTVSPropertyOp23
 70
     0
102
RTVSPropertyOp24
 70
     0
102
RTVSPropertyOp25
 70
     0
102
RTVSPropertyOp26
 70
     0
102
RTVSPropertyOp27
 70
     0
102
RTVSPropertyOp28
 70
     1
102
RTVSPropertyOp29
 70
     1
102
RTVSPropertyOp30
 70
     1
102
RTVSPropertyOp31
 70
     1
102
RTVSPropertyOp32
 70
     1
102
RTVSPropertyOp33
 70
     1
102
RTVSPropertyOp34
 70
     1
102
RTVSPropertyOp35
 70
     1
102
RTVSPropertyOp36
 70
     1
102
RTVSPropertyOp37
 70
     0
102
RTVSPropertyOp38
 70
     0
102
RTVSPropertyOp39
 70
     0
102
RTVSPropertyOp40
 70
     0
102
RTVSPropertyOp41
 70
     0
102
RTVSPropertyOp42
 70
     0
102
RTVSPropertyOp43
 70
     0
102
RTVSPropertyOp44
 70
     0
102
RTVSPropertyOp45
 70
     1
102
RTVSPropertyOp46
 70
     0
102
RTVSPropertyOp47
 70
     0
102
RTVSPropertyOp48
 70
     0
102
RTVSPropertyOp49
 70
     1
102
RTVSPropertyOp50
 70
     0
102
RTVSPropertyOp51
 70
     0
102
RTVSPropertyOp52
 70
     0
102
RTVSPropertyOp53
 70
     0
102
RTVSPropertyOp54
 70
     0
102
RTVSPropertyOp55
 70
     1
102
RTVSPropertyOp56
 70
     0
102
RTVSPropertyOp57
 70
     0
102
RTVSPropertyOp58
 70
     0
102
RTVSPropertyOp59
 70
     0
102
RTVSPropertyOp60
 70
     0
102
RTVSPropertyOp61
 70
     0
102
RTVSPropertyOp62
 70
     0
  0
XRECORD
  5
B0F3
102
{ACAD_REACTORS
330
B0F2
102
}
330
B0F2
100
AcDbXrecord
280
     1
102
RTVSPost2010Prop28
280
     0
102
RTVSPost2010PropOp28
 70
     1
102
RTVSPost2010Prop29
280
     1
102
RTVSPost2010PropOp29
 70
     1
102
RTVSPost2010Prop30
280
     1
102
RTVSPost2010PropOp30
 70
     1
102
RTVSPost2010Prop31
280
     0
102
RTVSPost2010PropOp31
 70
     1
102
RTVSPost2010Prop32
280
     0
102
RTVSPost2010PropOp32
 70
     1
102
RTVSPost2010Prop33
280
     0
102
RTVSPost2010PropOp33
 70
     1
102
RTVSPost2010Prop34
280
     0
102
RTVSPost2010PropOp34
 70
     1
102
RTVSPost2010Prop35
280
     0
102
RTVSPost2010PropOp35
 70
     1
102
RTVSPost2010Prop36
280
     0
102
RTVSPost2010PropOp36
 70
     1
102
RTVSPost2010Prop37
 90
       50
102
RTVSPost2010PropOp37
 70
     1
102
RTVSPost2010Prop38
140
0.0
102
RTVSPost2010PropOp38
 70
     1
102
RTVSPost2010Prop39
140
1.0
102
RTVSPost2010PropOp39
 70
     1
102
RTVSPost2010Prop40
 90
        0
102
RTVSPost2010PropOp40
 70
     1
102
RTVSPost2010Prop41ColorIndex
 90
       18
102
RTVSPost2010Prop41ColorRGB
 90
        0
102
RTVSPost2010PropOp41
 70
     1
102
RTVSPost2010Prop42
 90
       50
102
RTVSPost2010PropOp42
 70
     1
102
RTVSPost2010Prop43
 90
        3
102
RTVSPost2010PropOp43
 70
     1
102
RTVSPost2010Prop44ColorIndex
 90
        5
102
RTVSPost2010Prop44ColorRGB
 90
      255
102
RTVSPost2010PropOp44
 70
     1
102
RTVSPost2010Prop45
280
     0
102
RTVSPost2010PropOp45
 70
     1
102
RTVSPost2010Prop46
 90
       50
102
RTVSPost2010PropOp46
 70
     1
102
RTVSPost2010Prop47
 90
       50
102
RTVSPost2010PropOp47
 70
     1
102
RTVSPost2010Prop48
 90
       50
102
RTVSPost2010PropOp48
 70
     1
102
RTVSPost2010Prop49
280
     0
102
RTVSPost2010PropOp49
 70
     1
102
RTVSPost2010Prop50
 90
       50
102
RTVSPost2010PropOp50
 70
     1
102
RTVSPost2010Prop51ColorIndex
 90
      256
102
RTVSPost2010Prop51ColorRGB
 90
-16777216
102
RTVSPost2010PropOp51
 70
     0
102
RTVSPost2010Prop52
140
1.0
102
RTVSPost2010PropOp52
 70
     0
102
RTVSPost2010Prop53
 90
        2
102
RTVSPost2010PropOp53
 70
     1
102
RTVSPost2010Prop54
  1
strokes_ogs.tif
102
RTVSPost2010PropOp54
 70
     1
102
RTVSPost2010Prop55
280
     0
102
RTVSPost2010PropOp55
 70
     1
102
RTVSPost2010Prop56
140
1.0
102
RTVSPost2010PropOp56
 70
     1
102
RTVSPost2010Prop57
140
1.0
102
RTVSPost2010PropOp57
 70
     1
102
RTVSPropertyOp0
 70
     1
102
RTVSPropertyOp1
 70
     1
102
RTVSPropertyOp2
 70
     1
102
RTVSPropertyOp3
 70
     1
102
RTVSPropertyOp4
 70
     1
102
RTVSPropertyOp5
 70
     1
102
RTVSPropertyOp6
 70
     1
102
RTVSPropertyOp7
 70
     1
102
RTVSPropertyOp8
 70
     1
102
RTVSPropertyOp9
 70
     1
102
RTVSPropertyOp10
 70
     1
102
RTVSPropertyOp11
 70
     1
102
RTVSPropertyOp12
 70
     1
102
RTVSPropertyOp13
 70
     1
102
RTVSPropertyOp14
 70
     1
102
RTVSPropertyOp15
 70
     1
102
RTVSPropertyOp16
 70
     1
102
RTVSPropertyOp17
 70
     1
102
RTVSPropertyOp18
 70
     1
102
RTVSPropertyOp19
 70
     1
102
RTVSPropertyOp20
 70
     1
102
RTVSPropertyOp21
 70
     1
102
RTVSPropertyOp22
 70
     1
102
RTVSPropertyOp23
 70
     1
102
RTVSPropertyOp24
 70
     1
102
RTVSPropertyOp25
 70
     1
102
RTVSPropertyOp26
 70
     1
102
RTVSPropertyOp27
 70
     1
102
RTVSPropertyOp28
 70
     1
102
RTVSPropertyOp29
 70
     1
102
RTVSPropertyOp30
 70
     1
102
RTVSPropertyOp31
 70
     1
102
RTVSPropertyOp32
 70
     1
102
RTVSPropertyOp33
 70
     1
102
RTVSPropertyOp34
 70
     1
102
RTVSPropertyOp35
 70
     1
102
RTVSPropertyOp36
 70
     1
102
RTVSPropertyOp37
 70
     1
102
RTVSPropertyOp38
 70
     1
102
RTVSPropertyOp39
 70
     1
102
RTVSPropertyOp40
 70
     1
102
RTVSPropertyOp41
 70
     1
102
RTVSPropertyOp42
 70
     1
102
RTVSPropertyOp43
 70
     1
102
RTVSPropertyOp44
 70
     1
102
RTVSPropertyOp45
 70
     1
102
RTVSPropertyOp46
 70
     1
102
RTVSPropertyOp47
 70
     1
102
RTVSPropertyOp48
 70
     1
102
RTVSPropertyOp49
 70
     1
102
RTVSPropertyOp50
 70
     1
102
RTVSPropertyOp51
 70
     0
102
RTVSPropertyOp52
 70
     0
102
RTVSPropertyOp53
 70
     1
102
RTVSPropertyOp54
 70
     1
102
RTVSPropertyOp55
 70
     1
102
RTVSPropertyOp56
 70
     1
102
RTVSPropertyOp57
 70
     1
102
RTVSPropertyOp58
 70
     1
102
RTVSPropertyOp59
 70
     1
102
RTVSPropertyOp60
 70
     1
102
RTVSPropertyOp61
 70
     1
102
RTVSPropertyOp62
 70
     1
  0
XRECORD
  5
B0D7
102
{ACAD_REACTORS
330
B0D6
102
}
330
B0D6
100
AcDbXrecord
280
     1
102
RTVSPost2010Prop28
280
     0
102
RTVSPost2010PropOp28
 70
     1
102
RTVSPost2010Prop29
280
     1
102
RTVSPost2010PropOp29
 70
     1
102
RTVSPost2010Prop30
280
     1
102
RTVSPost2010PropOp30
 70
     1
102
RTVSPost2010Prop31
280
     0
102
RTVSPost2010PropOp31
 70
     1
102
RTVSPost2010Prop32
280
     0
102
RTVSPost2010PropOp32
 70
     1
102
RTVSPost2010Prop33
280
     0
102
RTVSPost2010PropOp33
 70
     1
102
RTVSPost2010Prop34
280
     0
102
RTVSPost2010PropOp34
 70
     1
102
RTVSPost2010Prop35
280
     0
102
RTVSPost2010PropOp35
 70
     1
102
RTVSPost2010Prop36
280
     0
102
RTVSPost2010PropOp36
 70
     1
102
RTVSPost2010Prop37
 90
       50
102
RTVSPost2010PropOp37
 70
     1
102
RTVSPost2010Prop38
140
0.0
102
RTVSPost2010PropOp38
 70
     1
102
RTVSPost2010Prop39
140
1.0
102
RTVSPost2010PropOp39
 70
     1
102
RTVSPost2010Prop40
 90
        0
102
RTVSPost2010PropOp40
 70
     1
102
RTVSPost2010Prop41ColorIndex
 90
       18
102
RTVSPost2010Prop41ColorRGB
 90
        0
102
RTVSPost2010PropOp41
 70
     1
102
RTVSPost2010Prop42
 90
       50
102
RTVSPost2010PropOp42
 70
     1
102
RTVSPost2010Prop43
 90
        3
102
RTVSPost2010PropOp43
 70
     1
102
RTVSPost2010Prop44ColorIndex
 90
        5
102
RTVSPost2010Prop44ColorRGB
 90
      255
102
RTVSPost2010PropOp44
 70
     1
102
RTVSPost2010Prop45
280
     0
102
RTVSPost2010PropOp45
 70
     1
102
RTVSPost2010Prop46
 90
       50
102
RTVSPost2010PropOp46
 70
     1
102
RTVSPost2010Prop47
 90
       50
102
RTVSPost2010PropOp47
 70
     1
102
RTVSPost2010Prop48
 90
       50
102
RTVSPost2010PropOp48
 70
     1
102
RTVSPost2010Prop49
280
     0
102
RTVSPost2010PropOp49
 70
     1
102
RTVSPost2010Prop50
 90
       50
102
RTVSPost2010PropOp50
 70
     1
102
RTVSPost2010Prop51ColorIndex
 90
      256
102
RTVSPost2010Prop51ColorRGB
 90
-16777216
102
RTVSPost2010PropOp51
 70
     0
102
RTVSPost2010Prop52
140
1.0
102
RTVSPost2010PropOp52
 70
     0
102
RTVSPost2010Prop53
 90
        2
102
RTVSPost2010PropOp53
 70
     1
102
RTVSPost2010Prop54
  1
strokes_ogs.tif
102
RTVSPost2010PropOp54
 70
     1
102
RTVSPost2010Prop55
280
     0
102
RTVSPost2010PropOp55
 70
     1
102
RTVSPost2010Prop56
140
1.0
102
RTVSPost2010PropOp56
 70
     1
102
RTVSPost2010Prop57
140
1.0
102
RTVSPost2010PropOp57
 70
     1
102
RTVSPropertyOp0
 70
     1
102
RTVSPropertyOp1
 70
     1
102
RTVSPropertyOp2
 70
     1
102
RTVSPropertyOp3
 70
     1
102
RTVSPropertyOp4
 70
     1
102
RTVSPropertyOp5
 70
     1
102
RTVSPropertyOp6
 70
     1
102
RTVSPropertyOp7
 70
     1
102
RTVSPropertyOp8
 70
     1
102
RTVSPropertyOp9
 70
     1
102
RTVSPropertyOp10
 70
     1
102
RTVSPropertyOp11
 70
     1
102
RTVSPropertyOp12
 70
     1
102
RTVSPropertyOp13
 70
     1
102
RTVSPropertyOp14
 70
     1
102
RTVSPropertyOp15
 70
     1
102
RTVSPropertyOp16
 70
     1
102
RTVSPropertyOp17
 70
     1
102
RTVSPropertyOp18
 70
     1
102
RTVSPropertyOp19
 70
     1
102
RTVSPropertyOp20
 70
     1
102
RTVSPropertyOp21
 70
     1
102
RTVSPropertyOp22
 70
     1
102
RTVSPropertyOp23
 70
     1
102
RTVSPropertyOp24
 70
     1
102
RTVSPropertyOp25
 70
     1
102
RTVSPropertyOp26
 70
     1
102
RTVSPropertyOp27
 70
     1
102
RTVSPropertyOp28
 70
     1
102
RTVSPropertyOp29
 70
     1
102
RTVSPropertyOp30
 70
     1
102
RTVSPropertyOp31
 70
     1
102
RTVSPropertyOp32
 70
     1
102
RTVSPropertyOp33
 70
     1
102
RTVSPropertyOp34
 70
     1
102
RTVSPropertyOp35
 70
     1
102
RTVSPropertyOp36
 70
     1
102
RTVSPropertyOp37
 70
     1
102
RTVSPropertyOp38
 70
     1
102
RTVSPropertyOp39
 70
     1
102
RTVSPropertyOp40
 70
     1
102
RTVSPropertyOp41
 70
     1
102
RTVSPropertyOp42
 70
     1
102
RTVSPropertyOp43
 70
     1
102
RTVSPropertyOp44
 70
     1
102
RTVSPropertyOp45
 70
     1
102
RTVSPropertyOp46
 70
     1
102
RTVSPropertyOp47
 70
     1
102
RTVSPropertyOp48
 70
     1
102
RTVSPropertyOp49
 70
     1
102
RTVSPropertyOp50
 70
     1
102
RTVSPropertyOp51
 70
     0
102
RTVSPropertyOp52
 70
     0
102
RTVSPropertyOp53
 70
     1
102
RTVSPropertyOp54
 70
     1
102
RTVSPropertyOp55
 70
     1
102
RTVSPropertyOp56
 70
     1
102
RTVSPropertyOp57
 70
     1
102
RTVSPropertyOp58
 70
     1
102
RTVSPropertyOp59
 70
     1
102
RTVSPropertyOp60
 70
     1
102
RTVSPropertyOp61
 70
     1
102
RTVSPropertyOp62
 70
     1
  0
XRECORD
  5
B0D9
102
{ACAD_REACTORS
330
B0D8
102
}
330
B0D8
100
AcDbXrecord
280
     1
102
RTVSPost2010Prop28
280
     0
102
RTVSPost2010PropOp28
 70
     1
102
RTVSPost2010Prop29
280
     1
102
RTVSPost2010PropOp29
 70
     1
102
RTVSPost2010Prop30
280
     1
102
RTVSPost2010PropOp30
 70
     1
102
RTVSPost2010Prop31
280
     0
102
RTVSPost2010PropOp31
 70
     1
102
RTVSPost2010Prop32
280
     0
102
RTVSPost2010PropOp32
 70
     1
102
RTVSPost2010Prop33
280
     0
102
RTVSPost2010PropOp33
 70
     1
102
RTVSPost2010Prop34
280
     0
102
RTVSPost2010PropOp34
 70
     1
102
RTVSPost2010Prop35
280
     0
102
RTVSPost2010PropOp35
 70
     1
102
RTVSPost2010Prop36
280
     0
102
RTVSPost2010PropOp36
 70
     1
102
RTVSPost2010Prop37
 90
       50
102
RTVSPost2010PropOp37
 70
     1
102
RTVSPost2010Prop38
140
0.0
102
RTVSPost2010PropOp38
 70
     1
102
RTVSPost2010Prop39
140
1.0
102
RTVSPost2010PropOp39
 70
     1
102
RTVSPost2010Prop40
 90
        0
102
RTVSPost2010PropOp40
 70
     1
102
RTVSPost2010Prop41ColorIndex
 90
       18
102
RTVSPost2010Prop41ColorRGB
 90
        0
102
RTVSPost2010PropOp41
 70
     1
102
RTVSPost2010Prop42
 90
       50
102
RTVSPost2010PropOp42
 70
     1
102
RTVSPost2010Prop43
 90
        3
102
RTVSPost2010PropOp43
 70
     1
102
RTVSPost2010Prop44ColorIndex
 90
        5
102
RTVSPost2010Prop44ColorRGB
 90
      255
102
RTVSPost2010PropOp44
 70
     1
102
RTVSPost2010Prop45
280
     0
102
RTVSPost2010PropOp45
 70
     1
102
RTVSPost2010Prop46
 90
       50
102
RTVSPost2010PropOp46
 70
     1
102
RTVSPost2010Prop47
 90
       50
102
RTVSPost2010PropOp47
 70
     1
102
RTVSPost2010Prop48
 90
       50
102
RTVSPost2010PropOp48
 70
     1
102
RTVSPost2010Prop49
280
     0
102
RTVSPost2010PropOp49
 70
     1
102
RTVSPost2010Prop50
 90
       50
102
RTVSPost2010PropOp50
 70
     1
102
RTVSPost2010Prop51ColorIndex
 90
      256
102
RTVSPost2010Prop51ColorRGB
 90
-16777216
102
RTVSPost2010PropOp51
 70
     0
102
RTVSPost2010Prop52
140
1.0
102
RTVSPost2010PropOp52
 70
     0
102
RTVSPost2010Prop53
 90
        2
102
RTVSPost2010PropOp53
 70
     1
102
RTVSPost2010Prop54
  1
strokes_ogs.tif
102
RTVSPost2010PropOp54
 70
     1
102
RTVSPost2010Prop55
280
     0
102
RTVSPost2010PropOp55
 70
     1
102
RTVSPost2010Prop56
140
1.0
102
RTVSPost2010PropOp56
 70
     1
102
RTVSPost2010Prop57
140
1.0
102
RTVSPost2010PropOp57
 70
     1
102
RTVSPropertyOp0
 70
     1
102
RTVSPropertyOp1
 70
     1
102
RTVSPropertyOp2
 70
     1
102
RTVSPropertyOp3
 70
     1
102
RTVSPropertyOp4
 70
     1
102
RTVSPropertyOp5
 70
     1
102
RTVSPropertyOp6
 70
     1
102
RTVSPropertyOp7
 70
     1
102
RTVSPropertyOp8
 70
     1
102
RTVSPropertyOp9
 70
     1
102
RTVSPropertyOp10
 70
     1
102
RTVSPropertyOp11
 70
     1
102
RTVSPropertyOp12
 70
     1
102
RTVSPropertyOp13
 70
     1
102
RTVSPropertyOp14
 70
     1
102
RTVSPropertyOp15
 70
     1
102
RTVSPropertyOp16
 70
     1
102
RTVSPropertyOp17
 70
     1
102
RTVSPropertyOp18
 70
     1
102
RTVSPropertyOp19
 70
     1
102
RTVSPropertyOp20
 70
     1
102
RTVSPropertyOp21
 70
     1
102
RTVSPropertyOp22
 70
     1
102
RTVSPropertyOp23
 70
     1
102
RTVSPropertyOp24
 70
     1
102
RTVSPropertyOp25
 70
     1
102
RTVSPropertyOp26
 70
     1
102
RTVSPropertyOp27
 70
     1
102
RTVSPropertyOp28
 70
     1
102
RTVSPropertyOp29
 70
     1
102
RTVSPropertyOp30
 70
     1
102
RTVSPropertyOp31
 70
     1
102
RTVSPropertyOp32
 70
     1
102
RTVSPropertyOp33
 70
     1
102
RTVSPropertyOp34
 70
     1
102
RTVSPropertyOp35
 70
     1
102
RTVSPropertyOp36
 70
     1
102
RTVSPropertyOp37
 70
     1
102
RTVSPropertyOp38
 70
     1
102
RTVSPropertyOp39
 70
     1
102
RTVSPropertyOp40
 70
     1
102
RTVSPropertyOp41
 70
     1
102
RTVSPropertyOp42
 70
     1
102
RTVSPropertyOp43
 70
     1
102
RTVSPropertyOp44
 70
     1
102
RTVSPropertyOp45
 70
     1
102
RTVSPropertyOp46
 70
     1
102
RTVSPropertyOp47
 70
     1
102
RTVSPropertyOp48
 70
     1
102
RTVSPropertyOp49
 70
     1
102
RTVSPropertyOp50
 70
     1
102
RTVSPropertyOp51
 70
     0
102
RTVSPropertyOp52
 70
     0
102
RTVSPropertyOp53
 70
     1
102
RTVSPropertyOp54
 70
     1
102
RTVSPropertyOp55
 70
     1
102
RTVSPropertyOp56
 70
     1
102
RTVSPropertyOp57
 70
     1
102
RTVSPropertyOp58
 70
     1
102
RTVSPropertyOp59
 70
     1
102
RTVSPropertyOp60
 70
     1
102
RTVSPropertyOp61
 70
     1
102
RTVSPropertyOp62
 70
     1
  0
XRECORD
  5
B0DB
102
{ACAD_REACTORS
330
B0DA
102
}
330
B0DA
100
AcDbXrecord
280
     1
102
RTVSPost2010Prop28
280
     0
102
RTVSPost2010PropOp28
 70
     1
102
RTVSPost2010Prop29
280
     1
102
RTVSPost2010PropOp29
 70
     1
102
RTVSPost2010Prop30
280
     1
102
RTVSPost2010PropOp30
 70
     1
102
RTVSPost2010Prop31
280
     0
102
RTVSPost2010PropOp31
 70
     1
102
RTVSPost2010Prop32
280
     0
102
RTVSPost2010PropOp32
 70
     1
102
RTVSPost2010Prop33
280
     0
102
RTVSPost2010PropOp33
 70
     1
102
RTVSPost2010Prop34
280
     0
102
RTVSPost2010PropOp34
 70
     1
102
RTVSPost2010Prop35
280
     0
102
RTVSPost2010PropOp35
 70
     1
102
RTVSPost2010Prop36
280
     0
102
RTVSPost2010PropOp36
 70
     1
102
RTVSPost2010Prop37
 90
       50
102
RTVSPost2010PropOp37
 70
     1
102
RTVSPost2010Prop38
140
0.0
102
RTVSPost2010PropOp38
 70
     1
102
RTVSPost2010Prop39
140
1.0
102
RTVSPost2010PropOp39
 70
     1
102
RTVSPost2010Prop40
 90
        0
102
RTVSPost2010PropOp40
 70
     1
102
RTVSPost2010Prop41ColorIndex
 90
       18
102
RTVSPost2010Prop41ColorRGB
 90
        0
102
RTVSPost2010PropOp41
 70
     1
102
RTVSPost2010Prop42
 90
       50
102
RTVSPost2010PropOp42
 70
     1
102
RTVSPost2010Prop43
 90
        3
102
RTVSPost2010PropOp43
 70
     1
102
RTVSPost2010Prop44ColorIndex
 90
        5
102
RTVSPost2010Prop44ColorRGB
 90
      255
102
RTVSPost2010PropOp44
 70
     1
102
RTVSPost2010Prop45
280
     0
102
RTVSPost2010PropOp45
 70
     1
102
RTVSPost2010Prop46
 90
       50
102
RTVSPost2010PropOp46
 70
     1
102
RTVSPost2010Prop47
 90
       50
102
RTVSPost2010PropOp47
 70
     1
102
RTVSPost2010Prop48
 90
       50
102
RTVSPost2010PropOp48
 70
     1
102
RTVSPost2010Prop49
280
     0
102
RTVSPost2010PropOp49
 70
     1
102
RTVSPost2010Prop50
 90
       50
102
RTVSPost2010PropOp50
 70
     1
102
RTVSPost2010Prop51ColorIndex
 90
      256
102
RTVSPost2010Prop51ColorRGB
 90
-16777216
102
RTVSPost2010PropOp51
 70
     0
102
RTVSPost2010Prop52
140
1.0
102
RTVSPost2010PropOp52
 70
     0
102
RTVSPost2010Prop53
 90
        2
102
RTVSPost2010PropOp53
 70
     1
102
RTVSPost2010Prop54
  1
strokes_ogs.tif
102
RTVSPost2010PropOp54
 70
     1
102
RTVSPost2010Prop55
280
     0
102
RTVSPost2010PropOp55
 70
     1
102
RTVSPost2010Prop56
140
1.0
102
RTVSPost2010PropOp56
 70
     1
102
RTVSPost2010Prop57
140
1.0
102
RTVSPost2010PropOp57
 70
     1
102
RTVSPropertyOp0
 70
     1
102
RTVSPropertyOp1
 70
     1
102
RTVSPropertyOp2
 70
     1
102
RTVSPropertyOp3
 70
     1
102
RTVSPropertyOp4
 70
     1
102
RTVSPropertyOp5
 70
     1
102
RTVSPropertyOp6
 70
     1
102
RTVSPropertyOp7
 70
     1
102
RTVSPropertyOp8
 70
     1
102
RTVSPropertyOp9
 70
     1
102
RTVSPropertyOp10
 70
     1
102
RTVSPropertyOp11
 70
     1
102
RTVSPropertyOp12
 70
     1
102
RTVSPropertyOp13
 70
     1
102
RTVSPropertyOp14
 70
     1
102
RTVSPropertyOp15
 70
     1
102
RTVSPropertyOp16
 70
     1
102
RTVSPropertyOp17
 70
     1
102
RTVSPropertyOp18
 70
     1
102
RTVSPropertyOp19
 70
     1
102
RTVSPropertyOp20
 70
     1
102
RTVSPropertyOp21
 70
     1
102
RTVSPropertyOp22
 70
     1
102
RTVSPropertyOp23
 70
     1
102
RTVSPropertyOp24
 70
     1
102
RTVSPropertyOp25
 70
     1
102
RTVSPropertyOp26
 70
     1
102
RTVSPropertyOp27
 70
     1
102
RTVSPropertyOp28
 70
     1
102
RTVSPropertyOp29
 70
     1
102
RTVSPropertyOp30
 70
     1
102
RTVSPropertyOp31
 70
     1
102
RTVSPropertyOp32
 70
     1
102
RTVSPropertyOp33
 70
     1
102
RTVSPropertyOp34
 70
     1
102
RTVSPropertyOp35
 70
     1
102
RTVSPropertyOp36
 70
     1
102
RTVSPropertyOp37
 70
     1
102
RTVSPropertyOp38
 70
     1
102
RTVSPropertyOp39
 70
     1
102
RTVSPropertyOp40
 70
     1
102
RTVSPropertyOp41
 70
     1
102
RTVSPropertyOp42
 70
     1
102
RTVSPropertyOp43
 70
     1
102
RTVSPropertyOp44
 70
     1
102
RTVSPropertyOp45
 70
     1
102
RTVSPropertyOp46
 70
     1
102
RTVSPropertyOp47
 70
     1
102
RTVSPropertyOp48
 70
     1
102
RTVSPropertyOp49
 70
     1
102
RTVSPropertyOp50
 70
     1
102
RTVSPropertyOp51
 70
     0
102
RTVSPropertyOp52
 70
     0
102
RTVSPropertyOp53
 70
     1
102
RTVSPropertyOp54
 70
     1
102
RTVSPropertyOp55
 70
     1
102
RTVSPropertyOp56
 70
     1
102
RTVSPropertyOp57
 70
     1
102
RTVSPropertyOp58
 70
     1
102
RTVSPropertyOp59
 70
     1
102
RTVSPropertyOp60
 70
     1
102
RTVSPropertyOp61
 70
     1
102
RTVSPropertyOp62
 70
     1
  0
XRECORD
  5
B0DD
102
{ACAD_REACTORS
330
B0DC
102
}
330
B0DC
100
AcDbXrecord
280
     1
102
RTVSPost2010Prop28
280
     0
102
RTVSPost2010PropOp28
 70
     1
102
RTVSPost2010Prop29
280
     1
102
RTVSPost2010PropOp29
 70
     1
102
RTVSPost2010Prop30
280
     1
102
RTVSPost2010PropOp30
 70
     1
102
RTVSPost2010Prop31
280
     0
102
RTVSPost2010PropOp31
 70
     1
102
RTVSPost2010Prop32
280
     0
102
RTVSPost2010PropOp32
 70
     1
102
RTVSPost2010Prop33
280
     0
102
RTVSPost2010PropOp33
 70
     1
102
RTVSPost2010Prop34
280
     0
102
RTVSPost2010PropOp34
 70
     1
102
RTVSPost2010Prop35
280
     0
102
RTVSPost2010PropOp35
 70
     1
102
RTVSPost2010Prop36
280
     0
102
RTVSPost2010PropOp36
 70
     1
102
RTVSPost2010Prop37
 90
       50
102
RTVSPost2010PropOp37
 70
     1
102
RTVSPost2010Prop38
140
0.0
102
RTVSPost2010PropOp38
 70
     1
102
RTVSPost2010Prop39
140
1.0
102
RTVSPost2010PropOp39
 70
     1
102
RTVSPost2010Prop40
 90
        0
102
RTVSPost2010PropOp40
 70
     1
102
RTVSPost2010Prop41ColorIndex
 90
       18
102
RTVSPost2010Prop41ColorRGB
 90
        0
102
RTVSPost2010PropOp41
 70
     1
102
RTVSPost2010Prop42
 90
       50
102
RTVSPost2010PropOp42
 70
     1
102
RTVSPost2010Prop43
 90
        3
102
RTVSPost2010PropOp43
 70
     1
102
RTVSPost2010Prop44ColorIndex
 90
        5
102
RTVSPost2010Prop44ColorRGB
 90
      255
102
RTVSPost2010PropOp44
 70
     1
102
RTVSPost2010Prop45
280
     0
102
RTVSPost2010PropOp45
 70
     1
102
RTVSPost2010Prop46
 90
       50
102
RTVSPost2010PropOp46
 70
     1
102
RTVSPost2010Prop47
 90
       50
102
RTVSPost2010PropOp47
 70
     1
102
RTVSPost2010Prop48
 90
       50
102
RTVSPost2010PropOp48
 70
     1
102
RTVSPost2010Prop49
280
     0
102
RTVSPost2010PropOp49
 70
     1
102
RTVSPost2010Prop50
 90
       50
102
RTVSPost2010PropOp50
 70
     1
102
RTVSPost2010Prop51ColorIndex
 90
      256
102
RTVSPost2010Prop51ColorRGB
 90
-16777216
102
RTVSPost2010PropOp51
 70
     0
102
RTVSPost2010Prop52
140
1.0
102
RTVSPost2010PropOp52
 70
     0
102
RTVSPost2010Prop53
 90
        2
102
RTVSPost2010PropOp53
 70
     1
102
RTVSPost2010Prop54
  1
strokes_ogs.tif
102
RTVSPost2010PropOp54
 70
     1
102
RTVSPost2010Prop55
280
     0
102
RTVSPost2010PropOp55
 70
     1
102
RTVSPost2010Prop56
140
1.0
102
RTVSPost2010PropOp56
 70
     1
102
RTVSPost2010Prop57
140
1.0
102
RTVSPost2010PropOp57
 70
     1
102
RTVSPropertyOp0
 70
     1
102
RTVSPropertyOp1
 70
     1
102
RTVSPropertyOp2
 70
     1
102
RTVSPropertyOp3
 70
     1
102
RTVSPropertyOp4
 70
     1
102
RTVSPropertyOp5
 70
     1
102
RTVSPropertyOp6
 70
     1
102
RTVSPropertyOp7
 70
     1
102
RTVSPropertyOp8
 70
     1
102
RTVSPropertyOp9
 70
     1
102
RTVSPropertyOp10
 70
     1
102
RTVSPropertyOp11
 70
     1
102
RTVSPropertyOp12
 70
     1
102
RTVSPropertyOp13
 70
     1
102
RTVSPropertyOp14
 70
     1
102
RTVSPropertyOp15
 70
     1
102
RTVSPropertyOp16
 70
     1
102
RTVSPropertyOp17
 70
     1
102
RTVSPropertyOp18
 70
     1
102
RTVSPropertyOp19
 70
     1
102
RTVSPropertyOp20
 70
     1
102
RTVSPropertyOp21
 70
     1
102
RTVSPropertyOp22
 70
     1
102
RTVSPropertyOp23
 70
     1
102
RTVSPropertyOp24
 70
     1
102
RTVSPropertyOp25
 70
     1
102
RTVSPropertyOp26
 70
     1
102
RTVSPropertyOp27
 70
     1
102
RTVSPropertyOp28
 70
     1
102
RTVSPropertyOp29
 70
     1
102
RTVSPropertyOp30
 70
     1
102
RTVSPropertyOp31
 70
     1
102
RTVSPropertyOp32
 70
     1
102
RTVSPropertyOp33
 70
     1
102
RTVSPropertyOp34
 70
     1
102
RTVSPropertyOp35
 70
     1
102
RTVSPropertyOp36
 70
     1
102
RTVSPropertyOp37
 70
     1
102
RTVSPropertyOp38
 70
     1
102
RTVSPropertyOp39
 70
     1
102
RTVSPropertyOp40
 70
     1
102
RTVSPropertyOp41
 70
     1
102
RTVSPropertyOp42
 70
     1
102
RTVSPropertyOp43
 70
     1
102
RTVSPropertyOp44
 70
     1
102
RTVSPropertyOp45
 70
     1
102
RTVSPropertyOp46
 70
     1
102
RTVSPropertyOp47
 70
     1
102
RTVSPropertyOp48
 70
     1
102
RTVSPropertyOp49
 70
     1
102
RTVSPropertyOp50
 70
     1
102
RTVSPropertyOp51
 70
     0
102
RTVSPropertyOp52
 70
     0
102
RTVSPropertyOp53
 70
     1
102
RTVSPropertyOp54
 70
     1
102
RTVSPropertyOp55
 70
     1
102
RTVSPropertyOp56
 70
     1
102
RTVSPropertyOp57
 70
     1
102
RTVSPropertyOp58
 70
     1
102
RTVSPropertyOp59
 70
     1
102
RTVSPropertyOp60
 70
     1
102
RTVSPropertyOp61
 70
     1
102
RTVSPropertyOp62
 70
     1
  0
XRECORD
  5
B0E5
102
{ACAD_REACTORS
330
B0E4
102
}
330
B0E4
100
AcDbXrecord
280
     1
102
RTVSPost2010Prop28
280
     0
102
RTVSPost2010PropOp28
 70
     1
102
RTVSPost2010Prop29
280
     1
102
RTVSPost2010PropOp29
 70
     1
102
RTVSPost2010Prop30
280
     1
102
RTVSPost2010PropOp30
 70
     1
102
RTVSPost2010Prop31
280
     0
102
RTVSPost2010PropOp31
 70
     1
102
RTVSPost2010Prop32
280
     0
102
RTVSPost2010PropOp32
 70
     1
102
RTVSPost2010Prop33
280
     0
102
RTVSPost2010PropOp33
 70
     1
102
RTVSPost2010Prop34
280
     0
102
RTVSPost2010PropOp34
 70
     1
102
RTVSPost2010Prop35
280
     0
102
RTVSPost2010PropOp35
 70
     1
102
RTVSPost2010Prop36
280
     0
102
RTVSPost2010PropOp36
 70
     1
102
RTVSPost2010Prop37
 90
       50
102
RTVSPost2010PropOp37
 70
     1
102
RTVSPost2010Prop38
140
0.0
102
RTVSPost2010PropOp38
 70
     1
102
RTVSPost2010Prop39
140
1.0
102
RTVSPost2010PropOp39
 70
     1
102
RTVSPost2010Prop40
 90
        0
102
RTVSPost2010PropOp40
 70
     1
102
RTVSPost2010Prop41ColorIndex
 90
       18
102
RTVSPost2010Prop41ColorRGB
 90
        0
102
RTVSPost2010PropOp41
 70
     1
102
RTVSPost2010Prop42
 90
       50
102
RTVSPost2010PropOp42
 70
     1
102
RTVSPost2010Prop43
 90
        3
102
RTVSPost2010PropOp43
 70
     1
102
RTVSPost2010Prop44ColorIndex
 90
        5
102
RTVSPost2010Prop44ColorRGB
 90
      255
102
RTVSPost2010PropOp44
 70
     1
102
RTVSPost2010Prop45
280
     0
102
RTVSPost2010PropOp45
 70
     1
102
RTVSPost2010Prop46
 90
       50
102
RTVSPost2010PropOp46
 70
     1
102
RTVSPost2010Prop47
 90
       50
102
RTVSPost2010PropOp47
 70
     1
102
RTVSPost2010Prop48
 90
       50
102
RTVSPost2010PropOp48
 70
     1
102
RTVSPost2010Prop49
280
     0
102
RTVSPost2010PropOp49
 70
     1
102
RTVSPost2010Prop50
 90
       50
102
RTVSPost2010PropOp50
 70
     1
102
RTVSPost2010Prop51ColorIndex
 90
      256
102
RTVSPost2010Prop51ColorRGB
 90
-16777216
102
RTVSPost2010PropOp51
 70
     0
102
RTVSPost2010Prop52
140
1.0
102
RTVSPost2010PropOp52
 70
     0
102
RTVSPost2010Prop53
 90
        2
102
RTVSPost2010PropOp53
 70
     1
102
RTVSPost2010Prop54
  1
strokes_ogs.tif
102
RTVSPost2010PropOp54
 70
     1
102
RTVSPost2010Prop55
280
     0
102
RTVSPost2010PropOp55
 70
     1
102
RTVSPost2010Prop56
140
1.0
102
RTVSPost2010PropOp56
 70
     1
102
RTVSPost2010Prop57
140
1.0
102
RTVSPost2010PropOp57
 70
     1
102
RTVSPropertyOp0
 70
     1
102
RTVSPropertyOp1
 70
     1
102
RTVSPropertyOp2
 70
     1
102
RTVSPropertyOp3
 70
     1
102
RTVSPropertyOp4
 70
     1
102
RTVSPropertyOp5
 70
     1
102
RTVSPropertyOp6
 70
     1
102
RTVSPropertyOp7
 70
     1
102
RTVSPropertyOp8
 70
     1
102
RTVSPropertyOp9
 70
     1
102
RTVSPropertyOp10
 70
     1
102
RTVSPropertyOp11
 70
     1
102
RTVSPropertyOp12
 70
     1
102
RTVSPropertyOp13
 70
     1
102
RTVSPropertyOp14
 70
     1
102
RTVSPropertyOp15
 70
     1
102
RTVSPropertyOp16
 70
     1
102
RTVSPropertyOp17
 70
     1
102
RTVSPropertyOp18
 70
     1
102
RTVSPropertyOp19
 70
     1
102
RTVSPropertyOp20
 70
     1
102
RTVSPropertyOp21
 70
     1
102
RTVSPropertyOp22
 70
     1
102
RTVSPropertyOp23
 70
     1
102
RTVSPropertyOp24
 70
     1
102
RTVSPropertyOp25
 70
     1
102
RTVSPropertyOp26
 70
     1
102
RTVSPropertyOp27
 70
     1
102
RTVSPropertyOp28
 70
     1
102
RTVSPropertyOp29
 70
     1
102
RTVSPropertyOp30
 70
     1
102
RTVSPropertyOp31
 70
     1
102
RTVSPropertyOp32
 70
     1
102
RTVSPropertyOp33
 70
     1
102
RTVSPropertyOp34
 70
     1
102
RTVSPropertyOp35
 70
     1
102
RTVSPropertyOp36
 70
     1
102
RTVSPropertyOp37
 70
     1
102
RTVSPropertyOp38
 70
     1
102
RTVSPropertyOp39
 70
     1
102
RTVSPropertyOp40
 70
     1
102
RTVSPropertyOp41
 70
     1
102
RTVSPropertyOp42
 70
     1
102
RTVSPropertyOp43
 70
     1
102
RTVSPropertyOp44
 70
     1
102
RTVSPropertyOp45
 70
     1
102
RTVSPropertyOp46
 70
     1
102
RTVSPropertyOp47
 70
     1
102
RTVSPropertyOp48
 70
     1
102
RTVSPropertyOp49
 70
     1
102
RTVSPropertyOp50
 70
     1
102
RTVSPropertyOp51
 70
     0
102
RTVSPropertyOp52
 70
     0
102
RTVSPropertyOp53
 70
     1
102
RTVSPropertyOp54
 70
     1
102
RTVSPropertyOp55
 70
     1
102
RTVSPropertyOp56
 70
     1
102
RTVSPropertyOp57
 70
     1
102
RTVSPropertyOp58
 70
     1
102
RTVSPropertyOp59
 70
     1
102
RTVSPropertyOp60
 70
     1
102
RTVSPropertyOp61
 70
     1
102
RTVSPropertyOp62
 70
     1
  0
XRECORD
  5
B101
102
{ACAD_REACTORS
330
B100
102
}
330
B100
100
AcDbXrecord
280
     1
102
RTVSPost2010Prop28
280
     0
102
RTVSPost2010PropOp28
 70
     1
102
RTVSPost2010Prop29
280
     1
102
RTVSPost2010PropOp29
 70
     1
102
RTVSPost2010Prop30
280
     1
102
RTVSPost2010PropOp30
 70
     1
102
RTVSPost2010Prop31
280
     0
102
RTVSPost2010PropOp31
 70
     1
102
RTVSPost2010Prop32
280
     0
102
RTVSPost2010PropOp32
 70
     1
102
RTVSPost2010Prop33
280
     0
102
RTVSPost2010PropOp33
 70
     1
102
RTVSPost2010Prop34
280
     0
102
RTVSPost2010PropOp34
 70
     1
102
RTVSPost2010Prop35
280
     0
102
RTVSPost2010PropOp35
 70
     1
102
RTVSPost2010Prop36
280
     0
102
RTVSPost2010PropOp36
 70
     1
102
RTVSPost2010Prop37
 90
       50
102
RTVSPost2010PropOp37
 70
     0
102
RTVSPost2010Prop38
140
0.0
102
RTVSPost2010PropOp38
 70
     0
102
RTVSPost2010Prop39
140
1.0
102
RTVSPost2010PropOp39
 70
     0
102
RTVSPost2010Prop40
 90
        0
102
RTVSPost2010PropOp40
 70
     0
102
RTVSPost2010Prop41ColorIndex
 90
       18
102
RTVSPost2010Prop41ColorRGB
 90
        0
102
RTVSPost2010PropOp41
 70
     0
102
RTVSPost2010Prop42
 90
       50
102
RTVSPost2010PropOp42
 70
     0
102
RTVSPost2010Prop43
 90
        3
102
RTVSPost2010PropOp43
 70
     0
102
RTVSPost2010Prop44ColorIndex
 90
        5
102
RTVSPost2010Prop44ColorRGB
 90
      255
102
RTVSPost2010PropOp44
 70
     0
102
RTVSPost2010Prop45
280
     0
102
RTVSPost2010PropOp45
 70
     1
102
RTVSPost2010Prop46
 90
       50
102
RTVSPost2010PropOp46
 70
     0
102
RTVSPost2010Prop47
 90
       50
102
RTVSPost2010PropOp47
 70
     0
102
RTVSPost2010Prop48
 90
       50
102
RTVSPost2010PropOp48
 70
     0
102
RTVSPost2010Prop49
280
     0
102
RTVSPost2010PropOp49
 70
     1
102
RTVSPost2010Prop50
 90
       50
102
RTVSPost2010PropOp50
 70
     0
102
RTVSPost2010Prop51ColorIndex
 90
      256
102
RTVSPost2010Prop51ColorRGB
 90
-16777216
102
RTVSPost2010PropOp51
 70
     0
102
RTVSPost2010Prop52
140
1.0
102
RTVSPost2010PropOp52
 70
     0
102
RTVSPost2010Prop53
 90
        2
102
RTVSPost2010PropOp53
 70
     0
102
RTVSPost2010Prop54
  1
strokes_ogs.tif
102
RTVSPost2010PropOp54
 70
     0
102
RTVSPost2010Prop55
280
     0
102
RTVSPost2010PropOp55
 70
     1
102
RTVSPost2010Prop56
140
1.0
102
RTVSPost2010PropOp56
 70
     0
102
RTVSPost2010Prop57
140
1.0
102
RTVSPost2010PropOp57
 70
     0
102
RTVSPropertyOp0
 70
     0
102
RTVSPropertyOp1
 70
     0
102
RTVSPropertyOp2
 70
     0
102
RTVSPropertyOp3
 70
     0
102
RTVSPropertyOp4
 70
     0
102
RTVSPropertyOp5
 70
     0
102
RTVSPropertyOp6
 70
     0
102
RTVSPropertyOp7
 70
     0
102
RTVSPropertyOp8
 70
     0
102
RTVSPropertyOp9
 70
     0
102
RTVSPropertyOp10
 70
     0
102
RTVSPropertyOp11
 70
     0
102
RTVSPropertyOp12
 70
     0
102
RTVSPropertyOp13
 70
     0
102
RTVSPropertyOp14
 70
     2
102
RTVSPropertyOp15
 70
     0
102
RTVSPropertyOp16
 70
     0
102
RTVSPropertyOp17
 70
     0
102
RTVSPropertyOp18
 70
     0
102
RTVSPropertyOp19
 70
     0
102
RTVSPropertyOp20
 70
     0
102
RTVSPropertyOp21
 70
     0
102
RTVSPropertyOp22
 70
     0
102
RTVSPropertyOp23
 70
     0
102
RTVSPropertyOp24
 70
     0
102
RTVSPropertyOp25
 70
     0
102
RTVSPropertyOp26
 70
     0
102
RTVSPropertyOp27
 70
     0
102
RTVSPropertyOp28
 70
     1
102
RTVSPropertyOp29
 70
     1
102
RTVSPropertyOp30
 70
     1
102
RTVSPropertyOp31
 70
     1
102
RTVSPropertyOp32
 70
     1
102
RTVSPropertyOp33
 70
     1
102
RTVSPropertyOp34
 70
     1
102
RTVSPropertyOp35
 70
     1
102
RTVSPropertyOp36
 70
     1
102
RTVSPropertyOp37
 70
     0
102
RTVSPropertyOp38
 70
     0
102
RTVSPropertyOp39
 70
     0
102
RTVSPropertyOp40
 70
     0
102
RTVSPropertyOp41
 70
     0
102
RTVSPropertyOp42
 70
     0
102
RTVSPropertyOp43
 70
     0
102
RTVSPropertyOp44
 70
     0
102
RTVSPropertyOp45
 70
     1
102
RTVSPropertyOp46
 70
     0
102
RTVSPropertyOp47
 70
     0
102
RTVSPropertyOp48
 70
     0
102
RTVSPropertyOp49
 70
     1
102
RTVSPropertyOp50
 70
     0
102
RTVSPropertyOp51
 70
     0
102
RTVSPropertyOp52
 70
     0
102
RTVSPropertyOp53
 70
     0
102
RTVSPropertyOp54
 70
     0
102
RTVSPropertyOp55
 70
     1
102
RTVSPropertyOp56
 70
     0
102
RTVSPropertyOp57
 70
     0
102
RTVSPropertyOp58
 70
     0
102
RTVSPropertyOp59
 70
     0
102
RTVSPropertyOp60
 70
     0
102
RTVSPropertyOp61
 70
     0
102
RTVSPropertyOp62
 70
     0
  0
XRECORD
  5
B0F1
102
{ACAD_REACTORS
330
B0F0
102
}
330
B0F0
100
AcDbXrecord
280
     1
102
RTVSPost2010Prop28
280
     0
102
RTVSPost2010PropOp28
 70
     1
102
RTVSPost2010Prop29
280
     1
102
RTVSPost2010PropOp29
 70
     1
102
RTVSPost2010Prop30
280
     1
102
RTVSPost2010PropOp30
 70
     1
102
RTVSPost2010Prop31
280
     0
102
RTVSPost2010PropOp31
 70
     1
102
RTVSPost2010Prop32
280
     0
102
RTVSPost2010PropOp32
 70
     1
102
RTVSPost2010Prop33
280
     0
102
RTVSPost2010PropOp33
 70
     1
102
RTVSPost2010Prop34
280
     0
102
RTVSPost2010PropOp34
 70
     1
102
RTVSPost2010Prop35
280
     0
102
RTVSPost2010PropOp35
 70
     1
102
RTVSPost2010Prop36
280
     0
102
RTVSPost2010PropOp36
 70
     1
102
RTVSPost2010Prop37
 90
       50
102
RTVSPost2010PropOp37
 70
     1
102
RTVSPost2010Prop38
140
0.0
102
RTVSPost2010PropOp38
 70
     1
102
RTVSPost2010Prop39
140
1.0
102
RTVSPost2010PropOp39
 70
     1
102
RTVSPost2010Prop40
 90
        0
102
RTVSPost2010PropOp40
 70
     1
102
RTVSPost2010Prop41ColorIndex
 90
       18
102
RTVSPost2010Prop41ColorRGB
 90
        0
102
RTVSPost2010PropOp41
 70
     1
102
RTVSPost2010Prop42
 90
       50
102
RTVSPost2010PropOp42
 70
     1
102
RTVSPost2010Prop43
 90
        3
102
RTVSPost2010PropOp43
 70
     1
102
RTVSPost2010Prop44ColorIndex
 90
        5
102
RTVSPost2010Prop44ColorRGB
 90
      255
102
RTVSPost2010PropOp44
 70
     1
102
RTVSPost2010Prop45
280
     0
102
RTVSPost2010PropOp45
 70
     1
102
RTVSPost2010Prop46
 90
       50
102
RTVSPost2010PropOp46
 70
     1
102
RTVSPost2010Prop47
 90
       50
102
RTVSPost2010PropOp47
 70
     1
102
RTVSPost2010Prop48
 90
       50
102
RTVSPost2010PropOp48
 70
     1
102
RTVSPost2010Prop49
280
     0
102
RTVSPost2010PropOp49
 70
     1
102
RTVSPost2010Prop50
 90
       50
102
RTVSPost2010PropOp50
 70
     1
102
RTVSPost2010Prop51ColorIndex
 90
      256
102
RTVSPost2010Prop51ColorRGB
 90
-16777216
102
RTVSPost2010PropOp51
 70
     0
102
RTVSPost2010Prop52
140
1.0
102
RTVSPost2010PropOp52
 70
     0
102
RTVSPost2010Prop53
 90
        2
102
RTVSPost2010PropOp53
 70
     1
102
RTVSPost2010Prop54
  1
strokes_ogs.tif
102
RTVSPost2010PropOp54
 70
     1
102
RTVSPost2010Prop55
280
     0
102
RTVSPost2010PropOp55
 70
     1
102
RTVSPost2010Prop56
140
1.0
102
RTVSPost2010PropOp56
 70
     1
102
RTVSPost2010Prop57
140
1.0
102
RTVSPost2010PropOp57
 70
     1
102
RTVSPropertyOp0
 70
     1
102
RTVSPropertyOp1
 70
     1
102
RTVSPropertyOp2
 70
     1
102
RTVSPropertyOp3
 70
     1
102
RTVSPropertyOp4
 70
     1
102
RTVSPropertyOp5
 70
     1
102
RTVSPropertyOp6
 70
     1
102
RTVSPropertyOp7
 70
     1
102
RTVSPropertyOp8
 70
     1
102
RTVSPropertyOp9
 70
     1
102
RTVSPropertyOp10
 70
     1
102
RTVSPropertyOp11
 70
     1
102
RTVSPropertyOp12
 70
     1
102
RTVSPropertyOp13
 70
     1
102
RTVSPropertyOp14
 70
     1
102
RTVSPropertyOp15
 70
     1
102
RTVSPropertyOp16
 70
     1
102
RTVSPropertyOp17
 70
     1
102
RTVSPropertyOp18
 70
     1
102
RTVSPropertyOp19
 70
     1
102
RTVSPropertyOp20
 70
     1
102
RTVSPropertyOp21
 70
     1
102
RTVSPropertyOp22
 70
     1
102
RTVSPropertyOp23
 70
     1
102
RTVSPropertyOp24
 70
     1
102
RTVSPropertyOp25
 70
     1
102
RTVSPropertyOp26
 70
     1
102
RTVSPropertyOp27
 70
     1
102
RTVSPropertyOp28
 70
     1
102
RTVSPropertyOp29
 70
     1
102
RTVSPropertyOp30
 70
     1
102
RTVSPropertyOp31
 70
     1
102
RTVSPropertyOp32
 70
     1
102
RTVSPropertyOp33
 70
     1
102
RTVSPropertyOp34
 70
     1
102
RTVSPropertyOp35
 70
     1
102
RTVSPropertyOp36
 70
     1
102
RTVSPropertyOp37
 70
     1
102
RTVSPropertyOp38
 70
     1
102
RTVSPropertyOp39
 70
     1
102
RTVSPropertyOp40
 70
     1
102
RTVSPropertyOp41
 70
     1
102
RTVSPropertyOp42
 70
     1
102
RTVSPropertyOp43
 70
     1
102
RTVSPropertyOp44
 70
     1
102
RTVSPropertyOp45
 70
     1
102
RTVSPropertyOp46
 70
     1
102
RTVSPropertyOp47
 70
     1
102
RTVSPropertyOp48
 70
     1
102
RTVSPropertyOp49
 70
     1
102
RTVSPropertyOp50
 70
     1
102
RTVSPropertyOp51
 70
     0
102
RTVSPropertyOp52
 70
     0
102
RTVSPropertyOp53
 70
     1
102
RTVSPropertyOp54
 70
     1
102
RTVSPropertyOp55
 70
     1
102
RTVSPropertyOp56
 70
     1
102
RTVSPropertyOp57
 70
     1
102
RTVSPropertyOp58
 70
     1
102
RTVSPropertyOp59
 70
     1
102
RTVSPropertyOp60
 70
     1
102
RTVSPropertyOp61
 70
     1
102
RTVSPropertyOp62
 70
     1
  0
XRECORD
  5
B103
102
{ACAD_REACTORS
330
B102
102
}
330
B102
100
AcDbXrecord
280
     1
102
RTVSPost2010Prop28
280
     0
102
RTVSPost2010PropOp28
 70
     1
102
RTVSPost2010Prop29
280
     1
102
RTVSPost2010PropOp29
 70
     1
102
RTVSPost2010Prop30
280
     1
102
RTVSPost2010PropOp30
 70
     1
102
RTVSPost2010Prop31
280
     0
102
RTVSPost2010PropOp31
 70
     1
102
RTVSPost2010Prop32
280
     0
102
RTVSPost2010PropOp32
 70
     1
102
RTVSPost2010Prop33
280
     0
102
RTVSPost2010PropOp33
 70
     1
102
RTVSPost2010Prop34
280
     0
102
RTVSPost2010PropOp34
 70
     1
102
RTVSPost2010Prop35
280
     0
102
RTVSPost2010PropOp35
 70
     1
102
RTVSPost2010Prop36
280
     0
102
RTVSPost2010PropOp36
 70
     1
102
RTVSPost2010Prop37
 90
       50
102
RTVSPost2010PropOp37
 70
     0
102
RTVSPost2010Prop38
140
0.0
102
RTVSPost2010PropOp38
 70
     0
102
RTVSPost2010Prop39
140
1.0
102
RTVSPost2010PropOp39
 70
     0
102
RTVSPost2010Prop40
 90
        0
102
RTVSPost2010PropOp40
 70
     0
102
RTVSPost2010Prop41ColorIndex
 90
       18
102
RTVSPost2010Prop41ColorRGB
 90
        0
102
RTVSPost2010PropOp41
 70
     0
102
RTVSPost2010Prop42
 90
       50
102
RTVSPost2010PropOp42
 70
     0
102
RTVSPost2010Prop43
 90
        3
102
RTVSPost2010PropOp43
 70
     0
102
RTVSPost2010Prop44ColorIndex
 90
        5
102
RTVSPost2010Prop44ColorRGB
 90
      255
102
RTVSPost2010PropOp44
 70
     0
102
RTVSPost2010Prop45
280
     0
102
RTVSPost2010PropOp45
 70
     1
102
RTVSPost2010Prop46
 90
       50
102
RTVSPost2010PropOp46
 70
     0
102
RTVSPost2010Prop47
 90
       50
102
RTVSPost2010PropOp47
 70
     0
102
RTVSPost2010Prop48
 90
       50
102
RTVSPost2010PropOp48
 70
     0
102
RTVSPost2010Prop49
280
     0
102
RTVSPost2010PropOp49
 70
     1
102
RTVSPost2010Prop50
 90
       50
102
RTVSPost2010PropOp50
 70
     0
102
RTVSPost2010Prop51ColorIndex
 90
      256
102
RTVSPost2010Prop51ColorRGB
 90
-16777216
102
RTVSPost2010PropOp51
 70
     0
102
RTVSPost2010Prop52
140
1.0
102
RTVSPost2010PropOp52
 70
     0
102
RTVSPost2010Prop53
 90
        2
102
RTVSPost2010PropOp53
 70
     0
102
RTVSPost2010Prop54
  1
strokes_ogs.tif
102
RTVSPost2010PropOp54
 70
     0
102
RTVSPost2010Prop55
280
     0
102
RTVSPost2010PropOp55
 70
     1
102
RTVSPost2010Prop56
140
1.0
102
RTVSPost2010PropOp56
 70
     0
102
RTVSPost2010Prop57
140
1.0
102
RTVSPost2010PropOp57
 70
     0
102
RTVSPropertyOp0
 70
     0
102
RTVSPropertyOp1
 70
     0
102
RTVSPropertyOp2
 70
     0
102
RTVSPropertyOp3
 70
     0
102
RTVSPropertyOp4
 70
     0
102
RTVSPropertyOp5
 70
     0
102
RTVSPropertyOp6
 70
     0
102
RTVSPropertyOp7
 70
     0
102
RTVSPropertyOp8
 70
     0
102
RTVSPropertyOp9
 70
     0
102
RTVSPropertyOp10
 70
     0
102
RTVSPropertyOp11
 70
     0
102
RTVSPropertyOp12
 70
     0
102
RTVSPropertyOp13
 70
     0
102
RTVSPropertyOp14
 70
     2
102
RTVSPropertyOp15
 70
     0
102
RTVSPropertyOp16
 70
     0
102
RTVSPropertyOp17
 70
     0
102
RTVSPropertyOp18
 70
     0
102
RTVSPropertyOp19
 70
     0
102
RTVSPropertyOp20
 70
     0
102
RTVSPropertyOp21
 70
     0
102
RTVSPropertyOp22
 70
     0
102
RTVSPropertyOp23
 70
     0
102
RTVSPropertyOp24
 70
     0
102
RTVSPropertyOp25
 70
     0
102
RTVSPropertyOp26
 70
     0
102
RTVSPropertyOp27
 70
     0
102
RTVSPropertyOp28
 70
     1
102
RTVSPropertyOp29
 70
     1
102
RTVSPropertyOp30
 70
     1
102
RTVSPropertyOp31
 70
     1
102
RTVSPropertyOp32
 70
     1
102
RTVSPropertyOp33
 70
     1
102
RTVSPropertyOp34
 70
     1
102
RTVSPropertyOp35
 70
     1
102
RTVSPropertyOp36
 70
     1
102
RTVSPropertyOp37
 70
     0
102
RTVSPropertyOp38
 70
     0
102
RTVSPropertyOp39
 70
     0
102
RTVSPropertyOp40
 70
     0
102
RTVSPropertyOp41
 70
     0
102
RTVSPropertyOp42
 70
     0
102
RTVSPropertyOp43
 70
     0
102
RTVSPropertyOp44
 70
     0
102
RTVSPropertyOp45
 70
     1
102
RTVSPropertyOp46
 70
     0
102
RTVSPropertyOp47
 70
     0
102
RTVSPropertyOp48
 70
     0
102
RTVSPropertyOp49
 70
     1
102
RTVSPropertyOp50
 70
     0
102
RTVSPropertyOp51
 70
     0
102
RTVSPropertyOp52
 70
     0
102
RTVSPropertyOp53
 70
     0
102
RTVSPropertyOp54
 70
     0
102
RTVSPropertyOp55
 70
     1
102
RTVSPropertyOp56
 70
     0
102
RTVSPropertyOp57
 70
     0
102
RTVSPropertyOp58
 70
     0
102
RTVSPropertyOp59
 70
     0
102
RTVSPropertyOp60
 70
     0
102
RTVSPropertyOp61
 70
     0
102
RTVSPropertyOp62
 70
     0
  0
XRECORD
  5
B0E9
102
{ACAD_REACTORS
330
B0E8
102
}
330
B0E8
100
AcDbXrecord
280
     1
102
RTVSPost2010Prop28
280
     0
102
RTVSPost2010PropOp28
 70
     1
102
RTVSPost2010Prop29
280
     1
102
RTVSPost2010PropOp29
 70
     1
102
RTVSPost2010Prop30
280
     1
102
RTVSPost2010PropOp30
 70
     1
102
RTVSPost2010Prop31
280
     0
102
RTVSPost2010PropOp31
 70
     1
102
RTVSPost2010Prop32
280
     0
102
RTVSPost2010PropOp32
 70
     1
102
RTVSPost2010Prop33
280
     0
102
RTVSPost2010PropOp33
 70
     1
102
RTVSPost2010Prop34
280
     0
102
RTVSPost2010PropOp34
 70
     1
102
RTVSPost2010Prop35
280
     0
102
RTVSPost2010PropOp35
 70
     1
102
RTVSPost2010Prop36
280
     0
102
RTVSPost2010PropOp36
 70
     1
102
RTVSPost2010Prop37
 90
       50
102
RTVSPost2010PropOp37
 70
     1
102
RTVSPost2010Prop38
140
0.0
102
RTVSPost2010PropOp38
 70
     1
102
RTVSPost2010Prop39
140
1.0
102
RTVSPost2010PropOp39
 70
     1
102
RTVSPost2010Prop40
 90
        0
102
RTVSPost2010PropOp40
 70
     1
102
RTVSPost2010Prop41ColorIndex
 90
       18
102
RTVSPost2010Prop41ColorRGB
 90
        0
102
RTVSPost2010PropOp41
 70
     1
102
RTVSPost2010Prop42
 90
       50
102
RTVSPost2010PropOp42
 70
     1
102
RTVSPost2010Prop43
 90
        3
102
RTVSPost2010PropOp43
 70
     1
102
RTVSPost2010Prop44ColorIndex
 90
        5
102
RTVSPost2010Prop44ColorRGB
 90
      255
102
RTVSPost2010PropOp44
 70
     1
102
RTVSPost2010Prop45
280
     0
102
RTVSPost2010PropOp45
 70
     1
102
RTVSPost2010Prop46
 90
       50
102
RTVSPost2010PropOp46
 70
     1
102
RTVSPost2010Prop47
 90
       50
102
RTVSPost2010PropOp47
 70
     1
102
RTVSPost2010Prop48
 90
       50
102
RTVSPost2010PropOp48
 70
     1
102
RTVSPost2010Prop49
280
     0
102
RTVSPost2010PropOp49
 70
     1
102
RTVSPost2010Prop50
 90
       50
102
RTVSPost2010PropOp50
 70
     1
102
RTVSPost2010Prop51ColorIndex
 90
      256
102
RTVSPost2010Prop51ColorRGB
 90
-16777216
102
RTVSPost2010PropOp51
 70
     0
102
RTVSPost2010Prop52
140
1.0
102
RTVSPost2010PropOp52
 70
     0
102
RTVSPost2010Prop53
 90
        2
102
RTVSPost2010PropOp53
 70
     1
102
RTVSPost2010Prop54
  1
strokes_ogs.tif
102
RTVSPost2010PropOp54
 70
     1
102
RTVSPost2010Prop55
280
     0
102
RTVSPost2010PropOp55
 70
     1
102
RTVSPost2010Prop56
140
1.0
102
RTVSPost2010PropOp56
 70
     1
102
RTVSPost2010Prop57
140
1.0
102
RTVSPost2010PropOp57
 70
     1
102
RTVSPropertyOp0
 70
     1
102
RTVSPropertyOp1
 70
     1
102
RTVSPropertyOp2
 70
     1
102
RTVSPropertyOp3
 70
     1
102
RTVSPropertyOp4
 70
     1
102
RTVSPropertyOp5
 70
     1
102
RTVSPropertyOp6
 70
     1
102
RTVSPropertyOp7
 70
     1
102
RTVSPropertyOp8
 70
     1
102
RTVSPropertyOp9
 70
     1
102
RTVSPropertyOp10
 70
     1
102
RTVSPropertyOp11
 70
     1
102
RTVSPropertyOp12
 70
     1
102
RTVSPropertyOp13
 70
     1
102
RTVSPropertyOp14
 70
     1
102
RTVSPropertyOp15
 70
     1
102
RTVSPropertyOp16
 70
     1
102
RTVSPropertyOp17
 70
     1
102
RTVSPropertyOp18
 70
     1
102
RTVSPropertyOp19
 70
     1
102
RTVSPropertyOp20
 70
     1
102
RTVSPropertyOp21
 70
     1
102
RTVSPropertyOp22
 70
     1
102
RTVSPropertyOp23
 70
     1
102
RTVSPropertyOp24
 70
     1
102
RTVSPropertyOp25
 70
     1
102
RTVSPropertyOp26
 70
     1
102
RTVSPropertyOp27
 70
     1
102
RTVSPropertyOp28
 70
     1
102
RTVSPropertyOp29
 70
     1
102
RTVSPropertyOp30
 70
     1
102
RTVSPropertyOp31
 70
     1
102
RTVSPropertyOp32
 70
     1
102
RTVSPropertyOp33
 70
     1
102
RTVSPropertyOp34
 70
     1
102
RTVSPropertyOp35
 70
     1
102
RTVSPropertyOp36
 70
     1
102
RTVSPropertyOp37
 70
     1
102
RTVSPropertyOp38
 70
     1
102
RTVSPropertyOp39
 70
     1
102
RTVSPropertyOp40
 70
     1
102
RTVSPropertyOp41
 70
     1
102
RTVSPropertyOp42
 70
     1
102
RTVSPropertyOp43
 70
     1
102
RTVSPropertyOp44
 70
     1
102
RTVSPropertyOp45
 70
     1
102
RTVSPropertyOp46
 70
     1
102
RTVSPropertyOp47
 70
     1
102
RTVSPropertyOp48
 70
     1
102
RTVSPropertyOp49
 70
     1
102
RTVSPropertyOp50
 70
     1
102
RTVSPropertyOp51
 70
     0
102
RTVSPropertyOp52
 70
     0
102
RTVSPropertyOp53
 70
     1
102
RTVSPropertyOp54
 70
     1
102
RTVSPropertyOp55
 70
     1
102
RTVSPropertyOp56
 70
     1
102
RTVSPropertyOp57
 70
     1
102
RTVSPropertyOp58
 70
     1
102
RTVSPropertyOp59
 70
     1
102
RTVSPropertyOp60
 70
     1
102
RTVSPropertyOp61
 70
     1
102
RTVSPropertyOp62
 70
     1
  0
XRECORD
  5
B0FF
102
{ACAD_REACTORS
330
B0FE
102
}
330
B0FE
100
AcDbXrecord
280
     1
102
RTVSPost2010Prop28
280
     0
102
RTVSPost2010PropOp28
 70
     1
102
RTVSPost2010Prop29
280
     1
102
RTVSPost2010PropOp29
 70
     1
102
RTVSPost2010Prop30
280
     1
102
RTVSPost2010PropOp30
 70
     1
102
RTVSPost2010Prop31
280
     0
102
RTVSPost2010PropOp31
 70
     1
102
RTVSPost2010Prop32
280
     0
102
RTVSPost2010PropOp32
 70
     1
102
RTVSPost2010Prop33
280
     0
102
RTVSPost2010PropOp33
 70
     1
102
RTVSPost2010Prop34
280
     0
102
RTVSPost2010PropOp34
 70
     1
102
RTVSPost2010Prop35
280
     0
102
RTVSPost2010PropOp35
 70
     1
102
RTVSPost2010Prop36
280
     0
102
RTVSPost2010PropOp36
 70
     1
102
RTVSPost2010Prop37
 90
       50
102
RTVSPost2010PropOp37
 70
     1
102
RTVSPost2010Prop38
140
0.0
102
RTVSPost2010PropOp38
 70
     1
102
RTVSPost2010Prop39
140
1.0
102
RTVSPost2010PropOp39
 70
     1
102
RTVSPost2010Prop40
 90
        0
102
RTVSPost2010PropOp40
 70
     1
102
RTVSPost2010Prop41ColorIndex
 90
       18
102
RTVSPost2010Prop41ColorRGB
 90
        0
102
RTVSPost2010PropOp41
 70
     1
102
RTVSPost2010Prop42
 90
       50
102
RTVSPost2010PropOp42
 70
     1
102
RTVSPost2010Prop43
 90
        3
102
RTVSPost2010PropOp43
 70
     1
102
RTVSPost2010Prop44ColorIndex
 90
        5
102
RTVSPost2010Prop44ColorRGB
 90
      255
102
RTVSPost2010PropOp44
 70
     1
102
RTVSPost2010Prop45
280
     0
102
RTVSPost2010PropOp45
 70
     1
102
RTVSPost2010Prop46
 90
       50
102
RTVSPost2010PropOp46
 70
     1
102
RTVSPost2010Prop47
 90
       50
102
RTVSPost2010PropOp47
 70
     1
102
RTVSPost2010Prop48
 90
       50
102
RTVSPost2010PropOp48
 70
     1
102
RTVSPost2010Prop49
280
     0
102
RTVSPost2010PropOp49
 70
     1
102
RTVSPost2010Prop50
 90
       50
102
RTVSPost2010PropOp50
 70
     1
102
RTVSPost2010Prop51ColorIndex
 90
      256
102
RTVSPost2010Prop51ColorRGB
 90
-16777216
102
RTVSPost2010PropOp51
 70
     0
102
RTVSPost2010Prop52
140
1.0
102
RTVSPost2010PropOp52
 70
     0
102
RTVSPost2010Prop53
 90
        2
102
RTVSPost2010PropOp53
 70
     1
102
RTVSPost2010Prop54
  1
strokes_ogs.tif
102
RTVSPost2010PropOp54
 70
     1
102
RTVSPost2010Prop55
280
     0
102
RTVSPost2010PropOp55
 70
     1
102
RTVSPost2010Prop56
140
1.0
102
RTVSPost2010PropOp56
 70
     1
102
RTVSPost2010Prop57
140
1.0
102
RTVSPost2010PropOp57
 70
     1
102
RTVSPropertyOp0
 70
     1
102
RTVSPropertyOp1
 70
     1
102
RTVSPropertyOp2
 70
     1
102
RTVSPropertyOp3
 70
     1
102
RTVSPropertyOp4
 70
     1
102
RTVSPropertyOp5
 70
     1
102
RTVSPropertyOp6
 70
     1
102
RTVSPropertyOp7
 70
     1
102
RTVSPropertyOp8
 70
     1
102
RTVSPropertyOp9
 70
     1
102
RTVSPropertyOp10
 70
     1
102
RTVSPropertyOp11
 70
     1
102
RTVSPropertyOp12
 70
     1
102
RTVSPropertyOp13
 70
     1
102
RTVSPropertyOp14
 70
     1
102
RTVSPropertyOp15
 70
     1
102
RTVSPropertyOp16
 70
     1
102
RTVSPropertyOp17
 70
     1
102
RTVSPropertyOp18
 70
     1
102
RTVSPropertyOp19
 70
     1
102
RTVSPropertyOp20
 70
     1
102
RTVSPropertyOp21
 70
     1
102
RTVSPropertyOp22
 70
     1
102
RTVSPropertyOp23
 70
     1
102
RTVSPropertyOp24
 70
     1
102
RTVSPropertyOp25
 70
     1
102
RTVSPropertyOp26
 70
     1
102
RTVSPropertyOp27
 70
     1
102
RTVSPropertyOp28
 70
     1
102
RTVSPropertyOp29
 70
     1
102
RTVSPropertyOp30
 70
     1
102
RTVSPropertyOp31
 70
     1
102
RTVSPropertyOp32
 70
     1
102
RTVSPropertyOp33
 70
     1
102
RTVSPropertyOp34
 70
     1
102
RTVSPropertyOp35
 70
     1
102
RTVSPropertyOp36
 70
     1
102
RTVSPropertyOp37
 70
     1
102
RTVSPropertyOp38
 70
     1
102
RTVSPropertyOp39
 70
     1
102
RTVSPropertyOp40
 70
     1
102
RTVSPropertyOp41
 70
     1
102
RTVSPropertyOp42
 70
     1
102
RTVSPropertyOp43
 70
     1
102
RTVSPropertyOp44
 70
     1
102
RTVSPropertyOp45
 70
     1
102
RTVSPropertyOp46
 70
     1
102
RTVSPropertyOp47
 70
     1
102
RTVSPropertyOp48
 70
     1
102
RTVSPropertyOp49
 70
     1
102
RTVSPropertyOp50
 70
     1
102
RTVSPropertyOp51
 70
     0
102
RTVSPropertyOp52
 70
     0
102
RTVSPropertyOp53
 70
     1
102
RTVSPropertyOp54
 70
     1
102
RTVSPropertyOp55
 70
     1
102
RTVSPropertyOp56
 70
     1
102
RTVSPropertyOp57
 70
     1
102
RTVSPropertyOp58
 70
     1
102
RTVSPropertyOp59
 70
     1
102
RTVSPropertyOp60
 70
     1
102
RTVSPropertyOp61
 70
     1
102
RTVSPropertyOp62
 70
     1
  0
XRECORD
  5
B0FD
102
{ACAD_REACTORS
330
B0FC
102
}
330
B0FC
100
AcDbXrecord
280
     1
102
RTVSPost2010Prop28
280
     0
102
RTVSPost2010PropOp28
 70
     1
102
RTVSPost2010Prop29
280
     1
102
RTVSPost2010PropOp29
 70
     1
102
RTVSPost2010Prop30
280
     1
102
RTVSPost2010PropOp30
 70
     1
102
RTVSPost2010Prop31
280
     0
102
RTVSPost2010PropOp31
 70
     1
102
RTVSPost2010Prop32
280
     0
102
RTVSPost2010PropOp32
 70
     1
102
RTVSPost2010Prop33
280
     0
102
RTVSPost2010PropOp33
 70
     1
102
RTVSPost2010Prop34
280
     0
102
RTVSPost2010PropOp34
 70
     1
102
RTVSPost2010Prop35
280
     0
102
RTVSPost2010PropOp35
 70
     1
102
RTVSPost2010Prop36
280
     0
102
RTVSPost2010PropOp36
 70
     1
102
RTVSPost2010Prop37
 90
       50
102
RTVSPost2010PropOp37
 70
     1
102
RTVSPost2010Prop38
140
0.0
102
RTVSPost2010PropOp38
 70
     1
102
RTVSPost2010Prop39
140
1.0
102
RTVSPost2010PropOp39
 70
     1
102
RTVSPost2010Prop40
 90
        0
102
RTVSPost2010PropOp40
 70
     1
102
RTVSPost2010Prop41ColorIndex
 90
       18
102
RTVSPost2010Prop41ColorRGB
 90
        0
102
RTVSPost2010PropOp41
 70
     1
102
RTVSPost2010Prop42
 90
       50
102
RTVSPost2010PropOp42
 70
     1
102
RTVSPost2010Prop43
 90
        3
102
RTVSPost2010PropOp43
 70
     1
102
RTVSPost2010Prop44ColorIndex
 90
        5
102
RTVSPost2010Prop44ColorRGB
 90
      255
102
RTVSPost2010PropOp44
 70
     1
102
RTVSPost2010Prop45
280
     0
102
RTVSPost2010PropOp45
 70
     1
102
RTVSPost2010Prop46
 90
       50
102
RTVSPost2010PropOp46
 70
     1
102
RTVSPost2010Prop47
 90
       50
102
RTVSPost2010PropOp47
 70
     1
102
RTVSPost2010Prop48
 90
       50
102
RTVSPost2010PropOp48
 70
     1
102
RTVSPost2010Prop49
280
     0
102
RTVSPost2010PropOp49
 70
     1
102
RTVSPost2010Prop50
 90
       50
102
RTVSPost2010PropOp50
 70
     1
102
RTVSPost2010Prop51ColorIndex
 90
      256
102
RTVSPost2010Prop51ColorRGB
 90
-16777216
102
RTVSPost2010PropOp51
 70
     0
102
RTVSPost2010Prop52
140
1.0
102
RTVSPost2010PropOp52
 70
     0
102
RTVSPost2010Prop53
 90
        2
102
RTVSPost2010PropOp53
 70
     1
102
RTVSPost2010Prop54
  1
strokes_ogs.tif
102
RTVSPost2010PropOp54
 70
     1
102
RTVSPost2010Prop55
280
     0
102
RTVSPost2010PropOp55
 70
     1
102
RTVSPost2010Prop56
140
1.0
102
RTVSPost2010PropOp56
 70
     1
102
RTVSPost2010Prop57
140
1.0
102
RTVSPost2010PropOp57
 70
     1
102
RTVSPropertyOp0
 70
     1
102
RTVSPropertyOp1
 70
     1
102
RTVSPropertyOp2
 70
     1
102
RTVSPropertyOp3
 70
     1
102
RTVSPropertyOp4
 70
     1
102
RTVSPropertyOp5
 70
     1
102
RTVSPropertyOp6
 70
     1
102
RTVSPropertyOp7
 70
     1
102
RTVSPropertyOp8
 70
     1
102
RTVSPropertyOp9
 70
     1
102
RTVSPropertyOp10
 70
     1
102
RTVSPropertyOp11
 70
     1
102
RTVSPropertyOp12
 70
     1
102
RTVSPropertyOp13
 70
     1
102
RTVSPropertyOp14
 70
     1
102
RTVSPropertyOp15
 70
     1
102
RTVSPropertyOp16
 70
     1
102
RTVSPropertyOp17
 70
     1
102
RTVSPropertyOp18
 70
     1
102
RTVSPropertyOp19
 70
     1
102
RTVSPropertyOp20
 70
     1
102
RTVSPropertyOp21
 70
     1
102
RTVSPropertyOp22
 70
     1
102
RTVSPropertyOp23
 70
     1
102
RTVSPropertyOp24
 70
     1
102
RTVSPropertyOp25
 70
     1
102
RTVSPropertyOp26
 70
     1
102
RTVSPropertyOp27
 70
     1
102
RTVSPropertyOp28
 70
     1
102
RTVSPropertyOp29
 70
     1
102
RTVSPropertyOp30
 70
     1
102
RTVSPropertyOp31
 70
     1
102
RTVSPropertyOp32
 70
     1
102
RTVSPropertyOp33
 70
     1
102
RTVSPropertyOp34
 70
     1
102
RTVSPropertyOp35
 70
     1
102
RTVSPropertyOp36
 70
     1
102
RTVSPropertyOp37
 70
     1
102
RTVSPropertyOp38
 70
     1
102
RTVSPropertyOp39
 70
     1
102
RTVSPropertyOp40
 70
     1
102
RTVSPropertyOp41
 70
     1
102
RTVSPropertyOp42
 70
     1
102
RTVSPropertyOp43
 70
     1
102
RTVSPropertyOp44
 70
     1
102
RTVSPropertyOp45
 70
     1
102
RTVSPropertyOp46
 70
     1
102
RTVSPropertyOp47
 70
     1
102
RTVSPropertyOp48
 70
     1
102
RTVSPropertyOp49
 70
     1
102
RTVSPropertyOp50
 70
     1
102
RTVSPropertyOp51
 70
     0
102
RTVSPropertyOp52
 70
     0
102
RTVSPropertyOp53
 70
     1
102
RTVSPropertyOp54
 70
     1
102
RTVSPropertyOp55
 70
     1
102
RTVSPropertyOp56
 70
     1
102
RTVSPropertyOp57
 70
     1
102
RTVSPropertyOp58
 70
     1
102
RTVSPropertyOp59
 70
     1
102
RTVSPropertyOp60
 70
     1
102
RTVSPropertyOp61
 70
     1
102
RTVSPropertyOp62
 70
     1
  0
XRECORD
  5
B0F7
102
{ACAD_REACTORS
330
B0F6
102
}
330
B0F6
100
AcDbXrecord
280
     1
102
RTVSPost2010Prop28
280
     0
102
RTVSPost2010PropOp28
 70
     1
102
RTVSPost2010Prop29
280
     1
102
RTVSPost2010PropOp29
 70
     1
102
RTVSPost2010Prop30
280
     1
102
RTVSPost2010PropOp30
 70
     1
102
RTVSPost2010Prop31
280
     0
102
RTVSPost2010PropOp31
 70
     1
102
RTVSPost2010Prop32
280
     0
102
RTVSPost2010PropOp32
 70
     1
102
RTVSPost2010Prop33
280
     0
102
RTVSPost2010PropOp33
 70
     1
102
RTVSPost2010Prop34
280
     0
102
RTVSPost2010PropOp34
 70
     1
102
RTVSPost2010Prop35
280
     0
102
RTVSPost2010PropOp35
 70
     1
102
RTVSPost2010Prop36
280
     0
102
RTVSPost2010PropOp36
 70
     1
102
RTVSPost2010Prop37
 90
       50
102
RTVSPost2010PropOp37
 70
     1
102
RTVSPost2010Prop38
140
0.0
102
RTVSPost2010PropOp38
 70
     1
102
RTVSPost2010Prop39
140
1.0
102
RTVSPost2010PropOp39
 70
     1
102
RTVSPost2010Prop40
 90
        0
102
RTVSPost2010PropOp40
 70
     1
102
RTVSPost2010Prop41ColorIndex
 90
       18
102
RTVSPost2010Prop41ColorRGB
 90
        0
102
RTVSPost2010PropOp41
 70
     1
102
RTVSPost2010Prop42
 90
       50
102
RTVSPost2010PropOp42
 70
     1
102
RTVSPost2010Prop43
 90
        3
102
RTVSPost2010PropOp43
 70
     1
102
RTVSPost2010Prop44ColorIndex
 90
        5
102
RTVSPost2010Prop44ColorRGB
 90
      255
102
RTVSPost2010PropOp44
 70
     1
102
RTVSPost2010Prop45
280
     0
102
RTVSPost2010PropOp45
 70
     1
102
RTVSPost2010Prop46
 90
       50
102
RTVSPost2010PropOp46
 70
     1
102
RTVSPost2010Prop47
 90
       50
102
RTVSPost2010PropOp47
 70
     1
102
RTVSPost2010Prop48
 90
       50
102
RTVSPost2010PropOp48
 70
     1
102
RTVSPost2010Prop49
280
     0
102
RTVSPost2010PropOp49
 70
     1
102
RTVSPost2010Prop50
 90
       50
102
RTVSPost2010PropOp50
 70
     1
102
RTVSPost2010Prop51ColorIndex
 90
      256
102
RTVSPost2010Prop51ColorRGB
 90
-16777216
102
RTVSPost2010PropOp51
 70
     0
102
RTVSPost2010Prop52
140
1.0
102
RTVSPost2010PropOp52
 70
     0
102
RTVSPost2010Prop53
 90
        2
102
RTVSPost2010PropOp53
 70
     1
102
RTVSPost2010Prop54
  1
strokes_ogs.tif
102
RTVSPost2010PropOp54
 70
     1
102
RTVSPost2010Prop55
280
     0
102
RTVSPost2010PropOp55
 70
     1
102
RTVSPost2010Prop56
140
1.0
102
RTVSPost2010PropOp56
 70
     1
102
RTVSPost2010Prop57
140
1.0
102
RTVSPost2010PropOp57
 70
     1
102
RTVSPropertyOp0
 70
     1
102
RTVSPropertyOp1
 70
     1
102
RTVSPropertyOp2
 70
     1
102
RTVSPropertyOp3
 70
     1
102
RTVSPropertyOp4
 70
     1
102
RTVSPropertyOp5
 70
     1
102
RTVSPropertyOp6
 70
     1
102
RTVSPropertyOp7
 70
     1
102
RTVSPropertyOp8
 70
     1
102
RTVSPropertyOp9
 70
     1
102
RTVSPropertyOp10
 70
     1
102
RTVSPropertyOp11
 70
     1
102
RTVSPropertyOp12
 70
     1
102
RTVSPropertyOp13
 70
     1
102
RTVSPropertyOp14
 70
     1
102
RTVSPropertyOp15
 70
     1
102
RTVSPropertyOp16
 70
     1
102
RTVSPropertyOp17
 70
     1
102
RTVSPropertyOp18
 70
     1
102
RTVSPropertyOp19
 70
     1
102
RTVSPropertyOp20
 70
     1
102
RTVSPropertyOp21
 70
     1
102
RTVSPropertyOp22
 70
     1
102
RTVSPropertyOp23
 70
     1
102
RTVSPropertyOp24
 70
     1
102
RTVSPropertyOp25
 70
     1
102
RTVSPropertyOp26
 70
     1
102
RTVSPropertyOp27
 70
     1
102
RTVSPropertyOp28
 70
     1
102
RTVSPropertyOp29
 70
     1
102
RTVSPropertyOp30
 70
     1
102
RTVSPropertyOp31
 70
     1
102
RTVSPropertyOp32
 70
     1
102
RTVSPropertyOp33
 70
     1
102
RTVSPropertyOp34
 70
     1
102
RTVSPropertyOp35
 70
     1
102
RTVSPropertyOp36
 70
     1
102
RTVSPropertyOp37
 70
     1
102
RTVSPropertyOp38
 70
     1
102
RTVSPropertyOp39
 70
     1
102
RTVSPropertyOp40
 70
     1
102
RTVSPropertyOp41
 70
     1
102
RTVSPropertyOp42
 70
     1
102
RTVSPropertyOp43
 70
     1
102
RTVSPropertyOp44
 70
     1
102
RTVSPropertyOp45
 70
     1
102
RTVSPropertyOp46
 70
     1
102
RTVSPropertyOp47
 70
     1
102
RTVSPropertyOp48
 70
     1
102
RTVSPropertyOp49
 70
     1
102
RTVSPropertyOp50
 70
     1
102
RTVSPropertyOp51
 70
     0
102
RTVSPropertyOp52
 70
     0
102
RTVSPropertyOp53
 70
     1
102
RTVSPropertyOp54
 70
     1
102
RTVSPropertyOp55
 70
     1
102
RTVSPropertyOp56
 70
     1
102
RTVSPropertyOp57
 70
     1
102
RTVSPropertyOp58
 70
     1
102
RTVSPropertyOp59
 70
     1
102
RTVSPropertyOp60
 70
     1
102
RTVSPropertyOp61
 70
     1
102
RTVSPropertyOp62
 70
     1
  0
XRECORD
  5
B0F9
102
{ACAD_REACTORS
330
B0F8
102
}
330
B0F8
100
AcDbXrecord
280
     1
102
RTVSPost2010Prop28
280
     0
102
RTVSPost2010PropOp28
 70
     1
102
RTVSPost2010Prop29
280
     1
102
RTVSPost2010PropOp29
 70
     1
102
RTVSPost2010Prop30
280
     1
102
RTVSPost2010PropOp30
 70
     1
102
RTVSPost2010Prop31
280
     0
102
RTVSPost2010PropOp31
 70
     1
102
RTVSPost2010Prop32
280
     0
102
RTVSPost2010PropOp32
 70
     1
102
RTVSPost2010Prop33
280
     0
102
RTVSPost2010PropOp33
 70
     1
102
RTVSPost2010Prop34
280
     0
102
RTVSPost2010PropOp34
 70
     1
102
RTVSPost2010Prop35
280
     0
102
RTVSPost2010PropOp35
 70
     1
102
RTVSPost2010Prop36
280
     0
102
RTVSPost2010PropOp36
 70
     1
102
RTVSPost2010Prop37
 90
       50
102
RTVSPost2010PropOp37
 70
     1
102
RTVSPost2010Prop38
140
0.0
102
RTVSPost2010PropOp38
 70
     1
102
RTVSPost2010Prop39
140
1.0
102
RTVSPost2010PropOp39
 70
     1
102
RTVSPost2010Prop40
 90
        0
102
RTVSPost2010PropOp40
 70
     1
102
RTVSPost2010Prop41ColorIndex
 90
       18
102
RTVSPost2010Prop41ColorRGB
 90
        0
102
RTVSPost2010PropOp41
 70
     1
102
RTVSPost2010Prop42
 90
       50
102
RTVSPost2010PropOp42
 70
     1
102
RTVSPost2010Prop43
 90
        3
102
RTVSPost2010PropOp43
 70
     1
102
RTVSPost2010Prop44ColorIndex
 90
        5
102
RTVSPost2010Prop44ColorRGB
 90
      255
102
RTVSPost2010PropOp44
 70
     1
102
RTVSPost2010Prop45
280
     0
102
RTVSPost2010PropOp45
 70
     1
102
RTVSPost2010Prop46
 90
       50
102
RTVSPost2010PropOp46
 70
     1
102
RTVSPost2010Prop47
 90
       50
102
RTVSPost2010PropOp47
 70
     1
102
RTVSPost2010Prop48
 90
       50
102
RTVSPost2010PropOp48
 70
     1
102
RTVSPost2010Prop49
280
     0
102
RTVSPost2010PropOp49
 70
     1
102
RTVSPost2010Prop50
 90
       50
102
RTVSPost2010PropOp50
 70
     1
102
RTVSPost2010Prop51ColorIndex
 90
      256
102
RTVSPost2010Prop51ColorRGB
 90
-16777216
102
RTVSPost2010PropOp51
 70
     0
102
RTVSPost2010Prop52
140
1.0
102
RTVSPost2010PropOp52
 70
     0
102
RTVSPost2010Prop53
 90
        2
102
RTVSPost2010PropOp53
 70
     1
102
RTVSPost2010Prop54
  1
strokes_ogs.tif
102
RTVSPost2010PropOp54
 70
     1
102
RTVSPost2010Prop55
280
     0
102
RTVSPost2010PropOp55
 70
     1
102
RTVSPost2010Prop56
140
1.0
102
RTVSPost2010PropOp56
 70
     1
102
RTVSPost2010Prop57
140
1.0
102
RTVSPost2010PropOp57
 70
     1
102
RTVSPropertyOp0
 70
     1
102
RTVSPropertyOp1
 70
     1
102
RTVSPropertyOp2
 70
     1
102
RTVSPropertyOp3
 70
     1
102
RTVSPropertyOp4
 70
     1
102
RTVSPropertyOp5
 70
     1
102
RTVSPropertyOp6
 70
     1
102
RTVSPropertyOp7
 70
     1
102
RTVSPropertyOp8
 70
     1
102
RTVSPropertyOp9
 70
     1
102
RTVSPropertyOp10
 70
     1
102
RTVSPropertyOp11
 70
     1
102
RTVSPropertyOp12
 70
     1
102
RTVSPropertyOp13
 70
     1
102
RTVSPropertyOp14
 70
     1
102
RTVSPropertyOp15
 70
     1
102
RTVSPropertyOp16
 70
     1
102
RTVSPropertyOp17
 70
     1
102
RTVSPropertyOp18
 70
     1
102
RTVSPropertyOp19
 70
     1
102
RTVSPropertyOp20
 70
     1
102
RTVSPropertyOp21
 70
     1
102
RTVSPropertyOp22
 70
     1
102
RTVSPropertyOp23
 70
     1
102
RTVSPropertyOp24
 70
     1
102
RTVSPropertyOp25
 70
     1
102
RTVSPropertyOp26
 70
     1
102
RTVSPropertyOp27
 70
     1
102
RTVSPropertyOp28
 70
     1
102
RTVSPropertyOp29
 70
     1
102
RTVSPropertyOp30
 70
     1
102
RTVSPropertyOp31
 70
     1
102
RTVSPropertyOp32
 70
     1
102
RTVSPropertyOp33
 70
     1
102
RTVSPropertyOp34
 70
     1
102
RTVSPropertyOp35
 70
     1
102
RTVSPropertyOp36
 70
     1
102
RTVSPropertyOp37
 70
     1
102
RTVSPropertyOp38
 70
     1
102
RTVSPropertyOp39
 70
     1
102
RTVSPropertyOp40
 70
     1
102
RTVSPropertyOp41
 70
     1
102
RTVSPropertyOp42
 70
     1
102
RTVSPropertyOp43
 70
     1
102
RTVSPropertyOp44
 70
     1
102
RTVSPropertyOp45
 70
     1
102
RTVSPropertyOp46
 70
     1
102
RTVSPropertyOp47
 70
     1
102
RTVSPropertyOp48
 70
     1
102
RTVSPropertyOp49
 70
     1
102
RTVSPropertyOp50
 70
     1
102
RTVSPropertyOp51
 70
     0
102
RTVSPropertyOp52
 70
     0
102
RTVSPropertyOp53
 70
     1
102
RTVSPropertyOp54
 70
     1
102
RTVSPropertyOp55
 70
     1
102
RTVSPropertyOp56
 70
     1
102
RTVSPropertyOp57
 70
     1
102
RTVSPropertyOp58
 70
     1
102
RTVSPropertyOp59
 70
     1
102
RTVSPropertyOp60
 70
     1
102
RTVSPropertyOp61
 70
     1
102
RTVSPropertyOp62
 70
     1
  0
XRECORD
  5
B0EF
102
{ACAD_REACTORS
330
B0EE
102
}
330
B0EE
100
AcDbXrecord
280
     1
102
RTVSPost2010Prop28
280
     0
102
RTVSPost2010PropOp28
 70
     1
102
RTVSPost2010Prop29
280
     1
102
RTVSPost2010PropOp29
 70
     1
102
RTVSPost2010Prop30
280
     1
102
RTVSPost2010PropOp30
 70
     1
102
RTVSPost2010Prop31
280
     0
102
RTVSPost2010PropOp31
 70
     1
102
RTVSPost2010Prop32
280
     0
102
RTVSPost2010PropOp32
 70
     1
102
RTVSPost2010Prop33
280
     0
102
RTVSPost2010PropOp33
 70
     1
102
RTVSPost2010Prop34
280
     0
102
RTVSPost2010PropOp34
 70
     1
102
RTVSPost2010Prop35
280
     0
102
RTVSPost2010PropOp35
 70
     1
102
RTVSPost2010Prop36
280
     0
102
RTVSPost2010PropOp36
 70
     1
102
RTVSPost2010Prop37
 90
       50
102
RTVSPost2010PropOp37
 70
     1
102
RTVSPost2010Prop38
140
0.0
102
RTVSPost2010PropOp38
 70
     1
102
RTVSPost2010Prop39
140
1.0
102
RTVSPost2010PropOp39
 70
     1
102
RTVSPost2010Prop40
 90
        0
102
RTVSPost2010PropOp40
 70
     1
102
RTVSPost2010Prop41ColorIndex
 90
       18
102
RTVSPost2010Prop41ColorRGB
 90
        0
102
RTVSPost2010PropOp41
 70
     1
102
RTVSPost2010Prop42
 90
       50
102
RTVSPost2010PropOp42
 70
     1
102
RTVSPost2010Prop43
 90
        3
102
RTVSPost2010PropOp43
 70
     1
102
RTVSPost2010Prop44ColorIndex
 90
        5
102
RTVSPost2010Prop44ColorRGB
 90
      255
102
RTVSPost2010PropOp44
 70
     1
102
RTVSPost2010Prop45
280
     0
102
RTVSPost2010PropOp45
 70
     1
102
RTVSPost2010Prop46
 90
       50
102
RTVSPost2010PropOp46
 70
     1
102
RTVSPost2010Prop47
 90
       50
102
RTVSPost2010PropOp47
 70
     1
102
RTVSPost2010Prop48
 90
       50
102
RTVSPost2010PropOp48
 70
     1
102
RTVSPost2010Prop49
280
     0
102
RTVSPost2010PropOp49
 70
     1
102
RTVSPost2010Prop50
 90
       50
102
RTVSPost2010PropOp50
 70
     1
102
RTVSPost2010Prop51ColorIndex
 90
      256
102
RTVSPost2010Prop51ColorRGB
 90
-16777216
102
RTVSPost2010PropOp51
 70
     0
102
RTVSPost2010Prop52
140
1.0
102
RTVSPost2010PropOp52
 70
     0
102
RTVSPost2010Prop53
 90
        2
102
RTVSPost2010PropOp53
 70
     1
102
RTVSPost2010Prop54
  1
strokes_ogs.tif
102
RTVSPost2010PropOp54
 70
     1
102
RTVSPost2010Prop55
280
     0
102
RTVSPost2010PropOp55
 70
     1
102
RTVSPost2010Prop56
140
1.0
102
RTVSPost2010PropOp56
 70
     1
102
RTVSPost2010Prop57
140
1.0
102
RTVSPost2010PropOp57
 70
     1
102
RTVSPropertyOp0
 70
     1
102
RTVSPropertyOp1
 70
     1
102
RTVSPropertyOp2
 70
     1
102
RTVSPropertyOp3
 70
     1
102
RTVSPropertyOp4
 70
     1
102
RTVSPropertyOp5
 70
     1
102
RTVSPropertyOp6
 70
     1
102
RTVSPropertyOp7
 70
     1
102
RTVSPropertyOp8
 70
     1
102
RTVSPropertyOp9
 70
     1
102
RTVSPropertyOp10
 70
     1
102
RTVSPropertyOp11
 70
     1
102
RTVSPropertyOp12
 70
     1
102
RTVSPropertyOp13
 70
     1
102
RTVSPropertyOp14
 70
     1
102
RTVSPropertyOp15
 70
     1
102
RTVSPropertyOp16
 70
     1
102
RTVSPropertyOp17
 70
     1
102
RTVSPropertyOp18
 70
     1
102
RTVSPropertyOp19
 70
     1
102
RTVSPropertyOp20
 70
     1
102
RTVSPropertyOp21
 70
     1
102
RTVSPropertyOp22
 70
     1
102
RTVSPropertyOp23
 70
     1
102
RTVSPropertyOp24
 70
     1
102
RTVSPropertyOp25
 70
     1
102
RTVSPropertyOp26
 70
     1
102
RTVSPropertyOp27
 70
     1
102
RTVSPropertyOp28
 70
     1
102
RTVSPropertyOp29
 70
     1
102
RTVSPropertyOp30
 70
     1
102
RTVSPropertyOp31
 70
     1
102
RTVSPropertyOp32
 70
     1
102
RTVSPropertyOp33
 70
     1
102
RTVSPropertyOp34
 70
     1
102
RTVSPropertyOp35
 70
     1
102
RTVSPropertyOp36
 70
     1
102
RTVSPropertyOp37
 70
     1
102
RTVSPropertyOp38
 70
     1
102
RTVSPropertyOp39
 70
     1
102
RTVSPropertyOp40
 70
     1
102
RTVSPropertyOp41
 70
     1
102
RTVSPropertyOp42
 70
     1
102
RTVSPropertyOp43
 70
     1
102
RTVSPropertyOp44
 70
     1
102
RTVSPropertyOp45
 70
     1
102
RTVSPropertyOp46
 70
     1
102
RTVSPropertyOp47
 70
     1
102
RTVSPropertyOp48
 70
     1
102
RTVSPropertyOp49
 70
     1
102
RTVSPropertyOp50
 70
     1
102
RTVSPropertyOp51
 70
     0
102
RTVSPropertyOp52
 70
     0
102
RTVSPropertyOp53
 70
     1
102
RTVSPropertyOp54
 70
     1
102
RTVSPropertyOp55
 70
     1
102
RTVSPropertyOp56
 70
     1
102
RTVSPropertyOp57
 70
     1
102
RTVSPropertyOp58
 70
     1
102
RTVSPropertyOp59
 70
     1
102
RTVSPropertyOp60
 70
     1
102
RTVSPropertyOp61
 70
     1
102
RTVSPropertyOp62
 70
     1
  0
XRECORD
  5
B0E3
102
{ACAD_REACTORS
330
B0E2
102
}
330
B0E2
100
AcDbXrecord
280
     1
102
RTVSPost2010Prop28
280
     0
102
RTVSPost2010PropOp28
 70
     1
102
RTVSPost2010Prop29
280
     1
102
RTVSPost2010PropOp29
 70
     1
102
RTVSPost2010Prop30
280
     1
102
RTVSPost2010PropOp30
 70
     1
102
RTVSPost2010Prop31
280
     0
102
RTVSPost2010PropOp31
 70
     1
102
RTVSPost2010Prop32
280
     0
102
RTVSPost2010PropOp32
 70
     1
102
RTVSPost2010Prop33
280
     0
102
RTVSPost2010PropOp33
 70
     1
102
RTVSPost2010Prop34
280
     0
102
RTVSPost2010PropOp34
 70
     1
102
RTVSPost2010Prop35
280
     0
102
RTVSPost2010PropOp35
 70
     1
102
RTVSPost2010Prop36
280
     0
102
RTVSPost2010PropOp36
 70
     1
102
RTVSPost2010Prop37
 90
       50
102
RTVSPost2010PropOp37
 70
     1
102
RTVSPost2010Prop38
140
0.0
102
RTVSPost2010PropOp38
 70
     1
102
RTVSPost2010Prop39
140
1.0
102
RTVSPost2010PropOp39
 70
     1
102
RTVSPost2010Prop40
 90
        0
102
RTVSPost2010PropOp40
 70
     1
102
RTVSPost2010Prop41ColorIndex
 90
       18
102
RTVSPost2010Prop41ColorRGB
 90
        0
102
RTVSPost2010PropOp41
 70
     1
102
RTVSPost2010Prop42
 90
       50
102
RTVSPost2010PropOp42
 70
     1
102
RTVSPost2010Prop43
 90
        3
102
RTVSPost2010PropOp43
 70
     1
102
RTVSPost2010Prop44ColorIndex
 90
        5
102
RTVSPost2010Prop44ColorRGB
 90
      255
102
RTVSPost2010PropOp44
 70
     1
102
RTVSPost2010Prop45
280
     0
102
RTVSPost2010PropOp45
 70
     1
102
RTVSPost2010Prop46
 90
       50
102
RTVSPost2010PropOp46
 70
     1
102
RTVSPost2010Prop47
 90
       50
102
RTVSPost2010PropOp47
 70
     1
102
RTVSPost2010Prop48
 90
       50
102
RTVSPost2010PropOp48
 70
     1
102
RTVSPost2010Prop49
280
     0
102
RTVSPost2010PropOp49
 70
     1
102
RTVSPost2010Prop50
 90
       50
102
RTVSPost2010PropOp50
 70
     1
102
RTVSPost2010Prop51ColorIndex
 90
      256
102
RTVSPost2010Prop51ColorRGB
 90
-16777216
102
RTVSPost2010PropOp51
 70
     0
102
RTVSPost2010Prop52
140
1.0
102
RTVSPost2010PropOp52
 70
     0
102
RTVSPost2010Prop53
 90
        2
102
RTVSPost2010PropOp53
 70
     1
102
RTVSPost2010Prop54
  1
strokes_ogs.tif
102
RTVSPost2010PropOp54
 70
     1
102
RTVSPost2010Prop55
280
     0
102
RTVSPost2010PropOp55
 70
     1
102
RTVSPost2010Prop56
140
1.0
102
RTVSPost2010PropOp56
 70
     1
102
RTVSPost2010Prop57
140
1.0
102
RTVSPost2010PropOp57
 70
     1
102
RTVSPropertyOp0
 70
     1
102
RTVSPropertyOp1
 70
     1
102
RTVSPropertyOp2
 70
     1
102
RTVSPropertyOp3
 70
     1
102
RTVSPropertyOp4
 70
     1
102
RTVSPropertyOp5
 70
     1
102
RTVSPropertyOp6
 70
     1
102
RTVSPropertyOp7
 70
     1
102
RTVSPropertyOp8
 70
     1
102
RTVSPropertyOp9
 70
     1
102
RTVSPropertyOp10
 70
     1
102
RTVSPropertyOp11
 70
     1
102
RTVSPropertyOp12
 70
     1
102
RTVSPropertyOp13
 70
     1
102
RTVSPropertyOp14
 70
     1
102
RTVSPropertyOp15
 70
     1
102
RTVSPropertyOp16
 70
     1
102
RTVSPropertyOp17
 70
     1
102
RTVSPropertyOp18
 70
     1
102
RTVSPropertyOp19
 70
     1
102
RTVSPropertyOp20
 70
     1
102
RTVSPropertyOp21
 70
     1
102
RTVSPropertyOp22
 70
     1
102
RTVSPropertyOp23
 70
     1
102
RTVSPropertyOp24
 70
     1
102
RTVSPropertyOp25
 70
     1
102
RTVSPropertyOp26
 70
     1
102
RTVSPropertyOp27
 70
     1
102
RTVSPropertyOp28
 70
     1
102
RTVSPropertyOp29
 70
     1
102
RTVSPropertyOp30
 70
     1
102
RTVSPropertyOp31
 70
     1
102
RTVSPropertyOp32
 70
     1
102
RTVSPropertyOp33
 70
     1
102
RTVSPropertyOp34
 70
     1
102
RTVSPropertyOp35
 70
     1
102
RTVSPropertyOp36
 70
     1
102
RTVSPropertyOp37
 70
     1
102
RTVSPropertyOp38
 70
     1
102
RTVSPropertyOp39
 70
     1
102
RTVSPropertyOp40
 70
     1
102
RTVSPropertyOp41
 70
     1
102
RTVSPropertyOp42
 70
     1
102
RTVSPropertyOp43
 70
     1
102
RTVSPropertyOp44
 70
     1
102
RTVSPropertyOp45
 70
     1
102
RTVSPropertyOp46
 70
     1
102
RTVSPropertyOp47
 70
     1
102
RTVSPropertyOp48
 70
     1
102
RTVSPropertyOp49
 70
     1
102
RTVSPropertyOp50
 70
     1
102
RTVSPropertyOp51
 70
     0
102
RTVSPropertyOp52
 70
     0
102
RTVSPropertyOp53
 70
     1
102
RTVSPropertyOp54
 70
     1
102
RTVSPropertyOp55
 70
     1
102
RTVSPropertyOp56
 70
     1
102
RTVSPropertyOp57
 70
     1
102
RTVSPropertyOp58
 70
     1
102
RTVSPropertyOp59
 70
     1
102
RTVSPropertyOp60
 70
     1
102
RTVSPropertyOp61
 70
     1
102
RTVSPropertyOp62
 70
     1
  0
XRECORD
  5
B0FB
102
{ACAD_REACTORS
330
B0FA
102
}
330
B0FA
100
AcDbXrecord
280
     1
102
RTVSPost2010Prop28
280
     0
102
RTVSPost2010PropOp28
 70
     1
102
RTVSPost2010Prop29
280
     1
102
RTVSPost2010PropOp29
 70
     1
102
RTVSPost2010Prop30
280
     1
102
RTVSPost2010PropOp30
 70
     1
102
RTVSPost2010Prop31
280
     0
102
RTVSPost2010PropOp31
 70
     1
102
RTVSPost2010Prop32
280
     0
102
RTVSPost2010PropOp32
 70
     1
102
RTVSPost2010Prop33
280
     0
102
RTVSPost2010PropOp33
 70
     1
102
RTVSPost2010Prop34
280
     0
102
RTVSPost2010PropOp34
 70
     1
102
RTVSPost2010Prop35
280
     0
102
RTVSPost2010PropOp35
 70
     1
102
RTVSPost2010Prop36
280
     0
102
RTVSPost2010PropOp36
 70
     1
102
RTVSPost2010Prop37
 90
       50
102
RTVSPost2010PropOp37
 70
     1
102
RTVSPost2010Prop38
140
0.0
102
RTVSPost2010PropOp38
 70
     1
102
RTVSPost2010Prop39
140
1.0
102
RTVSPost2010PropOp39
 70
     1
102
RTVSPost2010Prop40
 90
        0
102
RTVSPost2010PropOp40
 70
     1
102
RTVSPost2010Prop41ColorIndex
 90
       18
102
RTVSPost2010Prop41ColorRGB
 90
        0
102
RTVSPost2010PropOp41
 70
     1
102
RTVSPost2010Prop42
 90
       50
102
RTVSPost2010PropOp42
 70
     1
102
RTVSPost2010Prop43
 90
        3
102
RTVSPost2010PropOp43
 70
     1
102
RTVSPost2010Prop44ColorIndex
 90
        5
102
RTVSPost2010Prop44ColorRGB
 90
      255
102
RTVSPost2010PropOp44
 70
     1
102
RTVSPost2010Prop45
280
     0
102
RTVSPost2010PropOp45
 70
     1
102
RTVSPost2010Prop46
 90
       50
102
RTVSPost2010PropOp46
 70
     1
102
RTVSPost2010Prop47
 90
       50
102
RTVSPost2010PropOp47
 70
     1
102
RTVSPost2010Prop48
 90
       50
102
RTVSPost2010PropOp48
 70
     1
102
RTVSPost2010Prop49
280
     0
102
RTVSPost2010PropOp49
 70
     1
102
RTVSPost2010Prop50
 90
       50
102
RTVSPost2010PropOp50
 70
     1
102
RTVSPost2010Prop51ColorIndex
 90
      256
102
RTVSPost2010Prop51ColorRGB
 90
-16777216
102
RTVSPost2010PropOp51
 70
     0
102
RTVSPost2010Prop52
140
1.0
102
RTVSPost2010PropOp52
 70
     0
102
RTVSPost2010Prop53
 90
        2
102
RTVSPost2010PropOp53
 70
     1
102
RTVSPost2010Prop54
  1
strokes_ogs.tif
102
RTVSPost2010PropOp54
 70
     1
102
RTVSPost2010Prop55
280
     0
102
RTVSPost2010PropOp55
 70
     1
102
RTVSPost2010Prop56
140
1.0
102
RTVSPost2010PropOp56
 70
     1
102
RTVSPost2010Prop57
140
1.0
102
RTVSPost2010PropOp57
 70
     1
102
RTVSPropertyOp0
 70
     1
102
RTVSPropertyOp1
 70
     1
102
RTVSPropertyOp2
 70
     1
102
RTVSPropertyOp3
 70
     1
102
RTVSPropertyOp4
 70
     1
102
RTVSPropertyOp5
 70
     1
102
RTVSPropertyOp6
 70
     1
102
RTVSPropertyOp7
 70
     1
102
RTVSPropertyOp8
 70
     1
102
RTVSPropertyOp9
 70
     1
102
RTVSPropertyOp10
 70
     1
102
RTVSPropertyOp11
 70
     1
102
RTVSPropertyOp12
 70
     1
102
RTVSPropertyOp13
 70
     1
102
RTVSPropertyOp14
 70
     1
102
RTVSPropertyOp15
 70
     1
102
RTVSPropertyOp16
 70
     1
102
RTVSPropertyOp17
 70
     1
102
RTVSPropertyOp18
 70
     1
102
RTVSPropertyOp19
 70
     1
102
RTVSPropertyOp20
 70
     1
102
RTVSPropertyOp21
 70
     1
102
RTVSPropertyOp22
 70
     1
102
RTVSPropertyOp23
 70
     1
102
RTVSPropertyOp24
 70
     1
102
RTVSPropertyOp25
 70
     1
102
RTVSPropertyOp26
 70
     1
102
RTVSPropertyOp27
 70
     1
102
RTVSPropertyOp28
 70
     1
102
RTVSPropertyOp29
 70
     1
102
RTVSPropertyOp30
 70
     1
102
RTVSPropertyOp31
 70
     1
102
RTVSPropertyOp32
 70
     1
102
RTVSPropertyOp33
 70
     1
102
RTVSPropertyOp34
 70
     1
102
RTVSPropertyOp35
 70
     1
102
RTVSPropertyOp36
 70
     1
102
RTVSPropertyOp37
 70
     1
102
RTVSPropertyOp38
 70
     1
102
RTVSPropertyOp39
 70
     1
102
RTVSPropertyOp40
 70
     1
102
RTVSPropertyOp41
 70
     1
102
RTVSPropertyOp42
 70
     1
102
RTVSPropertyOp43
 70
     1
102
RTVSPropertyOp44
 70
     1
102
RTVSPropertyOp45
 70
     1
102
RTVSPropertyOp46
 70
     1
102
RTVSPropertyOp47
 70
     1
102
RTVSPropertyOp48
 70
     1
102
RTVSPropertyOp49
 70
     1
102
RTVSPropertyOp50
 70
     1
102
RTVSPropertyOp51
 70
     0
102
RTVSPropertyOp52
 70
     0
102
RTVSPropertyOp53
 70
     1
102
RTVSPropertyOp54
 70
     1
102
RTVSPropertyOp55
 70
     1
102
RTVSPropertyOp56
 70
     1
102
RTVSPropertyOp57
 70
     1
102
RTVSPropertyOp58
 70
     1
102
RTVSPropertyOp59
 70
     1
102
RTVSPropertyOp60
 70
     1
102
RTVSPropertyOp61
 70
     1
102
RTVSPropertyOp62
 70
     1
  0
ENDSEC
  0
EOF
