  0
SECTION
  2
HEADER
  9
$ACADVER
  1
AC1027
  9
$DWGCODEPAGE
  3
ANSI_932
  9
$LTSCALE
 40
20.0
  9
$FILLMODE
 70
     1
  9
$CLAYER
  8
0
  9
$PDMODE
 70
     0
  9
$SPLFRAME
 70
     0
  9
$SPLINETYPE
 70
     6
  9
$SPLINESEGS
 70
     8
  9
$DIMASZ
 40
2.000000
  9
$DIMEXE
 40
1.500000
  9
$DIMEXO
 40
0.800000
  9
$DIMTAD
 70
     1
  9
$DIMTIH
 70
     0
  9
$DIMTOH
 70
     0
  9
$DIMTVP
 40
0.500000
  9
$DIMTXT
 40
3.100000
  9
$EXTMIN
 10
0.000000
 20
0.000000
 30
0.000000
  9
$EXTMAX
 10
297.000000
 20
420.000000
 30
0.000000
  9
$MEASUREMENT
 70
  1
  9
$LIMMIN
 10
0.000000
 20
0.000000
  9
$LIMMAX
 10
297.000000
 20
420.000000
  9
$HANDSEED
  5
2A5
  9
$LWDISPLAY
290
     0
  9
$DIMBLK
  1
_OPEN
  9
$DIMDEC
 70
     2
  9
$DIMADEC
 70
     2
  9
$DIMAUNIT
 70
     0
  9
$DIMZIN
 70
     8
  9
$DIMAZIN
 70
     2
  9
$DIMTOFL
 70
     1
  0
ENDSEC
  0
SECTION
  2
CLASSES
  0
ENDSEC
  0
SECTION
  2
TABLES
  0
TABLE
  2
VPORT
  5
274
100
AcDbSymbolTable
 70
     1
  0
VPORT
  5
275
100
AcDbSymbolTableRecord
100
AcDbViewportTableRecord
  2
*ACTIVE
 70
     0
 12
197.039507
 22
137.691855
 40
255.383709
 41
1.464772
  0
ENDTAB
  0
TABLE
  2
LTYPE
  5
276
100
AcDbSymbolTable
 70
     3
  0
LTYPE
  5
277
100
AcDbSymbolTableRecord
100
AcDbLinetypeTableRecord
  2
BYBLOCK
 70
     0
  3

 72
    65
 73
     0
 40
0.0
  0
LTYPE
  5
278
100
AcDbSymbolTableRecord
100
AcDbLinetypeTableRecord
  2
BYLAYER
 70
     0
  3

 72
    65
 73
     0
 40
0.0
  0
LTYPE
  5
279
100
AcDbSymbolTableRecord
100
AcDbLinetypeTableRecord
  2
CONTINUOUS
 70
     0
  3
Solid line (NEC CAE2D for Win R17.0 : 2022.11.25)
 72
    65
 73
     0
 40
0.0
  0
LTYPE
  5
27A
100
AcDbSymbolTableRecord
100
AcDbLinetypeTableRecord
  2
CENTER
 70
     0
  3
____ _ ____ _ ____ _ ____ _ ____ _ ____
 72
    65
 73
     4
 40
2.0
 49
1.25
 74
     0
 49
-0.25
 74
     0
 49
0.25
 74
     0
 49
-0.25
 74
     0
  0
LTYPE
  5
27B
100
AcDbSymbolTableRecord
100
AcDbLinetypeTableRecord
  2
PHANTOM
 70
     0
  3
______  __  __  ______  __  __  ______ 
 72
    65
 73
     6
 40
2.5
 49
1.25
 74
     0
 49
-0.25
 74
     0
 49
0.25
 74
     0
 49
-0.25
 74
     0
 49
0.25
 74
     0
 49
-0.25
 74
     0
  0
ENDTAB
  0
TABLE
  2
LAYER
  5
27C
100
AcDbSymbolTable
 70
    10
  0
LAYER
  5
27D
100
AcDbSymbolTableRecord
100
AcDbLayerTableRecord
  2
0
 70
     0
 62
     7
  6
CONTINUOUS
370
    -3
390

  0
LAYER
  5
27E
100
AcDbSymbolTableRecord
100
AcDbLayerTableRecord
  2
DXF0
 70
     0
 62
     7
  6
CONTINUOUS
370
    -3
390

  0
LAYER
  5
27F
100
AcDbSymbolTableRecord
100
AcDbLayerTableRecord
  2
4
 70
     0
 62
     1
  6
CONTINUOUS
370
    -3
390

  0
LAYER
  5
280
100
AcDbSymbolTableRecord
100
AcDbLayerTableRecord
  2
5
 70
     0
 62
     6
  6
CONTINUOUS
370
    -3
390

  0
LAYER
  5
281
100
AcDbSymbolTableRecord
100
AcDbLayerTableRecord
  2
1
 70
     0
 62
     7
  6
CONTINUOUS
370
    -3
390

  0
LAYER
  5
282
100
AcDbSymbolTableRecord
100
AcDbLayerTableRecord
  2
2
 70
     0
 62
     4
  6
CONTINUOUS
370
    -3
390

  0
LAYER
  5
283
100
AcDbSymbolTableRecord
100
AcDbLayerTableRecord
  2
3
 70
     0
 62
     2
  6
CONTINUOUS
370
    -3
390

  0
LAYER
  5
284
100
AcDbSymbolTableRecord
100
AcDbLayerTableRecord
  2
6
 70
     0
 62
     5
  6
CONTINUOUS
370
    -3
390

  0
LAYER
  5
285
100
AcDbSymbolTableRecord
100
AcDbLayerTableRecord
  2
7
 70
     0
 62
     3
  6
CONTINUOUS
370
    -3
390

  0
LAYER
  5
286
100
AcDbSymbolTableRecord
100
AcDbLayerTableRecord
  2
DXF1023
 70
     0
 62
    16
  6
CONTINUOUS
370
    -3
390

  0
ENDTAB
  0
TABLE
  2
STYLE
  5
287
100
AcDbSymbolTable
 70
     4
  0
STYLE
  5
288
100
AcDbSymbolTableRecord
100
AcDbTextStyleTableRecord
  2
STANDARD
 70
    64
 40
0.0
 41
1.0
 50
0.0
 71
     0
 42
3.000000000000000
  3
TXT
  4

  0
STYLE
  5
289
100
AcDbSymbolTableRecord
100
AcDbTextStyleTableRecord
  2
ANKTATE
 70
    68
 40
0.0
 41
1.0
 50
0.0
 71
     0
 42
3.000000000000000
  3
TXT
  4

  0
STYLE
  5
28A
100
AcDbSymbolTableRecord
100
AcDbTextStyleTableRecord
  2
KNJYOKO
 70
    64
 40
0.0
 41
1.0
 50
0.0
 71
     0
 42
3.000000000000000
  3
TXT
  4
BIGFONT
  0
STYLE
  5
28B
100
AcDbSymbolTableRecord
100
AcDbTextStyleTableRecord
  2
KNJTATE
 70
    68
 40
0.0
 41
1.0
 50
0.0
 71
     0
 42
3.000000000000000
  3
TXT
  4
BIGFONT
  0
ENDTAB
  0
TABLE
  2
VIEW
  5
28C
100
AcDbSymbolTable
 70
     0
  0
ENDTAB
  0
TABLE
  2
UCS
  5
28D
100
AcDbSymbolTable
 70
     0
  0
ENDTAB
  0
TABLE
  2
APPID
  5
28E
100
AcDbSymbolTable
 70
     1
  0
APPID
  5
28F
100
AcDbSymbolTableRecord
100
AcDbRegAppTableRecord
  2
ACAD
 70
     0
  0
ENDTAB
  0
TABLE
  2
DIMSTYLE
  5
290
100
AcDbSymbolTable
 70
     2
100
AcDbDimStyleTable
  0
DIMSTYLE
105
291
100
AcDbSymbolTableRecord
100
AcDbDimStyleTableRecord
  2
STANDARD
 70
     0
 41
2.000000
 44
1.500000
 42
0.800000
145
0.661290
140
3.100000
144
1.000000
146
0.645161
340
288
  0
DIMSTYLE
105
292
100
AcDbSymbolTableRecord
100
AcDbDimStyleTableRecord
  2
DXF001
 70
     0
 41
2.000000
 44
1.500000
 42
0.800000
145
0.661290
140
3.100000
144
1.000000
146
0.645161
 77
     1
 73
     0
 74
     0
271
     2
179
     2
275
     0
 78
     8
 79
     2
172
     1
340
288
  0
ENDTAB
  0
TABLE
  2
BLOCK_RECORD
  5
293
100
AcDbSymbolTable
 70
    12
  0
BLOCK_RECORD
  5
294
100
AcDbSymbolTableRecord
100
AcDbBlockTableRecord
  2
*MODEL_SPACE
  0
BLOCK_RECORD
  5
295
100
AcDbSymbolTableRecord
100
AcDbBlockTableRecord
  2
*PAPER_SPACE
  0
BLOCK_RECORD
  5
296
100
AcDbSymbolTableRecord
100
AcDbBlockTableRecord
  2
*PAPER_SPACE0
  0
BLOCK_RECORD
  5
1
100
AcDbSymbolTableRecord
100
AcDbBlockTableRecord
  2
_NONE
  0
BLOCK_RECORD
  5
4
100
AcDbSymbolTableRecord
100
AcDbBlockTableRecord
  2
_CLOSED
  0
BLOCK_RECORD
  5
B
100
AcDbSymbolTableRecord
100
AcDbBlockTableRecord
  2
_DOT
  0
BLOCK_RECORD
  5
13
100
AcDbSymbolTableRecord
100
AcDbBlockTableRecord
  2
_OPEN
  0
BLOCK_RECORD
  5
19
100
AcDbSymbolTableRecord
100
AcDbBlockTableRecord
  2
_ORIGIN
  0
BLOCK_RECORD
  5
1E
100
AcDbSymbolTableRecord
100
AcDbBlockTableRecord
  2
_OPEN30
  0
BLOCK_RECORD
  5
24
100
AcDbSymbolTableRecord
100
AcDbBlockTableRecord
  2
_BOXFILLED
  0
BLOCK_RECORD
  5
29
100
AcDbSymbolTableRecord
100
AcDbBlockTableRecord
  2
_BOXBLANK
  0
BLOCK_RECORD
  5
31
100
AcDbSymbolTableRecord
100
AcDbBlockTableRecord
  2
_OBLIQUE
  0
BLOCK_RECORD
  5
35
100
AcDbSymbolTableRecord
100
AcDbBlockTableRecord
  2
_OPEN90
  0
BLOCK_RECORD
  5
3B
100
AcDbSymbolTableRecord
100
AcDbBlockTableRecord
  2
_CLOSEDBLANK
  0
BLOCK_RECORD
  5
41
100
AcDbSymbolTableRecord
100
AcDbBlockTableRecord
  2
_DOTBLANK
  0
ENDTAB
  0
ENDSEC
  0
SECTION
  2
BLOCKS
  0
BLOCK
  5
297
100
AcDbEntity
  8
0
100
AcDbBlockBegin
  2
*MODEL_SPACE
 70
     0
 10
0.0
 20
0.0
 30
0.0
  3
*MODEL_SPACE
  1

  0
ENDBLK
  5
298
100
AcDbEntity
  8
0
100
AcDbBlockEnd
  0
BLOCK
  5
299
100
AcDbEntity
  8
0
100
AcDbBlockBegin
  2
*PAPER_SPACE
 70
     0
 10
0.0
 20
0.0
 30
0.0
  3
*PAPER_SPACE
  1

  0
ENDBLK
  5
29A
100
AcDbEntity
  8
0
100
AcDbBlockEnd
  0
BLOCK
  5
29B
100
AcDbEntity
  8
0
100
AcDbBlockBegin
  2
*PAPER_SPACE0
 70
     0
 10
0.0
 20
0.0
 30
0.0
  3
*PAPER_SPACE0
  1

  0
ENDBLK
  5
29C
100
AcDbEntity
  8
0
100
AcDbBlockEnd
  0
BLOCK
  5
2
330
1
100
AcDbEntity
  8
0
100
AcDbBlockBegin
  2
_NONE
 70
     0
 10
0.0
 20
0.0
 30
0.0
  3
_NONE
  1

  0
ENDBLK
  5
3
330
1
100
AcDbEntity
  8
0
100
AcDbBlockEnd
  0
BLOCK
  5
5
330
4
100
AcDbEntity
  8
0
100
AcDbBlockBegin
  2
_CLOSED
 70
     0
 10
0.0
 20
0.0
 30
0.0
  3
_CLOSED
  1

  0
LINE
  5
6
330
4
100
AcDbEntity
  8
0
  6
BYBLOCK
 62
     0
370
    -2
100
AcDbLine
 10
-1.0
 20
0.166667
 30
0.0
 11
0.0
 21
0.0
 31
0.0
  0
LINE
  5
7
330
4
100
AcDbEntity
  8
0
  6
BYBLOCK
 62
     0
370
    -2
100
AcDbLine
 10
0.0
 20
0.0
 30
0.0
 11
-1.0
 21
-0.166667
 31
0.0
  0
LINE
  5
8
330
4
100
AcDbEntity
  8
0
  6
BYBLOCK
 62
     0
370
    -2
100
AcDbLine
 10
-1.0
 20
0.166667
 30
0.0
 11
-1.0
 21
-0.166667
 31
0.0
  0
LINE
  5
9
330
4
100
AcDbEntity
  8
0
  6
BYBLOCK
 62
     0
370
    -2
100
AcDbLine
 10
0.0
 20
0.0
 30
0.0
 11
-1.0
 21
0.0
 31
0.0
  0
ENDBLK
  5
A
330
4
100
AcDbEntity
  8
0
100
AcDbBlockEnd
  0
BLOCK
  5
C
330
B
100
AcDbEntity
  8
0
100
AcDbBlockBegin
  2
_DOT
 70
     0
 10
0.0
 20
0.0
 30
0.0
  3
_DOT
  1

  0
POLYLINE
  5
D
330
B
100
AcDbEntity
  8
0
  6
BYBLOCK
 62
     0
370
    -2
100
AcDb2dPolyline
 66
     1
 10
0.0
 20
0.0
 30
0.0
 70
     1
 40
0.5
 41
0.5
  0
VERTEX
  5
E
330
B
100
AcDbEntity
  8
0
  6
BYBLOCK
 62
     0
370
    -2
100
AcDbVertex
100
AcDb2dVertex
 10
-0.25
 20
0.0
 30
0.0
 42
1.0
  0
VERTEX
  5
F
330
B
100
AcDbEntity
  8
0
  6
BYBLOCK
 62
     0
370
    -2
100
AcDbVertex
100
AcDb2dVertex
 10
0.25
 20
0.0
 30
0.0
 42
1.0
  0
SEQEND
  5
10
330
B
100
AcDbEntity
  8
0
  6
BYBLOCK
 62
     0
370
    -2
  0
LINE
  5
11
330
B
100
AcDbEntity
  8
0
  6
BYBLOCK
 62
     0
370
    -2
100
AcDbLine
 10
-0.5
 20
0.0
 30
0.0
 11
-1.0
 21
0.0
 31
0.0
  0
ENDBLK
  5
12
330
B
100
AcDbEntity
  8
0
100
AcDbBlockEnd
  0
BLOCK
  5
14
330
13
100
AcDbEntity
  8
0
100
AcDbBlockBegin
  2
_OPEN
 70
     0
 10
0.0
 20
0.0
 30
0.0
  3
_OPEN
  1

  0
LINE
  5
15
330
13
100
AcDbEntity
  8
0
  6
BYBLOCK
 62
     0
370
    -2
100
AcDbLine
 10
-1.0
 20
0.166667
 30
0.0
 11
0.0
 21
0.0
 31
0.0
  0
LINE
  5
16
330
13
100
AcDbEntity
  8
0
  6
BYBLOCK
 62
     0
370
    -2
100
AcDbLine
 10
0.0
 20
0.0
 30
0.0
 11
-1.0
 21
-0.166667
 31
0.0
  0
LINE
  5
17
330
13
100
AcDbEntity
  8
0
  6
BYBLOCK
 62
     0
370
    -2
100
AcDbLine
 10
0.0
 20
0.0
 30
0.0
 11
-1.0
 21
0.0
 31
0.0
  0
ENDBLK
  5
18
330
13
100
AcDbEntity
  8
0
100
AcDbBlockEnd
  0
BLOCK
  5
1A
330
19
100
AcDbEntity
  8
0
100
AcDbBlockBegin
  2
_ORIGIN
 70
     0
 10
0.0
 20
0.0
 30
0.0
  3
_ORIGIN
  1

  0
CIRCLE
  5
1B
330
19
100
AcDbEntity
  8
0
  6
BYBLOCK
 62
     0
370
    -2
100
AcDbCircle
 10
0.0
 20
0.0
 30
0.0
 40
0.5
  0
LINE
  5
1C
330
19
100
AcDbEntity
  8
0
  6
BYBLOCK
 62
     0
370
    -2
100
AcDbLine
 10
0.0
 20
0.0
 30
0.0
 11
-1.0
 21
0.0
 31
0.0
  0
ENDBLK
  5
1D
330
19
100
AcDbEntity
  8
0
100
AcDbBlockEnd
  0
BLOCK
  5
1F
330
1E
100
AcDbEntity
  8
0
100
AcDbBlockBegin
  2
_OPEN30
 70
     0
 10
0.0
 20
0.0
 30
0.0
  3
_OPEN30
  1

  0
LINE
  5
20
330
1E
100
AcDbEntity
  8
0
  6
BYBLOCK
 62
     0
370
    -2
100
AcDbLine
 10
-1.0
 20
0.267949
 30
0.0
 11
0.0
 21
0.0
 31
0.0
  0
LINE
  5
21
330
1E
100
AcDbEntity
  8
0
  6
BYBLOCK
 62
     0
370
    -2
100
AcDbLine
 10
0.0
 20
0.0
 30
0.0
 11
-1.0
 21
-0.267949
 31
0.0
  0
LINE
  5
22
330
1E
100
AcDbEntity
  8
0
  6
BYBLOCK
 62
     0
370
    -2
100
AcDbLine
 10
0.0
 20
0.0
 30
0.0
 11
-1.0
 21
0.0
 31
0.0
  0
ENDBLK
  5
23
330
1E
100
AcDbEntity
  8
0
100
AcDbBlockEnd
  0
BLOCK
  5
25
330
24
100
AcDbEntity
  8
0
100
AcDbBlockBegin
  2
_BOXFILLED
 70
     0
 10
0.0
 20
0.0
 30
0.0
  3
_BOXFILLED
  1

  0
SOLID
  5
26
330
24
100
AcDbEntity
  8
0
  6
BYBLOCK
 62
     0
370
    -2
100
AcDbTrace
 10
-0.5
 20
0.5
 30
0.0
 11
0.5
 21
0.5
 31
0.0
 12
-0.5
 22
-0.5
 32
0.0
 13
0.5
 23
-0.5
 33
0.0
  0
LINE
  5
27
330
24
100
AcDbEntity
  8
0
  6
BYBLOCK
 62
     0
370
    -2
100
AcDbLine
 10
-0.5
 20
0.0
 30
0.0
 11
-1.0
 21
0.0
 31
0.0
  0
ENDBLK
  5
28
330
24
100
AcDbEntity
  8
0
100
AcDbBlockEnd
  0
BLOCK
  5
2A
330
29
100
AcDbEntity
  8
0
100
AcDbBlockBegin
  2
_BOXBLANK
 70
     0
 10
0.0
 20
0.0
 30
0.0
  3
_BOXBLANK
  1

  0
LINE
  5
2B
330
29
100
AcDbEntity
  8
0
  6
BYBLOCK
 62
     0
370
    -2
100
AcDbLine
 10
-0.5
 20
-0.5
 30
0.0
 11
0.5
 21
-0.5
 31
0.0
  0
LINE
  5
2C
330
29
100
AcDbEntity
  8
0
  6
BYBLOCK
 62
     0
370
    -2
100
AcDbLine
 10
0.5
 20
-0.5
 30
0.0
 11
0.5
 21
0.5
 31
0.0
  0
LINE
  5
2D
330
29
100
AcDbEntity
  8
0
  6
BYBLOCK
 62
     0
370
    -2
100
AcDbLine
 10
0.5
 20
0.5
 30
0.0
 11
-0.5
 21
0.5
 31
0.0
  0
LINE
  5
2E
330
29
100
AcDbEntity
  8
0
  6
BYBLOCK
 62
     0
370
    -2
100
AcDbLine
 10
-0.5
 20
0.5
 30
0.0
 11
-0.5
 21
-0.5
 31
0.0
  0
LINE
  5
2F
330
29
100
AcDbEntity
  8
0
  6
BYBLOCK
 62
     0
370
    -2
100
AcDbLine
 10
-0.5
 20
0.0
 30
0.0
 11
-1.0
 21
0.0
 31
0.0
  0
ENDBLK
  5
30
330
29
100
AcDbEntity
  8
0
100
AcDbBlockEnd
  0
BLOCK
  5
32
330
31
100
AcDbEntity
  8
0
100
AcDbBlockBegin
  2
_OBLIQUE
 70
     0
 10
0.0
 20
0.0
 30
0.0
  3
_OBLIQUE
  1

  0
LINE
  5
33
330
31
100
AcDbEntity
  8
0
  6
BYBLOCK
 62
     0
370
    -2
100
AcDbLine
 10
-0.5
 20
-0.5
 30
0.0
 11
0.5
 21
0.5
 31
0.0
  0
ENDBLK
  5
34
330
31
100
AcDbEntity
  8
0
100
AcDbBlockEnd
  0
BLOCK
  5
36
330
35
100
AcDbEntity
  8
0
100
AcDbBlockBegin
  2
_OPEN90
 70
     0
 10
0.0
 20
0.0
 30
0.0
  3
_OPEN90
  1

  0
LINE
  5
37
330
35
100
AcDbEntity
  8
0
  6
BYBLOCK
 62
     0
370
    -2
100
AcDbLine
 10
-0.5
 20
0.5
 30
0.0
 11
0.0
 21
0.0
 31
0.0
  0
LINE
  5
38
330
35
100
AcDbEntity
  8
0
  6
BYBLOCK
 62
     0
370
    -2
100
AcDbLine
 10
0.0
 20
0.0
 30
0.0
 11
-0.5
 21
-0.5
 31
0.0
  0
LINE
  5
39
330
35
100
AcDbEntity
  8
0
  6
BYBLOCK
 62
     0
370
    -2
100
AcDbLine
 10
0.0
 20
0.0
 30
0.0
 11
-1.0
 21
0.0
 31
0.0
  0
ENDBLK
  5
3A
330
35
100
AcDbEntity
  8
0
100
AcDbBlockEnd
  0
BLOCK
  5
3C
330
3B
100
AcDbEntity
  8
0
100
AcDbBlockBegin
  2
_CLOSEDBLANK
 70
     0
 10
0.0
 20
0.0
 30
0.0
  3
_CLOSEDBLANK
  1

  0
LINE
  5
3D
330
3B
100
AcDbEntity
  8
0
  6
BYBLOCK
 62
     0
370
    -2
100
AcDbLine
 10
-1.0
 20
0.1666666666666666
 30
0.0
 11
0.0
 21
0.0
 31
0.0
  0
LINE
  5
3E
330
3B
100
AcDbEntity
  8
0
  6
BYBLOCK
 62
     0
370
    -2
100
AcDbLine
 10
0.0
 20
0.0
 30
0.0
 11
-1.0
 21
-0.1666666666666666
 31
0.0
  0
LINE
  5
3F
330
3B
100
AcDbEntity
  8
0
  6
BYBLOCK
 62
     0
370
    -2
100
AcDbLine
 10
-1.0
 20
0.1666666666666666
 30
0.0
 11
-1.0
 21
-0.1666666666666666
 31
0.0
  0
ENDBLK
  5
40
330
3B
100
AcDbEntity
  8
0
100
AcDbBlockEnd
  0
BLOCK
  5
42
330
41
100
AcDbEntity
  8
0
100
AcDbBlockBegin
  2
_DOTBLANK
 70
     0
 10
0.0
 20
0.0
 30
0.0
  3
_DOTBLANK
  1

  0
CIRCLE
  5
43
330
41
100
AcDbEntity
  8
0
  6
BYBLOCK
 62
     0
370
    -2
100
AcDbCircle
 10
0.0
 20
0.0
 30
0.0
 40
0.5
  0
LINE
  5
44
330
41
100
AcDbEntity
  8
0
  6
BYBLOCK
 62
     0
370
    -2
100
AcDbLine
 10
-0.5
 20
0.0
 30
0.0
 11
-1.0
 21
0.0
 31
0.0
  0
ENDBLK
  5
45
330
41
100
AcDbEntity
  8
0
100
AcDbBlockEnd
  0
ENDSEC
  0
SECTION
  2
ENTITIES
  0
MTEXT
  5
46
100
AcDbEntity
  8
7
  6
CONTINUOUS
 62
3
100
AcDbMText
 10
10.00000000000000
 20
18.00000000000000
 30
0.000000000000000
 40
3.000000000000000
 41
0.000000000000000
 44
0.6739999771118164
 71
     7
 72
     1
  1
{\H0.94x;{TYPE No.THA-405-1K(No.200)}}
 11
1.000000000000000
 21
0.000000000000000
 31
0.000000000000000
  7
STANDARD
  0
LINE
  5
47
100
AcDbEntity
  8
1
  6
CONTINUOUS
 62
7
100
AcDbLine
 10
347.5820140000000
 20
73.06670900000000
 30
0.000000000000000
 11
351.5820140000000
 21
73.06670900000000
 31
0.000000000000000
  0
LINE
  5
48
100
AcDbEntity
  8
1
  6
CONTINUOUS
 62
7
100
AcDbLine
 10
349.0820140000000
 20
98.06670900000000
 30
0.000000000000000
 11
380.0790139999999
 21
98.06670900000000
 31
0.000000000000000
  0
LINE
  5
49
100
AcDbEntity
  8
1
  6
CONTINUOUS
 62
7
100
AcDbLine
 10
347.5820140000000
 20
148.0667090000000
 30
0.000000000000000
 11
381.5790139999998
 21
148.0667090000000
 31
0.000000000000000
  0
LINE
  5
4A
100
AcDbEntity
  8
1
  6
CONTINUOUS
 62
7
100
AcDbLine
 10
384.0790139999999
 20
75.56670900000000
 30
0.000000000000000
 11
384.0790139999999
 21
145.5667090000000
 31
0.000000000000000
  0
LINE
  5
4B
100
AcDbEntity
  8
1
  6
CONTINUOUS
 62
7
100
AcDbLine
 10
345.0820140000000
 20
75.56670900000000
 30
0.000000000000000
 11
345.0820140000000
 21
145.5667090000000
 31
0.000000000000000
  0
LINE
  5
4C
100
AcDbEntity
  8
1
  6
CONTINUOUS
 62
7
100
AcDbLine
 10
380.0790139999999
 20
73.06670900000000
 30
0.000000000000000
 11
380.0790139999999
 21
148.0667090000000
 31
0.000000000000000
  0
LINE
  5
4D
100
AcDbEntity
  8
1
  6
CONTINUOUS
 62
7
100
AcDbLine
 10
349.0820140000000
 20
73.06670900000000
 30
0.000000000000000
 11
349.0820140000000
 21
148.0667090000000
 31
0.000000000000000
  0
LINE
  5
4E
100
AcDbEntity
  8
1
  6
CONTINUOUS
 62
7
100
AcDbLine
 10
377.5790139999998
 20
73.06670900000000
 30
0.000000000000000
 11
377.5790139999998
 21
98.06670900000000
 31
0.000000000000000
  0
LINE
  5
4F
100
AcDbEntity
  8
1
  6
CONTINUOUS
 62
7
100
AcDbLine
 10
351.5820140000000
 20
73.06670900000000
 30
0.000000000000000
 11
351.5820140000000
 21
98.06670900000000
 31
0.000000000000000
  0
LINE
  5
50
100
AcDbEntity
  8
1
  6
CONTINUOUS
 62
7
100
AcDbLine
 10
377.5790139999998
 20
73.06670900000000
 30
0.000000000000000
 11
381.5790139999998
 21
73.06670900000000
 31
0.000000000000000
  0
LINE
  5
51
100
AcDbEntity
  8
1
  6
CONTINUOUS
 62
7
100
AcDbLine
 10
364.6490140000000
 20
155.5677090000000
 30
0.000000000000000
 11
371.5790139999999
 21
162.4957090000000
 31
0.000000000000000
  0
LINE
  5
52
100
AcDbEntity
  8
1
  6
CONTINUOUS
 62
7
100
AcDbLine
 10
357.5820140000000
 20
162.6387090000000
 30
0.000000000000000
 11
364.5090139999999
 21
169.5667090000000
 31
0.000000000000000
  0
LINE
  5
53
100
AcDbEntity
  8
1
  6
CONTINUOUS
 62
7
100
AcDbLine
 10
364.5090139999999
 20
155.5677090000000
 30
0.000000000000000
 11
357.5820140000000
 21
162.4957090000000
 31
0.000000000000000
  0
LINE
  5
54
100
AcDbEntity
  8
1
  6
CONTINUOUS
 62
7
100
AcDbLine
 10
371.5790139999999
 20
162.6387090000000
 30
0.000000000000000
 11
364.6490140000001
 21
169.5667090000000
 31
0.000000000000000
  0
LINE
  5
55
100
AcDbEntity
  8
5
  6
PHANTOM
 62
6
100
AcDbLine
 10
35.51101400000001
 20
152.0667090000000
 30
0.000000000000000
 11
114.4810139999999
 21
152.0667090000000
 31
0.000000000000000
  0
LINE
  5
56
100
AcDbEntity
  8
5
  6
PHANTOM
 62
6
100
AcDbLine
 10
35.51101400000001
 20
173.0667090000000
 30
0.000000000000000
 11
114.4810139999999
 21
173.0667090000000
 31
0.000000000000000
  0
LINE
  5
57
100
AcDbEntity
  8
5
  6
PHANTOM
 62
6
100
AcDbLine
 10
116.4810139999999
 20
154.0667090000000
 30
0.000000000000000
 11
116.4810139999999
 21
171.0667090000000
 31
0.000000000000000
  0
LINE
  5
58
100
AcDbEntity
  8
1
  6
CONTINUOUS
 62
7
100
AcDbLine
 10
18.98101399999998
 20
181.5667089999998
 30
0.000000000000000
 11
18.98101399999998
 21
53.56670900000001
 31
0.000000000000000
  0
LINE
  5
59
100
AcDbEntity
  8
1
  6
CONTINUOUS
 62
7
100
AcDbLine
 10
23.98101399999999
 20
186.5667090000000
 30
0.000000000000000
 11
45.98101400000000
 21
186.5667090000000
 31
0.000000000000000
  0
LINE
  5
5A
100
AcDbEntity
  8
1
  6
CONTINUOUS
 62
7
100
AcDbLine
 10
23.98101399999999
 20
48.56670900000001
 30
0.000000000000000
 11
45.98101400000000
 21
48.56670900000001
 31
0.000000000000000
  0
LINE
  5
5B
100
AcDbEntity
  8
1
  6
CONTINUOUS
 62
7
100
AcDbLine
 10
50.98101400000000
 20
181.5667089999998
 30
0.000000000000000
 11
50.98101400000000
 21
53.56670900000001
 31
0.000000000000000
  0
LINE
  5
5C
100
AcDbEntity
  8
1
  6
CONTINUOUS
 62
7
100
AcDbLine
 10
23.98101399999999
 20
51.56670900000000
 30
0.000000000000000
 11
45.98101400000000
 21
51.56670900000000
 31
0.000000000000000
  0
LINE
  5
5D
100
AcDbEntity
  8
1
  6
CONTINUOUS
 62
7
100
AcDbLine
 10
47.98101400000000
 20
181.5667089999998
 30
0.000000000000000
 11
47.98101400000000
 21
53.56670900000001
 31
0.000000000000000
  0
LINE
  5
5E
100
AcDbEntity
  8
1
  6
CONTINUOUS
 62
7
100
AcDbLine
 10
21.98101400000000
 20
181.5667089999998
 30
0.000000000000000
 11
21.98101400000000
 21
53.56670900000001
 31
0.000000000000000
  0
LINE
  5
5F
100
AcDbEntity
  8
1
  6
CONTINUOUS
 62
7
100
AcDbLine
 10
23.98101399999999
 20
183.5667090000000
 30
0.000000000000000
 11
45.98101400000000
 21
183.5667090000000
 31
0.000000000000000
  0
LINE
  5
60
100
AcDbEntity
  8
4
  6
CENTER
 62
1
100
AcDbLine
 10
34.98101400000000
 20
193.0756450000000
 30
0.000000000000000
 11
34.98101400000000
 21
41.49483200000000
 31
0.000000000000000
  0
LINE
  5
61
100
AcDbEntity
  8
4
  6
CENTER
 62
1
100
AcDbLine
 10
10.29272399999999
 20
162.5667090000000
 30
0.000000000000000
 11
124.7160139999997
 21
162.5667090000000
 31
0.000000000000000
  0
LINE
  5
62
100
AcDbEntity
  8
4
  6
CENTER
 62
1
100
AcDbLine
 10
282.8208490000000
 20
139.0667089999998
 30
0.000000000000000
 11
292.0268490000001
 21
139.0667089999998
 31
0.000000000000000
  0
LINE
  5
63
100
AcDbEntity
  8
4
  6
CENTER
 62
1
100
AcDbLine
 10
282.3308490000000
 20
107.0667090000000
 30
0.000000000000000
 11
292.4188490000000
 21
107.0667090000000
 31
0.000000000000000
  0
LINE
  5
64
100
AcDbEntity
  8
1
  6
CONTINUOUS
 62
7
100
AcDbLine
 10
24.33101399999999
 20
162.5667090000000
 30
0.000000000000000
 11
24.33101399999999
 21
81.06670900000002
 31
0.000000000000000
  0
LINE
  5
65
100
AcDbEntity
  8
1
  6
CONTINUOUS
 62
7
100
AcDbLine
 10
45.63101399999999
 20
162.5667090000000
 30
0.000000000000000
 11
45.63101399999999
 21
81.06670900000002
 31
0.000000000000000
  0
LINE
  5
66
100
AcDbEntity
  8
1
  6
CONTINUOUS
 62
7
100
AcDbLine
 10
25.33101400000000
 20
81.43070899999996
 30
0.000000000000000
 11
25.33101400000000
 21
71.56670900000000
 31
0.000000000000000
  0
LINE
  5
67
100
AcDbEntity
  8
1
  6
CONTINUOUS
 62
7
100
AcDbLine
 10
44.63101400000000
 20
81.43070899999996
 30
0.000000000000000
 11
44.63101400000000
 21
71.56670900000000
 31
0.000000000000000
  0
LINE
  5
68
100
AcDbEntity
  8
1
  6
CONTINUOUS
 62
7
100
AcDbLine
 10
375.5790139999998
 20
186.5667090000000
 30
0.000000000000000
 11
353.5820140000000
 21
186.5667090000000
 31
0.000000000000000
  0
LINE
  5
69
100
AcDbEntity
  8
1
  6
CONTINUOUS
 62
7
100
AcDbLine
 10
348.5820140000000
 20
181.5667089999998
 30
0.000000000000000
 11
348.5820140000000
 21
148.0667090000000
 31
0.000000000000000
  0
LINE
  5
6A
100
AcDbEntity
  8
1
  6
CONTINUOUS
 62
7
100
AcDbLine
 10
380.5790139999999
 20
181.5667089999998
 30
0.000000000000000
 11
380.5790139999999
 21
148.0667090000000
 31
0.000000000000000
  0
LINE
  5
6B
100
AcDbEntity
  8
1
  6
CONTINUOUS
 62
7
100
AcDbLine
 10
375.5790139999998
 20
48.56670900000001
 30
0.000000000000000
 11
353.5820140000000
 21
48.56670900000001
 31
0.000000000000000
  0
LINE
  5
6C
100
AcDbEntity
  8
4
  6
CENTER
 62
1
100
AcDbLine
 10
383.5190140000000
 20
162.5667090000000
 30
0.000000000000000
 11
344.9370139999999
 21
162.5667090000000
 31
0.000000000000000
  0
LINE
  5
6D
100
AcDbEntity
  8
4
  6
CENTER
 62
1
100
AcDbLine
 10
364.5790139999999
 20
193.0756450000000
 30
0.000000000000000
 11
364.5790139999999
 21
41.49483200000000
 31
0.000000000000000
  0
LINE
  5
6E
100
AcDbEntity
  8
1
  6
CONTINUOUS
 62
7
100
AcDbLine
 10
377.2790140000000
 20
172.5667089999998
 30
0.000000000000000
 11
377.2790140000000
 21
165.6787089999999
 31
0.000000000000000
  0
LINE
  5
6F
100
AcDbEntity
  8
1
  6
CONTINUOUS
 62
7
100
AcDbLine
 10
351.8820140000000
 20
172.5667089999998
 30
0.000000000000000
 11
351.8820140000000
 21
148.0667090000000
 31
0.000000000000000
  0
LINE
  5
70
100
AcDbEntity
  8
1
  6
CONTINUOUS
 62
7
100
AcDbLine
 10
374.2790140000000
 20
175.5667090000000
 30
0.000000000000000
 11
354.8820140000001
 21
175.5667090000000
 31
0.000000000000000
  0
LINE
  5
71
100
AcDbEntity
  8
1
  6
CONTINUOUS
 62
7
100
AcDbLine
 10
45.63101399999999
 20
81.06670900000003
 30
0.000000000000000
 11
44.63101400000001
 21
80.06670900000002
 31
0.000000000000000
  0
LINE
  5
72
100
AcDbEntity
  8
1
  6
CONTINUOUS
 62
7
100
AcDbLine
 10
25.33101400000000
 20
80.06670900000000
 30
0.000000000000000
 11
24.33101399999999
 21
81.06670900000002
 31
0.000000000000000
  0
LINE
  5
73
100
AcDbEntity
  8
1
  6
CONTINUOUS
 62
7
100
AcDbLine
 10
354.8820140000001
 20
59.56670899999998
 30
0.000000000000000
 11
374.2790140000000
 21
59.56670899999998
 31
0.000000000000000
  0
LINE
  5
74
100
AcDbEntity
  8
1
  6
CONTINUOUS
 62
7
100
AcDbLine
 10
352.9310140000000
 20
96.89870900000000
 30
0.000000000000000
 11
352.9310140000000
 21
71.68570900000000
 31
0.000000000000000
  0
LINE
  5
75
100
AcDbEntity
  8
1
  6
CONTINUOUS
 62
7
100
AcDbLine
 10
376.2290140000000
 20
96.89870900000000
 30
0.000000000000000
 11
376.2290140000000
 21
71.68570900000000
 31
0.000000000000000
  0
LINE
  5
76
100
AcDbEntity
  8
1
  6
CONTINUOUS
 62
7
100
AcDbLine
 10
354.8820140000001
 20
149.8667089999998
 30
0.000000000000000
 11
361.8290139999999
 21
149.8667089999998
 31
0.000000000000000
  0
LINE
  5
77
100
AcDbEntity
  8
4
  6
CENTER
 62
1
100
AcDbLine
 10
371.0790139999998
 20
86.56670899999997
 30
0.000000000000000
 11
371.0790139999998
 21
78.56670900000000
 31
0.000000000000000
  0
LINE
  5
78
100
AcDbEntity
  8
4
  6
CENTER
 62
1
100
AcDbLine
 10
367.0790139999998
 20
82.56670900000000
 30
0.000000000000000
 11
375.0790139999998
 21
82.56670900000000
 31
0.000000000000000
  0
LINE
  5
79
100
AcDbEntity
  8
4
  6
CENTER
 62
1
100
AcDbLine
 10
358.0820140000000
 20
86.56670899999997
 30
0.000000000000000
 11
358.0820140000000
 21
78.56670900000000
 31
0.000000000000000
  0
LINE
  5
7A
100
AcDbEntity
  8
4
  6
CENTER
 62
1
100
AcDbLine
 10
354.0820140000000
 20
82.56670900000000
 30
0.000000000000000
 11
362.0790139999999
 21
82.56670900000000
 31
0.000000000000000
  0
LINE
  5
7B
100
AcDbEntity
  8
4
  6
CENTER
 62
1
100
AcDbLine
 10
358.5820140000000
 20
107.0667090000000
 30
0.000000000000000
 11
370.5790139999999
 21
107.0667090000000
 31
0.000000000000000
  0
LINE
  5
7C
100
AcDbEntity
  8
4
  6
CENTER
 62
1
100
AcDbLine
 10
358.5820140000000
 20
139.0667089999998
 30
0.000000000000000
 11
370.5790139999999
 21
139.0667089999998
 31
0.000000000000000
  0
LINE
  5
7D
100
AcDbEntity
  8
1
  6
CONTINUOUS
 62
7
100
AcDbLine
 10
369.9290140000001
 20
171.8237090000000
 30
0.000000000000000
 11
370.9290140000001
 21
173.5657090000000
 31
0.000000000000000
  0
LINE
  5
7E
100
AcDbEntity
  8
1
  6
CONTINUOUS
 62
7
100
AcDbLine
 10
359.2380140000000
 20
171.8237090000000
 30
0.000000000000000
 11
358.2320140000000
 21
173.5657090000000
 31
0.000000000000000
  0
LINE
  5
7F
100
AcDbEntity
  8
1
  6
CONTINUOUS
 62
7
100
AcDbLine
 10
358.2320140000000
 20
175.5667090000000
 30
0.000000000000000
 11
358.2320140000000
 21
173.5657090000000
 31
0.000000000000000
  0
LINE
  5
80
100
AcDbEntity
  8
1
  6
CONTINUOUS
 62
7
100
AcDbLine
 10
370.9290140000000
 20
175.5667090000000
 30
0.000000000000000
 11
370.9290140000000
 21
173.5657090000000
 31
0.000000000000000
  0
LINE
  5
81
100
AcDbEntity
  8
1
  6
CONTINUOUS
 62
7
100
AcDbLine
 10
369.6590140000000
 20
171.2147090000000
 30
0.000000000000000
 11
371.1590140000000
 21
173.8127090000000
 31
0.000000000000000
  0
LINE
  5
82
100
AcDbEntity
  8
1
  6
CONTINUOUS
 62
7
100
AcDbLine
 10
356.0030140000000
 20
157.5547090000000
 30
0.000000000000000
 11
353.4050139999999
 21
156.0547090000000
 31
0.000000000000000
  0
LINE
  5
83
100
AcDbEntity
  8
1
  6
CONTINUOUS
 62
7
100
AcDbLine
 10
187.7810140000000
 20
48.56670900000001
 30
0.000000000000000
 11
190.2810139999999
 21
48.56670900000001
 31
0.000000000000000
  0
LINE
  5
84
100
AcDbEntity
  8
1
  6
CONTINUOUS
 62
7
100
AcDbLine
 10
187.7810140000000
 20
186.5667090000000
 30
0.000000000000000
 11
190.2810139999999
 21
186.5667090000000
 31
0.000000000000000
  0
LINE
  5
85
100
AcDbEntity
  8
1
  6
CONTINUOUS
 62
7
100
AcDbLine
 10
186.2810140000000
 20
183.5667090000000
 30
0.000000000000000
 11
186.2810140000000
 21
51.56670900000000
 31
0.000000000000000
  0
LINE
  5
86
100
AcDbEntity
  8
1
  6
CONTINUOUS
 62
7
100
AcDbLine
 10
189.2810139999999
 20
186.5667090000000
 30
0.000000000000000
 11
189.2810139999999
 21
48.56670900000001
 31
0.000000000000000
  0
LINE
  5
87
100
AcDbEntity
  8
1
  6
CONTINUOUS
 62
7
100
AcDbLine
 10
187.7810140000000
 20
186.5667090000000
 30
0.000000000000000
 11
187.7810140000000
 21
48.56670900000001
 31
0.000000000000000
  0
LINE
  5
88
100
AcDbEntity
  8
1
  6
CONTINUOUS
 62
7
100
AcDbLine
 10
186.2810140000000
 20
51.56670900000000
 30
0.000000000000000
 11
187.7810140000000
 21
48.56670900000001
 31
0.000000000000000
  0
LINE
  5
89
100
AcDbEntity
  8
1
  6
CONTINUOUS
 62
7
100
AcDbLine
 10
186.2810140000000
 20
183.5667090000000
 30
0.000000000000000
 11
187.7810140000000
 21
186.5667090000000
 31
0.000000000000000
  0
LINE
  5
8A
100
AcDbEntity
  8
1
  6
CONTINUOUS
 62
7
100
AcDbLine
 10
191.2810139999999
 20
77.06670900000000
 30
0.000000000000000
 11
191.2810139999999
 21
60.56670900000000
 31
0.000000000000000
  0
LINE
  5
8B
100
AcDbEntity
  8
1
  6
CONTINUOUS
 62
7
100
AcDbLine
 10
201.2810140000000
 20
162.5667090000000
 30
0.000000000000000
 11
201.2810140000000
 21
151.1687090000000
 31
0.000000000000000
  0
LINE
  5
8C
100
AcDbEntity
  8
1
  6
CONTINUOUS
 62
7
100
AcDbLine
 10
192.2810139999999
 20
78.06670900000000
 30
0.000000000000000
 11
198.2810139999999
 21
78.06670900000000
 31
0.000000000000000
  0
LINE
  5
8D
100
AcDbEntity
  8
4
  6
CENTER
 62
1
100
AcDbLine
 10
181.1810139999998
 20
162.5667090000000
 30
0.000000000000000
 11
223.3620139999999
 21
162.5667090000000
 31
0.000000000000000
  0
LINE
  5
8E
100
AcDbEntity
  8
1
  6
CONTINUOUS
 62
7
100
AcDbLine
 10
199.2810139999999
 20
149.1687090000000
 30
0.000000000000000
 11
199.2810139999999
 21
79.06670900000000
 31
0.000000000000000
  0
LINE
  5
8F
100
AcDbEntity
  8
1
  6
CONTINUOUS
 62
7
100
AcDbLine
 10
191.1280139999998
 20
60.03570899999999
 30
0.000000000000000
 11
213.8060139999998
 21
60.59170899999998
 31
0.000000000000000
  0
LINE
  5
90
100
AcDbEntity
  8
1
  6
CONTINUOUS
 62
7
100
AcDbLine
 10
200.2570139999999
 20
97.87470900000000
 30
0.000000000000000
 11
213.8060139999998
 21
97.54270900000002
 31
0.000000000000000
  0
LINE
  5
91
100
AcDbEntity
  8
4
  6
CENTER
 62
1
100
AcDbLine
 10
196.0580139999999
 20
139.0667089999998
 30
0.000000000000000
 11
203.5030139999999
 21
139.0667089999998
 31
0.000000000000000
  0
LINE
  5
92
100
AcDbEntity
  8
4
  6
CENTER
 62
1
100
AcDbLine
 10
196.3680139999999
 20
107.0667090000000
 30
0.000000000000000
 11
203.8130139999999
 21
107.0667090000000
 31
0.000000000000000
  0
LINE
  5
93
100
AcDbEntity
  8
1
  6
CONTINUOUS
 62
7
100
AcDbLine
 10
199.2810139999999
 20
111.5667090000000
 30
0.000000000000000
 11
200.2810140000000
 21
111.5667090000000
 31
0.000000000000000
  0
LINE
  5
94
100
AcDbEntity
  8
1
  6
CONTINUOUS
 62
7
100
AcDbLine
 10
199.2810139999999
 20
102.5667090000000
 30
0.000000000000000
 11
200.2810140000000
 21
102.5667090000000
 31
0.000000000000000
  0
LINE
  5
95
100
AcDbEntity
  8
1
  6
CONTINUOUS
 62
7
100
AcDbLine
 10
199.2810139999999
 20
143.5667090000000
 30
0.000000000000000
 11
200.2810140000000
 21
143.5667090000000
 31
0.000000000000000
  0
LINE
  5
96
100
AcDbEntity
  8
1
  6
CONTINUOUS
 62
7
100
AcDbLine
 10
199.2810139999999
 20
134.5667090000000
 30
0.000000000000000
 11
200.2810140000000
 21
134.5667090000000
 31
0.000000000000000
  0
LINE
  5
97
100
AcDbEntity
  8
1
  6
CONTINUOUS
 62
7
100
AcDbLine
 10
200.2810140000000
 20
143.5667090000000
 30
0.000000000000000
 11
200.2810140000000
 21
134.5667090000000
 31
0.000000000000000
  0
LINE
  5
98
100
AcDbEntity
  8
1
  6
CONTINUOUS
 62
7
100
AcDbLine
 10
200.2810140000000
 20
111.5667090000000
 30
0.000000000000000
 11
200.2810140000000
 21
102.5667090000000
 31
0.000000000000000
  0
LINE
  5
99
100
AcDbEntity
  8
1
  6
CONTINUOUS
 62
7
100
AcDbLine
 10
191.2810139999999
 20
174.5667089999997
 30
0.000000000000000
 11
191.2810139999999
 21
162.5667090000000
 31
0.000000000000000
  0
LINE
  5
9A
100
AcDbEntity
  8
1
  6
CONTINUOUS
 62
7
100
AcDbLine
 10
216.6810139999999
 20
171.4007090000000
 30
0.000000000000000
 11
216.6810139999999
 21
149.5547090000000
 31
0.000000000000000
  0
LINE
  5
9B
100
AcDbEntity
  8
1
  6
CONTINUOUS
 62
7
100
AcDbLine
 10
200.2630139999999
 20
150.1687090000000
 30
0.000000000000000
 11
215.2990139999999
 21
150.4387089999999
 31
0.000000000000000
  0
LINE
  5
9C
100
AcDbEntity
  8
1
  6
CONTINUOUS
 62
7
100
AcDbLine
 10
190.2810140000000
 20
175.5487090000000
 30
0.000000000000000
 11
218.1810140000001
 21
175.0467089999999
 31
0.000000000000000
  0
LINE
  5
9D
100
AcDbEntity
  8
1
  6
CONTINUOUS
 62
7
100
AcDbLine
 10
216.2810139999999
 20
171.4007090000000
 30
0.000000000000000
 11
218.1810140000000
 21
171.4007090000000
 31
0.000000000000000
  0
LINE
  5
9E
100
AcDbEntity
  8
1
  6
CONTINUOUS
 62
7
100
AcDbLine
 10
191.2810139999999
 20
173.5657090000000
 30
0.000000000000000
 11
218.1810140000000
 21
173.5657090000000
 31
0.000000000000000
  0
LINE
  5
9F
100
AcDbEntity
  8
1
  6
CONTINUOUS
 62
7
100
AcDbLine
 10
218.1810140000000
 20
175.0467089999999
 30
0.000000000000000
 11
218.1810140000000
 21
171.4007090000000
 31
0.000000000000000
  0
LINE
  5
A0
100
AcDbEntity
  8
1
  6
CONTINUOUS
 62
7
100
AcDbLine
 10
184.9730139999999
 20
155.9397090000000
 30
0.000000000000000
 11
184.9730139999999
 21
82.56670900000000
 31
0.000000000000000
  0
LINE
  5
A1
100
AcDbEntity
  8
1
  6
CONTINUOUS
 62
7
100
AcDbLine
 10
180.7200140000000
 20
164.3347089999998
 30
0.000000000000000
 11
182.0450140000000
 21
163.0107089999999
 31
0.000000000000000
  0
LINE
  5
A2
100
AcDbEntity
  8
1
  6
CONTINUOUS
 62
7
100
AcDbLine
 10
183.9020139999998
 20
169.6377090000000
 30
0.000000000000000
 11
180.7200139999999
 21
166.4557090000000
 31
0.000000000000000
  0
LINE
  5
A3
100
AcDbEntity
  8
1
  6
CONTINUOUS
 62
7
100
AcDbLine
 10
358.5460140000000
 20
82.10270899999995
 30
0.000000000000000
 11
359.0600140000000
 21
82.33170899999999
 31
0.000000000000000
  0
LINE
  5
A4
100
AcDbEntity
  8
1
  6
CONTINUOUS
 62
7
100
AcDbLine
 10
359.0600140000001
 20
82.33170900000003
 30
0.000000000000000
 11
359.3620140000000
 21
82.33670900000000
 31
0.000000000000000
  0
LINE
  5
A5
100
AcDbEntity
  8
1
  6
CONTINUOUS
 62
7
100
AcDbLine
 10
358.5460140000000
 20
83.03070899999997
 30
0.000000000000000
 11
359.0600140000000
 21
82.80170899999999
 31
0.000000000000000
  0
LINE
  5
A6
100
AcDbEntity
  8
1
  6
CONTINUOUS
 62
7
100
AcDbLine
 10
359.0600140000001
 20
82.80170899999999
 30
0.000000000000000
 11
359.3620140000000
 21
82.79670899999998
 31
0.000000000000000
  0
LINE
  5
A7
100
AcDbEntity
  8
1
  6
CONTINUOUS
 62
7
100
AcDbLine
 10
357.8470139999999
 20
83.54470899999997
 30
0.000000000000000
 11
357.8520140000000
 21
83.84670899999998
 31
0.000000000000000
  0
LINE
  5
A8
100
AcDbEntity
  8
1
  6
CONTINUOUS
 62
7
100
AcDbLine
 10
357.6180140000001
 20
83.03070899999999
 30
0.000000000000000
 11
357.8470140000001
 21
83.54470900000000
 31
0.000000000000000
  0
LINE
  5
A9
100
AcDbEntity
  8
1
  6
CONTINUOUS
 62
7
100
AcDbLine
 10
358.3170139999999
 20
83.54470899999997
 30
0.000000000000000
 11
358.3120139999998
 21
83.84670899999996
 31
0.000000000000000
  0
LINE
  5
AA
100
AcDbEntity
  8
1
  6
CONTINUOUS
 62
7
100
AcDbLine
 10
358.5460140000000
 20
83.03070900000000
 30
0.000000000000000
 11
358.3170139999999
 21
83.54470899999997
 31
0.000000000000000
  0
LINE
  5
AB
100
AcDbEntity
  8
1
  6
CONTINUOUS
 62
7
100
AcDbLine
 10
357.1040140000000
 20
82.33170900000003
 30
0.000000000000000
 11
356.8020139999999
 21
82.33670900000000
 31
0.000000000000000
  0
LINE
  5
AC
100
AcDbEntity
  8
1
  6
CONTINUOUS
 62
7
100
AcDbLine
 10
357.6180139999999
 20
82.10270899999998
 30
0.000000000000000
 11
357.1040139999999
 21
82.33170899999999
 31
0.000000000000000
  0
LINE
  5
AD
100
AcDbEntity
  8
1
  6
CONTINUOUS
 62
7
100
AcDbLine
 10
357.1040140000000
 20
82.80170899999997
 30
0.000000000000000
 11
356.8030140000000
 21
82.79670899999996
 31
0.000000000000000
  0
LINE
  5
AE
100
AcDbEntity
  8
1
  6
CONTINUOUS
 62
7
100
AcDbLine
 10
357.6180140000000
 20
83.03070900000000
 30
0.000000000000000
 11
357.1040140000000
 21
82.80270899999999
 31
0.000000000000000
  0
LINE
  5
AF
100
AcDbEntity
  8
1
  6
CONTINUOUS
 62
7
100
AcDbLine
 10
358.3170140000000
 20
81.58870899999998
 30
0.000000000000000
 11
358.3120139999999
 21
81.28770899999998
 31
0.000000000000000
  0
LINE
  5
B0
100
AcDbEntity
  8
1
  6
CONTINUOUS
 62
7
100
AcDbLine
 10
358.5460139999999
 20
82.10270899999995
 30
0.000000000000000
 11
358.3170139999999
 21
81.58870899999999
 31
0.000000000000000
  0
LINE
  5
B1
100
AcDbEntity
  8
1
  6
CONTINUOUS
 62
7
100
AcDbLine
 10
357.8470139999999
 20
81.58870899999998
 30
0.000000000000000
 11
357.8520139999999
 21
81.28770899999995
 31
0.000000000000000
  0
LINE
  5
B2
100
AcDbEntity
  8
1
  6
CONTINUOUS
 62
7
100
AcDbLine
 10
357.6180140000000
 20
82.10270899999999
 30
0.000000000000000
 11
357.8470140000000
 21
81.58870899999997
 31
0.000000000000000
  0
LINE
  5
B3
100
AcDbEntity
  8
1
  6
CONTINUOUS
 62
7
100
AcDbLine
 10
371.5490139999997
 20
82.10270899999995
 30
0.000000000000000
 11
372.0590140000000
 21
82.33170899999999
 31
0.000000000000000
  0
LINE
  5
B4
100
AcDbEntity
  8
1
  6
CONTINUOUS
 62
7
100
AcDbLine
 10
372.0590140000000
 20
82.33170900000002
 30
0.000000000000000
 11
372.3590140000000
 21
82.33670899999998
 31
0.000000000000000
  0
LINE
  5
B5
100
AcDbEntity
  8
1
  6
CONTINUOUS
 62
7
100
AcDbLine
 10
371.5490139999997
 20
83.03070900000000
 30
0.000000000000000
 11
372.0590139999999
 21
82.80170899999997
 31
0.000000000000000
  0
LINE
  5
B6
100
AcDbEntity
  8
1
  6
CONTINUOUS
 62
7
100
AcDbLine
 10
372.0590140000000
 20
82.80270899999995
 30
0.000000000000000
 11
372.3590140000000
 21
82.79670899999995
 31
0.000000000000000
  0
LINE
  5
B7
100
AcDbEntity
  8
1
  6
CONTINUOUS
 62
7
100
AcDbLine
 10
370.8490140000000
 20
83.54470899999998
 30
0.000000000000000
 11
370.8490140000000
 21
83.84670899999998
 31
0.000000000000000
  0
LINE
  5
B8
100
AcDbEntity
  8
1
  6
CONTINUOUS
 62
7
100
AcDbLine
 10
370.6190139999999
 20
83.03070900000000
 30
0.000000000000000
 11
370.8490140000001
 21
83.54470899999995
 31
0.000000000000000
  0
LINE
  5
B9
100
AcDbEntity
  8
1
  6
CONTINUOUS
 62
7
100
AcDbLine
 10
371.3190140000001
 20
83.54470900000000
 30
0.000000000000000
 11
371.3090139999999
 21
83.84670899999999
 31
0.000000000000000
  0
LINE
  5
BA
100
AcDbEntity
  8
1
  6
CONTINUOUS
 62
7
100
AcDbLine
 10
371.5490139999998
 20
83.03070899999997
 30
0.000000000000000
 11
371.3190140000000
 21
83.54470899999998
 31
0.000000000000000
  0
LINE
  5
BB
100
AcDbEntity
  8
1
  6
CONTINUOUS
 62
7
100
AcDbLine
 10
370.1090140000002
 20
82.33170900000006
 30
0.000000000000000
 11
369.7990139999999
 21
82.33670900000003
 31
0.000000000000000
  0
LINE
  5
BC
100
AcDbEntity
  8
1
  6
CONTINUOUS
 62
7
100
AcDbLine
 10
370.6190139999999
 20
82.10270899999999
 30
0.000000000000000
 11
370.1090140000000
 21
82.33170900000006
 31
0.000000000000000
  0
LINE
  5
BD
100
AcDbEntity
  8
1
  6
CONTINUOUS
 62
7
100
AcDbLine
 10
370.1090140000000
 20
82.80170899999999
 30
0.000000000000000
 11
369.7990139999998
 21
82.79670899999999
 31
0.000000000000000
  0
LINE
  5
BE
100
AcDbEntity
  8
1
  6
CONTINUOUS
 62
7
100
AcDbLine
 10
370.6190139999998
 20
83.03070900000000
 30
0.000000000000000
 11
370.1090140000000
 21
82.80170899999999
 31
0.000000000000000
  0
LINE
  5
BF
100
AcDbEntity
  8
1
  6
CONTINUOUS
 62
7
100
AcDbLine
 10
371.3190140000001
 20
81.58870900000001
 30
0.000000000000000
 11
371.3090139999999
 21
81.28770899999999
 31
0.000000000000000
  0
LINE
  5
C0
100
AcDbEntity
  8
1
  6
CONTINUOUS
 62
7
100
AcDbLine
 10
371.5490139999998
 20
82.10270899999999
 30
0.000000000000000
 11
371.3190140000000
 21
81.58870899999998
 31
0.000000000000000
  0
LINE
  5
C1
100
AcDbEntity
  8
1
  6
CONTINUOUS
 62
7
100
AcDbLine
 10
370.8490140000000
 20
81.58870899999998
 30
0.000000000000000
 11
370.8490140000000
 21
81.28770899999996
 31
0.000000000000000
  0
LINE
  5
C2
100
AcDbEntity
  8
1
  6
CONTINUOUS
 62
7
100
AcDbLine
 10
370.6190139999998
 20
82.10270899999996
 30
0.000000000000000
 11
370.8490140000000
 21
81.58870899999998
 31
0.000000000000000
  0
LINE
  5
C3
100
AcDbEntity
  8
1
  6
CONTINUOUS
 62
7
100
AcDbLine
 10
365.2990139999998
 20
138.3457090000001
 30
0.000000000000000
 11
365.9090139999999
 21
138.6277090000000
 31
0.000000000000000
  0
LINE
  5
C4
100
AcDbEntity
  8
1
  6
CONTINUOUS
 62
7
100
AcDbLine
 10
365.9090140000000
 20
138.6277090000000
 30
0.000000000000000
 11
366.9990139999999
 21
138.6467089999999
 31
0.000000000000000
  0
LINE
  5
C5
100
AcDbEntity
  8
1
  6
CONTINUOUS
 62
7
100
AcDbLine
 10
365.9090139999998
 20
139.5057089999999
 30
0.000000000000000
 11
366.9990139999998
 21
139.4867089999999
 31
0.000000000000000
  0
LINE
  5
C6
100
AcDbEntity
  8
1
  6
CONTINUOUS
 62
7
100
AcDbLine
 10
365.2990139999997
 20
139.7887090000000
 30
0.000000000000000
 11
365.9090139999997
 21
139.5057089999999
 31
0.000000000000000
  0
LINE
  5
C7
100
AcDbEntity
  8
1
  6
CONTINUOUS
 62
7
100
AcDbLine
 10
365.0190140000001
 20
140.3947090000000
 30
0.000000000000000
 11
364.9990139999999
 21
141.4807089999999
 31
0.000000000000000
  0
LINE
  5
C8
100
AcDbEntity
  8
1
  6
CONTINUOUS
 62
7
100
AcDbLine
 10
365.2990139999997
 20
139.7887090000000
 30
0.000000000000000
 11
365.0190139999999
 21
140.3947090000000
 31
0.000000000000000
  0
LINE
  5
C9
100
AcDbEntity
  8
1
  6
CONTINUOUS
 62
7
100
AcDbLine
 10
363.8590139999999
 20
139.7887090000000
 30
0.000000000000000
 11
364.1390139999999
 21
140.3947089999999
 31
0.000000000000000
  0
LINE
  5
CA
100
AcDbEntity
  8
1
  6
CONTINUOUS
 62
7
100
AcDbLine
 10
364.1390140000000
 20
140.3947090000000
 30
0.000000000000000
 11
364.1590140000001
 21
141.4807089999999
 31
0.000000000000000
  0
LINE
  5
CB
100
AcDbEntity
  8
1
  6
CONTINUOUS
 62
7
100
AcDbLine
 10
363.2590139999999
 20
139.5057089999999
 30
0.000000000000000
 11
362.1690139999999
 21
139.4867089999999
 31
0.000000000000000
  0
LINE
  5
CC
100
AcDbEntity
  8
1
  6
CONTINUOUS
 62
7
100
AcDbLine
 10
363.8590140000000
 20
139.7887090000000
 30
0.000000000000000
 11
363.2590140000000
 21
139.5057089999999
 31
0.000000000000000
  0
LINE
  5
CD
100
AcDbEntity
  8
1
  6
CONTINUOUS
 62
7
100
AcDbLine
 10
363.8590139999999
 20
138.3457090000000
 30
0.000000000000000
 11
363.2590139999999
 21
138.6277090000000
 31
0.000000000000000
  0
LINE
  5
CE
100
AcDbEntity
  8
1
  6
CONTINUOUS
 62
7
100
AcDbLine
 10
363.2590140000000
 20
138.6277090000000
 30
0.000000000000000
 11
362.1690140000001
 21
138.6467089999999
 31
0.000000000000000
  0
LINE
  5
CF
100
AcDbEntity
  8
1
  6
CONTINUOUS
 62
7
100
AcDbLine
 10
364.1390140000000
 20
137.7387090000000
 30
0.000000000000000
 11
364.1590140000001
 21
136.6527089999999
 31
0.000000000000000
  0
LINE
  5
D0
100
AcDbEntity
  8
1
  6
CONTINUOUS
 62
7
100
AcDbLine
 10
363.8590140000000
 20
138.3457090000000
 30
0.000000000000000
 11
364.1390139999999
 21
137.7387090000000
 31
0.000000000000000
  0
LINE
  5
D1
100
AcDbEntity
  8
1
  6
CONTINUOUS
 62
7
100
AcDbLine
 10
365.2990139999997
 20
138.3457090000000
 30
0.000000000000000
 11
365.0190140000000
 21
137.7387090000000
 31
0.000000000000000
  0
LINE
  5
D2
100
AcDbEntity
  8
1
  6
CONTINUOUS
 62
7
100
AcDbLine
 10
365.0190140000000
 20
137.7387090000000
 30
0.000000000000000
 11
364.9990139999999
 21
136.6527089999999
 31
0.000000000000000
  0
LINE
  5
D3
100
AcDbEntity
  8
1
  6
CONTINUOUS
 62
7
100
AcDbLine
 10
365.2990139999998
 20
106.3457090000000
 30
0.000000000000000
 11
365.9090140000000
 21
106.6277090000000
 31
0.000000000000000
  0
LINE
  5
D4
100
AcDbEntity
  8
1
  6
CONTINUOUS
 62
7
100
AcDbLine
 10
365.9090139999999
 20
106.6277090000000
 30
0.000000000000000
 11
366.9990139999999
 21
106.6467089999999
 31
0.000000000000000
  0
LINE
  5
D5
100
AcDbEntity
  8
1
  6
CONTINUOUS
 62
7
100
AcDbLine
 10
365.9090139999999
 20
107.5057090000000
 30
0.000000000000000
 11
366.9990139999999
 21
107.4867090000000
 31
0.000000000000000
  0
LINE
  5
D6
100
AcDbEntity
  8
1
  6
CONTINUOUS
 62
7
100
AcDbLine
 10
365.2990139999998
 20
107.7887090000000
 30
0.000000000000000
 11
365.9090140000000
 21
107.5057090000000
 31
0.000000000000000
  0
LINE
  5
D7
100
AcDbEntity
  8
1
  6
CONTINUOUS
 62
7
100
AcDbLine
 10
365.0190140000001
 20
108.3947090000000
 30
0.000000000000000
 11
364.9990139999999
 21
109.4807089999999
 31
0.000000000000000
  0
LINE
  5
D8
100
AcDbEntity
  8
1
  6
CONTINUOUS
 62
7
100
AcDbLine
 10
365.2990139999997
 20
107.7887090000000
 30
0.000000000000000
 11
365.0190139999999
 21
108.3947090000000
 31
0.000000000000000
  0
LINE
  5
D9
100
AcDbEntity
  8
1
  6
CONTINUOUS
 62
7
100
AcDbLine
 10
363.8590140000000
 20
107.7887090000000
 30
0.000000000000000
 11
364.1390139999999
 21
108.3947090000000
 31
0.000000000000000
  0
LINE
  5
DA
100
AcDbEntity
  8
1
  6
CONTINUOUS
 62
7
100
AcDbLine
 10
364.1390140000000
 20
108.3947090000000
 30
0.000000000000000
 11
364.1590140000001
 21
109.4807089999999
 31
0.000000000000000
  0
LINE
  5
DB
100
AcDbEntity
  8
1
  6
CONTINUOUS
 62
7
100
AcDbLine
 10
363.2590140000000
 20
107.5057090000000
 30
0.000000000000000
 11
362.1690139999999
 21
107.4867090000000
 31
0.000000000000000
  0
LINE
  5
DC
100
AcDbEntity
  8
1
  6
CONTINUOUS
 62
7
100
AcDbLine
 10
363.8590140000000
 20
107.7887090000000
 30
0.000000000000000
 11
363.2590140000000
 21
107.5057090000000
 31
0.000000000000000
  0
LINE
  5
DD
100
AcDbEntity
  8
1
  6
CONTINUOUS
 62
7
100
AcDbLine
 10
363.8590139999999
 20
106.3457090000000
 30
0.000000000000000
 11
363.2590139999999
 21
106.6277090000000
 31
0.000000000000000
  0
LINE
  5
DE
100
AcDbEntity
  8
1
  6
CONTINUOUS
 62
7
100
AcDbLine
 10
363.2590140000000
 20
106.6277090000000
 30
0.000000000000000
 11
362.1690140000000
 21
106.6467089999999
 31
0.000000000000000
  0
LINE
  5
DF
100
AcDbEntity
  8
1
  6
CONTINUOUS
 62
7
100
AcDbLine
 10
364.1390140000000
 20
105.7387090000000
 30
0.000000000000000
 11
364.1590140000001
 21
104.6527090000000
 31
0.000000000000000
  0
LINE
  5
E0
100
AcDbEntity
  8
1
  6
CONTINUOUS
 62
7
100
AcDbLine
 10
363.8590139999999
 20
106.3457090000000
 30
0.000000000000000
 11
364.1390139999999
 21
105.7387090000000
 31
0.000000000000000
  0
LINE
  5
E1
100
AcDbEntity
  8
1
  6
CONTINUOUS
 62
7
100
AcDbLine
 10
365.2990139999997
 20
106.3457090000000
 30
0.000000000000000
 11
365.0190140000000
 21
105.7387090000000
 31
0.000000000000000
  0
LINE
  5
E2
100
AcDbEntity
  8
1
  6
CONTINUOUS
 62
7
100
AcDbLine
 10
365.0190140000001
 20
105.7387090000000
 30
0.000000000000000
 11
364.9990139999999
 21
104.6537089999999
 31
0.000000000000000
  0
LINE
  5
E3
100
AcDbEntity
  8
1
  6
CONTINUOUS
 62
7
100
AcDbLine
 10
274.9858489999999
 20
265.3837090000000
 30
0.000000000000000
 11
272.4858489999999
 21
265.3837090000000
 31
0.000000000000000
  0
LINE
  5
E4
100
AcDbEntity
  8
1
  6
CONTINUOUS
 62
7
100
AcDbLine
 10
274.9858489999999
 20
226.3837089999999
 30
0.000000000000000
 11
272.4858489999999
 21
226.3837089999999
 31
0.000000000000000
  0
LINE
  5
E5
100
AcDbEntity
  8
1
  6
CONTINUOUS
 62
7
100
AcDbLine
 10
284.6858490000000
 20
258.8837090000000
 30
0.000000000000000
 11
284.6858490000000
 21
232.8837089999999
 31
0.000000000000000
  0
LINE
  5
E6
100
AcDbEntity
  8
1
  6
CONTINUOUS
 62
7
100
AcDbLine
 10
282.1858490000000
 20
258.8837090000000
 30
0.000000000000000
 11
282.1858490000000
 21
232.8837089999999
 31
0.000000000000000
  0
LINE
  5
E7
100
AcDbEntity
  8
1
  6
CONTINUOUS
 62
7
100
AcDbLine
 10
272.4858489999999
 20
265.3837090000000
 30
0.000000000000000
 11
272.4858489999999
 21
261.3837090000000
 31
0.000000000000000
  0
LINE
  5
E8
100
AcDbEntity
  8
4
  6
CENTER
 62
1
100
AcDbLine
 10
292.4968489999999
 20
245.8837089999999
 30
0.000000000000000
 11
276.1308490000000
 21
245.8837089999999
 31
0.000000000000000
  0
LINE
  5
E9
100
AcDbEntity
  8
1
  6
CONTINUOUS
 62
7
100
AcDbLine
 10
274.9858489999999
 20
230.3837090000000
 30
0.000000000000000
 11
274.9858489999999
 21
226.3837089999999
 31
0.000000000000000
  0
LINE
  5
EA
100
AcDbEntity
  8
1
  6
CONTINUOUS
 62
7
100
AcDbLine
 10
282.1858490000000
 20
258.8837090000000
 30
0.000000000000000
 11
274.9858489999999
 21
258.8837090000000
 31
0.000000000000000
  0
LINE
  5
EB
100
AcDbEntity
  8
1
  6
CONTINUOUS
 62
7
100
AcDbLine
 10
282.1858490000000
 20
232.8837089999999
 30
0.000000000000000
 11
274.9858489999999
 21
232.8837089999999
 31
0.000000000000000
  0
LINE
  5
EC
100
AcDbEntity
  8
1
  6
CONTINUOUS
 62
7
100
AcDbLine
 10
274.9858489999999
 20
265.3837090000000
 30
0.000000000000000
 11
274.9858489999999
 21
261.3837090000000
 31
0.000000000000000
  0
LINE
  5
ED
100
AcDbEntity
  8
1
  6
CONTINUOUS
 62
7
100
AcDbLine
 10
282.1858490000000
 20
261.3837090000000
 30
0.000000000000000
 11
274.9858489999999
 21
261.3837090000000
 31
0.000000000000000
  0
LINE
  5
EE
100
AcDbEntity
  8
1
  6
CONTINUOUS
 62
7
100
AcDbLine
 10
282.1858490000000
 20
230.3837090000000
 30
0.000000000000000
 11
274.9858489999999
 21
230.3837090000000
 31
0.000000000000000
  0
LINE
  5
EF
100
AcDbEntity
  8
1
  6
CONTINUOUS
 62
7
100
AcDbLine
 10
272.4858489999999
 20
230.3837090000000
 30
0.000000000000000
 11
272.4858489999999
 21
226.3837089999999
 31
0.000000000000000
  0
LINE
  5
F0
100
AcDbEntity
  8
1
  6
CONTINUOUS
 62
7
100
AcDbLine
 10
284.6858490000000
 20
148.0667090000000
 30
0.000000000000000
 11
272.4858489999999
 21
148.0667090000000
 31
0.000000000000000
  0
LINE
  5
F1
100
AcDbEntity
  8
1
  6
CONTINUOUS
 62
7
100
AcDbLine
 10
279.6858490000000
 20
73.06670900000000
 30
0.000000000000000
 11
272.4858489999999
 21
73.06670900000000
 31
0.000000000000000
  0
LINE
  5
F2
100
AcDbEntity
  8
1
  6
CONTINUOUS
 62
7
100
AcDbLine
 10
272.4858489999999
 20
73.06670900000000
 30
0.000000000000000
 11
272.4858489999999
 21
148.0667090000000
 31
0.000000000000000
  0
LINE
  5
F3
100
AcDbEntity
  8
1
  6
CONTINUOUS
 62
7
100
AcDbLine
 10
282.1858490000000
 20
75.56670900000000
 30
0.000000000000000
 11
282.1858490000000
 21
98.06670900000000
 31
0.000000000000000
  0
LINE
  5
F4
100
AcDbEntity
  8
1
  6
CONTINUOUS
 62
7
100
AcDbLine
 10
284.6858490000000
 20
98.06670900000000
 30
0.000000000000000
 11
284.6858490000000
 21
148.0667090000000
 31
0.000000000000000
  0
LINE
  5
F5
100
AcDbEntity
  8
1
  6
CONTINUOUS
 62
7
100
AcDbLine
 10
274.9858489999999
 20
73.06670900000000
 30
0.000000000000000
 11
274.9858489999999
 21
148.0667090000000
 31
0.000000000000000
  0
LINE
  5
F6
100
AcDbEntity
  8
1
  6
CONTINUOUS
 62
7
100
AcDbLine
 10
284.6858490000000
 20
98.06670900000000
 30
0.000000000000000
 11
282.1858490000000
 21
98.06670900000000
 31
0.000000000000000
  0
LINE
  5
F7
100
AcDbEntity
  8
1
  6
CONTINUOUS
 62
7
100
AcDbLine
 10
287.4628490000000
 20
241.5117089999998
 30
0.000000000000000
 11
286.0018489999999
 21
241.3837089999999
 31
0.000000000000000
  0
LINE
  5
F8
100
AcDbEntity
  8
1
  6
CONTINUOUS
 62
7
100
AcDbLine
 10
287.4628490000001
 20
250.2557089999999
 30
0.000000000000000
 11
286.0018489999998
 21
250.3837089999999
 31
0.000000000000000
  0
LINE
  5
F9
100
AcDbEntity
  8
1
  6
CONTINUOUS
 62
7
100
AcDbLine
 10
284.7018489999998
 20
246.0597089999999
 30
0.000000000000000
 11
286.0018489999998
 21
246.4077089999999
 31
0.000000000000000
  0
LINE
  5
FA
100
AcDbEntity
  8
1
  6
CONTINUOUS
 62
7
100
AcDbLine
 10
284.7018489999998
 20
245.3597090000000
 30
0.000000000000000
 11
286.0018489999998
 21
245.7077090000000
 31
0.000000000000000
  0
LINE
  5
FB
100
AcDbEntity
  8
1
  6
CONTINUOUS
 62
7
100
AcDbLine
 10
284.7018489999998
 20
241.2837090000000
 30
0.000000000000000
 11
286.0018489999998
 21
241.2837090000000
 31
0.000000000000000
  0
LINE
  5
FC
100
AcDbEntity
  8
1
  6
CONTINUOUS
 62
7
100
AcDbLine
 10
286.0018489999998
 20
250.4837089999998
 30
0.000000000000000
 11
286.0018489999998
 21
241.2837090000000
 31
0.000000000000000
  0
LINE
  5
FD
100
AcDbEntity
  8
1
  6
CONTINUOUS
 62
7
100
AcDbLine
 10
284.7018489999998
 20
250.4837089999998
 30
0.000000000000000
 11
286.0018489999998
 21
250.4837089999998
 31
0.000000000000000
  0
LINE
  5
FE
100
AcDbEntity
  8
1
  6
CONTINUOUS
 62
7
100
AcDbLine
 10
287.4628490000000
 20
102.6947089999999
 30
0.000000000000000
 11
286.0018489999999
 21
102.5667090000000
 31
0.000000000000000
  0
LINE
  5
FF
100
AcDbEntity
  8
1
  6
CONTINUOUS
 62
7
100
AcDbLine
 10
287.4628490000001
 20
111.4387090000000
 30
0.000000000000000
 11
286.0018489999999
 21
111.5667090000000
 31
0.000000000000000
  0
LINE
  5
100
100
AcDbEntity
  8
1
  6
CONTINUOUS
 62
7
100
AcDbLine
 10
284.7018489999999
 20
107.2427090000000
 30
0.000000000000000
 11
286.0018489999999
 21
107.5907090000000
 31
0.000000000000000
  0
LINE
  5
101
100
AcDbEntity
  8
1
  6
CONTINUOUS
 62
7
100
AcDbLine
 10
284.7018489999999
 20
106.5427090000000
 30
0.000000000000000
 11
286.0018489999999
 21
106.8907090000000
 31
0.000000000000000
  0
LINE
  5
102
100
AcDbEntity
  8
1
  6
CONTINUOUS
 62
7
100
AcDbLine
 10
284.7018489999998
 20
102.4667089999999
 30
0.000000000000000
 11
286.0018489999998
 21
102.4667089999999
 31
0.000000000000000
  0
LINE
  5
103
100
AcDbEntity
  8
1
  6
CONTINUOUS
 62
7
100
AcDbLine
 10
286.0018489999998
 20
111.6667090000000
 30
0.000000000000000
 11
286.0018489999998
 21
102.4667089999999
 31
0.000000000000000
  0
LINE
  5
104
100
AcDbEntity
  8
1
  6
CONTINUOUS
 62
7
100
AcDbLine
 10
284.7018489999998
 20
111.6667090000000
 30
0.000000000000000
 11
286.0018489999998
 21
111.6667090000000
 31
0.000000000000000
  0
LINE
  5
105
100
AcDbEntity
  8
1
  6
CONTINUOUS
 62
7
100
AcDbLine
 10
353.9310139999998
 20
97.89870900000000
 30
0.000000000000000
 11
375.2290139999999
 21
97.89870900000000
 31
0.000000000000000
  0
LINE
  5
106
100
AcDbEntity
  8
1
  6
CONTINUOUS
 62
7
100
AcDbLine
 10
218.6810139999999
 20
238.8837089999999
 30
0.000000000000000
 11
221.6810140000000
 21
238.8837089999999
 31
0.000000000000000
  0
LINE
  5
107
100
AcDbEntity
  8
1
  6
CONTINUOUS
 62
7
100
AcDbLine
 10
218.6810139999999
 20
252.8837089999999
 30
0.000000000000000
 11
221.6810140000000
 21
252.8837089999999
 31
0.000000000000000
  0
LINE
  5
108
100
AcDbEntity
  8
1
  6
CONTINUOUS
 62
7
100
AcDbLine
 10
221.6810140000000
 20
238.8837089999999
 30
0.000000000000000
 11
221.6810140000000
 21
252.8837089999999
 31
0.000000000000000
  0
LINE
  5
109
100
AcDbEntity
  8
1
  6
CONTINUOUS
 62
7
100
AcDbLine
 10
218.6810139999999
 20
245.8837089999999
 30
0.000000000000000
 11
221.6810140000000
 21
245.8837089999999
 31
0.000000000000000
  0
LINE
  5
10A
100
AcDbEntity
  8
2
  6
CONTINUOUS
 62
4
100
AcDbLine
 10
221.6810140000000
 20
238.8837089999999
 30
0.000000000000000
 11
218.6810139999998
 21
243.0837090000000
 31
0.000000000000000
  0
LINE
  5
10B
100
AcDbEntity
  8
2
  6
CONTINUOUS
 62
4
100
AcDbLine
 10
221.6810140000001
 20
245.8837090000000
 30
0.000000000000000
 11
218.6810139999999
 21
241.6837090000000
 31
0.000000000000000
  0
LINE
  5
10C
100
AcDbEntity
  8
2
  6
CONTINUOUS
 62
4
100
AcDbLine
 10
221.6820140000000
 20
245.8837089999999
 30
0.000000000000000
 11
218.6810139999999
 21
250.0837090000000
 31
0.000000000000000
  0
LINE
  5
10D
100
AcDbEntity
  8
2
  6
CONTINUOUS
 62
4
100
AcDbLine
 10
221.6810140000001
 20
252.8837089999999
 30
0.000000000000000
 11
218.6810139999999
 21
248.6837090000000
 31
0.000000000000000
  0
LINE
  5
10E
100
AcDbEntity
  8
1
  6
CONTINUOUS
 62
7
100
AcDbLine
 10
214.7810140000000
 20
96.54270900000000
 30
0.000000000000000
 11
214.7810140000000
 21
61.59070899999999
 31
0.000000000000000
  0
LINE
  5
10F
100
AcDbEntity
  8
1
  6
CONTINUOUS
 62
7
100
AcDbLine
 10
348.5820140000000
 20
73.06670900000000
 30
0.000000000000000
 11
348.5820140000000
 21
53.56670900000001
 31
0.000000000000000
  0
LINE
  5
110
100
AcDbEntity
  8
1
  6
CONTINUOUS
 62
7
100
AcDbLine
 10
380.5790139999999
 20
73.06670900000000
 30
0.000000000000000
 11
380.5790139999999
 21
53.56670900000001
 31
0.000000000000000
  0
LINE
  5
111
100
AcDbEntity
  8
1
  6
CONTINUOUS
 62
7
100
AcDbLine
 10
351.8820140000000
 20
98.06670900000000
 30
0.000000000000000
 11
351.8820140000000
 21
62.56670899999999
 31
0.000000000000000
  0
LINE
  5
112
100
AcDbEntity
  8
1
  6
CONTINUOUS
 62
7
100
AcDbLine
 10
377.2790140000000
 20
98.06670900000000
 30
0.000000000000000
 11
377.2790140000000
 21
62.56670899999999
 31
0.000000000000000
  0
LINE
  5
113
100
AcDbEntity
  8
1
  6
CONTINUOUS
 62
7
100
AcDbLine
 10
367.4990139999999
 20
149.8667089999998
 30
0.000000000000000
 11
374.2790140000000
 21
149.8667089999998
 31
0.000000000000000
  0
LINE
  5
114
100
AcDbEntity
  8
1
  6
CONTINUOUS
 62
7
100
AcDbLine
 10
377.2790140000000
 20
159.4297089999997
 30
0.000000000000000
 11
377.2790140000000
 21
148.0667090000000
 31
0.000000000000000
  0
LINE
  5
115
100
AcDbEntity
  8
1
  6
CONTINUOUS
 62
7
100
AcDbLine
 10
218.6810139999999
 20
173.8127090000000
 30
0.000000000000000
 11
218.6810139999999
 21
149.5547090000000
 31
0.000000000000000
  0
LINE
  5
116
100
AcDbEntity
  8
1
  6
CONTINUOUS
 62
7
100
AcDbLine
 10
216.6810139999999
 20
149.5547090000000
 30
0.000000000000000
 11
218.6810139999999
 21
149.5547090000000
 31
0.000000000000000
  0
LINE
  5
117
100
AcDbEntity
  8
1
  6
CONTINUOUS
 62
7
100
AcDbLine
 10
247.3235730000000
 20
252.1337089999999
 30
0.000000000000000
 11
247.3235730000000
 21
239.6337089999999
 31
0.000000000000000
  0
LINE
  5
118
100
AcDbEntity
  8
1
  6
CONTINUOUS
 62
7
100
AcDbLine
 10
359.5820140000000
 20
218.0517089999999
 30
0.000000000000000
 11
364.5790139999999
 21
220.9387089999999
 31
0.000000000000000
  0
LINE
  5
119
100
AcDbEntity
  8
1
  6
CONTINUOUS
 62
7
100
AcDbLine
 10
364.5790139999999
 20
209.3917090000000
 30
0.000000000000000
 11
369.5790139999999
 21
212.2777090000000
 31
0.000000000000000
  0
LINE
  5
11A
100
AcDbEntity
  8
1
  6
CONTINUOUS
 62
7
100
AcDbLine
 10
359.5820140000000
 20
218.0517089999999
 30
0.000000000000000
 11
359.5820140000000
 21
212.2777090000000
 31
0.000000000000000
  0
LINE
  5
11B
100
AcDbEntity
  8
1
  6
CONTINUOUS
 62
7
100
AcDbLine
 10
369.5790139999999
 20
218.0517089999999
 30
0.000000000000000
 11
369.5790139999999
 21
212.2777090000000
 31
0.000000000000000
  0
LINE
  5
11C
100
AcDbEntity
  8
1
  6
CONTINUOUS
 62
7
100
AcDbLine
 10
359.5820140000000
 20
212.2777090000000
 30
0.000000000000000
 11
364.5790139999998
 21
209.3917090000000
 31
0.000000000000000
  0
LINE
  5
11D
100
AcDbEntity
  8
1
  6
CONTINUOUS
 62
7
100
AcDbLine
 10
364.5790140000000
 20
220.9387089999999
 30
0.000000000000000
 11
369.5790140000000
 21
218.0517089999999
 31
0.000000000000000
  0
LINE
  5
11E
100
AcDbEntity
  8
4
  6
CENTER
 62
1
100
AcDbLine
 10
351.0740139999999
 20
215.1647089999999
 30
0.000000000000000
 11
378.5790139999999
 21
215.1647089999999
 31
0.000000000000000
  0
LINE
  5
11F
100
AcDbEntity
  8
4
  6
CENTER
 62
1
100
AcDbLine
 10
364.5790139999999
 20
228.6347090000000
 30
0.000000000000000
 11
364.5790139999999
 21
201.2747089999999
 31
0.000000000000000
  0
LINE
  5
120
100
AcDbEntity
  8
1
  6
CONTINUOUS
 62
7
100
AcDbLine
 10
365.6390140000000
 20
214.1087089999998
 30
0.000000000000000
 11
365.6490140000001
 21
214.1167090000000
 31
0.000000000000000
  0
LINE
  5
121
100
AcDbEntity
  8
1
  6
CONTINUOUS
 62
7
100
AcDbLine
 10
365.6490139999999
 20
214.1167089999998
 30
0.000000000000000
 11
367.5690139999999
 21
214.1497089999996
 31
0.000000000000000
  0
LINE
  5
122
100
AcDbEntity
  8
1
  6
CONTINUOUS
 62
7
100
AcDbLine
 10
365.6390140000000
 20
216.2207089999998
 30
0.000000000000000
 11
365.6490140000001
 21
216.2137089999999
 31
0.000000000000000
  0
LINE
  5
123
100
AcDbEntity
  8
1
  6
CONTINUOUS
 62
7
100
AcDbLine
 10
365.6490139999999
 20
216.2127089999999
 30
0.000000000000000
 11
367.5690139999999
 21
216.1797089999998
 31
0.000000000000000
  0
LINE
  5
124
100
AcDbEntity
  8
1
  6
CONTINUOUS
 62
7
100
AcDbLine
 10
363.5290140000000
 20
216.2207089999998
 30
0.000000000000000
 11
363.5290140000000
 21
216.2367090000000
 31
0.000000000000000
  0
LINE
  5
125
100
AcDbEntity
  8
1
  6
CONTINUOUS
 62
7
100
AcDbLine
 10
363.5290140000000
 20
216.2367090000000
 30
0.000000000000000
 11
363.5690139999999
 21
218.1467089999998
 31
0.000000000000000
  0
LINE
  5
126
100
AcDbEntity
  8
1
  6
CONTINUOUS
 62
7
100
AcDbLine
 10
365.6290140000000
 20
216.2367090000000
 30
0.000000000000000
 11
365.5990140000001
 21
218.1467089999999
 31
0.000000000000000
  0
LINE
  5
127
100
AcDbEntity
  8
1
  6
CONTINUOUS
 62
7
100
AcDbLine
 10
365.6390139999999
 20
216.2217089999999
 30
0.000000000000000
 11
365.6290139999999
 21
216.2367090000000
 31
0.000000000000000
  0
LINE
  5
128
100
AcDbEntity
  8
1
  6
CONTINUOUS
 62
7
100
AcDbLine
 10
363.5290139999999
 20
214.1087089999997
 30
0.000000000000000
 11
363.5090139999999
 21
214.1167089999998
 31
0.000000000000000
  0
LINE
  5
129
100
AcDbEntity
  8
1
  6
CONTINUOUS
 62
7
100
AcDbLine
 10
363.5090139999999
 20
214.1167089999999
 30
0.000000000000000
 11
361.5990140000000
 21
214.1497089999997
 31
0.000000000000000
  0
LINE
  5
12A
100
AcDbEntity
  8
1
  6
CONTINUOUS
 62
7
100
AcDbLine
 10
363.5090139999999
 20
216.2127089999999
 30
0.000000000000000
 11
361.5990140000000
 21
216.1797089999998
 31
0.000000000000000
  0
LINE
  5
12B
100
AcDbEntity
  8
1
  6
CONTINUOUS
 62
7
100
AcDbLine
 10
363.5290140000000
 20
216.2207089999998
 30
0.000000000000000
 11
363.5090139999999
 21
216.2127089999999
 31
0.000000000000000
  0
LINE
  5
12C
100
AcDbEntity
  8
1
  6
CONTINUOUS
 62
7
100
AcDbLine
 10
365.6390140000000
 20
214.1087089999998
 30
0.000000000000000
 11
365.6290140000000
 21
214.0937089999999
 31
0.000000000000000
  0
LINE
  5
12D
100
AcDbEntity
  8
1
  6
CONTINUOUS
 62
7
100
AcDbLine
 10
365.6290140000000
 20
214.0937090000000
 30
0.000000000000000
 11
365.5990140000001
 21
212.1827090000000
 31
0.000000000000000
  0
LINE
  5
12E
100
AcDbEntity
  8
1
  6
CONTINUOUS
 62
7
100
AcDbLine
 10
363.5290140000000
 20
214.0937089999999
 30
0.000000000000000
 11
363.5690139999999
 21
212.1827090000000
 31
0.000000000000000
  0
LINE
  5
12F
100
AcDbEntity
  8
1
  6
CONTINUOUS
 62
7
100
AcDbLine
 10
363.5290140000000
 20
214.1087089999998
 30
0.000000000000000
 11
363.5290140000000
 21
214.0937089999999
 31
0.000000000000000
  0
LINE
  5
130
100
AcDbEntity
  8
4
  6
CENTER
 62
1
100
AcDbLine
 10
257.9178010000000
 20
245.8837089999999
 30
0.000000000000000
 11
232.2522219999999
 21
245.8837089999999
 31
0.000000000000000
  0
LINE
  5
131
100
AcDbEntity
  8
1
  6
CONTINUOUS
 62
7
100
AcDbLine
 10
235.4795729999999
 20
256.8837090000000
 30
0.000000000000000
 11
235.4795729999999
 21
234.8837089999999
 31
0.000000000000000
  0
LINE
  5
132
100
AcDbEntity
  8
1
  6
CONTINUOUS
 62
7
100
AcDbLine
 10
237.4795729999999
 20
256.8837090000000
 30
0.000000000000000
 11
237.4795729999999
 21
234.8837089999999
 31
0.000000000000000
  0
LINE
  5
133
100
AcDbEntity
  8
1
  6
CONTINUOUS
 62
7
100
AcDbLine
 10
237.4795729999999
 20
256.8837090000000
 30
0.000000000000000
 11
235.4795729999999
 21
256.8837090000000
 31
0.000000000000000
  0
LINE
  5
134
100
AcDbEntity
  8
1
  6
CONTINUOUS
 62
7
100
AcDbLine
 10
237.4795729999999
 20
234.8837089999999
 30
0.000000000000000
 11
235.4795729999999
 21
234.8837089999999
 31
0.000000000000000
  0
LINE
  5
135
100
AcDbEntity
  8
1
  6
CONTINUOUS
 62
7
100
AcDbLine
 10
284.7018489999998
 20
143.6667090000000
 30
0.000000000000000
 11
286.0018489999998
 21
143.6667090000000
 31
0.000000000000000
  0
LINE
  5
136
100
AcDbEntity
  8
1
  6
CONTINUOUS
 62
7
100
AcDbLine
 10
286.0018489999998
 20
143.6667090000000
 30
0.000000000000000
 11
286.0018489999998
 21
134.4667090000000
 31
0.000000000000000
  0
LINE
  5
137
100
AcDbEntity
  8
1
  6
CONTINUOUS
 62
7
100
AcDbLine
 10
287.4628490000000
 20
143.4387089999999
 30
0.000000000000000
 11
286.0018489999998
 21
143.5667090000000
 31
0.000000000000000
  0
LINE
  5
138
100
AcDbEntity
  8
1
  6
CONTINUOUS
 62
7
100
AcDbLine
 10
287.4628490000000
 20
134.6947090000000
 30
0.000000000000000
 11
286.0018489999998
 21
134.5667090000000
 31
0.000000000000000
  0
LINE
  5
139
100
AcDbEntity
  8
1
  6
CONTINUOUS
 62
7
100
AcDbLine
 10
284.7018489999998
 20
134.4667090000000
 30
0.000000000000000
 11
286.0018489999998
 21
134.4667090000000
 31
0.000000000000000
  0
LINE
  5
13A
100
AcDbEntity
  8
1
  6
CONTINUOUS
 62
7
100
AcDbLine
 10
284.7018489999998
 20
138.5427090000000
 30
0.000000000000000
 11
286.0018489999998
 21
138.8907089999999
 31
0.000000000000000
  0
LINE
  5
13B
100
AcDbEntity
  8
1
  6
CONTINUOUS
 62
7
100
AcDbLine
 10
284.7018489999998
 20
139.2427089999999
 30
0.000000000000000
 11
286.0018489999999
 21
139.5907090000001
 31
0.000000000000000
  0
LINE
  5
13C
100
AcDbEntity
  8
1
  6
CONTINUOUS
 62
7
100
AcDbLine
 10
250.4235729999999
 20
168.6667090000000
 30
0.000000000000000
 11
250.4235729999999
 21
156.4667090000000
 31
0.000000000000000
  0
LINE
  5
13D
100
AcDbEntity
  8
1
  6
CONTINUOUS
 62
7
100
AcDbLine
 10
248.9235730000000
 20
168.8167090000000
 30
0.000000000000000
 11
248.9235730000000
 21
156.3167090000000
 31
0.000000000000000
  0
LINE
  5
13E
100
AcDbEntity
  8
1
  6
CONTINUOUS
 62
7
100
AcDbLine
 10
248.9235730000000
 20
168.8167090000000
 30
0.000000000000000
 11
247.3235730000000
 21
168.8167090000000
 31
0.000000000000000
  0
LINE
  5
13F
100
AcDbEntity
  8
1
  6
CONTINUOUS
 62
7
100
AcDbLine
 10
250.4235729999999
 20
168.6667090000000
 30
0.000000000000000
 11
248.9235730000000
 21
168.6667090000000
 31
0.000000000000000
  0
LINE
  5
140
100
AcDbEntity
  8
1
  6
CONTINUOUS
 62
7
100
AcDbLine
 10
250.4235729999998
 20
164.0667089999998
 30
0.000000000000000
 11
248.9235729999999
 21
162.5667090000000
 31
0.000000000000000
  0
LINE
  5
141
100
AcDbEntity
  8
1
  6
CONTINUOUS
 62
7
100
AcDbLine
 10
250.4235729999999
 20
162.6527089999999
 30
0.000000000000000
 11
248.9235730000000
 21
161.1527089999999
 31
0.000000000000000
  0
LINE
  5
142
100
AcDbEntity
  8
1
  6
CONTINUOUS
 62
7
100
AcDbLine
 10
250.4235729999999
 20
156.4667090000000
 30
0.000000000000000
 11
248.9235730000000
 21
156.4667090000000
 31
0.000000000000000
  0
LINE
  5
143
100
AcDbEntity
  8
1
  6
CONTINUOUS
 62
7
100
AcDbLine
 10
248.9235730000000
 20
156.3167090000000
 30
0.000000000000000
 11
247.3235730000000
 21
156.3167090000000
 31
0.000000000000000
  0
LINE
  5
144
100
AcDbEntity
  8
4
  6
CENTER
 62
1
100
AcDbLine
 10
257.2575730000000
 20
162.5667090000000
 30
0.000000000000000
 11
232.2522219999999
 21
162.5667090000000
 31
0.000000000000000
  0
LINE
  5
145
100
AcDbEntity
  8
1
  6
CONTINUOUS
 62
7
100
AcDbLine
 10
253.9775730000000
 20
156.7937090000000
 30
0.000000000000000
 11
250.4235729999999
 21
156.7937090000000
 31
0.000000000000000
  0
LINE
  5
146
100
AcDbEntity
  8
1
  6
CONTINUOUS
 62
7
100
AcDbLine
 10
253.9775730000000
 20
159.6797090000000
 30
0.000000000000000
 11
250.4235729999999
 21
159.6797090000000
 31
0.000000000000000
  0
LINE
  5
147
100
AcDbEntity
  8
1
  6
CONTINUOUS
 62
7
100
AcDbLine
 10
254.4235730000000
 20
166.8967089999999
 30
0.000000000000000
 11
254.4235730000000
 21
158.2367089999999
 31
0.000000000000000
  0
LINE
  5
148
100
AcDbEntity
  8
1
  6
CONTINUOUS
 62
7
100
AcDbLine
 10
253.9775730000000
 20
165.4537089999998
 30
0.000000000000000
 11
250.4235729999999
 21
165.4537089999998
 31
0.000000000000000
  0
LINE
  5
149
100
AcDbEntity
  8
1
  6
CONTINUOUS
 62
7
100
AcDbLine
 10
253.9775730000000
 20
168.3407090000000
 30
0.000000000000000
 11
250.4235729999999
 21
168.3407090000000
 31
0.000000000000000
  0
LINE
  5
14A
100
AcDbEntity
  8
1
  6
CONTINUOUS
 62
7
100
AcDbLine
 10
247.3235730000000
 20
168.8167090000000
 30
0.000000000000000
 11
247.3235730000000
 21
156.3167090000000
 31
0.000000000000000
  0
LINE
  5
14B
100
AcDbEntity
  8
1
  6
CONTINUOUS
 62
7
100
AcDbLine
 10
235.4795729999999
 20
173.5667089999997
 30
0.000000000000000
 11
235.4795729999999
 21
151.5667089999998
 31
0.000000000000000
  0
LINE
  5
14C
100
AcDbEntity
  8
1
  6
CONTINUOUS
 62
7
100
AcDbLine
 10
237.4795729999999
 20
173.5667089999997
 30
0.000000000000000
 11
237.4795729999999
 21
151.5667089999998
 31
0.000000000000000
  0
LINE
  5
14D
100
AcDbEntity
  8
1
  6
CONTINUOUS
 62
7
100
AcDbLine
 10
237.4795729999999
 20
173.5667089999997
 30
0.000000000000000
 11
235.4795729999999
 21
173.5667089999997
 31
0.000000000000000
  0
LINE
  5
14E
100
AcDbEntity
  8
1
  6
CONTINUOUS
 62
7
100
AcDbLine
 10
237.4795729999999
 20
151.5667089999998
 30
0.000000000000000
 11
235.4795729999999
 21
151.5667089999998
 31
0.000000000000000
  0
LINE
  5
14F
100
AcDbEntity
  8
1
  6
CONTINUOUS
 62
7
100
AcDbLine
 10
250.4235729999999
 20
251.9837089999998
 30
0.000000000000000
 11
250.4235729999999
 21
239.7837089999999
 31
0.000000000000000
  0
LINE
  5
150
100
AcDbEntity
  8
1
  6
CONTINUOUS
 62
7
100
AcDbLine
 10
250.4235729999999
 20
247.3837089999999
 30
0.000000000000000
 11
248.9235730000000
 21
245.8837089999999
 31
0.000000000000000
  0
LINE
  5
151
100
AcDbEntity
  8
1
  6
CONTINUOUS
 62
7
100
AcDbLine
 10
250.4235729999999
 20
245.9697090000000
 30
0.000000000000000
 11
248.9235730000001
 21
244.4697090000000
 31
0.000000000000000
  0
LINE
  5
152
100
AcDbEntity
  8
1
  6
CONTINUOUS
 62
7
100
AcDbLine
 10
248.9235730000000
 20
252.1337089999999
 30
0.000000000000000
 11
248.9235730000000
 21
239.6337089999999
 31
0.000000000000000
  0
LINE
  5
153
100
AcDbEntity
  8
1
  6
CONTINUOUS
 62
7
100
AcDbLine
 10
248.9235730000000
 20
252.1337089999999
 30
0.000000000000000
 11
247.3235730000000
 21
252.1337089999999
 31
0.000000000000000
  0
LINE
  5
154
100
AcDbEntity
  8
1
  6
CONTINUOUS
 62
7
100
AcDbLine
 10
248.9235730000000
 20
239.6337089999999
 30
0.000000000000000
 11
247.3235730000000
 21
239.6337089999999
 31
0.000000000000000
  0
LINE
  5
155
100
AcDbEntity
  8
1
  6
CONTINUOUS
 62
7
100
AcDbLine
 10
250.4235729999999
 20
239.7837089999999
 30
0.000000000000000
 11
248.9235730000000
 21
239.7837089999999
 31
0.000000000000000
  0
LINE
  5
156
100
AcDbEntity
  8
1
  6
CONTINUOUS
 62
7
100
AcDbLine
 10
250.4235729999999
 20
251.9837089999998
 30
0.000000000000000
 11
248.9235730000000
 21
251.9837089999998
 31
0.000000000000000
  0
LINE
  5
157
100
AcDbEntity
  8
1
  6
CONTINUOUS
 62
7
100
AcDbLine
 10
253.8785729999999
 20
245.8837089999999
 30
0.000000000000000
 11
250.4235729999999
 21
245.8837089999999
 31
0.000000000000000
  0
LINE
  5
158
100
AcDbEntity
  8
1
  6
CONTINUOUS
 62
7
100
AcDbLine
 10
254.4235730000000
 20
240.8837090000000
 30
0.000000000000000
 11
250.4235729999999
 21
240.8837090000000
 31
0.000000000000000
  0
LINE
  5
159
100
AcDbEntity
  8
1
  6
CONTINUOUS
 62
7
100
AcDbLine
 10
254.4235730000000
 20
250.8837089999999
 30
0.000000000000000
 11
250.4235729999999
 21
250.8837089999999
 31
0.000000000000000
  0
LINE
  5
15A
100
AcDbEntity
  8
1
  6
CONTINUOUS
 62
7
100
AcDbLine
 10
254.4235730000000
 20
250.8837089999999
 30
0.000000000000000
 11
254.4235730000000
 21
240.8837090000000
 31
0.000000000000000
  0
LINE
  5
15B
100
AcDbEntity
  8
1
  6
CONTINUOUS
 62
7
100
AcDbLine
 10
186.2810140000000
 20
258.8837090000000
 30
0.000000000000000
 11
186.2810140000000
 21
232.8837089999999
 31
0.000000000000000
  0
LINE
  5
15C
100
AcDbEntity
  8
1
  6
CONTINUOUS
 62
7
100
AcDbLine
 10
187.7810140000000
 20
261.8837089999999
 30
0.000000000000000
 11
187.7810140000000
 21
229.8837089999999
 31
0.000000000000000
  0
LINE
  5
15D
100
AcDbEntity
  8
1
  6
CONTINUOUS
 62
7
100
AcDbLine
 10
189.2810139999999
 20
261.8837089999999
 30
0.000000000000000
 11
189.2810139999999
 21
229.8837089999999
 31
0.000000000000000
  0
LINE
  5
15E
100
AcDbEntity
  8
4
  6
CENTER
 62
1
100
AcDbLine
 10
176.8830140000000
 20
245.8837089999999
 30
0.000000000000000
 11
224.8640140000000
 21
245.8837089999999
 31
0.000000000000000
  0
LINE
  5
15F
100
AcDbEntity
  8
1
  6
CONTINUOUS
 62
7
100
AcDbLine
 10
187.7810140000000
 20
229.8837089999999
 30
0.000000000000000
 11
190.2810139999999
 21
229.8837089999999
 31
0.000000000000000
  0
LINE
  5
160
100
AcDbEntity
  8
1
  6
CONTINUOUS
 62
7
100
AcDbLine
 10
187.7810140000000
 20
261.8837089999999
 30
0.000000000000000
 11
190.2810139999999
 21
261.8837089999999
 31
0.000000000000000
  0
LINE
  5
161
100
AcDbEntity
  8
1
  6
CONTINUOUS
 62
7
100
AcDbLine
 10
187.7810140000000
 20
261.8837090000000
 30
0.000000000000000
 11
186.2810140000000
 21
258.8837090000001
 31
0.000000000000000
  0
LINE
  5
162
100
AcDbEntity
  8
1
  6
CONTINUOUS
 62
7
100
AcDbLine
 10
186.2810140000000
 20
232.8837089999999
 30
0.000000000000000
 11
187.7810140000000
 21
229.8837089999999
 31
0.000000000000000
  0
LINE
  5
163
100
AcDbEntity
  8
1
  6
CONTINUOUS
 62
7
100
AcDbLine
 10
216.6810139999999
 20
258.8837090000000
 30
0.000000000000000
 11
216.6810139999999
 21
252.2337089999997
 31
0.000000000000000
  0
LINE
  5
164
100
AcDbEntity
  8
1
  6
CONTINUOUS
 62
7
100
AcDbLine
 10
218.1810140000000
 20
252.2337089999997
 30
0.000000000000000
 11
218.1810140000000
 21
239.5337089999999
 31
0.000000000000000
  0
LINE
  5
165
100
AcDbEntity
  8
1
  6
CONTINUOUS
 62
7
100
AcDbLine
 10
36.03101399999999
 20
75.06670900000000
 30
0.000000000000000
 11
36.03101399999999
 21
68.06670900000000
 31
0.000000000000000
  0
LINE
  5
166
100
AcDbEntity
  8
1
  6
CONTINUOUS
 62
7
100
AcDbLine
 10
33.93101399999999
 20
75.06670900000000
 30
0.000000000000000
 11
33.93101399999999
 21
68.06670900000000
 31
0.000000000000000
  0
LINE
  5
167
100
AcDbEntity
  8
4
  6
CENTER
 62
1
100
AcDbLine
 10
23.75401400000000
 20
71.56670900000000
 30
0.000000000000000
 11
46.51001400000000
 21
71.56670900000000
 31
0.000000000000000
  0
LINE
  5
168
100
AcDbEntity
  8
1
  6
CONTINUOUS
 62
7
100
AcDbLine
 10
33.93101399999999
 20
68.06670900000000
 30
0.000000000000000
 11
36.03101399999999
 21
68.06670900000000
 31
0.000000000000000
  0
LINE
  5
169
100
AcDbEntity
  8
1
  6
CONTINUOUS
 62
7
100
AcDbLine
 10
33.93101399999999
 20
75.06670900000000
 30
0.000000000000000
 11
36.03101399999999
 21
75.06670900000000
 31
0.000000000000000
  0
LINE
  5
16A
100
AcDbEntity
  8
1
  6
CONTINUOUS
 62
7
100
AcDbLine
 10
190.2810139999999
 20
186.5667090000000
 30
0.000000000000000
 11
190.2810139999999
 21
48.56670900000001
 31
0.000000000000000
  0
LINE
  5
16B
100
AcDbEntity
  8
5
  6
PHANTOM
 62
6
100
AcDbLine
 10
130.1620140000000
 20
108.1197090000000
 30
0.000000000000000
 11
131.7630140000000
 21
106.5187090000000
 31
0.000000000000000
  0
LINE
  5
16C
100
AcDbEntity
  8
5
  6
PHANTOM
 62
6
100
AcDbLine
 10
182.0450139999999
 20
162.1237089999999
 30
0.000000000000000
 11
130.1620140000000
 21
110.2407090000000
 31
0.000000000000000
  0
LINE
  5
16D
100
AcDbEntity
  8
5
  6
PHANTOM
 62
6
100
AcDbLine
 10
186.2810140000000
 20
157.8747090000000
 30
0.000000000000000
 11
142.8900139999998
 21
114.4837090000000
 31
0.000000000000000
  0
LINE
  5
16E
100
AcDbEntity
  8
5
  6
PHANTOM
 62
6
100
AcDbLine
 10
148.1940139999998
 20
100.6947090000000
 30
0.000000000000000
 11
146.0720140000000
 21
98.57370899999999
 31
0.000000000000000
  0
LINE
  5
16F
100
AcDbEntity
  8
5
  6
PHANTOM
 62
6
100
AcDbLine
 10
132.1540139999999
 20
106.2777089999999
 30
0.000000000000000
 11
144.6580139999998
 21
102.1097090000000
 31
0.000000000000000
  0
LINE
  5
170
100
AcDbEntity
  8
5
  6
PHANTOM
 62
6
100
AcDbLine
 10
144.6580139999998
 20
102.1097090000000
 30
0.000000000000000
 11
144.6580139999998
 21
98.57370899999999
 31
0.000000000000000
  0
LINE
  5
171
100
AcDbEntity
  8
5
  6
PHANTOM
 62
6
100
AcDbLine
 10
142.8900139999998
 20
108.8267089999999
 30
0.000000000000000
 11
148.1940139999998
 21
103.5237090000000
 31
0.000000000000000
  0
LINE
  5
172
100
AcDbEntity
  8
5
  6
PHANTOM
 62
6
100
AcDbLine
 10
184.9730139999999
 20
171.0667090000000
 30
0.000000000000000
 11
184.9730139999999
 21
169.1947090000000
 31
0.000000000000000
  0
LINE
  5
173
100
AcDbEntity
  8
1
  6
CONTINUOUS
 62
7
100
AcDbLine
 10
24.48101400000000
 20
162.0367090000000
 30
0.000000000000000
 11
24.48101400000000
 21
83.06670900000000
 31
0.000000000000000
  0
LINE
  5
174
100
AcDbEntity
  8
1
  6
CONTINUOUS
 62
7
100
AcDbLine
 10
45.48101400000000
 20
162.0367090000000
 30
0.000000000000000
 11
45.48101400000000
 21
83.06670900000000
 31
0.000000000000000
  0
LINE
  5
175
100
AcDbEntity
  8
1
  6
CONTINUOUS
 62
7
100
AcDbLine
 10
26.48101399999999
 20
81.06670900000002
 30
0.000000000000000
 11
43.48101400000000
 21
81.06670900000002
 31
0.000000000000000
  0
LINE
  5
176
100
AcDbEntity
  8
1
  6
CONTINUOUS
 62
7
100
AcDbLine
 10
218.1810140000000
 20
173.8127090000000
 30
0.000000000000000
 11
218.6810139999999
 21
173.8127090000000
 31
0.000000000000000
  0
LINE
  5
177
100
AcDbEntity
  8
1
  6
CONTINUOUS
 62
7
100
AcDbLine
 10
190.2810139999999
 20
233.2047089999999
 30
0.000000000000000
 11
215.3020140000000
 21
233.7157089999998
 31
0.000000000000000
  0
LINE
  5
178
100
AcDbEntity
  8
1
  6
CONTINUOUS
 62
7
100
AcDbLine
 10
190.2810139999999
 20
258.5637090000000
 30
0.000000000000000
 11
215.3020140000000
 21
258.0517089999998
 31
0.000000000000000
  0
LINE
  5
179
100
AcDbEntity
  8
1
  6
CONTINUOUS
 62
7
100
AcDbLine
 10
191.2810139999999
 20
252.2337089999997
 30
0.000000000000000
 11
218.1810140000000
 21
252.2337089999997
 31
0.000000000000000
  0
LINE
  5
17A
100
AcDbEntity
  8
1
  6
CONTINUOUS
 62
7
100
AcDbLine
 10
191.2810139999999
 20
239.5337089999999
 30
0.000000000000000
 11
218.1810140000000
 21
239.5337089999999
 31
0.000000000000000
  0
LINE
  5
17B
100
AcDbEntity
  8
1
  6
CONTINUOUS
 62
7
100
AcDbLine
 10
216.2810139999999
 20
239.5337089999999
 30
0.000000000000000
 11
216.2810139999999
 21
234.7067089999999
 31
0.000000000000000
  0
LINE
  5
17C
100
AcDbEntity
  8
1
  6
CONTINUOUS
 62
7
100
AcDbLine
 10
218.6810139999999
 20
169.5667090000000
 30
0.000000000000000
 11
221.6810140000000
 21
169.5667090000000
 31
0.000000000000000
  0
LINE
  5
17D
100
AcDbEntity
  8
1
  6
CONTINUOUS
 62
7
100
AcDbLine
 10
221.6810140000000
 20
155.5667090000000
 30
0.000000000000000
 11
221.6810140000000
 21
169.5667090000000
 31
0.000000000000000
  0
LINE
  5
17E
100
AcDbEntity
  8
2
  6
CONTINUOUS
 62
4
100
AcDbLine
 10
221.6810140000000
 20
169.5667090000000
 30
0.000000000000000
 11
218.6810139999999
 21
165.3667089999999
 31
0.000000000000000
  0
LINE
  5
17F
100
AcDbEntity
  8
2
  6
CONTINUOUS
 62
4
100
AcDbLine
 10
221.6810140000001
 20
162.5667090000000
 30
0.000000000000000
 11
218.6810139999999
 21
166.7667089999999
 31
0.000000000000000
  0
LINE
  5
180
100
AcDbEntity
  8
1
  6
CONTINUOUS
 62
7
100
AcDbLine
 10
218.6810139999999
 20
162.5667090000000
 30
0.000000000000000
 11
221.6810140000000
 21
162.5667090000000
 31
0.000000000000000
  0
LINE
  5
181
100
AcDbEntity
  8
2
  6
CONTINUOUS
 62
4
100
AcDbLine
 10
221.6810139999999
 20
162.5667089999999
 30
0.000000000000000
 11
218.6810139999999
 21
158.3667089999998
 31
0.000000000000000
  0
LINE
  5
182
100
AcDbEntity
  8
2
  6
CONTINUOUS
 62
4
100
AcDbLine
 10
221.6810140000000
 20
155.5667090000000
 30
0.000000000000000
 11
218.6810139999999
 21
159.7667089999999
 31
0.000000000000000
  0
LINE
  5
183
100
AcDbEntity
  8
1
  6
CONTINUOUS
 62
7
100
AcDbLine
 10
218.6810139999999
 20
155.5667090000000
 30
0.000000000000000
 11
221.6810140000000
 21
155.5667090000000
 31
0.000000000000000
  0
LINE
  5
184
100
AcDbEntity
  8
1
  6
CONTINUOUS
 62
7
100
AcDbLine
 10
218.6810139999999
 20
258.8837090000000
 30
0.000000000000000
 11
218.6810139999999
 21
234.7067089999999
 31
0.000000000000000
  0
LINE
  5
185
100
AcDbEntity
  8
1
  6
CONTINUOUS
 62
7
100
AcDbLine
 10
190.2810139999999
 20
261.8837089999999
 30
0.000000000000000
 11
190.2810139999999
 21
229.8837089999999
 31
0.000000000000000
  0
LINE
  5
186
100
AcDbEntity
  8
1
  6
CONTINUOUS
 62
7
100
AcDbLine
 10
216.6810139999999
 20
157.5547090000000
 30
0.000000000000000
 11
218.6810139999999
 21
157.5547090000000
 31
0.000000000000000
  0
LINE
  5
187
100
AcDbEntity
  8
1
  6
CONTINUOUS
 62
7
100
AcDbLine
 10
216.6810139999999
 20
156.0547090000000
 30
0.000000000000000
 11
218.6810139999999
 21
156.0547090000000
 31
0.000000000000000
  0
LINE
  5
188
100
AcDbEntity
  8
1
  6
CONTINUOUS
 62
7
100
AcDbLine
 10
216.6810139999999
 20
258.8837090000000
 30
0.000000000000000
 11
218.6810139999999
 21
258.8837090000000
 31
0.000000000000000
  0
LINE
  5
189
100
AcDbEntity
  8
1
  6
CONTINUOUS
 62
7
100
AcDbLine
 10
216.6810139999999
 20
235.9647090000000
 30
0.000000000000000
 11
218.6810139999999
 21
235.9647090000000
 31
0.000000000000000
  0
LINE
  5
18A
100
AcDbEntity
  8
1
  6
CONTINUOUS
 62
7
100
AcDbLine
 10
216.6810139999999
 20
234.7067089999999
 30
0.000000000000000
 11
218.6810139999999
 21
234.7067089999999
 31
0.000000000000000
  0
LINE
  5
18B
100
AcDbEntity
  8
1
  6
CONTINUOUS
 62
7
100
AcDbLine
 10
191.2810139999999
 20
258.5427090000000
 30
0.000000000000000
 11
191.2810139999999
 21
252.2337089999997
 31
0.000000000000000
  0
LINE
  5
18C
100
AcDbEntity
  8
1
  6
CONTINUOUS
 62
7
100
AcDbLine
 10
191.2810139999999
 20
239.5337089999999
 30
0.000000000000000
 11
191.2810139999999
 21
233.2247090000000
 31
0.000000000000000
  0
ARC
  5
18D
100
AcDbEntity
  8
1
  6
CONTINUOUS
 62
7
100
AcDbCircle
 10
347.5820140000000
 20
75.56670900000000
 30
0.000000000000000
 40
2.500000000000000
100
AcDbArc
 50
180.0000000000000
 51
270.0000000000000
  0
ARC
  5
18E
100
AcDbEntity
  8
1
  6
CONTINUOUS
 62
7
100
AcDbCircle
 10
347.5820140000000
 20
145.5667090000000
 30
0.000000000000000
 40
2.500000000000000
100
AcDbArc
 50
90.00000000000000
 51
180.0000000000000
  0
ARC
  5
18F
100
AcDbEntity
  8
1
  6
CONTINUOUS
 62
7
100
AcDbCircle
 10
381.5790139999998
 20
145.5667090000000
 30
0.000000000000000
 40
2.500000000000000
100
AcDbArc
 50
0.000000000000000
 51
90.00000000000000
  0
ARC
  5
190
100
AcDbEntity
  8
1
  6
CONTINUOUS
 62
7
100
AcDbCircle
 10
381.5790139999998
 20
75.56670900000000
 30
0.000000000000000
 40
2.500000000000000
100
AcDbArc
 50
270.0000000000000
 51
360.0000000000000
  0
CIRCLE
  5
191
100
AcDbEntity
  8
2
  6
CONTINUOUS
 62
4
100
AcDbCircle
 10
364.5790139999999
 20
162.5667090000000
 30
0.000000000000000
 40
3.000000000000000
  0
CIRCLE
  5
192
100
AcDbEntity
  8
1
  6
CONTINUOUS
 62
7
100
AcDbCircle
 10
364.5790139999999
 20
162.5667090000000
 30
0.000000000000000
 40
2.458499999999999
  0
ARC
  5
193
100
AcDbEntity
  8
5
  6
PHANTOM
 62
6
100
AcDbCircle
 10
114.4810139999999
 20
171.0667090000000
 30
0.000000000000000
 40
2.000000000000000
100
AcDbArc
 50
0.000000000000000
 51
90.00000000000000
  0
ARC
  5
194
100
AcDbEntity
  8
5
  6
PHANTOM
 62
6
100
AcDbCircle
 10
114.4810139999999
 20
154.0667090000000
 30
0.000000000000000
 40
2.000000000000000
100
AcDbArc
 50
270.0000000000000
 51
360.0000009999999
  0
ARC
  5
195
100
AcDbEntity
  8
5
  6
PHANTOM
 62
6
100
AcDbCircle
 10
35.51101400000001
 20
162.5667090000000
 30
0.000000000000000
 40
10.50000000000000
100
AcDbArc
 50
90.00000000000000
 51
270.0000000000000
  0
ARC
  5
196
100
AcDbEntity
  8
1
  6
CONTINUOUS
 62
7
100
AcDbCircle
 10
34.98101400000000
 20
153.1177089999999
 30
0.000000000000000
 40
12.27780000000000
100
AcDbArc
 50
39.30759999999999
 51
73.64279999999997
  0
ARC
  5
197
100
AcDbEntity
  8
1
  6
CONTINUOUS
 62
7
100
AcDbCircle
 10
23.98101399999999
 20
181.5667089999998
 30
0.000000000000000
 40
5.000000000000000
100
AcDbArc
 50
90.00000000000000
 51
180.0000000000000
  0
ARC
  5
198
100
AcDbEntity
  8
1
  6
CONTINUOUS
 62
7
100
AcDbCircle
 10
23.98101399999999
 20
53.56670900000001
 30
0.000000000000000
 40
5.000000000000000
100
AcDbArc
 50
180.0000000000000
 51
270.0000000000000
  0
ARC
  5
199
100
AcDbEntity
  8
1
  6
CONTINUOUS
 62
7
100
AcDbCircle
 10
45.98101400000000
 20
53.56670900000001
 30
0.000000000000000
 40
5.000000000000000
100
AcDbArc
 50
270.0000000000000
 51
360.0000000000000
  0
ARC
  5
19A
100
AcDbEntity
  8
1
  6
CONTINUOUS
 62
7
100
AcDbCircle
 10
45.98101400000000
 20
181.5667089999998
 30
0.000000000000000
 40
5.000000000000000
100
AcDbArc
 50
0.000000000000000
 51
90.00000000000000
  0
ARC
  5
19B
100
AcDbEntity
  8
1
  6
CONTINUOUS
 62
7
100
AcDbCircle
 10
45.98101400000000
 20
53.56670900000001
 30
0.000000000000000
 40
2.000000000000000
100
AcDbArc
 50
270.0000000000000
 51
360.0000000000000
  0
ARC
  5
19C
100
AcDbEntity
  8
1
  6
CONTINUOUS
 62
7
100
AcDbCircle
 10
23.98101399999999
 20
53.56670900000001
 30
0.000000000000000
 40
2.000000000000000
100
AcDbArc
 50
180.0000000000000
 51
270.0000000000000
  0
ARC
  5
19D
100
AcDbEntity
  8
1
  6
CONTINUOUS
 62
7
100
AcDbCircle
 10
45.98101400000000
 20
181.5667089999998
 30
0.000000000000000
 40
2.000000000000000
100
AcDbArc
 50
0.000000000000000
 51
90.00000000000000
  0
ARC
  5
19E
100
AcDbEntity
  8
1
  6
CONTINUOUS
 62
7
100
AcDbCircle
 10
23.98101399999999
 20
181.5667089999998
 30
0.000000000000000
 40
2.000000000000000
100
AcDbArc
 50
90.00000000000000
 51
180.0000000000000
  0
ARC
  5
19F
100
AcDbEntity
  8
1
  6
CONTINUOUS
 62
7
100
AcDbCircle
 10
34.98101400000000
 20
162.5667090000000
 30
0.000000000000000
 40
10.65000000000000
100
AcDbArc
 50
0.000000000000000
 51
180.0000000000000
  0
ARC
  5
1A0
100
AcDbEntity
  8
1
  6
CONTINUOUS
 62
7
100
AcDbCircle
 10
34.98101400000000
 20
153.1177089999999
 30
0.000000000000000
 40
12.27780000000000
100
AcDbArc
 50
113.4779999999998
 51
140.6920000000000
  0
ARC
  5
1A1
100
AcDbEntity
  8
1
  6
CONTINUOUS
 62
7
100
AcDbCircle
 10
34.98101400000000
 20
153.1177089999999
 30
0.000000000000000
 40
12.27780000000000
100
AcDbArc
 50
78.35169999999997
 51
108.7690000000000
  0
ARC
  5
1A2
100
AcDbEntity
  8
1
  6
CONTINUOUS
 62
7
100
AcDbCircle
 10
375.5790139999998
 20
181.5667089999998
 30
0.000000000000000
 40
5.000000000000000
100
AcDbArc
 50
0.000000000000000
 51
90.00000000000000
  0
ARC
  5
1A3
100
AcDbEntity
  8
1
  6
CONTINUOUS
 62
7
100
AcDbCircle
 10
353.5820140000000
 20
181.5667089999998
 30
0.000000000000000
 40
5.000000000000000
100
AcDbArc
 50
90.00000000000000
 51
180.0000000000000
  0
ARC
  5
1A4
100
AcDbEntity
  8
1
  6
CONTINUOUS
 62
7
100
AcDbCircle
 10
353.5820140000000
 20
53.56670900000001
 30
0.000000000000000
 40
5.000000000000000
100
AcDbArc
 50
180.0000000000000
 51
270.0000000000000
  0
ARC
  5
1A5
100
AcDbEntity
  8
1
  6
CONTINUOUS
 62
7
100
AcDbCircle
 10
375.5790139999998
 20
53.56670900000001
 30
0.000000000000000
 40
5.000000000000000
100
AcDbArc
 50
270.0000000000000
 51
360.0000000000000
  0
ARC
  5
1A6
100
AcDbEntity
  8
1
  6
CONTINUOUS
 62
7
100
AcDbCircle
 10
364.5790139999999
 20
162.5667090000000
 30
0.000000000000000
 40
12.70000000000000
100
AcDbArc
 50
119.9999999999999
 51
210.2309999999999
  0
ARC
  5
1A7
100
AcDbEntity
  8
1
  6
CONTINUOUS
 62
7
100
AcDbCircle
 10
34.98101400000000
 20
71.56670900000000
 30
0.000000000000000
 40
9.650000000000000
100
AcDbArc
 50
180.0000000000000
 51
360.0000000000000
  0
ARC
  5
1A8
100
AcDbEntity
  8
1
  6
CONTINUOUS
 62
7
100
AcDbCircle
 10
354.8820140000001
 20
172.5667089999998
 30
0.000000000000000
 40
3.000000000000000
100
AcDbArc
 50
90.00000000000000
 51
180.0000000000000
  0
ARC
  5
1A9
100
AcDbEntity
  8
1
  6
CONTINUOUS
 62
7
100
AcDbCircle
 10
374.2790140000000
 20
172.5667089999998
 30
0.000000000000000
 40
3.000000000000000
100
AcDbArc
 50
0.000000000000000
 51
90.00000000000000
  0
ARC
  5
1AA
100
AcDbEntity
  8
1
  6
CONTINUOUS
 62
7
100
AcDbCircle
 10
354.8820140000001
 20
62.56670899999999
 30
0.000000000000000
 40
3.000000000000000
100
AcDbArc
 50
180.0000000000000
 51
270.0000000000000
  0
ARC
  5
1AB
100
AcDbEntity
  8
1
  6
CONTINUOUS
 62
7
100
AcDbCircle
 10
374.2790140000000
 20
62.56670899999999
 30
0.000000000000000
 40
3.000000000000000
100
AcDbArc
 50
270.0000000000000
 51
360.0000000000000
  0
ARC
  5
1AC
100
AcDbEntity
  8
1
  6
CONTINUOUS
 62
7
100
AcDbCircle
 10
364.5790139999999
 20
71.68570900000000
 30
0.000000000000000
 40
11.65060000000000
100
AcDbArc
 50
180.0000000000000
 51
360.0000000000000
  0
ARC
  5
1AD
100
AcDbEntity
  8
1
  6
CONTINUOUS
 62
7
100
AcDbCircle
 10
353.9310139999998
 20
96.89870900000000
 30
0.000000000000000
 40
1.000000000000000
100
AcDbArc
 50
90.00000000000000
 51
180.0000000000000
  0
ARC
  5
1AE
100
AcDbEntity
  8
1
  6
CONTINUOUS
 62
7
100
AcDbCircle
 10
375.2290139999999
 20
96.89870900000000
 30
0.000000000000000
 40
1.000000000000000
100
AcDbArc
 50
0.000000000000000
 51
90.00000000000000
  0
ARC
  5
1AF
100
AcDbEntity
  8
1
  6
CONTINUOUS
 62
7
100
AcDbCircle
 10
354.8820140000001
 20
152.8667089999999
 30
0.000000000000000
 40
3.000000000000000
100
AcDbArc
 50
180.0000000000000
 51
270.0000000000000
  0
ARC
  5
1B0
100
AcDbEntity
  8
1
  6
CONTINUOUS
 62
7
100
AcDbCircle
 10
374.2790140000000
 20
152.8667089999999
 30
0.000000000000000
 40
3.000000000000000
100
AcDbArc
 50
270.0000000000000
 51
360.0000000000000
  0
ARC
  5
1B1
100
AcDbEntity
  8
1
  6
CONTINUOUS
 62
7
100
AcDbCircle
 10
364.5790139999999
 20
162.5667090000000
 30
0.000000000000000
 40
10.20000000000000
100
AcDbArc
 50
62.67840000000000
 51
117.3220000000000
  0
ARC
  5
1B2
100
AcDbEntity
  8
1
  6
CONTINUOUS
 62
7
100
AcDbCircle
 10
369.4890140000000
 20
172.0737090000000
 30
0.000000000000000
 40
0.5000000000000000
100
AcDbArc
 50
242.6779999999999
 51
329.9999999999999
  0
ARC
  5
1B3
100
AcDbEntity
  8
1
  6
CONTINUOUS
 62
7
100
AcDbCircle
 10
359.6710140000000
 20
172.0737090000000
 30
0.000000000000000
 40
0.5000000000000000
100
AcDbArc
 50
210.0000000000000
 51
297.3219999999999
  0
CIRCLE
  5
1B4
100
AcDbEntity
  8
1
  6
CONTINUOUS
 62
7
100
AcDbCircle
 10
364.5790139999999
 20
162.5667090000000
 30
0.000000000000000
 40
3.458499999999999
  0
ARC
  5
1B5
100
AcDbEntity
  8
1
  6
CONTINUOUS
 62
7
100
AcDbCircle
 10
364.6590140000000
 20
162.5547089999997
 30
0.000000000000000
 40
13.00000000000000
100
AcDbArc
 50
210.0000000000000
 51
420.0000000000000
  0
ARC
  5
1B6
100
AcDbEntity
  8
1
  6
CONTINUOUS
 62
7
100
AcDbCircle
 10
364.6590140000000
 20
162.5547089999997
 30
0.000000000000000
 40
10.00000000000000
100
AcDbArc
 50
59.99999999999999
 51
210.0000000000000
  0
ARC
  5
1B7
100
AcDbEntity
  8
1
  6
CONTINUOUS
 62
7
100
AcDbCircle
 10
190.2810139999999
 20
60.56670900000000
 30
0.000000000000000
 40
1.000000000000000
100
AcDbArc
 50
270.0000000000000
 51
360.0000000000000
  0
ARC
  5
1B8
100
AcDbEntity
  8
1
  6
CONTINUOUS
 62
7
100
AcDbCircle
 10
192.2810139999999
 20
77.06670900000000
 30
0.000000000000000
 40
1.000000000000000
100
AcDbArc
 50
90.00000000000000
 51
180.0000000000000
  0
ARC
  5
1B9
100
AcDbEntity
  8
1
  6
CONTINUOUS
 62
7
100
AcDbCircle
 10
198.2810139999999
 20
79.06670900000000
 30
0.000000000000000
 40
1.000000000000000
100
AcDbArc
 50
270.0000000000000
 51
360.0000000000000
  0
ARC
  5
1BA
100
AcDbEntity
  8
1
  6
CONTINUOUS
 62
7
100
AcDbCircle
 10
190.2810139999999
 20
174.5667089999997
 30
0.000000000000000
 40
1.000000000000000
100
AcDbArc
 50
0.000000000000000
 51
90.00000000000000
  0
ARC
  5
1BB
100
AcDbEntity
  8
1
  6
CONTINUOUS
 62
7
100
AcDbCircle
 10
200.2810140000000
 20
149.1687090000000
 30
0.000000000000000
 40
1.000000000000000
100
AcDbArc
 50
91.03120000000000
 51
180.0000000000000
  0
ARC
  5
1BC
100
AcDbEntity
  8
1
  6
CONTINUOUS
 62
7
100
AcDbCircle
 10
200.2810140000000
 20
151.1687090000000
 30
0.000000000000000
 40
1.000000000000000
100
AcDbArc
 50
271.0309999999999
 51
360.0000000000000
  0
ARC
  5
1BD
100
AcDbEntity
  8
1
  6
CONTINUOUS
 62
7
100
AcDbCircle
 10
200.2810140000000
 20
98.87470900000000
 30
0.000000000000000
 40
1.000000000000000
100
AcDbArc
 50
180.0000000000000
 51
268.5950000000000
  0
ARC
  5
1BE
100
AcDbEntity
  8
1
  6
CONTINUOUS
 62
7
100
AcDbCircle
 10
213.7810140000000
 20
61.59070899999999
 30
0.000000000000000
 40
1.000000000000000
100
AcDbArc
 50
271.4049999999999
 51
360.0000000000000
  0
ARC
  5
1BF
100
AcDbEntity
  8
1
  6
CONTINUOUS
 62
7
100
AcDbCircle
 10
213.7810140000000
 20
96.54270900000000
 30
0.000000000000000
 40
1.000000000000000
100
AcDbArc
 50
0.000000000000000
 51
88.59490000000000
  0
ARC
  5
1C0
100
AcDbEntity
  8
1
  6
CONTINUOUS
 62
7
100
AcDbCircle
 10
215.2810140000000
 20
151.4387089999999
 30
0.000000000000000
 40
1.000000000000000
100
AcDbArc
 50
271.0309999999999
 51
360.0000000000000
  0
ARC
  5
1C1
100
AcDbEntity
  8
1
  6
CONTINUOUS
 62
7
100
AcDbCircle
 10
186.4730139999998
 20
82.56670900000000
 30
0.000000000000000
 40
1.500000000000000
100
AcDbArc
 50
180.0000000000000
 51
262.6459650000000
  0
ARC
  5
1C2
100
AcDbEntity
  8
1
  6
CONTINUOUS
 62
7
100
AcDbCircle
 10
190.9730139999998
 20
162.5667090000000
 30
0.000000000000000
 40
10.00000000000000
100
AcDbArc
 50
117.9823790000000
 51
135.0000000000000
  0
ARC
  5
1C3
100
AcDbEntity
  8
1
  6
CONTINUOUS
 62
7
100
AcDbCircle
 10
174.9730139999998
 20
155.9397090000000
 30
0.000000000000000
 40
10.00000000000000
100
AcDbArc
 50
0.000000000000000
 51
45.00000000000000
  0
ARC
  5
1C4
100
AcDbEntity
  8
1
  6
CONTINUOUS
 62
7
100
AcDbCircle
 10
181.7810139999999
 20
165.3957090000000
 30
0.000000000000000
 40
1.500000000000000
100
AcDbArc
 50
135.0000000000000
 51
225.0000000000000
  0
ARC
  5
1C5
100
AcDbEntity
  8
1
  6
CONTINUOUS
 62
7
100
AcDbCircle
 10
358.0820140000000
 20
82.56670900000000
 30
0.000000000000000
 40
1.300000000000000
100
AcDbArc
 50
349.8090000000001
 51
370.1906000000000
  0
ARC
  5
1C6
100
AcDbEntity
  8
1
  6
CONTINUOUS
 62
7
100
AcDbCircle
 10
358.0820140000000
 20
82.56670900000000
 30
0.000000000000000
 40
1.300000000000000
100
AcDbArc
 50
79.80940000000004
 51
100.1910000000000
  0
ARC
  5
1C7
100
AcDbEntity
  8
1
  6
CONTINUOUS
 62
7
100
AcDbCircle
 10
358.0820140000000
 20
82.56670900000000
 30
0.000000000000000
 40
1.300000000000000
100
AcDbArc
 50
169.8090000000000
 51
190.1909999999998
  0
ARC
  5
1C8
100
AcDbEntity
  8
1
  6
CONTINUOUS
 62
7
100
AcDbCircle
 10
358.0820140000000
 20
82.56670900000000
 30
0.000000000000000
 40
1.300000000000000
100
AcDbArc
 50
259.8090000000000
 51
280.1909999999999
  0
CIRCLE
  5
1C9
100
AcDbEntity
  8
1
  6
CONTINUOUS
 62
7
100
AcDbCircle
 10
358.0820140000000
 20
82.56670900000000
 30
0.000000000000000
 40
2.600000000000000
  0
ARC
  5
1CA
100
AcDbEntity
  8
1
  6
CONTINUOUS
 62
7
100
AcDbCircle
 10
371.0790139999998
 20
82.56670900000000
 30
0.000000000000000
 40
1.300000000000000
100
AcDbArc
 50
349.8090000000001
 51
370.1906000000000
  0
ARC
  5
1CB
100
AcDbEntity
  8
1
  6
CONTINUOUS
 62
7
100
AcDbCircle
 10
371.0790139999998
 20
82.56670900000000
 30
0.000000000000000
 40
1.300000000000000
100
AcDbArc
 50
79.80940000000004
 51
100.1910000000000
  0
ARC
  5
1CC
100
AcDbEntity
  8
1
  6
CONTINUOUS
 62
7
100
AcDbCircle
 10
371.0790139999998
 20
82.56670900000000
 30
0.000000000000000
 40
1.300000000000000
100
AcDbArc
 50
169.8090000000000
 51
190.1909999999998
  0
ARC
  5
1CD
100
AcDbEntity
  8
1
  6
CONTINUOUS
 62
7
100
AcDbCircle
 10
371.0790139999998
 20
82.56670900000000
 30
0.000000000000000
 40
1.300000000000000
100
AcDbArc
 50
259.8090000000000
 51
280.1909999999999
  0
CIRCLE
  5
1CE
100
AcDbEntity
  8
1
  6
CONTINUOUS
 62
7
100
AcDbCircle
 10
371.0790139999998
 20
82.56670900000000
 30
0.000000000000000
 40
2.600000000000000
  0
ARC
  5
1CF
100
AcDbEntity
  8
1
  6
CONTINUOUS
 62
7
100
AcDbCircle
 10
364.5790139999999
 20
139.0667089999998
 30
0.000000000000000
 40
2.450000000000000
100
AcDbArc
 50
350.1290000000000
 51
369.8708899999999
  0
ARC
  5
1D0
100
AcDbEntity
  8
1
  6
CONTINUOUS
 62
7
100
AcDbCircle
 10
364.5790139999999
 20
139.0667089999998
 30
0.000000000000000
 40
2.450000000000000
100
AcDbArc
 50
80.12909999999997
 51
99.87090000000002
  0
ARC
  5
1D1
100
AcDbEntity
  8
1
  6
CONTINUOUS
 62
7
100
AcDbCircle
 10
364.5790139999999
 20
139.0667089999998
 30
0.000000000000000
 40
2.450000000000000
100
AcDbArc
 50
170.1290000000000
 51
189.8709999999999
  0
ARC
  5
1D2
100
AcDbEntity
  8
1
  6
CONTINUOUS
 62
7
100
AcDbCircle
 10
364.5790139999999
 20
139.0667089999998
 30
0.000000000000000
 40
2.450000000000000
100
AcDbArc
 50
260.1290000000000
 51
279.8709999999999
  0
CIRCLE
  5
1D3
100
AcDbEntity
  8
1
  6
CONTINUOUS
 62
7
100
AcDbCircle
 10
364.5790139999999
 20
139.0667089999998
 30
0.000000000000000
 40
4.500000000000000
  0
ARC
  5
1D4
100
AcDbEntity
  8
1
  6
CONTINUOUS
 62
7
100
AcDbCircle
 10
364.5790139999999
 20
107.0667090000000
 30
0.000000000000000
 40
2.450000000000000
100
AcDbArc
 50
350.1290000000000
 51
369.8708899999999
  0
ARC
  5
1D5
100
AcDbEntity
  8
1
  6
CONTINUOUS
 62
7
100
AcDbCircle
 10
364.5790139999999
 20
107.0667090000000
 30
0.000000000000000
 40
2.450000000000000
100
AcDbArc
 50
80.12909999999997
 51
99.87090000000002
  0
ARC
  5
1D6
100
AcDbEntity
  8
1
  6
CONTINUOUS
 62
7
100
AcDbCircle
 10
364.5790139999999
 20
107.0667090000000
 30
0.000000000000000
 40
2.450000000000000
100
AcDbArc
 50
170.1290000000000
 51
189.8709999999999
  0
ARC
  5
1D7
100
AcDbEntity
  8
1
  6
CONTINUOUS
 62
7
100
AcDbCircle
 10
364.5790139999999
 20
107.0667090000000
 30
0.000000000000000
 40
2.450000000000000
100
AcDbArc
 50
260.1290000000000
 51
279.8709999999999
  0
CIRCLE
  5
1D8
100
AcDbEntity
  8
1
  6
CONTINUOUS
 62
7
100
AcDbCircle
 10
364.5790139999999
 20
107.0667090000000
 30
0.000000000000000
 40
4.500000000000000
  0
ARC
  5
1D9
100
AcDbEntity
  8
1
  6
CONTINUOUS
 62
7
100
AcDbCircle
 10
282.1858490000000
 20
258.8837090000000
 30
0.000000000000000
 40
2.500000000000000
100
AcDbArc
 50
0.000000000000000
 51
90.00000000000000
  0
ARC
  5
1DA
100
AcDbEntity
  8
1
  6
CONTINUOUS
 62
7
100
AcDbCircle
 10
282.1858490000000
 20
232.8837089999999
 30
0.000000000000000
 40
2.500000000000000
100
AcDbArc
 50
270.0000000000000
 51
360.0000050000000
  0
ARC
  5
1DB
100
AcDbEntity
  8
1
  6
CONTINUOUS
 62
7
100
AcDbCircle
 10
274.9858489999999
 20
230.3837090000000
 30
0.000000000000000
 40
2.500000000000000
100
AcDbArc
 50
90.00000000000000
 51
180.0000000000000
  0
ARC
  5
1DC
100
AcDbEntity
  8
1
  6
CONTINUOUS
 62
7
100
AcDbCircle
 10
274.9858489999999
 20
261.3837090000000
 30
0.000000000000000
 40
2.500000000000000
100
AcDbArc
 50
180.0000000000000
 51
270.0000000000000
  0
ARC
  5
1DD
100
AcDbEntity
  8
1
  6
CONTINUOUS
 62
7
100
AcDbCircle
 10
279.6858490000000
 20
75.56670900000000
 30
0.000000000000000
 40
2.500000000000000
100
AcDbArc
 50
270.0000000000000
 51
360.0000000000000
  0
ARC
  5
1DE
100
AcDbEntity
  8
1
  6
CONTINUOUS
 62
7
100
AcDbCircle
 10
287.3238489999998
 20
243.1057089999999
 30
0.000000000000000
 40
1.600000000000000
100
AcDbArc
 50
275.0000000000000
 51
344.5059999999998
  0
ARC
  5
1DF
100
AcDbEntity
  8
1
  6
CONTINUOUS
 62
7
100
AcDbCircle
 10
277.3018490000000
 20
245.8837089999999
 30
0.000000000000000
 40
12.00000000000000
100
AcDbArc
 50
344.5059999999998
 51
375.4940000000000
  0
ARC
  5
1E0
100
AcDbEntity
  8
1
  6
CONTINUOUS
 62
7
100
AcDbCircle
 10
287.3238489999998
 20
248.6617089999997
 30
0.000000000000000
 40
1.600000000000000
100
AcDbArc
 50
15.49400000000000
 51
84.99990000000004
  0
ARC
  5
1E1
100
AcDbEntity
  8
1
  6
CONTINUOUS
 62
7
100
AcDbCircle
 10
287.3238489999998
 20
104.2887090000000
 30
0.000000000000000
 40
1.600000000000000
100
AcDbArc
 50
275.0000000000000
 51
344.5059999999998
  0
ARC
  5
1E2
100
AcDbEntity
  8
1
  6
CONTINUOUS
 62
7
100
AcDbCircle
 10
277.3018490000000
 20
107.0667090000000
 30
0.000000000000000
 40
12.00000000000000
100
AcDbArc
 50
344.5059999999998
 51
375.4940000000000
  0
ARC
  5
1E3
100
AcDbEntity
  8
1
  6
CONTINUOUS
 62
7
100
AcDbCircle
 10
287.3238489999998
 20
109.8447090000000
 30
0.000000000000000
 40
1.600000000000000
100
AcDbArc
 50
15.49400000000000
 51
84.99990000000004
  0
ARC
  5
1E4
100
AcDbEntity
  8
1
  6
CONTINUOUS
 62
7
100
AcDbCircle
 10
364.5790139999999
 20
162.5667090000000
 30
0.000000000000000
 40
7.000000000000000
100
AcDbArc
 50
89.41549999999997
 51
90.58519999999999
  0
ARC
  5
1E5
100
AcDbEntity
  8
1
  6
CONTINUOUS
 62
7
100
AcDbCircle
 10
364.5790139999999
 20
162.5667090000000
 30
0.000000000000000
 40
7.000000000000000
100
AcDbArc
 50
179.4149999999999
 51
180.5849999999999
  0
ARC
  5
1E6
100
AcDbEntity
  8
1
  6
CONTINUOUS
 62
7
100
AcDbCircle
 10
364.5790139999999
 20
162.5667090000000
 30
0.000000000000000
 40
7.000000000000000
100
AcDbArc
 50
269.4150000000000
 51
270.5840000000000
  0
ARC
  5
1E7
100
AcDbEntity
  8
1
  6
CONTINUOUS
 62
7
100
AcDbCircle
 10
364.5790139999999
 20
162.5667090000000
 30
0.000000000000000
 40
7.000000000000000
100
AcDbArc
 50
359.4160000000000
 51
360.5844680000000
  0
CIRCLE
  5
1E8
100
AcDbEntity
  8
1
  6
CONTINUOUS
 62
7
100
AcDbCircle
 10
364.5790139999999
 20
215.1647089999999
 30
0.000000000000000
 40
11.00000000000000
  0
CIRCLE
  5
1E9
100
AcDbEntity
  8
1
  6
CONTINUOUS
 62
7
100
AcDbCircle
 10
364.5790139999999
 20
215.1647089999999
 30
0.000000000000000
 40
5.000000000000000
  0
CIRCLE
  5
1EA
100
AcDbEntity
  8
1
  6
CONTINUOUS
 62
7
100
AcDbCircle
 10
364.5790139999999
 20
215.1647089999999
 30
0.000000000000000
 40
6.099999999999997
  0
CIRCLE
  5
1EB
100
AcDbEntity
  8
1
  6
CONTINUOUS
 62
7
100
AcDbCircle
 10
364.5790139999999
 20
215.1647089999999
 30
0.000000000000000
 40
6.250000000000000
  0
ARC
  5
1EC
100
AcDbEntity
  8
1
  6
CONTINUOUS
 62
7
100
AcDbCircle
 10
364.5790139999999
 20
215.1647089999999
 30
0.000000000000000
 40
3.149999999999999
100
AcDbArc
 50
341.2029999999998
 51
378.7974000000000
  0
ARC
  5
1ED
100
AcDbEntity
  8
1
  6
CONTINUOUS
 62
7
100
AcDbCircle
 10
364.5790139999999
 20
215.1647089999999
 30
0.000000000000000
 40
3.149999999999999
100
AcDbArc
 50
71.20260000000000
 51
108.7970000000000
  0
ARC
  5
1EE
100
AcDbEntity
  8
1
  6
CONTINUOUS
 62
7
100
AcDbCircle
 10
364.5790139999999
 20
215.1647089999999
 30
0.000000000000000
 40
3.149999999999999
100
AcDbArc
 50
161.2030000000000
 51
198.7969999999999
  0
ARC
  5
1EF
100
AcDbEntity
  8
1
  6
CONTINUOUS
 62
7
100
AcDbCircle
 10
364.5790139999999
 20
215.1647089999999
 30
0.000000000000000
 40
3.149999999999999
100
AcDbArc
 50
251.2030000000000
 51
288.7970000000001
  0
ARC
  5
1F0
100
AcDbEntity
  8
1
  6
CONTINUOUS
 62
7
100
AcDbCircle
 10
287.3238489999998
 20
141.8447089999999
 30
0.000000000000000
 40
1.600000000000000
100
AcDbArc
 50
15.49400000000000
 51
84.99990000000004
  0
ARC
  5
1F1
100
AcDbEntity
  8
1
  6
CONTINUOUS
 62
7
100
AcDbCircle
 10
287.3238489999998
 20
136.2887090000000
 30
0.000000000000000
 40
1.600000000000000
100
AcDbArc
 50
275.0000000000000
 51
344.5059999999998
  0
ARC
  5
1F2
100
AcDbEntity
  8
1
  6
CONTINUOUS
 62
7
100
AcDbCircle
 10
277.3018490000000
 20
139.0667089999998
 30
0.000000000000000
 40
12.00000000000000
100
AcDbArc
 50
344.5059999999998
 51
375.4940000000000
  0
ARC
  5
1F3
100
AcDbEntity
  8
1
  6
CONTINUOUS
 62
7
100
AcDbCircle
 10
244.8715729999999
 20
162.5667090000000
 30
0.000000000000000
 40
9.552700000000000
100
AcDbArc
 50
342.4110000000000
 51
377.5893000000000
  0
ARC
  5
1F4
100
AcDbEntity
  8
1
  6
CONTINUOUS
 62
7
100
AcDbCircle
 10
251.8685730000000
 20
158.2367089999999
 30
0.000000000000000
 40
2.555660000000000
100
AcDbArc
 50
325.6130000000000
 51
394.3866000000000
  0
ARC
  5
1F5
100
AcDbEntity
  8
1
  6
CONTINUOUS
 62
7
100
AcDbCircle
 10
251.8685730000000
 20
166.8967089999999
 30
0.000000000000000
 40
2.555660000000000
100
AcDbArc
 50
325.6130000000000
 51
394.3866000000000
  0
ARC
  5
1F6
100
AcDbEntity
  8
1
  6
CONTINUOUS
 62
7
100
AcDbCircle
 10
247.2035729999999
 20
243.3837089999999
 30
0.000000000000000
 40
7.220389999999997
100
AcDbArc
 50
339.7419999999998
 51
380.2576000000000
  0
ARC
  5
1F7
100
AcDbEntity
  8
1
  6
CONTINUOUS
 62
7
100
AcDbCircle
 10
247.2035729999999
 20
248.3837089999999
 30
0.000000000000000
 40
7.220389999999997
100
AcDbArc
 50
339.7419999999998
 51
380.2576000000000
  0
ARC
  5
1F8
100
AcDbEntity
  8
5
  6
PHANTOM
 62
6
100
AcDbCircle
 10
145.3650140000000
 20
99.28070900000002
 30
0.000000000000000
 40
1.000000000000000
100
AcDbArc
 50
225.0000000000000
 51
315.0000000000000
  0
ARC
  5
1F9
100
AcDbEntity
  8
5
  6
PHANTOM
 62
6
100
AcDbCircle
 10
132.4700140000000
 20
107.2257089999999
 30
0.000000000000000
 40
1.000000000000000
100
AcDbArc
 50
225.0000000000000
 51
251.5650000000000
  0
ARC
  5
1FA
100
AcDbEntity
  8
5
  6
PHANTOM
 62
6
100
AcDbCircle
 10
131.2230139999997
 20
109.1807089999999
 30
0.000000000000000
 40
1.500000000000000
100
AcDbArc
 50
135.0000000000000
 51
225.0000000000000
  0
ARC
  5
1FB
100
AcDbEntity
  8
5
  6
PHANTOM
 62
6
100
AcDbCircle
 10
146.7790139999999
 20
102.1097090000000
 30
0.000000000000000
 40
2.000000000000000
100
AcDbArc
 50
315.0000000000000
 51
404.9999999999999
  0
ARC
  5
1FC
100
AcDbEntity
  8
5
  6
PHANTOM
 62
6
100
AcDbCircle
 10
145.7190139999999
 20
111.6557090000000
 30
0.000000000000000
 40
4.000000000000000
100
AcDbArc
 50
135.0000000000000
 51
225.0000000000000
  0
ARC
  5
1FD
100
AcDbEntity
  8
5
  6
PHANTOM
 62
6
100
AcDbCircle
 10
174.9730139999998
 20
169.1947090000000
 30
0.000000000000000
 40
10.00000000000000
100
AcDbArc
 50
315.0000000000000
 51
360.0000009999999
  0
ARC
  5
1FE
100
AcDbEntity
  8
5
  6
PHANTOM
 62
6
100
AcDbCircle
 10
186.4730139999998
 20
171.0667090000000
 30
0.000000000000000
 40
1.500000000000000
100
AcDbArc
 50
97.35403499999998
 51
180.0000000000000
  0
ARC
  5
1FF
100
AcDbEntity
  8
1
  6
CONTINUOUS
 62
7
100
AcDbCircle
 10
34.98101400000000
 20
162.0367090000000
 30
0.000000000000000
 40
10.50000000000000
100
AcDbArc
 50
0.000000000000000
 51
180.0000000000000
  0
ARC
  5
200
100
AcDbEntity
  8
1
  6
CONTINUOUS
 62
7
100
AcDbCircle
 10
26.48101399999999
 20
83.06670900000000
 30
0.000000000000000
 40
2.000000000000000
100
AcDbArc
 50
180.0000000000000
 51
270.0000000000000
  0
ARC
  5
201
100
AcDbEntity
  8
1
  6
CONTINUOUS
 62
7
100
AcDbCircle
 10
43.48101400000000
 20
83.06670900000000
 30
0.000000000000000
 40
2.000000000000000
100
AcDbArc
 50
270.0000000000000
 51
360.0000000000000
  0
ARC
  5
202
100
AcDbEntity
  8
1
  6
CONTINUOUS
 62
7
100
AcDbCircle
 10
215.2810140000000
 20
257.0517089999999
 30
0.000000000000000
 40
1.000000000000000
100
AcDbArc
 50
0.000000000000000
 51
88.82819999999998
  0
ARC
  5
203
100
AcDbEntity
  8
1
  6
CONTINUOUS
 62
7
100
AcDbCircle
 10
215.2810140000000
 20
234.7157089999999
 30
0.000000000000000
 40
1.000000000000000
100
AcDbArc
 50
271.1720000000000
 51
360.0000000000000
  0
CIRCLE
  5
204
100
AcDbEntity
  8
1
  6
CONTINUOUS
 62
7
100
AcDbCircle
 10
34.98101400000000
 20
71.56670900000000
 30
0.000000000000000
 40
7.650000000000000
  0
LINE
  5
205
100
AcDbEntity
  8
1
  6
CONTINUOUS
 62
7
100
AcDbLine
 10
185.3634249999998
 20
256.3837090000000
 30
0.000000000000000
 11
186.2810140000000
 21
256.3837090000000
 31
0.000000000000000
  0
LINE
  5
206
100
AcDbEntity
  8
1
  6
CONTINUOUS
 62
7
100
AcDbLine
 10
185.3634249999998
 20
235.3837089999999
 30
0.000000000000000
 11
186.2810140000000
 21
235.3837089999999
 31
0.000000000000000
  0
ARC
  5
207
100
AcDbEntity
  8
1
  6
CONTINUOUS
 62
7
100
AcDbCircle
 10
194.3757350000000
 20
245.8837089999999
 30
0.000000000000000
 40
14.09472100000000
100
AcDbArc
 50
133.4909420000000
 51
226.5090580000000
  0
ARC
  5
208
100
AcDbEntity
  8
1
  6
CONTINUOUS
 62
7
100
AcDbCircle
 10
185.3634249999998
 20
255.3837090000000
 30
0.000000000000000
 40
1.000000000000000
100
AcDbArc
 50
90.00000000000000
 51
133.4909420000000
  0
ARC
  5
209
100
AcDbEntity
  8
1
  6
CONTINUOUS
 62
7
100
AcDbCircle
 10
185.3634249999998
 20
236.3837090000000
 30
0.000000000000000
 40
1.000000000000000
100
AcDbArc
 50
226.5090580000000
 51
270.0000000000000
  0
LINE
  5
20A
100
AcDbEntity
  8
1
  6
CONTINUOUS
 62
7
100
AcDbLine
 10
216.2810139999999
 20
252.2337089999997
 30
0.000000000000000
 11
216.2810139999999
 21
257.0517089999999
 31
0.000000000000000
  0
LINE
  5
20B
100
AcDbEntity
  8
1
  6
CONTINUOUS
 62
7
100
AcDbLine
 10
216.6810139999999
 20
239.5337089999999
 30
0.000000000000000
 11
216.6810139999999
 21
234.7067089999999
 31
0.000000000000000
  0
LINE
  5
20C
100
AcDbEntity
  8
1
  6
CONTINUOUS
 62
7
100
AcDbLine
 10
216.2810139999999
 20
151.4387089999999
 30
0.000000000000000
 11
216.2810139999999
 21
173.5657090000000
 31
0.000000000000000
  0
LINE
  5
20D
100
AcDbEntity
  8
1
  6
CONTINUOUS
 62
7
100
AcDbLine
 10
216.6810139999999
 20
155.5667090000000
 30
0.000000000000000
 11
216.2810139999999
 21
155.5667090000000
 31
0.000000000000000
  0
LINE
  5
20E
100
AcDbEntity
  8
1
  6
CONTINUOUS
 62
7
100
AcDbLine
 10
216.6810139999999
 20
169.5667090000000
 30
0.000000000000000
 11
216.2810139999999
 21
169.5667090000000
 31
0.000000000000000
  0
LINE
  5
20F
100
AcDbEntity
  8
1
  6
CONTINUOUS
 62
7
100
AcDbLine
 10
216.6810139999999
 20
252.4637090000000
 30
0.000000000000000
 11
218.6810139999999
 21
252.4637090000000
 31
0.000000000000000
  0
LINE
  5
210
100
AcDbEntity
  8
1
  6
CONTINUOUS
 62
7
100
AcDbLine
 10
216.6810139999999
 20
252.8837089999999
 30
0.000000000000000
 11
216.2810139999999
 21
252.8837089999999
 31
0.000000000000000
  0
LINE
  5
211
100
AcDbEntity
  8
1
  6
CONTINUOUS
 62
7
100
AcDbLine
 10
216.6810139999999
 20
238.8837089999999
 30
0.000000000000000
 11
216.2810139999999
 21
238.8837089999999
 31
0.000000000000000
  0
LINE
  5
212
100
AcDbEntity
  8
1
  6
CONTINUOUS
 62
7
100
AcDbLine
 10
25.33101400000000
 20
80.56670900000000
 30
0.000000000000000
 11
44.63101400000000
 21
80.56670900000000
 31
0.000000000000000
  0
LINE
  5
213
100
AcDbEntity
  8
1
  6
CONTINUOUS
 62
7
100
AcDbLine
 10
39.40828599999999
 20
249.3418169999999
 30
0.000000000000000
 11
41.00788600000000
 21
249.3418169999999
 31
0.000000000000000
  0
LINE
  5
214
100
AcDbEntity
  8
1
  6
CONTINUOUS
 62
7
100
AcDbLine
 10
40.65608600000000
 20
250.0143970000000
 30
0.000000000000000
 11
37.84658599999999
 21
250.7681870000000
 31
0.000000000000000
  0
LINE
  5
215
100
AcDbEntity
  8
1
  6
CONTINUOUS
 62
7
100
AcDbLine
 10
37.21728600000000
 20
248.3417170000000
 30
0.000000000000000
 11
41.39088600000000
 21
248.3417170000000
 31
0.000000000000000
  0
ARC
  5
216
100
AcDbEntity
  8
1
  6
CONTINUOUS
 62
7
100
AcDbCircle
 10
39.40828599999999
 20
250.0089669999999
 30
0.000000000000000
 40
1.718009999999996
100
AcDbArc
 50
35.54699999999999
 51
144.4620000000000
  0
LINE
  5
217
100
AcDbEntity
  8
1
  6
CONTINUOUS
 62
7
100
AcDbLine
 10
41.29068600000000
 20
247.6758869999999
 30
0.000000000000000
 11
39.40828599999999
 21
247.6758869999999
 31
0.000000000000000
  0
LINE
  5
218
100
AcDbEntity
  8
1
  6
CONTINUOUS
 62
7
100
AcDbLine
 10
37.21458600000000
 20
247.0086919999999
 30
0.000000000000000
 11
41.60338600000000
 21
247.0086919999999
 31
0.000000000000000
  0
LINE
  5
219
100
AcDbEntity
  8
1
  6
CONTINUOUS
 62
7
100
AcDbLine
 10
37.08328600000000
 20
246.3429029999999
 30
0.000000000000000
 11
41.73458600000000
 21
246.3429029999999
 31
0.000000000000000
  0
ARC
  5
21A
100
AcDbEntity
  8
1
  6
CONTINUOUS
 62
7
100
AcDbCircle
 10
38.74198599999999
 20
256.0086259999998
 30
0.000000000000000
 40
2.000000000000000
100
AcDbArc
 50
53.13009999999999
 51
90.00000000000000
  0
LINE
  5
21B
100
AcDbEntity
  8
1
  6
CONTINUOUS
 62
7
100
AcDbLine
 10
49.40898599999998
 20
249.2586259999998
 30
0.000000000000000
 11
39.34198599999998
 21
256.8086259999999
 31
0.000000000000000
  0
LINE
  5
21C
100
AcDbEntity
  8
1
  6
CONTINUOUS
 62
7
100
AcDbLine
 10
39.40828599999999
 20
251.7263269999999
 30
0.000000000000000
 11
39.40828599999999
 21
250.3486569999997
 31
0.000000000000000
  0
ARC
  5
21D
100
AcDbEntity
  8
1
  6
CONTINUOUS
 62
7
100
AcDbCircle
 10
39.07538600000000
 20
249.3418169999999
 30
0.000000000000000
 40
0.3334530000000000
100
AcDbArc
 50
270.0000000000000
 51
450.0000000000000
  0
LINE
  5
21E
100
AcDbEntity
  8
1
  6
CONTINUOUS
 62
7
100
AcDbLine
 10
37.53128600000000
 20
249.0089069999999
 30
0.000000000000000
 11
39.07538600000000
 21
249.0089069999999
 31
0.000000000000000
  0
LINE
  5
21F
100
AcDbEntity
  8
1
  6
CONTINUOUS
 62
7
100
AcDbLine
 10
39.07538600000000
 20
249.6746970000000
 30
0.000000000000000
 11
37.65168599999999
 21
249.6746970000000
 31
0.000000000000000
  0
ARC
  5
220
100
AcDbEntity
  8
1
  6
CONTINUOUS
 62
7
100
AcDbCircle
 10
37.21458600000000
 20
247.0750170000000
 30
0.000000000000000
 40
0.06671800000000000
100
AcDbArc
 50
172.2069999999999
 51
270.0000000000000
  0
ARC
  5
221
100
AcDbEntity
  8
1
  6
CONTINUOUS
 62
7
100
AcDbCircle
 10
45.00828600000000
 20
246.0086259999999
 30
0.000000000000000
 40
7.932639999999997
100
AcDbArc
 50
169.8960000000000
 51
172.2069999999999
  0
LINE
  5
222
100
AcDbEntity
  8
1
  6
CONTINUOUS
 62
7
100
AcDbLine
 10
38.60848600000000
 20
247.6758869999999
 30
0.000000000000000
 11
37.52718600000000
 21
247.6758869999999
 31
0.000000000000000
  0
ARC
  5
223
100
AcDbEntity
  8
1
  6
CONTINUOUS
 62
7
100
AcDbCircle
 10
37.52718600000000
 20
247.3416069999999
 30
0.000000000000000
 40
0.3334530000000000
100
AcDbArc
 50
90.00000000000000
 51
169.8960000000000
  0
LINE
  5
224
100
AcDbEntity
  8
1
  6
CONTINUOUS
 62
7
100
AcDbLine
 10
39.40828599999999
 20
247.6758869999999
 30
0.000000000000000
 11
39.40828599999999
 21
247.3416069999999
 31
0.000000000000000
  0
ARC
  5
225
100
AcDbEntity
  8
1
  6
CONTINUOUS
 62
7
100
AcDbCircle
 10
30.40898600000000
 20
249.9028500000000
 30
0.000000000000000
 40
1.000000000000000
100
AcDbArc
 50
146.3099319999997
 51
180.0000000000000
  0
ARC
  5
226
100
AcDbEntity
  8
1
  6
CONTINUOUS
 62
7
100
AcDbCircle
 10
30.40898600000000
 20
249.9030740000000
 30
0.000000000000000
 40
2.000000000000000
100
AcDbArc
 50
146.3099319999997
 51
180.0000000000000
  0
ARC
  5
227
100
AcDbEntity
  8
1
  6
CONTINUOUS
 62
7
100
AcDbCircle
 10
31.90898600000000
 20
249.5086259999999
 30
0.000000000000000
 40
0.5000000000000000
100
AcDbArc
 50
90.00000000000000
 51
180.0000000000000
  0
ARC
  5
228
100
AcDbEntity
  8
1
  6
CONTINUOUS
 62
7
100
AcDbCircle
 10
34.47898600000000
 20
256.0086259999998
 30
0.000000000000000
 40
1.000000000000000
100
AcDbArc
 50
90.00000000000000
 51
146.3100000000000
  0
ARC
  5
229
100
AcDbEntity
  8
1
  6
CONTINUOUS
 62
7
100
AcDbCircle
 10
38.74198599999999
 20
256.0086259999998
 30
0.000000000000000
 40
1.000000000000000
100
AcDbArc
 50
53.13009999999999
 51
90.00000000000000
  0
ARC
  5
22A
100
AcDbEntity
  8
1
  6
CONTINUOUS
 62
7
100
AcDbCircle
 10
34.47898600000000
 20
256.0086259999998
 30
0.000000000000000
 40
2.000000000000000
100
AcDbArc
 50
90.00000000000000
 51
146.3100000000000
  0
ARC
  5
22B
100
AcDbEntity
  8
1
  6
CONTINUOUS
 62
7
100
AcDbCircle
 10
33.40898600000000
 20
249.5086259999999
 30
0.000000000000000
 40
0.5000000000000000
100
AcDbArc
 50
0.000000000000000
 51
90.00000000000000
  0
LINE
  5
22C
100
AcDbEntity
  8
1
  6
CONTINUOUS
 62
7
100
AcDbLine
 10
33.64698600000000
 20
256.5626259999999
 30
0.000000000000000
 11
29.57693599999999
 21
250.4575500000000
 31
0.000000000000000
  0
LINE
  5
22D
100
AcDbEntity
  8
1
  6
CONTINUOUS
 62
7
100
AcDbLine
 10
38.74198599999999
 20
257.0086260000000
 30
0.000000000000000
 11
34.47898600000000
 21
257.0086260000000
 31
0.000000000000000
  0
LINE
  5
22E
100
AcDbEntity
  8
1
  6
CONTINUOUS
 62
7
100
AcDbLine
 10
28.74488500000000
 20
251.0124750000000
 30
0.000000000000000
 11
32.81498599999999
 21
257.1176259999999
 31
0.000000000000000
  0
LINE
  5
22F
100
AcDbEntity
  8
1
  6
CONTINUOUS
 62
7
100
AcDbLine
 10
34.47898600000000
 20
258.0086259999998
 30
0.000000000000000
 11
38.74198599999999
 21
258.0086259999998
 31
0.000000000000000
  0
LINE
  5
230
100
AcDbEntity
  8
1
  6
CONTINUOUS
 62
7
100
AcDbLine
 10
31.90898600000000
 20
250.0086259999999
 30
0.000000000000000
 11
33.40898600000000
 21
250.0086259999999
 31
0.000000000000000
  0
LINE
  5
231
100
AcDbEntity
  8
1
  6
CONTINUOUS
 62
7
100
AcDbLine
 10
56.40898599999999
 20
249.1086259999999
 30
0.000000000000000
 11
72.90898600000000
 21
249.1086259999999
 31
0.000000000000000
  0
LINE
  5
232
100
AcDbEntity
  8
1
  6
CONTINUOUS
 62
7
100
AcDbLine
 10
52.90898599999999
 20
246.9086259999999
 30
0.000000000000000
 11
75.24477500000000
 21
246.9168139999998
 31
0.000000000000000
  0
LINE
  5
233
100
AcDbEntity
  8
1
  6
CONTINUOUS
 62
7
100
AcDbLine
 10
52.90898600000000
 20
249.4086259999999
 30
0.000000000000000
 11
56.40898599999999
 21
249.4086259999999
 31
0.000000000000000
  0
LINE
  5
234
100
AcDbEntity
  8
1
  6
CONTINUOUS
 62
7
100
AcDbLine
 10
49.40898600000000
 20
250.5086259999999
 30
0.000000000000000
 11
56.40898599999999
 21
250.5086259999999
 31
0.000000000000000
  0
ARC
  5
235
100
AcDbEntity
  8
1
  6
CONTINUOUS
 62
7
100
AcDbCircle
 10
41.29068600000000
 20
247.3416069999999
 30
0.000000000000000
 40
0.3334530000000000
100
AcDbArc
 50
10.10399999999999
 51
90.00000000000000
  0
ARC
  5
236
100
AcDbEntity
  8
1
  6
CONTINUOUS
 62
7
100
AcDbCircle
 10
41.60338600000000
 20
247.0750170000000
 30
0.000000000000000
 40
0.06671800000000000
100
AcDbArc
 50
270.0000000000000
 51
367.7930000000000
  0
ARC
  5
237
100
AcDbEntity
  8
1
  6
CONTINUOUS
 62
7
100
AcDbCircle
 10
33.80968600000000
 20
246.0086259999999
 30
0.000000000000000
 40
7.932639999999997
100
AcDbArc
 50
7.792999999999998
 51
10.10399999999999
  0
LINE
  5
238
100
AcDbEntity
  8
1
  6
CONTINUOUS
 62
7
100
AcDbLine
 10
52.90898600000000
 20
249.4086259999999
 30
0.000000000000000
 11
52.90898600000000
 21
246.9086259999999
 31
0.000000000000000
  0
LINE
  5
239
100
AcDbEntity
  8
1
  6
CONTINUOUS
 62
7
100
AcDbLine
 10
39.94198599999999
 20
257.6086259999998
 30
0.000000000000000
 11
49.40898600000000
 21
250.5086259999999
 31
0.000000000000000
  0
LINE
  5
23A
100
AcDbEntity
  8
1
  6
CONTINUOUS
 62
7
100
AcDbLine
 10
56.40898599999999
 20
250.5086259999999
 30
0.000000000000000
 11
56.40898599999999
 21
249.1086259999999
 31
0.000000000000000
  0
LINE
  5
23B
100
AcDbEntity
  8
1
  6
CONTINUOUS
 62
7
100
AcDbLine
 10
52.90898600000000
 20
244.8086259999997
 30
0.000000000000000
 11
75.81498600000000
 21
244.8086259999997
 31
0.000000000000000
  0
LINE
  5
23C
100
AcDbEntity
  8
1
  6
CONTINUOUS
 62
7
100
AcDbLine
 10
52.90898600000000
 20
243.6086259999999
 30
0.000000000000000
 11
74.61098599999998
 21
243.6086259999999
 31
0.000000000000000
  0
LINE
  5
23D
100
AcDbEntity
  8
1
  6
CONTINUOUS
 62
7
100
AcDbLine
 10
56.40898599999999
 20
242.9086259999999
 30
0.000000000000000
 11
73.90898599999998
 21
242.9086259999999
 31
0.000000000000000
  0
LINE
  5
23E
100
AcDbEntity
  8
1
  6
CONTINUOUS
 62
7
100
AcDbLine
 10
72.90898599999998
 20
249.1086259999998
 30
0.000000000000000
 11
76.25098599999997
 21
245.9726259999999
 31
0.000000000000000
  0
ARC
  5
23F
100
AcDbEntity
  8
1
  6
CONTINUOUS
 62
7
100
AcDbCircle
 10
75.90898600000000
 20
245.6086259999999
 30
0.000000000000000
 40
0.5000000000000000
100
AcDbArc
 50
314.9129999999999
 51
406.8281000000001
  0
LINE
  5
240
100
AcDbEntity
  8
1
  6
CONTINUOUS
 62
7
100
AcDbLine
 10
73.90898600000000
 20
242.9086259999999
 30
0.000000000000000
 11
76.26198599999998
 21
245.2546259999997
 31
0.000000000000000
  0
LINE
  5
241
100
AcDbEntity
  8
1
  6
CONTINUOUS
 62
7
100
AcDbLine
 10
49.40898600000000
 20
241.5086259999999
 30
0.000000000000000
 11
56.40898599999999
 21
241.5086259999999
 31
0.000000000000000
  0
LINE
  5
242
100
AcDbEntity
  8
1
  6
CONTINUOUS
 62
7
100
AcDbLine
 10
52.90898600000000
 20
244.8086259999997
 30
0.000000000000000
 11
52.90898600000000
 21
243.6086259999999
 31
0.000000000000000
  0
LINE
  5
243
100
AcDbEntity
  8
1
  6
CONTINUOUS
 62
7
100
AcDbLine
 10
56.40898599999999
 20
242.9086259999999
 30
0.000000000000000
 11
56.40898599999999
 21
241.5086259999999
 31
0.000000000000000
  0
LINE
  5
244
100
AcDbEntity
  8
1
  6
CONTINUOUS
 62
7
100
AcDbLine
 10
49.40898600000000
 20
249.2586259999999
 30
0.000000000000000
 11
49.40898600000000
 21
242.7586259999999
 31
0.000000000000000
  0
LINE
  5
245
100
AcDbEntity
  8
1
  6
CONTINUOUS
 62
7
100
AcDbLine
 10
37.57998600000000
 20
241.6753669999999
 30
0.000000000000000
 11
40.45438599999999
 21
241.6753669999999
 31
0.000000000000000
  0
ARC
  5
246
100
AcDbEntity
  8
1
  6
CONTINUOUS
 62
7
100
AcDbCircle
 10
39.40828599999999
 20
242.0096270000000
 30
0.000000000000000
 40
1.717879999999999
100
AcDbArc
 50
215.5309999999999
 51
324.4619999999998
  0
ARC
  5
247
100
AcDbEntity
  8
1
  6
CONTINUOUS
 62
7
100
AcDbCircle
 10
38.74198599999999
 20
236.0086259999999
 30
0.000000000000000
 40
2.000000000000000
100
AcDbArc
 50
270.0000000000000
 51
306.8700000000000
  0
LINE
  5
248
100
AcDbEntity
  8
1
  6
CONTINUOUS
 62
7
100
AcDbLine
 10
39.34198600000001
 20
235.2086259999999
 30
0.000000000000000
 11
49.40898599999998
 21
242.7586259999999
 31
0.000000000000000
  0
ARC
  5
249
100
AcDbEntity
  8
1
  6
CONTINUOUS
 62
7
100
AcDbCircle
 10
45.00828600000000
 20
246.0086259999999
 30
0.000000000000000
 40
8.599269999999997
100
AcDbArc
 50
144.4620000000000
 51
215.5379999999999
  0
ARC
  5
24A
100
AcDbEntity
  8
1
  6
CONTINUOUS
 62
7
100
AcDbCircle
 10
38.74198599999999
 20
236.0086259999999
 30
0.000000000000000
 40
1.000000000000000
100
AcDbArc
 50
270.0000000000000
 51
306.8700000000000
  0
ARC
  5
24B
100
AcDbEntity
  8
1
  6
CONTINUOUS
 62
7
100
AcDbCircle
 10
34.47898600000000
 20
236.0086259999999
 30
0.000000000000000
 40
1.000000000000000
100
AcDbArc
 50
213.6900000000000
 51
270.0000000000000
  0
ARC
  5
24C
100
AcDbEntity
  8
1
  6
CONTINUOUS
 62
7
100
AcDbCircle
 10
30.40898600000000
 20
242.1136259999999
 30
0.000000000000000
 40
1.000000000000000
100
AcDbArc
 50
180.0000000000000
 51
213.6900000000000
  0
ARC
  5
24D
100
AcDbEntity
  8
1
  6
CONTINUOUS
 62
7
100
AcDbCircle
 10
34.47898600000000
 20
236.0086259999999
 30
0.000000000000000
 40
2.000000000000000
100
AcDbArc
 50
213.6900000000000
 51
270.0000000000000
  0
ARC
  5
24E
100
AcDbEntity
  8
1
  6
CONTINUOUS
 62
7
100
AcDbCircle
 10
30.40898600000000
 20
242.1136259999999
 30
0.000000000000000
 40
2.000000000000000
100
AcDbArc
 50
180.0000000000000
 51
213.6900000000000
  0
ARC
  5
24F
100
AcDbEntity
  8
1
  6
CONTINUOUS
 62
7
100
AcDbCircle
 10
33.40898600000000
 20
242.5086260000000
 30
0.000000000000000
 40
0.5000000000000000
100
AcDbArc
 50
270.0000000000000
 51
360.0000000000000
  0
ARC
  5
250
100
AcDbEntity
  8
1
  6
CONTINUOUS
 62
7
100
AcDbCircle
 10
31.90898600000000
 20
242.5086260000000
 30
0.000000000000000
 40
0.5000000000000000
100
AcDbArc
 50
180.0000000000000
 51
270.0000000000000
  0
LINE
  5
251
100
AcDbEntity
  8
1
  6
CONTINUOUS
 62
7
100
AcDbLine
 10
34.47898600000000
 20
235.0086259999999
 30
0.000000000000000
 11
38.74198599999999
 21
235.0086259999999
 31
0.000000000000000
  0
LINE
  5
252
100
AcDbEntity
  8
1
  6
CONTINUOUS
 62
7
100
AcDbLine
 10
29.57698599999999
 20
241.5596260000000
 30
0.000000000000000
 11
33.64698600000000
 21
235.4536259999999
 31
0.000000000000000
  0
LINE
  5
253
100
AcDbEntity
  8
1
  6
CONTINUOUS
 62
7
100
AcDbLine
 10
28.74498599999997
 20
241.0046259999997
 30
0.000000000000000
 11
32.81498599999998
 21
234.8986259999997
 31
0.000000000000000
  0
LINE
  5
254
100
AcDbEntity
  8
1
  6
CONTINUOUS
 62
7
100
AcDbLine
 10
34.47898600000000
 20
234.0086259999999
 30
0.000000000000000
 11
38.74198599999999
 21
234.0086259999999
 31
0.000000000000000
  0
LINE
  5
255
100
AcDbEntity
  8
1
  6
CONTINUOUS
 62
7
100
AcDbLine
 10
31.90898600000000
 20
242.0086259999999
 30
0.000000000000000
 11
33.40898600000000
 21
242.0086259999999
 31
0.000000000000000
  0
ARC
  5
256
100
AcDbEntity
  8
1
  6
CONTINUOUS
 62
7
100
AcDbCircle
 10
33.80968600000000
 20
246.0086259999999
 30
0.000000000000000
 40
8.599269999999997
100
AcDbArc
 50
324.4619999999998
 51
395.5380000000000
  0
LINE
  5
257
100
AcDbEntity
  8
1
  6
CONTINUOUS
 62
7
100
AcDbLine
 10
39.94198600000001
 20
234.4086259999999
 30
0.000000000000000
 11
49.40898600000003
 21
241.5086259999999
 31
0.000000000000000
  0
LINE
  5
258
100
AcDbEntity
  8
1
  6
CONTINUOUS
 62
7
100
AcDbLine
 10
40.63848600000000
 20
242.3425369999999
 30
0.000000000000000
 11
38.17948599999999
 21
242.3425369999999
 31
0.000000000000000
  0
LINE
  5
259
100
AcDbEntity
  8
1
  6
CONTINUOUS
 62
7
100
AcDbLine
 10
37.76398599999997
 20
243.0097069999999
 30
0.000000000000000
 11
41.05258599999999
 21
243.0097069999999
 31
0.000000000000000
  0
LINE
  5
25A
100
AcDbEntity
  8
1
  6
CONTINUOUS
 62
7
100
AcDbLine
 10
37.67738599999999
 20
243.6755369999999
 30
0.000000000000000
 11
41.14048599999999
 21
243.6755369999999
 31
0.000000000000000
  0
LINE
  5
25B
100
AcDbEntity
  8
1
  6
CONTINUOUS
 62
7
100
AcDbLine
 10
37.13878599999999
 20
245.0085169999999
 30
0.000000000000000
 11
41.67908599999999
 21
245.0085169999999
 31
0.000000000000000
  0
LINE
  5
25C
100
AcDbEntity
  8
1
  6
CONTINUOUS
 62
7
100
AcDbLine
 10
37.08328600000000
 20
245.6757109999998
 30
0.000000000000000
 11
41.73458600000000
 21
245.6757109999998
 31
0.000000000000000
  0
LINE
  5
25D
100
AcDbEntity
  8
1
  6
CONTINUOUS
 62
7
100
AcDbLine
 10
39.40828599999999
 20
245.6757109999998
 30
0.000000000000000
 11
39.40828599999999
 21
245.0085169999999
 31
0.000000000000000
  0
ARC
  5
25E
100
AcDbEntity
  8
1
  6
CONTINUOUS
 62
7
100
AcDbCircle
 10
45.00828600000000
 20
246.0086259999999
 30
0.000000000000000
 40
7.932639999999997
100
AcDbArc
 50
192.7290000000000
 51
193.2679999999999
  0
ARC
  5
25F
100
AcDbEntity
  8
1
  6
CONTINUOUS
 62
7
100
AcDbCircle
 10
37.33638599999999
 20
244.2750370000000
 30
0.000000000000000
 40
0.06671800000000000
100
AcDbArc
 50
90.00000000000000
 51
192.7290000000000
  0
ARC
  5
260
100
AcDbEntity
  8
1
  6
CONTINUOUS
 62
7
100
AcDbCircle
 10
45.00828600000000
 20
246.0086259999999
 30
0.000000000000000
 40
7.932639999999997
100
AcDbArc
 50
193.2679999999999
 51
195.2580000000000
  0
ARC
  5
261
100
AcDbEntity
  8
1
  6
CONTINUOUS
 62
7
100
AcDbCircle
 10
37.76398599999997
 20
242.9420570000000
 30
0.000000000000000
 40
0.06671800000000000
100
AcDbArc
 50
90.00000000000000
 51
202.9440000000000
  0
LINE
  5
262
100
AcDbEntity
  8
1
  6
CONTINUOUS
 62
7
100
AcDbLine
 10
38.60848600000000
 20
244.3427269999999
 30
0.000000000000000
 11
37.33638599999999
 21
244.3427269999999
 31
0.000000000000000
  0
ARC
  5
263
100
AcDbEntity
  8
1
  6
CONTINUOUS
 62
7
100
AcDbCircle
 10
37.67738599999999
 20
244.0098170000000
 30
0.000000000000000
 40
0.3334530000000000
100
AcDbArc
 50
195.2580000000000
 51
270.0000000000000
  0
ARC
  5
264
100
AcDbEntity
  8
1
  6
CONTINUOUS
 62
7
100
AcDbCircle
 10
38.17948599999999
 20
242.6754269999999
 30
0.000000000000000
 40
0.3334530000000000
100
AcDbArc
 50
206.0140000000000
 51
270.0000000000000
  0
ARC
  5
265
100
AcDbEntity
  8
1
  6
CONTINUOUS
 62
7
100
AcDbCircle
 10
45.00828600000000
 20
246.0086259999999
 30
0.000000000000000
 40
7.932639999999997
100
AcDbArc
 50
202.9440000000000
 51
206.0140000000000
  0
ARC
  5
266
100
AcDbEntity
  8
1
  6
CONTINUOUS
 62
7
100
AcDbCircle
 10
41.48158600000000
 20
244.2750370000000
 30
0.000000000000000
 40
0.06671800000000000
100
AcDbArc
 50
347.2709999999998
 51
450.0000000000000
  0
ARC
  5
267
100
AcDbEntity
  8
1
  6
CONTINUOUS
 62
7
100
AcDbCircle
 10
33.80968600000000
 20
246.0086259999999
 30
0.000000000000000
 40
7.932639999999997
100
AcDbArc
 50
344.7419999999998
 51
344.7940000000000
  0
ARC
  5
268
100
AcDbEntity
  8
1
  6
CONTINUOUS
 62
7
100
AcDbCircle
 10
41.14048599999999
 20
244.0098170000000
 30
0.000000000000000
 40
0.3334530000000000
100
AcDbArc
 50
270.0000000000000
 51
344.7419999999998
  0
ARC
  5
269
100
AcDbEntity
  8
1
  6
CONTINUOUS
 62
7
100
AcDbCircle
 10
33.80968600000000
 20
246.0086259999999
 30
0.000000000000000
 40
7.932639999999997
100
AcDbArc
 50
344.7940000000000
 51
347.2709999999998
  0
ARC
  5
26A
100
AcDbEntity
  8
1
  6
CONTINUOUS
 62
7
100
AcDbCircle
 10
41.05258599999999
 20
242.9420570000000
 30
0.000000000000000
 40
0.06671800000000000
100
AcDbArc
 50
337.0559999999998
 51
450.0000000000000
  0
LINE
  5
26B
100
AcDbEntity
  8
1
  6
CONTINUOUS
 62
7
100
AcDbLine
 10
41.48158600000000
 20
244.3427269999999
 30
0.000000000000000
 11
40.20808600000000
 21
244.3427269999999
 31
0.000000000000000
  0
ARC
  5
26C
100
AcDbEntity
  8
1
  6
CONTINUOUS
 62
7
100
AcDbCircle
 10
40.63848600000000
 20
242.6754269999999
 30
0.000000000000000
 40
0.3334530000000000
100
AcDbArc
 50
270.0000000000000
 51
333.9859999999998
  0
ARC
  5
26D
100
AcDbEntity
  8
1
  6
CONTINUOUS
 62
7
100
AcDbCircle
 10
33.80968600000000
 20
246.0086259999999
 30
0.000000000000000
 40
7.932639999999997
100
AcDbArc
 50
333.9859999999998
 51
334.7719999999999
  0
ARC
  5
26E
100
AcDbEntity
  8
1
  6
CONTINUOUS
 62
7
100
AcDbCircle
 10
33.80968600000000
 20
246.0086259999999
 30
0.000000000000000
 40
7.932639999999997
100
AcDbArc
 50
333.9859999999998
 51
337.0559999999998
  0
LINE
  5
26F
100
AcDbEntity
  8
1
  6
CONTINUOUS
 62
7
100
AcDbLine
 10
29.40898600000000
 20
249.9028500000000
 30
0.000000000000000
 11
29.40898600000000
 21
242.1136259999999
 31
0.000000000000000
  0
LINE
  5
270
100
AcDbEntity
  8
1
  6
CONTINUOUS
 62
7
100
AcDbLine
 10
33.90898599999999
 20
249.5086259999999
 30
0.000000000000000
 11
33.90898599999999
 21
242.5086260000000
 31
0.000000000000000
  0
LINE
  5
271
100
AcDbEntity
  8
1
  6
CONTINUOUS
 62
7
100
AcDbLine
 10
31.40898599999999
 20
249.5086259999999
 30
0.000000000000000
 11
31.40898599999999
 21
242.5086260000000
 31
0.000000000000000
  0
LINE
  5
272
100
AcDbEntity
  8
1
  6
CONTINUOUS
 62
7
100
AcDbLine
 10
28.40898600000000
 20
249.9030740000000
 30
0.000000000000000
 11
28.40898600000000
 21
242.1136259999999
 31
0.000000000000000
  0
LINE
  5
273
100
AcDbEntity
  8
4
  6
CENTER
 62
1
100
AcDbLine
 10
25.20000599999999
 20
246.0083500000000
 30
0.000000000000000
 11
80.48260799999998
 21
246.0083500000000
 31
0.000000000000000
  0
ENDSEC
  0
SECTION
  2
OBJECTS
  0
DICTIONARY
  5
29D
100
AcDbDictionary
  3
ACAD_GROUP
350
29E
  3
ACAD_LAYOUT
350
29F
  3
ACAD_MLINESTYLE
350
2A0
  0
DICTIONARY
  5
29E
102
{ACAD_REACTORS
330
29D
102
}
330
29D
100
AcDbDictionary
  0
DICTIONARY
  5
29F
102
{ACAD_REACTORS
330
29D
102
}
330
29D
100
AcDbDictionary
  3
Model
350
2A1
  3
ﾚｲｱｳﾄ1
350
2A2
  3
ﾚｲｱｳﾄ2
350
2A3
  0
DICTIONARY
  5
2A0
102
{ACAD_REACTORS
330
29D
102
}
330
29D
100
AcDbDictionary
  3
STANDARD
350
2A4
  0
LAYOUT
  5
2A1
102
{ACAD_REACTORS
330
29F
102
}
330
29F
100
AcDbPlotSettings
 70
11952
  4
A3
 44
297.000000
 45
420.000000
 73
  1
 72
  1
100
AcDbLayout
  1
Model
 71
0
330
294
  0
LAYOUT
  5
2A2
102
{ACAD_REACTORS
330
29F
102
}
330
29F
100
AcDbPlotSettings
100
AcDbLayout
  1
ﾚｲｱｳﾄ1
 71
1
330
295
  0
LAYOUT
  5
2A3
102
{ACAD_REACTORS
330
29F
102
}
330
29F
100
AcDbPlotSettings
100
AcDbLayout
  1
ﾚｲｱｳﾄ2
 71
2
330
296
  0
MLINESTYLE
  5
2A4
102
{ACAD_REACTORS
330
2A0
102
}
330
2A0
100
AcDbMlineStyle
  2
STANDARD
 70
     0
  3

 62
   256
 51
90.00
 52
90.00
 71
     2
 49
0.50
 62
   256
  6
BYLAYER
 49
-0.50
 62
   256
  6
BYLAYER
  0
ENDSEC
  0
EOF
