  0
SECTION
  2
HEADER
  9
$ACADVER
  1
AC1015
  9
$ACADMAINTVER
 70
    20
  9
$DWGCODEPAGE
  3
ANSI_932
  9
$INSBASE
 10
0.0
 20
0.0
 30
0.0
  9
$EXTMIN
 10
7.197823999999998
 20
10.0
 30
0.0
  9
$EXTMAX
 10
579.837024
 20
356.107777
 30
0.0
  9
$LIMMIN
 10
0.000002
 20
0.0
  9
$LIMMAX
 10
595.000002
 20
410.189394
  9
$ORTHOMODE
 70
     1
  9
$REGENMODE
 70
     1
  9
$FILLMODE
 70
     1
  9
$QTEXTMODE
 70
     0
  9
$MIRRTEXT
 70
     1
  9
$LTSCALE
 40
1.0
  9
$ATTMODE
 70
     1
  9
$TEXTSIZE
 40
2.5
  9
$TRACEWID
 40
1.0
  9
$TEXTSTYLE
  7
STANDARD
  9
$CLAYER
  8
0
  9
$CELTYPE
  6
BYLAYER
  9
$CECOLOR
 62
   256
  9
$CELTSCALE
 40
1.0
  9
$DISPSILH
 70
     0
  9
$DIMSCALE
 40
1.0
  9
$DIMASZ
 40
3.0
  9
$DIMEXO
 40
1.0
  9
$DIMDLI
 40
10.0
  9
$DIMRND
 40
0.0
  9
$DIMDLE
 40
0.0
  9
$DIMEXE
 40
1.0
  9
$DIMTP
 40
0.0
  9
$DIMTM
 40
0.0
  9
$DIMTXT
 40
3.2
  9
$DIMCEN
 40
0.0
  9
$DIMTSZ
 40
0.0
  9
$DIMTOL
 70
     0
  9
$DIMLIM
 70
     0
  9
$DIMTIH
 70
     0
  9
$DIMTOH
 70
     0
  9
$DIMSE1
 70
     0
  9
$DIMSE2
 70
     0
  9
$DIMTAD
 70
     3
  9
$DIMZIN
 70
     8
  9
$DIMBLK
  1

  9
$DIMASO
 70
     1
  9
$DIMSHO
 70
     1
  9
$DIMPOST
  1

  9
$DIMAPOST
  1

  9
$DIMALT
 70
     0
  9
$DIMALTD
 70
     2
  9
$DIMALTF
 40
25.4
  9
$DIMLFAC
 40
1.0
  9
$DIMTOFL
 70
     1
  9
$DIMTVP
 40
0.0
  9
$DIMTIX
 70
     0
  9
$DIMSOXD
 70
     0
  9
$DIMSAH
 70
     1
  9
$DIMBLK1
  1
OPEN
  9
$DIMBLK2
  1
OPEN
  9
$DIMSTYLE
  2
STANDARD
  9
$DIMCLRD
 70
     0
  9
$DIMCLRE
 70
     0
  9
$DIMCLRT
 70
     0
  9
$DIMTFAC
 40
1.0
  9
$DIMGAP
 40
1.0
  9
$DIMJUST
 70
     0
  9
$DIMSD1
 70
     0
  9
$DIMSD2
 70
     0
  9
$DIMTOLJ
 70
     1
  9
$DIMTZIN
 70
     0
  9
$DIMALTZ
 70
     0
  9
$DIMALTTZ
 70
     0
  9
$DIMUPT
 70
     0
  9
$DIMDEC
 70
     4
  9
$DIMTDEC
 70
     4
  9
$DIMALTU
 70
     2
  9
$DIMALTTD
 70
     2
  9
$DIMTXSTY
  7
STANDARD
  9
$DIMAUNIT
 70
     0
  9
$DIMADEC
 70
     0
  9
$DIMALTRND
 40
0.0
  9
$DIMAZIN
 70
     0
  9
$DIMDSEP
 70
    46
  9
$DIMATFIT
 70
     3
  9
$DIMFRAC
 70
     0
  9
$DIMLDRBLK
  1
OPEN
  9
$DIMLUNIT
 70
     2
  9
$DIMLWD
 70
    -2
  9
$DIMLWE
 70
    -2
  9
$DIMTMOVE
 70
     0
  9
$LUNITS
 70
     2
  9
$LUPREC
 70
     4
  9
$SKETCHINC
 40
1.0
  9
$FILLETRAD
 40
0.0
  9
$AUNITS
 70
     0
  9
$AUPREC
 70
     0
  9
$MENU
  1
.
  9
$ELEVATION
 40
0.0
  9
$PELEVATION
 40
0.0
  9
$THICKNESS
 40
0.0
  9
$LIMCHECK
 70
     0
  9
$CHAMFERA
 40
0.0
  9
$CHAMFERB
 40
0.0
  9
$CHAMFERC
 40
0.0
  9
$CHAMFERD
 40
0.0
  9
$SKPOLY
 70
     0
  9
$TDCREATE
 40
2452065.454474005
  9
$TDUCREATE
 40
2452065.079474005
  9
$TDUPDATE
 40
2457192.642494317
  9
$TDUUPDATE
 40
2457192.267494317
  9
$TDINDWG
 40
0.0325537731
  9
$TDUSRTIMER
 40
0.0325536343
  9
$USRTIMER
 70
     1
  9
$ANGBASE
 50
0.0
  9
$ANGDIR
 70
     0
  9
$PDMODE
 70
     0
  9
$PDSIZE
 40
0.0
  9
$PLINEWID
 40
0.0
  9
$SPLFRAME
 70
     0
  9
$SPLINETYPE
 70
     6
  9
$SPLINESEGS
 70
     8
  9
$HANDSEED
  5
100E
  9
$SURFTAB1
 70
     6
  9
$SURFTAB2
 70
     6
  9
$SURFTYPE
 70
     6
  9
$SURFU
 70
     6
  9
$SURFV
 70
     6
  9
$UCSBASE
  2

  9
$UCSNAME
  2

  9
$UCSORG
 10
0.0
 20
0.0
 30
0.0
  9
$UCSXDIR
 10
1.0
 20
0.0
 30
0.0
  9
$UCSYDIR
 10
0.0
 20
1.0
 30
0.0
  9
$UCSORTHOREF
  2

  9
$UCSORTHOVIEW
 70
     0
  9
$UCSORGTOP
 10
0.0
 20
0.0
 30
0.0
  9
$UCSORGBOTTOM
 10
0.0
 20
0.0
 30
0.0
  9
$UCSORGLEFT
 10
0.0
 20
0.0
 30
0.0
  9
$UCSORGRIGHT
 10
0.0
 20
0.0
 30
0.0
  9
$UCSORGFRONT
 10
0.0
 20
0.0
 30
0.0
  9
$UCSORGBACK
 10
0.0
 20
0.0
 30
0.0
  9
$PUCSBASE
  2

  9
$PUCSNAME
  2

  9
$PUCSORG
 10
0.0
 20
0.0
 30
0.0
  9
$PUCSXDIR
 10
1.0
 20
0.0
 30
0.0
  9
$PUCSYDIR
 10
0.0
 20
1.0
 30
0.0
  9
$PUCSORTHOREF
  2

  9
$PUCSORTHOVIEW
 70
     0
  9
$PUCSORGTOP
 10
0.0
 20
0.0
 30
0.0
  9
$PUCSORGBOTTOM
 10
0.0
 20
0.0
 30
0.0
  9
$PUCSORGLEFT
 10
0.0
 20
0.0
 30
0.0
  9
$PUCSORGRIGHT
 10
0.0
 20
0.0
 30
0.0
  9
$PUCSORGFRONT
 10
0.0
 20
0.0
 30
0.0
  9
$PUCSORGBACK
 10
0.0
 20
0.0
 30
0.0
  9
$USERI1
 70
     0
  9
$USERI2
 70
     0
  9
$USERI3
 70
     0
  9
$USERI4
 70
     0
  9
$USERI5
 70
     0
  9
$USERR1
 40
0.0
  9
$USERR2
 40
0.0
  9
$USERR3
 40
0.0
  9
$USERR4
 40
0.0
  9
$USERR5
 40
0.0
  9
$WORLDVIEW
 70
     1
  9
$SHADEDGE
 70
     3
  9
$SHADEDIF
 70
    70
  9
$TILEMODE
 70
     1
  9
$MAXACTVP
 70
    48
  9
$PINSBASE
 10
0.0
 20
0.0
 30
0.0
  9
$PLIMCHECK
 70
     0
  9
$PEXTMIN
 10
1.000000000000000E+20
 20
1.000000000000000E+20
 30
1.000000000000000E+20
  9
$PEXTMAX
 10
-1.000000000000000E+20
 20
-1.000000000000000E+20
 30
-1.000000000000000E+20
  9
$PLIMMIN
 10
0.0
 20
0.0
  9
$PLIMMAX
 10
420.0
 20
297.0
  9
$UNITMODE
 70
     0
  9
$VISRETAIN
 70
     1
  9
$PLINEGEN
 70
     0
  9
$PSLTSCALE
 70
     1
  9
$TREEDEPTH
 70
  3020
  9
$CMLSTYLE
  2
STANDARD
  9
$CMLJUST
 70
     0
  9
$CMLSCALE
 40
1.0
  9
$PROXYGRAPHICS
 70
     1
  9
$MEASUREMENT
 70
     0
  9
$CELWEIGHT
370
    -1
  9
$ENDCAPS
280
     0
  9
$JOINSTYLE
280
     0
  9
$LWDISPLAY
290
     0
  9
$INSUNITS
 70
     0
  9
$HYPERLINKBASE
  1

  9
$STYLESHEET
  1

  9
$XEDIT
290
     1
  9
$CEPSNTYPE
380
     0
  9
$PSTYLEMODE
290
     1
  9
$FINGERPRINTGUID
  2
{4DC666DC-646A-4DA8-A5DE-653866264129}
  9
$VERSIONGUID
  2
{85B45CD4-EAFB-4AC7-8101-1BB538D922D9}
  9
$EXTNAMES
290
     1
  9
$PSVPSCALE
 40
0.0
  9
$OLESTARTUP
290
     0
  0
ENDSEC
  0
SECTION
  2
CLASSES
  0
CLASS
  1
ACDBDICTIONARYWDFLT
  2
AcDbDictionaryWithDefault
  3
ObjectDBX Classes
 90
        0
280
     0
281
     0
  0
CLASS
  1
ACDBPLACEHOLDER
  2
AcDbPlaceHolder
  3
ObjectDBX Classes
 90
        0
280
     0
281
     0
  0
CLASS
  1
LAYOUT
  2
AcDbLayout
  3
ObjectDBX Classes
 90
        0
280
     0
281
     0
  0
CLASS
  1
DICTIONARYVAR
  2
AcDbDictionaryVar
  3
ObjectDBX Classes
 90
        0
280
     0
281
     0
  0
CLASS
  1
MATERIAL
  2
AcDbMaterial
  3
ObjectDBX Classes
 90
     1153
280
     0
281
     0
  0
CLASS
  1
VISUALSTYLE
  2
AcDbVisualStyle
  3
ObjectDBX Classes
 90
     4095
280
     0
281
     0
  0
CLASS
  1
TABLESTYLE
  2
AcDbTableStyle
  3
ObjectDBX Classes
 90
     4095
280
     0
281
     0
  0
CLASS
  1
SCALE
  2
AcDbScale
  3
ObjectDBX Classes
 90
     1153
280
     0
281
     0
  0
CLASS
  1
MLEADERSTYLE
  2
AcDbMLeaderStyle
  3
ACDB_MLEADERSTYLE_CLASS
 90
     4095
280
     0
281
     0
  0
CLASS
  1
ACDBSECTIONVIEWSTYLE
  2
AcDbSectionViewStyle
  3
ObjectDBX Classes
 90
     1025
280
     0
281
     0
  0
CLASS
  1
ACDBDETAILVIEWSTYLE
  2
AcDbDetailViewStyle
  3
ObjectDBX Classes
 90
     1025
280
     0
281
     0
  0
CLASS
  1
CELLSTYLEMAP
  2
AcDbCellStyleMap
  3
ObjectDBX Classes
 90
     1152
280
     0
281
     0
  0
ENDSEC
  0
SECTION
  2
TABLES
  0
TABLE
  2
VPORT
  5
9CE
330
0
100
AcDbSymbolTable
 70
     1
  0
VPORT
  5
F58
330
9CE
100
AcDbSymbolTableRecord
100
AcDbViewportTableRecord
  2
*ACTIVE
 70
     0
 10
0.0
 20
0.0
 11
1.0
 21
1.0
 12
398.3489414864252
 22
183.0473935414865
 13
0.0
 23
0.0
 14
10.0
 24
10.0
 15
10.0
 25
10.0
 16
0.0
 26
0.0
 36
1.0
 17
0.0
 27
0.0
 37
0.0
 40
350.025158856578
 41
1.899603698811096
 42
50.0
 43
0.0
 44
0.0
 50
0.0
 51
0.0
 71
     0
 72
   100
 73
     1
 74
     0
 75
     0
 76
     0
 77
     0
 78
     0
281
     0
 65
     1
110
0.0
120
0.0
130
0.0
111
1.0
121
0.0
131
0.0
112
0.0
122
1.0
132
0.0
 79
     0
146
0.0
1001
ACAD_NAV_VCDISPLAY
1070
     3
  0
ENDTAB
  0
TABLE
  2
LTYPE
  5
9CB
330
0
100
AcDbSymbolTable
 70
     4
  0
LTYPE
  5
9D9
330
9CB
100
AcDbSymbolTableRecord
100
AcDbLinetypeTableRecord
  2
BYBLOCK
 70
     0
  3

 72
    65
 73
     0
 40
0.0
  0
LTYPE
  5
9DA
330
9CB
100
AcDbSymbolTableRecord
100
AcDbLinetypeTableRecord
  2
BYLAYER
 70
     0
  3

 72
    65
 73
     0
 40
0.0
  0
LTYPE
  5
9DB
330
9CB
100
AcDbSymbolTableRecord
100
AcDbLinetypeTableRecord
  2
CONTINUOUS
 70
     0
  3
Solid line
 72
    65
 73
     0
 40
0.0
  0
LTYPE
  5
9E9
330
9CB
100
AcDbSymbolTableRecord
100
AcDbLinetypeTableRecord
  2
DASHED
 70
     0
  3
Dashed __ __ __ __ __ __ __ __ __ __ __ __ __ _
 72
    65
 73
     2
 40
19.05
 49
12.7
 74
     0
 49
-6.349999999999997
 74
     0
  0
LTYPE
  5
9EA
330
9CB
100
AcDbSymbolTableRecord
100
AcDbLinetypeTableRecord
  2
CENTER
 70
     0
  3
Center ____ _ ____ _ ____ _ ____ _ ____ _ ____
 72
    65
 73
     4
 40
50.8
 49
31.75
 74
     0
 49
-6.349999999999997
 74
     0
 49
6.349999999999997
 74
     0
 49
-6.349999999999997
 74
     0
  0
LTYPE
  5
9EB
330
9CB
100
AcDbSymbolTableRecord
100
AcDbLinetypeTableRecord
  2
PHANTOM
 70
     0
  3
Phantom ______  __  __  ______  __  __  ______
 72
    65
 73
     6
 40
63.5
 49
31.75
 74
     0
 49
-6.349999999999997
 74
     0
 49
6.349999999999997
 74
     0
 49
-6.349999999999997
 74
     0
 49
6.349999999999997
 74
     0
 49
-6.349999999999997
 74
     0
  0
ENDTAB
  0
TABLE
  2
LAYER
  5
9C8
330
0
100
AcDbSymbolTable
 70
     8
  0
LAYER
  5
9D6
102
{ACAD_XDICTIONARY
360
FB2
102
}
330
9C8
100
AcDbSymbolTableRecord
100
AcDbLayerTableRecord
  2
0
 70
     0
 62
     7
  6
CONTINUOUS
370
    -3
390
F61
  0
LAYER
  5
9EC
102
{ACAD_XDICTIONARY
360
FB4
102
}
330
9C8
100
AcDbSymbolTableRecord
100
AcDbLayerTableRecord
  2
4
 70
     0
 62
     1
  6
CENTER
370
    -3
390
F61
  0
LAYER
  5
9ED
102
{ACAD_XDICTIONARY
360
FB6
102
}
330
9C8
100
AcDbSymbolTableRecord
100
AcDbLayerTableRecord
  2
5
 70
     0
 62
     6
  6
PHANTOM
370
    -3
390
F61
  0
LAYER
  5
9EE
102
{ACAD_XDICTIONARY
360
FB8
102
}
330
9C8
100
AcDbSymbolTableRecord
100
AcDbLayerTableRecord
  2
1
 70
     0
 62
     7
  6
CONTINUOUS
370
    -3
390
F61
  0
LAYER
  5
9EF
102
{ACAD_XDICTIONARY
360
FBA
102
}
330
9C8
100
AcDbSymbolTableRecord
100
AcDbLayerTableRecord
  2
2
 70
     0
 62
     4
  6
CONTINUOUS
370
    -3
390
F61
  0
LAYER
  5
9F0
102
{ACAD_XDICTIONARY
360
FBC
102
}
330
9C8
100
AcDbSymbolTableRecord
100
AcDbLayerTableRecord
  2
3
 70
     0
 62
     2
  6
DASHED
370
    -3
390
F61
  0
LAYER
  5
9F1
102
{ACAD_XDICTIONARY
360
FBE
102
}
330
9C8
100
AcDbSymbolTableRecord
100
AcDbLayerTableRecord
  2
6
 70
     0
 62
     5
  6
CONTINUOUS
370
    -3
390
F61
  0
LAYER
  5
9F2
102
{ACAD_XDICTIONARY
360
FC0
102
}
330
9C8
100
AcDbSymbolTableRecord
100
AcDbLayerTableRecord
  2
7
 70
     0
 62
     3
  6
CONTINUOUS
370
    -3
390
F61
  0
ENDTAB
  0
TABLE
  2
STYLE
  5
9C9
330
0
100
AcDbSymbolTable
 70
     1
  0
STYLE
  5
9D7
330
9C9
100
AcDbSymbolTableRecord
100
AcDbTextStyleTableRecord
  2
STANDARD
 70
     0
 40
0.0
 41
1.0
 50
0.0
 71
     0
 42
2.5
  3
simplex.shx
  4

  0
ENDTAB
  0
TABLE
  2
VIEW
  5
9CC
330
0
100
AcDbSymbolTable
 70
     0
  0
ENDTAB
  0
TABLE
  2
UCS
  5
9CD
330
0
100
AcDbSymbolTable
 70
     0
  0
ENDTAB
  0
TABLE
  2
APPID
  5
9CF
330
0
100
AcDbSymbolTable
 70
     8
  0
APPID
  5
9D8
330
9CF
100
AcDbSymbolTableRecord
100
AcDbRegAppTableRecord
  2
ACAD
 70
     0
  0
APPID
  5
9F3
330
9CF
100
AcDbSymbolTableRecord
100
AcDbRegAppTableRecord
  2
CONTENTTABDATA
 70
     0
  0
APPID
  5
9F4
330
9CF
100
AcDbSymbolTableRecord
100
AcDbRegAppTableRecord
  2
CONTENTCURRENTTAB
 70
     0
  0
APPID
  5
9F5
330
9CF
100
AcDbSymbolTableRecord
100
AcDbRegAppTableRecord
  2
CONTENTLONGBLOCKNAME
 70
     0
  0
APPID
  5
9F6
330
9CF
100
AcDbSymbolTableRecord
100
AcDbRegAppTableRecord
  2
CONTENTBLOCKDESCRIPTION
 70
     0
  0
APPID
  5
9F7
330
9CF
100
AcDbSymbolTableRecord
100
AcDbRegAppTableRecord
  2
CONTENTBLOCKICON
 70
     0
  0
APPID
  5
FCC
330
9CF
100
AcDbSymbolTableRecord
100
AcDbRegAppTableRecord
  2
ACAD_NAV_VCDISPLAY
 70
     0
  0
APPID
  5
1005
330
9CF
100
AcDbSymbolTableRecord
100
AcDbRegAppTableRecord
  2
ACAD_MLEADERVER
 70
     0
  0
ENDTAB
  0
TABLE
  2
DIMSTYLE
  5
9D0
330
0
100
AcDbSymbolTable
 70
     1
100
AcDbDimStyleTable
 71
     0
  0
DIMSTYLE
105
9F8
330
9D0
100
AcDbSymbolTableRecord
100
AcDbDimStyleTableRecord
  2
STANDARD
 70
     0
 41
3.0
 42
1.0
 43
10.0
 44
1.0
 73
     0
 74
     0
 77
     3
 78
     8
140
3.2
141
0.0
147
1.0
172
     1
173
     1
284
     8
285
     8
286
     8
340
9D7
  0
ENDTAB
  0
TABLE
  2
BLOCK_RECORD
  5
9C7
330
0
100
AcDbSymbolTable
 70
     1
  0
BLOCK_RECORD
  5
9E4
102
{ACAD_XDICTIONARY
360
F5B
102
}
330
9C7
100
AcDbSymbolTableRecord
100
AcDbBlockTableRecord
  2
*MODEL_SPACE
340
FAF
  0
BLOCK_RECORD
  5
9E0
102
{ACAD_XDICTIONARY
360
F59
102
}
330
9C7
100
AcDbSymbolTableRecord
100
AcDbBlockTableRecord
  2
*PAPER_SPACE
340
FB0
  0
BLOCK_RECORD
  5
A00
330
9C7
100
AcDbSymbolTableRecord
100
AcDbBlockTableRecord
  2
_OPEN
340
0
  0
ENDTAB
  0
ENDSEC
  0
SECTION
  2
BLOCKS
  0
BLOCK
  5
9E5
330
9E4
100
AcDbEntity
  8
0
100
AcDbBlockBegin
  2
*MODEL_SPACE
 70
     0
 10
0.0
 20
0.0
 30
0.0
  3
*MODEL_SPACE
  1

  0
ENDBLK
  5
9E6
330
9E4
100
AcDbEntity
  8
0
100
AcDbBlockEnd
  0
BLOCK
  5
9E1
330
9E0
100
AcDbEntity
 67
     1
  8
0
100
AcDbBlockBegin
  2
*PAPER_SPACE
 70
     0
 10
0.0
 20
0.0
 30
0.0
  3
*PAPER_SPACE
  1

  0
ENDBLK
  5
9E2
330
9E0
100
AcDbEntity
 67
     1
  8
0
100
AcDbBlockEnd
  0
BLOCK
  5
A01
330
A00
100
AcDbEntity
  8
0
100
AcDbBlockBegin
  2
_OPEN
 70
     0
 10
0.0
 20
0.0
 30
0.0
  3
_OPEN
  1

  0
LINE
  5
A02
330
A00
100
AcDbEntity
  8
0
  6
ByBlock
 62
     0
100
AcDbLine
 10
-1.0
 20
0.166667
 30
0.0
 11
0.0
 21
0.0
 31
0.0
  0
LINE
  5
A03
330
A00
100
AcDbEntity
  8
0
  6
ByBlock
 62
     0
100
AcDbLine
 10
0.0
 20
0.0
 30
0.0
 11
-1.0
 21
-0.166667
 31
0.0
  0
LINE
  5
A04
330
A00
100
AcDbEntity
  8
0
  6
ByBlock
 62
     0
100
AcDbLine
 10
0.0
 20
0.0
 30
0.0
 11
-1.0
 21
0.0
 31
0.0
  0
ENDBLK
  5
A05
330
A00
100
AcDbEntity
  8
0
100
AcDbBlockEnd
  0
ENDSEC
  0
SECTION
  2
ENTITIES
  0
TEXT
  5
A06
330
9E4
100
AcDbEntity
  8
4
  6
CENTER
100
AcDbText
 10
23.979509
 20
10.0
 30
0.0
 40
1.399999999999999
  1
4
100
AcDbText
  0
TEXT
  5
A07
330
9E4
100
AcDbEntity
  8
7
  6
Continuous
100
AcDbText
 10
9.999997999999999
 20
26.000001
 30
0.0
 40
3.0
  1
CODE No.3384
100
AcDbText
  0
TEXT
  5
A08
330
9E4
100
AcDbEntity
  8
7
  6
Continuous
100
AcDbText
 10
9.999997999999999
 20
18.000001
 30
0.0
 40
3.0
  1
TYPE No.THA-412A-2
100
AcDbText
  0
TEXT
  5
A09
330
9E4
100
AcDbEntity
  8
1
  6
Continuous
100
AcDbText
 10
9.999997999999999
 20
10.000001
 30
0.0
 40
1.399999999999999
  1
LAYER
100
AcDbText
  0
TEXT
  5
A0A
330
9E4
100
AcDbEntity
  8
2
  6
Continuous
100
AcDbText
 10
19.979509
 20
10.0
 30
0.0
 40
1.399999999999999
  1
2
100
AcDbText
  0
TEXT
  5
A0B
330
9E4
100
AcDbEntity
  8
3
  6
DASHED
100
AcDbText
 10
21.97950899999999
 20
10.0
 30
0.0
 40
1.399999999999999
  1
3
100
AcDbText
  0
TEXT
  5
A0C
330
9E4
100
AcDbEntity
  8
1
  6
Continuous
100
AcDbText
 10
17.979509
 20
10.0
 30
0.0
 40
1.399999999999999
  1
1
100
AcDbText
  0
TEXT
  5
A0D
330
9E4
100
AcDbEntity
  8
5
  6
PHANTOM
100
AcDbText
 10
25.979509
 20
10.0
 30
0.0
 40
1.399999999999999
  1
5
100
AcDbText
  0
TEXT
  5
A0E
330
9E4
100
AcDbEntity
  8
6
  6
Continuous
100
AcDbText
 10
27.979509
 20
10.0
 30
0.0
 40
1.399999999999999
  1
6
100
AcDbText
  0
TEXT
  5
A0F
330
9E4
100
AcDbEntity
  8
7
  6
Continuous
100
AcDbText
 10
29.97950900000001
 20
10.0
 30
0.0
 40
1.399999999999999
  1
7
100
AcDbText
  0
LINE
  5
A10
330
9E4
100
AcDbEntity
  8
1
  6
Continuous
100
AcDbLine
 10
18.384824
 20
276.6660769999999
 30
0.0
 11
50.384824
 21
276.6660769999999
 31
0.0
  0
LINE
  5
A11
330
9E4
100
AcDbEntity
  8
4
  6
CENTER
100
AcDbLine
 10
34.384824
 20
288.251077
 30
0.0
 11
34.384824
 21
125.902777
 31
0.0
  0
LINE
  5
A12
330
9E4
100
AcDbEntity
  8
1
  6
Continuous
100
AcDbLine
 10
14.38482399999998
 20
272.6660769999999
 30
0.0
 11
14.38482399999998
 21
138.665777
 31
0.0
  0
LINE
  5
A13
330
9E4
100
AcDbEntity
  8
1
  6
Continuous
100
AcDbLine
 10
54.384824
 20
272.6660769999999
 30
0.0
 11
54.384824
 21
138.665777
 31
0.0
  0
LINE
  5
A14
330
9E4
100
AcDbEntity
  8
1
  6
Continuous
100
AcDbLine
 10
18.384824
 20
134.6657769999999
 30
0.0
 11
50.384824
 21
134.6657769999999
 31
0.0
  0
LINE
  5
A15
330
9E4
100
AcDbEntity
  8
1
  6
Continuous
100
AcDbLine
 10
186.014824
 20
276.6660769999999
 30
0.0
 11
189.514824
 21
276.6660769999999
 31
0.0
  0
LINE
  5
A16
330
9E4
100
AcDbEntity
  8
1
  6
Continuous
100
AcDbLine
 10
186.014824
 20
134.6657769999999
 30
0.0
 11
189.514824
 21
134.6657769999999
 31
0.0
  0
LINE
  5
A17
330
9E4
100
AcDbEntity
  8
1
  6
Continuous
100
AcDbLine
 10
186.014824
 20
276.6660769999999
 30
0.0
 11
186.014824
 21
134.6657769999999
 31
0.0
  0
LINE
  5
A18
330
9E4
100
AcDbEntity
  8
1
  6
Continuous
100
AcDbLine
 10
188.514824
 20
276.6660769999999
 30
0.0
 11
188.514824
 21
134.6657769999999
 31
0.0
  0
LINE
  5
A19
330
9E4
100
AcDbEntity
  8
1
  6
Continuous
100
AcDbLine
 10
186.014824
 20
276.6660769999999
 30
0.0
 11
183.514824
 21
272.1660769999999
 31
0.0
  0
LINE
  5
A1A
330
9E4
100
AcDbEntity
  8
1
  6
Continuous
100
AcDbLine
 10
183.514824
 20
139.1657769999999
 30
0.0
 11
186.014824
 21
134.6657769999999
 31
0.0
  0
LINE
  5
A1B
330
9E4
100
AcDbEntity
  8
1
  6
Continuous
100
AcDbLine
 10
189.514824
 20
271.6660769999999
 30
0.0
 11
190.514824
 21
271.6660769999999
 31
0.0
  0
LINE
  5
A1C
330
9E4
100
AcDbEntity
  8
1
  6
Continuous
100
AcDbLine
 10
189.514824
 20
139.665777
 30
0.0
 11
208.514824
 21
139.665777
 31
0.0
  0
LINE
  5
A1D
330
9E4
100
AcDbEntity
  8
4
  6
CENTER
100
AcDbLine
 10
7.197823999999998
 20
253.666107
 30
0.0
 11
125.7038239999999
 21
253.666107
 31
0.0
  0
LINE
  5
A1E
330
9E4
100
AcDbEntity
  8
4
  6
CENTER
100
AcDbLine
 10
178.415824
 20
253.666107
 30
0.0
 11
209.2558239999999
 21
253.666107
 31
0.0
  0
LINE
  5
A1F
330
9E4
100
AcDbEntity
  8
5
  6
PHANTOM
100
AcDbLine
 10
22.86182399999999
 20
242.5661069999999
 30
0.0
 11
45.90882399999999
 21
242.5661069999999
 31
0.0
  0
LINE
  5
A20
330
9E4
100
AcDbEntity
  8
5
  6
PHANTOM
100
AcDbLine
 10
22.86182399999999
 20
264.7660769999998
 30
0.0
 11
45.90882399999999
 21
264.7660769999998
 31
0.0
  0
LINE
  5
A21
330
9E4
100
AcDbEntity
  8
1
  6
Continuous
100
AcDbLine
 10
22.984824
 20
272.1660769999999
 30
0.0
 11
45.784824
 21
272.1660769999999
 31
0.0
  0
LINE
  5
A22
330
9E4
100
AcDbEntity
  8
1
  6
Continuous
100
AcDbLine
 10
209.5148239999998
 20
170.666077
 30
0.0
 11
209.5148239999998
 21
140.6657769999999
 31
0.0
  0
LINE
  5
A23
330
9E4
100
AcDbEntity
  8
1
  6
Continuous
100
AcDbLine
 10
202.514824
 20
171.666077
 30
0.0
 11
208.514824
 21
171.666077
 31
0.0
  0
LINE
  5
A24
330
9E4
100
AcDbEntity
  8
1
  6
Continuous
100
AcDbLine
 10
201.514824
 20
184.6660769999997
 30
0.0
 11
201.514824
 21
172.666077
 31
0.0
  0
LINE
  5
A25
330
9E4
100
AcDbEntity
  8
1
  6
Continuous
100
AcDbLine
 10
196.014824
 20
185.6660769999997
 30
0.0
 11
200.514824
 21
185.6660769999997
 31
0.0
  0
LINE
  5
A26
330
9E4
100
AcDbEntity
  8
1
  6
Continuous
100
AcDbLine
 10
195.014824
 20
241.169697
 30
0.0
 11
195.014824
 21
186.666077
 31
0.0
  0
LINE
  5
A27
330
9E4
100
AcDbEntity
  8
1
  6
Continuous
100
AcDbLine
 10
191.514824
 20
270.6660769999999
 30
0.0
 11
191.514824
 21
270.1660769999999
 31
0.0
  0
LINE
  5
A28
330
9E4
100
AcDbEntity
  8
1
  6
Continuous
100
AcDbLine
 10
201.914824
 20
263.1017129999999
 30
0.0
 11
201.914824
 21
242.6161069999998
 31
0.0
  0
LINE
  5
A29
330
9E4
100
AcDbEntity
  8
1
  6
Continuous
100
AcDbLine
 10
203.8148239999999
 20
267.1660769999999
 30
0.0
 11
203.8148239999999
 21
262.869677
 31
0.0
  0
LINE
  5
A2A
330
9E4
100
AcDbEntity
  8
1
  6
Continuous
100
AcDbLine
 10
191.514824
 20
270.1660769999999
 30
0.0
 11
199.5148239999998
 21
270.1660769999999
 31
0.0
  0
LINE
  5
A2B
330
9E4
100
AcDbEntity
  8
1
  6
Continuous
100
AcDbLine
 10
369.244924
 20
276.6660769999999
 30
0.0
 11
337.244944
 21
276.6660769999999
 31
0.0
  0
LINE
  5
A2C
330
9E4
100
AcDbEntity
  8
4
  6
CENTER
100
AcDbLine
 10
353.244924
 20
284.001077
 30
0.0
 11
353.244924
 21
125.902777
 31
0.0
  0
LINE
  5
A2D
330
9E4
100
AcDbEntity
  8
1
  6
Continuous
100
AcDbLine
 10
373.244924
 20
272.6660769999999
 30
0.0
 11
373.244924
 21
235.402177
 31
0.0
  0
LINE
  5
A2E
330
9E4
100
AcDbEntity
  8
1
  6
Continuous
100
AcDbLine
 10
333.2449439999999
 20
272.6660769999999
 30
0.0
 11
333.2449439999999
 21
235.402177
 31
0.0
  0
LINE
  5
A2F
330
9E4
100
AcDbEntity
  8
1
  6
Continuous
100
AcDbLine
 10
369.244924
 20
134.6657769999999
 30
0.0
 11
337.244944
 21
134.6657769999999
 31
0.0
  0
LINE
  5
A30
330
9E4
100
AcDbEntity
  8
4
  6
CENTER
100
AcDbLine
 10
378.4661239999999
 20
253.666107
 30
0.0
 11
326.521724
 21
253.666107
 31
0.0
  0
LINE
  5
A31
330
9E4
100
AcDbEntity
  8
1
  6
Continuous
100
AcDbLine
 10
369.744924
 20
266.6660769999999
 30
0.0
 11
369.744924
 21
236.1660769999998
 31
0.0
  0
LINE
  5
A32
330
9E4
100
AcDbEntity
  8
1
  6
Continuous
100
AcDbLine
 10
336.7449439999999
 20
266.6660769999999
 30
0.0
 11
336.7449439999999
 21
236.1660769999998
 31
0.0
  0
LINE
  5
A33
330
9E4
100
AcDbEntity
  8
1
  6
Continuous
100
AcDbLine
 10
364.744924
 20
271.6660769999999
 30
0.0
 11
341.7449439999999
 21
271.6660769999999
 31
0.0
  0
LINE
  5
A34
330
9E4
100
AcDbEntity
  8
1
  6
Continuous
100
AcDbLine
 10
364.744924
 20
139.665777
 30
0.0
 11
341.7449439999999
 21
139.665777
 31
0.0
  0
LINE
  5
A35
330
9E4
100
AcDbEntity
  8
1
  6
Continuous
100
AcDbLine
 10
358.244924
 20
262.3263769999999
 30
0.0
 11
360.244924
 21
265.790477
 31
0.0
  0
LINE
  5
A36
330
9E4
100
AcDbEntity
  8
1
  6
Continuous
100
AcDbLine
 10
348.219944
 20
262.369677
 30
0.0
 11
346.2449439999998
 21
265.790477
 31
0.0
  0
LINE
  5
A37
330
9E4
100
AcDbEntity
  8
1
  6
Continuous
100
AcDbLine
 10
200.514824
 20
267.6660769999999
 30
0.0
 11
203.314824
 21
267.6660769999999
 31
0.0
  0
LINE
  5
A38
330
9E4
100
AcDbEntity
  8
1
  6
Continuous
100
AcDbLine
 10
200.514824
 20
265.790477
 30
0.0
 11
203.8148239999999
 21
265.790477
 31
0.0
  0
LINE
  5
A39
330
9E4
100
AcDbEntity
  8
1
  6
Continuous
100
AcDbLine
 10
201.914824
 20
262.369677
 30
0.0
 11
203.314824
 21
262.369677
 31
0.0
  0
LINE
  5
A3A
330
9E4
100
AcDbEntity
  8
1
  6
Continuous
100
AcDbLine
 10
346.173874
 20
253.666107
 30
0.0
 11
353.244924
 21
246.5950439999998
 31
0.0
  0
LINE
  5
A3B
330
9E4
100
AcDbEntity
  8
1
  6
Continuous
100
AcDbLine
 10
353.244924
 20
260.7371769999999
 30
0.0
 11
360.316024
 21
253.6661169999999
 31
0.0
  0
LINE
  5
A3C
330
9E4
100
AcDbEntity
  8
1
  6
Continuous
100
AcDbLine
 10
360.316024
 20
253.6661169999999
 30
0.0
 11
353.244924
 21
246.5950439999998
 31
0.0
  0
LINE
  5
A3D
330
9E4
100
AcDbEntity
  8
1
  6
Continuous
100
AcDbLine
 10
353.244924
 20
260.7371769999999
 30
0.0
 11
346.173874
 21
253.666107
 31
0.0
  0
LINE
  5
A3E
330
9E4
100
AcDbEntity
  8
5
  6
PHANTOM
100
AcDbLine
 10
30.778824
 20
243.0661069999999
 30
0.0
 11
30.778824
 21
264.2660769999998
 31
0.0
  0
LINE
  5
A3F
330
9E4
100
AcDbEntity
  8
1
  6
Continuous
100
AcDbLine
 10
354.301324
 20
192.609777
 30
0.0
 11
354.316324
 21
192.6177769999999
 31
0.0
  0
LINE
  5
A40
330
9E4
100
AcDbEntity
  8
1
  6
Continuous
100
AcDbLine
 10
354.3164239999999
 20
192.6177769999999
 30
0.0
 11
356.226924
 21
192.6510769999999
 31
0.0
  0
LINE
  5
A41
330
9E4
100
AcDbEntity
  8
1
  6
Continuous
100
AcDbLine
 10
354.301324
 20
194.722477
 30
0.0
 11
354.316324
 21
194.7144769999999
 31
0.0
  0
LINE
  5
A42
330
9E4
100
AcDbEntity
  8
1
  6
Continuous
100
AcDbLine
 10
354.316324
 20
194.7144769999999
 30
0.0
 11
356.226924
 21
194.6810769999999
 31
0.0
  0
LINE
  5
A43
330
9E4
100
AcDbEntity
  8
1
  6
Continuous
100
AcDbLine
 10
352.1885839999998
 20
194.722477
 30
0.0
 11
352.196594
 21
194.7375769999999
 31
0.0
  0
LINE
  5
A44
330
9E4
100
AcDbEntity
  8
1
  6
Continuous
100
AcDbLine
 10
352.196594
 20
194.7375769999999
 30
0.0
 11
352.2299439999999
 21
196.648077
 31
0.0
  0
LINE
  5
A45
330
9E4
100
AcDbEntity
  8
1
  6
Continuous
100
AcDbLine
 10
354.2933239999999
 20
194.7375769999999
 30
0.0
 11
354.259924
 21
196.648077
 31
0.0
  0
LINE
  5
A46
330
9E4
100
AcDbEntity
  8
1
  6
Continuous
100
AcDbLine
 10
354.301324
 20
194.722477
 30
0.0
 11
354.2933239999999
 21
194.7375769999999
 31
0.0
  0
LINE
  5
A47
330
9E4
100
AcDbEntity
  8
1
  6
Continuous
100
AcDbLine
 10
352.1885939999998
 20
192.609777
 30
0.0
 11
352.1735239999999
 21
192.6177769999999
 31
0.0
  0
LINE
  5
A48
330
9E4
100
AcDbEntity
  8
1
  6
Continuous
100
AcDbLine
 10
352.1735239999999
 20
192.6177769999999
 30
0.0
 11
350.262954
 21
192.6510769999999
 31
0.0
  0
LINE
  5
A49
330
9E4
100
AcDbEntity
  8
1
  6
Continuous
100
AcDbLine
 10
352.1735339999997
 20
194.7144769999999
 30
0.0
 11
350.262944
 21
194.6810769999999
 31
0.0
  0
LINE
  5
A4A
330
9E4
100
AcDbEntity
  8
1
  6
Continuous
100
AcDbLine
 10
352.1885839999998
 20
194.722477
 30
0.0
 11
352.1735239999999
 21
194.7144769999999
 31
0.0
  0
LINE
  5
A4B
330
9E4
100
AcDbEntity
  8
1
  6
Continuous
100
AcDbLine
 10
354.301324
 20
192.609777
 30
0.0
 11
354.2933239999999
 21
192.5946769999999
 31
0.0
  0
LINE
  5
A4C
330
9E4
100
AcDbEntity
  8
1
  6
Continuous
100
AcDbLine
 10
354.2933239999999
 20
192.5946769999999
 30
0.0
 11
354.259924
 21
190.684077
 31
0.0
  0
LINE
  5
A4D
330
9E4
100
AcDbEntity
  8
1
  6
Continuous
100
AcDbLine
 10
352.196594
 20
192.5946769999999
 30
0.0
 11
352.2299439999999
 21
190.684077
 31
0.0
  0
LINE
  5
A4E
330
9E4
100
AcDbEntity
  8
1
  6
Continuous
100
AcDbLine
 10
352.1885839999998
 20
192.609777
 30
0.0
 11
352.196594
 21
192.5946769999999
 31
0.0
  0
LINE
  5
A4F
330
9E4
100
AcDbEntity
  8
1
  6
Continuous
100
AcDbLine
 10
354.301324
 20
220.6097769999999
 30
0.0
 11
354.316324
 21
220.617777
 31
0.0
  0
LINE
  5
A50
330
9E4
100
AcDbEntity
  8
1
  6
Continuous
100
AcDbLine
 10
354.3164239999999
 20
220.617777
 30
0.0
 11
356.226924
 21
220.6510769999999
 31
0.0
  0
LINE
  5
A51
330
9E4
100
AcDbEntity
  8
1
  6
Continuous
100
AcDbLine
 10
354.301324
 20
222.7224769999998
 30
0.0
 11
354.316324
 21
222.7144769999999
 31
0.0
  0
LINE
  5
A52
330
9E4
100
AcDbEntity
  8
1
  6
Continuous
100
AcDbLine
 10
354.316324
 20
222.7144769999999
 30
0.0
 11
356.226924
 21
222.6810769999999
 31
0.0
  0
LINE
  5
A53
330
9E4
100
AcDbEntity
  8
1
  6
Continuous
100
AcDbLine
 10
352.1885839999998
 20
222.7224769999998
 30
0.0
 11
352.196594
 21
222.737577
 31
0.0
  0
LINE
  5
A54
330
9E4
100
AcDbEntity
  8
1
  6
Continuous
100
AcDbLine
 10
352.196594
 20
222.737577
 30
0.0
 11
352.2299439999999
 21
224.648077
 31
0.0
  0
LINE
  5
A55
330
9E4
100
AcDbEntity
  8
1
  6
Continuous
100
AcDbLine
 10
354.2933239999999
 20
222.737577
 30
0.0
 11
354.259924
 21
224.648077
 31
0.0
  0
LINE
  5
A56
330
9E4
100
AcDbEntity
  8
1
  6
Continuous
100
AcDbLine
 10
354.301324
 20
222.7224769999998
 30
0.0
 11
354.2933239999999
 21
222.737577
 31
0.0
  0
LINE
  5
A57
330
9E4
100
AcDbEntity
  8
1
  6
Continuous
100
AcDbLine
 10
352.1885939999998
 20
220.6097769999999
 30
0.0
 11
352.1735239999999
 21
220.617777
 31
0.0
  0
LINE
  5
A58
330
9E4
100
AcDbEntity
  8
1
  6
Continuous
100
AcDbLine
 10
352.1735239999999
 20
220.617777
 30
0.0
 11
350.262954
 21
220.6510769999999
 31
0.0
  0
LINE
  5
A59
330
9E4
100
AcDbEntity
  8
1
  6
Continuous
100
AcDbLine
 10
352.1735339999997
 20
222.7144769999999
 30
0.0
 11
350.262944
 21
222.6810769999999
 31
0.0
  0
LINE
  5
A5A
330
9E4
100
AcDbEntity
  8
1
  6
Continuous
100
AcDbLine
 10
352.1885839999998
 20
222.7224769999998
 30
0.0
 11
352.1735239999999
 21
222.7144769999999
 31
0.0
  0
LINE
  5
A5B
330
9E4
100
AcDbEntity
  8
1
  6
Continuous
100
AcDbLine
 10
354.301324
 20
220.6097769999999
 30
0.0
 11
354.2933239999999
 21
220.594677
 31
0.0
  0
LINE
  5
A5C
330
9E4
100
AcDbEntity
  8
1
  6
Continuous
100
AcDbLine
 10
354.2933239999999
 20
220.594677
 30
0.0
 11
354.259924
 21
218.6840769999998
 31
0.0
  0
LINE
  5
A5D
330
9E4
100
AcDbEntity
  8
1
  6
Continuous
100
AcDbLine
 10
352.196594
 20
220.594677
 30
0.0
 11
352.2299439999999
 21
218.6840769999998
 31
0.0
  0
LINE
  5
A5E
330
9E4
100
AcDbEntity
  8
1
  6
Continuous
100
AcDbLine
 10
352.1885839999998
 20
220.6097769999999
 30
0.0
 11
352.196594
 21
220.594677
 31
0.0
  0
LINE
  5
A5F
330
9E4
100
AcDbEntity
  8
4
  6
CENTER
100
AcDbLine
 10
343.2449419999999
 20
221.666077
 30
0.0
 11
363.244924
 21
221.666077
 31
0.0
  0
LINE
  5
A60
330
9E4
100
AcDbEntity
  8
4
  6
CENTER
100
AcDbLine
 10
343.2449419999999
 20
193.6660769999997
 30
0.0
 11
363.244924
 21
193.6660769999997
 31
0.0
  0
LINE
  5
A61
330
9E4
100
AcDbEntity
  8
1
  6
Continuous
100
AcDbLine
 10
374.244924
 20
233.166077
 30
0.0
 11
374.244924
 21
189.166077
 31
0.0
  0
LINE
  5
A62
330
9E4
100
AcDbEntity
  8
1
  6
Continuous
100
AcDbLine
 10
332.244924
 20
233.166077
 30
0.0
 11
332.244924
 21
189.166077
 31
0.0
  0
LINE
  5
A63
330
9E4
100
AcDbEntity
  8
1
  6
Continuous
100
AcDbLine
 10
335.244944
 20
186.166077
 30
0.0
 11
371.244924
 21
186.166077
 31
0.0
  0
LINE
  5
A64
330
9E4
100
AcDbEntity
  8
1
  6
Continuous
100
AcDbLine
 10
335.244944
 20
236.1660769999998
 30
0.0
 11
339.9126539999999
 21
236.1660769999998
 31
0.0
  0
LINE
  5
A65
330
9E4
100
AcDbEntity
  8
1
  6
Continuous
100
AcDbLine
 10
366.5772239999999
 20
236.1660769999998
 30
0.0
 11
371.244924
 21
236.1660769999998
 31
0.0
  0
LINE
  5
A66
330
9E4
100
AcDbEntity
  8
1
  6
Continuous
100
AcDbLine
 10
333.2449439999999
 20
186.930077
 30
0.0
 11
333.2449439999999
 21
138.665777
 31
0.0
  0
LINE
  5
A67
330
9E4
100
AcDbEntity
  8
1
  6
Continuous
100
AcDbLine
 10
336.7449439999999
 20
186.166077
 30
0.0
 11
336.7449439999999
 21
144.6657769999999
 31
0.0
  0
LINE
  5
A68
330
9E4
100
AcDbEntity
  8
1
  6
Continuous
100
AcDbLine
 10
369.744924
 20
186.166077
 30
0.0
 11
369.744924
 21
144.6657769999999
 31
0.0
  0
LINE
  5
A69
330
9E4
100
AcDbEntity
  8
1
  6
Continuous
100
AcDbLine
 10
373.244924
 20
186.930077
 30
0.0
 11
373.244924
 21
138.665777
 31
0.0
  0
LINE
  5
A6A
330
9E4
100
AcDbEntity
  8
1
  6
Continuous
100
AcDbLine
 10
369.0449239999999
 20
236.1660769999998
 30
0.0
 11
369.0449239999999
 21
186.166077
 31
0.0
  0
LINE
  5
A6B
330
9E4
100
AcDbEntity
  8
1
  6
Continuous
100
AcDbLine
 10
337.444944
 20
236.1660769999998
 30
0.0
 11
337.444944
 21
186.166077
 31
0.0
  0
LINE
  5
A6C
330
9E4
100
AcDbEntity
  8
1
  6
Continuous
100
AcDbLine
 10
273.9278239999998
 20
186.166077
 30
0.0
 11
279.727824
 21
186.166077
 31
0.0
  0
LINE
  5
A6D
330
9E4
100
AcDbEntity
  8
1
  6
Continuous
100
AcDbLine
 10
273.9278239999998
 20
236.1660769999998
 30
0.0
 11
279.727824
 21
236.1660769999998
 31
0.0
  0
LINE
  5
A6E
330
9E4
100
AcDbEntity
  8
1
  6
Continuous
100
AcDbLine
 10
273.9278239999998
 20
236.1660769999998
 30
0.0
 11
273.9278239999998
 21
186.166077
 31
0.0
  0
LINE
  5
A6F
330
9E4
100
AcDbEntity
  8
1
  6
Continuous
100
AcDbLine
 10
276.227824
 20
236.1660769999998
 30
0.0
 11
276.227824
 21
186.166077
 31
0.0
  0
LINE
  5
A70
330
9E4
100
AcDbEntity
  8
1
  6
Continuous
100
AcDbLine
 10
279.727824
 20
236.1660769999998
 30
0.0
 11
279.727824
 21
186.166077
 31
0.0
  0
LINE
  5
A71
330
9E4
100
AcDbEntity
  8
1
  6
Continuous
100
AcDbLine
 10
280.8778239999999
 20
200.6660769999998
 30
0.0
 11
280.8778239999999
 21
186.666077
 31
0.0
  0
LINE
  5
A72
330
9E4
100
AcDbEntity
  8
4
  6
CENTER
100
AcDbLine
 10
286.5048239999999
 20
193.6660769999997
 30
0.0
 11
270.704224
 21
193.6660769999997
 31
0.0
  0
LINE
  5
A73
330
9E4
100
AcDbEntity
  8
1
  6
Continuous
100
AcDbLine
 10
281.292524
 20
186.666077
 30
0.0
 11
280.8778239999999
 21
186.666077
 31
0.0
  0
LINE
  5
A74
330
9E4
100
AcDbEntity
  8
1
  6
Continuous
100
AcDbLine
 10
281.292524
 20
200.6660769999998
 30
0.0
 11
280.8778239999999
 21
200.6660769999998
 31
0.0
  0
LINE
  5
A75
330
9E4
100
AcDbEntity
  8
1
  6
Continuous
100
AcDbLine
 10
281.292524
 20
200.6660769999998
 30
0.0
 11
281.292524
 21
186.666077
 31
0.0
  0
LINE
  5
A76
330
9E4
100
AcDbEntity
  8
1
  6
Continuous
100
AcDbLine
 10
280.8778239999999
 20
199.9160769999997
 30
0.0
 11
279.727824
 21
199.9160769999997
 31
0.0
  0
LINE
  5
A77
330
9E4
100
AcDbEntity
  8
1
  6
Continuous
100
AcDbLine
 10
280.8778239999999
 20
187.4160769999997
 30
0.0
 11
279.727824
 21
187.4160769999997
 31
0.0
  0
LINE
  5
A78
330
9E4
100
AcDbEntity
  8
1
  6
Continuous
100
AcDbLine
 10
280.8778239999999
 20
342.107777
 30
0.0
 11
280.8778239999999
 21
328.107777
 31
0.0
  0
LINE
  5
A79
330
9E4
100
AcDbEntity
  8
4
  6
CENTER
100
AcDbLine
 10
286.5048239999999
 20
221.666077
 30
0.0
 11
270.704224
 21
221.666077
 31
0.0
  0
LINE
  5
A7A
330
9E4
100
AcDbEntity
  8
1
  6
Continuous
100
AcDbLine
 10
281.292524
 20
328.107777
 30
0.0
 11
280.8778239999999
 21
328.107777
 31
0.0
  0
LINE
  5
A7B
330
9E4
100
AcDbEntity
  8
1
  6
Continuous
100
AcDbLine
 10
281.292524
 20
342.107777
 30
0.0
 11
280.8778239999999
 21
342.107777
 31
0.0
  0
LINE
  5
A7C
330
9E4
100
AcDbEntity
  8
1
  6
Continuous
100
AcDbLine
 10
281.292524
 20
342.107777
 30
0.0
 11
281.292524
 21
328.107777
 31
0.0
  0
LINE
  5
A7D
330
9E4
100
AcDbEntity
  8
1
  6
Continuous
100
AcDbLine
 10
280.8778239999999
 20
341.3577769999998
 30
0.0
 11
279.727824
 21
341.3577769999998
 31
0.0
  0
LINE
  5
A7E
330
9E4
100
AcDbEntity
  8
1
  6
Continuous
100
AcDbLine
 10
280.8778239999999
 20
328.8577769999998
 30
0.0
 11
279.727824
 21
328.8577769999998
 31
0.0
  0
LINE
  5
A7F
330
9E4
100
AcDbEntity
  8
1
  6
Continuous
100
AcDbLine
 10
344.5846839999999
 20
248.6661069999999
 30
0.0
 11
341.9866139999998
 21
247.1661119999999
 31
0.0
  0
LINE
  5
A80
330
9E4
100
AcDbEntity
  8
1
  6
Continuous
100
AcDbLine
 10
202.014824
 20
247.1661119999999
 30
0.0
 11
204.014824
 21
247.1661119999999
 31
0.0
  0
LINE
  5
A81
330
9E4
100
AcDbEntity
  8
1
  6
Continuous
100
AcDbLine
 10
202.014824
 20
248.6661069999999
 30
0.0
 11
204.014824
 21
248.6661069999999
 31
0.0
  0
LINE
  5
A82
330
9E4
100
AcDbEntity
  8
1
  6
Continuous
100
AcDbLine
 10
202.014824
 20
240.6661069999999
 30
0.0
 11
204.014824
 21
240.6661069999999
 31
0.0
  0
LINE
  5
A83
330
9E4
100
AcDbEntity
  8
1
  6
Continuous
100
AcDbLine
 10
204.014824
 20
264.924477
 30
0.0
 11
204.014824
 21
240.6661069999999
 31
0.0
  0
LINE
  5
A84
330
9E4
100
AcDbEntity
  8
1
  6
Continuous
100
AcDbLine
 10
203.8148239999999
 20
264.924477
 30
0.0
 11
204.014824
 21
264.924477
 31
0.0
  0
LINE
  5
A85
330
9E4
100
AcDbEntity
  8
1
  6
Continuous
100
AcDbLine
 10
207.0148239999999
 20
342.178777
 30
0.0
 11
207.0148239999999
 21
328.036677
 31
0.0
  0
LINE
  5
A86
330
9E4
100
AcDbEntity
  8
1
  6
Continuous
100
AcDbLine
 10
204.014824
 20
342.178777
 30
0.0
 11
207.0148239999999
 21
342.178777
 31
0.0
  0
LINE
  5
A87
330
9E4
100
AcDbEntity
  8
1
  6
Continuous
100
AcDbLine
 10
204.014824
 20
328.036677
 30
0.0
 11
207.0148239999999
 21
328.036677
 31
0.0
  0
LINE
  5
A88
330
9E4
100
AcDbEntity
  8
1
  6
Continuous
100
AcDbLine
 10
204.014824
 20
335.1077769999998
 30
0.0
 11
207.0148239999999
 21
335.1077769999998
 31
0.0
  0
LINE
  5
A89
330
9E4
100
AcDbEntity
  8
1
  6
Continuous
100
AcDbLine
 10
340.8449239999999
 20
171.666077
 30
0.0
 11
365.644924
 21
171.666077
 31
0.0
  0
LINE
  5
A8A
330
9E4
100
AcDbEntity
  8
1
  6
Continuous
100
AcDbLine
 10
340.8449239999999
 20
185.6660769999997
 30
0.0
 11
365.644924
 21
185.6660769999997
 31
0.0
  0
LINE
  5
A8B
330
9E4
100
AcDbEntity
  8
1
  6
Continuous
100
AcDbLine
 10
337.7449439999999
 20
171.666077
 30
0.0
 11
339.8449240000001
 21
171.666077
 31
0.0
  0
LINE
  5
A8C
330
9E4
100
AcDbEntity
  8
1
  6
Continuous
100
AcDbLine
 10
366.6449239999999
 20
171.666077
 30
0.0
 11
368.744924
 21
171.666077
 31
0.0
  0
LINE
  5
A8D
330
9E4
100
AcDbEntity
  8
1
  6
Continuous
100
AcDbLine
 10
362.208924
 20
156.702077
 30
0.0
 11
362.722724
 21
156.930877
 31
0.0
  0
LINE
  5
A8E
330
9E4
100
AcDbEntity
  8
1
  6
Continuous
100
AcDbLine
 10
362.722724
 20
156.930877
 30
0.0
 11
363.024424
 21
156.936077
 31
0.0
  0
LINE
  5
A8F
330
9E4
100
AcDbEntity
  8
1
  6
Continuous
100
AcDbLine
 10
362.208924
 20
157.630177
 30
0.0
 11
362.722724
 21
157.401377
 31
0.0
  0
LINE
  5
A90
330
9E4
100
AcDbEntity
  8
1
  6
Continuous
100
AcDbLine
 10
362.722724
 20
157.401377
 30
0.0
 11
363.024424
 21
157.396077
 31
0.0
  0
LINE
  5
A91
330
9E4
100
AcDbEntity
  8
1
  6
Continuous
100
AcDbLine
 10
361.509724
 20
158.143877
 30
0.0
 11
361.514924
 21
158.4455769999999
 31
0.0
  0
LINE
  5
A92
330
9E4
100
AcDbEntity
  8
1
  6
Continuous
100
AcDbLine
 10
361.280924
 20
157.630177
 30
0.0
 11
361.5096239999999
 21
158.143877
 31
0.0
  0
LINE
  5
A93
330
9E4
100
AcDbEntity
  8
1
  6
Continuous
100
AcDbLine
 10
361.980224
 20
158.143877
 30
0.0
 11
361.9749239999999
 21
158.4455769999999
 31
0.0
  0
LINE
  5
A94
330
9E4
100
AcDbEntity
  8
1
  6
Continuous
100
AcDbLine
 10
362.208924
 20
157.630177
 30
0.0
 11
361.980224
 21
158.143977
 31
0.0
  0
LINE
  5
A95
330
9E4
100
AcDbEntity
  8
1
  6
Continuous
100
AcDbLine
 10
360.767124
 20
156.930877
 30
0.0
 11
360.4654239999999
 21
156.936077
 31
0.0
  0
LINE
  5
A96
330
9E4
100
AcDbEntity
  8
1
  6
Continuous
100
AcDbLine
 10
361.280924
 20
156.702077
 30
0.0
 11
360.767124
 21
156.930877
 31
0.0
  0
LINE
  5
A97
330
9E4
100
AcDbEntity
  8
1
  6
Continuous
100
AcDbLine
 10
360.767124
 20
157.401377
 30
0.0
 11
360.4654239999999
 21
157.396077
 31
0.0
  0
LINE
  5
A98
330
9E4
100
AcDbEntity
  8
1
  6
Continuous
100
AcDbLine
 10
361.280924
 20
157.630177
 30
0.0
 11
360.767124
 21
157.401377
 31
0.0
  0
LINE
  5
A99
330
9E4
100
AcDbEntity
  8
1
  6
Continuous
100
AcDbLine
 10
361.980224
 20
156.1882769999999
 30
0.0
 11
361.9749239999999
 21
155.8865769999998
 31
0.0
  0
LINE
  5
A9A
330
9E4
100
AcDbEntity
  8
1
  6
Continuous
100
AcDbLine
 10
362.208924
 20
156.702077
 30
0.0
 11
361.980224
 21
156.1882769999999
 31
0.0
  0
LINE
  5
A9B
330
9E4
100
AcDbEntity
  8
1
  6
Continuous
100
AcDbLine
 10
361.509724
 20
156.1882769999999
 30
0.0
 11
361.514924
 21
155.8865769999998
 31
0.0
  0
LINE
  5
A9C
330
9E4
100
AcDbEntity
  8
1
  6
Continuous
100
AcDbLine
 10
361.280924
 20
156.702077
 30
0.0
 11
361.509724
 21
156.1882769999999
 31
0.0
  0
LINE
  5
A9D
330
9E4
100
AcDbEntity
  8
4
  6
CENTER
100
AcDbLine
 10
358.787724
 20
157.166077
 30
0.0
 11
364.719124
 21
157.166077
 31
0.0
  0
LINE
  5
A9E
330
9E4
100
AcDbEntity
  8
4
  6
CENTER
100
AcDbLine
 10
361.744924
 20
160.301277
 30
0.0
 11
361.744924
 21
154.161777
 31
0.0
  0
LINE
  5
A9F
330
9E4
100
AcDbEntity
  8
1
  6
Continuous
100
AcDbLine
 10
345.208964
 20
156.702077
 30
0.0
 11
345.722754
 21
156.930877
 31
0.0
  0
LINE
  5
AA0
330
9E4
100
AcDbEntity
  8
1
  6
Continuous
100
AcDbLine
 10
345.7227639999999
 20
156.930877
 30
0.0
 11
346.024434
 21
156.936077
 31
0.0
  0
LINE
  5
AA1
330
9E4
100
AcDbEntity
  8
1
  6
Continuous
100
AcDbLine
 10
345.208964
 20
157.630177
 30
0.0
 11
345.7227639999999
 21
157.401377
 31
0.0
  0
LINE
  5
AA2
330
9E4
100
AcDbEntity
  8
1
  6
Continuous
100
AcDbLine
 10
345.7227639999999
 20
157.401377
 30
0.0
 11
346.024434
 21
157.396077
 31
0.0
  0
LINE
  5
AA3
330
9E4
100
AcDbEntity
  8
1
  6
Continuous
100
AcDbLine
 10
344.509684
 20
158.143877
 30
0.0
 11
344.514944
 21
158.4455769999999
 31
0.0
  0
LINE
  5
AA4
330
9E4
100
AcDbEntity
  8
1
  6
Continuous
100
AcDbLine
 10
344.280914
 20
157.630177
 30
0.0
 11
344.509674
 21
158.143977
 31
0.0
  0
LINE
  5
AA5
330
9E4
100
AcDbEntity
  8
1
  6
Continuous
100
AcDbLine
 10
344.980214
 20
158.143877
 30
0.0
 11
344.974944
 21
158.4455769999999
 31
0.0
  0
LINE
  5
AA6
330
9E4
100
AcDbEntity
  8
1
  6
Continuous
100
AcDbLine
 10
345.208964
 20
157.630177
 30
0.0
 11
344.980204
 21
158.143877
 31
0.0
  0
LINE
  5
AA7
330
9E4
100
AcDbEntity
  8
1
  6
Continuous
100
AcDbLine
 10
343.767134
 20
156.930877
 30
0.0
 11
343.465458
 21
156.936077
 31
0.0
  0
LINE
  5
AA8
330
9E4
100
AcDbEntity
  8
1
  6
Continuous
100
AcDbLine
 10
344.280914
 20
156.702077
 30
0.0
 11
343.767134
 21
156.930877
 31
0.0
  0
LINE
  5
AA9
330
9E4
100
AcDbEntity
  8
1
  6
Continuous
100
AcDbLine
 10
343.767132
 20
157.401377
 30
0.0
 11
343.4654569999999
 21
157.396077
 31
0.0
  0
LINE
  5
AAA
330
9E4
100
AcDbEntity
  8
1
  6
Continuous
100
AcDbLine
 10
344.280924
 20
157.630177
 30
0.0
 11
343.76713
 21
157.401377
 31
0.0
  0
LINE
  5
AAB
330
9E4
100
AcDbEntity
  8
1
  6
Continuous
100
AcDbLine
 10
344.980214
 20
156.1882769999999
 30
0.0
 11
344.974944
 21
155.8865769999998
 31
0.0
  0
LINE
  5
AAC
330
9E4
100
AcDbEntity
  8
1
  6
Continuous
100
AcDbLine
 10
345.208964
 20
156.702077
 30
0.0
 11
344.980204
 21
156.1882769999999
 31
0.0
  0
LINE
  5
AAD
330
9E4
100
AcDbEntity
  8
1
  6
Continuous
100
AcDbLine
 10
344.509684
 20
156.1882769999999
 30
0.0
 11
344.514944
 21
155.8865769999998
 31
0.0
  0
LINE
  5
AAE
330
9E4
100
AcDbEntity
  8
1
  6
Continuous
100
AcDbLine
 10
344.280924
 20
156.702077
 30
0.0
 11
344.509674
 21
156.1882769999999
 31
0.0
  0
LINE
  5
AAF
330
9E4
100
AcDbEntity
  8
4
  6
CENTER
100
AcDbLine
 10
341.7877439999998
 20
157.166077
 30
0.0
 11
347.719174
 21
157.166077
 31
0.0
  0
LINE
  5
AB0
330
9E4
100
AcDbEntity
  8
4
  6
CENTER
100
AcDbLine
 10
344.7449439999999
 20
160.301277
 30
0.0
 11
344.7449439999999
 21
154.161777
 31
0.0
  0
LINE
  5
AB1
330
9E4
100
AcDbEntity
  8
1
  6
Continuous
100
AcDbLine
 10
23.38482399999999
 20
139.1657769999999
 30
0.0
 11
45.384824
 21
139.1657769999999
 31
0.0
  0
LINE
  5
AB2
330
9E4
100
AcDbEntity
  8
1
  6
Continuous
100
AcDbLine
 10
45.384824
 20
168.666077
 30
0.0
 11
45.384824
 21
135.6657769999999
 31
0.0
  0
LINE
  5
AB3
330
9E4
100
AcDbEntity
  8
1
  6
Continuous
100
AcDbLine
 10
23.38482399999999
 20
168.666077
 30
0.0
 11
23.38482399999999
 21
135.6657769999999
 31
0.0
  0
LINE
  5
AB4
330
9E4
100
AcDbEntity
  8
1
  6
Continuous
100
AcDbLine
 10
24.38482399999999
 20
169.666077
 30
0.0
 11
44.384824
 21
169.666077
 31
0.0
  0
LINE
  5
AB5
330
9E4
100
AcDbEntity
  8
1
  6
Continuous
100
AcDbLine
 10
182.0148239999998
 20
139.1657769999999
 30
0.0
 11
183.514824
 21
139.1657769999999
 31
0.0
  0
LINE
  5
AB6
330
9E4
100
AcDbEntity
  8
1
  6
Continuous
100
AcDbLine
 10
183.514824
 20
150.3004769999997
 30
0.0
 11
181.014824
 21
140.1657769999999
 31
0.0
  0
LINE
  5
AB7
330
9E4
100
AcDbEntity
  8
5
  6
PHANTOM
100
AcDbLine
 10
30.978824
 20
242.6661069999999
 30
0.0
 11
115.384824
 21
242.6661069999999
 31
0.0
  0
LINE
  5
AB8
330
9E4
100
AcDbEntity
  8
5
  6
PHANTOM
100
AcDbLine
 10
30.978824
 20
264.6660769999999
 30
0.0
 11
115.384824
 21
264.6660769999999
 31
0.0
  0
LINE
  5
AB9
330
9E4
100
AcDbEntity
  8
5
  6
PHANTOM
100
AcDbLine
 10
117.8848239999999
 20
245.1661069999999
 30
0.0
 11
117.8848239999999
 21
262.1660769999999
 31
0.0
  0
LINE
  5
ABA
330
9E4
100
AcDbEntity
  8
1
  6
Continuous
100
AcDbLine
 10
183.514824
 20
346.5077769999999
 30
0.0
 11
183.514824
 21
323.707777
 31
0.0
  0
LINE
  5
ABB
330
9E4
100
AcDbEntity
  8
1
  6
Continuous
100
AcDbLine
 10
186.014824
 20
355.107777
 30
0.0
 11
186.014824
 21
315.107777
 31
0.0
  0
LINE
  5
ABC
330
9E4
100
AcDbEntity
  8
1
  6
Continuous
100
AcDbLine
 10
188.514824
 20
355.107777
 30
0.0
 11
188.514824
 21
315.107777
 31
0.0
  0
LINE
  5
ABD
330
9E4
100
AcDbEntity
  8
4
  6
CENTER
100
AcDbLine
 10
176.3858239999999
 20
335.1077769999998
 30
0.0
 11
215.3508239999999
 21
335.1077769999998
 31
0.0
  0
LINE
  5
ABE
330
9E4
100
AcDbEntity
  8
1
  6
Continuous
100
AcDbLine
 10
186.014824
 20
315.107777
 30
0.0
 11
189.514824
 21
315.107777
 31
0.0
  0
LINE
  5
ABF
330
9E4
100
AcDbEntity
  8
1
  6
Continuous
100
AcDbLine
 10
186.014824
 20
355.107777
 30
0.0
 11
189.514824
 21
355.107777
 31
0.0
  0
LINE
  5
AC0
330
9E4
100
AcDbEntity
  8
1
  6
Continuous
100
AcDbLine
 10
45.784824
 20
272.1660769999999
 30
0.0
 11
45.784824
 21
264.8928769999999
 31
0.0
  0
LINE
  5
AC1
330
9E4
100
AcDbEntity
  8
1
  6
Continuous
100
AcDbLine
 10
22.984824
 20
272.1660769999999
 30
0.0
 11
22.984824
 21
264.8928769999999
 31
0.0
  0
LINE
  5
AC2
330
9E4
100
AcDbEntity
  8
1
  6
Continuous
100
AcDbLine
 10
51.311824
 20
275.057877
 30
0.0
 11
45.784824
 21
272.1660769999999
 31
0.0
  0
LINE
  5
AC3
330
9E4
100
AcDbEntity
  8
1
  6
Continuous
100
AcDbLine
 10
17.40282399999999
 20
275.0867769999999
 30
0.0
 11
22.984824
 21
272.1660769999999
 31
0.0
  0
LINE
  5
AC4
330
9E4
100
AcDbEntity
  8
1
  6
Continuous
100
AcDbLine
 10
22.984824
 20
242.4393569999998
 30
0.0
 11
22.984824
 21
134.6657769999999
 31
0.0
  0
LINE
  5
AC5
330
9E4
100
AcDbEntity
  8
1
  6
Continuous
100
AcDbLine
 10
45.784824
 20
242.4393569999998
 30
0.0
 11
45.784824
 21
134.6657769999999
 31
0.0
  0
LINE
  5
AC6
330
9E4
100
AcDbEntity
  8
1
  6
Continuous
100
AcDbLine
 10
22.984824
 20
139.1657769999999
 30
0.0
 11
17.35382399999998
 21
136.2197769999999
 31
0.0
  0
LINE
  5
AC7
330
9E4
100
AcDbEntity
  8
1
  6
Continuous
100
AcDbLine
 10
45.784824
 20
139.1657769999999
 30
0.0
 11
51.637824
 21
136.103777
 31
0.0
  0
LINE
  5
AC8
330
9E4
100
AcDbEntity
  8
1
  6
Continuous
100
AcDbLine
 10
186.014824
 20
355.107777
 30
0.0
 11
183.514824
 21
346.5077769999999
 31
0.0
  0
LINE
  5
AC9
330
9E4
100
AcDbEntity
  8
1
  6
Continuous
100
AcDbLine
 10
183.514824
 20
323.707777
 30
0.0
 11
186.014824
 21
315.107777
 31
0.0
  0
LINE
  5
ACA
330
9E4
100
AcDbEntity
  8
1
  6
Continuous
100
AcDbLine
 10
183.514824
 20
272.1660769999999
 30
0.0
 11
183.514824
 21
139.1657769999999
 31
0.0
  0
LINE
  5
ACB
330
9E4
100
AcDbEntity
  8
5
  6
PHANTOM
100
AcDbLine
 10
183.2218239999999
 20
255.3243569999999
 30
0.0
 11
176.712824
 21
171.9928769999999
 31
0.0
  0
LINE
  5
ACC
330
9E4
100
AcDbEntity
  8
5
  6
PHANTOM
100
AcDbLine
 10
183.2218239999999
 20
255.3243569999999
 30
0.0
 11
183.514824
 21
255.574835
 31
0.0
  0
LINE
  5
ACD
330
9E4
100
AcDbEntity
  8
5
  6
PHANTOM
100
AcDbLine
 10
183.514824
 20
170.808705
 30
0.0
 11
177.691824
 21
170.915177
 31
0.0
  0
LINE
  5
ACE
330
9E4
100
AcDbEntity
  8
1
  6
Continuous
100
AcDbLine
 10
183.114824
 20
254.751397
 30
0.0
 11
183.114824
 21
171.1660769999998
 31
0.0
  0
LINE
  5
ACF
330
9E4
100
AcDbEntity
  8
1
  6
Continuous
100
AcDbLine
 10
183.114824
 20
254.7513869999999
 30
0.0
 11
183.514824
 21
255.151435
 31
0.0
  0
LINE
  5
AD0
330
9E4
100
AcDbEntity
  8
5
  6
PHANTOM
100
AcDbLine
 10
183.514824
 20
257.1310829999998
 30
0.0
 11
126.945824
 21
200.562377
 31
0.0
  0
LINE
  5
AD1
330
9E4
100
AcDbEntity
  8
5
  6
PHANTOM
100
AcDbLine
 10
183.514824
 20
243.83721
 30
0.0
 11
143.3118239999997
 21
203.634777
 31
0.0
  0
LINE
  5
AD2
330
9E4
100
AcDbEntity
  8
5
  6
PHANTOM
100
AcDbLine
 10
143.6798239999999
 20
194.103177
 30
0.0
 11
139.7558239999999
 21
190.179277
 31
0.0
  0
LINE
  5
AD3
330
9E4
100
AcDbEntity
  8
5
  6
PHANTOM
100
AcDbLine
 10
133.239824
 20
193.5620769999999
 30
0.0
 11
136.9898239999999
 21
190.120077
 31
0.0
  0
LINE
  5
AD4
330
9E4
100
AcDbEntity
  8
5
  6
PHANTOM
100
AcDbLine
 10
142.676824
 20
198.8062769999999
 30
0.0
 11
143.997824
 21
196.517477
 31
0.0
  0
LINE
  5
AD5
330
9E4
100
AcDbEntity
  8
5
  6
PHANTOM
100
AcDbLine
 10
133.238824
 20
193.5620769999999
 30
0.0
 11
126.989824
 21
199.107277
 31
0.0
  0
LINE
  5
AD6
330
9E4
100
AcDbEntity
  8
1
  6
Continuous
100
AcDbLine
 10
201.914824
 20
346.157777
 30
0.0
 11
201.914824
 21
342.107777
 31
0.0
  0
LINE
  5
AD7
330
9E4
100
AcDbEntity
  8
1
  6
Continuous
100
AcDbLine
 10
191.514824
 20
350.607777
 30
0.0
 11
191.514824
 21
319.607777
 31
0.0
  0
LINE
  5
AD8
330
9E4
100
AcDbEntity
  8
1
  6
Continuous
100
AcDbLine
 10
189.514824
 20
318.607777
 30
0.0
 11
199.5148239999998
 21
318.607777
 31
0.0
  0
LINE
  5
AD9
330
9E4
100
AcDbEntity
  8
1
  6
Continuous
100
AcDbLine
 10
189.514824
 20
351.6077769999998
 30
0.0
 11
199.5148239999998
 21
351.6077769999998
 31
0.0
  0
LINE
  5
ADA
330
9E4
100
AcDbEntity
  8
1
  6
Continuous
100
AcDbLine
 10
203.8148239999999
 20
342.107777
 30
0.0
 11
203.8148239999999
 21
328.107777
 31
0.0
  0
LINE
  5
ADB
330
9E4
100
AcDbEntity
  8
1
  6
Continuous
100
AcDbLine
 10
200.514824
 20
342.107777
 30
0.0
 11
203.8148239999999
 21
342.107777
 31
0.0
  0
LINE
  5
ADC
330
9E4
100
AcDbEntity
  8
1
  6
Continuous
100
AcDbLine
 10
200.514824
 20
328.107777
 30
0.0
 11
203.8148239999999
 21
328.107777
 31
0.0
  0
LINE
  5
ADD
330
9E4
100
AcDbEntity
  8
1
  6
Continuous
100
AcDbLine
 10
204.014824
 20
348.107777
 30
0.0
 11
204.014824
 21
323.849377
 31
0.0
  0
LINE
  5
ADE
330
9E4
100
AcDbEntity
  8
1
  6
Continuous
100
AcDbLine
 10
202.014824
 20
348.107777
 30
0.0
 11
204.014824
 21
348.107777
 31
0.0
  0
LINE
  5
ADF
330
9E4
100
AcDbEntity
  8
1
  6
Continuous
100
AcDbLine
 10
202.014824
 20
325.107777
 30
0.0
 11
204.014824
 21
325.107777
 31
0.0
  0
LINE
  5
AE0
330
9E4
100
AcDbEntity
  8
1
  6
Continuous
100
AcDbLine
 10
202.014824
 20
323.849377
 30
0.0
 11
204.014824
 21
323.849377
 31
0.0
  0
LINE
  5
AE1
330
9E4
100
AcDbEntity
  8
1
  6
Continuous
100
AcDbLine
 10
201.914824
 20
260.7371769999999
 30
0.0
 11
202.014824
 21
260.7371769999999
 31
0.0
  0
LINE
  5
AE2
330
9E4
100
AcDbEntity
  8
1
  6
Continuous
100
AcDbLine
 10
207.0148239999999
 20
260.7371769999999
 30
0.0
 11
207.0148239999999
 21
246.5950439999998
 31
0.0
  0
LINE
  5
AE3
330
9E4
100
AcDbEntity
  8
1
  6
Continuous
100
AcDbLine
 10
204.014824
 20
253.666107
 30
0.0
 11
207.0148239999999
 21
253.666107
 31
0.0
  0
LINE
  5
AE4
330
9E4
100
AcDbEntity
  8
1
  6
Continuous
100
AcDbLine
 10
201.914824
 20
246.5950439999998
 30
0.0
 11
202.014824
 21
246.5950439999998
 31
0.0
  0
LINE
  5
AE5
330
9E4
100
AcDbEntity
  8
1
  6
Continuous
100
AcDbLine
 10
209.5148239999998
 20
347.5077769999999
 30
0.0
 11
209.5148239999998
 21
322.707777
 31
0.0
  0
LINE
  5
AE6
330
9E4
100
AcDbEntity
  8
1
  6
Continuous
100
AcDbLine
 10
191.514824
 20
270.1660769999999
 30
0.0
 11
191.514824
 21
253.666107
 31
0.0
  0
LINE
  5
AE7
330
9E4
100
AcDbEntity
  8
1
  6
Continuous
100
AcDbLine
 10
273.9278239999998
 20
356.107777
 30
0.0
 11
273.9278239999998
 21
350.907777
 31
0.0
  0
LINE
  5
AE8
330
9E4
100
AcDbEntity
  8
4
  6
CENTER
100
AcDbLine
 10
269.142624
 20
335.1077769999998
 30
0.0
 11
289.1882240000001
 21
335.1077769999998
 31
0.0
  0
LINE
  5
AE9
330
9E4
100
AcDbEntity
  8
1
  6
Continuous
100
AcDbLine
 10
276.227824
 20
356.107777
 30
0.0
 11
276.227824
 21
350.907777
 31
0.0
  0
LINE
  5
AEA
330
9E4
100
AcDbEntity
  8
1
  6
Continuous
100
AcDbLine
 10
277.4278240000001
 20
348.607777
 30
0.0
 11
277.4278240000001
 21
321.607777
 31
0.0
  0
LINE
  5
AEB
330
9E4
100
AcDbEntity
  8
1
  6
Continuous
100
AcDbLine
 10
279.727824
 20
348.607777
 30
0.0
 11
279.727824
 21
321.607777
 31
0.0
  0
LINE
  5
AEC
330
9E4
100
AcDbEntity
  8
1
  6
Continuous
100
AcDbLine
 10
276.227824
 20
321.607777
 30
0.0
 11
277.4278240000001
 21
321.607777
 31
0.0
  0
LINE
  5
AED
330
9E4
100
AcDbEntity
  8
1
  6
Continuous
100
AcDbLine
 10
276.227824
 20
348.607777
 30
0.0
 11
277.4278240000001
 21
348.607777
 31
0.0
  0
LINE
  5
AEE
330
9E4
100
AcDbEntity
  8
1
  6
Continuous
100
AcDbLine
 10
273.9278239999998
 20
314.1077769999998
 30
0.0
 11
276.227824
 21
314.1077769999998
 31
0.0
  0
LINE
  5
AEF
330
9E4
100
AcDbEntity
  8
1
  6
Continuous
100
AcDbLine
 10
273.9278239999998
 20
356.107777
 30
0.0
 11
276.227824
 21
356.107777
 31
0.0
  0
LINE
  5
AF0
330
9E4
100
AcDbEntity
  8
1
  6
Continuous
100
AcDbLine
 10
273.9278239999998
 20
319.3077769999998
 30
0.0
 11
273.9278239999998
 21
314.1077769999998
 31
0.0
  0
LINE
  5
AF1
330
9E4
100
AcDbEntity
  8
1
  6
Continuous
100
AcDbLine
 10
276.227824
 20
319.3077769999998
 30
0.0
 11
276.227824
 21
314.1077769999998
 31
0.0
  0
LINE
  5
AF2
330
9E4
100
AcDbEntity
  8
1
  6
Continuous
100
AcDbLine
 10
276.227824
 20
350.907777
 30
0.0
 11
277.4278240000001
 21
350.907777
 31
0.0
  0
LINE
  5
AF3
330
9E4
100
AcDbEntity
  8
1
  6
Continuous
100
AcDbLine
 10
276.227824
 20
319.3077769999998
 30
0.0
 11
277.4278240000001
 21
319.3077769999998
 31
0.0
  0
LINE
  5
AF4
330
9E4
100
AcDbEntity
  8
1
  6
Continuous
100
AcDbLine
 10
280.8778239999999
 20
227.916077
 30
0.0
 11
279.727824
 21
227.916077
 31
0.0
  0
LINE
  5
AF8
330
9E4
100
AcDbEntity
  8
1
  6
Continuous
100
AcDbLine
 10
280.8778239999999
 20
215.416077
 30
0.0
 11
279.727824
 21
215.416077
 31
0.0
  0
LINE
  5
B02
330
9E4
100
AcDbEntity
  8
1
  6
Continuous
100
AcDbLine
 10
280.8778239999999
 20
228.666077
 30
0.0
 11
280.8778239999999
 21
214.6660769999999
 31
0.0
  0
LINE
  5
B03
330
9E4
100
AcDbEntity
  8
1
  6
Continuous
100
AcDbLine
 10
281.292524
 20
228.666077
 30
0.0
 11
281.292524
 21
214.6660769999999
 31
0.0
  0
LINE
  5
B04
330
9E4
100
AcDbEntity
  8
1
  6
Continuous
100
AcDbLine
 10
281.292524
 20
228.666077
 30
0.0
 11
280.8778239999999
 21
228.666077
 31
0.0
  0
LINE
  5
B05
330
9E4
100
AcDbEntity
  8
1
  6
Continuous
100
AcDbLine
 10
281.292524
 20
214.6660769999999
 30
0.0
 11
280.8778239999999
 21
214.6660769999999
 31
0.0
  0
LINE
  5
B12
330
9E4
100
AcDbEntity
  8
4
  6
CENTER
100
AcDbLine
 10
353.244924
 20
320.4279769999998
 30
0.0
 11
353.244924
 21
295.4279769999999
 31
0.0
  0
LINE
  5
B13
330
9E4
100
AcDbEntity
  8
4
  6
CENTER
100
AcDbLine
 10
340.7449439999999
 20
307.9279769999998
 30
0.0
 11
365.744924
 21
307.9279769999998
 31
0.0
  0
LINE
  5
B14
330
9E4
100
AcDbEntity
  8
1
  6
Continuous
100
AcDbLine
 10
354.301324
 20
306.871577
 30
0.0
 11
354.316324
 21
306.879677
 31
0.0
  0
LINE
  5
B15
330
9E4
100
AcDbEntity
  8
1
  6
Continuous
100
AcDbLine
 10
354.316324
 20
306.8795769999999
 30
0.0
 11
356.226924
 21
306.9129769999999
 31
0.0
  0
LINE
  5
B16
330
9E4
100
AcDbEntity
  8
1
  6
Continuous
100
AcDbLine
 10
354.301324
 20
308.984277
 30
0.0
 11
354.316324
 21
308.976277
 31
0.0
  0
LINE
  5
B17
330
9E4
100
AcDbEntity
  8
1
  6
Continuous
100
AcDbLine
 10
354.316324
 20
308.976277
 30
0.0
 11
356.226924
 21
308.9429769999999
 31
0.0
  0
LINE
  5
B18
330
9E4
100
AcDbEntity
  8
1
  6
Continuous
100
AcDbLine
 10
352.1885839999998
 20
308.9843769999998
 30
0.0
 11
352.196594
 21
308.9993769999999
 31
0.0
  0
LINE
  5
B19
330
9E4
100
AcDbEntity
  8
1
  6
Continuous
100
AcDbLine
 10
352.196594
 20
308.9993769999999
 30
0.0
 11
352.2299439999999
 21
310.909977
 31
0.0
  0
LINE
  5
B1A
330
9E4
100
AcDbEntity
  8
1
  6
Continuous
100
AcDbLine
 10
354.2933239999999
 20
308.9993769999999
 30
0.0
 11
354.259924
 21
310.909977
 31
0.0
  0
LINE
  5
B1B
330
9E4
100
AcDbEntity
  8
1
  6
Continuous
100
AcDbLine
 10
354.301324
 20
308.9843769999998
 30
0.0
 11
354.2933239999999
 21
308.9993769999999
 31
0.0
  0
LINE
  5
B1C
330
9E4
100
AcDbEntity
  8
1
  6
Continuous
100
AcDbLine
 10
352.1885939999998
 20
306.871577
 30
0.0
 11
352.1735239999999
 21
306.8795769999999
 31
0.0
  0
LINE
  5
B1D
330
9E4
100
AcDbEntity
  8
1
  6
Continuous
100
AcDbLine
 10
352.1735239999999
 20
306.8795769999999
 30
0.0
 11
350.262954
 21
306.9129769999999
 31
0.0
  0
LINE
  5
B1E
330
9E4
100
AcDbEntity
  8
1
  6
Continuous
100
AcDbLine
 10
352.1735239999999
 20
308.976277
 30
0.0
 11
350.262944
 21
308.9429769999999
 31
0.0
  0
LINE
  5
B1F
330
9E4
100
AcDbEntity
  8
1
  6
Continuous
100
AcDbLine
 10
352.1885839999998
 20
308.984277
 30
0.0
 11
352.1735239999999
 21
308.976277
 31
0.0
  0
LINE
  5
B20
330
9E4
100
AcDbEntity
  8
1
  6
Continuous
100
AcDbLine
 10
354.301324
 20
306.871577
 30
0.0
 11
354.2933239999999
 21
306.856577
 31
0.0
  0
LINE
  5
B21
330
9E4
100
AcDbEntity
  8
1
  6
Continuous
100
AcDbLine
 10
354.2933239999999
 20
306.856577
 30
0.0
 11
354.259924
 21
304.945977
 31
0.0
  0
LINE
  5
B22
330
9E4
100
AcDbEntity
  8
1
  6
Continuous
100
AcDbLine
 10
352.196594
 20
306.856577
 30
0.0
 11
352.2299439999999
 21
304.945977
 31
0.0
  0
LINE
  5
B23
330
9E4
100
AcDbEntity
  8
1
  6
Continuous
100
AcDbLine
 10
352.1885839999998
 20
306.871577
 30
0.0
 11
352.196594
 21
306.856577
 31
0.0
  0
LINE
  5
B24
330
9E4
100
AcDbEntity
  8
1
  6
Continuous
100
AcDbLine
 10
189.514824
 20
276.6660769999999
 30
0.0
 11
189.514824
 21
134.6657769999999
 31
0.0
  0
LINE
  5
B25
330
9E4
100
AcDbEntity
  8
1
  6
Continuous
100
AcDbLine
 10
189.514824
 20
355.107777
 30
0.0
 11
189.514824
 21
315.107777
 31
0.0
  0
LINE
  5
B26
330
9E4
100
AcDbEntity
  8
1
  6
Continuous
100
AcDbLine
 10
23.38482399999999
 20
257.0726769999998
 30
0.0
 11
23.38482399999999
 21
172.666077
 31
0.0
  0
LINE
  5
B27
330
9E4
100
AcDbEntity
  8
1
  6
Continuous
100
AcDbLine
 10
23.784824
 20
257.272677
 30
0.0
 11
44.98482399999999
 21
257.272677
 31
0.0
  0
LINE
  5
B28
330
9E4
100
AcDbEntity
  8
1
  6
Continuous
100
AcDbLine
 10
23.28482399999999
 20
265.1895769999998
 30
0.0
 11
23.28482399999999
 21
242.1426569999999
 31
0.0
  0
LINE
  5
B29
330
9E4
100
AcDbEntity
  8
1
  6
Continuous
100
AcDbLine
 10
45.484824
 20
265.1895769999998
 30
0.0
 11
45.484824
 21
242.1426569999999
 31
0.0
  0
LINE
  5
B2A
330
9E4
100
AcDbEntity
  8
1
  6
Continuous
100
AcDbLine
 10
45.384824
 20
257.0726769999998
 30
0.0
 11
45.384824
 21
172.666077
 31
0.0
  0
LINE
  5
B2B
330
9E4
100
AcDbEntity
  8
1
  6
Continuous
100
AcDbLine
 10
25.884824
 20
170.166077
 30
0.0
 11
42.884824
 21
170.166077
 31
0.0
  0
LINE
  5
B2C
330
9E4
100
AcDbEntity
  8
4
  6
CENTER
100
AcDbLine
 10
190.736824
 20
221.666077
 30
0.0
 11
200.0778239999999
 21
221.666077
 31
0.0
  0
LINE
  5
B2D
330
9E4
100
AcDbEntity
  8
4
  6
CENTER
100
AcDbLine
 10
190.281824
 20
193.6660769999997
 30
0.0
 11
200.305824
 21
193.6660769999997
 31
0.0
  0
LINE
  5
B2E
330
9E4
100
AcDbEntity
  8
1
  6
Continuous
100
AcDbLine
 10
191.514824
 20
170.666077
 30
0.0
 11
191.514824
 21
140.6657769999999
 31
0.0
  0
LINE
  5
B2F
330
9E4
100
AcDbEntity
  8
1
  6
Continuous
100
AcDbLine
 10
189.514824
 20
171.666077
 30
0.0
 11
190.514824
 21
171.666077
 31
0.0
  0
ARC
  5
B30
330
9E4
100
AcDbEntity
  8
1
  6
Continuous
100
AcDbCircle
 10
18.384824
 20
272.6660769999999
 30
0.0
 40
4.0
100
AcDbArc
 50
90.0
 51
180.0
  0
ARC
  5
B31
330
9E4
100
AcDbEntity
  8
1
  6
Continuous
100
AcDbCircle
 10
18.384824
 20
138.665777
 30
0.0
 40
4.0
100
AcDbArc
 50
180.0
 51
270.0
  0
ARC
  5
B32
330
9E4
100
AcDbEntity
  8
1
  6
Continuous
100
AcDbCircle
 10
50.384824
 20
138.665777
 30
0.0
 40
4.0
100
AcDbArc
 50
270.0
 51
0.0
  0
ARC
  5
B33
330
9E4
100
AcDbEntity
  8
1
  6
Continuous
100
AcDbCircle
 10
50.384824
 20
272.6660769999999
 30
0.0
 40
4.0
100
AcDbArc
 50
0.0
 51
90.0
  0
ARC
  5
B34
330
9E4
100
AcDbEntity
  8
1
  6
Continuous
100
AcDbCircle
 10
208.514824
 20
140.6657769999999
 30
0.0
 40
1.0
100
AcDbArc
 50
270.0
 51
0.0
  0
ARC
  5
B35
330
9E4
100
AcDbEntity
  8
1
  6
Continuous
100
AcDbCircle
 10
208.514824
 20
170.666077
 30
0.0
 40
1.0
100
AcDbArc
 50
0.0
 51
90.0
  0
ARC
  5
B36
330
9E4
100
AcDbEntity
  8
1
  6
Continuous
100
AcDbCircle
 10
202.514824
 20
172.666077
 30
0.0
 40
1.0
100
AcDbArc
 50
180.0
 51
270.0
  0
ARC
  5
B37
330
9E4
100
AcDbEntity
  8
1
  6
Continuous
100
AcDbCircle
 10
200.514824
 20
184.6660769999997
 30
0.0
 40
1.0
100
AcDbArc
 50
0.0
 51
90.0
  0
ARC
  5
B38
330
9E4
100
AcDbEntity
  8
1
  6
Continuous
100
AcDbCircle
 10
196.014824
 20
186.666077
 30
0.0
 40
1.0
100
AcDbArc
 50
180.0
 51
270.0
  0
ARC
  5
B39
330
9E4
100
AcDbEntity
  8
1
  6
Continuous
100
AcDbCircle
 10
190.514824
 20
270.6660769999999
 30
0.0
 40
1.0
100
AcDbArc
 50
0.0
 51
90.0
  0
ARC
  5
B3A
330
9E4
100
AcDbEntity
  8
1
  6
Continuous
100
AcDbCircle
 10
369.244924
 20
272.6660769999999
 30
0.0
 40
4.0
100
AcDbArc
 50
0.0
 51
90.0
  0
ARC
  5
B3B
330
9E4
100
AcDbEntity
  8
1
  6
Continuous
100
AcDbCircle
 10
369.244924
 20
138.665777
 30
0.0
 40
4.0
100
AcDbArc
 50
270.0
 51
0.0
  0
ARC
  5
B3C
330
9E4
100
AcDbEntity
  8
1
  6
Continuous
100
AcDbCircle
 10
337.244944
 20
138.665777
 30
0.0
 40
4.0
100
AcDbArc
 50
180.0
 51
270.0
  0
ARC
  5
B3D
330
9E4
100
AcDbEntity
  8
1
  6
Continuous
100
AcDbCircle
 10
337.244944
 20
272.6660769999999
 30
0.0
 40
4.0
100
AcDbArc
 50
90.0
 51
180.0
  0
ARC
  5
B3E
330
9E4
100
AcDbEntity
  8
1
  6
Continuous
100
AcDbCircle
 10
341.7449439999999
 20
266.6660769999999
 30
0.0
 40
5.0
100
AcDbArc
 50
90.0
 51
180.0
  0
ARC
  5
B3F
330
9E4
100
AcDbEntity
  8
1
  6
Continuous
100
AcDbCircle
 10
364.744924
 20
144.6657769999999
 30
0.0
 40
5.0
100
AcDbArc
 50
270.0
 51
0.0
  0
ARC
  5
B40
330
9E4
100
AcDbEntity
  8
1
  6
Continuous
100
AcDbCircle
 10
364.744924
 20
266.6660769999999
 30
0.0
 40
5.0
100
AcDbArc
 50
0.0
 51
90.0
  0
ARC
  5
B41
330
9E4
100
AcDbEntity
  8
1
  6
Continuous
100
AcDbCircle
 10
353.244924
 20
253.666107
 30
0.0
 40
14.0
100
AcDbArc
 50
60.0
 51
119.9999999999999
  0
ARC
  5
B42
330
9E4
100
AcDbEntity
  8
1
  6
Continuous
100
AcDbCircle
 10
353.244924
 20
253.666107
 30
0.0
 40
12.05
100
AcDbArc
 50
119.9999999999999
 51
210.0
  0
ARC
  5
B43
330
9E4
100
AcDbEntity
  8
1
  6
Continuous
100
AcDbCircle
 10
353.244924
 20
253.666107
 30
0.0
 40
10.05
100
AcDbArc
 50
60.0
 51
119.9999999999999
  0
ARC
  5
B44
330
9E4
100
AcDbEntity
  8
1
  6
Continuous
100
AcDbCircle
 10
203.314824
 20
267.1660769999999
 30
0.0
 40
0.5
100
AcDbArc
 50
0.0
 51
90.0
  0
ARC
  5
B45
330
9E4
100
AcDbEntity
  8
1
  6
Continuous
100
AcDbCircle
 10
203.314824
 20
262.869677
 30
0.0
 40
0.5
100
AcDbArc
 50
270.0
 51
0.0
  0
CIRCLE
  5
B46
330
9E4
100
AcDbEntity
  8
2
  6
Continuous
100
AcDbCircle
 10
353.244924
 20
253.666107
 30
0.0
 40
3.0
  0
CIRCLE
  5
B47
330
9E4
100
AcDbEntity
  8
1
  6
Continuous
100
AcDbCircle
 10
353.244924
 20
253.666107
 30
0.0
 40
2.458499999999999
  0
ARC
  5
B48
330
9E4
100
AcDbEntity
  8
1
  6
Continuous
100
AcDbCircle
 10
34.384824
 20
253.666107
 30
0.0
 40
16.0
100
AcDbArc
 50
313.9279999999998
 51
226.0719999999998
  0
ARC
  5
B49
330
9E4
100
AcDbEntity
  8
5
  6
PHANTOM
100
AcDbCircle
 10
31.278824
 20
243.0661069999999
 30
0.0
 40
0.5
100
AcDbArc
 50
180.0
 51
270.0
  0
ARC
  5
B4A
330
9E4
100
AcDbEntity
  8
5
  6
PHANTOM
100
AcDbCircle
 10
31.278824
 20
264.2660769999998
 30
0.0
 40
0.5
100
AcDbArc
 50
90.0
 51
180.0
  0
ARC
  5
B4B
330
9E4
100
AcDbEntity
  8
1
  6
Continuous
100
AcDbCircle
 10
353.244924
 20
193.6660769999997
 30
0.0
 40
3.149999999999999
100
AcDbArc
 50
341.2029999999999
 51
18.79739999999999
  0
ARC
  5
B4C
330
9E4
100
AcDbEntity
  8
1
  6
Continuous
100
AcDbCircle
 10
353.244924
 20
193.6660769999997
 30
0.0
 40
3.149999999999999
100
AcDbArc
 50
71.2026
 51
108.797
  0
ARC
  5
B4D
330
9E4
100
AcDbEntity
  8
1
  6
Continuous
100
AcDbCircle
 10
353.244924
 20
193.6660769999997
 30
0.0
 40
3.149999999999999
100
AcDbArc
 50
161.203
 51
198.7969999999999
  0
ARC
  5
B4E
330
9E4
100
AcDbEntity
  8
1
  6
Continuous
100
AcDbCircle
 10
353.244924
 20
193.6660769999997
 30
0.0
 40
3.149999999999999
100
AcDbArc
 50
251.203
 51
288.7970000000001
  0
CIRCLE
  5
B4F
330
9E4
100
AcDbEntity
  8
1
  6
Continuous
100
AcDbCircle
 10
353.244924
 20
193.6660769999997
 30
0.0
 40
7.0
  0
ARC
  5
B50
330
9E4
100
AcDbEntity
  8
1
  6
Continuous
100
AcDbCircle
 10
353.244924
 20
221.666077
 30
0.0
 40
3.149999999999999
100
AcDbArc
 50
341.2029999999999
 51
18.79739999999999
  0
ARC
  5
B51
330
9E4
100
AcDbEntity
  8
1
  6
Continuous
100
AcDbCircle
 10
353.244924
 20
221.666077
 30
0.0
 40
3.149999999999999
100
AcDbArc
 50
71.2026
 51
108.797
  0
ARC
  5
B52
330
9E4
100
AcDbEntity
  8
1
  6
Continuous
100
AcDbCircle
 10
353.244924
 20
221.666077
 30
0.0
 40
3.149999999999999
100
AcDbArc
 50
161.203
 51
198.7969999999999
  0
ARC
  5
B53
330
9E4
100
AcDbEntity
  8
1
  6
Continuous
100
AcDbCircle
 10
353.244924
 20
221.666077
 30
0.0
 40
3.149999999999999
100
AcDbArc
 50
251.203
 51
288.7970000000001
  0
CIRCLE
  5
B54
330
9E4
100
AcDbEntity
  8
1
  6
Continuous
100
AcDbCircle
 10
353.244924
 20
221.666077
 30
0.0
 40
7.0
  0
ARC
  5
B55
330
9E4
100
AcDbEntity
  8
1
  6
Continuous
100
AcDbCircle
 10
335.244944
 20
233.166077
 30
0.0
 40
3.0
100
AcDbArc
 50
90.0
 51
180.0
  0
ARC
  5
B56
330
9E4
100
AcDbEntity
  8
1
  6
Continuous
100
AcDbCircle
 10
335.244944
 20
189.166077
 30
0.0
 40
3.0
100
AcDbArc
 50
180.0
 51
270.0
  0
ARC
  5
B57
330
9E4
100
AcDbEntity
  8
1
  6
Continuous
100
AcDbCircle
 10
371.244924
 20
189.166077
 30
0.0
 40
3.0
100
AcDbArc
 50
270.0
 51
0.0
  0
ARC
  5
B58
330
9E4
100
AcDbEntity
  8
1
  6
Continuous
100
AcDbCircle
 10
371.244924
 20
233.166077
 30
0.0
 40
3.0
100
AcDbArc
 50
0.0
 51
90.0
  0
ARC
  5
B59
330
9E4
100
AcDbEntity
  8
1
  6
Continuous
100
AcDbCircle
 10
353.244924
 20
253.666107
 30
0.0
 40
22.0
100
AcDbArc
 50
232.6979999999998
 51
307.302
  0
ARC
  5
B5A
330
9E4
100
AcDbEntity
  8
1
  6
Continuous
100
AcDbCircle
 10
275.4778239999998
 20
193.6660769999997
 30
0.0
 40
9.099999999999999
100
AcDbArc
 50
309.7149999999999
 51
50.2848
  0
ARC
  5
B5B
330
9E4
100
AcDbEntity
  8
1
  6
Continuous
100
AcDbCircle
 10
275.4778239999998
 20
335.1077769999998
 30
0.0
 40
9.099999999999999
100
AcDbArc
 50
309.7149999999999
 51
50.2848
  0
ARC
  5
B5C
330
9E4
100
AcDbEntity
  8
1
  6
Continuous
100
AcDbCircle
 10
353.244924
 20
253.666107
 30
0.0
 40
13.0
100
AcDbArc
 50
210.0
 51
60.0
  0
ARC
  5
B5D
330
9E4
100
AcDbEntity
  8
1
  6
Continuous
100
AcDbCircle
 10
353.244924
 20
253.666107
 30
0.0
 40
10.0
100
AcDbArc
 50
60.0
 51
210.0
  0
ARC
  5
B5E
330
9E4
100
AcDbEntity
  8
1
  6
Continuous
100
AcDbCircle
 10
337.7449439999999
 20
170.666077
 30
0.0
 40
1.0
100
AcDbArc
 50
90.0
 51
180.0
  0
ARC
  5
B5F
330
9E4
100
AcDbEntity
  8
1
  6
Continuous
100
AcDbCircle
 10
368.744924
 20
170.666077
 30
0.0
 40
1.0
100
AcDbArc
 50
0.0
 51
90.0
  0
ARC
  5
B60
330
9E4
100
AcDbEntity
  8
1
  6
Continuous
100
AcDbCircle
 10
341.7449439999999
 20
144.6657769999999
 30
0.0
 40
5.0
100
AcDbArc
 50
180.0
 51
270.0
  0
ARC
  5
B61
330
9E4
100
AcDbEntity
  8
1
  6
Continuous
100
AcDbCircle
 10
361.744924
 20
157.166077
 30
0.0
 40
1.3
100
AcDbArc
 50
349.809
 51
10.1906
  0
ARC
  5
B62
330
9E4
100
AcDbEntity
  8
1
  6
Continuous
100
AcDbCircle
 10
361.744924
 20
157.166077
 30
0.0
 40
1.3
100
AcDbArc
 50
79.80940000000003
 51
100.191
  0
ARC
  5
B63
330
9E4
100
AcDbEntity
  8
1
  6
Continuous
100
AcDbCircle
 10
361.744924
 20
157.166077
 30
0.0
 40
1.3
100
AcDbArc
 50
169.809
 51
190.1909999999998
  0
ARC
  5
B64
330
9E4
100
AcDbEntity
  8
1
  6
Continuous
100
AcDbCircle
 10
361.744924
 20
157.166077
 30
0.0
 40
1.3
100
AcDbArc
 50
259.809
 51
280.1909999999999
  0
CIRCLE
  5
B65
330
9E4
100
AcDbEntity
  8
1
  6
Continuous
100
AcDbCircle
 10
361.744924
 20
157.166077
 30
0.0
 40
2.6
  0
ARC
  5
B66
330
9E4
100
AcDbEntity
  8
1
  6
Continuous
100
AcDbCircle
 10
344.7449439999999
 20
157.166077
 30
0.0
 40
1.3
100
AcDbArc
 50
349.809
 51
10.1906
  0
ARC
  5
B67
330
9E4
100
AcDbEntity
  8
1
  6
Continuous
100
AcDbCircle
 10
344.7449439999999
 20
157.166077
 30
0.0
 40
1.3
100
AcDbArc
 50
79.80940000000003
 51
100.191
  0
ARC
  5
B68
330
9E4
100
AcDbEntity
  8
1
  6
Continuous
100
AcDbCircle
 10
344.7449439999999
 20
157.166077
 30
0.0
 40
1.3
100
AcDbArc
 50
169.809
 51
190.1909999999998
  0
ARC
  5
B69
330
9E4
100
AcDbEntity
  8
1
  6
Continuous
100
AcDbCircle
 10
344.7449439999999
 20
157.166077
 30
0.0
 40
1.3
100
AcDbArc
 50
259.809
 51
280.1909999999999
  0
CIRCLE
  5
B6A
330
9E4
100
AcDbEntity
  8
1
  6
Continuous
100
AcDbCircle
 10
344.7449439999999
 20
157.166077
 30
0.0
 40
2.6
  0
ARC
  5
B6B
330
9E4
100
AcDbEntity
  8
1
  6
Continuous
100
AcDbCircle
 10
24.38482399999999
 20
168.666077
 30
0.0
 40
1.0
100
AcDbArc
 50
90.0
 51
180.0
  0
ARC
  5
B6C
330
9E4
100
AcDbEntity
  8
1
  6
Continuous
100
AcDbCircle
 10
24.38482399999999
 20
135.6657769999999
 30
0.0
 40
1.0
100
AcDbArc
 50
180.0
 51
270.0
  0
ARC
  5
B6D
330
9E4
100
AcDbEntity
  8
1
  6
Continuous
100
AcDbCircle
 10
44.384824
 20
135.6657769999999
 30
0.0
 40
1.0
100
AcDbArc
 50
270.0
 51
0.0
  0
ARC
  5
B6E
330
9E4
100
AcDbEntity
  8
1
  6
Continuous
100
AcDbCircle
 10
44.384824
 20
168.666077
 30
0.0
 40
1.0
100
AcDbArc
 50
0.0
 51
90.0
  0
ARC
  5
B6F
330
9E4
100
AcDbEntity
  8
1
  6
Continuous
100
AcDbCircle
 10
182.0148239999998
 20
140.1657769999999
 30
0.0
 40
1.0
100
AcDbArc
 50
180.0
 51
270.0
  0
ARC
  5
B70
330
9E4
100
AcDbEntity
  8
5
  6
PHANTOM
100
AcDbCircle
 10
115.384824
 20
245.1661069999999
 30
0.0
 40
2.5
100
AcDbArc
 50
270.0
 51
0.0
  0
ARC
  5
B71
330
9E4
100
AcDbEntity
  8
5
  6
PHANTOM
100
AcDbCircle
 10
115.384824
 20
262.1660769999999
 30
0.0
 40
2.5
100
AcDbArc
 50
0.0
 51
90.0
  0
ARC
  5
B72
330
9E4
100
AcDbEntity
  8
1
  6
Continuous
100
AcDbCircle
 10
34.384824
 20
314.6660769999999
 30
0.0
 40
61.0
100
AcDbArc
 50
260.718
 51
279.2819999999999
  0
ARC
  5
B73
330
9E4
100
AcDbEntity
  8
1
  6
Continuous
100
AcDbCircle
 10
24.38482399999999
 20
253.4778769999999
 30
0.0
 40
1.0
100
AcDbArc
 50
80.71819999999998
 51
180.0
  0
ARC
  5
B74
330
9E4
100
AcDbEntity
  8
1
  6
Continuous
100
AcDbCircle
 10
44.384824
 20
253.4778769999999
 30
0.0
 40
1.0
100
AcDbArc
 50
0.0
 51
99.28180000000001
  0
ARC
  5
B75
330
9E4
100
AcDbEntity
  8
1
  6
Continuous
100
AcDbCircle
 10
111.441824
 20
253.666107
 30
0.0
 40
73.43909999999998
100
AcDbArc
 50
348.9309999999999
 51
11.06929999999998
  0
ARC
  5
B76
330
9E4
100
AcDbEntity
  8
5
  6
PHANTOM
100
AcDbCircle
 10
177.7098239999999
 20
171.914977
 30
0.0
 40
1.0
100
AcDbArc
 50
175.5339999999999
 51
268.9519999999999
  0
ARC
  5
B77
330
9E4
100
AcDbEntity
  8
1
  6
Continuous
100
AcDbCircle
 10
184.114824
 20
171.1660769999998
 30
0.0
 40
1.0
100
AcDbArc
 50
180.0
 51
233.130102
  0
ARC
  5
B78
330
9E4
100
AcDbEntity
  8
5
  6
PHANTOM
100
AcDbCircle
 10
138.341824
 20
191.593577
 30
0.0
 40
2.0
100
AcDbArc
 50
227.454
 51
315.0
  0
ARC
  5
B79
330
9E4
100
AcDbEntity
  8
5
  6
PHANTOM
100
AcDbCircle
 10
142.265824
 20
195.517477
 30
0.0
 40
2.0
100
AcDbArc
 50
315.0
 51
30.0
  0
ARC
  5
B7A
330
9E4
100
AcDbEntity
  8
5
  6
PHANTOM
100
AcDbCircle
 10
146.140824
 20
200.8062769999999
 30
0.0
 40
4.0
100
AcDbArc
 50
135.0
 51
210.0
  0
ARC
  5
B7B
330
9E4
100
AcDbEntity
  8
5
  6
PHANTOM
100
AcDbCircle
 10
127.6528239999999
 20
199.855277
 30
0.0
 40
1.0
100
AcDbArc
 50
135.0
 51
228.419
  0
ARC
  5
B7C
330
9E4
100
AcDbEntity
  8
1
  6
Continuous
100
AcDbCircle
 10
190.514824
 20
319.607777
 30
0.0
 40
1.0
100
AcDbArc
 50
270.0
 51
0.0
  0
ARC
  5
B7D
330
9E4
100
AcDbEntity
  8
1
  6
Continuous
100
AcDbCircle
 10
190.514824
 20
350.607777
 30
0.0
 40
1.0
100
AcDbArc
 50
0.0
 51
90.0
  0
ARC
  5
B7E
330
9E4
100
AcDbEntity
  8
1
  6
Continuous
100
AcDbCircle
 10
277.4278240000001
 20
348.607777
 30
0.0
 40
2.299999999999998
100
AcDbArc
 50
0.0
 51
90.0
  0
ARC
  5
B7F
330
9E4
100
AcDbEntity
  8
1
  6
Continuous
100
AcDbCircle
 10
277.4278240000001
 20
321.607777
 30
0.0
 40
2.299999999999998
100
AcDbArc
 50
270.0
 51
0.0
  0
ARC
  5
B80
330
9E4
100
AcDbEntity
  8
1
  6
Continuous
100
AcDbCircle
 10
276.227824
 20
319.3077769999998
 30
0.0
 40
2.299999999999998
100
AcDbArc
 50
90.0
 51
180.0
  0
ARC
  5
B81
330
9E4
100
AcDbEntity
  8
1
  6
Continuous
100
AcDbCircle
 10
276.227824
 20
350.907777
 30
0.0
 40
2.299999999999998
100
AcDbArc
 50
180.0
 51
270.0
  0
ARC
  5
B83
330
9E4
100
AcDbEntity
  8
1
  6
Continuous
100
AcDbCircle
 10
275.4778239999998
 20
221.666077
 30
0.0
 40
9.099999999999999
100
AcDbArc
 50
309.7149999999999
 51
50.2848
  0
CIRCLE
  5
B85
330
9E4
100
AcDbEntity
  8
1
  6
Continuous
100
AcDbCircle
 10
353.244924
 20
307.9279769999998
 30
0.0
 40
11.0
  0
CIRCLE
  5
B86
330
9E4
100
AcDbEntity
  8
1
  6
Continuous
100
AcDbCircle
 10
353.244924
 20
307.9279769999998
 30
0.0
 40
8.0
  0
ARC
  5
B87
330
9E4
100
AcDbEntity
  8
1
  6
Continuous
100
AcDbCircle
 10
353.244924
 20
307.9279769999998
 30
0.0
 40
3.149999999999999
100
AcDbArc
 50
341.2029999999999
 51
18.79739999999999
  0
ARC
  5
B88
330
9E4
100
AcDbEntity
  8
1
  6
Continuous
100
AcDbCircle
 10
353.244924
 20
307.9279769999998
 30
0.0
 40
3.149999999999999
100
AcDbArc
 50
71.2026
 51
108.797
  0
ARC
  5
B89
330
9E4
100
AcDbEntity
  8
1
  6
Continuous
100
AcDbCircle
 10
353.244924
 20
307.9279769999998
 30
0.0
 40
3.149999999999999
100
AcDbArc
 50
161.203
 51
198.7969999999999
  0
ARC
  5
B8A
330
9E4
100
AcDbEntity
  8
1
  6
Continuous
100
AcDbCircle
 10
353.244924
 20
307.9279769999998
 30
0.0
 40
3.149999999999999
100
AcDbArc
 50
251.203
 51
288.7970000000001
  0
CIRCLE
  5
B8B
330
9E4
100
AcDbEntity
  8
1
  6
Continuous
100
AcDbCircle
 10
353.244924
 20
307.9279769999998
 30
0.0
 40
7.0
  0
ARC
  5
B8C
330
9E4
100
AcDbEntity
  8
1
  6
Continuous
100
AcDbCircle
 10
23.784824
 20
256.7727169999999
 30
0.0
 40
0.5
100
AcDbArc
 50
90.0
 51
180.0
  0
ARC
  5
B8D
330
9E4
100
AcDbEntity
  8
1
  6
Continuous
100
AcDbCircle
 10
44.98482399999999
 20
256.7727169999999
 30
0.0
 40
0.5
100
AcDbArc
 50
0.0
 51
90.0
  0
ARC
  5
B8E
330
9E4
100
AcDbEntity
  8
1
  6
Continuous
100
AcDbCircle
 10
25.884824
 20
172.666077
 30
0.0
 40
2.5
100
AcDbArc
 50
180.0
 51
270.0
  0
ARC
  5
B8F
330
9E4
100
AcDbEntity
  8
1
  6
Continuous
100
AcDbCircle
 10
42.884824
 20
172.666077
 30
0.0
 40
2.5
100
AcDbArc
 50
270.0
 51
0.0
  0
ARC
  5
B90
330
9E4
100
AcDbEntity
  8
1
  6
Continuous
100
AcDbCircle
 10
190.514824
 20
140.6657769999999
 30
0.0
 40
1.0
100
AcDbArc
 50
270.0
 51
0.0
  0
ARC
  5
B91
330
9E4
100
AcDbEntity
  8
1
  6
Continuous
100
AcDbCircle
 10
190.514824
 20
170.666077
 30
0.0
 40
1.0
100
AcDbArc
 50
0.0
 51
90.0
  0
LINE
  5
B92
330
9E4
100
AcDbEntity
  8
1
  6
Continuous
100
AcDbLine
 10
202.014824
 20
262.369677
 30
0.0
 11
202.014824
 21
240.6661069999999
 31
0.0
  0
LINE
  5
B93
330
9E4
100
AcDbEntity
  8
1
  6
Continuous
100
AcDbLine
 10
204.014824
 20
246.5950439999998
 30
0.0
 11
207.0148239999999
 21
246.5950439999998
 31
0.0
  0
LINE
  5
B94
330
9E4
100
AcDbEntity
  8
1
  6
Continuous
100
AcDbLine
 10
204.014824
 20
260.7371769999999
 30
0.0
 11
207.0148239999999
 21
260.7371769999999
 31
0.0
  0
LINE
  5
B95
330
9E4
100
AcDbEntity
  8
2
  6
Continuous
100
AcDbLine
 10
204.014824
 20
257.8255599999998
 30
0.0
 11
207.0148239999999
 21
253.666107
 31
0.0
  0
LINE
  5
B96
330
9E4
100
AcDbEntity
  8
2
  6
Continuous
100
AcDbLine
 10
207.0148239999999
 20
253.666107
 30
0.0
 11
204.014824
 21
249.506658
 31
0.0
  0
LINE
  5
B97
330
9E4
100
AcDbEntity
  8
2
  6
Continuous
100
AcDbLine
 10
204.014824
 20
250.754493
 30
0.0
 11
207.0148239999999
 21
246.5950439999998
 31
0.0
  0
LINE
  5
B98
330
9E4
100
AcDbEntity
  8
2
  6
Continuous
100
AcDbLine
 10
207.0148239999999
 20
260.7371769999999
 30
0.0
 11
204.014824
 21
256.577724
 31
0.0
  0
LINE
  5
B99
330
9E4
100
AcDbEntity
  8
1
  6
Continuous
100
AcDbLine
 10
202.014824
 20
348.107777
 30
0.0
 11
202.014824
 21
342.107777
 31
0.0
  0
LINE
  5
B9A
330
9E4
100
AcDbEntity
  8
1
  6
Continuous
100
AcDbLine
 10
202.014824
 20
328.107777
 30
0.0
 11
202.014824
 21
323.849377
 31
0.0
  0
LINE
  5
B9B
330
9E4
100
AcDbEntity
  8
2
  6
Continuous
100
AcDbLine
 10
207.0148239999999
 20
342.178847
 30
0.0
 11
204.014824
 21
338.0193939999998
 31
0.0
  0
LINE
  5
B9C
330
9E4
100
AcDbEntity
  8
2
  6
Continuous
100
AcDbLine
 10
204.014824
 20
339.26723
 30
0.0
 11
207.0148239999999
 21
335.1077769999998
 31
0.0
  0
LINE
  5
B9D
330
9E4
100
AcDbEntity
  8
2
  6
Continuous
100
AcDbLine
 10
207.0148239999999
 20
335.1077769999998
 30
0.0
 11
204.014824
 21
330.948328
 31
0.0
  0
LINE
  5
B9E
330
9E4
100
AcDbEntity
  8
2
  6
Continuous
100
AcDbLine
 10
204.014824
 20
332.196163
 30
0.0
 11
207.0148239999999
 21
328.036714
 31
0.0
  0
ARC
  5
B9F
330
9E4
100
AcDbEntity
  8
1
  6
Continuous
100
AcDbCircle
 10
333.114824
 20
335.1077769999998
 30
0.0
 40
150.0
100
AcDbArc
 50
175.851983
 51
184.1480169999999
  0
LINE
  5
BA0
330
9E4
100
AcDbEntity
  8
1
  6
Continuous
100
AcDbLine
 10
183.5077469999999
 20
345.957777
 30
0.0
 11
183.514824
 21
345.957777
 31
0.0
  0
LINE
  5
BA1
330
9E4
100
AcDbEntity
  8
1
  6
Continuous
100
AcDbLine
 10
183.5077469999999
 20
324.257777
 30
0.0
 11
183.514824
 21
324.257777
 31
0.0
  0
LINE
  5
BA2
330
9E4
100
AcDbEntity
  8
1
  6
Continuous
100
AcDbLine
 10
195.014824
 20
232.7103069999997
 30
0.0
 11
200.2219289999999
 21
237.917373
 31
0.0
  0
LINE
  5
BA3
330
9E4
100
AcDbEntity
  8
1
  6
Continuous
100
AcDbLine
 10
200.514824
 20
269.1660769999999
 30
0.0
 11
200.514824
 21
238.6244819999999
 31
0.0
  0
LINE
  5
BA4
330
9E4
100
AcDbEntity
  8
1
  6
Continuous
100
AcDbLine
 10
339.8449240000001
 20
140.6657769999999
 30
0.0
 11
339.8449240000001
 21
186.166077
 31
0.0
  0
LINE
  5
BA5
330
9E4
100
AcDbEntity
  8
1
  6
Continuous
100
AcDbLine
 10
366.6449239999999
 20
140.6657769999999
 30
0.0
 11
366.6449239999999
 21
186.166077
 31
0.0
  0
ARC
  5
BA6
330
9E4
100
AcDbEntity
  8
1
  6
Continuous
100
AcDbCircle
 10
353.244924
 20
247.5529369999999
 30
0.0
 40
14.8427
100
AcDbArc
 50
205.4709999999999
 51
334.5289999999998
  0
ARC
  5
BA7
330
9E4
100
AcDbEntity
  8
1
  6
Continuous
100
AcDbCircle
 10
199.5148239999998
 20
238.6244819999999
 30
0.0
 40
1.0
100
AcDbArc
 50
314.999792
 51
0.0
  0
LINE
  5
BA8
330
9E4
100
AcDbEntity
  8
1
  6
Continuous
100
AcDbLine
 10
200.514824
 20
244.0386119999998
 30
0.0
 11
189.514824
 21
244.0386119999998
 31
0.0
  0
LINE
  5
BA9
330
9E4
100
AcDbEntity
  8
1
  6
Continuous
100
AcDbLine
 10
200.914824
 20
241.6161069999998
 30
0.0
 11
200.514824
 21
241.6161069999998
 31
0.0
  0
ARC
  5
BAA
330
9E4
100
AcDbEntity
  8
1
  6
Continuous
100
AcDbCircle
 10
200.914824
 20
242.6161069999998
 30
0.0
 40
1.0
100
AcDbArc
 50
270.0
 51
0.0
  0
ARC
  5
BAB
330
9E4
100
AcDbEntity
  8
1
  6
Continuous
100
AcDbCircle
 10
199.5148239999998
 20
269.1660769999999
 30
0.0
 40
1.0
100
AcDbArc
 50
0.0
 51
90.0
  0
LINE
  5
BAC
330
9E4
100
AcDbEntity
  8
1
  6
Continuous
100
AcDbLine
 10
200.914824
 20
264.1017129999997
 30
0.0
 11
200.514824
 21
264.1017129999997
 31
0.0
  0
ARC
  5
BAD
330
9E4
100
AcDbEntity
  8
1
  6
Continuous
100
AcDbCircle
 10
200.914824
 20
263.1017129999999
 30
0.0
 40
1.0
100
AcDbArc
 50
0.0
 51
90.0
  0
LINE
  5
BAE
330
9E4
100
AcDbEntity
  8
1
  6
Continuous
100
AcDbLine
 10
366.6449239999999
 20
236.1660769999998
 30
0.0
 11
366.6449239999999
 21
244.038558
 31
0.0
  0
LINE
  5
BAF
330
9E4
100
AcDbEntity
  8
1
  6
Continuous
100
AcDbLine
 10
339.8449240000001
 20
236.1660769999998
 30
0.0
 11
339.8449240000001
 21
244.038558
 31
0.0
  0
ARC
  5
BB0
330
9E4
100
AcDbEntity
  8
1
  6
Continuous
100
AcDbCircle
 10
340.8449239999999
 20
184.6660769999997
 30
0.0
 40
1.0
100
AcDbArc
 50
90.0
 51
180.0
  0
ARC
  5
BB1
330
9E4
100
AcDbEntity
  8
1
  6
Continuous
100
AcDbCircle
 10
365.644924
 20
184.6660769999997
 30
0.0
 40
1.0
100
AcDbArc
 50
0.0
 51
90.0
  0
ARC
  5
BB2
330
9E4
100
AcDbEntity
  8
1
  6
Continuous
100
AcDbCircle
 10
340.8449239999999
 20
170.666077
 30
0.0
 40
1.0
100
AcDbArc
 50
90.0
 51
180.0
  0
ARC
  5
BB3
330
9E4
100
AcDbEntity
  8
1
  6
Continuous
100
AcDbCircle
 10
365.644924
 20
170.666077
 30
0.0
 40
1.0
100
AcDbArc
 50
0.0
 51
90.0
  0
ARC
  5
BB4
330
9E4
100
AcDbEntity
  8
1
  6
Continuous
100
AcDbCircle
 10
365.644924
 20
140.6657769999999
 30
0.0
 40
1.0
100
AcDbArc
 50
311.4181699999999
 51
0.0
  0
ARC
  5
BB5
330
9E4
100
AcDbEntity
  8
1
  6
Continuous
100
AcDbCircle
 10
340.8449239999999
 20
140.6657769999999
 30
0.0
 40
1.0
100
AcDbArc
 50
180.0
 51
228.5809229999999
  0
LINE
  5
BB6
330
9E4
100
AcDbEntity
  8
1
  6
Continuous
100
AcDbLine
 10
200.514824
 20
348.5077769999999
 30
0.0
 11
208.514824
 21
348.5077769999999
 31
0.0
  0
LINE
  5
BB7
330
9E4
100
AcDbEntity
  8
1
  6
Continuous
100
AcDbLine
 10
200.514824
 20
321.707777
 30
0.0
 11
208.514824
 21
321.707777
 31
0.0
  0
ARC
  5
BB8
330
9E4
100
AcDbEntity
  8
1
  6
Continuous
100
AcDbCircle
 10
208.514824
 20
347.5077769999999
 30
0.0
 40
1.0
100
AcDbArc
 50
0.0
 51
90.0
  0
ARC
  5
BB9
330
9E4
100
AcDbEntity
  8
1
  6
Continuous
100
AcDbCircle
 10
208.514824
 20
322.707777
 30
0.0
 40
1.0
100
AcDbArc
 50
270.0
 51
0.0
  0
LINE
  5
BBA
330
9E4
100
AcDbEntity
  8
1
  6
Continuous
100
AcDbLine
 10
200.514824
 20
350.607777
 30
0.0
 11
200.514824
 21
319.607777
 31
0.0
  0
ARC
  5
BBB
330
9E4
100
AcDbEntity
  8
1
  6
Continuous
100
AcDbCircle
 10
199.5148239999998
 20
350.607777
 30
0.0
 40
1.0
100
AcDbArc
 50
0.0
 51
90.0
  0
ARC
  5
BBC
330
9E4
100
AcDbEntity
  8
1
  6
Continuous
100
AcDbCircle
 10
199.5148239999998
 20
319.607777
 30
0.0
 40
1.0
100
AcDbArc
 50
270.0
 51
0.0
  0
LINE
  5
BBD
330
9E4
100
AcDbEntity
  8
1
  6
Continuous
100
AcDbLine
 10
201.914824
 20
328.107777
 30
0.0
 11
201.914824
 21
324.0577769999998
 31
0.0
  0
LINE
  5
BBE
330
9E4
100
AcDbEntity
  8
1
  6
Continuous
100
AcDbLine
 10
200.514824
 20
347.157777
 30
0.0
 11
200.914824
 21
347.157777
 31
0.0
  0
LINE
  5
BBF
330
9E4
100
AcDbEntity
  8
1
  6
Continuous
100
AcDbLine
 10
200.514824
 20
323.057777
 30
0.0
 11
200.914824
 21
323.057777
 31
0.0
  0
ARC
  5
BC0
330
9E4
100
AcDbEntity
  8
1
  6
Continuous
100
AcDbCircle
 10
200.914824
 20
324.0577769999998
 30
0.0
 40
1.0
100
AcDbArc
 50
270.0
 51
0.0
  0
ARC
  5
BC1
330
9E4
100
AcDbEntity
  8
1
  6
Continuous
100
AcDbCircle
 10
200.914824
 20
346.157777
 30
0.0
 40
1.0
100
AcDbArc
 50
0.0
 51
90.0
  0
CIRCLE
  5
BC2
330
9E4
100
AcDbEntity
  8
1
  6
Continuous
100
AcDbCircle
 10
353.244924
 20
253.666107
 30
0.0
 40
16.5
  0
LINE
  5
BC3
330
9E4
100
AcDbEntity
  8
1
  6
Continuous
100
AcDbLine
 10
195.014824
 20
241.169697
 30
0.0
 11
200.514824
 21
244.0386119999998
 31
0.0
  0
LINE
  5
BC4
330
9E4
100
AcDbEntity
  8
1
  6
Continuous
100
AcDbLine
 10
511.475024
 20
241.169697
 30
0.0
 11
505.975024
 21
244.0386119999998
 31
0.0
  0
LINE
  5
BC5
330
9E4
100
AcDbEntity
  8
1
  6
Continuous
100
AcDbLine
 10
505.975024
 20
244.0386119999998
 30
0.0
 11
516.9750239999998
 21
244.0386119999998
 31
0.0
  0
LINE
  5
BC6
330
9E4
100
AcDbEntity
  8
1
  6
Continuous
100
AcDbLine
 10
511.475024
 20
232.7103069999997
 30
0.0
 11
506.2679189999998
 21
237.917373
 31
0.0
  0
ARC
  5
BC7
330
9E4
100
AcDbEntity
  8
1
  6
Continuous
100
AcDbCircle
 10
510.475024
 20
186.666077
 30
0.0
 40
1.0
100
AcDbArc
 50
270.0
 51
0.0
  0
LINE
  5
BC8
330
9E4
100
AcDbEntity
  8
4
  6
CENTER
100
AcDbLine
 10
516.208024
 20
193.6660769999997
 30
0.0
 11
506.184024
 21
193.6660769999997
 31
0.0
  0
LINE
  5
BC9
330
9E4
100
AcDbEntity
  8
4
  6
CENTER
100
AcDbLine
 10
515.7530239999998
 20
221.666077
 30
0.0
 11
506.412024
 21
221.666077
 31
0.0
  0
LINE
  5
BCA
330
9E4
100
AcDbEntity
  8
1
  6
Continuous
100
AcDbLine
 10
514.9750240000002
 20
270.1660769999999
 30
0.0
 11
506.975024
 21
270.1660769999999
 31
0.0
  0
LINE
  5
BCB
330
9E4
100
AcDbEntity
  8
4
  6
CENTER
100
AcDbLine
 10
528.074024
 20
253.666107
 30
0.0
 11
497.234024
 21
253.666107
 31
0.0
  0
LINE
  5
BCC
330
9E4
100
AcDbEntity
  8
1
  6
Continuous
100
AcDbLine
 10
516.9750239999998
 20
139.665777
 30
0.0
 11
497.975024
 21
139.665777
 31
0.0
  0
LINE
  5
BCD
330
9E4
100
AcDbEntity
  8
1
  6
Continuous
100
AcDbLine
 10
516.9750239999998
 20
276.6660769999999
 30
0.0
 11
516.9750239999998
 21
134.6657769999999
 31
0.0
  0
LINE
  5
BCE
330
9E4
100
AcDbEntity
  8
5
  6
PHANTOM
100
AcDbLine
 10
522.9750239999998
 20
243.83721
 30
0.0
 11
563.1780240000002
 21
203.634777
 31
0.0
  0
LINE
  5
BCF
330
9E4
100
AcDbEntity
  8
5
  6
PHANTOM
100
AcDbLine
 10
522.9750239999998
 20
257.1310829999998
 30
0.0
 11
579.544024
 21
200.562377
 31
0.0
  0
LINE
  5
BD0
330
9E4
100
AcDbEntity
  8
1
  6
Continuous
100
AcDbLine
 10
523.375024
 20
254.751397
 30
0.0
 11
523.375024
 21
171.1660769999998
 31
0.0
  0
LINE
  5
BD1
330
9E4
100
AcDbEntity
  8
5
  6
PHANTOM
100
AcDbLine
 10
523.2680239999998
 20
255.3243569999999
 30
0.0
 11
529.777024
 21
171.9928769999999
 31
0.0
  0
LINE
  5
BD2
330
9E4
100
AcDbEntity
  8
1
  6
Continuous
100
AcDbLine
 10
522.9750239999998
 20
272.1660769999999
 30
0.0
 11
522.9750239999998
 21
139.1657769999999
 31
0.0
  0
LINE
  5
BD3
330
9E4
100
AcDbEntity
  8
1
  6
Continuous
100
AcDbLine
 10
511.475024
 20
241.169697
 30
0.0
 11
511.475024
 21
186.666077
 31
0.0
  0
LINE
  5
BD4
330
9E4
100
AcDbEntity
  8
1
  6
Continuous
100
AcDbLine
 10
517.9750239999998
 20
276.6660769999999
 30
0.0
 11
517.9750239999998
 21
134.6657769999999
 31
0.0
  0
LINE
  5
BD5
330
9E4
100
AcDbEntity
  8
1
  6
Continuous
100
AcDbLine
 10
520.475024
 20
276.6660769999999
 30
0.0
 11
520.475024
 21
134.6657769999999
 31
0.0
  0
LINE
  5
BD6
330
9E4
100
AcDbEntity
  8
1
  6
Continuous
100
AcDbLine
 10
514.9750240000002
 20
170.666077
 30
0.0
 11
514.9750240000002
 21
140.6657769999999
 31
0.0
  0
LINE
  5
BD7
330
9E4
100
AcDbEntity
  8
1
  6
Continuous
100
AcDbLine
 10
522.9750239999998
 20
150.3004769999997
 30
0.0
 11
525.4750239999999
 21
140.1657769999999
 31
0.0
  0
LINE
  5
BD8
330
9E4
100
AcDbEntity
  8
1
  6
Continuous
100
AcDbLine
 10
520.475024
 20
134.6657769999999
 30
0.0
 11
516.9750239999998
 21
134.6657769999999
 31
0.0
  0
LINE
  5
BD9
330
9E4
100
AcDbEntity
  8
1
  6
Continuous
100
AcDbLine
 10
522.9750239999998
 20
139.1657769999999
 30
0.0
 11
520.475024
 21
134.6657769999999
 31
0.0
  0
ARC
  5
BDA
330
9E4
100
AcDbEntity
  8
1
  6
Continuous
100
AcDbCircle
 10
524.4750240000001
 20
140.1657769999999
 30
0.0
 40
1.0
100
AcDbArc
 50
270.0
 51
0.0
  0
LINE
  5
BDB
330
9E4
100
AcDbEntity
  8
1
  6
Continuous
100
AcDbLine
 10
524.4750240000001
 20
139.1657769999999
 30
0.0
 11
522.9750239999998
 21
139.1657769999999
 31
0.0
  0
ARC
  5
BDC
330
9E4
100
AcDbEntity
  8
1
  6
Continuous
100
AcDbCircle
 10
515.9750240000001
 20
140.6657769999999
 30
0.0
 40
1.0
100
AcDbArc
 50
180.0
 51
270.0
  0
LINE
  5
BDD
330
9E4
100
AcDbEntity
  8
5
  6
PHANTOM
100
AcDbLine
 10
573.2500240000002
 20
193.5620769999999
 30
0.0
 11
569.5000240000001
 21
190.120077
 31
0.0
  0
LINE
  5
BDE
330
9E4
100
AcDbEntity
  8
5
  6
PHANTOM
100
AcDbLine
 10
522.9750239999998
 20
170.808705
 30
0.0
 11
528.798024
 21
170.915177
 31
0.0
  0
ARC
  5
BDF
330
9E4
100
AcDbEntity
  8
5
  6
PHANTOM
100
AcDbCircle
 10
528.780024
 20
171.914977
 30
0.0
 40
1.0
100
AcDbArc
 50
271.048
 51
4.466
  0
ARC
  5
BE0
330
9E4
100
AcDbEntity
  8
1
  6
Continuous
100
AcDbCircle
 10
522.375024
 20
171.1660769999998
 30
0.0
 40
1.0
100
AcDbArc
 50
306.8698979999999
 51
0.0
  0
ARC
  5
BE1
330
9E4
100
AcDbEntity
  8
1
  6
Continuous
100
AcDbCircle
 10
515.9750240000001
 20
170.666077
 30
0.0
 40
1.0
100
AcDbArc
 50
90.0
 51
180.0
  0
LINE
  5
BE2
330
9E4
100
AcDbEntity
  8
1
  6
Continuous
100
AcDbLine
 10
516.9750239999998
 20
171.666077
 30
0.0
 11
515.9750240000001
 21
171.666077
 31
0.0
  0
LINE
  5
BE3
330
9E4
100
AcDbEntity
  8
5
  6
PHANTOM
100
AcDbLine
 10
563.813024
 20
198.8062769999999
 30
0.0
 11
562.492024
 21
196.517477
 31
0.0
  0
LINE
  5
BE4
330
9E4
100
AcDbEntity
  8
5
  6
PHANTOM
100
AcDbLine
 10
562.810024
 20
194.103177
 30
0.0
 11
566.7340239999997
 21
190.179277
 31
0.0
  0
ARC
  5
BE5
330
9E4
100
AcDbEntity
  8
5
  6
PHANTOM
100
AcDbCircle
 10
568.1480239999997
 20
191.593577
 30
0.0
 40
2.0
100
AcDbArc
 50
225.0
 51
312.5459999999999
  0
ARC
  5
BE6
330
9E4
100
AcDbEntity
  8
5
  6
PHANTOM
100
AcDbCircle
 10
564.2240239999997
 20
195.517477
 30
0.0
 40
2.0
100
AcDbArc
 50
150.0
 51
225.0
  0
ARC
  5
BE7
330
9E4
100
AcDbEntity
  8
5
  6
PHANTOM
100
AcDbCircle
 10
560.349024
 20
200.8062769999999
 30
0.0
 40
4.0
100
AcDbArc
 50
330.0
 51
45.0
  0
ARC
  5
BE8
330
9E4
100
AcDbEntity
  8
1
  6
Continuous
100
AcDbCircle
 10
595.0480240000001
 20
253.666107
 30
0.0
 40
73.43909999999998
100
AcDbArc
 50
168.9307
 51
191.0689999999999
  0
LINE
  5
BE9
330
9E4
100
AcDbEntity
  8
1
  6
Continuous
100
AcDbLine
 10
514.9750240000002
 20
270.1660769999999
 30
0.0
 11
514.9750240000002
 21
253.666107
 31
0.0
  0
LINE
  5
BEA
330
9E4
100
AcDbEntity
  8
1
  6
Continuous
100
AcDbLine
 10
523.375024
 20
254.7513869999999
 30
0.0
 11
522.9750239999998
 21
255.151435
 31
0.0
  0
LINE
  5
BEB
330
9E4
100
AcDbEntity
  8
5
  6
PHANTOM
100
AcDbLine
 10
523.2680239999998
 20
255.3243569999999
 30
0.0
 11
522.9750239999998
 21
255.574835
 31
0.0
  0
ARC
  5
BEC
330
9E4
100
AcDbEntity
  8
1
  6
Continuous
100
AcDbCircle
 10
515.9750240000001
 20
270.6660769999999
 30
0.0
 40
1.0
100
AcDbArc
 50
90.0
 51
180.0
  0
LINE
  5
BED
330
9E4
100
AcDbEntity
  8
1
  6
Continuous
100
AcDbLine
 10
514.9750240000002
 20
270.6660769999999
 30
0.0
 11
514.9750240000002
 21
270.1660769999999
 31
0.0
  0
LINE
  5
BEE
330
9E4
100
AcDbEntity
  8
1
  6
Continuous
100
AcDbLine
 10
516.9750239999998
 20
271.6660769999999
 30
0.0
 11
515.9750240000001
 21
271.6660769999999
 31
0.0
  0
LINE
  5
BEF
330
9E4
100
AcDbEntity
  8
1
  6
Continuous
100
AcDbLine
 10
520.475024
 20
276.6660769999999
 30
0.0
 11
516.9750239999998
 21
276.6660769999999
 31
0.0
  0
LINE
  5
BF0
330
9E4
100
AcDbEntity
  8
1
  6
Continuous
100
AcDbLine
 10
520.475024
 20
276.6660769999999
 30
0.0
 11
522.9750239999998
 21
272.1660769999999
 31
0.0
  0
LINE
  5
BF1
330
9E4
100
AcDbEntity
  8
1
  6
Continuous
100
AcDbLine
 10
426.762024
 20
236.1660769999998
 30
0.0
 11
426.762024
 21
186.166077
 31
0.0
  0
LINE
  5
BF2
330
9E4
100
AcDbEntity
  8
1
  6
Continuous
100
AcDbLine
 10
430.262024
 20
236.1660769999998
 30
0.0
 11
430.262024
 21
186.166077
 31
0.0
  0
LINE
  5
BF3
330
9E4
100
AcDbEntity
  8
1
  6
Continuous
100
AcDbLine
 10
432.562024
 20
236.1660769999998
 30
0.0
 11
432.562024
 21
186.166077
 31
0.0
  0
LINE
  5
BF4
330
9E4
100
AcDbEntity
  8
1
  6
Continuous
100
AcDbLine
 10
496.975024
 20
170.666077
 30
0.0
 11
496.975024
 21
140.6657769999999
 31
0.0
  0
ARC
  5
BF5
330
9E4
100
AcDbEntity
  8
1
  6
Continuous
100
AcDbCircle
 10
497.975024
 20
140.6657769999999
 30
0.0
 40
1.0
100
AcDbArc
 50
180.0
 51
270.0
  0
LINE
  5
BF6
330
9E4
100
AcDbEntity
  8
1
  6
Continuous
100
AcDbLine
 10
504.975024
 20
184.6660769999997
 30
0.0
 11
504.975024
 21
172.666077
 31
0.0
  0
LINE
  5
BF7
330
9E4
100
AcDbEntity
  8
1
  6
Continuous
100
AcDbLine
 10
503.975024
 20
171.666077
 30
0.0
 11
497.975024
 21
171.666077
 31
0.0
  0
ARC
  5
BF8
330
9E4
100
AcDbEntity
  8
1
  6
Continuous
100
AcDbCircle
 10
503.975024
 20
172.666077
 30
0.0
 40
1.0
100
AcDbArc
 50
270.0
 51
0.0
  0
ARC
  5
BF9
330
9E4
100
AcDbEntity
  8
1
  6
Continuous
100
AcDbCircle
 10
497.975024
 20
170.666077
 30
0.0
 40
1.0
100
AcDbArc
 50
90.0
 51
180.0
  0
LINE
  5
BFA
330
9E4
100
AcDbEntity
  8
1
  6
Continuous
100
AcDbLine
 10
510.475024
 20
185.6660769999997
 30
0.0
 11
505.975024
 21
185.6660769999997
 31
0.0
  0
ARC
  5
BFB
330
9E4
100
AcDbEntity
  8
1
  6
Continuous
100
AcDbCircle
 10
505.975024
 20
184.6660769999997
 30
0.0
 40
1.0
100
AcDbArc
 50
90.0
 51
180.0
  0
ARC
  5
BFC
330
9E4
100
AcDbEntity
  8
1
  6
Continuous
100
AcDbCircle
 10
431.0120239999998
 20
193.6660769999997
 30
0.0
 40
9.099999999999999
100
AcDbArc
 50
129.7152
 51
230.2849999999998
  0
LINE
  5
BFD
330
9E4
100
AcDbEntity
  8
1
  6
Continuous
100
AcDbLine
 10
425.1973239999998
 20
200.6660769999998
 30
0.0
 11
425.1973239999998
 21
186.666077
 31
0.0
  0
LINE
  5
BFE
330
9E4
100
AcDbEntity
  8
1
  6
Continuous
100
AcDbLine
 10
425.612024
 20
200.6660769999998
 30
0.0
 11
425.612024
 21
186.666077
 31
0.0
  0
LINE
  5
BFF
330
9E4
100
AcDbEntity
  8
1
  6
Continuous
100
AcDbLine
 10
432.562024
 20
186.166077
 30
0.0
 11
426.762024
 21
186.166077
 31
0.0
  0
LINE
  5
C00
330
9E4
100
AcDbEntity
  8
1
  6
Continuous
100
AcDbLine
 10
425.1973239999998
 20
186.666077
 30
0.0
 11
425.612024
 21
186.666077
 31
0.0
  0
LINE
  5
C01
330
9E4
100
AcDbEntity
  8
4
  6
CENTER
100
AcDbLine
 10
419.9850239999998
 20
193.6660769999997
 30
0.0
 11
435.785624
 21
193.6660769999997
 31
0.0
  0
LINE
  5
C02
330
9E4
100
AcDbEntity
  8
1
  6
Continuous
100
AcDbLine
 10
425.612024
 20
187.4160769999997
 30
0.0
 11
426.762024
 21
187.4160769999997
 31
0.0
  0
LINE
  5
C03
330
9E4
100
AcDbEntity
  8
1
  6
Continuous
100
AcDbLine
 10
425.612024
 20
199.9160769999997
 30
0.0
 11
426.762024
 21
199.9160769999997
 31
0.0
  0
LINE
  5
C04
330
9E4
100
AcDbEntity
  8
1
  6
Continuous
100
AcDbLine
 10
425.1973239999998
 20
200.6660769999998
 30
0.0
 11
425.612024
 21
200.6660769999998
 31
0.0
  0
LINE
  5
C05
330
9E4
100
AcDbEntity
  8
4
  6
CENTER
100
AcDbLine
 10
419.9850239999998
 20
221.666077
 30
0.0
 11
435.785624
 21
221.666077
 31
0.0
  0
ARC
  5
C06
330
9E4
100
AcDbEntity
  8
1
  6
Continuous
100
AcDbCircle
 10
431.0120239999998
 20
221.666077
 30
0.0
 40
9.099999999999999
100
AcDbArc
 50
129.7152
 51
230.2849999999998
  0
LINE
  5
C07
330
9E4
100
AcDbEntity
  8
1
  6
Continuous
100
AcDbLine
 10
425.1973239999998
 20
228.666077
 30
0.0
 11
425.1973239999998
 21
214.6660769999999
 31
0.0
  0
LINE
  5
C08
330
9E4
100
AcDbEntity
  8
1
  6
Continuous
100
AcDbLine
 10
425.612024
 20
228.666077
 30
0.0
 11
425.612024
 21
214.6660769999999
 31
0.0
  0
LINE
  5
C09
330
9E4
100
AcDbEntity
  8
1
  6
Continuous
100
AcDbLine
 10
425.612024
 20
215.416077
 30
0.0
 11
426.762024
 21
215.416077
 31
0.0
  0
LINE
  5
C0A
330
9E4
100
AcDbEntity
  8
1
  6
Continuous
100
AcDbLine
 10
425.1973239999998
 20
214.6660769999999
 30
0.0
 11
425.612024
 21
214.6660769999999
 31
0.0
  0
LINE
  5
C0B
330
9E4
100
AcDbEntity
  8
1
  6
Continuous
100
AcDbLine
 10
425.612024
 20
227.916077
 30
0.0
 11
426.762024
 21
227.916077
 31
0.0
  0
LINE
  5
C0C
330
9E4
100
AcDbEntity
  8
1
  6
Continuous
100
AcDbLine
 10
425.1973239999998
 20
228.666077
 30
0.0
 11
425.612024
 21
228.666077
 31
0.0
  0
LINE
  5
C0E
330
9E4
100
AcDbEntity
  8
1
  6
Continuous
100
AcDbLine
 10
505.975024
 20
269.1660769999999
 30
0.0
 11
505.975024
 21
238.6244819999999
 31
0.0
  0
LINE
  5
C0F
330
9E4
100
AcDbEntity
  8
2
  6
Continuous
100
AcDbLine
 10
502.475024
 20
250.754493
 30
0.0
 11
499.475024
 21
246.5950439999998
 31
0.0
  0
LINE
  5
C10
330
9E4
100
AcDbEntity
  8
2
  6
Continuous
100
AcDbLine
 10
499.475024
 20
253.666107
 30
0.0
 11
502.475024
 21
249.506658
 31
0.0
  0
LINE
  5
C11
330
9E4
100
AcDbEntity
  8
1
  6
Continuous
100
AcDbLine
 10
504.4750239999998
 20
264.924437
 30
0.0
 11
504.4750239999998
 21
240.6661069999999
 31
0.0
  0
LINE
  5
C12
330
9E4
100
AcDbEntity
  8
1
  6
Continuous
100
AcDbLine
 10
499.475024
 20
260.7371769999999
 30
0.0
 11
499.475024
 21
246.5950439999998
 31
0.0
  0
LINE
  5
C13
330
9E4
100
AcDbEntity
  8
1
  6
Continuous
100
AcDbLine
 10
502.475024
 20
264.924437
 30
0.0
 11
502.475024
 21
240.6661069999999
 31
0.0
  0
LINE
  5
C14
330
9E4
100
AcDbEntity
  8
1
  6
Continuous
100
AcDbLine
 10
504.575024
 20
263.1017129999999
 30
0.0
 11
504.575024
 21
242.6161069999998
 31
0.0
  0
ARC
  5
C15
330
9E4
100
AcDbEntity
  8
1
  6
Continuous
100
AcDbCircle
 10
506.975024
 20
238.6244819999999
 30
0.0
 40
1.0
100
AcDbArc
 50
180.0
 51
225.0002079999999
  0
LINE
  5
C16
330
9E4
100
AcDbEntity
  8
1
  6
Continuous
100
AcDbLine
 10
504.4750239999998
 20
240.6661069999999
 30
0.0
 11
502.475024
 21
240.6661069999999
 31
0.0
  0
ARC
  5
C17
330
9E4
100
AcDbEntity
  8
1
  6
Continuous
100
AcDbCircle
 10
505.575024
 20
242.6161069999998
 30
0.0
 40
1.0
100
AcDbArc
 50
180.0
 51
270.0
  0
LINE
  5
C18
330
9E4
100
AcDbEntity
  8
1
  6
Continuous
100
AcDbLine
 10
505.575024
 20
241.6161069999998
 30
0.0
 11
505.975024
 21
241.6161069999998
 31
0.0
  0
LINE
  5
C19
330
9E4
100
AcDbEntity
  8
1
  6
Continuous
100
AcDbLine
 10
504.575024
 20
246.5950439999998
 30
0.0
 11
504.4750239999998
 21
246.5950439999998
 31
0.0
  0
LINE
  5
C1A
330
9E4
100
AcDbEntity
  8
1
  6
Continuous
100
AcDbLine
 10
502.475024
 20
246.5950439999998
 30
0.0
 11
499.475024
 21
246.5950439999998
 31
0.0
  0
LINE
  5
C1B
330
9E4
100
AcDbEntity
  8
1
  6
Continuous
100
AcDbLine
 10
504.575024
 20
260.7371769999999
 30
0.0
 11
504.4750239999998
 21
260.7371769999999
 31
0.0
  0
LINE
  5
C1C
330
9E4
100
AcDbEntity
  8
2
  6
Continuous
100
AcDbLine
 10
502.475024
 20
257.8255599999998
 30
0.0
 11
499.475024
 21
253.666107
 31
0.0
  0
LINE
  5
C1D
330
9E4
100
AcDbEntity
  8
1
  6
Continuous
100
AcDbLine
 10
502.475024
 20
253.666107
 30
0.0
 11
499.475024
 21
253.666107
 31
0.0
  0
LINE
  5
C1E
330
9E4
100
AcDbEntity
  8
2
  6
Continuous
100
AcDbLine
 10
499.475024
 20
260.7371769999999
 30
0.0
 11
502.475024
 21
256.577724
 31
0.0
  0
LINE
  5
C1F
330
9E4
100
AcDbEntity
  8
1
  6
Continuous
100
AcDbLine
 10
502.475024
 20
260.7371769999999
 30
0.0
 11
499.475024
 21
260.7371769999999
 31
0.0
  0
LINE
  5
C20
330
9E4
100
AcDbEntity
  8
1
  6
Continuous
100
AcDbLine
 10
504.575024
 20
262.369677
 30
0.0
 11
504.4750239999998
 21
262.369677
 31
0.0
  0
LINE
  5
C21
330
9E4
100
AcDbEntity
  8
1
  6
Continuous
100
AcDbLine
 10
505.975024
 20
265.790477
 30
0.0
 11
502.675024
 21
265.790477
 31
0.0
  0
LINE
  5
C22
330
9E4
100
AcDbEntity
  8
1
  6
Continuous
100
AcDbLine
 10
505.975024
 20
267.6660769999999
 30
0.0
 11
503.175024
 21
267.6660769999999
 31
0.0
  0
ARC
  5
C23
330
9E4
100
AcDbEntity
  8
1
  6
Continuous
100
AcDbCircle
 10
505.575024
 20
263.1017129999999
 30
0.0
 40
1.0
100
AcDbArc
 50
90.0
 51
180.0
  0
LINE
  5
C24
330
9E4
100
AcDbEntity
  8
1
  6
Continuous
100
AcDbLine
 10
505.575024
 20
264.1017129999997
 30
0.0
 11
505.975024
 21
264.1017129999997
 31
0.0
  0
ARC
  5
C25
330
9E4
100
AcDbEntity
  8
1
  6
Continuous
100
AcDbCircle
 10
506.975024
 20
269.1660769999999
 30
0.0
 40
1.0
100
AcDbArc
 50
90.0
 51
180.0
  0
LINE
  5
C26
330
9E4
100
AcDbEntity
  8
1
  6
Continuous
100
AcDbLine
 10
502.675024
 20
267.1660769999999
 30
0.0
 11
502.675024
 21
264.924437
 31
0.0
  0
LINE
  5
C27
330
9E4
100
AcDbEntity
  8
1
  6
Continuous
100
AcDbLine
 10
502.675024
 20
264.924477
 30
0.0
 11
502.475024
 21
264.924477
 31
0.0
  0
ARC
  5
C28
330
9E4
100
AcDbEntity
  8
1
  6
Continuous
100
AcDbCircle
 10
503.175024
 20
267.1660769999999
 30
0.0
 40
0.5
100
AcDbArc
 50
90.0
 51
180.0
  0
LINE
  5
C35
330
9E4
100
AcDbEntity
  8
1
  6
Continuous
100
AcDbLine
 10
432.562024
 20
236.1660769999998
 30
0.0
 11
426.762024
 21
236.1660769999998
 31
0.0
  0
LINE
  5
C36
330
9E4
100
AcDbEntity
  8
1
  6
Continuous
100
AcDbLine
 10
189.514824
 20
59.724077
 30
0.0
 11
199.5148239999998
 21
59.724077
 31
0.0
  0
LINE
  5
C37
330
9E4
100
AcDbEntity
  8
1
  6
Continuous
100
AcDbLine
 10
189.514824
 20
92.724077
 30
0.0
 11
199.5148239999998
 21
92.724077
 31
0.0
  0
LINE
  5
C38
330
9E4
100
AcDbEntity
  8
4
  6
CENTER
100
AcDbLine
 10
176.3858239999999
 20
76.22407699999998
 30
0.0
 11
215.3508239999999
 21
76.22407699999998
 31
0.0
  0
LINE
  5
C39
330
9E4
100
AcDbEntity
  8
1
  6
Continuous
100
AcDbLine
 10
189.514824
 20
56.224077
 30
0.0
 11
189.514824
 21
96.22407700000001
 31
0.0
  0
LINE
  5
C3A
330
9E4
100
AcDbEntity
  8
1
  6
Continuous
100
AcDbLine
 10
191.514824
 20
60.724077
 30
0.0
 11
191.514824
 21
91.72407699999999
 31
0.0
  0
LINE
  5
C3B
330
9E4
100
AcDbEntity
  8
1
  6
Continuous
100
AcDbLine
 10
188.514824
 20
56.224077
 30
0.0
 11
188.514824
 21
96.22407700000001
 31
0.0
  0
LINE
  5
C3C
330
9E4
100
AcDbEntity
  8
1
  6
Continuous
100
AcDbLine
 10
186.014824
 20
56.224077
 30
0.0
 11
186.014824
 21
96.22407700000001
 31
0.0
  0
LINE
  5
C3D
330
9E4
100
AcDbEntity
  8
1
  6
Continuous
100
AcDbLine
 10
183.514824
 20
64.824077
 30
0.0
 11
183.514824
 21
87.624077
 31
0.0
  0
LINE
  5
C3E
330
9E4
100
AcDbEntity
  8
1
  6
Continuous
100
AcDbLine
 10
186.014824
 20
96.22407700000001
 30
0.0
 11
189.514824
 21
96.22407700000001
 31
0.0
  0
LINE
  5
C3F
330
9E4
100
AcDbEntity
  8
1
  6
Continuous
100
AcDbLine
 10
183.514824
 20
87.624077
 30
0.0
 11
186.014824
 21
96.22407700000001
 31
0.0
  0
ARC
  5
C40
330
9E4
100
AcDbEntity
  8
1
  6
Continuous
100
AcDbCircle
 10
190.514824
 20
91.72407699999999
 30
0.0
 40
1.0
100
AcDbArc
 50
0.0
 51
90.0
  0
LINE
  5
C41
330
9E4
100
AcDbEntity
  8
1
  6
Continuous
100
AcDbLine
 10
186.014824
 20
56.224077
 30
0.0
 11
183.514824
 21
64.824077
 31
0.0
  0
LINE
  5
C42
330
9E4
100
AcDbEntity
  8
1
  6
Continuous
100
AcDbLine
 10
186.014824
 20
56.224077
 30
0.0
 11
189.514824
 21
56.224077
 31
0.0
  0
ARC
  5
C43
330
9E4
100
AcDbEntity
  8
1
  6
Continuous
100
AcDbCircle
 10
190.514824
 20
60.724077
 30
0.0
 40
1.0
100
AcDbArc
 50
270.0
 51
0.0
  0
LINE
  5
C44
330
9E4
100
AcDbEntity
  8
1
  6
Continuous
100
AcDbLine
 10
276.227824
 20
92.024077
 30
0.0
 11
276.227824
 21
97.22407699999999
 31
0.0
  0
LINE
  5
C45
330
9E4
100
AcDbEntity
  8
1
  6
Continuous
100
AcDbLine
 10
273.9278239999998
 20
92.024077
 30
0.0
 11
273.9278239999998
 21
97.22407699999999
 31
0.0
  0
LINE
  5
C46
330
9E4
100
AcDbEntity
  8
1
  6
Continuous
100
AcDbLine
 10
273.9278239999998
 20
97.22407699999999
 30
0.0
 11
276.227824
 21
97.22407699999999
 31
0.0
  0
LINE
  5
C48
330
9E4
100
AcDbEntity
  8
1
  6
Continuous
100
AcDbLine
 10
200.514824
 20
60.724077
 30
0.0
 11
200.514824
 21
62.824077
 31
0.0
  0
LINE
  5
C49
330
9E4
100
AcDbEntity
  8
1
  6
Continuous
100
AcDbLine
 10
209.5148239999998
 20
63.824077
 30
0.0
 11
209.5148239999998
 21
88.624077
 31
0.0
  0
LINE
  5
C4A
330
9E4
100
AcDbEntity
  8
1
  6
Continuous
100
AcDbLine
 10
191.514824
 20
89.62407699999998
 30
0.0
 11
208.514824
 21
89.62407699999998
 31
0.0
  0
ARC
  5
C4B
330
9E4
100
AcDbEntity
  8
1
  6
Continuous
100
AcDbCircle
 10
199.5148239999998
 20
91.72407699999999
 30
0.0
 40
1.0
100
AcDbArc
 50
0.0
 51
90.0
  0
ARC
  5
C4C
330
9E4
100
AcDbEntity
  8
1
  6
Continuous
100
AcDbCircle
 10
208.514824
 20
88.624077
 30
0.0
 40
1.0
100
AcDbArc
 50
0.0
 51
90.0
  0
LINE
  5
C4D
330
9E4
100
AcDbEntity
  8
1
  6
Continuous
100
AcDbLine
 10
191.514824
 20
62.824077
 30
0.0
 11
208.514824
 21
62.824077
 31
0.0
  0
ARC
  5
C4E
330
9E4
100
AcDbEntity
  8
1
  6
Continuous
100
AcDbCircle
 10
199.5148239999998
 20
60.724077
 30
0.0
 40
1.0
100
AcDbArc
 50
270.0
 51
0.0
  0
ARC
  5
C4F
330
9E4
100
AcDbEntity
  8
1
  6
Continuous
100
AcDbCircle
 10
208.514824
 20
63.824077
 30
0.0
 40
1.0
100
AcDbArc
 50
270.0
 51
0.0
  0
LINE
  5
C5C
330
9E4
100
AcDbEntity
  8
4
  6
CENTER
100
AcDbLine
 10
269.142624
 20
76.22407699999998
 30
0.0
 11
289.1882240000001
 21
76.22407699999998
 31
0.0
  0
ARC
  5
C5D
330
9E4
100
AcDbEntity
  8
1
  6
Continuous
100
AcDbCircle
 10
275.4778239999998
 20
76.22407699999998
 30
0.0
 40
9.099999999999999
100
AcDbArc
 50
309.7151999999999
 51
50.28499999999999
  0
LINE
  5
C5E
330
9E4
100
AcDbEntity
  8
1
  6
Continuous
100
AcDbLine
 10
279.727824
 20
62.724077
 30
0.0
 11
279.727824
 21
89.72407699999996
 31
0.0
  0
LINE
  5
C5F
330
9E4
100
AcDbEntity
  8
1
  6
Continuous
100
AcDbLine
 10
277.4278240000001
 20
62.724077
 30
0.0
 11
277.4278240000001
 21
89.72407699999996
 31
0.0
  0
LINE
  5
C60
330
9E4
100
AcDbEntity
  8
1
  6
Continuous
100
AcDbLine
 10
281.292524
 20
69.22407699999999
 30
0.0
 11
281.292524
 21
83.22407699999997
 31
0.0
  0
LINE
  5
C61
330
9E4
100
AcDbEntity
  8
1
  6
Continuous
100
AcDbLine
 10
280.8778239999999
 20
69.22407699999999
 30
0.0
 11
280.8778239999999
 21
83.22407699999997
 31
0.0
  0
ARC
  5
C62
330
9E4
100
AcDbEntity
  8
1
  6
Continuous
100
AcDbCircle
 10
276.227824
 20
92.024077
 30
0.0
 40
2.299999999999998
100
AcDbArc
 50
180.0
 51
270.0
  0
ARC
  5
C63
330
9E4
100
AcDbEntity
  8
1
  6
Continuous
100
AcDbCircle
 10
277.4278240000001
 20
89.72407699999996
 30
0.0
 40
2.299999999999998
100
AcDbArc
 50
0.0
 51
90.0
  0
LINE
  5
C64
330
9E4
100
AcDbEntity
  8
1
  6
Continuous
100
AcDbLine
 10
276.227824
 20
92.024077
 30
0.0
 11
277.4278240000001
 21
92.024077
 31
0.0
  0
LINE
  5
C65
330
9E4
100
AcDbEntity
  8
1
  6
Continuous
100
AcDbLine
 10
276.227824
 20
89.72407699999996
 30
0.0
 11
277.4278240000001
 21
89.72407699999996
 31
0.0
  0
LINE
  5
C66
330
9E4
100
AcDbEntity
  8
1
  6
Continuous
100
AcDbLine
 10
280.8778239999999
 20
82.47407699999998
 30
0.0
 11
279.727824
 21
82.47407699999998
 31
0.0
  0
LINE
  5
C67
330
9E4
100
AcDbEntity
  8
1
  6
Continuous
100
AcDbLine
 10
281.292524
 20
83.22407699999997
 30
0.0
 11
280.8778239999999
 21
83.22407699999997
 31
0.0
  0
LINE
  5
C68
330
9E4
100
AcDbEntity
  8
1
  6
Continuous
100
AcDbLine
 10
280.8778239999999
 20
69.97407700000001
 30
0.0
 11
279.727824
 21
69.97407700000001
 31
0.0
  0
LINE
  5
C69
330
9E4
100
AcDbEntity
  8
1
  6
Continuous
100
AcDbLine
 10
281.292524
 20
69.22407699999999
 30
0.0
 11
280.8778239999999
 21
69.22407699999999
 31
0.0
  0
LINE
  5
C6A
330
9E4
100
AcDbEntity
  8
1
  6
Continuous
100
AcDbLine
 10
276.227824
 20
55.224077
 30
0.0
 11
276.227824
 21
60.424077
 31
0.0
  0
LINE
  5
C6B
330
9E4
100
AcDbEntity
  8
1
  6
Continuous
100
AcDbLine
 10
273.9278239999998
 20
55.224077
 30
0.0
 11
273.9278239999998
 21
60.424077
 31
0.0
  0
LINE
  5
C6C
330
9E4
100
AcDbEntity
  8
1
  6
Continuous
100
AcDbLine
 10
276.227824
 20
60.424077
 30
0.0
 11
277.4278240000001
 21
60.424077
 31
0.0
  0
LINE
  5
C6D
330
9E4
100
AcDbEntity
  8
1
  6
Continuous
100
AcDbLine
 10
276.227824
 20
62.724077
 30
0.0
 11
277.4278240000001
 21
62.724077
 31
0.0
  0
ARC
  5
C6E
330
9E4
100
AcDbEntity
  8
1
  6
Continuous
100
AcDbCircle
 10
276.227824
 20
60.424077
 30
0.0
 40
2.299999999999998
100
AcDbArc
 50
90.0
 51
180.0
  0
ARC
  5
C6F
330
9E4
100
AcDbEntity
  8
1
  6
Continuous
100
AcDbCircle
 10
277.4278240000001
 20
62.724077
 30
0.0
 40
2.299999999999998
100
AcDbArc
 50
270.0
 51
0.0
  0
LINE
  5
C70
330
9E4
100
AcDbEntity
  8
1
  6
Continuous
100
AcDbLine
 10
273.9278239999998
 20
55.224077
 30
0.0
 11
276.227824
 21
55.224077
 31
0.0
  0
LINE
  5
C71
330
9E4
100
AcDbEntity
  8
1
  6
Continuous
100
AcDbLine
 10
200.514824
 20
89.62407699999998
 30
0.0
 11
200.514824
 21
91.72407699999999
 31
0.0
  0
LINE
  5
C72
330
9E4
100
AcDbEntity
  8
1
  6
Continuous
100
AcDbLine
 10
182.814772
 20
65.22407700000001
 30
0.0
 11
183.514824
 21
65.22407700000001
 31
0.0
  0
LINE
  5
C73
330
9E4
100
AcDbEntity
  8
1
  6
Continuous
100
AcDbLine
 10
181.014824
 20
77.70746099999998
 30
0.0
 11
181.014824
 21
74.74069200000002
 31
0.0
  0
LINE
  5
C74
330
9E4
100
AcDbEntity
  8
1
  6
Continuous
100
AcDbLine
 10
183.514824
 20
87.22407699999996
 30
0.0
 11
182.814772
 21
87.22407699999996
 31
0.0
  0
LINE
  5
C75
330
9E4
100
AcDbEntity
  8
1
  6
Continuous
100
AcDbLine
 10
45.384824
 20
150.3004769999997
 30
0.0
 11
34.384824
 21
139.1657769999999
 31
0.0
  0
LINE
  5
C76
330
9E4
100
AcDbEntity
  8
1
  6
Continuous
100
AcDbLine
 10
23.38482399999999
 20
150.3004769999997
 30
0.0
 11
45.384824
 21
150.3004769999997
 31
0.0
  0
LINE
  5
C77
330
9E4
100
AcDbEntity
  8
1
  6
Continuous
100
AcDbLine
 10
23.38482399999999
 20
150.3004769999997
 30
0.0
 11
34.384824
 21
139.1657769999999
 31
0.0
  0
LINE
  5
C78
330
9E4
100
AcDbEntity
  8
5
  6
PHANTOM
100
AcDbLine
 10
573.251024
 20
193.5620769999999
 30
0.0
 11
579.5000240000002
 21
199.107277
 31
0.0
  0
ARC
  5
C79
330
9E4
100
AcDbEntity
  8
5
  6
PHANTOM
100
AcDbCircle
 10
578.837024
 20
199.855277
 30
0.0
 40
1.0
100
AcDbArc
 50
311.5809999999999
 51
45.0
  0
LINE
  5
C7A
330
9E4
100
AcDbEntity
  8
1
  6
Continuous
100
AcDbLine
 10
504.4750239999998
 20
264.924437
 30
0.0
 11
502.475024
 21
264.924437
 31
0.0
  0
LINE
  5
C7B
330
9E4
100
AcDbEntity
  8
1
  6
Continuous
100
AcDbLine
 10
181.014824
 20
77.70746099999998
 30
0.0
 11
182.814772
 21
87.22407699999996
 31
0.0
  0
LINE
  5
C7C
330
9E4
100
AcDbEntity
  8
1
  6
Continuous
100
AcDbLine
 10
181.014824
 20
74.74069200000002
 30
0.0
 11
182.814772
 21
65.22407700000001
 31
0.0
  0
LINE
  5
CCD
330
9E4
100
AcDbEntity
  8
4
  6
CENTER
100
AcDbLine
 10
223.560824
 20
253.666107
 30
0.0
 11
254.211424
 21
253.666107
 31
0.0
  0
LINE
  5
CD0
330
9E4
100
AcDbEntity
  8
1
  6
Continuous
100
AcDbLine
 10
248.4234607040426
 20
260.666107
 30
0.0
 11
248.4234607040427
 21
246.666107
 31
0.0
  0
ARC
  5
CD1
330
9E4
100
AcDbEntity
  8
1
  6
Continuous
100
AcDbCircle
 10
242.6088240000001
 20
253.666107
 30
0.0
 40
9.099999999999999
100
AcDbArc
 50
309.7151372318256
 51
50.28486276817439
  0
LINE
  5
CD2
330
9E4
100
AcDbEntity
  8
1
  6
Continuous
100
AcDbLine
 10
248.0088240000001
 20
246.666107
 30
0.0
 11
248.0088240000001
 21
260.666107
 31
0.0
  0
LINE
  5
CD3
330
9E4
100
AcDbEntity
  8
1
  6
Continuous
100
AcDbLine
 10
247.0088240000001
 20
245.666107
 30
0.0
 11
247.0088240000001
 21
261.666107
 31
0.0
  0
LINE
  5
CD4
330
9E4
100
AcDbEntity
  8
1
  6
Continuous
100
AcDbLine
 10
245.4088240000001
 20
245.666107
 30
0.0
 11
245.4088240000001
 21
261.666107
 31
0.0
  0
LINE
  5
CD5
330
9E4
100
AcDbEntity
  8
1
  6
Continuous
100
AcDbLine
 10
236.408824
 20
242.6661070000016
 30
0.0
 11
236.408824
 21
264.6661070000015
 31
0.0
  0
LINE
  5
CD6
330
9E4
100
AcDbEntity
  8
1
  6
Continuous
100
AcDbLine
 10
238.408824
 20
242.6661070000016
 30
0.0
 11
238.408824
 21
264.6661070000015
 31
0.0
  0
LINE
  5
CD7
330
9E4
100
AcDbEntity
  8
1
  6
Continuous
100
AcDbLine
 10
228.408824
 20
264.666077
 30
0.0
 11
228.408824
 21
242.6661070000001
 31
0.0
  0
LINE
  5
CD8
330
9E4
100
AcDbEntity
  8
1
  6
Continuous
100
AcDbLine
 10
227.408824
 20
264.666077
 30
0.0
 11
227.408824
 21
242.6661070000001
 31
0.0
  0
LINE
  5
CD9
330
9E4
100
AcDbEntity
  8
1
  6
Continuous
100
AcDbLine
 10
227.408824
 20
242.6661070000001
 30
0.0
 11
228.408824
 21
242.6661070000001
 31
0.0
  0
LINE
  5
CDA
330
9E4
100
AcDbEntity
  8
1
  6
Continuous
100
AcDbLine
 10
236.408824
 20
242.6661070000016
 30
0.0
 11
238.408824
 21
242.6661070000016
 31
0.0
  0
LINE
  5
CDB
330
9E4
100
AcDbEntity
  8
1
  6
Continuous
100
AcDbLine
 10
245.4088240000003
 20
245.666107
 30
0.0
 11
247.0088240000001
 21
245.666107
 31
0.0
  0
LINE
  5
CDC
330
9E4
100
AcDbEntity
  8
1
  6
Continuous
100
AcDbLine
 10
247.0088240000001
 20
247.416107
 30
0.0
 11
248.0088240000001
 21
247.416107
 31
0.0
  0
LINE
  5
CDD
330
9E4
100
AcDbEntity
  8
1
  6
Continuous
100
AcDbLine
 10
248.4234607040429
 20
246.666107
 30
0.0
 11
248.0088240000001
 21
246.6661070000001
 31
0.0
  0
LINE
  5
CDE
330
9E4
100
AcDbEntity
  8
1
  6
Continuous
100
AcDbLine
 10
227.408824
 20
264.666077
 30
0.0
 11
228.408824
 21
264.666077
 31
0.0
  0
LINE
  5
CDF
330
9E4
100
AcDbEntity
  8
1
  6
Continuous
100
AcDbLine
 10
236.408824
 20
264.6661070000015
 30
0.0
 11
238.408824
 21
264.6661070000015
 31
0.0
  0
LINE
  5
CE0
330
9E4
100
AcDbEntity
  8
1
  6
Continuous
100
AcDbLine
 10
247.0088240000001
 20
259.916107
 30
0.0
 11
248.0088240000001
 21
259.916107
 31
0.0
  0
LINE
  5
CE1
330
9E4
100
AcDbEntity
  8
1
  6
Continuous
100
AcDbLine
 10
248.4234607040428
 20
260.6661069999997
 30
0.0
 11
248.0088240000001
 21
260.666107
 31
0.0
  0
LINE
  5
CE2
330
9E4
100
AcDbEntity
  8
1
  6
Continuous
100
AcDbLine
 10
245.4088240000003
 20
261.666107
 30
0.0
 11
247.0088240000001
 21
261.666107
 31
0.0
  0
LINE
  5
D5D
330
9E4
100
AcDbEntity
  8
4
  6
CENTER
100
AcDbLine
 10
223.5608239999999
 20
335.1077769999998
 30
0.0
 11
254.211424
 21
335.1077769999998
 31
0.0
  0
ARC
  5
D5E
330
9E4
100
AcDbEntity
  8
1
  6
Continuous
100
AcDbCircle
 10
242.6088240000001
 20
335.1077769999998
 30
0.0
 40
9.099999999999999
100
AcDbArc
 50
309.7151372318256
 51
50.28486276817439
  0
LINE
  5
D5F
330
9E4
100
AcDbEntity
  8
1
  6
Continuous
100
AcDbLine
 10
227.408824
 20
346.1077469999998
 30
0.0
 11
228.408824
 21
346.1077469999998
 31
0.0
  0
LINE
  5
D60
330
9E4
100
AcDbEntity
  8
1
  6
Continuous
100
AcDbLine
 10
227.408824
 20
324.1077769999999
 30
0.0
 11
228.408824
 21
324.1077769999999
 31
0.0
  0
LINE
  5
D61
330
9E4
100
AcDbEntity
  8
1
  6
Continuous
100
AcDbLine
 10
227.408824
 20
346.1077469999998
 30
0.0
 11
227.408824
 21
324.1077769999999
 31
0.0
  0
LINE
  5
D65
330
9E4
100
AcDbEntity
  8
1
  6
Continuous
100
AcDbLine
 10
248.4234607040426
 20
342.1077769999998
 30
0.0
 11
248.4234607040427
 21
328.1077769999998
 31
0.0
  0
LINE
  5
D66
330
9E4
100
AcDbEntity
  8
1
  6
Continuous
100
AcDbLine
 10
248.0088240000001
 20
328.1077769999998
 30
0.0
 11
248.0088240000001
 21
342.1077769999998
 31
0.0
  0
LINE
  5
D67
330
9E4
100
AcDbEntity
  8
1
  6
Continuous
100
AcDbLine
 10
247.0088240000001
 20
327.1077769999998
 30
0.0
 11
247.0088240000001
 21
343.1077769999998
 31
0.0
  0
LINE
  5
D68
330
9E4
100
AcDbEntity
  8
1
  6
Continuous
100
AcDbLine
 10
245.4088240000001
 20
327.1077769999998
 30
0.0
 11
245.4088240000001
 21
343.1077769999998
 31
0.0
  0
LINE
  5
D69
330
9E4
100
AcDbEntity
  8
1
  6
Continuous
100
AcDbLine
 10
236.408824
 20
324.1077770000014
 30
0.0
 11
236.408824
 21
346.1077770000013
 31
0.0
  0
LINE
  5
D6A
330
9E4
100
AcDbEntity
  8
1
  6
Continuous
100
AcDbLine
 10
238.408824
 20
324.1077770000014
 30
0.0
 11
238.408824
 21
346.1077770000013
 31
0.0
  0
LINE
  5
D6B
330
9E4
100
AcDbEntity
  8
1
  6
Continuous
100
AcDbLine
 10
228.408824
 20
346.1077469999998
 30
0.0
 11
228.408824
 21
324.1077769999999
 31
0.0
  0
LINE
  5
D6C
330
9E4
100
AcDbEntity
  8
1
  6
Continuous
100
AcDbLine
 10
236.408824
 20
324.1077770000014
 30
0.0
 11
238.408824
 21
324.1077770000014
 31
0.0
  0
LINE
  5
D6D
330
9E4
100
AcDbEntity
  8
1
  6
Continuous
100
AcDbLine
 10
245.4088240000002
 20
327.1077769999998
 30
0.0
 11
247.0088240000001
 21
327.1077769999998
 31
0.0
  0
LINE
  5
D6E
330
9E4
100
AcDbEntity
  8
1
  6
Continuous
100
AcDbLine
 10
247.0088240000001
 20
328.8577769999998
 30
0.0
 11
248.0088240000001
 21
328.8577769999998
 31
0.0
  0
LINE
  5
D6F
330
9E4
100
AcDbEntity
  8
1
  6
Continuous
100
AcDbLine
 10
248.4234607040428
 20
328.1077769999998
 30
0.0
 11
248.0088240000001
 21
328.1077769999999
 31
0.0
  0
LINE
  5
D70
330
9E4
100
AcDbEntity
  8
1
  6
Continuous
100
AcDbLine
 10
236.408824
 20
346.1077770000013
 30
0.0
 11
238.408824
 21
346.1077770000013
 31
0.0
  0
LINE
  5
D71
330
9E4
100
AcDbEntity
  8
1
  6
Continuous
100
AcDbLine
 10
247.0088240000001
 20
341.3577769999998
 30
0.0
 11
248.0088240000001
 21
341.3577769999998
 31
0.0
  0
LINE
  5
D72
330
9E4
100
AcDbEntity
  8
1
  6
Continuous
100
AcDbLine
 10
248.4234607040428
 20
342.1077769999996
 30
0.0
 11
248.0088240000001
 21
342.1077769999998
 31
0.0
  0
LINE
  5
D73
330
9E4
100
AcDbEntity
  8
1
  6
Continuous
100
AcDbLine
 10
245.4088240000002
 20
343.1077769999998
 30
0.0
 11
247.0088240000001
 21
343.1077769999998
 31
0.0
  0
LINE
  5
DC9
330
9E4
100
AcDbEntity
  8
4
  6
CENTER
100
AcDbLine
 10
223.5608239999999
 20
76.22407699999995
 30
0.0
 11
254.211424
 21
76.22407699999995
 31
0.0
  0
ARC
  5
DCA
330
9E4
100
AcDbEntity
  8
1
  6
Continuous
100
AcDbCircle
 10
242.6088240000001
 20
76.22407699999995
 30
0.0
 40
9.099999999999999
100
AcDbArc
 50
309.7151372318256
 51
50.28486276817439
  0
LINE
  5
DCB
330
9E4
100
AcDbEntity
  8
1
  6
Continuous
100
AcDbLine
 10
227.408824
 20
87.22404699999998
 30
0.0
 11
228.408824
 21
87.22404699999998
 31
0.0
  0
LINE
  5
DCC
330
9E4
100
AcDbEntity
  8
1
  6
Continuous
100
AcDbLine
 10
227.408824
 20
65.22407700000008
 30
0.0
 11
228.408824
 21
65.22407700000008
 31
0.0
  0
LINE
  5
DCD
330
9E4
100
AcDbEntity
  8
1
  6
Continuous
100
AcDbLine
 10
227.408824
 20
87.22404699999998
 30
0.0
 11
227.408824
 21
65.22407700000008
 31
0.0
  0
LINE
  5
DD1
330
9E4
100
AcDbEntity
  8
1
  6
Continuous
100
AcDbLine
 10
248.4234607040426
 20
83.22407699999997
 30
0.0
 11
248.4234607040427
 21
69.22407699999997
 31
0.0
  0
LINE
  5
DD2
330
9E4
100
AcDbEntity
  8
1
  6
Continuous
100
AcDbLine
 10
248.0088240000001
 20
69.22407699999997
 30
0.0
 11
248.0088240000001
 21
83.22407699999997
 31
0.0
  0
LINE
  5
DD3
330
9E4
100
AcDbEntity
  8
1
  6
Continuous
100
AcDbLine
 10
247.0088240000001
 20
68.22407699999996
 30
0.0
 11
247.0088240000001
 21
84.22407699999997
 31
0.0
  0
LINE
  5
DD4
330
9E4
100
AcDbEntity
  8
1
  6
Continuous
100
AcDbLine
 10
245.4088240000001
 20
68.22407699999996
 30
0.0
 11
245.4088240000001
 21
84.22407699999997
 31
0.0
  0
LINE
  5
DD5
330
9E4
100
AcDbEntity
  8
1
  6
Continuous
100
AcDbLine
 10
236.408824
 20
65.22407700000155
 30
0.0
 11
236.408824
 21
87.22407700000156
 31
0.0
  0
LINE
  5
DD6
330
9E4
100
AcDbEntity
  8
1
  6
Continuous
100
AcDbLine
 10
238.408824
 20
65.22407700000155
 30
0.0
 11
238.408824
 21
87.22407700000156
 31
0.0
  0
LINE
  5
DD7
330
9E4
100
AcDbEntity
  8
1
  6
Continuous
100
AcDbLine
 10
228.408824
 20
87.22404699999998
 30
0.0
 11
228.408824
 21
65.22407700000008
 31
0.0
  0
LINE
  5
DD8
330
9E4
100
AcDbEntity
  8
1
  6
Continuous
100
AcDbLine
 10
236.408824
 20
65.22407700000155
 30
0.0
 11
238.408824
 21
65.22407700000155
 31
0.0
  0
LINE
  5
DD9
330
9E4
100
AcDbEntity
  8
1
  6
Continuous
100
AcDbLine
 10
245.4088240000002
 20
68.22407699999996
 30
0.0
 11
247.0088240000001
 21
68.22407699999996
 31
0.0
  0
LINE
  5
DDA
330
9E4
100
AcDbEntity
  8
1
  6
Continuous
100
AcDbLine
 10
247.0088240000001
 20
69.97407699999996
 30
0.0
 11
248.0088240000001
 21
69.97407699999996
 31
0.0
  0
LINE
  5
DDB
330
9E4
100
AcDbEntity
  8
1
  6
Continuous
100
AcDbLine
 10
248.4234607040428
 20
69.22407699999997
 30
0.0
 11
248.0088240000001
 21
69.22407700000007
 31
0.0
  0
LINE
  5
DDC
330
9E4
100
AcDbEntity
  8
1
  6
Continuous
100
AcDbLine
 10
236.408824
 20
87.22407700000156
 30
0.0
 11
238.408824
 21
87.22407700000156
 31
0.0
  0
LINE
  5
DDD
330
9E4
100
AcDbEntity
  8
1
  6
Continuous
100
AcDbLine
 10
247.0088240000001
 20
82.47407699999994
 30
0.0
 11
248.0088240000001
 21
82.47407699999994
 31
0.0
  0
LINE
  5
DDE
330
9E4
100
AcDbEntity
  8
1
  6
Continuous
100
AcDbLine
 10
248.4234607040428
 20
83.22407699999974
 30
0.0
 11
248.0088240000001
 21
83.22407699999997
 31
0.0
  0
LINE
  5
DDF
330
9E4
100
AcDbEntity
  8
1
  6
Continuous
100
AcDbLine
 10
245.4088240000002
 20
84.22407699999997
 30
0.0
 11
247.0088240000001
 21
84.22407699999997
 31
0.0
  0
LINE
  5
E35
330
9E4
100
AcDbEntity
  8
4
  6
CENTER
100
AcDbLine
 10
482.9290239999998
 20
253.666107
 30
0.0
 11
452.2784239999999
 21
253.666107
 31
0.0
  0
ARC
  5
E36
330
9E4
100
AcDbEntity
  8
1
  6
Continuous
100
AcDbCircle
 10
463.8810239999997
 20
253.666107
 30
0.0
 40
9.099999999999999
100
AcDbArc
 50
129.7151372318255
 51
230.2848627681744
  0
LINE
  5
E37
330
9E4
100
AcDbEntity
  8
1
  6
Continuous
100
AcDbLine
 10
479.0810239999998
 20
264.666077
 30
0.0
 11
478.0810239999998
 21
264.666077
 31
0.0
  0
LINE
  5
E38
330
9E4
100
AcDbEntity
  8
1
  6
Continuous
100
AcDbLine
 10
479.0810239999998
 20
242.6661070000001
 30
0.0
 11
478.0810239999998
 21
242.6661070000001
 31
0.0
  0
LINE
  5
E39
330
9E4
100
AcDbEntity
  8
1
  6
Continuous
100
AcDbLine
 10
479.0810239999998
 20
264.666077
 30
0.0
 11
479.0810239999998
 21
242.6661070000001
 31
0.0
  0
LINE
  5
E3D
330
9E4
100
AcDbEntity
  8
1
  6
Continuous
100
AcDbLine
 10
458.0663872959571
 20
260.666107
 30
0.0
 11
458.066387295957
 21
246.666107
 31
0.0
  0
LINE
  5
E3E
330
9E4
100
AcDbEntity
  8
1
  6
Continuous
100
AcDbLine
 10
458.4810239999996
 20
246.666107
 30
0.0
 11
458.4810239999996
 21
260.666107
 31
0.0
  0
LINE
  5
E3F
330
9E4
100
AcDbEntity
  8
1
  6
Continuous
100
AcDbLine
 10
459.4810239999997
 20
245.666107
 30
0.0
 11
459.4810239999997
 21
261.666107
 31
0.0
  0
LINE
  5
E40
330
9E4
100
AcDbEntity
  8
1
  6
Continuous
100
AcDbLine
 10
461.0810239999996
 20
245.666107
 30
0.0
 11
461.0810239999996
 21
261.666107
 31
0.0
  0
LINE
  5
E41
330
9E4
100
AcDbEntity
  8
1
  6
Continuous
100
AcDbLine
 10
470.0810239999998
 20
242.6661070000016
 30
0.0
 11
470.0810239999998
 21
264.6661070000015
 31
0.0
  0
LINE
  5
E42
330
9E4
100
AcDbEntity
  8
1
  6
Continuous
100
AcDbLine
 10
468.0810239999996
 20
242.6661070000016
 30
0.0
 11
468.0810239999996
 21
264.6661070000015
 31
0.0
  0
LINE
  5
E43
330
9E4
100
AcDbEntity
  8
1
  6
Continuous
100
AcDbLine
 10
478.0810239999998
 20
264.666077
 30
0.0
 11
478.0810239999998
 21
242.6661070000001
 31
0.0
  0
LINE
  5
E44
330
9E4
100
AcDbEntity
  8
1
  6
Continuous
100
AcDbLine
 10
470.0810239999998
 20
242.6661070000016
 30
0.0
 11
468.0810239999996
 21
242.6661070000016
 31
0.0
  0
LINE
  5
E45
330
9E4
100
AcDbEntity
  8
1
  6
Continuous
100
AcDbLine
 10
461.0810239999994
 20
245.666107
 30
0.0
 11
459.4810239999997
 21
245.666107
 31
0.0
  0
LINE
  5
E46
330
9E4
100
AcDbEntity
  8
1
  6
Continuous
100
AcDbLine
 10
459.4810239999997
 20
247.416107
 30
0.0
 11
458.4810239999996
 21
247.416107
 31
0.0
  0
LINE
  5
E47
330
9E4
100
AcDbEntity
  8
1
  6
Continuous
100
AcDbLine
 10
458.0663872959569
 20
246.666107
 30
0.0
 11
458.4810239999996
 21
246.6661070000001
 31
0.0
  0
LINE
  5
E48
330
9E4
100
AcDbEntity
  8
1
  6
Continuous
100
AcDbLine
 10
470.0810239999998
 20
264.6661070000015
 30
0.0
 11
468.0810239999996
 21
264.6661070000015
 31
0.0
  0
LINE
  5
E49
330
9E4
100
AcDbEntity
  8
1
  6
Continuous
100
AcDbLine
 10
459.4810239999997
 20
259.916107
 30
0.0
 11
458.4810239999996
 21
259.916107
 31
0.0
  0
LINE
  5
E4A
330
9E4
100
AcDbEntity
  8
1
  6
Continuous
100
AcDbLine
 10
458.0663872959569
 20
260.6661069999997
 30
0.0
 11
458.4810239999996
 21
260.666107
 31
0.0
  0
LINE
  5
E4B
330
9E4
100
AcDbEntity
  8
1
  6
Continuous
100
AcDbLine
 10
461.0810239999994
 20
261.666107
 30
0.0
 11
459.4810239999997
 21
261.666107
 31
0.0
  0
ENDSEC
  0
SECTION
  2
OBJECTS
  0
DICTIONARY
  5
9D2
330
0
100
AcDbDictionary
281
     1
  3
ACAD_CIP_PREVIOUS_PRODUCT_INFO
350
FB1
  3
ACAD_COLOR
350
F94
  3
ACAD_DETAILVIEWSTYLE
350
FAD
  3
ACAD_GROUP
350
9D3
  3
ACAD_LAYOUT
350
9DF
  3
ACAD_MATERIAL
350
F62
  3
ACAD_MLEADERSTYLE
350
FA9
  3
ACAD_MLINESTYLE
350
9DC
  3
ACAD_PLOTSETTINGS
350
9DE
  3
ACAD_PLOTSTYLENAME
350
F60
  3
ACAD_SCALELIST
350
F97
  3
ACAD_SECTIONVIEWSTYLE
350
FAB
  3
ACAD_TABLESTYLE
350
F95
  3
ACAD_VISUALSTYLE
350
F7B
  3
ACDB_RECOMPOSE_DATA
350
FCF
  3
AcDbVariableDictionary
350
FC2
  3
DWGPROPS
350
FD0
  0
DICTIONARY
  5
FB2
330
9D6
100
AcDbDictionary
280
     1
281
     1
  3
ADSK_XREC_LAYER_RECONCILED
360
FB3
  0
DICTIONARY
  5
FB4
330
9EC
100
AcDbDictionary
280
     1
281
     1
  3
ADSK_XREC_LAYER_RECONCILED
360
FB5
  0
DICTIONARY
  5
FB6
330
9ED
100
AcDbDictionary
280
     1
281
     1
  3
ADSK_XREC_LAYER_RECONCILED
360
FB7
  0
DICTIONARY
  5
FB8
330
9EE
100
AcDbDictionary
280
     1
281
     1
  3
ADSK_XREC_LAYER_RECONCILED
360
FB9
  0
DICTIONARY
  5
FBA
330
9EF
100
AcDbDictionary
280
     1
281
     1
  3
ADSK_XREC_LAYER_RECONCILED
360
FBB
  0
DICTIONARY
  5
FBC
330
9F0
100
AcDbDictionary
280
     1
281
     1
  3
ADSK_XREC_LAYER_RECONCILED
360
FBD
  0
DICTIONARY
  5
FBE
330
9F1
100
AcDbDictionary
280
     1
281
     1
  3
ADSK_XREC_LAYER_RECONCILED
360
FBF
  0
DICTIONARY
  5
FC0
330
9F2
100
AcDbDictionary
280
     1
281
     1
  3
ADSK_XREC_LAYER_RECONCILED
360
FC1
  0
DICTIONARY
  5
F5B
330
9E4
100
AcDbDictionary
281
     1
  3
ACAD_LAYOUTSELFREF
350
F5C
  0
DICTIONARY
  5
F59
330
9E0
100
AcDbDictionary
281
     1
  3
ACAD_LAYOUTSELFREF
350
F5A
  0
XRECORD
  5
FB1
102
{ACAD_REACTORS
330
9D2
102
}
330
9D2
100
AcDbXrecord
280
     1
300
ACDLT
300
2014
300
ACDLT_F_S
  0
DICTIONARY
  5
F94
102
{ACAD_REACTORS
330
9D2
102
}
330
9D2
100
AcDbDictionary
281
     1
  0
DICTIONARY
  5
FAD
102
{ACAD_REACTORS
330
9D2
102
}
330
9D2
100
AcDbDictionary
281
     1
  3
Imperial24
350
FAE
  0
DICTIONARY
  5
9D3
102
{ACAD_REACTORS
330
9D2
102
}
330
9D2
100
AcDbDictionary
281
     1
  0
DICTIONARY
  5
9DF
102
{ACAD_REACTORS
330
9D2
102
}
330
9D2
100
AcDbDictionary
281
     1
  3
Model
350
FAF
  3
レイアウト1
350
FB0
  0
DICTIONARY
  5
F62
102
{ACAD_REACTORS
330
9D2
102
}
330
9D2
100
AcDbDictionary
281
     1
  3
ByBlock
350
F6B
  3
ByLayer
350
F63
  3
Global
350
F73
  0
DICTIONARY
  5
FA9
102
{ACAD_REACTORS
330
9D2
102
}
330
9D2
100
AcDbDictionary
281
     1
  3
Standard
350
FAA
  0
DICTIONARY
  5
9DC
102
{ACAD_REACTORS
330
9D2
102
}
330
9D2
100
AcDbDictionary
281
     1
  3
STANDARD
350
9DD
  0
DICTIONARY
  5
9DE
102
{ACAD_REACTORS
330
9D2
102
}
330
9D2
100
AcDbDictionary
281
     1
  0
ACDBDICTIONARYWDFLT
  5
F60
102
{ACAD_REACTORS
330
9D2
102
}
330
9D2
100
AcDbDictionary
281
     1
  3
Normal
350
F61
100
AcDbDictionaryWithDefault
340
F61
  0
DICTIONARY
  5
F97
102
{ACAD_REACTORS
330
9D2
102
}
330
9D2
100
AcDbDictionary
281
     1
  3
A0
350
F98
  3
A1
350
F99
  3
A2
350
F9A
  3
A3
350
F9B
  3
A4
350
F9C
  3
A5
350
F9D
  3
A6
350
F9E
  3
A7
350
F9F
  3
A8
350
FA0
  3
A9
350
FA1
  3
B0
350
FA2
  3
B1
350
FA3
  3
B2
350
FA4
  3
B3
350
FA5
  3
B4
350
FA6
  3
B5
350
FA7
  3
B6
350
FA8
  0
DICTIONARY
  5
FAB
102
{ACAD_REACTORS
330
9D2
102
}
330
9D2
100
AcDbDictionary
281
     1
  3
Imperial24
350
FAC
  0
DICTIONARY
  5
F95
102
{ACAD_REACTORS
330
9D2
102
}
330
9D2
100
AcDbDictionary
281
     1
  3
Standard
350
F96
  0
DICTIONARY
  5
F7B
102
{ACAD_REACTORS
330
9D2
102
}
330
9D2
100
AcDbDictionary
281
     1
  3
2dWireframe
350
F81
  3
Basic
350
F80
  3
Brighten
350
F87
  3
ColorChange
350
F8B
  3
Conceptual
350
F84
  3
Dim
350
F86
  3
EdgeColorOff
350
F93
  3
Facepattern
350
F8A
  3
Flat
350
F7C
  3
FlatWithEdges
350
F7D
  3
Gouraud
350
F7E
  3
GouraudWithEdges
350
F7F
  3
Hidden
350
F83
  3
JitterOff
350
F91
  3
Linepattern
350
F89
  3
OverhangOff
350
F92
  3
Realistic
350
F85
  3
Shaded
350
F90
  3
Shaded with edges
350
F8F
  3
Shades of Gray
350
F8C
  3
Sketchy
350
F8D
  3
Thicken
350
F88
  3
Wireframe
350
F82
  3
X-Ray
350
F8E
  0
XRECORD
  5
FCF
102
{ACAD_REACTORS
330
9D2
102
}
330
9D2
100
AcDbXrecord
280
     1
 90
        1
330
F96
  0
DICTIONARY
  5
FC2
102
{ACAD_REACTORS
330
9D2
102
}
330
9D2
100
AcDbDictionary
281
     1
  3
CANNOSCALE
350
FC7
  3
CMLEADERSTYLE
350
FC4
  3
CTABLESTYLE
350
FC3
  3
CVIEWDETAILSTYLE
350
FC5
  3
CVIEWSECTIONSTYLE
350
FC6
  3
DIMASSOC
350
FCA
  3
INDEXCTL
350
FC9
  3
SORTENTS
350
FC8
  3
XCLIPFRAME
350
FCB
  0
XRECORD
  5
FD0
102
{ACAD_REACTORS
330
9D2
102
}
330
9D2
100
AcDbXrecord
280
     1
  1
DWGPROPS COOKIE
  2

  3

  4

  6

  7

  8
Yoshitsune
  9

300
=
301
=
302
=
303
=
304
=
305
=
306
=
307
=
308
=
309
=
 40
0.0325531134259259
 41
2452065.454474005
 42
2457192.642494317
  1

 90
        0
  0
XRECORD
  5
FB3
102
{ACAD_REACTORS
330
FB2
102
}
330
FB2
100
AcDbXrecord
280
     1
290
     1
  0
XRECORD
  5
FB5
102
{ACAD_REACTORS
330
FB4
102
}
330
FB4
100
AcDbXrecord
280
     1
290
     1
  0
XRECORD
  5
FB7
102
{ACAD_REACTORS
330
FB6
102
}
330
FB6
100
AcDbXrecord
280
     1
290
     1
  0
XRECORD
  5
FB9
102
{ACAD_REACTORS
330
FB8
102
}
330
FB8
100
AcDbXrecord
280
     1
290
     1
  0
XRECORD
  5
FBB
102
{ACAD_REACTORS
330
FBA
102
}
330
FBA
100
AcDbXrecord
280
     1
290
     1
  0
XRECORD
  5
FBD
102
{ACAD_REACTORS
330
FBC
102
}
330
FBC
100
AcDbXrecord
280
     1
290
     1
  0
XRECORD
  5
FBF
102
{ACAD_REACTORS
330
FBE
102
}
330
FBE
100
AcDbXrecord
280
     1
290
     1
  0
XRECORD
  5
FC1
102
{ACAD_REACTORS
330
FC0
102
}
330
FC0
100
AcDbXrecord
280
     1
290
     1
  0
XRECORD
  5
F5C
102
{ACAD_REACTORS
330
F5B
102
}
330
F5B
100
AcDbXrecord
280
     1
340
9E4
  0
XRECORD
  5
F5A
102
{ACAD_REACTORS
330
F59
102
}
330
F59
100
AcDbXrecord
280
     1
340
9E0
  0
ACDBDETAILVIEWSTYLE
  5
FAE
102
{ACAD_XDICTIONARY
360
1008
102
}
102
{ACAD_REACTORS
330
FAD
102
}
330
FAD
100
AcDbModelDocViewStyle
 70
     0
  3
Imperial24
290
     0
100
AcDbDetailViewStyle
 70
     0
 71
     0
 90
        3
 71
     1
340
9D7
 40
0.24
340
0
 40
0.24
300

 40
0.36
280
     3
 71
     2
340
9DB
 90
       25
 71
     3
340
9D7
 40
0.24
 90
        1
 40
0.75
 90
        1
300
%<\AcVar ViewType \f "%tc1">% %<\AcVar ViewDetailId>%\PSCALE %<\AcVar ViewScale \f "%sn">%
 71
     4
340
9DB
 90
       25
340
9DB
 90
       25
280
     0
  0
LAYOUT
  5
FAF
102
{ACAD_XDICTIONARY
360
100A
102
}
102
{ACAD_REACTORS
330
9DF
102
}
330
9DF
100
AcDbPlotSettings
  1

  2
Canon LBP9100C
  4

  6

 40
0.0
 41
0.0
 42
0.0
 43
0.0
 44
0.0
 45
0.0
 46
0.0
 47
0.0
 48
0.0
 49
0.0
140
0.0
141
0.0
142
1.0
143
1.0
 70
  1712
 72
     0
 73
     0
 74
     0
  7

 75
     0
147
1.0
148
0.0
149
0.0
100
AcDbLayout
  1
Model
 70
     1
 71
     0
 10
0.0
 20
0.0
 11
12.0
 21
9.0
 12
0.0
 22
0.0
 32
0.0
 14
0.0
 24
0.0
 34
0.0
 15
0.0
 25
0.0
 35
0.0
146
0.0
 13
0.0
 23
0.0
 33
0.0
 16
1.0
 26
0.0
 36
0.0
 17
0.0
 27
1.0
 37
0.0
 76
     0
330
9E4
331
F58
  0
LAYOUT
  5
FB0
102
{ACAD_XDICTIONARY
360
100C
102
}
102
{ACAD_REACTORS
330
9DF
102
}
330
9DF
100
AcDbPlotSettings
  1

  2
Canon LBP9100C
  4

  6

 40
0.0
 41
0.0
 42
0.0
 43
0.0
 44
0.0
 45
0.0
 46
0.0
 47
0.0
 48
0.0
 49
0.0
140
0.0
141
0.0
142
1.0
143
1.0
 70
   688
 72
     0
 73
     0
 74
     5
  7

 75
    16
147
1.0
148
0.0
149
0.0
100
AcDbLayout
  1
レイアウト1
 70
     1
 71
     1
 10
0.0
 20
0.0
 11
420.0
 21
297.0
 12
0.0
 22
0.0
 32
0.0
 14
1.000000000000000E+20
 24
1.000000000000000E+20
 34
1.000000000000000E+20
 15
-1.000000000000000E+20
 25
-1.000000000000000E+20
 35
-1.000000000000000E+20
146
0.0
 13
0.0
 23
0.0
 33
0.0
 16
1.0
 26
0.0
 36
0.0
 17
0.0
 27
1.0
 37
0.0
 76
     0
330
9E0
  0
MATERIAL
  5
F6B
102
{ACAD_XDICTIONARY
360
F6C
102
}
102
{ACAD_REACTORS
330
F62
102
}
330
F62
100
AcDbMaterial
  1
ByBlock
 72
     0
 43
0.0208333333333333
 43
0.0
 43
0.0
 43
0.0
 43
0.0
 43
0.0208333333333333
 43
0.0
 43
0.0
 43
0.0
 43
0.0
 43
1.0
 43
0.0
 43
0.0
 43
0.0
 43
0.0
 43
1.0
 77
     0
 47
0.0208333333333333
 47
0.0
 47
0.0
 47
0.0
 47
0.0
 47
0.0208333333333333
 47
0.0
 47
0.0
 47
0.0
 47
0.0
 47
1.0
 47
0.0
 47
0.0
 47
0.0
 47
0.0
 47
1.0
171
     0
 49
0.0208333333333333
 49
0.0
 49
0.0
 49
0.0
 49
0.0
 49
0.0208333333333333
 49
0.0
 49
0.0
 49
0.0
 49
0.0
 49
1.0
 49
0.0
 49
0.0
 49
0.0
 49
0.0
 49
1.0
175
     0
142
0.0208333333333333
142
0.0
142
0.0
142
0.0
142
0.0
142
0.0208333333333333
142
0.0
142
0.0
142
0.0
142
0.0
142
1.0
142
0.0
142
0.0
142
0.0
142
0.0
142
1.0
179
     0
144
0.0208333333333333
144
0.0
144
0.0
144
0.0
144
0.0
144
0.0208333333333333
144
0.0
144
0.0
144
0.0
144
0.0
144
1.0
144
0.0
144
0.0
144
0.0
144
0.0
144
1.0
147
0.0208333333333333
147
0.0
147
0.0
147
0.0
147
0.0
147
0.0208333333333333
147
0.0
147
0.0
147
0.0
147
0.0
147
1.0
147
0.0
147
0.0
147
0.0
147
0.0
147
1.0
  0
MATERIAL
  5
F63
102
{ACAD_XDICTIONARY
360
F64
102
}
102
{ACAD_REACTORS
330
F62
102
}
330
F62
100
AcDbMaterial
  1
ByLayer
 72
     0
 43
0.0208333333333333
 43
0.0
 43
0.0
 43
0.0
 43
0.0
 43
0.0208333333333333
 43
0.0
 43
0.0
 43
0.0
 43
0.0
 43
1.0
 43
0.0
 43
0.0
 43
0.0
 43
0.0
 43
1.0
 77
     0
 47
0.0208333333333333
 47
0.0
 47
0.0
 47
0.0
 47
0.0
 47
0.0208333333333333
 47
0.0
 47
0.0
 47
0.0
 47
0.0
 47
1.0
 47
0.0
 47
0.0
 47
0.0
 47
0.0
 47
1.0
171
     0
 49
0.0208333333333333
 49
0.0
 49
0.0
 49
0.0
 49
0.0
 49
0.0208333333333333
 49
0.0
 49
0.0
 49
0.0
 49
0.0
 49
1.0
 49
0.0
 49
0.0
 49
0.0
 49
0.0
 49
1.0
175
     0
142
0.0208333333333333
142
0.0
142
0.0
142
0.0
142
0.0
142
0.0208333333333333
142
0.0
142
0.0
142
0.0
142
0.0
142
1.0
142
0.0
142
0.0
142
0.0
142
0.0
142
1.0
179
     0
144
0.0208333333333333
144
0.0
144
0.0
144
0.0
144
0.0
144
0.0208333333333333
144
0.0
144
0.0
144
0.0
144
0.0
144
1.0
144
0.0
144
0.0
144
0.0
144
0.0
144
1.0
147
0.0208333333333333
147
0.0
147
0.0
147
0.0
147
0.0
147
0.0208333333333333
147
0.0
147
0.0
147
0.0
147
0.0
147
1.0
147
0.0
147
0.0
147
0.0
147
0.0
147
1.0
  0
MATERIAL
  5
F73
102
{ACAD_XDICTIONARY
360
F74
102
}
102
{ACAD_REACTORS
330
F62
102
}
330
F62
100
AcDbMaterial
  1
Global
 72
     0
 43
0.0208333333333333
 43
0.0
 43
0.0
 43
0.0
 43
0.0
 43
0.0208333333333333
 43
0.0
 43
0.0
 43
0.0
 43
0.0
 43
1.0
 43
0.0
 43
0.0
 43
0.0
 43
0.0
 43
1.0
 77
     0
 47
0.0208333333333333
 47
0.0
 47
0.0
 47
0.0
 47
0.0
 47
0.0208333333333333
 47
0.0
 47
0.0
 47
0.0
 47
0.0
 47
1.0
 47
0.0
 47
0.0
 47
0.0
 47
0.0
 47
1.0
171
     0
 49
0.0208333333333333
 49
0.0
 49
0.0
 49
0.0
 49
0.0
 49
0.0208333333333333
 49
0.0
 49
0.0
 49
0.0
 49
0.0
 49
1.0
 49
0.0
 49
0.0
 49
0.0
 49
0.0
 49
1.0
175
     0
142
0.0208333333333333
142
0.0
142
0.0
142
0.0
142
0.0
142
0.0208333333333333
142
0.0
142
0.0
142
0.0
142
0.0
142
1.0
142
0.0
142
0.0
142
0.0
142
0.0
142
1.0
179
     0
144
0.0208333333333333
144
0.0
144
0.0
144
0.0
144
0.0
144
0.0208333333333333
144
0.0
144
0.0
144
0.0
144
0.0
144
1.0
144
0.0
144
0.0
144
0.0
144
0.0
144
1.0
147
0.0208333333333333
147
0.0
147
0.0
147
0.0
147
0.0
147
0.0208333333333333
147
0.0
147
0.0
147
0.0
147
0.0
147
1.0
147
0.0
147
0.0
147
0.0
147
0.0
147
1.0
  0
MLEADERSTYLE
  5
FAA
102
{ACAD_REACTORS
330
FA9
102
}
330
FA9
100
AcDbMLeaderStyle
170
     2
171
     1
172
     0
 90
        2
 40
0.0
 41
0.0
173
     1
 91
-1056964608
340
9D9
 92
       -2
290
     1
 42
0.09
291
     1
 43
0.36
  3
Standard
 44
0.18
300

342
9D7
174
     1
178
     6
175
     1
176
     0
 93
-1056964608
 45
0.18
292
     0
297
     0
 46
0.18
 94
-1056964608
 47
1.0
 49
1.0
140
1.0
293
     1
141
0.0
294
     1
177
     0
142
1.0
295
     0
296
     0
143
0.125
1001
ACAD_MLEADERVER
1070
     2
  0
MLINESTYLE
  5
9DD
102
{ACAD_REACTORS
330
9DC
102
}
330
9DC
100
AcDbMlineStyle
  2
STANDARD
 70
     0
  3

 62
   256
 51
90.0
 52
90.0
 71
     2
 49
0.5
 62
   256
  6
BYLAYER
 49
-0.5
 62
   256
  6
BYLAYER
  0
ACDBPLACEHOLDER
  5
F61
102
{ACAD_REACTORS
330
F60
102
}
330
F60
  0
SCALE
  5
F98
102
{ACAD_REACTORS
330
F97
102
}
330
F97
100
AcDbScale
 70
     0
300
1:1
140
1.0
141
1.0
290
     1
  0
SCALE
  5
F99
102
{ACAD_REACTORS
330
F97
102
}
330
F97
100
AcDbScale
 70
     0
300
1/128" = 1'-0"
140
0.0078125
141
12.0
290
     0
  0
SCALE
  5
F9A
102
{ACAD_REACTORS
330
F97
102
}
330
F97
100
AcDbScale
 70
     0
300
1/64" = 1'-0"
140
0.015625
141
12.0
290
     0
  0
SCALE
  5
F9B
102
{ACAD_REACTORS
330
F97
102
}
330
F97
100
AcDbScale
 70
     0
300
1/32" = 1'-0"
140
0.03125
141
12.0
290
     0
  0
SCALE
  5
F9C
102
{ACAD_REACTORS
330
F97
102
}
330
F97
100
AcDbScale
 70
     0
300
1/16" = 1'-0"
140
0.0625
141
12.0
290
     0
  0
SCALE
  5
F9D
102
{ACAD_REACTORS
330
F97
102
}
330
F97
100
AcDbScale
 70
     0
300
3/32" = 1'-0"
140
0.09375
141
12.0
290
     0
  0
SCALE
  5
F9E
102
{ACAD_REACTORS
330
F97
102
}
330
F97
100
AcDbScale
 70
     0
300
1/8" = 1'-0"
140
0.125
141
12.0
290
     0
  0
SCALE
  5
F9F
102
{ACAD_REACTORS
330
F97
102
}
330
F97
100
AcDbScale
 70
     0
300
3/16" = 1'-0"
140
0.1875
141
12.0
290
     0
  0
SCALE
  5
FA0
102
{ACAD_REACTORS
330
F97
102
}
330
F97
100
AcDbScale
 70
     0
300
1/4" = 1'-0"
140
0.25
141
12.0
290
     0
  0
SCALE
  5
FA1
102
{ACAD_REACTORS
330
F97
102
}
330
F97
100
AcDbScale
 70
     0
300
3/8" = 1'-0"
140
0.375
141
12.0
290
     0
  0
SCALE
  5
FA2
102
{ACAD_REACTORS
330
F97
102
}
330
F97
100
AcDbScale
 70
     0
300
1/2" = 1'-0"
140
0.5
141
12.0
290
     0
  0
SCALE
  5
FA3
102
{ACAD_REACTORS
330
F97
102
}
330
F97
100
AcDbScale
 70
     0
300
3/4" = 1'-0"
140
0.75
141
12.0
290
     0
  0
SCALE
  5
FA4
102
{ACAD_REACTORS
330
F97
102
}
330
F97
100
AcDbScale
 70
     0
300
1" = 1'-0"
140
1.0
141
12.0
290
     0
  0
SCALE
  5
FA5
102
{ACAD_REACTORS
330
F97
102
}
330
F97
100
AcDbScale
 70
     0
300
1-1/2" = 1'-0"
140
1.5
141
12.0
290
     0
  0
SCALE
  5
FA6
102
{ACAD_REACTORS
330
F97
102
}
330
F97
100
AcDbScale
 70
     0
300
3" = 1'-0"
140
3.0
141
12.0
290
     0
  0
SCALE
  5
FA7
102
{ACAD_REACTORS
330
F97
102
}
330
F97
100
AcDbScale
 70
     0
300
6" = 1'-0"
140
6.0
141
12.0
290
     0
  0
SCALE
  5
FA8
102
{ACAD_REACTORS
330
F97
102
}
330
F97
100
AcDbScale
 70
     0
300
1'-0" = 1'-0"
140
12.0
141
12.0
290
     0
  0
ACDBSECTIONVIEWSTYLE
  5
FAC
102
{ACAD_XDICTIONARY
360
1006
102
}
102
{ACAD_REACTORS
330
FAB
102
}
330
FAB
100
AcDbModelDocViewStyle
 70
     0
  3
Imperial24
290
     0
100
AcDbSectionViewStyle
 70
     0
 71
     0
 90
       78
 71
     1
340
9D7
 40
0.24
340
0
340
0
 40
0.24
300
I, O, Q, S, X, Z
 40
0.48
 90
        3
 40
0.18
 90
        1
 71
     2
340
9DB
 90
       25
340
9DB
 90
       50
 40
0.24
 40
0.0
 40
0.24
 71
     3
340
9D7
 40
0.24
 90
        1
 40
0.75
 90
        1
300
%<\AcVar ViewType \f "%tc1">% %<\AcVar ViewSectionStartId>%-%<\AcVar ViewSectionEndId>%\PSCALE %<\AcVar ViewScale \f "%sn">%
 71
     4
300
ANSI31
 40
1.0
 90
        0
290
     0
290
     0
 90
        6
 40
0.0
 40
1.570796326794896
 40
0.2617993877991494
 40
1.308996938995747
 40
-0.2617993877991494
 40
1.832595714594046
  0
TABLESTYLE
  5
F96
102
{ACAD_XDICTIONARY
360
FCD
102
}
102
{ACAD_REACTORS
330
F95
102
}
330
F95
100
AcDbTableStyle
  3
Standard
 70
     0
 71
     0
 40
0.06
 41
0.06
280
     0
281
     0
  7
STANDARD
140
0.18
170
     2
 62
     0
 63
     7
283
     0
274
    -2
284
     1
 64
     0
275
    -2
285
     1
 65
     0
276
    -2
286
     1
 66
     0
277
    -2
287
     1
 67
     0
278
    -2
288
     1
 68
     0
279
    -2
289
     1
 69
     0
  7
STANDARD
140
0.25
170
     5
 62
     0
 63
     7
283
     0
274
    -2
284
     1
 64
     0
275
    -2
285
     1
 65
     0
276
    -2
286
     1
 66
     0
277
    -2
287
     1
 67
     0
278
    -2
288
     1
 68
     0
279
    -2
289
     1
 69
     0
  7
STANDARD
140
0.18
170
     5
 62
     0
 63
     7
283
     0
274
    -2
284
     1
 64
     0
275
    -2
285
     1
 65
     0
276
    -2
286
     1
 66
     0
277
    -2
287
     1
 67
     0
278
    -2
288
     1
 68
     0
279
    -2
289
     1
 69
     0
  0
VISUALSTYLE
  5
F81
102
{ACAD_XDICTIONARY
360
FDE
102
}
102
{ACAD_REACTORS
330
F7B
102
}
330
F7B
100
AcDbVisualStyle
  2
2dWireframe
 70
     4
 71
     0
 72
     2
 73
     0
 90
        0
 40
-0.6
 41
-30.0
 62
     5
 63
     7
 74
     1
 91
        4
 64
     7
 65
   257
 75
     1
175
     1
 42
1.0
 92
        0
 66
   257
 43
1.0
 76
     1
 77
     6
 78
     2
 67
     7
 79
     5
170
     0
171
     0
290
     0
174
     0
 93
        1
 44
0.0
173
     0
291
     0
 45
0.0
1001
ACAD
1000
AcDbSavedByObjectVersion
1070
     0
  0
VISUALSTYLE
  5
F80
102
{ACAD_XDICTIONARY
360
FDC
102
}
102
{ACAD_REACTORS
330
F7B
102
}
330
F7B
100
AcDbVisualStyle
  2
Basic
 70
     7
 71
     1
 72
     0
 73
     1
 90
        0
 40
-0.6
 41
-30.0
 62
     5
 63
     7
 74
     0
 91
        4
 64
     7
 65
   257
 75
     1
175
     1
 42
1.0
 92
        8
 66
     7
 43
1.0
 76
     1
 77
     6
 78
     2
 67
     7
 79
     5
170
     0
171
     0
290
     0
174
     0
 93
        1
 44
0.0
173
     0
291
     1
 45
0.0
1001
ACAD
1000
AcDbSavedByObjectVersion
1070
     0
  0
VISUALSTYLE
  5
F87
102
{ACAD_XDICTIONARY
360
FEA
102
}
102
{ACAD_REACTORS
330
F7B
102
}
330
F7B
100
AcDbVisualStyle
  2
Brighten
 70
    12
 71
     2
 72
     2
 73
     0
 90
        0
 40
-0.6
 41
-30.0
 62
     5
 63
     7
 74
     1
 91
        4
 64
     7
 65
   257
 75
     1
175
     1
 42
1.0
 92
        8
 66
     7
 43
1.0
 76
     1
 77
     6
 78
     2
 67
     7
 79
     5
170
     0
171
     0
290
     0
174
     0
 93
        1
 44
50.0
173
     0
291
     1
 45
0.0
1001
ACAD
1000
AcDbSavedByObjectVersion
1070
     0
  0
VISUALSTYLE
  5
F8B
102
{ACAD_XDICTIONARY
360
FF2
102
}
102
{ACAD_REACTORS
330
F7B
102
}
330
F7B
100
AcDbVisualStyle
  2
ColorChange
 70
    16
 71
     2
 72
     2
 73
     3
 90
        0
 40
-0.6
 41
-30.0
 62
     5
 63
     8
 74
     1
 91
        4
 64
     7
 65
   257
 75
     1
175
     1
 42
1.0
 92
        8
 66
     8
 43
1.0
 76
     1
 77
     6
 78
     2
 67
     7
 79
     5
170
     0
171
     0
290
     0
174
     0
 93
        1
 44
0.0
173
     0
291
     1
 45
0.0
1001
ACAD
1000
AcDbSavedByObjectVersion
1070
     0
  0
VISUALSTYLE
  5
F84
102
{ACAD_XDICTIONARY
360
FE4
102
}
102
{ACAD_REACTORS
330
F7B
102
}
330
F7B
100
AcDbVisualStyle
  2
Conceptual
 70
     9
 71
     3
 72
     2
 73
     0
 90
        0
 40
-0.6
 41
-30.0
 62
     5
 63
     7
 74
     2
 91
        2
 64
     7
 65
   257
 75
     1
175
     1
 42
179.0
 92
        8
 66
     7
 43
1.0
 76
     1
 77
     6
 78
     2
 67
     7
 79
     3
170
     0
171
     0
290
     0
174
     0
 93
        1
 44
0.0
173
     0
291
     0
 45
0.0
1001
ACAD
1000
AcDbSavedByObjectVersion
1070
     0
  0
VISUALSTYLE
  5
F86
102
{ACAD_XDICTIONARY
360
FE8
102
}
102
{ACAD_REACTORS
330
F7B
102
}
330
F7B
100
AcDbVisualStyle
  2
Dim
 70
    11
 71
     2
 72
     2
 73
     0
 90
        0
 40
-0.6
 41
-30.0
 62
     5
 63
     7
 74
     1
 91
        4
 64
     7
 65
   257
 75
     1
175
     1
 42
1.0
 92
        8
 66
     7
 43
1.0
 76
     1
 77
     6
 78
     2
 67
     7
 79
     5
170
     0
171
     0
290
     0
174
     0
 93
        1
 44
-50.0
173
     0
291
     1
 45
0.0
1001
ACAD
1000
AcDbSavedByObjectVersion
1070
     0
  0
VISUALSTYLE
  5
F93
102
{ACAD_XDICTIONARY
360
1002
102
}
102
{ACAD_REACTORS
330
F7B
102
}
330
F7B
100
AcDbVisualStyle
  2
EdgeColorOff
 70
    22
 71
     2
 72
     2
 73
     0
 90
        0
 40
-0.6
 41
-30.0
 62
     5
 63
     7
 74
     1
 91
        4
 64
     7
 65
   257
 75
     1
175
     1
 42
1.0
 92
        8
 66
     7
 43
1.0
 76
     1
 77
     6
 78
     2
 67
     7
 79
     5
170
     0
171
     0
290
     0
174
     0
 93
        1
 44
0.0
173
     0
291
     1
 45
0.0
1001
ACAD
1000
AcDbSavedByObjectVersion
1070
     0
  0
VISUALSTYLE
  5
F8A
102
{ACAD_XDICTIONARY
360
FF0
102
}
102
{ACAD_REACTORS
330
F7B
102
}
330
F7B
100
AcDbVisualStyle
  2
Facepattern
 70
    15
 71
     2
 72
     2
 73
     0
 90
        0
 40
-0.6
 41
-30.0
 62
     5
 63
     7
 74
     1
 91
        4
 64
     7
 65
   257
 75
     1
175
     1
 42
1.0
 92
        8
 66
     7
 43
1.0
 76
     1
 77
     6
 78
     2
 67
     7
 79
     5
170
     0
171
     0
290
     0
174
     0
 93
        1
 44
0.0
173
     0
291
     1
 45
0.0
1001
ACAD
1000
AcDbSavedByObjectVersion
1070
     0
  0
VISUALSTYLE
  5
F7C
102
{ACAD_XDICTIONARY
360
FD4
102
}
102
{ACAD_REACTORS
330
F7B
102
}
330
F7B
100
AcDbVisualStyle
  2
Flat
 70
     0
 71
     2
 72
     1
 73
     1
 90
        2
 40
-0.6
 41
30.0
 62
     5
 63
     7
 74
     0
 91
        0
 64
     7
 65
   257
 75
     1
175
     1
 42
1.0
 92
        8
 66
     7
 43
1.0
 76
     1
 77
     6
 78
     2
 67
     7
 79
     5
170
     0
171
     0
290
     0
174
     0
 93
       13
 44
0.0
173
     0
291
     1
 45
0.0
1001
ACAD
1000
AcDbSavedByObjectVersion
1070
     0
  0
VISUALSTYLE
  5
F7D
102
{ACAD_XDICTIONARY
360
FD6
102
}
102
{ACAD_REACTORS
330
F7B
102
}
330
F7B
100
AcDbVisualStyle
  2
FlatWithEdges
 70
     1
 71
     2
 72
     1
 73
     1
 90
        2
 40
-0.6
 41
30.0
 62
     5
 63
     7
 74
     1
 91
        0
 64
     7
 65
   257
 75
     1
175
     1
 42
1.0
 92
        0
 66
   257
 43
1.0
 76
     1
 77
     6
 78
     2
 67
     7
 79
     5
170
     0
171
     0
290
     0
174
     0
 93
       13
 44
0.0
173
     0
291
     1
 45
0.0
1001
ACAD
1000
AcDbSavedByObjectVersion
1070
     0
  0
VISUALSTYLE
  5
F7E
102
{ACAD_XDICTIONARY
360
FD8
102
}
102
{ACAD_REACTORS
330
F7B
102
}
330
F7B
100
AcDbVisualStyle
  2
Gouraud
 70
     2
 71
     2
 72
     2
 73
     1
 90
        2
 40
-0.6
 41
30.0
 62
     5
 63
     7
 74
     0
 91
        0
 64
     7
 65
   257
 75
     1
175
     1
 42
1.0
 92
        0
 66
     7
 43
1.0
 76
     1
 77
     6
 78
     2
 67
     7
 79
     5
170
     0
171
     0
290
     0
174
     0
 93
       13
 44
0.0
173
     0
291
     1
 45
0.0
1001
ACAD
1000
AcDbSavedByObjectVersion
1070
     0
  0
VISUALSTYLE
  5
F7F
102
{ACAD_XDICTIONARY
360
FDA
102
}
102
{ACAD_REACTORS
330
F7B
102
}
330
F7B
100
AcDbVisualStyle
  2
GouraudWithEdges
 70
     3
 71
     2
 72
     2
 73
     1
 90
        2
 40
-0.6
 41
30.0
 62
     5
 63
     7
 74
     1
 91
        0
 64
     7
 65
   257
 75
     1
175
     1
 42
1.0
 92
        0
 66
   257
 43
1.0
 76
     1
 77
     6
 78
     2
 67
     7
 79
     5
170
     0
171
     0
290
     0
174
     0
 93
       13
 44
0.0
173
     0
291
     1
 45
0.0
1001
ACAD
1000
AcDbSavedByObjectVersion
1070
     0
  0
VISUALSTYLE
  5
F83
102
{ACAD_XDICTIONARY
360
FE2
102
}
102
{ACAD_REACTORS
330
F7B
102
}
330
F7B
100
AcDbVisualStyle
  2
Hidden
 70
     6
 71
     1
 72
     2
 73
     2
 90
        0
 40
-0.6
 41
-30.0
 62
     5
 63
     7
 74
     2
 91
        2
 64
     7
 65
   257
 75
     2
175
     1
 42
40.0
 92
        0
 66
   257
 43
1.0
 76
     1
 77
     6
 78
     2
 67
     7
 79
     3
170
     0
171
     0
290
     0
174
     0
 93
        1
 44
0.0
173
     0
291
     0
 45
0.0
1001
ACAD
1000
AcDbSavedByObjectVersion
1070
     0
  0
VISUALSTYLE
  5
F91
102
{ACAD_XDICTIONARY
360
FFE
102
}
102
{ACAD_REACTORS
330
F7B
102
}
330
F7B
100
AcDbVisualStyle
  2
JitterOff
 70
    20
 71
     2
 72
     2
 73
     0
 90
        0
 40
-0.6
 41
-30.0
 62
     5
 63
     7
 74
     1
 91
        4
 64
     7
 65
   257
 75
     1
175
     1
 42
1.0
 92
       10
 66
     7
 43
1.0
 76
     1
 77
     6
 78
     2
 67
     7
 79
     5
170
     0
171
     0
290
     0
174
     0
 93
        1
 44
0.0
173
     0
291
     1
 45
0.0
1001
ACAD
1000
AcDbSavedByObjectVersion
1070
     0
  0
VISUALSTYLE
  5
F89
102
{ACAD_XDICTIONARY
360
FEE
102
}
102
{ACAD_REACTORS
330
F7B
102
}
330
F7B
100
AcDbVisualStyle
  2
Linepattern
 70
    14
 71
     2
 72
     2
 73
     0
 90
        0
 40
-0.6
 41
-30.0
 62
     5
 63
     7
 74
     1
 91
        4
 64
     7
 65
   257
 75
     7
175
     7
 42
1.0
 92
        8
 66
     7
 43
1.0
 76
     1
 77
     6
 78
     2
 67
     7
 79
     5
170
     0
171
     0
290
     0
174
     0
 93
        1
 44
0.0
173
     0
291
     1
 45
0.0
1001
ACAD
1000
AcDbSavedByObjectVersion
1070
     0
  0
VISUALSTYLE
  5
F92
102
{ACAD_XDICTIONARY
360
1000
102
}
102
{ACAD_REACTORS
330
F7B
102
}
330
F7B
100
AcDbVisualStyle
  2
OverhangOff
 70
    21
 71
     2
 72
     2
 73
     0
 90
        0
 40
-0.6
 41
-30.0
 62
     5
 63
     7
 74
     1
 91
        4
 64
     7
 65
   257
 75
     1
175
     1
 42
1.0
 92
        9
 66
     7
 43
1.0
 76
     1
 77
     6
 78
     2
 67
     7
 79
     5
170
     0
171
     0
290
     0
174
     0
 93
        1
 44
0.0
173
     0
291
     1
 45
0.0
1001
ACAD
1000
AcDbSavedByObjectVersion
1070
     0
  0
VISUALSTYLE
  5
F85
102
{ACAD_XDICTIONARY
360
FE6
102
}
102
{ACAD_REACTORS
330
F7B
102
}
330
F7B
100
AcDbVisualStyle
  2
Realistic
 70
     8
 71
     2
 72
     3
 73
     0
 90
        2
 40
-0.6
 41
30.0
 62
     5
 63
     7
 74
     0
 91
        0
 64
     7
 65
   257
 75
     1
175
     1
 42
1.0
 92
        8
 66
   257
 43
1.0
 76
     1
 77
     6
 78
     2
 67
     7
 79
     3
170
     0
171
     0
290
     0
174
     0
 93
       13
 44
0.0
173
     0
291
     0
 45
0.0
1001
ACAD
1000
AcDbSavedByObjectVersion
1070
     0
  0
VISUALSTYLE
  5
F90
102
{ACAD_XDICTIONARY
360
FFC
102
}
102
{ACAD_REACTORS
330
F7B
102
}
330
F7B
100
AcDbVisualStyle
  2
Shaded
 70
    27
 71
     2
 72
     2
 73
     1
 90
        2
 40
-0.6
 41
30.0
 62
     5
 63
     7
 74
     0
 91
        4
 64
     7
 65
   257
 75
     1
175
     1
 42
1.0
 92
        8
 66
   257
 43
1.0
 76
     1
 77
     6
 78
     2
 67
     8
 79
     3
170
     0
171
     0
290
     0
174
     0
 93
        5
 44
0.0
173
     0
291
     0
 45
0.0
1001
ACAD
1000
AcDbSavedByObjectVersion
1070
     0
  0
VISUALSTYLE
  5
F8F
102
{ACAD_XDICTIONARY
360
FFA
102
}
102
{ACAD_REACTORS
330
F7B
102
}
330
F7B
100
AcDbVisualStyle
  2
Shaded with edges
 70
    26
 71
     2
 72
     2
 73
     1
 90
        2
 40
-0.6
 41
30.0
 62
     5
 63
     7
 74
     1
 91
       10
 64
     7
 65
   257
 75
     2
175
     1
 42
1.0
 92
        8
 66
   257
 43
1.0
 76
     1
 77
     6
 78
     2
 67
     7
 79
     3
170
     0
171
     0
290
     0
174
     0
 93
        5
 44
0.0
173
     0
291
     0
 45
0.0
1001
ACAD
1000
AcDbSavedByObjectVersion
1070
     0
  0
VISUALSTYLE
  5
F8C
102
{ACAD_XDICTIONARY
360
FF4
102
}
102
{ACAD_REACTORS
330
F7B
102
}
330
F7B
100
AcDbVisualStyle
  2
Shades of Gray
 70
    23
 71
     2
 72
     2
 73
     3
 90
        0
 40
-0.6
 41
-30.0
 62
     5
 63
     7
 74
     2
 91
        2
 64
     7
 65
     7
 75
     1
175
     1
 42
40.0
 92
        8
 66
     7
 43
1.0
 76
     1
 77
     6
 78
     2
 67
     7
 79
     3
170
     0
171
     0
290
     0
174
     0
 93
        1
 44
0.0
173
     0
291
     0
 45
0.0
1001
ACAD
1000
AcDbSavedByObjectVersion
1070
     0
  0
VISUALSTYLE
  5
F8D
102
{ACAD_XDICTIONARY
360
FF6
102
}
102
{ACAD_REACTORS
330
F7B
102
}
330
F7B
100
AcDbVisualStyle
  2
Sketchy
 70
    24
 71
     1
 72
     2
 73
     2
 90
        0
 40
-0.6
 41
-30.0
 62
     5
 63
     7
 74
     2
 91
        2
 64
     7
 65
     7
 75
     1
175
     1
 42
40.0
 92
       11
 66
     7
 43
1.0
 76
     1
 77
     6
 78
     2
 67
     7
 79
     6
170
     0
171
     0
290
     0
174
     0
 93
        1
 44
0.0
173
     0
291
     0
 45
0.0
1001
ACAD
1000
AcDbSavedByObjectVersion
1070
     0
  0
VISUALSTYLE
  5
F88
102
{ACAD_XDICTIONARY
360
FEC
102
}
102
{ACAD_REACTORS
330
F7B
102
}
330
F7B
100
AcDbVisualStyle
  2
Thicken
 70
    13
 71
     2
 72
     2
 73
     0
 90
        0
 40
-0.6
 41
-30.0
 62
     5
 63
     7
 74
     1
 91
        4
 64
     7
 65
   257
 75
     1
175
     1
 42
1.0
 92
       12
 66
     7
 43
1.0
 76
     1
 77
     6
 78
     2
 67
     7
 79
     5
170
     0
171
     0
290
     0
174
     0
 93
        1
 44
0.0
173
     0
291
     1
 45
0.0
1001
ACAD
1000
AcDbSavedByObjectVersion
1070
     0
  0
VISUALSTYLE
  5
F82
102
{ACAD_XDICTIONARY
360
FE0
102
}
102
{ACAD_REACTORS
330
F7B
102
}
330
F7B
100
AcDbVisualStyle
  2
Wireframe
 70
     5
 71
     0
 72
     2
 73
     0
 90
        0
 40
-0.6
 41
-30.0
 62
     5
 63
     7
 74
     1
 91
        4
 64
     7
 65
   257
 75
     1
175
     1
 42
1.0
 92
        0
 66
   257
 43
1.0
 76
     1
 77
     6
 78
     2
 67
     7
 79
     3
170
     0
171
     0
290
     0
174
     0
 93
        1
 44
0.0
173
     0
291
     0
 45
0.0
1001
ACAD
1000
AcDbSavedByObjectVersion
1070
     0
  0
VISUALSTYLE
  5
F8E
102
{ACAD_XDICTIONARY
360
FF8
102
}
102
{ACAD_REACTORS
330
F7B
102
}
330
F7B
100
AcDbVisualStyle
  2
X-Ray
 70
    25
 71
     2
 72
     2
 73
     1
 90
        1
 40
0.5
 41
-30.0
 62
     5
 63
     7
 74
     1
 91
        0
 64
     7
 65
   257
 75
     1
175
     1
 42
1.0
 92
        8
 66
     7
 43
1.0
 76
     1
 77
     6
 78
     2
 67
     7
 79
     3
170
     0
171
     0
290
     0
174
     0
 93
       13
 44
0.0
173
     0
291
     0
 45
0.0
1001
ACAD
1000
AcDbSavedByObjectVersion
1070
     0
  0
DICTIONARYVAR
  5
FC7
102
{ACAD_REACTORS
330
FC2
102
}
330
FC2
100
DictionaryVariables
280
     0
  1
1:1
  0
DICTIONARYVAR
  5
FC4
102
{ACAD_REACTORS
330
FC2
102
}
330
FC2
100
DictionaryVariables
280
     0
  1
STANDARD
  0
DICTIONARYVAR
  5
FC3
102
{ACAD_REACTORS
330
FC2
102
}
330
FC2
100
DictionaryVariables
280
     0
  1
STANDARD
  0
DICTIONARYVAR
  5
FC5
102
{ACAD_REACTORS
330
FC2
102
}
330
FC2
100
DictionaryVariables
280
     0
  1
Imperial24
  0
DICTIONARYVAR
  5
FC6
102
{ACAD_REACTORS
330
FC2
102
}
330
FC2
100
DictionaryVariables
280
     0
  1
Imperial24
  0
DICTIONARYVAR
  5
FCA
102
{ACAD_REACTORS
330
FC2
102
}
330
FC2
100
DictionaryVariables
280
     0
  1
1
  0
DICTIONARYVAR
  5
FC9
102
{ACAD_REACTORS
330
FC2
102
}
330
FC2
100
DictionaryVariables
280
     0
  1
0
  0
DICTIONARYVAR
  5
FC8
102
{ACAD_REACTORS
330
FC2
102
}
330
FC2
100
DictionaryVariables
280
     0
  1
127
  0
DICTIONARYVAR
  5
FCB
102
{ACAD_REACTORS
330
FC2
102
}
330
FC2
100
DictionaryVariables
280
     0
  1
2
  0
DICTIONARY
  5
1008
330
FAE
100
AcDbDictionary
280
     1
281
     1
  3
ACAD_XREC_ROUNDTRIP
360
1009
  0
DICTIONARY
  5
100A
330
FAF
100
AcDbDictionary
280
     1
281
     1
  3
ACAD_XREC_ROUNDTRIP
360
100B
  0
DICTIONARY
  5
100C
330
FB0
100
AcDbDictionary
280
     1
281
     1
  3
ACAD_XREC_ROUNDTRIP
360
100D
  0
DICTIONARY
  5
F6C
330
F6B
100
AcDbDictionary
280
     1
281
     1
  3
ACAD_XREC_ROUNDTRIP
360
FD2
  3
BUMPTILE
360
F6E
  3
DIFFUSETILE
360
F6D
  3
OPACITYTILE
360
F71
  3
REFLECTIONTILE
360
F70
  3
REFRACTIONTILE
360
F72
  3
SPECULARTILE
360
F6F
  0
DICTIONARY
  5
F64
330
F63
100
AcDbDictionary
280
     1
281
     1
  3
ACAD_XREC_ROUNDTRIP
360
FD1
  3
BUMPTILE
360
F66
  3
DIFFUSETILE
360
F65
  3
OPACITYTILE
360
F69
  3
REFLECTIONTILE
360
F68
  3
REFRACTIONTILE
360
F6A
  3
SPECULARTILE
360
F67
  0
DICTIONARY
  5
F74
330
F73
100
AcDbDictionary
280
     1
281
     1
  3
ACAD_XREC_ROUNDTRIP
360
FD3
  3
BUMPTILE
360
F76
  3
DIFFUSETILE
360
F75
  3
OPACITYTILE
360
F79
  3
REFLECTIONTILE
360
F78
  3
REFRACTIONTILE
360
F7A
  3
SPECULARTILE
360
F77
  0
DICTIONARY
  5
1006
330
FAC
100
AcDbDictionary
280
     1
281
     1
  3
ACAD_XREC_ROUNDTRIP
360
1007
  0
DICTIONARY
  5
FCD
330
F96
100
AcDbDictionary
280
     1
281
     1
  3
ACAD_ROUNDTRIP_2008_TABLESTYLE_CELLSTYLEMAP
360
FCE
  3
ACAD_XREC_ROUNDTRIP
360
1004
  0
DICTIONARY
  5
FDE
330
F81
100
AcDbDictionary
280
     1
281
     1
  3
ACAD_XREC_ROUNDTRIP
360
FDF
  0
DICTIONARY
  5
FDC
330
F80
100
AcDbDictionary
280
     1
281
     1
  3
ACAD_XREC_ROUNDTRIP
360
FDD
  0
DICTIONARY
  5
FEA
330
F87
100
AcDbDictionary
280
     1
281
     1
  3
ACAD_XREC_ROUNDTRIP
360
FEB
  0
DICTIONARY
  5
FF2
330
F8B
100
AcDbDictionary
280
     1
281
     1
  3
ACAD_XREC_ROUNDTRIP
360
FF3
  0
DICTIONARY
  5
FE4
330
F84
100
AcDbDictionary
280
     1
281
     1
  3
ACAD_XREC_ROUNDTRIP
360
FE5
  0
DICTIONARY
  5
FE8
330
F86
100
AcDbDictionary
280
     1
281
     1
  3
ACAD_XREC_ROUNDTRIP
360
FE9
  0
DICTIONARY
  5
1002
330
F93
100
AcDbDictionary
280
     1
281
     1
  3
ACAD_XREC_ROUNDTRIP
360
1003
  0
DICTIONARY
  5
FF0
330
F8A
100
AcDbDictionary
280
     1
281
     1
  3
ACAD_XREC_ROUNDTRIP
360
FF1
  0
DICTIONARY
  5
FD4
330
F7C
100
AcDbDictionary
280
     1
281
     1
  3
ACAD_XREC_ROUNDTRIP
360
FD5
  0
DICTIONARY
  5
FD6
330
F7D
100
AcDbDictionary
280
     1
281
     1
  3
ACAD_XREC_ROUNDTRIP
360
FD7
  0
DICTIONARY
  5
FD8
330
F7E
100
AcDbDictionary
280
     1
281
     1
  3
ACAD_XREC_ROUNDTRIP
360
FD9
  0
DICTIONARY
  5
FDA
330
F7F
100
AcDbDictionary
280
     1
281
     1
  3
ACAD_XREC_ROUNDTRIP
360
FDB
  0
DICTIONARY
  5
FE2
330
F83
100
AcDbDictionary
280
     1
281
     1
  3
ACAD_XREC_ROUNDTRIP
360
FE3
  0
DICTIONARY
  5
FFE
330
F91
100
AcDbDictionary
280
     1
281
     1
  3
ACAD_XREC_ROUNDTRIP
360
FFF
  0
DICTIONARY
  5
FEE
330
F89
100
AcDbDictionary
280
     1
281
     1
  3
ACAD_XREC_ROUNDTRIP
360
FEF
  0
DICTIONARY
  5
1000
330
F92
100
AcDbDictionary
280
     1
281
     1
  3
ACAD_XREC_ROUNDTRIP
360
1001
  0
DICTIONARY
  5
FE6
330
F85
100
AcDbDictionary
280
     1
281
     1
  3
ACAD_XREC_ROUNDTRIP
360
FE7
  0
DICTIONARY
  5
FFC
330
F90
100
AcDbDictionary
280
     1
281
     1
  3
ACAD_XREC_ROUNDTRIP
360
FFD
  0
DICTIONARY
  5
FFA
330
F8F
100
AcDbDictionary
280
     1
281
     1
  3
ACAD_XREC_ROUNDTRIP
360
FFB
  0
DICTIONARY
  5
FF4
330
F8C
100
AcDbDictionary
280
     1
281
     1
  3
ACAD_XREC_ROUNDTRIP
360
FF5
  0
DICTIONARY
  5
FF6
330
F8D
100
AcDbDictionary
280
     1
281
     1
  3
ACAD_XREC_ROUNDTRIP
360
FF7
  0
DICTIONARY
  5
FEC
330
F88
100
AcDbDictionary
280
     1
281
     1
  3
ACAD_XREC_ROUNDTRIP
360
FED
  0
DICTIONARY
  5
FE0
330
F82
100
AcDbDictionary
280
     1
281
     1
  3
ACAD_XREC_ROUNDTRIP
360
FE1
  0
DICTIONARY
  5
FF8
330
F8E
100
AcDbDictionary
280
     1
281
     1
  3
ACAD_XREC_ROUNDTRIP
360
FF9
  0
XRECORD
  5
1009
102
{ACAD_REACTORS
330
1008
102
}
330
1008
100
AcDbXrecord
280
     1
102
DISPLAYNAME
  1
Imperial24
102
FLAGS
 90
        0
  0
XRECORD
  5
100B
102
{ACAD_REACTORS
330
100A
102
}
330
100A
100
AcDbXrecord
280
     1
102
SHADEPLOT
 70
     0
102
SHADEPLOTRESLEVEL
 70
     2
102
SHADEPLOTCUSTOMDPI
 70
   300
  0
XRECORD
  5
100D
102
{ACAD_REACTORS
330
100C
102
}
330
100C
100
AcDbXrecord
280
     1
102
SHADEPLOT
 70
     0
102
SHADEPLOTRESLEVEL
 70
     2
102
SHADEPLOTCUSTOMDPI
 70
   300
  0
XRECORD
  5
FD2
102
{ACAD_REACTORS
330
F6C
102
}
330
F6C
100
AcDbXrecord
280
     1
102
MATERIAL
148
0.0
149
0.0
149
0.0
 93
        0
 94
      127
282
     0
 72
     0
 77
     0
171
     0
175
     0
179
     0
273
     0
  0
XRECORD
  5
F6E
102
{ACAD_REACTORS
330
F6C
102
}
330
F6C
100
AcDbXrecord
280
     1
270
     1
271
     1
  0
XRECORD
  5
F6D
102
{ACAD_REACTORS
330
F6C
102
}
330
F6C
100
AcDbXrecord
280
     1
270
     1
271
     1
  0
XRECORD
  5
F71
102
{ACAD_REACTORS
330
F6C
102
}
330
F6C
100
AcDbXrecord
280
     1
270
     1
271
     1
  0
XRECORD
  5
F70
102
{ACAD_REACTORS
330
F6C
102
}
330
F6C
100
AcDbXrecord
280
     1
270
     1
271
     1
  0
XRECORD
  5
F72
102
{ACAD_REACTORS
330
F6C
102
}
330
F6C
100
AcDbXrecord
280
     1
270
     1
271
     1
  0
XRECORD
  5
F6F
102
{ACAD_REACTORS
330
F6C
102
}
330
F6C
100
AcDbXrecord
280
     1
270
     1
271
     1
  0
XRECORD
  5
FD1
102
{ACAD_REACTORS
330
F64
102
}
330
F64
100
AcDbXrecord
280
     1
102
MATERIAL
148
0.0
149
0.0
149
0.0
 93
        0
 94
      127
282
     0
 72
     0
 77
     0
171
     0
175
     0
179
     0
273
     0
  0
XRECORD
  5
F66
102
{ACAD_REACTORS
330
F64
102
}
330
F64
100
AcDbXrecord
280
     1
270
     1
271
     1
  0
XRECORD
  5
F65
102
{ACAD_REACTORS
330
F64
102
}
330
F64
100
AcDbXrecord
280
     1
270
     1
271
     1
  0
XRECORD
  5
F69
102
{ACAD_REACTORS
330
F64
102
}
330
F64
100
AcDbXrecord
280
     1
270
     1
271
     1
  0
XRECORD
  5
F68
102
{ACAD_REACTORS
330
F64
102
}
330
F64
100
AcDbXrecord
280
     1
270
     1
271
     1
  0
XRECORD
  5
F6A
102
{ACAD_REACTORS
330
F64
102
}
330
F64
100
AcDbXrecord
280
     1
270
     1
271
     1
  0
XRECORD
  5
F67
102
{ACAD_REACTORS
330
F64
102
}
330
F64
100
AcDbXrecord
280
     1
270
     1
271
     1
  0
XRECORD
  5
FD3
102
{ACAD_REACTORS
330
F74
102
}
330
F74
100
AcDbXrecord
280
     1
102
MATERIAL
148
0.0
149
0.0
149
0.0
 93
        0
 94
      127
282
     0
 72
     0
 77
     0
171
     0
175
     0
179
     0
273
     0
  0
XRECORD
  5
F76
102
{ACAD_REACTORS
330
F74
102
}
330
F74
100
AcDbXrecord
280
     1
270
     1
271
     1
  0
XRECORD
  5
F75
102
{ACAD_REACTORS
330
F74
102
}
330
F74
100
AcDbXrecord
280
     1
270
     1
271
     1
  0
XRECORD
  5
F79
102
{ACAD_REACTORS
330
F74
102
}
330
F74
100
AcDbXrecord
280
     1
270
     1
271
     1
  0
XRECORD
  5
F78
102
{ACAD_REACTORS
330
F74
102
}
330
F74
100
AcDbXrecord
280
     1
270
     1
271
     1
  0
XRECORD
  5
F7A
102
{ACAD_REACTORS
330
F74
102
}
330
F74
100
AcDbXrecord
280
     1
270
     1
271
     1
  0
XRECORD
  5
F77
102
{ACAD_REACTORS
330
F74
102
}
330
F74
100
AcDbXrecord
280
     1
270
     1
271
     1
  0
XRECORD
  5
1007
102
{ACAD_REACTORS
330
1006
102
}
330
1006
100
AcDbXrecord
280
     1
102
DISPLAYNAME
  1
Imperial24
102
FLAGS
 90
        0
  0
CELLSTYLEMAP
  5
FCE
102
{ACAD_REACTORS
330
FCD
102
}
330
FCD
100
AcDbCellStyleMap
 90
        3
300
CELLSTYLE
  1
TABLEFORMAT_BEGIN
 90
        5
170
     1
 91
        0
 92
    32768
 62
   257
 93
        1
300
CONTENTFORMAT
  1
CONTENTFORMAT_BEGIN
 90
        0
 91
        0
 92
      512
 93
        0
300

 40
0.0
140
1.0
 94
        5
 62
     0
340
9D7
144
0.25
309
CONTENTFORMAT_END
171
     0
 94
        0
309
TABLEFORMAT_END
  1
CELLSTYLE_BEGIN
 90
        1
 91
        1
300
_TITLE
309
CELLSTYLE_END
300
CELLSTYLE
  1
TABLEFORMAT_BEGIN
 90
        5
170
     1
 91
        0
 92
        0
 62
   257
 93
        1
300
CONTENTFORMAT
  1
CONTENTFORMAT_BEGIN
 90
        0
 91
        0
 92
      512
 93
        0
300

 40
0.0
140
1.0
 94
        5
 62
     0
340
9D7
144
0.18
309
CONTENTFORMAT_END
171
     0
 94
        0
309
TABLEFORMAT_END
  1
CELLSTYLE_BEGIN
 90
        2
 91
        1
300
_HEADER
309
CELLSTYLE_END
300
CELLSTYLE
  1
TABLEFORMAT_BEGIN
 90
        5
170
     1
 91
        0
 92
        0
 62
   257
 93
        1
300
CONTENTFORMAT
  1
CONTENTFORMAT_BEGIN
 90
        0
 91
        0
 92
      512
 93
        0
300

 40
0.0
140
1.0
 94
        2
 62
     0
340
9D7
144
0.18
309
CONTENTFORMAT_END
171
     0
 94
        0
309
TABLEFORMAT_END
  1
CELLSTYLE_BEGIN
 90
        3
 91
        2
300
_DATA
309
CELLSTYLE_END
  0
XRECORD
  5
1004
102
{ACAD_REACTORS
330
FCD
102
}
330
FCD
100
AcDbXrecord
280
     1
102
ACAD_ROUNDTRIP_PRE2007_TABLESTYLE
 90
      512
 91
        0
  1

 92
      512
 93
        0
  2

 94
      512
 95
        0
  3

  0
XRECORD
  5
FDF
102
{ACAD_REACTORS
330
FDE
102
}
330
FDE
100
AcDbXrecord
280
     1
102
RTVSPost2010Prop28
280
     1
102
RTVSPost2010PropOp28
 70
     1
102
RTVSPost2010Prop29
280
     1
102
RTVSPost2010PropOp29
 70
     1
102
RTVSPost2010Prop30
280
     0
102
RTVSPost2010PropOp30
 70
     1
102
RTVSPost2010Prop31
280
     0
102
RTVSPost2010PropOp31
 70
     1
102
RTVSPost2010Prop32
280
     0
102
RTVSPost2010PropOp32
 70
     1
102
RTVSPost2010Prop33
280
     0
102
RTVSPost2010PropOp33
 70
     1
102
RTVSPost2010Prop34
280
     0
102
RTVSPost2010PropOp34
 70
     1
102
RTVSPost2010Prop35
280
     0
102
RTVSPost2010PropOp35
 70
     1
102
RTVSPost2010Prop36
280
     0
102
RTVSPost2010PropOp36
 70
     1
102
RTVSPost2010Prop37
 90
       50
102
RTVSPost2010PropOp37
 70
     1
102
RTVSPost2010Prop38
140
0.0
102
RTVSPost2010PropOp38
 70
     1
102
RTVSPost2010Prop39
140
1.0
102
RTVSPost2010PropOp39
 70
     1
102
RTVSPost2010Prop40
 90
        0
102
RTVSPost2010PropOp40
 70
     1
102
RTVSPost2010Prop41ColorIndex
 90
       18
102
RTVSPost2010Prop41ColorRGB
 90
        0
102
RTVSPost2010PropOp41
 70
     1
102
RTVSPost2010Prop42
 90
       50
102
RTVSPost2010PropOp42
 70
     1
102
RTVSPost2010Prop43
 90
        3
102
RTVSPost2010PropOp43
 70
     1
102
RTVSPost2010Prop44ColorIndex
 90
        5
102
RTVSPost2010Prop44ColorRGB
 90
      255
102
RTVSPost2010PropOp44
 70
     1
102
RTVSPost2010Prop45
280
     0
102
RTVSPost2010PropOp45
 70
     1
102
RTVSPost2010Prop46
 90
       50
102
RTVSPost2010PropOp46
 70
     1
102
RTVSPost2010Prop47
 90
       50
102
RTVSPost2010PropOp47
 70
     1
102
RTVSPost2010Prop48
 90
       50
102
RTVSPost2010PropOp48
 70
     1
102
RTVSPost2010Prop49
280
     0
102
RTVSPost2010PropOp49
 70
     1
102
RTVSPost2010Prop50
 90
       50
102
RTVSPost2010PropOp50
 70
     1
102
RTVSPost2010Prop51ColorIndex
 90
      256
102
RTVSPost2010Prop51ColorRGB
 90
-16777216
102
RTVSPost2010PropOp51
 70
     0
102
RTVSPost2010Prop52
140
1.0
102
RTVSPost2010PropOp52
 70
     0
102
RTVSPost2010Prop53
 90
        2
102
RTVSPost2010PropOp53
 70
     1
102
RTVSPost2010Prop54
  1
strokes_ogs.tif
102
RTVSPost2010PropOp54
 70
     1
102
RTVSPost2010Prop55
280
     0
102
RTVSPost2010PropOp55
 70
     1
102
RTVSPost2010Prop56
140
1.0
102
RTVSPost2010PropOp56
 70
     1
102
RTVSPost2010Prop57
140
1.0
102
RTVSPost2010PropOp57
 70
     1
102
RTVSPropertyOp0
 70
     1
102
RTVSPropertyOp1
 70
     1
102
RTVSPropertyOp2
 70
     1
102
RTVSPropertyOp3
 70
     1
102
RTVSPropertyOp4
 70
     1
102
RTVSPropertyOp5
 70
     1
102
RTVSPropertyOp6
 70
     1
102
RTVSPropertyOp7
 70
     1
102
RTVSPropertyOp8
 70
     1
102
RTVSPropertyOp9
 70
     1
102
RTVSPropertyOp10
 70
     1
102
RTVSPropertyOp11
 70
     1
102
RTVSPropertyOp12
 70
     1
102
RTVSPropertyOp13
 70
     1
102
RTVSPropertyOp14
 70
     1
102
RTVSPropertyOp15
 70
     1
102
RTVSPropertyOp16
 70
     1
102
RTVSPropertyOp17
 70
     1
102
RTVSPropertyOp18
 70
     1
102
RTVSPropertyOp19
 70
     1
102
RTVSPropertyOp20
 70
     1
102
RTVSPropertyOp21
 70
     1
102
RTVSPropertyOp22
 70
     1
102
RTVSPropertyOp23
 70
     1
102
RTVSPropertyOp24
 70
     1
102
RTVSPropertyOp25
 70
     1
102
RTVSPropertyOp26
 70
     1
102
RTVSPropertyOp27
 70
     1
102
RTVSPropertyOp28
 70
     1
102
RTVSPropertyOp29
 70
     1
102
RTVSPropertyOp30
 70
     1
102
RTVSPropertyOp31
 70
     1
102
RTVSPropertyOp32
 70
     1
102
RTVSPropertyOp33
 70
     1
102
RTVSPropertyOp34
 70
     1
102
RTVSPropertyOp35
 70
     1
102
RTVSPropertyOp36
 70
     1
102
RTVSPropertyOp37
 70
     1
102
RTVSPropertyOp38
 70
     1
102
RTVSPropertyOp39
 70
     1
102
RTVSPropertyOp40
 70
     1
102
RTVSPropertyOp41
 70
     1
102
RTVSPropertyOp42
 70
     1
102
RTVSPropertyOp43
 70
     1
102
RTVSPropertyOp44
 70
     1
102
RTVSPropertyOp45
 70
     1
102
RTVSPropertyOp46
 70
     1
102
RTVSPropertyOp47
 70
     1
102
RTVSPropertyOp48
 70
     1
102
RTVSPropertyOp49
 70
     1
102
RTVSPropertyOp50
 70
     1
102
RTVSPropertyOp51
 70
     0
102
RTVSPropertyOp52
 70
     0
102
RTVSPropertyOp53
 70
     1
102
RTVSPropertyOp54
 70
     1
102
RTVSPropertyOp55
 70
     1
102
RTVSPropertyOp56
 70
     1
102
RTVSPropertyOp57
 70
     1
102
RTVSPropertyOp58
 70
     1
102
RTVSPropertyOp59
 70
     1
102
RTVSPropertyOp60
 70
     1
102
RTVSPropertyOp61
 70
     1
102
RTVSPropertyOp62
 70
     1
  0
XRECORD
  5
FDD
102
{ACAD_REACTORS
330
FDC
102
}
330
FDC
100
AcDbXrecord
280
     1
102
RTVSPost2010Prop28
280
     0
102
RTVSPost2010PropOp28
 70
     1
102
RTVSPost2010Prop29
280
     1
102
RTVSPost2010PropOp29
 70
     1
102
RTVSPost2010Prop30
280
     1
102
RTVSPost2010PropOp30
 70
     1
102
RTVSPost2010Prop31
280
     0
102
RTVSPost2010PropOp31
 70
     1
102
RTVSPost2010Prop32
280
     0
102
RTVSPost2010PropOp32
 70
     1
102
RTVSPost2010Prop33
280
     0
102
RTVSPost2010PropOp33
 70
     1
102
RTVSPost2010Prop34
280
     0
102
RTVSPost2010PropOp34
 70
     1
102
RTVSPost2010Prop35
280
     0
102
RTVSPost2010PropOp35
 70
     1
102
RTVSPost2010Prop36
280
     0
102
RTVSPost2010PropOp36
 70
     1
102
RTVSPost2010Prop37
 90
       50
102
RTVSPost2010PropOp37
 70
     1
102
RTVSPost2010Prop38
140
0.0
102
RTVSPost2010PropOp38
 70
     1
102
RTVSPost2010Prop39
140
1.0
102
RTVSPost2010PropOp39
 70
     1
102
RTVSPost2010Prop40
 90
        0
102
RTVSPost2010PropOp40
 70
     1
102
RTVSPost2010Prop41ColorIndex
 90
       18
102
RTVSPost2010Prop41ColorRGB
 90
        0
102
RTVSPost2010PropOp41
 70
     1
102
RTVSPost2010Prop42
 90
       50
102
RTVSPost2010PropOp42
 70
     1
102
RTVSPost2010Prop43
 90
        3
102
RTVSPost2010PropOp43
 70
     1
102
RTVSPost2010Prop44ColorIndex
 90
        5
102
RTVSPost2010Prop44ColorRGB
 90
      255
102
RTVSPost2010PropOp44
 70
     1
102
RTVSPost2010Prop45
280
     0
102
RTVSPost2010PropOp45
 70
     1
102
RTVSPost2010Prop46
 90
       50
102
RTVSPost2010PropOp46
 70
     1
102
RTVSPost2010Prop47
 90
       50
102
RTVSPost2010PropOp47
 70
     1
102
RTVSPost2010Prop48
 90
       50
102
RTVSPost2010PropOp48
 70
     1
102
RTVSPost2010Prop49
280
     0
102
RTVSPost2010PropOp49
 70
     1
102
RTVSPost2010Prop50
 90
       50
102
RTVSPost2010PropOp50
 70
     1
102
RTVSPost2010Prop51ColorIndex
 90
      256
102
RTVSPost2010Prop51ColorRGB
 90
-16777216
102
RTVSPost2010PropOp51
 70
     0
102
RTVSPost2010Prop52
140
1.0
102
RTVSPost2010PropOp52
 70
     0
102
RTVSPost2010Prop53
 90
        2
102
RTVSPost2010PropOp53
 70
     1
102
RTVSPost2010Prop54
  1
strokes_ogs.tif
102
RTVSPost2010PropOp54
 70
     1
102
RTVSPost2010Prop55
280
     0
102
RTVSPost2010PropOp55
 70
     1
102
RTVSPost2010Prop56
140
1.0
102
RTVSPost2010PropOp56
 70
     1
102
RTVSPost2010Prop57
140
1.0
102
RTVSPost2010PropOp57
 70
     1
102
RTVSPropertyOp0
 70
     1
102
RTVSPropertyOp1
 70
     1
102
RTVSPropertyOp2
 70
     1
102
RTVSPropertyOp3
 70
     1
102
RTVSPropertyOp4
 70
     1
102
RTVSPropertyOp5
 70
     1
102
RTVSPropertyOp6
 70
     1
102
RTVSPropertyOp7
 70
     1
102
RTVSPropertyOp8
 70
     1
102
RTVSPropertyOp9
 70
     1
102
RTVSPropertyOp10
 70
     1
102
RTVSPropertyOp11
 70
     1
102
RTVSPropertyOp12
 70
     1
102
RTVSPropertyOp13
 70
     1
102
RTVSPropertyOp14
 70
     1
102
RTVSPropertyOp15
 70
     1
102
RTVSPropertyOp16
 70
     1
102
RTVSPropertyOp17
 70
     1
102
RTVSPropertyOp18
 70
     1
102
RTVSPropertyOp19
 70
     1
102
RTVSPropertyOp20
 70
     1
102
RTVSPropertyOp21
 70
     1
102
RTVSPropertyOp22
 70
     1
102
RTVSPropertyOp23
 70
     1
102
RTVSPropertyOp24
 70
     1
102
RTVSPropertyOp25
 70
     1
102
RTVSPropertyOp26
 70
     1
102
RTVSPropertyOp27
 70
     1
102
RTVSPropertyOp28
 70
     1
102
RTVSPropertyOp29
 70
     1
102
RTVSPropertyOp30
 70
     1
102
RTVSPropertyOp31
 70
     1
102
RTVSPropertyOp32
 70
     1
102
RTVSPropertyOp33
 70
     1
102
RTVSPropertyOp34
 70
     1
102
RTVSPropertyOp35
 70
     1
102
RTVSPropertyOp36
 70
     1
102
RTVSPropertyOp37
 70
     1
102
RTVSPropertyOp38
 70
     1
102
RTVSPropertyOp39
 70
     1
102
RTVSPropertyOp40
 70
     1
102
RTVSPropertyOp41
 70
     1
102
RTVSPropertyOp42
 70
     1
102
RTVSPropertyOp43
 70
     1
102
RTVSPropertyOp44
 70
     1
102
RTVSPropertyOp45
 70
     1
102
RTVSPropertyOp46
 70
     1
102
RTVSPropertyOp47
 70
     1
102
RTVSPropertyOp48
 70
     1
102
RTVSPropertyOp49
 70
     1
102
RTVSPropertyOp50
 70
     1
102
RTVSPropertyOp51
 70
     0
102
RTVSPropertyOp52
 70
     0
102
RTVSPropertyOp53
 70
     1
102
RTVSPropertyOp54
 70
     1
102
RTVSPropertyOp55
 70
     1
102
RTVSPropertyOp56
 70
     1
102
RTVSPropertyOp57
 70
     1
102
RTVSPropertyOp58
 70
     1
102
RTVSPropertyOp59
 70
     1
102
RTVSPropertyOp60
 70
     1
102
RTVSPropertyOp61
 70
     1
102
RTVSPropertyOp62
 70
     1
  0
XRECORD
  5
FEB
102
{ACAD_REACTORS
330
FEA
102
}
330
FEA
100
AcDbXrecord
280
     1
102
RTVSPost2010Prop28
280
     0
102
RTVSPost2010PropOp28
 70
     1
102
RTVSPost2010Prop29
280
     1
102
RTVSPost2010PropOp29
 70
     1
102
RTVSPost2010Prop30
280
     1
102
RTVSPost2010PropOp30
 70
     1
102
RTVSPost2010Prop31
280
     0
102
RTVSPost2010PropOp31
 70
     1
102
RTVSPost2010Prop32
280
     0
102
RTVSPost2010PropOp32
 70
     1
102
RTVSPost2010Prop33
280
     0
102
RTVSPost2010PropOp33
 70
     1
102
RTVSPost2010Prop34
280
     0
102
RTVSPost2010PropOp34
 70
     1
102
RTVSPost2010Prop35
280
     0
102
RTVSPost2010PropOp35
 70
     1
102
RTVSPost2010Prop36
280
     0
102
RTVSPost2010PropOp36
 70
     1
102
RTVSPost2010Prop37
 90
       50
102
RTVSPost2010PropOp37
 70
     1
102
RTVSPost2010Prop38
140
0.0
102
RTVSPost2010PropOp38
 70
     1
102
RTVSPost2010Prop39
140
1.0
102
RTVSPost2010PropOp39
 70
     1
102
RTVSPost2010Prop40
 90
        0
102
RTVSPost2010PropOp40
 70
     1
102
RTVSPost2010Prop41ColorIndex
 90
       18
102
RTVSPost2010Prop41ColorRGB
 90
        0
102
RTVSPost2010PropOp41
 70
     1
102
RTVSPost2010Prop42
 90
       50
102
RTVSPost2010PropOp42
 70
     1
102
RTVSPost2010Prop43
 90
        3
102
RTVSPost2010PropOp43
 70
     1
102
RTVSPost2010Prop44ColorIndex
 90
        5
102
RTVSPost2010Prop44ColorRGB
 90
      255
102
RTVSPost2010PropOp44
 70
     1
102
RTVSPost2010Prop45
280
     0
102
RTVSPost2010PropOp45
 70
     1
102
RTVSPost2010Prop46
 90
       50
102
RTVSPost2010PropOp46
 70
     1
102
RTVSPost2010Prop47
 90
       50
102
RTVSPost2010PropOp47
 70
     1
102
RTVSPost2010Prop48
 90
       50
102
RTVSPost2010PropOp48
 70
     1
102
RTVSPost2010Prop49
280
     0
102
RTVSPost2010PropOp49
 70
     1
102
RTVSPost2010Prop50
 90
       50
102
RTVSPost2010PropOp50
 70
     1
102
RTVSPost2010Prop51ColorIndex
 90
      256
102
RTVSPost2010Prop51ColorRGB
 90
-16777216
102
RTVSPost2010PropOp51
 70
     0
102
RTVSPost2010Prop52
140
1.0
102
RTVSPost2010PropOp52
 70
     0
102
RTVSPost2010Prop53
 90
        2
102
RTVSPost2010PropOp53
 70
     1
102
RTVSPost2010Prop54
  1
strokes_ogs.tif
102
RTVSPost2010PropOp54
 70
     1
102
RTVSPost2010Prop55
280
     0
102
RTVSPost2010PropOp55
 70
     1
102
RTVSPost2010Prop56
140
1.0
102
RTVSPost2010PropOp56
 70
     1
102
RTVSPost2010Prop57
140
1.0
102
RTVSPost2010PropOp57
 70
     1
102
RTVSPropertyOp0
 70
     1
102
RTVSPropertyOp1
 70
     1
102
RTVSPropertyOp2
 70
     1
102
RTVSPropertyOp3
 70
     1
102
RTVSPropertyOp4
 70
     1
102
RTVSPropertyOp5
 70
     1
102
RTVSPropertyOp6
 70
     1
102
RTVSPropertyOp7
 70
     1
102
RTVSPropertyOp8
 70
     1
102
RTVSPropertyOp9
 70
     1
102
RTVSPropertyOp10
 70
     1
102
RTVSPropertyOp11
 70
     1
102
RTVSPropertyOp12
 70
     1
102
RTVSPropertyOp13
 70
     1
102
RTVSPropertyOp14
 70
     1
102
RTVSPropertyOp15
 70
     1
102
RTVSPropertyOp16
 70
     1
102
RTVSPropertyOp17
 70
     1
102
RTVSPropertyOp18
 70
     1
102
RTVSPropertyOp19
 70
     1
102
RTVSPropertyOp20
 70
     1
102
RTVSPropertyOp21
 70
     1
102
RTVSPropertyOp22
 70
     1
102
RTVSPropertyOp23
 70
     1
102
RTVSPropertyOp24
 70
     1
102
RTVSPropertyOp25
 70
     1
102
RTVSPropertyOp26
 70
     1
102
RTVSPropertyOp27
 70
     1
102
RTVSPropertyOp28
 70
     1
102
RTVSPropertyOp29
 70
     1
102
RTVSPropertyOp30
 70
     1
102
RTVSPropertyOp31
 70
     1
102
RTVSPropertyOp32
 70
     1
102
RTVSPropertyOp33
 70
     1
102
RTVSPropertyOp34
 70
     1
102
RTVSPropertyOp35
 70
     1
102
RTVSPropertyOp36
 70
     1
102
RTVSPropertyOp37
 70
     1
102
RTVSPropertyOp38
 70
     1
102
RTVSPropertyOp39
 70
     1
102
RTVSPropertyOp40
 70
     1
102
RTVSPropertyOp41
 70
     1
102
RTVSPropertyOp42
 70
     1
102
RTVSPropertyOp43
 70
     1
102
RTVSPropertyOp44
 70
     1
102
RTVSPropertyOp45
 70
     1
102
RTVSPropertyOp46
 70
     1
102
RTVSPropertyOp47
 70
     1
102
RTVSPropertyOp48
 70
     1
102
RTVSPropertyOp49
 70
     1
102
RTVSPropertyOp50
 70
     1
102
RTVSPropertyOp51
 70
     0
102
RTVSPropertyOp52
 70
     0
102
RTVSPropertyOp53
 70
     1
102
RTVSPropertyOp54
 70
     1
102
RTVSPropertyOp55
 70
     1
102
RTVSPropertyOp56
 70
     1
102
RTVSPropertyOp57
 70
     1
102
RTVSPropertyOp58
 70
     1
102
RTVSPropertyOp59
 70
     1
102
RTVSPropertyOp60
 70
     1
102
RTVSPropertyOp61
 70
     1
102
RTVSPropertyOp62
 70
     1
  0
XRECORD
  5
FF3
102
{ACAD_REACTORS
330
FF2
102
}
330
FF2
100
AcDbXrecord
280
     1
102
RTVSPost2010Prop28
280
     0
102
RTVSPost2010PropOp28
 70
     1
102
RTVSPost2010Prop29
280
     1
102
RTVSPost2010PropOp29
 70
     1
102
RTVSPost2010Prop30
280
     1
102
RTVSPost2010PropOp30
 70
     1
102
RTVSPost2010Prop31
280
     0
102
RTVSPost2010PropOp31
 70
     1
102
RTVSPost2010Prop32
280
     0
102
RTVSPost2010PropOp32
 70
     1
102
RTVSPost2010Prop33
280
     0
102
RTVSPost2010PropOp33
 70
     1
102
RTVSPost2010Prop34
280
     0
102
RTVSPost2010PropOp34
 70
     1
102
RTVSPost2010Prop35
280
     0
102
RTVSPost2010PropOp35
 70
     1
102
RTVSPost2010Prop36
280
     0
102
RTVSPost2010PropOp36
 70
     1
102
RTVSPost2010Prop37
 90
       50
102
RTVSPost2010PropOp37
 70
     1
102
RTVSPost2010Prop38
140
0.0
102
RTVSPost2010PropOp38
 70
     1
102
RTVSPost2010Prop39
140
1.0
102
RTVSPost2010PropOp39
 70
     1
102
RTVSPost2010Prop40
 90
        0
102
RTVSPost2010PropOp40
 70
     1
102
RTVSPost2010Prop41ColorIndex
 90
       18
102
RTVSPost2010Prop41ColorRGB
 90
        0
102
RTVSPost2010PropOp41
 70
     1
102
RTVSPost2010Prop42
 90
       50
102
RTVSPost2010PropOp42
 70
     1
102
RTVSPost2010Prop43
 90
        3
102
RTVSPost2010PropOp43
 70
     1
102
RTVSPost2010Prop44ColorIndex
 90
        5
102
RTVSPost2010Prop44ColorRGB
 90
      255
102
RTVSPost2010PropOp44
 70
     1
102
RTVSPost2010Prop45
280
     0
102
RTVSPost2010PropOp45
 70
     1
102
RTVSPost2010Prop46
 90
       50
102
RTVSPost2010PropOp46
 70
     1
102
RTVSPost2010Prop47
 90
       50
102
RTVSPost2010PropOp47
 70
     1
102
RTVSPost2010Prop48
 90
       50
102
RTVSPost2010PropOp48
 70
     1
102
RTVSPost2010Prop49
280
     0
102
RTVSPost2010PropOp49
 70
     1
102
RTVSPost2010Prop50
 90
       50
102
RTVSPost2010PropOp50
 70
     1
102
RTVSPost2010Prop51ColorIndex
 90
      256
102
RTVSPost2010Prop51ColorRGB
 90
-16777216
102
RTVSPost2010PropOp51
 70
     0
102
RTVSPost2010Prop52
140
1.0
102
RTVSPost2010PropOp52
 70
     0
102
RTVSPost2010Prop53
 90
        2
102
RTVSPost2010PropOp53
 70
     1
102
RTVSPost2010Prop54
  1
strokes_ogs.tif
102
RTVSPost2010PropOp54
 70
     1
102
RTVSPost2010Prop55
280
     0
102
RTVSPost2010PropOp55
 70
     1
102
RTVSPost2010Prop56
140
1.0
102
RTVSPost2010PropOp56
 70
     1
102
RTVSPost2010Prop57
140
1.0
102
RTVSPost2010PropOp57
 70
     1
102
RTVSPropertyOp0
 70
     1
102
RTVSPropertyOp1
 70
     1
102
RTVSPropertyOp2
 70
     1
102
RTVSPropertyOp3
 70
     1
102
RTVSPropertyOp4
 70
     1
102
RTVSPropertyOp5
 70
     1
102
RTVSPropertyOp6
 70
     1
102
RTVSPropertyOp7
 70
     1
102
RTVSPropertyOp8
 70
     1
102
RTVSPropertyOp9
 70
     1
102
RTVSPropertyOp10
 70
     1
102
RTVSPropertyOp11
 70
     1
102
RTVSPropertyOp12
 70
     1
102
RTVSPropertyOp13
 70
     1
102
RTVSPropertyOp14
 70
     1
102
RTVSPropertyOp15
 70
     1
102
RTVSPropertyOp16
 70
     1
102
RTVSPropertyOp17
 70
     1
102
RTVSPropertyOp18
 70
     1
102
RTVSPropertyOp19
 70
     1
102
RTVSPropertyOp20
 70
     1
102
RTVSPropertyOp21
 70
     1
102
RTVSPropertyOp22
 70
     1
102
RTVSPropertyOp23
 70
     1
102
RTVSPropertyOp24
 70
     1
102
RTVSPropertyOp25
 70
     1
102
RTVSPropertyOp26
 70
     1
102
RTVSPropertyOp27
 70
     1
102
RTVSPropertyOp28
 70
     1
102
RTVSPropertyOp29
 70
     1
102
RTVSPropertyOp30
 70
     1
102
RTVSPropertyOp31
 70
     1
102
RTVSPropertyOp32
 70
     1
102
RTVSPropertyOp33
 70
     1
102
RTVSPropertyOp34
 70
     1
102
RTVSPropertyOp35
 70
     1
102
RTVSPropertyOp36
 70
     1
102
RTVSPropertyOp37
 70
     1
102
RTVSPropertyOp38
 70
     1
102
RTVSPropertyOp39
 70
     1
102
RTVSPropertyOp40
 70
     1
102
RTVSPropertyOp41
 70
     1
102
RTVSPropertyOp42
 70
     1
102
RTVSPropertyOp43
 70
     1
102
RTVSPropertyOp44
 70
     1
102
RTVSPropertyOp45
 70
     1
102
RTVSPropertyOp46
 70
     1
102
RTVSPropertyOp47
 70
     1
102
RTVSPropertyOp48
 70
     1
102
RTVSPropertyOp49
 70
     1
102
RTVSPropertyOp50
 70
     1
102
RTVSPropertyOp51
 70
     0
102
RTVSPropertyOp52
 70
     0
102
RTVSPropertyOp53
 70
     1
102
RTVSPropertyOp54
 70
     1
102
RTVSPropertyOp55
 70
     1
102
RTVSPropertyOp56
 70
     1
102
RTVSPropertyOp57
 70
     1
102
RTVSPropertyOp58
 70
     1
102
RTVSPropertyOp59
 70
     1
102
RTVSPropertyOp60
 70
     1
102
RTVSPropertyOp61
 70
     1
102
RTVSPropertyOp62
 70
     1
  0
XRECORD
  5
FE5
102
{ACAD_REACTORS
330
FE4
102
}
330
FE4
100
AcDbXrecord
280
     1
102
RTVSPost2010Prop28
280
     0
102
RTVSPost2010PropOp28
 70
     1
102
RTVSPost2010Prop29
280
     1
102
RTVSPost2010PropOp29
 70
     1
102
RTVSPost2010Prop30
280
     1
102
RTVSPost2010PropOp30
 70
     1
102
RTVSPost2010Prop31
280
     0
102
RTVSPost2010PropOp31
 70
     1
102
RTVSPost2010Prop32
280
     0
102
RTVSPost2010PropOp32
 70
     1
102
RTVSPost2010Prop33
280
     0
102
RTVSPost2010PropOp33
 70
     1
102
RTVSPost2010Prop34
280
     0
102
RTVSPost2010PropOp34
 70
     1
102
RTVSPost2010Prop35
280
     0
102
RTVSPost2010PropOp35
 70
     1
102
RTVSPost2010Prop36
280
     0
102
RTVSPost2010PropOp36
 70
     1
102
RTVSPost2010Prop37
 90
       50
102
RTVSPost2010PropOp37
 70
     1
102
RTVSPost2010Prop38
140
0.0
102
RTVSPost2010PropOp38
 70
     1
102
RTVSPost2010Prop39
140
1.0
102
RTVSPost2010PropOp39
 70
     1
102
RTVSPost2010Prop40
 90
        0
102
RTVSPost2010PropOp40
 70
     1
102
RTVSPost2010Prop41ColorIndex
 90
       18
102
RTVSPost2010Prop41ColorRGB
 90
        0
102
RTVSPost2010PropOp41
 70
     1
102
RTVSPost2010Prop42
 90
       50
102
RTVSPost2010PropOp42
 70
     1
102
RTVSPost2010Prop43
 90
        3
102
RTVSPost2010PropOp43
 70
     1
102
RTVSPost2010Prop44ColorIndex
 90
        5
102
RTVSPost2010Prop44ColorRGB
 90
      255
102
RTVSPost2010PropOp44
 70
     1
102
RTVSPost2010Prop45
280
     0
102
RTVSPost2010PropOp45
 70
     1
102
RTVSPost2010Prop46
 90
       50
102
RTVSPost2010PropOp46
 70
     1
102
RTVSPost2010Prop47
 90
       50
102
RTVSPost2010PropOp47
 70
     1
102
RTVSPost2010Prop48
 90
       50
102
RTVSPost2010PropOp48
 70
     1
102
RTVSPost2010Prop49
280
     0
102
RTVSPost2010PropOp49
 70
     1
102
RTVSPost2010Prop50
 90
       50
102
RTVSPost2010PropOp50
 70
     1
102
RTVSPost2010Prop51ColorIndex
 90
      256
102
RTVSPost2010Prop51ColorRGB
 90
-16777216
102
RTVSPost2010PropOp51
 70
     0
102
RTVSPost2010Prop52
140
1.0
102
RTVSPost2010PropOp52
 70
     0
102
RTVSPost2010Prop53
 90
        2
102
RTVSPost2010PropOp53
 70
     1
102
RTVSPost2010Prop54
  1
strokes_ogs.tif
102
RTVSPost2010PropOp54
 70
     1
102
RTVSPost2010Prop55
280
     0
102
RTVSPost2010PropOp55
 70
     1
102
RTVSPost2010Prop56
140
1.0
102
RTVSPost2010PropOp56
 70
     1
102
RTVSPost2010Prop57
140
1.0
102
RTVSPost2010PropOp57
 70
     1
102
RTVSPropertyOp0
 70
     1
102
RTVSPropertyOp1
 70
     1
102
RTVSPropertyOp2
 70
     1
102
RTVSPropertyOp3
 70
     1
102
RTVSPropertyOp4
 70
     1
102
RTVSPropertyOp5
 70
     1
102
RTVSPropertyOp6
 70
     1
102
RTVSPropertyOp7
 70
     1
102
RTVSPropertyOp8
 70
     1
102
RTVSPropertyOp9
 70
     1
102
RTVSPropertyOp10
 70
     1
102
RTVSPropertyOp11
 70
     1
102
RTVSPropertyOp12
 70
     1
102
RTVSPropertyOp13
 70
     1
102
RTVSPropertyOp14
 70
     1
102
RTVSPropertyOp15
 70
     1
102
RTVSPropertyOp16
 70
     1
102
RTVSPropertyOp17
 70
     1
102
RTVSPropertyOp18
 70
     1
102
RTVSPropertyOp19
 70
     1
102
RTVSPropertyOp20
 70
     1
102
RTVSPropertyOp21
 70
     1
102
RTVSPropertyOp22
 70
     1
102
RTVSPropertyOp23
 70
     1
102
RTVSPropertyOp24
 70
     1
102
RTVSPropertyOp25
 70
     1
102
RTVSPropertyOp26
 70
     1
102
RTVSPropertyOp27
 70
     1
102
RTVSPropertyOp28
 70
     1
102
RTVSPropertyOp29
 70
     1
102
RTVSPropertyOp30
 70
     1
102
RTVSPropertyOp31
 70
     1
102
RTVSPropertyOp32
 70
     1
102
RTVSPropertyOp33
 70
     1
102
RTVSPropertyOp34
 70
     1
102
RTVSPropertyOp35
 70
     1
102
RTVSPropertyOp36
 70
     1
102
RTVSPropertyOp37
 70
     1
102
RTVSPropertyOp38
 70
     1
102
RTVSPropertyOp39
 70
     1
102
RTVSPropertyOp40
 70
     1
102
RTVSPropertyOp41
 70
     1
102
RTVSPropertyOp42
 70
     1
102
RTVSPropertyOp43
 70
     1
102
RTVSPropertyOp44
 70
     1
102
RTVSPropertyOp45
 70
     1
102
RTVSPropertyOp46
 70
     1
102
RTVSPropertyOp47
 70
     1
102
RTVSPropertyOp48
 70
     1
102
RTVSPropertyOp49
 70
     1
102
RTVSPropertyOp50
 70
     1
102
RTVSPropertyOp51
 70
     0
102
RTVSPropertyOp52
 70
     0
102
RTVSPropertyOp53
 70
     1
102
RTVSPropertyOp54
 70
     1
102
RTVSPropertyOp55
 70
     1
102
RTVSPropertyOp56
 70
     1
102
RTVSPropertyOp57
 70
     1
102
RTVSPropertyOp58
 70
     1
102
RTVSPropertyOp59
 70
     1
102
RTVSPropertyOp60
 70
     1
102
RTVSPropertyOp61
 70
     1
102
RTVSPropertyOp62
 70
     1
  0
XRECORD
  5
FE9
102
{ACAD_REACTORS
330
FE8
102
}
330
FE8
100
AcDbXrecord
280
     1
102
RTVSPost2010Prop28
280
     0
102
RTVSPost2010PropOp28
 70
     1
102
RTVSPost2010Prop29
280
     1
102
RTVSPost2010PropOp29
 70
     1
102
RTVSPost2010Prop30
280
     1
102
RTVSPost2010PropOp30
 70
     1
102
RTVSPost2010Prop31
280
     0
102
RTVSPost2010PropOp31
 70
     1
102
RTVSPost2010Prop32
280
     0
102
RTVSPost2010PropOp32
 70
     1
102
RTVSPost2010Prop33
280
     0
102
RTVSPost2010PropOp33
 70
     1
102
RTVSPost2010Prop34
280
     0
102
RTVSPost2010PropOp34
 70
     1
102
RTVSPost2010Prop35
280
     0
102
RTVSPost2010PropOp35
 70
     1
102
RTVSPost2010Prop36
280
     0
102
RTVSPost2010PropOp36
 70
     1
102
RTVSPost2010Prop37
 90
       50
102
RTVSPost2010PropOp37
 70
     1
102
RTVSPost2010Prop38
140
0.0
102
RTVSPost2010PropOp38
 70
     1
102
RTVSPost2010Prop39
140
1.0
102
RTVSPost2010PropOp39
 70
     1
102
RTVSPost2010Prop40
 90
        0
102
RTVSPost2010PropOp40
 70
     1
102
RTVSPost2010Prop41ColorIndex
 90
       18
102
RTVSPost2010Prop41ColorRGB
 90
        0
102
RTVSPost2010PropOp41
 70
     1
102
RTVSPost2010Prop42
 90
       50
102
RTVSPost2010PropOp42
 70
     1
102
RTVSPost2010Prop43
 90
        3
102
RTVSPost2010PropOp43
 70
     1
102
RTVSPost2010Prop44ColorIndex
 90
        5
102
RTVSPost2010Prop44ColorRGB
 90
      255
102
RTVSPost2010PropOp44
 70
     1
102
RTVSPost2010Prop45
280
     0
102
RTVSPost2010PropOp45
 70
     1
102
RTVSPost2010Prop46
 90
       50
102
RTVSPost2010PropOp46
 70
     1
102
RTVSPost2010Prop47
 90
       50
102
RTVSPost2010PropOp47
 70
     1
102
RTVSPost2010Prop48
 90
       50
102
RTVSPost2010PropOp48
 70
     1
102
RTVSPost2010Prop49
280
     0
102
RTVSPost2010PropOp49
 70
     1
102
RTVSPost2010Prop50
 90
       50
102
RTVSPost2010PropOp50
 70
     1
102
RTVSPost2010Prop51ColorIndex
 90
      256
102
RTVSPost2010Prop51ColorRGB
 90
-16777216
102
RTVSPost2010PropOp51
 70
     0
102
RTVSPost2010Prop52
140
1.0
102
RTVSPost2010PropOp52
 70
     0
102
RTVSPost2010Prop53
 90
        2
102
RTVSPost2010PropOp53
 70
     1
102
RTVSPost2010Prop54
  1
strokes_ogs.tif
102
RTVSPost2010PropOp54
 70
     1
102
RTVSPost2010Prop55
280
     0
102
RTVSPost2010PropOp55
 70
     1
102
RTVSPost2010Prop56
140
1.0
102
RTVSPost2010PropOp56
 70
     1
102
RTVSPost2010Prop57
140
1.0
102
RTVSPost2010PropOp57
 70
     1
102
RTVSPropertyOp0
 70
     1
102
RTVSPropertyOp1
 70
     1
102
RTVSPropertyOp2
 70
     1
102
RTVSPropertyOp3
 70
     1
102
RTVSPropertyOp4
 70
     1
102
RTVSPropertyOp5
 70
     1
102
RTVSPropertyOp6
 70
     1
102
RTVSPropertyOp7
 70
     1
102
RTVSPropertyOp8
 70
     1
102
RTVSPropertyOp9
 70
     1
102
RTVSPropertyOp10
 70
     1
102
RTVSPropertyOp11
 70
     1
102
RTVSPropertyOp12
 70
     1
102
RTVSPropertyOp13
 70
     1
102
RTVSPropertyOp14
 70
     1
102
RTVSPropertyOp15
 70
     1
102
RTVSPropertyOp16
 70
     1
102
RTVSPropertyOp17
 70
     1
102
RTVSPropertyOp18
 70
     1
102
RTVSPropertyOp19
 70
     1
102
RTVSPropertyOp20
 70
     1
102
RTVSPropertyOp21
 70
     1
102
RTVSPropertyOp22
 70
     1
102
RTVSPropertyOp23
 70
     1
102
RTVSPropertyOp24
 70
     1
102
RTVSPropertyOp25
 70
     1
102
RTVSPropertyOp26
 70
     1
102
RTVSPropertyOp27
 70
     1
102
RTVSPropertyOp28
 70
     1
102
RTVSPropertyOp29
 70
     1
102
RTVSPropertyOp30
 70
     1
102
RTVSPropertyOp31
 70
     1
102
RTVSPropertyOp32
 70
     1
102
RTVSPropertyOp33
 70
     1
102
RTVSPropertyOp34
 70
     1
102
RTVSPropertyOp35
 70
     1
102
RTVSPropertyOp36
 70
     1
102
RTVSPropertyOp37
 70
     1
102
RTVSPropertyOp38
 70
     1
102
RTVSPropertyOp39
 70
     1
102
RTVSPropertyOp40
 70
     1
102
RTVSPropertyOp41
 70
     1
102
RTVSPropertyOp42
 70
     1
102
RTVSPropertyOp43
 70
     1
102
RTVSPropertyOp44
 70
     1
102
RTVSPropertyOp45
 70
     1
102
RTVSPropertyOp46
 70
     1
102
RTVSPropertyOp47
 70
     1
102
RTVSPropertyOp48
 70
     1
102
RTVSPropertyOp49
 70
     1
102
RTVSPropertyOp50
 70
     1
102
RTVSPropertyOp51
 70
     0
102
RTVSPropertyOp52
 70
     0
102
RTVSPropertyOp53
 70
     1
102
RTVSPropertyOp54
 70
     1
102
RTVSPropertyOp55
 70
     1
102
RTVSPropertyOp56
 70
     1
102
RTVSPropertyOp57
 70
     1
102
RTVSPropertyOp58
 70
     1
102
RTVSPropertyOp59
 70
     1
102
RTVSPropertyOp60
 70
     1
102
RTVSPropertyOp61
 70
     1
102
RTVSPropertyOp62
 70
     1
  0
XRECORD
  5
1003
102
{ACAD_REACTORS
330
1002
102
}
330
1002
100
AcDbXrecord
280
     1
102
RTVSPost2010Prop28
280
     0
102
RTVSPost2010PropOp28
 70
     1
102
RTVSPost2010Prop29
280
     1
102
RTVSPost2010PropOp29
 70
     1
102
RTVSPost2010Prop30
280
     1
102
RTVSPost2010PropOp30
 70
     1
102
RTVSPost2010Prop31
280
     0
102
RTVSPost2010PropOp31
 70
     1
102
RTVSPost2010Prop32
280
     0
102
RTVSPost2010PropOp32
 70
     1
102
RTVSPost2010Prop33
280
     0
102
RTVSPost2010PropOp33
 70
     1
102
RTVSPost2010Prop34
280
     0
102
RTVSPost2010PropOp34
 70
     1
102
RTVSPost2010Prop35
280
     0
102
RTVSPost2010PropOp35
 70
     1
102
RTVSPost2010Prop36
280
     0
102
RTVSPost2010PropOp36
 70
     1
102
RTVSPost2010Prop37
 90
       50
102
RTVSPost2010PropOp37
 70
     0
102
RTVSPost2010Prop38
140
0.0
102
RTVSPost2010PropOp38
 70
     0
102
RTVSPost2010Prop39
140
1.0
102
RTVSPost2010PropOp39
 70
     0
102
RTVSPost2010Prop40
 90
        0
102
RTVSPost2010PropOp40
 70
     0
102
RTVSPost2010Prop41ColorIndex
 90
       18
102
RTVSPost2010Prop41ColorRGB
 90
        0
102
RTVSPost2010PropOp41
 70
     0
102
RTVSPost2010Prop42
 90
       50
102
RTVSPost2010PropOp42
 70
     0
102
RTVSPost2010Prop43
 90
        3
102
RTVSPost2010PropOp43
 70
     0
102
RTVSPost2010Prop44ColorIndex
 90
        5
102
RTVSPost2010Prop44ColorRGB
 90
      255
102
RTVSPost2010PropOp44
 70
     0
102
RTVSPost2010Prop45
280
     0
102
RTVSPost2010PropOp45
 70
     1
102
RTVSPost2010Prop46
 90
       50
102
RTVSPost2010PropOp46
 70
     0
102
RTVSPost2010Prop47
 90
       50
102
RTVSPost2010PropOp47
 70
     0
102
RTVSPost2010Prop48
 90
       50
102
RTVSPost2010PropOp48
 70
     0
102
RTVSPost2010Prop49
280
     0
102
RTVSPost2010PropOp49
 70
     1
102
RTVSPost2010Prop50
 90
       50
102
RTVSPost2010PropOp50
 70
     0
102
RTVSPost2010Prop51ColorIndex
 90
      256
102
RTVSPost2010Prop51ColorRGB
 90
-16777216
102
RTVSPost2010PropOp51
 70
     0
102
RTVSPost2010Prop52
140
1.0
102
RTVSPost2010PropOp52
 70
     0
102
RTVSPost2010Prop53
 90
        2
102
RTVSPost2010PropOp53
 70
     0
102
RTVSPost2010Prop54
  1
strokes_ogs.tif
102
RTVSPost2010PropOp54
 70
     0
102
RTVSPost2010Prop55
280
     0
102
RTVSPost2010PropOp55
 70
     1
102
RTVSPost2010Prop56
140
1.0
102
RTVSPost2010PropOp56
 70
     0
102
RTVSPost2010Prop57
140
1.0
102
RTVSPost2010PropOp57
 70
     0
102
RTVSPropertyOp0
 70
     0
102
RTVSPropertyOp1
 70
     0
102
RTVSPropertyOp2
 70
     0
102
RTVSPropertyOp3
 70
     0
102
RTVSPropertyOp4
 70
     0
102
RTVSPropertyOp5
 70
     0
102
RTVSPropertyOp6
 70
     0
102
RTVSPropertyOp7
 70
     0
102
RTVSPropertyOp8
 70
     0
102
RTVSPropertyOp9
 70
     0
102
RTVSPropertyOp10
 70
     0
102
RTVSPropertyOp11
 70
     0
102
RTVSPropertyOp12
 70
     0
102
RTVSPropertyOp13
 70
     0
102
RTVSPropertyOp14
 70
     2
102
RTVSPropertyOp15
 70
     0
102
RTVSPropertyOp16
 70
     0
102
RTVSPropertyOp17
 70
     0
102
RTVSPropertyOp18
 70
     0
102
RTVSPropertyOp19
 70
     0
102
RTVSPropertyOp20
 70
     0
102
RTVSPropertyOp21
 70
     0
102
RTVSPropertyOp22
 70
     0
102
RTVSPropertyOp23
 70
     0
102
RTVSPropertyOp24
 70
     0
102
RTVSPropertyOp25
 70
     0
102
RTVSPropertyOp26
 70
     0
102
RTVSPropertyOp27
 70
     0
102
RTVSPropertyOp28
 70
     1
102
RTVSPropertyOp29
 70
     1
102
RTVSPropertyOp30
 70
     1
102
RTVSPropertyOp31
 70
     1
102
RTVSPropertyOp32
 70
     1
102
RTVSPropertyOp33
 70
     1
102
RTVSPropertyOp34
 70
     1
102
RTVSPropertyOp35
 70
     1
102
RTVSPropertyOp36
 70
     1
102
RTVSPropertyOp37
 70
     0
102
RTVSPropertyOp38
 70
     0
102
RTVSPropertyOp39
 70
     0
102
RTVSPropertyOp40
 70
     0
102
RTVSPropertyOp41
 70
     0
102
RTVSPropertyOp42
 70
     0
102
RTVSPropertyOp43
 70
     0
102
RTVSPropertyOp44
 70
     0
102
RTVSPropertyOp45
 70
     1
102
RTVSPropertyOp46
 70
     0
102
RTVSPropertyOp47
 70
     0
102
RTVSPropertyOp48
 70
     0
102
RTVSPropertyOp49
 70
     1
102
RTVSPropertyOp50
 70
     0
102
RTVSPropertyOp51
 70
     0
102
RTVSPropertyOp52
 70
     0
102
RTVSPropertyOp53
 70
     0
102
RTVSPropertyOp54
 70
     0
102
RTVSPropertyOp55
 70
     1
102
RTVSPropertyOp56
 70
     0
102
RTVSPropertyOp57
 70
     0
102
RTVSPropertyOp58
 70
     0
102
RTVSPropertyOp59
 70
     0
102
RTVSPropertyOp60
 70
     0
102
RTVSPropertyOp61
 70
     0
102
RTVSPropertyOp62
 70
     0
  0
XRECORD
  5
FF1
102
{ACAD_REACTORS
330
FF0
102
}
330
FF0
100
AcDbXrecord
280
     1
102
RTVSPost2010Prop28
280
     0
102
RTVSPost2010PropOp28
 70
     1
102
RTVSPost2010Prop29
280
     1
102
RTVSPost2010PropOp29
 70
     1
102
RTVSPost2010Prop30
280
     1
102
RTVSPost2010PropOp30
 70
     1
102
RTVSPost2010Prop31
280
     0
102
RTVSPost2010PropOp31
 70
     1
102
RTVSPost2010Prop32
280
     0
102
RTVSPost2010PropOp32
 70
     1
102
RTVSPost2010Prop33
280
     0
102
RTVSPost2010PropOp33
 70
     1
102
RTVSPost2010Prop34
280
     0
102
RTVSPost2010PropOp34
 70
     1
102
RTVSPost2010Prop35
280
     0
102
RTVSPost2010PropOp35
 70
     1
102
RTVSPost2010Prop36
280
     0
102
RTVSPost2010PropOp36
 70
     1
102
RTVSPost2010Prop37
 90
       50
102
RTVSPost2010PropOp37
 70
     1
102
RTVSPost2010Prop38
140
0.0
102
RTVSPost2010PropOp38
 70
     1
102
RTVSPost2010Prop39
140
1.0
102
RTVSPost2010PropOp39
 70
     1
102
RTVSPost2010Prop40
 90
        0
102
RTVSPost2010PropOp40
 70
     1
102
RTVSPost2010Prop41ColorIndex
 90
       18
102
RTVSPost2010Prop41ColorRGB
 90
        0
102
RTVSPost2010PropOp41
 70
     1
102
RTVSPost2010Prop42
 90
       50
102
RTVSPost2010PropOp42
 70
     1
102
RTVSPost2010Prop43
 90
        3
102
RTVSPost2010PropOp43
 70
     1
102
RTVSPost2010Prop44ColorIndex
 90
        5
102
RTVSPost2010Prop44ColorRGB
 90
      255
102
RTVSPost2010PropOp44
 70
     1
102
RTVSPost2010Prop45
280
     0
102
RTVSPost2010PropOp45
 70
     1
102
RTVSPost2010Prop46
 90
       50
102
RTVSPost2010PropOp46
 70
     1
102
RTVSPost2010Prop47
 90
       50
102
RTVSPost2010PropOp47
 70
     1
102
RTVSPost2010Prop48
 90
       50
102
RTVSPost2010PropOp48
 70
     1
102
RTVSPost2010Prop49
280
     0
102
RTVSPost2010PropOp49
 70
     1
102
RTVSPost2010Prop50
 90
       50
102
RTVSPost2010PropOp50
 70
     1
102
RTVSPost2010Prop51ColorIndex
 90
      256
102
RTVSPost2010Prop51ColorRGB
 90
-16777216
102
RTVSPost2010PropOp51
 70
     0
102
RTVSPost2010Prop52
140
1.0
102
RTVSPost2010PropOp52
 70
     0
102
RTVSPost2010Prop53
 90
        2
102
RTVSPost2010PropOp53
 70
     1
102
RTVSPost2010Prop54
  1
strokes_ogs.tif
102
RTVSPost2010PropOp54
 70
     1
102
RTVSPost2010Prop55
280
     0
102
RTVSPost2010PropOp55
 70
     1
102
RTVSPost2010Prop56
140
1.0
102
RTVSPost2010PropOp56
 70
     1
102
RTVSPost2010Prop57
140
1.0
102
RTVSPost2010PropOp57
 70
     1
102
RTVSPropertyOp0
 70
     1
102
RTVSPropertyOp1
 70
     1
102
RTVSPropertyOp2
 70
     1
102
RTVSPropertyOp3
 70
     1
102
RTVSPropertyOp4
 70
     1
102
RTVSPropertyOp5
 70
     1
102
RTVSPropertyOp6
 70
     1
102
RTVSPropertyOp7
 70
     1
102
RTVSPropertyOp8
 70
     1
102
RTVSPropertyOp9
 70
     1
102
RTVSPropertyOp10
 70
     1
102
RTVSPropertyOp11
 70
     1
102
RTVSPropertyOp12
 70
     1
102
RTVSPropertyOp13
 70
     1
102
RTVSPropertyOp14
 70
     1
102
RTVSPropertyOp15
 70
     1
102
RTVSPropertyOp16
 70
     1
102
RTVSPropertyOp17
 70
     1
102
RTVSPropertyOp18
 70
     1
102
RTVSPropertyOp19
 70
     1
102
RTVSPropertyOp20
 70
     1
102
RTVSPropertyOp21
 70
     1
102
RTVSPropertyOp22
 70
     1
102
RTVSPropertyOp23
 70
     1
102
RTVSPropertyOp24
 70
     1
102
RTVSPropertyOp25
 70
     1
102
RTVSPropertyOp26
 70
     1
102
RTVSPropertyOp27
 70
     1
102
RTVSPropertyOp28
 70
     1
102
RTVSPropertyOp29
 70
     1
102
RTVSPropertyOp30
 70
     1
102
RTVSPropertyOp31
 70
     1
102
RTVSPropertyOp32
 70
     1
102
RTVSPropertyOp33
 70
     1
102
RTVSPropertyOp34
 70
     1
102
RTVSPropertyOp35
 70
     1
102
RTVSPropertyOp36
 70
     1
102
RTVSPropertyOp37
 70
     1
102
RTVSPropertyOp38
 70
     1
102
RTVSPropertyOp39
 70
     1
102
RTVSPropertyOp40
 70
     1
102
RTVSPropertyOp41
 70
     1
102
RTVSPropertyOp42
 70
     1
102
RTVSPropertyOp43
 70
     1
102
RTVSPropertyOp44
 70
     1
102
RTVSPropertyOp45
 70
     1
102
RTVSPropertyOp46
 70
     1
102
RTVSPropertyOp47
 70
     1
102
RTVSPropertyOp48
 70
     1
102
RTVSPropertyOp49
 70
     1
102
RTVSPropertyOp50
 70
     1
102
RTVSPropertyOp51
 70
     0
102
RTVSPropertyOp52
 70
     0
102
RTVSPropertyOp53
 70
     1
102
RTVSPropertyOp54
 70
     1
102
RTVSPropertyOp55
 70
     1
102
RTVSPropertyOp56
 70
     1
102
RTVSPropertyOp57
 70
     1
102
RTVSPropertyOp58
 70
     1
102
RTVSPropertyOp59
 70
     1
102
RTVSPropertyOp60
 70
     1
102
RTVSPropertyOp61
 70
     1
102
RTVSPropertyOp62
 70
     1
  0
XRECORD
  5
FD5
102
{ACAD_REACTORS
330
FD4
102
}
330
FD4
100
AcDbXrecord
280
     1
102
RTVSPost2010Prop28
280
     0
102
RTVSPost2010PropOp28
 70
     1
102
RTVSPost2010Prop29
280
     1
102
RTVSPost2010PropOp29
 70
     1
102
RTVSPost2010Prop30
280
     1
102
RTVSPost2010PropOp30
 70
     1
102
RTVSPost2010Prop31
280
     0
102
RTVSPost2010PropOp31
 70
     1
102
RTVSPost2010Prop32
280
     0
102
RTVSPost2010PropOp32
 70
     1
102
RTVSPost2010Prop33
280
     0
102
RTVSPost2010PropOp33
 70
     1
102
RTVSPost2010Prop34
280
     0
102
RTVSPost2010PropOp34
 70
     1
102
RTVSPost2010Prop35
280
     0
102
RTVSPost2010PropOp35
 70
     1
102
RTVSPost2010Prop36
280
     0
102
RTVSPost2010PropOp36
 70
     1
102
RTVSPost2010Prop37
 90
       50
102
RTVSPost2010PropOp37
 70
     1
102
RTVSPost2010Prop38
140
0.0
102
RTVSPost2010PropOp38
 70
     1
102
RTVSPost2010Prop39
140
1.0
102
RTVSPost2010PropOp39
 70
     1
102
RTVSPost2010Prop40
 90
        0
102
RTVSPost2010PropOp40
 70
     1
102
RTVSPost2010Prop41ColorIndex
 90
       18
102
RTVSPost2010Prop41ColorRGB
 90
        0
102
RTVSPost2010PropOp41
 70
     1
102
RTVSPost2010Prop42
 90
       50
102
RTVSPost2010PropOp42
 70
     1
102
RTVSPost2010Prop43
 90
        3
102
RTVSPost2010PropOp43
 70
     1
102
RTVSPost2010Prop44ColorIndex
 90
        5
102
RTVSPost2010Prop44ColorRGB
 90
      255
102
RTVSPost2010PropOp44
 70
     1
102
RTVSPost2010Prop45
280
     0
102
RTVSPost2010PropOp45
 70
     1
102
RTVSPost2010Prop46
 90
       50
102
RTVSPost2010PropOp46
 70
     1
102
RTVSPost2010Prop47
 90
       50
102
RTVSPost2010PropOp47
 70
     1
102
RTVSPost2010Prop48
 90
       50
102
RTVSPost2010PropOp48
 70
     1
102
RTVSPost2010Prop49
280
     0
102
RTVSPost2010PropOp49
 70
     1
102
RTVSPost2010Prop50
 90
       50
102
RTVSPost2010PropOp50
 70
     1
102
RTVSPost2010Prop51ColorIndex
 90
      256
102
RTVSPost2010Prop51ColorRGB
 90
-16777216
102
RTVSPost2010PropOp51
 70
     0
102
RTVSPost2010Prop52
140
1.0
102
RTVSPost2010PropOp52
 70
     0
102
RTVSPost2010Prop53
 90
        2
102
RTVSPost2010PropOp53
 70
     1
102
RTVSPost2010Prop54
  1
strokes_ogs.tif
102
RTVSPost2010PropOp54
 70
     1
102
RTVSPost2010Prop55
280
     0
102
RTVSPost2010PropOp55
 70
     1
102
RTVSPost2010Prop56
140
1.0
102
RTVSPost2010PropOp56
 70
     1
102
RTVSPost2010Prop57
140
1.0
102
RTVSPost2010PropOp57
 70
     1
102
RTVSPropertyOp0
 70
     1
102
RTVSPropertyOp1
 70
     1
102
RTVSPropertyOp2
 70
     1
102
RTVSPropertyOp3
 70
     1
102
RTVSPropertyOp4
 70
     1
102
RTVSPropertyOp5
 70
     1
102
RTVSPropertyOp6
 70
     1
102
RTVSPropertyOp7
 70
     1
102
RTVSPropertyOp8
 70
     1
102
RTVSPropertyOp9
 70
     1
102
RTVSPropertyOp10
 70
     1
102
RTVSPropertyOp11
 70
     1
102
RTVSPropertyOp12
 70
     1
102
RTVSPropertyOp13
 70
     1
102
RTVSPropertyOp14
 70
     1
102
RTVSPropertyOp15
 70
     1
102
RTVSPropertyOp16
 70
     1
102
RTVSPropertyOp17
 70
     1
102
RTVSPropertyOp18
 70
     1
102
RTVSPropertyOp19
 70
     1
102
RTVSPropertyOp20
 70
     1
102
RTVSPropertyOp21
 70
     1
102
RTVSPropertyOp22
 70
     1
102
RTVSPropertyOp23
 70
     1
102
RTVSPropertyOp24
 70
     1
102
RTVSPropertyOp25
 70
     1
102
RTVSPropertyOp26
 70
     1
102
RTVSPropertyOp27
 70
     1
102
RTVSPropertyOp28
 70
     1
102
RTVSPropertyOp29
 70
     1
102
RTVSPropertyOp30
 70
     1
102
RTVSPropertyOp31
 70
     1
102
RTVSPropertyOp32
 70
     1
102
RTVSPropertyOp33
 70
     1
102
RTVSPropertyOp34
 70
     1
102
RTVSPropertyOp35
 70
     1
102
RTVSPropertyOp36
 70
     1
102
RTVSPropertyOp37
 70
     1
102
RTVSPropertyOp38
 70
     1
102
RTVSPropertyOp39
 70
     1
102
RTVSPropertyOp40
 70
     1
102
RTVSPropertyOp41
 70
     1
102
RTVSPropertyOp42
 70
     1
102
RTVSPropertyOp43
 70
     1
102
RTVSPropertyOp44
 70
     1
102
RTVSPropertyOp45
 70
     1
102
RTVSPropertyOp46
 70
     1
102
RTVSPropertyOp47
 70
     1
102
RTVSPropertyOp48
 70
     1
102
RTVSPropertyOp49
 70
     1
102
RTVSPropertyOp50
 70
     1
102
RTVSPropertyOp51
 70
     0
102
RTVSPropertyOp52
 70
     0
102
RTVSPropertyOp53
 70
     1
102
RTVSPropertyOp54
 70
     1
102
RTVSPropertyOp55
 70
     1
102
RTVSPropertyOp56
 70
     1
102
RTVSPropertyOp57
 70
     1
102
RTVSPropertyOp58
 70
     1
102
RTVSPropertyOp59
 70
     1
102
RTVSPropertyOp60
 70
     1
102
RTVSPropertyOp61
 70
     1
102
RTVSPropertyOp62
 70
     1
  0
XRECORD
  5
FD7
102
{ACAD_REACTORS
330
FD6
102
}
330
FD6
100
AcDbXrecord
280
     1
102
RTVSPost2010Prop28
280
     0
102
RTVSPost2010PropOp28
 70
     1
102
RTVSPost2010Prop29
280
     1
102
RTVSPost2010PropOp29
 70
     1
102
RTVSPost2010Prop30
280
     1
102
RTVSPost2010PropOp30
 70
     1
102
RTVSPost2010Prop31
280
     0
102
RTVSPost2010PropOp31
 70
     1
102
RTVSPost2010Prop32
280
     0
102
RTVSPost2010PropOp32
 70
     1
102
RTVSPost2010Prop33
280
     0
102
RTVSPost2010PropOp33
 70
     1
102
RTVSPost2010Prop34
280
     0
102
RTVSPost2010PropOp34
 70
     1
102
RTVSPost2010Prop35
280
     0
102
RTVSPost2010PropOp35
 70
     1
102
RTVSPost2010Prop36
280
     0
102
RTVSPost2010PropOp36
 70
     1
102
RTVSPost2010Prop37
 90
       50
102
RTVSPost2010PropOp37
 70
     1
102
RTVSPost2010Prop38
140
0.0
102
RTVSPost2010PropOp38
 70
     1
102
RTVSPost2010Prop39
140
1.0
102
RTVSPost2010PropOp39
 70
     1
102
RTVSPost2010Prop40
 90
        0
102
RTVSPost2010PropOp40
 70
     1
102
RTVSPost2010Prop41ColorIndex
 90
       18
102
RTVSPost2010Prop41ColorRGB
 90
        0
102
RTVSPost2010PropOp41
 70
     1
102
RTVSPost2010Prop42
 90
       50
102
RTVSPost2010PropOp42
 70
     1
102
RTVSPost2010Prop43
 90
        3
102
RTVSPost2010PropOp43
 70
     1
102
RTVSPost2010Prop44ColorIndex
 90
        5
102
RTVSPost2010Prop44ColorRGB
 90
      255
102
RTVSPost2010PropOp44
 70
     1
102
RTVSPost2010Prop45
280
     0
102
RTVSPost2010PropOp45
 70
     1
102
RTVSPost2010Prop46
 90
       50
102
RTVSPost2010PropOp46
 70
     1
102
RTVSPost2010Prop47
 90
       50
102
RTVSPost2010PropOp47
 70
     1
102
RTVSPost2010Prop48
 90
       50
102
RTVSPost2010PropOp48
 70
     1
102
RTVSPost2010Prop49
280
     0
102
RTVSPost2010PropOp49
 70
     1
102
RTVSPost2010Prop50
 90
       50
102
RTVSPost2010PropOp50
 70
     1
102
RTVSPost2010Prop51ColorIndex
 90
      256
102
RTVSPost2010Prop51ColorRGB
 90
-16777216
102
RTVSPost2010PropOp51
 70
     0
102
RTVSPost2010Prop52
140
1.0
102
RTVSPost2010PropOp52
 70
     0
102
RTVSPost2010Prop53
 90
        2
102
RTVSPost2010PropOp53
 70
     1
102
RTVSPost2010Prop54
  1
strokes_ogs.tif
102
RTVSPost2010PropOp54
 70
     1
102
RTVSPost2010Prop55
280
     0
102
RTVSPost2010PropOp55
 70
     1
102
RTVSPost2010Prop56
140
1.0
102
RTVSPost2010PropOp56
 70
     1
102
RTVSPost2010Prop57
140
1.0
102
RTVSPost2010PropOp57
 70
     1
102
RTVSPropertyOp0
 70
     1
102
RTVSPropertyOp1
 70
     1
102
RTVSPropertyOp2
 70
     1
102
RTVSPropertyOp3
 70
     1
102
RTVSPropertyOp4
 70
     1
102
RTVSPropertyOp5
 70
     1
102
RTVSPropertyOp6
 70
     1
102
RTVSPropertyOp7
 70
     1
102
RTVSPropertyOp8
 70
     1
102
RTVSPropertyOp9
 70
     1
102
RTVSPropertyOp10
 70
     1
102
RTVSPropertyOp11
 70
     1
102
RTVSPropertyOp12
 70
     1
102
RTVSPropertyOp13
 70
     1
102
RTVSPropertyOp14
 70
     1
102
RTVSPropertyOp15
 70
     1
102
RTVSPropertyOp16
 70
     1
102
RTVSPropertyOp17
 70
     1
102
RTVSPropertyOp18
 70
     1
102
RTVSPropertyOp19
 70
     1
102
RTVSPropertyOp20
 70
     1
102
RTVSPropertyOp21
 70
     1
102
RTVSPropertyOp22
 70
     1
102
RTVSPropertyOp23
 70
     1
102
RTVSPropertyOp24
 70
     1
102
RTVSPropertyOp25
 70
     1
102
RTVSPropertyOp26
 70
     1
102
RTVSPropertyOp27
 70
     1
102
RTVSPropertyOp28
 70
     1
102
RTVSPropertyOp29
 70
     1
102
RTVSPropertyOp30
 70
     1
102
RTVSPropertyOp31
 70
     1
102
RTVSPropertyOp32
 70
     1
102
RTVSPropertyOp33
 70
     1
102
RTVSPropertyOp34
 70
     1
102
RTVSPropertyOp35
 70
     1
102
RTVSPropertyOp36
 70
     1
102
RTVSPropertyOp37
 70
     1
102
RTVSPropertyOp38
 70
     1
102
RTVSPropertyOp39
 70
     1
102
RTVSPropertyOp40
 70
     1
102
RTVSPropertyOp41
 70
     1
102
RTVSPropertyOp42
 70
     1
102
RTVSPropertyOp43
 70
     1
102
RTVSPropertyOp44
 70
     1
102
RTVSPropertyOp45
 70
     1
102
RTVSPropertyOp46
 70
     1
102
RTVSPropertyOp47
 70
     1
102
RTVSPropertyOp48
 70
     1
102
RTVSPropertyOp49
 70
     1
102
RTVSPropertyOp50
 70
     1
102
RTVSPropertyOp51
 70
     0
102
RTVSPropertyOp52
 70
     0
102
RTVSPropertyOp53
 70
     1
102
RTVSPropertyOp54
 70
     1
102
RTVSPropertyOp55
 70
     1
102
RTVSPropertyOp56
 70
     1
102
RTVSPropertyOp57
 70
     1
102
RTVSPropertyOp58
 70
     1
102
RTVSPropertyOp59
 70
     1
102
RTVSPropertyOp60
 70
     1
102
RTVSPropertyOp61
 70
     1
102
RTVSPropertyOp62
 70
     1
  0
XRECORD
  5
FD9
102
{ACAD_REACTORS
330
FD8
102
}
330
FD8
100
AcDbXrecord
280
     1
102
RTVSPost2010Prop28
280
     0
102
RTVSPost2010PropOp28
 70
     1
102
RTVSPost2010Prop29
280
     1
102
RTVSPost2010PropOp29
 70
     1
102
RTVSPost2010Prop30
280
     1
102
RTVSPost2010PropOp30
 70
     1
102
RTVSPost2010Prop31
280
     0
102
RTVSPost2010PropOp31
 70
     1
102
RTVSPost2010Prop32
280
     0
102
RTVSPost2010PropOp32
 70
     1
102
RTVSPost2010Prop33
280
     0
102
RTVSPost2010PropOp33
 70
     1
102
RTVSPost2010Prop34
280
     0
102
RTVSPost2010PropOp34
 70
     1
102
RTVSPost2010Prop35
280
     0
102
RTVSPost2010PropOp35
 70
     1
102
RTVSPost2010Prop36
280
     0
102
RTVSPost2010PropOp36
 70
     1
102
RTVSPost2010Prop37
 90
       50
102
RTVSPost2010PropOp37
 70
     1
102
RTVSPost2010Prop38
140
0.0
102
RTVSPost2010PropOp38
 70
     1
102
RTVSPost2010Prop39
140
1.0
102
RTVSPost2010PropOp39
 70
     1
102
RTVSPost2010Prop40
 90
        0
102
RTVSPost2010PropOp40
 70
     1
102
RTVSPost2010Prop41ColorIndex
 90
       18
102
RTVSPost2010Prop41ColorRGB
 90
        0
102
RTVSPost2010PropOp41
 70
     1
102
RTVSPost2010Prop42
 90
       50
102
RTVSPost2010PropOp42
 70
     1
102
RTVSPost2010Prop43
 90
        3
102
RTVSPost2010PropOp43
 70
     1
102
RTVSPost2010Prop44ColorIndex
 90
        5
102
RTVSPost2010Prop44ColorRGB
 90
      255
102
RTVSPost2010PropOp44
 70
     1
102
RTVSPost2010Prop45
280
     0
102
RTVSPost2010PropOp45
 70
     1
102
RTVSPost2010Prop46
 90
       50
102
RTVSPost2010PropOp46
 70
     1
102
RTVSPost2010Prop47
 90
       50
102
RTVSPost2010PropOp47
 70
     1
102
RTVSPost2010Prop48
 90
       50
102
RTVSPost2010PropOp48
 70
     1
102
RTVSPost2010Prop49
280
     0
102
RTVSPost2010PropOp49
 70
     1
102
RTVSPost2010Prop50
 90
       50
102
RTVSPost2010PropOp50
 70
     1
102
RTVSPost2010Prop51ColorIndex
 90
      256
102
RTVSPost2010Prop51ColorRGB
 90
-16777216
102
RTVSPost2010PropOp51
 70
     0
102
RTVSPost2010Prop52
140
1.0
102
RTVSPost2010PropOp52
 70
     0
102
RTVSPost2010Prop53
 90
        2
102
RTVSPost2010PropOp53
 70
     1
102
RTVSPost2010Prop54
  1
strokes_ogs.tif
102
RTVSPost2010PropOp54
 70
     1
102
RTVSPost2010Prop55
280
     0
102
RTVSPost2010PropOp55
 70
     1
102
RTVSPost2010Prop56
140
1.0
102
RTVSPost2010PropOp56
 70
     1
102
RTVSPost2010Prop57
140
1.0
102
RTVSPost2010PropOp57
 70
     1
102
RTVSPropertyOp0
 70
     1
102
RTVSPropertyOp1
 70
     1
102
RTVSPropertyOp2
 70
     1
102
RTVSPropertyOp3
 70
     1
102
RTVSPropertyOp4
 70
     1
102
RTVSPropertyOp5
 70
     1
102
RTVSPropertyOp6
 70
     1
102
RTVSPropertyOp7
 70
     1
102
RTVSPropertyOp8
 70
     1
102
RTVSPropertyOp9
 70
     1
102
RTVSPropertyOp10
 70
     1
102
RTVSPropertyOp11
 70
     1
102
RTVSPropertyOp12
 70
     1
102
RTVSPropertyOp13
 70
     1
102
RTVSPropertyOp14
 70
     1
102
RTVSPropertyOp15
 70
     1
102
RTVSPropertyOp16
 70
     1
102
RTVSPropertyOp17
 70
     1
102
RTVSPropertyOp18
 70
     1
102
RTVSPropertyOp19
 70
     1
102
RTVSPropertyOp20
 70
     1
102
RTVSPropertyOp21
 70
     1
102
RTVSPropertyOp22
 70
     1
102
RTVSPropertyOp23
 70
     1
102
RTVSPropertyOp24
 70
     1
102
RTVSPropertyOp25
 70
     1
102
RTVSPropertyOp26
 70
     1
102
RTVSPropertyOp27
 70
     1
102
RTVSPropertyOp28
 70
     1
102
RTVSPropertyOp29
 70
     1
102
RTVSPropertyOp30
 70
     1
102
RTVSPropertyOp31
 70
     1
102
RTVSPropertyOp32
 70
     1
102
RTVSPropertyOp33
 70
     1
102
RTVSPropertyOp34
 70
     1
102
RTVSPropertyOp35
 70
     1
102
RTVSPropertyOp36
 70
     1
102
RTVSPropertyOp37
 70
     1
102
RTVSPropertyOp38
 70
     1
102
RTVSPropertyOp39
 70
     1
102
RTVSPropertyOp40
 70
     1
102
RTVSPropertyOp41
 70
     1
102
RTVSPropertyOp42
 70
     1
102
RTVSPropertyOp43
 70
     1
102
RTVSPropertyOp44
 70
     1
102
RTVSPropertyOp45
 70
     1
102
RTVSPropertyOp46
 70
     1
102
RTVSPropertyOp47
 70
     1
102
RTVSPropertyOp48
 70
     1
102
RTVSPropertyOp49
 70
     1
102
RTVSPropertyOp50
 70
     1
102
RTVSPropertyOp51
 70
     0
102
RTVSPropertyOp52
 70
     0
102
RTVSPropertyOp53
 70
     1
102
RTVSPropertyOp54
 70
     1
102
RTVSPropertyOp55
 70
     1
102
RTVSPropertyOp56
 70
     1
102
RTVSPropertyOp57
 70
     1
102
RTVSPropertyOp58
 70
     1
102
RTVSPropertyOp59
 70
     1
102
RTVSPropertyOp60
 70
     1
102
RTVSPropertyOp61
 70
     1
102
RTVSPropertyOp62
 70
     1
  0
XRECORD
  5
FDB
102
{ACAD_REACTORS
330
FDA
102
}
330
FDA
100
AcDbXrecord
280
     1
102
RTVSPost2010Prop28
280
     0
102
RTVSPost2010PropOp28
 70
     1
102
RTVSPost2010Prop29
280
     1
102
RTVSPost2010PropOp29
 70
     1
102
RTVSPost2010Prop30
280
     1
102
RTVSPost2010PropOp30
 70
     1
102
RTVSPost2010Prop31
280
     0
102
RTVSPost2010PropOp31
 70
     1
102
RTVSPost2010Prop32
280
     0
102
RTVSPost2010PropOp32
 70
     1
102
RTVSPost2010Prop33
280
     0
102
RTVSPost2010PropOp33
 70
     1
102
RTVSPost2010Prop34
280
     0
102
RTVSPost2010PropOp34
 70
     1
102
RTVSPost2010Prop35
280
     0
102
RTVSPost2010PropOp35
 70
     1
102
RTVSPost2010Prop36
280
     0
102
RTVSPost2010PropOp36
 70
     1
102
RTVSPost2010Prop37
 90
       50
102
RTVSPost2010PropOp37
 70
     1
102
RTVSPost2010Prop38
140
0.0
102
RTVSPost2010PropOp38
 70
     1
102
RTVSPost2010Prop39
140
1.0
102
RTVSPost2010PropOp39
 70
     1
102
RTVSPost2010Prop40
 90
        0
102
RTVSPost2010PropOp40
 70
     1
102
RTVSPost2010Prop41ColorIndex
 90
       18
102
RTVSPost2010Prop41ColorRGB
 90
        0
102
RTVSPost2010PropOp41
 70
     1
102
RTVSPost2010Prop42
 90
       50
102
RTVSPost2010PropOp42
 70
     1
102
RTVSPost2010Prop43
 90
        3
102
RTVSPost2010PropOp43
 70
     1
102
RTVSPost2010Prop44ColorIndex
 90
        5
102
RTVSPost2010Prop44ColorRGB
 90
      255
102
RTVSPost2010PropOp44
 70
     1
102
RTVSPost2010Prop45
280
     0
102
RTVSPost2010PropOp45
 70
     1
102
RTVSPost2010Prop46
 90
       50
102
RTVSPost2010PropOp46
 70
     1
102
RTVSPost2010Prop47
 90
       50
102
RTVSPost2010PropOp47
 70
     1
102
RTVSPost2010Prop48
 90
       50
102
RTVSPost2010PropOp48
 70
     1
102
RTVSPost2010Prop49
280
     0
102
RTVSPost2010PropOp49
 70
     1
102
RTVSPost2010Prop50
 90
       50
102
RTVSPost2010PropOp50
 70
     1
102
RTVSPost2010Prop51ColorIndex
 90
      256
102
RTVSPost2010Prop51ColorRGB
 90
-16777216
102
RTVSPost2010PropOp51
 70
     0
102
RTVSPost2010Prop52
140
1.0
102
RTVSPost2010PropOp52
 70
     0
102
RTVSPost2010Prop53
 90
        2
102
RTVSPost2010PropOp53
 70
     1
102
RTVSPost2010Prop54
  1
strokes_ogs.tif
102
RTVSPost2010PropOp54
 70
     1
102
RTVSPost2010Prop55
280
     0
102
RTVSPost2010PropOp55
 70
     1
102
RTVSPost2010Prop56
140
1.0
102
RTVSPost2010PropOp56
 70
     1
102
RTVSPost2010Prop57
140
1.0
102
RTVSPost2010PropOp57
 70
     1
102
RTVSPropertyOp0
 70
     1
102
RTVSPropertyOp1
 70
     1
102
RTVSPropertyOp2
 70
     1
102
RTVSPropertyOp3
 70
     1
102
RTVSPropertyOp4
 70
     1
102
RTVSPropertyOp5
 70
     1
102
RTVSPropertyOp6
 70
     1
102
RTVSPropertyOp7
 70
     1
102
RTVSPropertyOp8
 70
     1
102
RTVSPropertyOp9
 70
     1
102
RTVSPropertyOp10
 70
     1
102
RTVSPropertyOp11
 70
     1
102
RTVSPropertyOp12
 70
     1
102
RTVSPropertyOp13
 70
     1
102
RTVSPropertyOp14
 70
     1
102
RTVSPropertyOp15
 70
     1
102
RTVSPropertyOp16
 70
     1
102
RTVSPropertyOp17
 70
     1
102
RTVSPropertyOp18
 70
     1
102
RTVSPropertyOp19
 70
     1
102
RTVSPropertyOp20
 70
     1
102
RTVSPropertyOp21
 70
     1
102
RTVSPropertyOp22
 70
     1
102
RTVSPropertyOp23
 70
     1
102
RTVSPropertyOp24
 70
     1
102
RTVSPropertyOp25
 70
     1
102
RTVSPropertyOp26
 70
     1
102
RTVSPropertyOp27
 70
     1
102
RTVSPropertyOp28
 70
     1
102
RTVSPropertyOp29
 70
     1
102
RTVSPropertyOp30
 70
     1
102
RTVSPropertyOp31
 70
     1
102
RTVSPropertyOp32
 70
     1
102
RTVSPropertyOp33
 70
     1
102
RTVSPropertyOp34
 70
     1
102
RTVSPropertyOp35
 70
     1
102
RTVSPropertyOp36
 70
     1
102
RTVSPropertyOp37
 70
     1
102
RTVSPropertyOp38
 70
     1
102
RTVSPropertyOp39
 70
     1
102
RTVSPropertyOp40
 70
     1
102
RTVSPropertyOp41
 70
     1
102
RTVSPropertyOp42
 70
     1
102
RTVSPropertyOp43
 70
     1
102
RTVSPropertyOp44
 70
     1
102
RTVSPropertyOp45
 70
     1
102
RTVSPropertyOp46
 70
     1
102
RTVSPropertyOp47
 70
     1
102
RTVSPropertyOp48
 70
     1
102
RTVSPropertyOp49
 70
     1
102
RTVSPropertyOp50
 70
     1
102
RTVSPropertyOp51
 70
     0
102
RTVSPropertyOp52
 70
     0
102
RTVSPropertyOp53
 70
     1
102
RTVSPropertyOp54
 70
     1
102
RTVSPropertyOp55
 70
     1
102
RTVSPropertyOp56
 70
     1
102
RTVSPropertyOp57
 70
     1
102
RTVSPropertyOp58
 70
     1
102
RTVSPropertyOp59
 70
     1
102
RTVSPropertyOp60
 70
     1
102
RTVSPropertyOp61
 70
     1
102
RTVSPropertyOp62
 70
     1
  0
XRECORD
  5
FE3
102
{ACAD_REACTORS
330
FE2
102
}
330
FE2
100
AcDbXrecord
280
     1
102
RTVSPost2010Prop28
280
     0
102
RTVSPost2010PropOp28
 70
     1
102
RTVSPost2010Prop29
280
     1
102
RTVSPost2010PropOp29
 70
     1
102
RTVSPost2010Prop30
280
     1
102
RTVSPost2010PropOp30
 70
     1
102
RTVSPost2010Prop31
280
     0
102
RTVSPost2010PropOp31
 70
     1
102
RTVSPost2010Prop32
280
     0
102
RTVSPost2010PropOp32
 70
     1
102
RTVSPost2010Prop33
280
     0
102
RTVSPost2010PropOp33
 70
     1
102
RTVSPost2010Prop34
280
     0
102
RTVSPost2010PropOp34
 70
     1
102
RTVSPost2010Prop35
280
     0
102
RTVSPost2010PropOp35
 70
     1
102
RTVSPost2010Prop36
280
     0
102
RTVSPost2010PropOp36
 70
     1
102
RTVSPost2010Prop37
 90
       50
102
RTVSPost2010PropOp37
 70
     1
102
RTVSPost2010Prop38
140
0.0
102
RTVSPost2010PropOp38
 70
     1
102
RTVSPost2010Prop39
140
1.0
102
RTVSPost2010PropOp39
 70
     1
102
RTVSPost2010Prop40
 90
        0
102
RTVSPost2010PropOp40
 70
     1
102
RTVSPost2010Prop41ColorIndex
 90
       18
102
RTVSPost2010Prop41ColorRGB
 90
        0
102
RTVSPost2010PropOp41
 70
     1
102
RTVSPost2010Prop42
 90
       50
102
RTVSPost2010PropOp42
 70
     1
102
RTVSPost2010Prop43
 90
        3
102
RTVSPost2010PropOp43
 70
     1
102
RTVSPost2010Prop44ColorIndex
 90
        5
102
RTVSPost2010Prop44ColorRGB
 90
      255
102
RTVSPost2010PropOp44
 70
     1
102
RTVSPost2010Prop45
280
     0
102
RTVSPost2010PropOp45
 70
     1
102
RTVSPost2010Prop46
 90
       50
102
RTVSPost2010PropOp46
 70
     1
102
RTVSPost2010Prop47
 90
       50
102
RTVSPost2010PropOp47
 70
     1
102
RTVSPost2010Prop48
 90
       50
102
RTVSPost2010PropOp48
 70
     1
102
RTVSPost2010Prop49
280
     0
102
RTVSPost2010PropOp49
 70
     1
102
RTVSPost2010Prop50
 90
       50
102
RTVSPost2010PropOp50
 70
     1
102
RTVSPost2010Prop51ColorIndex
 90
      256
102
RTVSPost2010Prop51ColorRGB
 90
-16777216
102
RTVSPost2010PropOp51
 70
     0
102
RTVSPost2010Prop52
140
1.0
102
RTVSPost2010PropOp52
 70
     0
102
RTVSPost2010Prop53
 90
        2
102
RTVSPost2010PropOp53
 70
     1
102
RTVSPost2010Prop54
  1
strokes_ogs.tif
102
RTVSPost2010PropOp54
 70
     1
102
RTVSPost2010Prop55
280
     0
102
RTVSPost2010PropOp55
 70
     1
102
RTVSPost2010Prop56
140
1.0
102
RTVSPost2010PropOp56
 70
     1
102
RTVSPost2010Prop57
140
1.0
102
RTVSPost2010PropOp57
 70
     1
102
RTVSPropertyOp0
 70
     1
102
RTVSPropertyOp1
 70
     1
102
RTVSPropertyOp2
 70
     1
102
RTVSPropertyOp3
 70
     1
102
RTVSPropertyOp4
 70
     1
102
RTVSPropertyOp5
 70
     1
102
RTVSPropertyOp6
 70
     1
102
RTVSPropertyOp7
 70
     1
102
RTVSPropertyOp8
 70
     1
102
RTVSPropertyOp9
 70
     1
102
RTVSPropertyOp10
 70
     1
102
RTVSPropertyOp11
 70
     1
102
RTVSPropertyOp12
 70
     1
102
RTVSPropertyOp13
 70
     1
102
RTVSPropertyOp14
 70
     1
102
RTVSPropertyOp15
 70
     1
102
RTVSPropertyOp16
 70
     1
102
RTVSPropertyOp17
 70
     1
102
RTVSPropertyOp18
 70
     1
102
RTVSPropertyOp19
 70
     1
102
RTVSPropertyOp20
 70
     1
102
RTVSPropertyOp21
 70
     1
102
RTVSPropertyOp22
 70
     1
102
RTVSPropertyOp23
 70
     1
102
RTVSPropertyOp24
 70
     1
102
RTVSPropertyOp25
 70
     1
102
RTVSPropertyOp26
 70
     1
102
RTVSPropertyOp27
 70
     1
102
RTVSPropertyOp28
 70
     1
102
RTVSPropertyOp29
 70
     1
102
RTVSPropertyOp30
 70
     1
102
RTVSPropertyOp31
 70
     1
102
RTVSPropertyOp32
 70
     1
102
RTVSPropertyOp33
 70
     1
102
RTVSPropertyOp34
 70
     1
102
RTVSPropertyOp35
 70
     1
102
RTVSPropertyOp36
 70
     1
102
RTVSPropertyOp37
 70
     1
102
RTVSPropertyOp38
 70
     1
102
RTVSPropertyOp39
 70
     1
102
RTVSPropertyOp40
 70
     1
102
RTVSPropertyOp41
 70
     1
102
RTVSPropertyOp42
 70
     1
102
RTVSPropertyOp43
 70
     1
102
RTVSPropertyOp44
 70
     1
102
RTVSPropertyOp45
 70
     1
102
RTVSPropertyOp46
 70
     1
102
RTVSPropertyOp47
 70
     1
102
RTVSPropertyOp48
 70
     1
102
RTVSPropertyOp49
 70
     1
102
RTVSPropertyOp50
 70
     1
102
RTVSPropertyOp51
 70
     0
102
RTVSPropertyOp52
 70
     0
102
RTVSPropertyOp53
 70
     1
102
RTVSPropertyOp54
 70
     1
102
RTVSPropertyOp55
 70
     1
102
RTVSPropertyOp56
 70
     1
102
RTVSPropertyOp57
 70
     1
102
RTVSPropertyOp58
 70
     1
102
RTVSPropertyOp59
 70
     1
102
RTVSPropertyOp60
 70
     1
102
RTVSPropertyOp61
 70
     1
102
RTVSPropertyOp62
 70
     1
  0
XRECORD
  5
FFF
102
{ACAD_REACTORS
330
FFE
102
}
330
FFE
100
AcDbXrecord
280
     1
102
RTVSPost2010Prop28
280
     0
102
RTVSPost2010PropOp28
 70
     1
102
RTVSPost2010Prop29
280
     1
102
RTVSPost2010PropOp29
 70
     1
102
RTVSPost2010Prop30
280
     1
102
RTVSPost2010PropOp30
 70
     1
102
RTVSPost2010Prop31
280
     0
102
RTVSPost2010PropOp31
 70
     1
102
RTVSPost2010Prop32
280
     0
102
RTVSPost2010PropOp32
 70
     1
102
RTVSPost2010Prop33
280
     0
102
RTVSPost2010PropOp33
 70
     1
102
RTVSPost2010Prop34
280
     0
102
RTVSPost2010PropOp34
 70
     1
102
RTVSPost2010Prop35
280
     0
102
RTVSPost2010PropOp35
 70
     1
102
RTVSPost2010Prop36
280
     0
102
RTVSPost2010PropOp36
 70
     1
102
RTVSPost2010Prop37
 90
       50
102
RTVSPost2010PropOp37
 70
     0
102
RTVSPost2010Prop38
140
0.0
102
RTVSPost2010PropOp38
 70
     0
102
RTVSPost2010Prop39
140
1.0
102
RTVSPost2010PropOp39
 70
     0
102
RTVSPost2010Prop40
 90
        0
102
RTVSPost2010PropOp40
 70
     0
102
RTVSPost2010Prop41ColorIndex
 90
       18
102
RTVSPost2010Prop41ColorRGB
 90
        0
102
RTVSPost2010PropOp41
 70
     0
102
RTVSPost2010Prop42
 90
       50
102
RTVSPost2010PropOp42
 70
     0
102
RTVSPost2010Prop43
 90
        3
102
RTVSPost2010PropOp43
 70
     0
102
RTVSPost2010Prop44ColorIndex
 90
        5
102
RTVSPost2010Prop44ColorRGB
 90
      255
102
RTVSPost2010PropOp44
 70
     0
102
RTVSPost2010Prop45
280
     0
102
RTVSPost2010PropOp45
 70
     1
102
RTVSPost2010Prop46
 90
       50
102
RTVSPost2010PropOp46
 70
     0
102
RTVSPost2010Prop47
 90
       50
102
RTVSPost2010PropOp47
 70
     0
102
RTVSPost2010Prop48
 90
       50
102
RTVSPost2010PropOp48
 70
     0
102
RTVSPost2010Prop49
280
     0
102
RTVSPost2010PropOp49
 70
     1
102
RTVSPost2010Prop50
 90
       50
102
RTVSPost2010PropOp50
 70
     0
102
RTVSPost2010Prop51ColorIndex
 90
      256
102
RTVSPost2010Prop51ColorRGB
 90
-16777216
102
RTVSPost2010PropOp51
 70
     0
102
RTVSPost2010Prop52
140
1.0
102
RTVSPost2010PropOp52
 70
     0
102
RTVSPost2010Prop53
 90
        2
102
RTVSPost2010PropOp53
 70
     0
102
RTVSPost2010Prop54
  1
strokes_ogs.tif
102
RTVSPost2010PropOp54
 70
     0
102
RTVSPost2010Prop55
280
     0
102
RTVSPost2010PropOp55
 70
     1
102
RTVSPost2010Prop56
140
1.0
102
RTVSPost2010PropOp56
 70
     0
102
RTVSPost2010Prop57
140
1.0
102
RTVSPost2010PropOp57
 70
     0
102
RTVSPropertyOp0
 70
     0
102
RTVSPropertyOp1
 70
     0
102
RTVSPropertyOp2
 70
     0
102
RTVSPropertyOp3
 70
     0
102
RTVSPropertyOp4
 70
     0
102
RTVSPropertyOp5
 70
     0
102
RTVSPropertyOp6
 70
     0
102
RTVSPropertyOp7
 70
     0
102
RTVSPropertyOp8
 70
     0
102
RTVSPropertyOp9
 70
     0
102
RTVSPropertyOp10
 70
     0
102
RTVSPropertyOp11
 70
     0
102
RTVSPropertyOp12
 70
     0
102
RTVSPropertyOp13
 70
     0
102
RTVSPropertyOp14
 70
     2
102
RTVSPropertyOp15
 70
     0
102
RTVSPropertyOp16
 70
     0
102
RTVSPropertyOp17
 70
     0
102
RTVSPropertyOp18
 70
     0
102
RTVSPropertyOp19
 70
     0
102
RTVSPropertyOp20
 70
     0
102
RTVSPropertyOp21
 70
     0
102
RTVSPropertyOp22
 70
     0
102
RTVSPropertyOp23
 70
     0
102
RTVSPropertyOp24
 70
     0
102
RTVSPropertyOp25
 70
     0
102
RTVSPropertyOp26
 70
     0
102
RTVSPropertyOp27
 70
     0
102
RTVSPropertyOp28
 70
     1
102
RTVSPropertyOp29
 70
     1
102
RTVSPropertyOp30
 70
     1
102
RTVSPropertyOp31
 70
     1
102
RTVSPropertyOp32
 70
     1
102
RTVSPropertyOp33
 70
     1
102
RTVSPropertyOp34
 70
     1
102
RTVSPropertyOp35
 70
     1
102
RTVSPropertyOp36
 70
     1
102
RTVSPropertyOp37
 70
     0
102
RTVSPropertyOp38
 70
     0
102
RTVSPropertyOp39
 70
     0
102
RTVSPropertyOp40
 70
     0
102
RTVSPropertyOp41
 70
     0
102
RTVSPropertyOp42
 70
     0
102
RTVSPropertyOp43
 70
     0
102
RTVSPropertyOp44
 70
     0
102
RTVSPropertyOp45
 70
     1
102
RTVSPropertyOp46
 70
     0
102
RTVSPropertyOp47
 70
     0
102
RTVSPropertyOp48
 70
     0
102
RTVSPropertyOp49
 70
     1
102
RTVSPropertyOp50
 70
     0
102
RTVSPropertyOp51
 70
     0
102
RTVSPropertyOp52
 70
     0
102
RTVSPropertyOp53
 70
     0
102
RTVSPropertyOp54
 70
     0
102
RTVSPropertyOp55
 70
     1
102
RTVSPropertyOp56
 70
     0
102
RTVSPropertyOp57
 70
     0
102
RTVSPropertyOp58
 70
     0
102
RTVSPropertyOp59
 70
     0
102
RTVSPropertyOp60
 70
     0
102
RTVSPropertyOp61
 70
     0
102
RTVSPropertyOp62
 70
     0
  0
XRECORD
  5
FEF
102
{ACAD_REACTORS
330
FEE
102
}
330
FEE
100
AcDbXrecord
280
     1
102
RTVSPost2010Prop28
280
     0
102
RTVSPost2010PropOp28
 70
     1
102
RTVSPost2010Prop29
280
     1
102
RTVSPost2010PropOp29
 70
     1
102
RTVSPost2010Prop30
280
     1
102
RTVSPost2010PropOp30
 70
     1
102
RTVSPost2010Prop31
280
     0
102
RTVSPost2010PropOp31
 70
     1
102
RTVSPost2010Prop32
280
     0
102
RTVSPost2010PropOp32
 70
     1
102
RTVSPost2010Prop33
280
     0
102
RTVSPost2010PropOp33
 70
     1
102
RTVSPost2010Prop34
280
     0
102
RTVSPost2010PropOp34
 70
     1
102
RTVSPost2010Prop35
280
     0
102
RTVSPost2010PropOp35
 70
     1
102
RTVSPost2010Prop36
280
     0
102
RTVSPost2010PropOp36
 70
     1
102
RTVSPost2010Prop37
 90
       50
102
RTVSPost2010PropOp37
 70
     1
102
RTVSPost2010Prop38
140
0.0
102
RTVSPost2010PropOp38
 70
     1
102
RTVSPost2010Prop39
140
1.0
102
RTVSPost2010PropOp39
 70
     1
102
RTVSPost2010Prop40
 90
        0
102
RTVSPost2010PropOp40
 70
     1
102
RTVSPost2010Prop41ColorIndex
 90
       18
102
RTVSPost2010Prop41ColorRGB
 90
        0
102
RTVSPost2010PropOp41
 70
     1
102
RTVSPost2010Prop42
 90
       50
102
RTVSPost2010PropOp42
 70
     1
102
RTVSPost2010Prop43
 90
        3
102
RTVSPost2010PropOp43
 70
     1
102
RTVSPost2010Prop44ColorIndex
 90
        5
102
RTVSPost2010Prop44ColorRGB
 90
      255
102
RTVSPost2010PropOp44
 70
     1
102
RTVSPost2010Prop45
280
     0
102
RTVSPost2010PropOp45
 70
     1
102
RTVSPost2010Prop46
 90
       50
102
RTVSPost2010PropOp46
 70
     1
102
RTVSPost2010Prop47
 90
       50
102
RTVSPost2010PropOp47
 70
     1
102
RTVSPost2010Prop48
 90
       50
102
RTVSPost2010PropOp48
 70
     1
102
RTVSPost2010Prop49
280
     0
102
RTVSPost2010PropOp49
 70
     1
102
RTVSPost2010Prop50
 90
       50
102
RTVSPost2010PropOp50
 70
     1
102
RTVSPost2010Prop51ColorIndex
 90
      256
102
RTVSPost2010Prop51ColorRGB
 90
-16777216
102
RTVSPost2010PropOp51
 70
     0
102
RTVSPost2010Prop52
140
1.0
102
RTVSPost2010PropOp52
 70
     0
102
RTVSPost2010Prop53
 90
        2
102
RTVSPost2010PropOp53
 70
     1
102
RTVSPost2010Prop54
  1
strokes_ogs.tif
102
RTVSPost2010PropOp54
 70
     1
102
RTVSPost2010Prop55
280
     0
102
RTVSPost2010PropOp55
 70
     1
102
RTVSPost2010Prop56
140
1.0
102
RTVSPost2010PropOp56
 70
     1
102
RTVSPost2010Prop57
140
1.0
102
RTVSPost2010PropOp57
 70
     1
102
RTVSPropertyOp0
 70
     1
102
RTVSPropertyOp1
 70
     1
102
RTVSPropertyOp2
 70
     1
102
RTVSPropertyOp3
 70
     1
102
RTVSPropertyOp4
 70
     1
102
RTVSPropertyOp5
 70
     1
102
RTVSPropertyOp6
 70
     1
102
RTVSPropertyOp7
 70
     1
102
RTVSPropertyOp8
 70
     1
102
RTVSPropertyOp9
 70
     1
102
RTVSPropertyOp10
 70
     1
102
RTVSPropertyOp11
 70
     1
102
RTVSPropertyOp12
 70
     1
102
RTVSPropertyOp13
 70
     1
102
RTVSPropertyOp14
 70
     1
102
RTVSPropertyOp15
 70
     1
102
RTVSPropertyOp16
 70
     1
102
RTVSPropertyOp17
 70
     1
102
RTVSPropertyOp18
 70
     1
102
RTVSPropertyOp19
 70
     1
102
RTVSPropertyOp20
 70
     1
102
RTVSPropertyOp21
 70
     1
102
RTVSPropertyOp22
 70
     1
102
RTVSPropertyOp23
 70
     1
102
RTVSPropertyOp24
 70
     1
102
RTVSPropertyOp25
 70
     1
102
RTVSPropertyOp26
 70
     1
102
RTVSPropertyOp27
 70
     1
102
RTVSPropertyOp28
 70
     1
102
RTVSPropertyOp29
 70
     1
102
RTVSPropertyOp30
 70
     1
102
RTVSPropertyOp31
 70
     1
102
RTVSPropertyOp32
 70
     1
102
RTVSPropertyOp33
 70
     1
102
RTVSPropertyOp34
 70
     1
102
RTVSPropertyOp35
 70
     1
102
RTVSPropertyOp36
 70
     1
102
RTVSPropertyOp37
 70
     1
102
RTVSPropertyOp38
 70
     1
102
RTVSPropertyOp39
 70
     1
102
RTVSPropertyOp40
 70
     1
102
RTVSPropertyOp41
 70
     1
102
RTVSPropertyOp42
 70
     1
102
RTVSPropertyOp43
 70
     1
102
RTVSPropertyOp44
 70
     1
102
RTVSPropertyOp45
 70
     1
102
RTVSPropertyOp46
 70
     1
102
RTVSPropertyOp47
 70
     1
102
RTVSPropertyOp48
 70
     1
102
RTVSPropertyOp49
 70
     1
102
RTVSPropertyOp50
 70
     1
102
RTVSPropertyOp51
 70
     0
102
RTVSPropertyOp52
 70
     0
102
RTVSPropertyOp53
 70
     1
102
RTVSPropertyOp54
 70
     1
102
RTVSPropertyOp55
 70
     1
102
RTVSPropertyOp56
 70
     1
102
RTVSPropertyOp57
 70
     1
102
RTVSPropertyOp58
 70
     1
102
RTVSPropertyOp59
 70
     1
102
RTVSPropertyOp60
 70
     1
102
RTVSPropertyOp61
 70
     1
102
RTVSPropertyOp62
 70
     1
  0
XRECORD
  5
1001
102
{ACAD_REACTORS
330
1000
102
}
330
1000
100
AcDbXrecord
280
     1
102
RTVSPost2010Prop28
280
     0
102
RTVSPost2010PropOp28
 70
     1
102
RTVSPost2010Prop29
280
     1
102
RTVSPost2010PropOp29
 70
     1
102
RTVSPost2010Prop30
280
     1
102
RTVSPost2010PropOp30
 70
     1
102
RTVSPost2010Prop31
280
     0
102
RTVSPost2010PropOp31
 70
     1
102
RTVSPost2010Prop32
280
     0
102
RTVSPost2010PropOp32
 70
     1
102
RTVSPost2010Prop33
280
     0
102
RTVSPost2010PropOp33
 70
     1
102
RTVSPost2010Prop34
280
     0
102
RTVSPost2010PropOp34
 70
     1
102
RTVSPost2010Prop35
280
     0
102
RTVSPost2010PropOp35
 70
     1
102
RTVSPost2010Prop36
280
     0
102
RTVSPost2010PropOp36
 70
     1
102
RTVSPost2010Prop37
 90
       50
102
RTVSPost2010PropOp37
 70
     0
102
RTVSPost2010Prop38
140
0.0
102
RTVSPost2010PropOp38
 70
     0
102
RTVSPost2010Prop39
140
1.0
102
RTVSPost2010PropOp39
 70
     0
102
RTVSPost2010Prop40
 90
        0
102
RTVSPost2010PropOp40
 70
     0
102
RTVSPost2010Prop41ColorIndex
 90
       18
102
RTVSPost2010Prop41ColorRGB
 90
        0
102
RTVSPost2010PropOp41
 70
     0
102
RTVSPost2010Prop42
 90
       50
102
RTVSPost2010PropOp42
 70
     0
102
RTVSPost2010Prop43
 90
        3
102
RTVSPost2010PropOp43
 70
     0
102
RTVSPost2010Prop44ColorIndex
 90
        5
102
RTVSPost2010Prop44ColorRGB
 90
      255
102
RTVSPost2010PropOp44
 70
     0
102
RTVSPost2010Prop45
280
     0
102
RTVSPost2010PropOp45
 70
     1
102
RTVSPost2010Prop46
 90
       50
102
RTVSPost2010PropOp46
 70
     0
102
RTVSPost2010Prop47
 90
       50
102
RTVSPost2010PropOp47
 70
     0
102
RTVSPost2010Prop48
 90
       50
102
RTVSPost2010PropOp48
 70
     0
102
RTVSPost2010Prop49
280
     0
102
RTVSPost2010PropOp49
 70
     1
102
RTVSPost2010Prop50
 90
       50
102
RTVSPost2010PropOp50
 70
     0
102
RTVSPost2010Prop51ColorIndex
 90
      256
102
RTVSPost2010Prop51ColorRGB
 90
-16777216
102
RTVSPost2010PropOp51
 70
     0
102
RTVSPost2010Prop52
140
1.0
102
RTVSPost2010PropOp52
 70
     0
102
RTVSPost2010Prop53
 90
        2
102
RTVSPost2010PropOp53
 70
     0
102
RTVSPost2010Prop54
  1
strokes_ogs.tif
102
RTVSPost2010PropOp54
 70
     0
102
RTVSPost2010Prop55
280
     0
102
RTVSPost2010PropOp55
 70
     1
102
RTVSPost2010Prop56
140
1.0
102
RTVSPost2010PropOp56
 70
     0
102
RTVSPost2010Prop57
140
1.0
102
RTVSPost2010PropOp57
 70
     0
102
RTVSPropertyOp0
 70
     0
102
RTVSPropertyOp1
 70
     0
102
RTVSPropertyOp2
 70
     0
102
RTVSPropertyOp3
 70
     0
102
RTVSPropertyOp4
 70
     0
102
RTVSPropertyOp5
 70
     0
102
RTVSPropertyOp6
 70
     0
102
RTVSPropertyOp7
 70
     0
102
RTVSPropertyOp8
 70
     0
102
RTVSPropertyOp9
 70
     0
102
RTVSPropertyOp10
 70
     0
102
RTVSPropertyOp11
 70
     0
102
RTVSPropertyOp12
 70
     0
102
RTVSPropertyOp13
 70
     0
102
RTVSPropertyOp14
 70
     2
102
RTVSPropertyOp15
 70
     0
102
RTVSPropertyOp16
 70
     0
102
RTVSPropertyOp17
 70
     0
102
RTVSPropertyOp18
 70
     0
102
RTVSPropertyOp19
 70
     0
102
RTVSPropertyOp20
 70
     0
102
RTVSPropertyOp21
 70
     0
102
RTVSPropertyOp22
 70
     0
102
RTVSPropertyOp23
 70
     0
102
RTVSPropertyOp24
 70
     0
102
RTVSPropertyOp25
 70
     0
102
RTVSPropertyOp26
 70
     0
102
RTVSPropertyOp27
 70
     0
102
RTVSPropertyOp28
 70
     1
102
RTVSPropertyOp29
 70
     1
102
RTVSPropertyOp30
 70
     1
102
RTVSPropertyOp31
 70
     1
102
RTVSPropertyOp32
 70
     1
102
RTVSPropertyOp33
 70
     1
102
RTVSPropertyOp34
 70
     1
102
RTVSPropertyOp35
 70
     1
102
RTVSPropertyOp36
 70
     1
102
RTVSPropertyOp37
 70
     0
102
RTVSPropertyOp38
 70
     0
102
RTVSPropertyOp39
 70
     0
102
RTVSPropertyOp40
 70
     0
102
RTVSPropertyOp41
 70
     0
102
RTVSPropertyOp42
 70
     0
102
RTVSPropertyOp43
 70
     0
102
RTVSPropertyOp44
 70
     0
102
RTVSPropertyOp45
 70
     1
102
RTVSPropertyOp46
 70
     0
102
RTVSPropertyOp47
 70
     0
102
RTVSPropertyOp48
 70
     0
102
RTVSPropertyOp49
 70
     1
102
RTVSPropertyOp50
 70
     0
102
RTVSPropertyOp51
 70
     0
102
RTVSPropertyOp52
 70
     0
102
RTVSPropertyOp53
 70
     0
102
RTVSPropertyOp54
 70
     0
102
RTVSPropertyOp55
 70
     1
102
RTVSPropertyOp56
 70
     0
102
RTVSPropertyOp57
 70
     0
102
RTVSPropertyOp58
 70
     0
102
RTVSPropertyOp59
 70
     0
102
RTVSPropertyOp60
 70
     0
102
RTVSPropertyOp61
 70
     0
102
RTVSPropertyOp62
 70
     0
  0
XRECORD
  5
FE7
102
{ACAD_REACTORS
330
FE6
102
}
330
FE6
100
AcDbXrecord
280
     1
102
RTVSPost2010Prop28
280
     0
102
RTVSPost2010PropOp28
 70
     1
102
RTVSPost2010Prop29
280
     1
102
RTVSPost2010PropOp29
 70
     1
102
RTVSPost2010Prop30
280
     1
102
RTVSPost2010PropOp30
 70
     1
102
RTVSPost2010Prop31
280
     0
102
RTVSPost2010PropOp31
 70
     1
102
RTVSPost2010Prop32
280
     0
102
RTVSPost2010PropOp32
 70
     1
102
RTVSPost2010Prop33
280
     0
102
RTVSPost2010PropOp33
 70
     1
102
RTVSPost2010Prop34
280
     0
102
RTVSPost2010PropOp34
 70
     1
102
RTVSPost2010Prop35
280
     0
102
RTVSPost2010PropOp35
 70
     1
102
RTVSPost2010Prop36
280
     0
102
RTVSPost2010PropOp36
 70
     1
102
RTVSPost2010Prop37
 90
       50
102
RTVSPost2010PropOp37
 70
     1
102
RTVSPost2010Prop38
140
0.0
102
RTVSPost2010PropOp38
 70
     1
102
RTVSPost2010Prop39
140
1.0
102
RTVSPost2010PropOp39
 70
     1
102
RTVSPost2010Prop40
 90
        0
102
RTVSPost2010PropOp40
 70
     1
102
RTVSPost2010Prop41ColorIndex
 90
       18
102
RTVSPost2010Prop41ColorRGB
 90
        0
102
RTVSPost2010PropOp41
 70
     1
102
RTVSPost2010Prop42
 90
       50
102
RTVSPost2010PropOp42
 70
     1
102
RTVSPost2010Prop43
 90
        3
102
RTVSPost2010PropOp43
 70
     1
102
RTVSPost2010Prop44ColorIndex
 90
        5
102
RTVSPost2010Prop44ColorRGB
 90
      255
102
RTVSPost2010PropOp44
 70
     1
102
RTVSPost2010Prop45
280
     0
102
RTVSPost2010PropOp45
 70
     1
102
RTVSPost2010Prop46
 90
       50
102
RTVSPost2010PropOp46
 70
     1
102
RTVSPost2010Prop47
 90
       50
102
RTVSPost2010PropOp47
 70
     1
102
RTVSPost2010Prop48
 90
       50
102
RTVSPost2010PropOp48
 70
     1
102
RTVSPost2010Prop49
280
     0
102
RTVSPost2010PropOp49
 70
     1
102
RTVSPost2010Prop50
 90
       50
102
RTVSPost2010PropOp50
 70
     1
102
RTVSPost2010Prop51ColorIndex
 90
      256
102
RTVSPost2010Prop51ColorRGB
 90
-16777216
102
RTVSPost2010PropOp51
 70
     0
102
RTVSPost2010Prop52
140
1.0
102
RTVSPost2010PropOp52
 70
     0
102
RTVSPost2010Prop53
 90
        2
102
RTVSPost2010PropOp53
 70
     1
102
RTVSPost2010Prop54
  1
strokes_ogs.tif
102
RTVSPost2010PropOp54
 70
     1
102
RTVSPost2010Prop55
280
     0
102
RTVSPost2010PropOp55
 70
     1
102
RTVSPost2010Prop56
140
1.0
102
RTVSPost2010PropOp56
 70
     1
102
RTVSPost2010Prop57
140
1.0
102
RTVSPost2010PropOp57
 70
     1
102
RTVSPropertyOp0
 70
     1
102
RTVSPropertyOp1
 70
     1
102
RTVSPropertyOp2
 70
     1
102
RTVSPropertyOp3
 70
     1
102
RTVSPropertyOp4
 70
     1
102
RTVSPropertyOp5
 70
     1
102
RTVSPropertyOp6
 70
     1
102
RTVSPropertyOp7
 70
     1
102
RTVSPropertyOp8
 70
     1
102
RTVSPropertyOp9
 70
     1
102
RTVSPropertyOp10
 70
     1
102
RTVSPropertyOp11
 70
     1
102
RTVSPropertyOp12
 70
     1
102
RTVSPropertyOp13
 70
     1
102
RTVSPropertyOp14
 70
     1
102
RTVSPropertyOp15
 70
     1
102
RTVSPropertyOp16
 70
     1
102
RTVSPropertyOp17
 70
     1
102
RTVSPropertyOp18
 70
     1
102
RTVSPropertyOp19
 70
     1
102
RTVSPropertyOp20
 70
     1
102
RTVSPropertyOp21
 70
     1
102
RTVSPropertyOp22
 70
     1
102
RTVSPropertyOp23
 70
     1
102
RTVSPropertyOp24
 70
     1
102
RTVSPropertyOp25
 70
     1
102
RTVSPropertyOp26
 70
     1
102
RTVSPropertyOp27
 70
     1
102
RTVSPropertyOp28
 70
     1
102
RTVSPropertyOp29
 70
     1
102
RTVSPropertyOp30
 70
     1
102
RTVSPropertyOp31
 70
     1
102
RTVSPropertyOp32
 70
     1
102
RTVSPropertyOp33
 70
     1
102
RTVSPropertyOp34
 70
     1
102
RTVSPropertyOp35
 70
     1
102
RTVSPropertyOp36
 70
     1
102
RTVSPropertyOp37
 70
     1
102
RTVSPropertyOp38
 70
     1
102
RTVSPropertyOp39
 70
     1
102
RTVSPropertyOp40
 70
     1
102
RTVSPropertyOp41
 70
     1
102
RTVSPropertyOp42
 70
     1
102
RTVSPropertyOp43
 70
     1
102
RTVSPropertyOp44
 70
     1
102
RTVSPropertyOp45
 70
     1
102
RTVSPropertyOp46
 70
     1
102
RTVSPropertyOp47
 70
     1
102
RTVSPropertyOp48
 70
     1
102
RTVSPropertyOp49
 70
     1
102
RTVSPropertyOp50
 70
     1
102
RTVSPropertyOp51
 70
     0
102
RTVSPropertyOp52
 70
     0
102
RTVSPropertyOp53
 70
     1
102
RTVSPropertyOp54
 70
     1
102
RTVSPropertyOp55
 70
     1
102
RTVSPropertyOp56
 70
     1
102
RTVSPropertyOp57
 70
     1
102
RTVSPropertyOp58
 70
     1
102
RTVSPropertyOp59
 70
     1
102
RTVSPropertyOp60
 70
     1
102
RTVSPropertyOp61
 70
     1
102
RTVSPropertyOp62
 70
     1
  0
XRECORD
  5
FFD
102
{ACAD_REACTORS
330
FFC
102
}
330
FFC
100
AcDbXrecord
280
     1
102
RTVSPost2010Prop28
280
     0
102
RTVSPost2010PropOp28
 70
     1
102
RTVSPost2010Prop29
280
     1
102
RTVSPost2010PropOp29
 70
     1
102
RTVSPost2010Prop30
280
     1
102
RTVSPost2010PropOp30
 70
     1
102
RTVSPost2010Prop31
280
     0
102
RTVSPost2010PropOp31
 70
     1
102
RTVSPost2010Prop32
280
     0
102
RTVSPost2010PropOp32
 70
     1
102
RTVSPost2010Prop33
280
     0
102
RTVSPost2010PropOp33
 70
     1
102
RTVSPost2010Prop34
280
     0
102
RTVSPost2010PropOp34
 70
     1
102
RTVSPost2010Prop35
280
     0
102
RTVSPost2010PropOp35
 70
     1
102
RTVSPost2010Prop36
280
     0
102
RTVSPost2010PropOp36
 70
     1
102
RTVSPost2010Prop37
 90
       50
102
RTVSPost2010PropOp37
 70
     1
102
RTVSPost2010Prop38
140
0.0
102
RTVSPost2010PropOp38
 70
     1
102
RTVSPost2010Prop39
140
1.0
102
RTVSPost2010PropOp39
 70
     1
102
RTVSPost2010Prop40
 90
        0
102
RTVSPost2010PropOp40
 70
     1
102
RTVSPost2010Prop41ColorIndex
 90
       18
102
RTVSPost2010Prop41ColorRGB
 90
        0
102
RTVSPost2010PropOp41
 70
     1
102
RTVSPost2010Prop42
 90
       50
102
RTVSPost2010PropOp42
 70
     1
102
RTVSPost2010Prop43
 90
        3
102
RTVSPost2010PropOp43
 70
     1
102
RTVSPost2010Prop44ColorIndex
 90
        5
102
RTVSPost2010Prop44ColorRGB
 90
      255
102
RTVSPost2010PropOp44
 70
     1
102
RTVSPost2010Prop45
280
     0
102
RTVSPost2010PropOp45
 70
     1
102
RTVSPost2010Prop46
 90
       50
102
RTVSPost2010PropOp46
 70
     1
102
RTVSPost2010Prop47
 90
       50
102
RTVSPost2010PropOp47
 70
     1
102
RTVSPost2010Prop48
 90
       50
102
RTVSPost2010PropOp48
 70
     1
102
RTVSPost2010Prop49
280
     0
102
RTVSPost2010PropOp49
 70
     1
102
RTVSPost2010Prop50
 90
       50
102
RTVSPost2010PropOp50
 70
     1
102
RTVSPost2010Prop51ColorIndex
 90
      256
102
RTVSPost2010Prop51ColorRGB
 90
-16777216
102
RTVSPost2010PropOp51
 70
     0
102
RTVSPost2010Prop52
140
1.0
102
RTVSPost2010PropOp52
 70
     0
102
RTVSPost2010Prop53
 90
        2
102
RTVSPost2010PropOp53
 70
     1
102
RTVSPost2010Prop54
  1
strokes_ogs.tif
102
RTVSPost2010PropOp54
 70
     1
102
RTVSPost2010Prop55
280
     0
102
RTVSPost2010PropOp55
 70
     1
102
RTVSPost2010Prop56
140
1.0
102
RTVSPost2010PropOp56
 70
     1
102
RTVSPost2010Prop57
140
1.0
102
RTVSPost2010PropOp57
 70
     1
102
RTVSPropertyOp0
 70
     1
102
RTVSPropertyOp1
 70
     1
102
RTVSPropertyOp2
 70
     1
102
RTVSPropertyOp3
 70
     1
102
RTVSPropertyOp4
 70
     1
102
RTVSPropertyOp5
 70
     1
102
RTVSPropertyOp6
 70
     1
102
RTVSPropertyOp7
 70
     1
102
RTVSPropertyOp8
 70
     1
102
RTVSPropertyOp9
 70
     1
102
RTVSPropertyOp10
 70
     1
102
RTVSPropertyOp11
 70
     1
102
RTVSPropertyOp12
 70
     1
102
RTVSPropertyOp13
 70
     1
102
RTVSPropertyOp14
 70
     1
102
RTVSPropertyOp15
 70
     1
102
RTVSPropertyOp16
 70
     1
102
RTVSPropertyOp17
 70
     1
102
RTVSPropertyOp18
 70
     1
102
RTVSPropertyOp19
 70
     1
102
RTVSPropertyOp20
 70
     1
102
RTVSPropertyOp21
 70
     1
102
RTVSPropertyOp22
 70
     1
102
RTVSPropertyOp23
 70
     1
102
RTVSPropertyOp24
 70
     1
102
RTVSPropertyOp25
 70
     1
102
RTVSPropertyOp26
 70
     1
102
RTVSPropertyOp27
 70
     1
102
RTVSPropertyOp28
 70
     1
102
RTVSPropertyOp29
 70
     1
102
RTVSPropertyOp30
 70
     1
102
RTVSPropertyOp31
 70
     1
102
RTVSPropertyOp32
 70
     1
102
RTVSPropertyOp33
 70
     1
102
RTVSPropertyOp34
 70
     1
102
RTVSPropertyOp35
 70
     1
102
RTVSPropertyOp36
 70
     1
102
RTVSPropertyOp37
 70
     1
102
RTVSPropertyOp38
 70
     1
102
RTVSPropertyOp39
 70
     1
102
RTVSPropertyOp40
 70
     1
102
RTVSPropertyOp41
 70
     1
102
RTVSPropertyOp42
 70
     1
102
RTVSPropertyOp43
 70
     1
102
RTVSPropertyOp44
 70
     1
102
RTVSPropertyOp45
 70
     1
102
RTVSPropertyOp46
 70
     1
102
RTVSPropertyOp47
 70
     1
102
RTVSPropertyOp48
 70
     1
102
RTVSPropertyOp49
 70
     1
102
RTVSPropertyOp50
 70
     1
102
RTVSPropertyOp51
 70
     0
102
RTVSPropertyOp52
 70
     0
102
RTVSPropertyOp53
 70
     1
102
RTVSPropertyOp54
 70
     1
102
RTVSPropertyOp55
 70
     1
102
RTVSPropertyOp56
 70
     1
102
RTVSPropertyOp57
 70
     1
102
RTVSPropertyOp58
 70
     1
102
RTVSPropertyOp59
 70
     1
102
RTVSPropertyOp60
 70
     1
102
RTVSPropertyOp61
 70
     1
102
RTVSPropertyOp62
 70
     1
  0
XRECORD
  5
FFB
102
{ACAD_REACTORS
330
FFA
102
}
330
FFA
100
AcDbXrecord
280
     1
102
RTVSPost2010Prop28
280
     0
102
RTVSPost2010PropOp28
 70
     1
102
RTVSPost2010Prop29
280
     1
102
RTVSPost2010PropOp29
 70
     1
102
RTVSPost2010Prop30
280
     1
102
RTVSPost2010PropOp30
 70
     1
102
RTVSPost2010Prop31
280
     0
102
RTVSPost2010PropOp31
 70
     1
102
RTVSPost2010Prop32
280
     0
102
RTVSPost2010PropOp32
 70
     1
102
RTVSPost2010Prop33
280
     0
102
RTVSPost2010PropOp33
 70
     1
102
RTVSPost2010Prop34
280
     0
102
RTVSPost2010PropOp34
 70
     1
102
RTVSPost2010Prop35
280
     0
102
RTVSPost2010PropOp35
 70
     1
102
RTVSPost2010Prop36
280
     0
102
RTVSPost2010PropOp36
 70
     1
102
RTVSPost2010Prop37
 90
       50
102
RTVSPost2010PropOp37
 70
     1
102
RTVSPost2010Prop38
140
0.0
102
RTVSPost2010PropOp38
 70
     1
102
RTVSPost2010Prop39
140
1.0
102
RTVSPost2010PropOp39
 70
     1
102
RTVSPost2010Prop40
 90
        0
102
RTVSPost2010PropOp40
 70
     1
102
RTVSPost2010Prop41ColorIndex
 90
       18
102
RTVSPost2010Prop41ColorRGB
 90
        0
102
RTVSPost2010PropOp41
 70
     1
102
RTVSPost2010Prop42
 90
       50
102
RTVSPost2010PropOp42
 70
     1
102
RTVSPost2010Prop43
 90
        3
102
RTVSPost2010PropOp43
 70
     1
102
RTVSPost2010Prop44ColorIndex
 90
        5
102
RTVSPost2010Prop44ColorRGB
 90
      255
102
RTVSPost2010PropOp44
 70
     1
102
RTVSPost2010Prop45
280
     0
102
RTVSPost2010PropOp45
 70
     1
102
RTVSPost2010Prop46
 90
       50
102
RTVSPost2010PropOp46
 70
     1
102
RTVSPost2010Prop47
 90
       50
102
RTVSPost2010PropOp47
 70
     1
102
RTVSPost2010Prop48
 90
       50
102
RTVSPost2010PropOp48
 70
     1
102
RTVSPost2010Prop49
280
     0
102
RTVSPost2010PropOp49
 70
     1
102
RTVSPost2010Prop50
 90
       50
102
RTVSPost2010PropOp50
 70
     1
102
RTVSPost2010Prop51ColorIndex
 90
      256
102
RTVSPost2010Prop51ColorRGB
 90
-16777216
102
RTVSPost2010PropOp51
 70
     0
102
RTVSPost2010Prop52
140
1.0
102
RTVSPost2010PropOp52
 70
     0
102
RTVSPost2010Prop53
 90
        2
102
RTVSPost2010PropOp53
 70
     1
102
RTVSPost2010Prop54
  1
strokes_ogs.tif
102
RTVSPost2010PropOp54
 70
     1
102
RTVSPost2010Prop55
280
     0
102
RTVSPost2010PropOp55
 70
     1
102
RTVSPost2010Prop56
140
1.0
102
RTVSPost2010PropOp56
 70
     1
102
RTVSPost2010Prop57
140
1.0
102
RTVSPost2010PropOp57
 70
     1
102
RTVSPropertyOp0
 70
     1
102
RTVSPropertyOp1
 70
     1
102
RTVSPropertyOp2
 70
     1
102
RTVSPropertyOp3
 70
     1
102
RTVSPropertyOp4
 70
     1
102
RTVSPropertyOp5
 70
     1
102
RTVSPropertyOp6
 70
     1
102
RTVSPropertyOp7
 70
     1
102
RTVSPropertyOp8
 70
     1
102
RTVSPropertyOp9
 70
     1
102
RTVSPropertyOp10
 70
     1
102
RTVSPropertyOp11
 70
     1
102
RTVSPropertyOp12
 70
     1
102
RTVSPropertyOp13
 70
     1
102
RTVSPropertyOp14
 70
     1
102
RTVSPropertyOp15
 70
     1
102
RTVSPropertyOp16
 70
     1
102
RTVSPropertyOp17
 70
     1
102
RTVSPropertyOp18
 70
     1
102
RTVSPropertyOp19
 70
     1
102
RTVSPropertyOp20
 70
     1
102
RTVSPropertyOp21
 70
     1
102
RTVSPropertyOp22
 70
     1
102
RTVSPropertyOp23
 70
     1
102
RTVSPropertyOp24
 70
     1
102
RTVSPropertyOp25
 70
     1
102
RTVSPropertyOp26
 70
     1
102
RTVSPropertyOp27
 70
     1
102
RTVSPropertyOp28
 70
     1
102
RTVSPropertyOp29
 70
     1
102
RTVSPropertyOp30
 70
     1
102
RTVSPropertyOp31
 70
     1
102
RTVSPropertyOp32
 70
     1
102
RTVSPropertyOp33
 70
     1
102
RTVSPropertyOp34
 70
     1
102
RTVSPropertyOp35
 70
     1
102
RTVSPropertyOp36
 70
     1
102
RTVSPropertyOp37
 70
     1
102
RTVSPropertyOp38
 70
     1
102
RTVSPropertyOp39
 70
     1
102
RTVSPropertyOp40
 70
     1
102
RTVSPropertyOp41
 70
     1
102
RTVSPropertyOp42
 70
     1
102
RTVSPropertyOp43
 70
     1
102
RTVSPropertyOp44
 70
     1
102
RTVSPropertyOp45
 70
     1
102
RTVSPropertyOp46
 70
     1
102
RTVSPropertyOp47
 70
     1
102
RTVSPropertyOp48
 70
     1
102
RTVSPropertyOp49
 70
     1
102
RTVSPropertyOp50
 70
     1
102
RTVSPropertyOp51
 70
     0
102
RTVSPropertyOp52
 70
     0
102
RTVSPropertyOp53
 70
     1
102
RTVSPropertyOp54
 70
     1
102
RTVSPropertyOp55
 70
     1
102
RTVSPropertyOp56
 70
     1
102
RTVSPropertyOp57
 70
     1
102
RTVSPropertyOp58
 70
     1
102
RTVSPropertyOp59
 70
     1
102
RTVSPropertyOp60
 70
     1
102
RTVSPropertyOp61
 70
     1
102
RTVSPropertyOp62
 70
     1
  0
XRECORD
  5
FF5
102
{ACAD_REACTORS
330
FF4
102
}
330
FF4
100
AcDbXrecord
280
     1
102
RTVSPost2010Prop28
280
     0
102
RTVSPost2010PropOp28
 70
     1
102
RTVSPost2010Prop29
280
     1
102
RTVSPost2010PropOp29
 70
     1
102
RTVSPost2010Prop30
280
     1
102
RTVSPost2010PropOp30
 70
     1
102
RTVSPost2010Prop31
280
     0
102
RTVSPost2010PropOp31
 70
     1
102
RTVSPost2010Prop32
280
     0
102
RTVSPost2010PropOp32
 70
     1
102
RTVSPost2010Prop33
280
     0
102
RTVSPost2010PropOp33
 70
     1
102
RTVSPost2010Prop34
280
     0
102
RTVSPost2010PropOp34
 70
     1
102
RTVSPost2010Prop35
280
     0
102
RTVSPost2010PropOp35
 70
     1
102
RTVSPost2010Prop36
280
     0
102
RTVSPost2010PropOp36
 70
     1
102
RTVSPost2010Prop37
 90
       50
102
RTVSPost2010PropOp37
 70
     1
102
RTVSPost2010Prop38
140
0.0
102
RTVSPost2010PropOp38
 70
     1
102
RTVSPost2010Prop39
140
1.0
102
RTVSPost2010PropOp39
 70
     1
102
RTVSPost2010Prop40
 90
        0
102
RTVSPost2010PropOp40
 70
     1
102
RTVSPost2010Prop41ColorIndex
 90
       18
102
RTVSPost2010Prop41ColorRGB
 90
        0
102
RTVSPost2010PropOp41
 70
     1
102
RTVSPost2010Prop42
 90
       50
102
RTVSPost2010PropOp42
 70
     1
102
RTVSPost2010Prop43
 90
        3
102
RTVSPost2010PropOp43
 70
     1
102
RTVSPost2010Prop44ColorIndex
 90
        5
102
RTVSPost2010Prop44ColorRGB
 90
      255
102
RTVSPost2010PropOp44
 70
     1
102
RTVSPost2010Prop45
280
     0
102
RTVSPost2010PropOp45
 70
     1
102
RTVSPost2010Prop46
 90
       50
102
RTVSPost2010PropOp46
 70
     1
102
RTVSPost2010Prop47
 90
       50
102
RTVSPost2010PropOp47
 70
     1
102
RTVSPost2010Prop48
 90
       50
102
RTVSPost2010PropOp48
 70
     1
102
RTVSPost2010Prop49
280
     0
102
RTVSPost2010PropOp49
 70
     1
102
RTVSPost2010Prop50
 90
       50
102
RTVSPost2010PropOp50
 70
     1
102
RTVSPost2010Prop51ColorIndex
 90
      256
102
RTVSPost2010Prop51ColorRGB
 90
-16777216
102
RTVSPost2010PropOp51
 70
     0
102
RTVSPost2010Prop52
140
1.0
102
RTVSPost2010PropOp52
 70
     0
102
RTVSPost2010Prop53
 90
        2
102
RTVSPost2010PropOp53
 70
     1
102
RTVSPost2010Prop54
  1
strokes_ogs.tif
102
RTVSPost2010PropOp54
 70
     1
102
RTVSPost2010Prop55
280
     0
102
RTVSPost2010PropOp55
 70
     1
102
RTVSPost2010Prop56
140
1.0
102
RTVSPost2010PropOp56
 70
     1
102
RTVSPost2010Prop57
140
1.0
102
RTVSPost2010PropOp57
 70
     1
102
RTVSPropertyOp0
 70
     1
102
RTVSPropertyOp1
 70
     1
102
RTVSPropertyOp2
 70
     1
102
RTVSPropertyOp3
 70
     1
102
RTVSPropertyOp4
 70
     1
102
RTVSPropertyOp5
 70
     1
102
RTVSPropertyOp6
 70
     1
102
RTVSPropertyOp7
 70
     1
102
RTVSPropertyOp8
 70
     1
102
RTVSPropertyOp9
 70
     1
102
RTVSPropertyOp10
 70
     1
102
RTVSPropertyOp11
 70
     1
102
RTVSPropertyOp12
 70
     1
102
RTVSPropertyOp13
 70
     1
102
RTVSPropertyOp14
 70
     1
102
RTVSPropertyOp15
 70
     1
102
RTVSPropertyOp16
 70
     1
102
RTVSPropertyOp17
 70
     1
102
RTVSPropertyOp18
 70
     1
102
RTVSPropertyOp19
 70
     1
102
RTVSPropertyOp20
 70
     1
102
RTVSPropertyOp21
 70
     1
102
RTVSPropertyOp22
 70
     1
102
RTVSPropertyOp23
 70
     1
102
RTVSPropertyOp24
 70
     1
102
RTVSPropertyOp25
 70
     1
102
RTVSPropertyOp26
 70
     1
102
RTVSPropertyOp27
 70
     1
102
RTVSPropertyOp28
 70
     1
102
RTVSPropertyOp29
 70
     1
102
RTVSPropertyOp30
 70
     1
102
RTVSPropertyOp31
 70
     1
102
RTVSPropertyOp32
 70
     1
102
RTVSPropertyOp33
 70
     1
102
RTVSPropertyOp34
 70
     1
102
RTVSPropertyOp35
 70
     1
102
RTVSPropertyOp36
 70
     1
102
RTVSPropertyOp37
 70
     1
102
RTVSPropertyOp38
 70
     1
102
RTVSPropertyOp39
 70
     1
102
RTVSPropertyOp40
 70
     1
102
RTVSPropertyOp41
 70
     1
102
RTVSPropertyOp42
 70
     1
102
RTVSPropertyOp43
 70
     1
102
RTVSPropertyOp44
 70
     1
102
RTVSPropertyOp45
 70
     1
102
RTVSPropertyOp46
 70
     1
102
RTVSPropertyOp47
 70
     1
102
RTVSPropertyOp48
 70
     1
102
RTVSPropertyOp49
 70
     1
102
RTVSPropertyOp50
 70
     1
102
RTVSPropertyOp51
 70
     0
102
RTVSPropertyOp52
 70
     0
102
RTVSPropertyOp53
 70
     1
102
RTVSPropertyOp54
 70
     1
102
RTVSPropertyOp55
 70
     1
102
RTVSPropertyOp56
 70
     1
102
RTVSPropertyOp57
 70
     1
102
RTVSPropertyOp58
 70
     1
102
RTVSPropertyOp59
 70
     1
102
RTVSPropertyOp60
 70
     1
102
RTVSPropertyOp61
 70
     1
102
RTVSPropertyOp62
 70
     1
  0
XRECORD
  5
FF7
102
{ACAD_REACTORS
330
FF6
102
}
330
FF6
100
AcDbXrecord
280
     1
102
RTVSPost2010Prop28
280
     0
102
RTVSPost2010PropOp28
 70
     1
102
RTVSPost2010Prop29
280
     1
102
RTVSPost2010PropOp29
 70
     1
102
RTVSPost2010Prop30
280
     1
102
RTVSPost2010PropOp30
 70
     1
102
RTVSPost2010Prop31
280
     0
102
RTVSPost2010PropOp31
 70
     1
102
RTVSPost2010Prop32
280
     0
102
RTVSPost2010PropOp32
 70
     1
102
RTVSPost2010Prop33
280
     0
102
RTVSPost2010PropOp33
 70
     1
102
RTVSPost2010Prop34
280
     0
102
RTVSPost2010PropOp34
 70
     1
102
RTVSPost2010Prop35
280
     0
102
RTVSPost2010PropOp35
 70
     1
102
RTVSPost2010Prop36
280
     0
102
RTVSPost2010PropOp36
 70
     1
102
RTVSPost2010Prop37
 90
       50
102
RTVSPost2010PropOp37
 70
     1
102
RTVSPost2010Prop38
140
0.0
102
RTVSPost2010PropOp38
 70
     1
102
RTVSPost2010Prop39
140
1.0
102
RTVSPost2010PropOp39
 70
     1
102
RTVSPost2010Prop40
 90
        0
102
RTVSPost2010PropOp40
 70
     1
102
RTVSPost2010Prop41ColorIndex
 90
       18
102
RTVSPost2010Prop41ColorRGB
 90
        0
102
RTVSPost2010PropOp41
 70
     1
102
RTVSPost2010Prop42
 90
       50
102
RTVSPost2010PropOp42
 70
     1
102
RTVSPost2010Prop43
 90
        3
102
RTVSPost2010PropOp43
 70
     1
102
RTVSPost2010Prop44ColorIndex
 90
        5
102
RTVSPost2010Prop44ColorRGB
 90
      255
102
RTVSPost2010PropOp44
 70
     1
102
RTVSPost2010Prop45
280
     0
102
RTVSPost2010PropOp45
 70
     1
102
RTVSPost2010Prop46
 90
       50
102
RTVSPost2010PropOp46
 70
     1
102
RTVSPost2010Prop47
 90
       50
102
RTVSPost2010PropOp47
 70
     1
102
RTVSPost2010Prop48
 90
       50
102
RTVSPost2010PropOp48
 70
     1
102
RTVSPost2010Prop49
280
     0
102
RTVSPost2010PropOp49
 70
     1
102
RTVSPost2010Prop50
 90
       50
102
RTVSPost2010PropOp50
 70
     1
102
RTVSPost2010Prop51ColorIndex
 90
      256
102
RTVSPost2010Prop51ColorRGB
 90
-16777216
102
RTVSPost2010PropOp51
 70
     0
102
RTVSPost2010Prop52
140
1.0
102
RTVSPost2010PropOp52
 70
     0
102
RTVSPost2010Prop53
 90
        2
102
RTVSPost2010PropOp53
 70
     1
102
RTVSPost2010Prop54
  1
strokes_ogs.tif
102
RTVSPost2010PropOp54
 70
     1
102
RTVSPost2010Prop55
280
     0
102
RTVSPost2010PropOp55
 70
     1
102
RTVSPost2010Prop56
140
1.0
102
RTVSPost2010PropOp56
 70
     1
102
RTVSPost2010Prop57
140
1.0
102
RTVSPost2010PropOp57
 70
     1
102
RTVSPropertyOp0
 70
     1
102
RTVSPropertyOp1
 70
     1
102
RTVSPropertyOp2
 70
     1
102
RTVSPropertyOp3
 70
     1
102
RTVSPropertyOp4
 70
     1
102
RTVSPropertyOp5
 70
     1
102
RTVSPropertyOp6
 70
     1
102
RTVSPropertyOp7
 70
     1
102
RTVSPropertyOp8
 70
     1
102
RTVSPropertyOp9
 70
     1
102
RTVSPropertyOp10
 70
     1
102
RTVSPropertyOp11
 70
     1
102
RTVSPropertyOp12
 70
     1
102
RTVSPropertyOp13
 70
     1
102
RTVSPropertyOp14
 70
     1
102
RTVSPropertyOp15
 70
     1
102
RTVSPropertyOp16
 70
     1
102
RTVSPropertyOp17
 70
     1
102
RTVSPropertyOp18
 70
     1
102
RTVSPropertyOp19
 70
     1
102
RTVSPropertyOp20
 70
     1
102
RTVSPropertyOp21
 70
     1
102
RTVSPropertyOp22
 70
     1
102
RTVSPropertyOp23
 70
     1
102
RTVSPropertyOp24
 70
     1
102
RTVSPropertyOp25
 70
     1
102
RTVSPropertyOp26
 70
     1
102
RTVSPropertyOp27
 70
     1
102
RTVSPropertyOp28
 70
     1
102
RTVSPropertyOp29
 70
     1
102
RTVSPropertyOp30
 70
     1
102
RTVSPropertyOp31
 70
     1
102
RTVSPropertyOp32
 70
     1
102
RTVSPropertyOp33
 70
     1
102
RTVSPropertyOp34
 70
     1
102
RTVSPropertyOp35
 70
     1
102
RTVSPropertyOp36
 70
     1
102
RTVSPropertyOp37
 70
     1
102
RTVSPropertyOp38
 70
     1
102
RTVSPropertyOp39
 70
     1
102
RTVSPropertyOp40
 70
     1
102
RTVSPropertyOp41
 70
     1
102
RTVSPropertyOp42
 70
     1
102
RTVSPropertyOp43
 70
     1
102
RTVSPropertyOp44
 70
     1
102
RTVSPropertyOp45
 70
     1
102
RTVSPropertyOp46
 70
     1
102
RTVSPropertyOp47
 70
     1
102
RTVSPropertyOp48
 70
     1
102
RTVSPropertyOp49
 70
     1
102
RTVSPropertyOp50
 70
     1
102
RTVSPropertyOp51
 70
     0
102
RTVSPropertyOp52
 70
     0
102
RTVSPropertyOp53
 70
     1
102
RTVSPropertyOp54
 70
     1
102
RTVSPropertyOp55
 70
     1
102
RTVSPropertyOp56
 70
     1
102
RTVSPropertyOp57
 70
     1
102
RTVSPropertyOp58
 70
     1
102
RTVSPropertyOp59
 70
     1
102
RTVSPropertyOp60
 70
     1
102
RTVSPropertyOp61
 70
     1
102
RTVSPropertyOp62
 70
     1
  0
XRECORD
  5
FED
102
{ACAD_REACTORS
330
FEC
102
}
330
FEC
100
AcDbXrecord
280
     1
102
RTVSPost2010Prop28
280
     0
102
RTVSPost2010PropOp28
 70
     1
102
RTVSPost2010Prop29
280
     1
102
RTVSPost2010PropOp29
 70
     1
102
RTVSPost2010Prop30
280
     1
102
RTVSPost2010PropOp30
 70
     1
102
RTVSPost2010Prop31
280
     0
102
RTVSPost2010PropOp31
 70
     1
102
RTVSPost2010Prop32
280
     0
102
RTVSPost2010PropOp32
 70
     1
102
RTVSPost2010Prop33
280
     0
102
RTVSPost2010PropOp33
 70
     1
102
RTVSPost2010Prop34
280
     0
102
RTVSPost2010PropOp34
 70
     1
102
RTVSPost2010Prop35
280
     0
102
RTVSPost2010PropOp35
 70
     1
102
RTVSPost2010Prop36
280
     0
102
RTVSPost2010PropOp36
 70
     1
102
RTVSPost2010Prop37
 90
       50
102
RTVSPost2010PropOp37
 70
     1
102
RTVSPost2010Prop38
140
0.0
102
RTVSPost2010PropOp38
 70
     1
102
RTVSPost2010Prop39
140
1.0
102
RTVSPost2010PropOp39
 70
     1
102
RTVSPost2010Prop40
 90
        0
102
RTVSPost2010PropOp40
 70
     1
102
RTVSPost2010Prop41ColorIndex
 90
       18
102
RTVSPost2010Prop41ColorRGB
 90
        0
102
RTVSPost2010PropOp41
 70
     1
102
RTVSPost2010Prop42
 90
       50
102
RTVSPost2010PropOp42
 70
     1
102
RTVSPost2010Prop43
 90
        3
102
RTVSPost2010PropOp43
 70
     1
102
RTVSPost2010Prop44ColorIndex
 90
        5
102
RTVSPost2010Prop44ColorRGB
 90
      255
102
RTVSPost2010PropOp44
 70
     1
102
RTVSPost2010Prop45
280
     0
102
RTVSPost2010PropOp45
 70
     1
102
RTVSPost2010Prop46
 90
       50
102
RTVSPost2010PropOp46
 70
     1
102
RTVSPost2010Prop47
 90
       50
102
RTVSPost2010PropOp47
 70
     1
102
RTVSPost2010Prop48
 90
       50
102
RTVSPost2010PropOp48
 70
     1
102
RTVSPost2010Prop49
280
     0
102
RTVSPost2010PropOp49
 70
     1
102
RTVSPost2010Prop50
 90
       50
102
RTVSPost2010PropOp50
 70
     1
102
RTVSPost2010Prop51ColorIndex
 90
      256
102
RTVSPost2010Prop51ColorRGB
 90
-16777216
102
RTVSPost2010PropOp51
 70
     0
102
RTVSPost2010Prop52
140
1.0
102
RTVSPost2010PropOp52
 70
     0
102
RTVSPost2010Prop53
 90
        2
102
RTVSPost2010PropOp53
 70
     1
102
RTVSPost2010Prop54
  1
strokes_ogs.tif
102
RTVSPost2010PropOp54
 70
     1
102
RTVSPost2010Prop55
280
     0
102
RTVSPost2010PropOp55
 70
     1
102
RTVSPost2010Prop56
140
1.0
102
RTVSPost2010PropOp56
 70
     1
102
RTVSPost2010Prop57
140
1.0
102
RTVSPost2010PropOp57
 70
     1
102
RTVSPropertyOp0
 70
     1
102
RTVSPropertyOp1
 70
     1
102
RTVSPropertyOp2
 70
     1
102
RTVSPropertyOp3
 70
     1
102
RTVSPropertyOp4
 70
     1
102
RTVSPropertyOp5
 70
     1
102
RTVSPropertyOp6
 70
     1
102
RTVSPropertyOp7
 70
     1
102
RTVSPropertyOp8
 70
     1
102
RTVSPropertyOp9
 70
     1
102
RTVSPropertyOp10
 70
     1
102
RTVSPropertyOp11
 70
     1
102
RTVSPropertyOp12
 70
     1
102
RTVSPropertyOp13
 70
     1
102
RTVSPropertyOp14
 70
     1
102
RTVSPropertyOp15
 70
     1
102
RTVSPropertyOp16
 70
     1
102
RTVSPropertyOp17
 70
     1
102
RTVSPropertyOp18
 70
     1
102
RTVSPropertyOp19
 70
     1
102
RTVSPropertyOp20
 70
     1
102
RTVSPropertyOp21
 70
     1
102
RTVSPropertyOp22
 70
     1
102
RTVSPropertyOp23
 70
     1
102
RTVSPropertyOp24
 70
     1
102
RTVSPropertyOp25
 70
     1
102
RTVSPropertyOp26
 70
     1
102
RTVSPropertyOp27
 70
     1
102
RTVSPropertyOp28
 70
     1
102
RTVSPropertyOp29
 70
     1
102
RTVSPropertyOp30
 70
     1
102
RTVSPropertyOp31
 70
     1
102
RTVSPropertyOp32
 70
     1
102
RTVSPropertyOp33
 70
     1
102
RTVSPropertyOp34
 70
     1
102
RTVSPropertyOp35
 70
     1
102
RTVSPropertyOp36
 70
     1
102
RTVSPropertyOp37
 70
     1
102
RTVSPropertyOp38
 70
     1
102
RTVSPropertyOp39
 70
     1
102
RTVSPropertyOp40
 70
     1
102
RTVSPropertyOp41
 70
     1
102
RTVSPropertyOp42
 70
     1
102
RTVSPropertyOp43
 70
     1
102
RTVSPropertyOp44
 70
     1
102
RTVSPropertyOp45
 70
     1
102
RTVSPropertyOp46
 70
     1
102
RTVSPropertyOp47
 70
     1
102
RTVSPropertyOp48
 70
     1
102
RTVSPropertyOp49
 70
     1
102
RTVSPropertyOp50
 70
     1
102
RTVSPropertyOp51
 70
     0
102
RTVSPropertyOp52
 70
     0
102
RTVSPropertyOp53
 70
     1
102
RTVSPropertyOp54
 70
     1
102
RTVSPropertyOp55
 70
     1
102
RTVSPropertyOp56
 70
     1
102
RTVSPropertyOp57
 70
     1
102
RTVSPropertyOp58
 70
     1
102
RTVSPropertyOp59
 70
     1
102
RTVSPropertyOp60
 70
     1
102
RTVSPropertyOp61
 70
     1
102
RTVSPropertyOp62
 70
     1
  0
XRECORD
  5
FE1
102
{ACAD_REACTORS
330
FE0
102
}
330
FE0
100
AcDbXrecord
280
     1
102
RTVSPost2010Prop28
280
     0
102
RTVSPost2010PropOp28
 70
     1
102
RTVSPost2010Prop29
280
     1
102
RTVSPost2010PropOp29
 70
     1
102
RTVSPost2010Prop30
280
     1
102
RTVSPost2010PropOp30
 70
     1
102
RTVSPost2010Prop31
280
     0
102
RTVSPost2010PropOp31
 70
     1
102
RTVSPost2010Prop32
280
     0
102
RTVSPost2010PropOp32
 70
     1
102
RTVSPost2010Prop33
280
     0
102
RTVSPost2010PropOp33
 70
     1
102
RTVSPost2010Prop34
280
     0
102
RTVSPost2010PropOp34
 70
     1
102
RTVSPost2010Prop35
280
     0
102
RTVSPost2010PropOp35
 70
     1
102
RTVSPost2010Prop36
280
     0
102
RTVSPost2010PropOp36
 70
     1
102
RTVSPost2010Prop37
 90
       50
102
RTVSPost2010PropOp37
 70
     1
102
RTVSPost2010Prop38
140
0.0
102
RTVSPost2010PropOp38
 70
     1
102
RTVSPost2010Prop39
140
1.0
102
RTVSPost2010PropOp39
 70
     1
102
RTVSPost2010Prop40
 90
        0
102
RTVSPost2010PropOp40
 70
     1
102
RTVSPost2010Prop41ColorIndex
 90
       18
102
RTVSPost2010Prop41ColorRGB
 90
        0
102
RTVSPost2010PropOp41
 70
     1
102
RTVSPost2010Prop42
 90
       50
102
RTVSPost2010PropOp42
 70
     1
102
RTVSPost2010Prop43
 90
        3
102
RTVSPost2010PropOp43
 70
     1
102
RTVSPost2010Prop44ColorIndex
 90
        5
102
RTVSPost2010Prop44ColorRGB
 90
      255
102
RTVSPost2010PropOp44
 70
     1
102
RTVSPost2010Prop45
280
     0
102
RTVSPost2010PropOp45
 70
     1
102
RTVSPost2010Prop46
 90
       50
102
RTVSPost2010PropOp46
 70
     1
102
RTVSPost2010Prop47
 90
       50
102
RTVSPost2010PropOp47
 70
     1
102
RTVSPost2010Prop48
 90
       50
102
RTVSPost2010PropOp48
 70
     1
102
RTVSPost2010Prop49
280
     0
102
RTVSPost2010PropOp49
 70
     1
102
RTVSPost2010Prop50
 90
       50
102
RTVSPost2010PropOp50
 70
     1
102
RTVSPost2010Prop51ColorIndex
 90
      256
102
RTVSPost2010Prop51ColorRGB
 90
-16777216
102
RTVSPost2010PropOp51
 70
     0
102
RTVSPost2010Prop52
140
1.0
102
RTVSPost2010PropOp52
 70
     0
102
RTVSPost2010Prop53
 90
        2
102
RTVSPost2010PropOp53
 70
     1
102
RTVSPost2010Prop54
  1
strokes_ogs.tif
102
RTVSPost2010PropOp54
 70
     1
102
RTVSPost2010Prop55
280
     0
102
RTVSPost2010PropOp55
 70
     1
102
RTVSPost2010Prop56
140
1.0
102
RTVSPost2010PropOp56
 70
     1
102
RTVSPost2010Prop57
140
1.0
102
RTVSPost2010PropOp57
 70
     1
102
RTVSPropertyOp0
 70
     1
102
RTVSPropertyOp1
 70
     1
102
RTVSPropertyOp2
 70
     1
102
RTVSPropertyOp3
 70
     1
102
RTVSPropertyOp4
 70
     1
102
RTVSPropertyOp5
 70
     1
102
RTVSPropertyOp6
 70
     1
102
RTVSPropertyOp7
 70
     1
102
RTVSPropertyOp8
 70
     1
102
RTVSPropertyOp9
 70
     1
102
RTVSPropertyOp10
 70
     1
102
RTVSPropertyOp11
 70
     1
102
RTVSPropertyOp12
 70
     1
102
RTVSPropertyOp13
 70
     1
102
RTVSPropertyOp14
 70
     1
102
RTVSPropertyOp15
 70
     1
102
RTVSPropertyOp16
 70
     1
102
RTVSPropertyOp17
 70
     1
102
RTVSPropertyOp18
 70
     1
102
RTVSPropertyOp19
 70
     1
102
RTVSPropertyOp20
 70
     1
102
RTVSPropertyOp21
 70
     1
102
RTVSPropertyOp22
 70
     1
102
RTVSPropertyOp23
 70
     1
102
RTVSPropertyOp24
 70
     1
102
RTVSPropertyOp25
 70
     1
102
RTVSPropertyOp26
 70
     1
102
RTVSPropertyOp27
 70
     1
102
RTVSPropertyOp28
 70
     1
102
RTVSPropertyOp29
 70
     1
102
RTVSPropertyOp30
 70
     1
102
RTVSPropertyOp31
 70
     1
102
RTVSPropertyOp32
 70
     1
102
RTVSPropertyOp33
 70
     1
102
RTVSPropertyOp34
 70
     1
102
RTVSPropertyOp35
 70
     1
102
RTVSPropertyOp36
 70
     1
102
RTVSPropertyOp37
 70
     1
102
RTVSPropertyOp38
 70
     1
102
RTVSPropertyOp39
 70
     1
102
RTVSPropertyOp40
 70
     1
102
RTVSPropertyOp41
 70
     1
102
RTVSPropertyOp42
 70
     1
102
RTVSPropertyOp43
 70
     1
102
RTVSPropertyOp44
 70
     1
102
RTVSPropertyOp45
 70
     1
102
RTVSPropertyOp46
 70
     1
102
RTVSPropertyOp47
 70
     1
102
RTVSPropertyOp48
 70
     1
102
RTVSPropertyOp49
 70
     1
102
RTVSPropertyOp50
 70
     1
102
RTVSPropertyOp51
 70
     0
102
RTVSPropertyOp52
 70
     0
102
RTVSPropertyOp53
 70
     1
102
RTVSPropertyOp54
 70
     1
102
RTVSPropertyOp55
 70
     1
102
RTVSPropertyOp56
 70
     1
102
RTVSPropertyOp57
 70
     1
102
RTVSPropertyOp58
 70
     1
102
RTVSPropertyOp59
 70
     1
102
RTVSPropertyOp60
 70
     1
102
RTVSPropertyOp61
 70
     1
102
RTVSPropertyOp62
 70
     1
  0
XRECORD
  5
FF9
102
{ACAD_REACTORS
330
FF8
102
}
330
FF8
100
AcDbXrecord
280
     1
102
RTVSPost2010Prop28
280
     0
102
RTVSPost2010PropOp28
 70
     1
102
RTVSPost2010Prop29
280
     1
102
RTVSPost2010PropOp29
 70
     1
102
RTVSPost2010Prop30
280
     1
102
RTVSPost2010PropOp30
 70
     1
102
RTVSPost2010Prop31
280
     0
102
RTVSPost2010PropOp31
 70
     1
102
RTVSPost2010Prop32
280
     0
102
RTVSPost2010PropOp32
 70
     1
102
RTVSPost2010Prop33
280
     0
102
RTVSPost2010PropOp33
 70
     1
102
RTVSPost2010Prop34
280
     0
102
RTVSPost2010PropOp34
 70
     1
102
RTVSPost2010Prop35
280
     0
102
RTVSPost2010PropOp35
 70
     1
102
RTVSPost2010Prop36
280
     0
102
RTVSPost2010PropOp36
 70
     1
102
RTVSPost2010Prop37
 90
       50
102
RTVSPost2010PropOp37
 70
     1
102
RTVSPost2010Prop38
140
0.0
102
RTVSPost2010PropOp38
 70
     1
102
RTVSPost2010Prop39
140
1.0
102
RTVSPost2010PropOp39
 70
     1
102
RTVSPost2010Prop40
 90
        0
102
RTVSPost2010PropOp40
 70
     1
102
RTVSPost2010Prop41ColorIndex
 90
       18
102
RTVSPost2010Prop41ColorRGB
 90
        0
102
RTVSPost2010PropOp41
 70
     1
102
RTVSPost2010Prop42
 90
       50
102
RTVSPost2010PropOp42
 70
     1
102
RTVSPost2010Prop43
 90
        3
102
RTVSPost2010PropOp43
 70
     1
102
RTVSPost2010Prop44ColorIndex
 90
        5
102
RTVSPost2010Prop44ColorRGB
 90
      255
102
RTVSPost2010PropOp44
 70
     1
102
RTVSPost2010Prop45
280
     0
102
RTVSPost2010PropOp45
 70
     1
102
RTVSPost2010Prop46
 90
       50
102
RTVSPost2010PropOp46
 70
     1
102
RTVSPost2010Prop47
 90
       50
102
RTVSPost2010PropOp47
 70
     1
102
RTVSPost2010Prop48
 90
       50
102
RTVSPost2010PropOp48
 70
     1
102
RTVSPost2010Prop49
280
     0
102
RTVSPost2010PropOp49
 70
     1
102
RTVSPost2010Prop50
 90
       50
102
RTVSPost2010PropOp50
 70
     1
102
RTVSPost2010Prop51ColorIndex
 90
      256
102
RTVSPost2010Prop51ColorRGB
 90
-16777216
102
RTVSPost2010PropOp51
 70
     0
102
RTVSPost2010Prop52
140
1.0
102
RTVSPost2010PropOp52
 70
     0
102
RTVSPost2010Prop53
 90
        2
102
RTVSPost2010PropOp53
 70
     1
102
RTVSPost2010Prop54
  1
strokes_ogs.tif
102
RTVSPost2010PropOp54
 70
     1
102
RTVSPost2010Prop55
280
     0
102
RTVSPost2010PropOp55
 70
     1
102
RTVSPost2010Prop56
140
1.0
102
RTVSPost2010PropOp56
 70
     1
102
RTVSPost2010Prop57
140
1.0
102
RTVSPost2010PropOp57
 70
     1
102
RTVSPropertyOp0
 70
     1
102
RTVSPropertyOp1
 70
     1
102
RTVSPropertyOp2
 70
     1
102
RTVSPropertyOp3
 70
     1
102
RTVSPropertyOp4
 70
     1
102
RTVSPropertyOp5
 70
     1
102
RTVSPropertyOp6
 70
     1
102
RTVSPropertyOp7
 70
     1
102
RTVSPropertyOp8
 70
     1
102
RTVSPropertyOp9
 70
     1
102
RTVSPropertyOp10
 70
     1
102
RTVSPropertyOp11
 70
     1
102
RTVSPropertyOp12
 70
     1
102
RTVSPropertyOp13
 70
     1
102
RTVSPropertyOp14
 70
     1
102
RTVSPropertyOp15
 70
     1
102
RTVSPropertyOp16
 70
     1
102
RTVSPropertyOp17
 70
     1
102
RTVSPropertyOp18
 70
     1
102
RTVSPropertyOp19
 70
     1
102
RTVSPropertyOp20
 70
     1
102
RTVSPropertyOp21
 70
     1
102
RTVSPropertyOp22
 70
     1
102
RTVSPropertyOp23
 70
     1
102
RTVSPropertyOp24
 70
     1
102
RTVSPropertyOp25
 70
     1
102
RTVSPropertyOp26
 70
     1
102
RTVSPropertyOp27
 70
     1
102
RTVSPropertyOp28
 70
     1
102
RTVSPropertyOp29
 70
     1
102
RTVSPropertyOp30
 70
     1
102
RTVSPropertyOp31
 70
     1
102
RTVSPropertyOp32
 70
     1
102
RTVSPropertyOp33
 70
     1
102
RTVSPropertyOp34
 70
     1
102
RTVSPropertyOp35
 70
     1
102
RTVSPropertyOp36
 70
     1
102
RTVSPropertyOp37
 70
     1
102
RTVSPropertyOp38
 70
     1
102
RTVSPropertyOp39
 70
     1
102
RTVSPropertyOp40
 70
     1
102
RTVSPropertyOp41
 70
     1
102
RTVSPropertyOp42
 70
     1
102
RTVSPropertyOp43
 70
     1
102
RTVSPropertyOp44
 70
     1
102
RTVSPropertyOp45
 70
     1
102
RTVSPropertyOp46
 70
     1
102
RTVSPropertyOp47
 70
     1
102
RTVSPropertyOp48
 70
     1
102
RTVSPropertyOp49
 70
     1
102
RTVSPropertyOp50
 70
     1
102
RTVSPropertyOp51
 70
     0
102
RTVSPropertyOp52
 70
     0
102
RTVSPropertyOp53
 70
     1
102
RTVSPropertyOp54
 70
     1
102
RTVSPropertyOp55
 70
     1
102
RTVSPropertyOp56
 70
     1
102
RTVSPropertyOp57
 70
     1
102
RTVSPropertyOp58
 70
     1
102
RTVSPropertyOp59
 70
     1
102
RTVSPropertyOp60
 70
     1
102
RTVSPropertyOp61
 70
     1
102
RTVSPropertyOp62
 70
     1
  0
ENDSEC
  0
EOF
