  0
SECTION
  2
HEADER
  9
$ACADVER
  1
AC1015
  9
$ACADMAINTVER
 70
    20
  9
$DWGCODEPAGE
  3
ANSI_932
  9
$INSBASE
 10
0.0
 20
0.0
 30
0.0
  9
$EXTMIN
 10
10.0
 20
9.999999999999998
 30
0.0
  9
$EXTMAX
 10
589.4849
 20
349.950418
 30
0.0
  9
$LIMMIN
 10
0.0
 20
0.0
  9
$LIMMAX
 10
673.2000000000001
 20
464.1
  9
$ORTHOMODE
 70
     1
  9
$REGENMODE
 70
     1
  9
$FILLMODE
 70
     1
  9
$QTEXTMODE
 70
     0
  9
$MIRRTEXT
 70
     1
  9
$LTSCALE
 40
20.0
  9
$ATTMODE
 70
     1
  9
$TEXTSIZE
 40
5.0
  9
$TRACEWID
 40
1.0
  9
$TEXTSTYLE
  7
STANDARD
  9
$CLAYER
  8
0
  9
$CELTYPE
  6
BYLAYER
  9
$CECOLOR
 62
   256
  9
$CELTSCALE
 40
1.0
  9
$DISPSILH
 70
     0
  9
$DIMSCALE
 40
1.0
  9
$DIMASZ
 40
2.5
  9
$DIMEXO
 40
1.0
  9
$DIMDLI
 40
10.0
  9
$DIMRND
 40
0.0
  9
$DIMDLE
 40
0.0
  9
$DIMEXE
 40
1.0
  9
$DIMTP
 40
0.0
  9
$DIMTM
 40
0.0
  9
$DIMTXT
 40
2.5
  9
$DIMCEN
 40
0.0
  9
$DIMTSZ
 40
0.0
  9
$DIMTOL
 70
     0
  9
$DIMLIM
 70
     0
  9
$DIMTIH
 70
     0
  9
$DIMTOH
 70
     0
  9
$DIMSE1
 70
     0
  9
$DIMSE2
 70
     0
  9
$DIMTAD
 70
     3
  9
$DIMZIN
 70
     8
  9
$DIMBLK
  1

  9
$DIMASO
 70
     1
  9
$DIMSHO
 70
     1
  9
$DIMPOST
  1

  9
$DIMAPOST
  1

  9
$DIMALT
 70
     0
  9
$DIMALTD
 70
     2
  9
$DIMALTF
 40
25.4
  9
$DIMLFAC
 40
1.0
  9
$DIMTOFL
 70
     1
  9
$DIMTVP
 40
0.0
  9
$DIMTIX
 70
     0
  9
$DIMSOXD
 70
     0
  9
$DIMSAH
 70
     1
  9
$DIMBLK1
  1
OPEN
  9
$DIMBLK2
  1
OPEN
  9
$DIMSTYLE
  2
STANDARD
  9
$DIMCLRD
 70
     0
  9
$DIMCLRE
 70
     0
  9
$DIMCLRT
 70
     0
  9
$DIMTFAC
 40
1.0
  9
$DIMGAP
 40
1.0
  9
$DIMJUST
 70
     0
  9
$DIMSD1
 70
     0
  9
$DIMSD2
 70
     0
  9
$DIMTOLJ
 70
     1
  9
$DIMTZIN
 70
     0
  9
$DIMALTZ
 70
     0
  9
$DIMALTTZ
 70
     0
  9
$DIMUPT
 70
     0
  9
$DIMDEC
 70
     4
  9
$DIMTDEC
 70
     4
  9
$DIMALTU
 70
     2
  9
$DIMALTTD
 70
     2
  9
$DIMTXSTY
  7
STANDARD
  9
$DIMAUNIT
 70
     0
  9
$DIMADEC
 70
     0
  9
$DIMALTRND
 40
0.0
  9
$DIMAZIN
 70
     0
  9
$DIMDSEP
 70
    46
  9
$DIMATFIT
 70
     3
  9
$DIMFRAC
 70
     0
  9
$DIMLDRBLK
  1
OPEN
  9
$DIMLUNIT
 70
     2
  9
$DIMLWD
 70
    -2
  9
$DIMLWE
 70
    -2
  9
$DIMTMOVE
 70
     0
  9
$LUNITS
 70
     2
  9
$LUPREC
 70
     4
  9
$SKETCHINC
 40
1.0
  9
$FILLETRAD
 40
0.0
  9
$AUNITS
 70
     0
  9
$AUPREC
 70
     2
  9
$MENU
  1
.
  9
$ELEVATION
 40
0.0
  9
$PELEVATION
 40
0.0
  9
$THICKNESS
 40
0.0
  9
$LIMCHECK
 70
     0
  9
$CHAMFERA
 40
0.5
  9
$CHAMFERB
 40
0.5
  9
$CHAMFERC
 40
0.0
  9
$CHAMFERD
 40
0.0
  9
$SKPOLY
 70
     0
  9
$TDCREATE
 40
2451368.492009722
  9
$TDUCREATE
 40
2451368.117009722
  9
$TDUPDATE
 40
2457192.642647604
  9
$TDUUPDATE
 40
2457192.267647604
  9
$TDINDWG
 40
0.0000154167
  9
$TDUSRTIMER
 40
0.0000151042
  9
$USRTIMER
 70
     1
  9
$ANGBASE
 50
0.0
  9
$ANGDIR
 70
     0
  9
$PDMODE
 70
     0
  9
$PDSIZE
 40
0.0
  9
$PLINEWID
 40
0.0
  9
$SPLFRAME
 70
     0
  9
$SPLINETYPE
 70
     6
  9
$SPLINESEGS
 70
     8
  9
$HANDSEED
  5
AFB0
  9
$SURFTAB1
 70
     6
  9
$SURFTAB2
 70
     6
  9
$SURFTYPE
 70
     6
  9
$SURFU
 70
     6
  9
$SURFV
 70
     6
  9
$UCSBASE
  2

  9
$UCSNAME
  2

  9
$UCSORG
 10
0.0
 20
0.0
 30
0.0
  9
$UCSXDIR
 10
1.0
 20
0.0
 30
0.0
  9
$UCSYDIR
 10
0.0
 20
1.0
 30
0.0
  9
$UCSORTHOREF
  2

  9
$UCSORTHOVIEW
 70
     0
  9
$UCSORGTOP
 10
0.0
 20
0.0
 30
0.0
  9
$UCSORGBOTTOM
 10
0.0
 20
0.0
 30
0.0
  9
$UCSORGLEFT
 10
0.0
 20
0.0
 30
0.0
  9
$UCSORGRIGHT
 10
0.0
 20
0.0
 30
0.0
  9
$UCSORGFRONT
 10
0.0
 20
0.0
 30
0.0
  9
$UCSORGBACK
 10
0.0
 20
0.0
 30
0.0
  9
$PUCSBASE
  2

  9
$PUCSNAME
  2

  9
$PUCSORG
 10
0.0
 20
0.0
 30
0.0
  9
$PUCSXDIR
 10
1.0
 20
0.0
 30
0.0
  9
$PUCSYDIR
 10
0.0
 20
1.0
 30
0.0
  9
$PUCSORTHOREF
  2

  9
$PUCSORTHOVIEW
 70
     0
  9
$PUCSORGTOP
 10
0.0
 20
0.0
 30
0.0
  9
$PUCSORGBOTTOM
 10
0.0
 20
0.0
 30
0.0
  9
$PUCSORGLEFT
 10
0.0
 20
0.0
 30
0.0
  9
$PUCSORGRIGHT
 10
0.0
 20
0.0
 30
0.0
  9
$PUCSORGFRONT
 10
0.0
 20
0.0
 30
0.0
  9
$PUCSORGBACK
 10
0.0
 20
0.0
 30
0.0
  9
$USERI1
 70
     0
  9
$USERI2
 70
     0
  9
$USERI3
 70
     0
  9
$USERI4
 70
     0
  9
$USERI5
 70
     0
  9
$USERR1
 40
0.0
  9
$USERR2
 40
0.0
  9
$USERR3
 40
0.0
  9
$USERR4
 40
0.0
  9
$USERR5
 40
0.0
  9
$WORLDVIEW
 70
     1
  9
$SHADEDGE
 70
     3
  9
$SHADEDIF
 70
    70
  9
$TILEMODE
 70
     1
  9
$MAXACTVP
 70
    16
  9
$PINSBASE
 10
0.0
 20
0.0
 30
0.0
  9
$PLIMCHECK
 70
     0
  9
$PEXTMIN
 10
1.000000000000000E+20
 20
1.000000000000000E+20
 30
1.000000000000000E+20
  9
$PEXTMAX
 10
-1.000000000000000E+20
 20
-1.000000000000000E+20
 30
-1.000000000000000E+20
  9
$PLIMMIN
 10
0.0
 20
0.0
  9
$PLIMMAX
 10
420.0
 20
297.0
  9
$UNITMODE
 70
     0
  9
$VISRETAIN
 70
     0
  9
$PLINEGEN
 70
     0
  9
$PSLTSCALE
 70
     0
  9
$TREEDEPTH
 70
  3020
  9
$CMLSTYLE
  2
STANDARD
  9
$CMLJUST
 70
     0
  9
$CMLSCALE
 40
1.0
  9
$PROXYGRAPHICS
 70
     1
  9
$MEASUREMENT
 70
     0
  9
$CELWEIGHT
370
    -1
  9
$ENDCAPS
280
     0
  9
$JOINSTYLE
280
     0
  9
$LWDISPLAY
290
     0
  9
$INSUNITS
 70
     0
  9
$HYPERLINKBASE
  1

  9
$STYLESHEET
  1

  9
$XEDIT
290
     1
  9
$CEPSNTYPE
380
     0
  9
$PSTYLEMODE
290
     1
  9
$FINGERPRINTGUID
  2
{92B3FF41-2AD9-44C9-AC25-6D93C6CE1182}
  9
$VERSIONGUID
  2
{85B41634-8CAF-4C3E-A518-3162E6FD5DDD}
  9
$EXTNAMES
290
     1
  9
$PSVPSCALE
 40
0.0
  9
$OLESTARTUP
290
     0
  0
ENDSEC
  0
SECTION
  2
CLASSES
  0
CLASS
  1
ACDBDICTIONARYWDFLT
  2
AcDbDictionaryWithDefault
  3
ObjectDBX Classes
 90
        0
280
     0
281
     0
  0
CLASS
  1
ACDBPLACEHOLDER
  2
AcDbPlaceHolder
  3
ObjectDBX Classes
 90
        0
280
     0
281
     0
  0
CLASS
  1
LAYOUT
  2
AcDbLayout
  3
ObjectDBX Classes
 90
        0
280
     0
281
     0
  0
CLASS
  1
DICTIONARYVAR
  2
AcDbDictionaryVar
  3
ObjectDBX Classes
 90
        0
280
     0
281
     0
  0
CLASS
  1
MATERIAL
  2
AcDbMaterial
  3
ObjectDBX Classes
 90
     1153
280
     0
281
     0
  0
CLASS
  1
VISUALSTYLE
  2
AcDbVisualStyle
  3
ObjectDBX Classes
 90
     4095
280
     0
281
     0
  0
CLASS
  1
TABLESTYLE
  2
AcDbTableStyle
  3
ObjectDBX Classes
 90
     4095
280
     0
281
     0
  0
CLASS
  1
SCALE
  2
AcDbScale
  3
ObjectDBX Classes
 90
     1153
280
     0
281
     0
  0
CLASS
  1
MLEADERSTYLE
  2
AcDbMLeaderStyle
  3
ACDB_MLEADERSTYLE_CLASS
 90
     4095
280
     0
281
     0
  0
CLASS
  1
ACDBSECTIONVIEWSTYLE
  2
AcDbSectionViewStyle
  3
ObjectDBX Classes
 90
     1025
280
     0
281
     0
  0
CLASS
  1
ACDBDETAILVIEWSTYLE
  2
AcDbDetailViewStyle
  3
ObjectDBX Classes
 90
     1025
280
     0
281
     0
  0
CLASS
  1
CELLSTYLEMAP
  2
AcDbCellStyleMap
  3
ObjectDBX Classes
 90
     1152
280
     0
281
     0
  0
ENDSEC
  0
SECTION
  2
TABLES
  0
TABLE
  2
VPORT
  5
ACBD
330
0
100
AcDbSymbolTable
 70
     1
  0
VPORT
  5
AEF9
330
ACBD
100
AcDbSymbolTableRecord
100
AcDbViewportTableRecord
  2
*ACTIVE
 70
     0
 10
0.0
 20
0.0
 11
1.0
 21
1.0
 12
402.724596024639
 22
179.9648035712013
 13
0.0
 23
0.0
 14
10.0
 24
10.0
 15
10.0
 25
10.0
 16
0.0
 26
0.0
 36
1.0
 17
0.0
 27
0.0
 37
0.0
 40
343.7903737350931
 41
1.899603698811096
 42
50.0
 43
0.0
 44
0.0
 50
0.0
 51
0.0
 71
     0
 72
   100
 73
     1
 74
     0
 75
     0
 76
     0
 77
     0
 78
     0
281
     0
 65
     1
110
0.0
120
0.0
130
0.0
111
1.0
121
0.0
131
0.0
112
0.0
122
1.0
132
0.0
 79
     0
146
0.0
1001
ACAD_NAV_VCDISPLAY
1070
     3
  0
ENDTAB
  0
TABLE
  2
LTYPE
  5
ACBA
330
0
100
AcDbSymbolTable
 70
     4
  0
LTYPE
  5
ACC8
330
ACBA
100
AcDbSymbolTableRecord
100
AcDbLinetypeTableRecord
  2
BYBLOCK
 70
     0
  3

 72
    65
 73
     0
 40
0.0
  0
LTYPE
  5
ACC9
330
ACBA
100
AcDbSymbolTableRecord
100
AcDbLinetypeTableRecord
  2
BYLAYER
 70
     0
  3

 72
    65
 73
     0
 40
0.0
  0
LTYPE
  5
ACCA
330
ACBA
100
AcDbSymbolTableRecord
100
AcDbLinetypeTableRecord
  2
CONTINUOUS
 70
     0
  3
Solid line
 72
    65
 73
     0
 40
0.0
  0
LTYPE
  5
ACD8
330
ACBA
100
AcDbSymbolTableRecord
100
AcDbLinetypeTableRecord
  2
DASHED
 70
     0
  3
__ __ __ __ __ __ __ __ __ __ __ __ __ __ __ __
 72
    65
 73
     2
 40
0.75
 49
0.5
 74
     0
 49
-0.25
 74
     0
  0
LTYPE
  5
ACD9
330
ACBA
100
AcDbSymbolTableRecord
100
AcDbLinetypeTableRecord
  2
CENTER
 70
     0
  3
____ _ ____ _ ____ _ ____ _ ____ _ ____ _ ____ 
 72
    65
 73
     4
 40
2.0
 49
1.25
 74
     0
 49
-0.25
 74
     0
 49
0.25
 74
     0
 49
-0.25
 74
     0
  0
LTYPE
  5
ACDA
330
ACBA
100
AcDbSymbolTableRecord
100
AcDbLinetypeTableRecord
  2
PHANTOM
 70
     0
  3
______  __  __  ______  __  __  ______  __  __ 
 72
    65
 73
     6
 40
2.5
 49
1.25
 74
     0
 49
-0.25
 74
     0
 49
0.25
 74
     0
 49
-0.25
 74
     0
 49
0.25
 74
     0
 49
-0.25
 74
     0
  0
ENDTAB
  0
TABLE
  2
LAYER
  5
ACB7
330
0
100
AcDbSymbolTable
 70
     8
  0
LAYER
  5
ACC5
102
{ACAD_XDICTIONARY
360
AF54
102
}
330
ACB7
100
AcDbSymbolTableRecord
100
AcDbLayerTableRecord
  2
0
 70
     0
 62
     7
  6
CONTINUOUS
370
    -3
390
AF02
  0
LAYER
  5
ACDB
102
{ACAD_XDICTIONARY
360
AF56
102
}
330
ACB7
100
AcDbSymbolTableRecord
100
AcDbLayerTableRecord
  2
4
 70
     0
 62
     1
  6
CENTER
370
    -3
390
AF02
  0
LAYER
  5
ACDC
102
{ACAD_XDICTIONARY
360
AF58
102
}
330
ACB7
100
AcDbSymbolTableRecord
100
AcDbLayerTableRecord
  2
5
 70
     0
 62
     6
  6
PHANTOM
370
    -3
390
AF02
  0
LAYER
  5
ACDD
102
{ACAD_XDICTIONARY
360
AF5A
102
}
330
ACB7
100
AcDbSymbolTableRecord
100
AcDbLayerTableRecord
  2
1
 70
     0
 62
     7
  6
CONTINUOUS
370
    -3
390
AF02
  0
LAYER
  5
ACDE
102
{ACAD_XDICTIONARY
360
AF5C
102
}
330
ACB7
100
AcDbSymbolTableRecord
100
AcDbLayerTableRecord
  2
2
 70
     0
 62
     4
  6
CONTINUOUS
370
    -3
390
AF02
  0
LAYER
  5
ACDF
102
{ACAD_XDICTIONARY
360
AF5E
102
}
330
ACB7
100
AcDbSymbolTableRecord
100
AcDbLayerTableRecord
  2
3
 70
     0
 62
     2
  6
DASHED
370
    -3
390
AF02
  0
LAYER
  5
ACE0
102
{ACAD_XDICTIONARY
360
AF60
102
}
330
ACB7
100
AcDbSymbolTableRecord
100
AcDbLayerTableRecord
  2
6
 70
     0
 62
     5
  6
CONTINUOUS
370
    -3
390
AF02
  0
LAYER
  5
ACE1
102
{ACAD_XDICTIONARY
360
AF62
102
}
330
ACB7
100
AcDbSymbolTableRecord
100
AcDbLayerTableRecord
  2
7
 70
     0
 62
     3
  6
CONTINUOUS
370
    -3
390
AF02
  0
ENDTAB
  0
TABLE
  2
STYLE
  5
ACB8
330
0
100
AcDbSymbolTable
 70
     1
  0
STYLE
  5
ACC6
330
ACB8
100
AcDbSymbolTableRecord
100
AcDbTextStyleTableRecord
  2
STANDARD
 70
     0
 40
0.0
 41
1.0
 50
0.0
 71
     0
 42
5.0
  3
txt
  4

  0
ENDTAB
  0
TABLE
  2
VIEW
  5
ACBB
330
0
100
AcDbSymbolTable
 70
     0
  0
ENDTAB
  0
TABLE
  2
UCS
  5
ACBC
330
0
100
AcDbSymbolTable
 70
     0
  0
ENDTAB
  0
TABLE
  2
APPID
  5
ACBE
330
0
100
AcDbSymbolTable
 70
     3
  0
APPID
  5
ACC7
330
ACBE
100
AcDbSymbolTableRecord
100
AcDbRegAppTableRecord
  2
ACAD
 70
     0
  0
APPID
  5
AF6E
330
ACBE
100
AcDbSymbolTableRecord
100
AcDbRegAppTableRecord
  2
ACAD_NAV_VCDISPLAY
 70
     0
  0
APPID
  5
AFA7
330
ACBE
100
AcDbSymbolTableRecord
100
AcDbRegAppTableRecord
  2
ACAD_MLEADERVER
 70
     0
  0
ENDTAB
  0
TABLE
  2
DIMSTYLE
  5
ACBF
330
0
100
AcDbSymbolTable
 70
     1
100
AcDbDimStyleTable
 71
     0
  0
DIMSTYLE
105
ACE3
330
ACBF
100
AcDbSymbolTableRecord
100
AcDbDimStyleTableRecord
  2
STANDARD
 70
     0
 41
2.5
 42
1.0
 43
10.0
 44
1.0
 73
     0
 74
     0
 77
     3
 78
     8
140
2.5
141
0.0
147
1.0
172
     1
173
     1
284
     8
285
     8
286
     8
340
ACC6
  0
ENDTAB
  0
TABLE
  2
BLOCK_RECORD
  5
ACB6
330
0
100
AcDbSymbolTable
 70
     1
  0
BLOCK_RECORD
  5
ACD3
102
{ACAD_XDICTIONARY
360
AEFC
102
}
330
ACB6
100
AcDbSymbolTableRecord
100
AcDbBlockTableRecord
  2
*MODEL_SPACE
340
AF50
  0
BLOCK_RECORD
  5
ACCF
102
{ACAD_XDICTIONARY
360
AEFA
102
}
330
ACB6
100
AcDbSymbolTableRecord
100
AcDbBlockTableRecord
  2
*PAPER_SPACE
340
AF51
  0
BLOCK_RECORD
  5
ACEB
330
ACB6
100
AcDbSymbolTableRecord
100
AcDbBlockTableRecord
  2
_OPEN
340
0
  0
ENDTAB
  0
ENDSEC
  0
SECTION
  2
BLOCKS
  0
BLOCK
  5
ACD4
330
ACD3
100
AcDbEntity
  8
0
100
AcDbBlockBegin
  2
*MODEL_SPACE
 70
     0
 10
0.0
 20
0.0
 30
0.0
  3
*MODEL_SPACE
  1

  0
ENDBLK
  5
ACD5
330
ACD3
100
AcDbEntity
  8
0
100
AcDbBlockEnd
  0
BLOCK
  5
ACD0
330
ACCF
100
AcDbEntity
 67
     1
  8
0
100
AcDbBlockBegin
  2
*PAPER_SPACE
 70
     0
 10
0.0
 20
0.0
 30
0.0
  3
*PAPER_SPACE
  1

  0
ENDBLK
  5
ACD1
330
ACCF
100
AcDbEntity
 67
     1
  8
0
100
AcDbBlockEnd
  0
BLOCK
  5
ACEC
330
ACEB
100
AcDbEntity
  8
0
100
AcDbBlockBegin
  2
_OPEN
 70
     0
 10
0.0
 20
0.0
 30
0.0
  3
_OPEN
  1

  0
LINE
  5
ACED
330
ACEB
100
AcDbEntity
  8
0
  6
ByBlock
 62
     0
100
AcDbLine
 10
-1.0
 20
0.166667
 30
0.0
 11
0.0
 21
0.0
 31
0.0
  0
LINE
  5
ACEE
330
ACEB
100
AcDbEntity
  8
0
  6
ByBlock
 62
     0
100
AcDbLine
 10
0.0
 20
0.0
 30
0.0
 11
-1.0
 21
-0.166667
 31
0.0
  0
LINE
  5
ACEF
330
ACEB
100
AcDbEntity
  8
0
  6
ByBlock
 62
     0
100
AcDbLine
 10
0.0
 20
0.0
 30
0.0
 11
-1.0
 21
0.0
 31
0.0
  0
ENDBLK
  5
ACF0
330
ACEB
100
AcDbEntity
  8
0
100
AcDbBlockEnd
  0
ENDSEC
  0
SECTION
  2
ENTITIES
  0
TEXT
  5
ACF1
330
ACD3
100
AcDbEntity
  8
7
  6
Continuous
100
AcDbText
 10
10.0
 20
18.0
 30
0.0
 40
3.0
  1
TYPE No.THA-421-2
100
AcDbText
  0
TEXT
  5
ACF2
330
ACD3
100
AcDbEntity
  8
7
  6
Continuous
100
AcDbText
 10
10.0
 20
26.0
 30
0.0
 40
3.0
  1
CODE No.3367
100
AcDbText
  0
TEXT
  5
ACF3
330
ACD3
100
AcDbEntity
  8
1
  6
Continuous
100
AcDbText
 10
10.0
 20
10.0
 30
0.0
 40
1.399999999999999
  1
LAYER
100
AcDbText
  0
TEXT
  5
ACF4
330
ACD3
100
AcDbEntity
  8
1
  6
Continuous
100
AcDbText
 10
17.97951099999998
 20
10.04873699999998
 30
0.0
 40
1.399999999999999
  1
1
100
AcDbText
  0
TEXT
  5
ACF5
330
ACD3
100
AcDbEntity
  8
7
  6
Continuous
100
AcDbText
 10
29.97951099999999
 20
10.04873699999998
 30
0.0
 40
1.399999999999999
  1
7
100
AcDbText
  0
TEXT
  5
ACF6
330
ACD3
100
AcDbEntity
  8
4
  6
CENTER
100
AcDbText
 10
23.97951099999999
 20
10.04873699999998
 30
0.0
 40
1.399999999999999
  1
4
100
AcDbText
  0
TEXT
  5
ACF7
330
ACD3
100
AcDbEntity
  8
3
  6
DASHED
100
AcDbText
 10
21.979511
 20
10.04873699999998
 30
0.0
 40
1.399999999999999
  1
3
100
AcDbText
  0
TEXT
  5
ACF8
330
ACD3
100
AcDbEntity
  8
2
  6
Continuous
100
AcDbText
 10
19.97951099999999
 20
10.04873699999998
 30
0.0
 40
1.399999999999999
  1
2
100
AcDbText
  0
TEXT
  5
ACF9
330
ACD3
100
AcDbEntity
  8
6
  6
Continuous
100
AcDbText
 10
27.979511
 20
10.04873699999998
 30
0.0
 40
1.399999999999999
  1
6
100
AcDbText
  0
TEXT
  5
ACFA
330
ACD3
100
AcDbEntity
  8
5
  6
PHANTOM
100
AcDbText
 10
25.97951099999999
 20
10.04873699999998
 30
0.0
 40
1.399999999999999
  1
5
100
AcDbText
  0
LINE
  5
ACFB
330
ACD3
100
AcDbEntity
  8
4
  6
CENTER
100
AcDbLine
 10
20.652964
 20
195.475209
 30
0.0
 11
94.42052399999999
 21
195.475209
 31
0.0
  0
CIRCLE
  5
ACFC
330
ACD3
100
AcDbEntity
  8
5
  6
PHANTOM
100
AcDbCircle
 10
47.0
 20
195.475209
 30
0.0
 40
17.0
  0
LINE
  5
ACFD
330
ACD3
100
AcDbEntity
  8
1
  6
Continuous
100
AcDbLine
 10
169.1999999999999
 20
212.4752089999998
 30
0.0
 11
169.1999999999999
 21
178.475209
 31
0.0
  0
LINE
  5
ACFE
330
ACD3
100
AcDbEntity
  8
1
  6
Continuous
100
AcDbLine
 10
170.6999999999998
 20
212.4752089999998
 30
0.0
 11
170.6999999999998
 21
178.475209
 31
0.0
  0
LINE
  5
ACFF
330
ACD3
100
AcDbEntity
  8
1
  6
Continuous
100
AcDbLine
 10
162.1999999999998
 20
179.275209
 30
0.0
 11
162.1999999999998
 21
211.6752089999998
 31
0.0
  0
LINE
  5
AD00
330
ACD3
100
AcDbEntity
  8
1
  6
Continuous
100
AcDbLine
 10
171.6999999999998
 20
212.4752089999998
 30
0.0
 11
171.6999999999998
 21
178.475209
 31
0.0
  0
LINE
  5
AD01
330
ACD3
100
AcDbEntity
  8
1
  6
Continuous
100
AcDbLine
 10
165.1999999999999
 20
178.475209
 30
0.0
 11
165.1999999999999
 21
212.4752089999998
 31
0.0
  0
LINE
  5
AD02
330
ACD3
100
AcDbEntity
  8
4
  6
CENTER
100
AcDbLine
 10
158.0
 20
195.475209
 30
0.0
 11
218.1999999999999
 21
195.475209
 31
0.0
  0
LINE
  5
AD03
330
ACD3
100
AcDbEntity
  8
4
  6
CENTER
100
AcDbLine
 10
158.0
 20
89.0
 30
0.0
 11
218.1999999999999
 21
89.0
 31
0.0
  0
LINE
  5
AD04
330
ACD3
100
AcDbEntity
  8
2
  6
Continuous
100
AcDbLine
 10
200.1999999999999
 20
189.9299409999999
 30
0.0
 11
171.6999999999998
 21
200.4768229999998
 31
0.0
  0
LINE
  5
AD05
330
ACD3
100
AcDbEntity
  8
2
  6
Continuous
100
AcDbLine
 10
171.6999999999998
 20
190.4735949999999
 30
0.0
 11
200.1999999999999
 21
201.020477
 31
0.0
  0
LINE
  5
AD06
330
ACD3
100
AcDbEntity
  8
1
  6
Continuous
100
AcDbLine
 10
200.1999999999999
 20
189.9299409999999
 30
0.0
 11
171.6999999999998
 21
189.9299409999999
 31
0.0
  0
LINE
  5
AD07
330
ACD3
100
AcDbEntity
  8
1
  6
Continuous
100
AcDbLine
 10
200.1999999999999
 20
201.020477
 30
0.0
 11
171.6999999999998
 21
201.020477
 31
0.0
  0
LINE
  5
AD08
330
ACD3
100
AcDbEntity
  8
1
  6
Continuous
100
AcDbLine
 10
171.6999999999998
 20
98.50000000000001
 30
0.0
 11
201.2
 21
98.50000000000001
 31
0.0
  0
LINE
  5
AD09
330
ACD3
100
AcDbEntity
  8
1
  6
Continuous
100
AcDbLine
 10
171.6999999999998
 20
79.5
 30
0.0
 11
201.2
 21
79.5
 31
0.0
  0
LINE
  5
AD0A
330
ACD3
100
AcDbEntity
  8
1
  6
Continuous
100
AcDbLine
 10
272.635711
 20
44.0
 30
0.0
 11
272.635711
 21
100.0
 31
0.0
  0
LINE
  5
AD0B
330
ACD3
100
AcDbEntity
  8
1
  6
Continuous
100
AcDbLine
 10
269.635711
 20
44.0
 30
0.0
 11
269.635711
 21
100.0
 31
0.0
  0
LINE
  5
AD0C
330
ACD3
100
AcDbEntity
  8
1
  6
Continuous
100
AcDbLine
 10
286.514114
 20
95.5
 30
0.0
 11
293.0141139999999
 21
95.5
 31
0.0
  0
LINE
  5
AD0D
330
ACD3
100
AcDbEntity
  8
1
  6
Continuous
100
AcDbLine
 10
286.514114
 20
82.5
 30
0.0
 11
293.0141139999999
 21
82.5
 31
0.0
  0
LINE
  5
AD0E
330
ACD3
100
AcDbEntity
  8
1
  6
Continuous
100
AcDbLine
 10
292.433558
 20
89.0
 30
0.0
 11
286.514114
 21
89.0
 31
0.0
  0
LINE
  5
AD0F
330
ACD3
100
AcDbEntity
  8
1
  6
Continuous
100
AcDbLine
 10
293.0141139999999
 20
82.5
 30
0.0
 11
293.0141139999999
 21
95.5
 31
0.0
  0
ARC
  5
AD10
330
ACD3
100
AcDbEntity
  8
1
  6
Continuous
100
AcDbCircle
 10
283.6269619999999
 20
92.24999999999999
 30
0.0
 40
9.387152
100
AcDbArc
 50
339.7438419999998
 51
20.256158
  0
ARC
  5
AD11
330
ACD3
100
AcDbEntity
  8
1
  6
Continuous
100
AcDbCircle
 10
283.6269619999999
 20
85.75000000000001
 30
0.0
 40
9.387152
100
AcDbArc
 50
339.7438419999998
 51
20.256158
  0
LINE
  5
AD12
330
ACD3
100
AcDbEntity
  8
1
  6
Continuous
100
AcDbLine
 10
200.1999999999999
 20
98.50000000000001
 30
0.0
 11
200.1999999999999
 21
79.5
 31
0.0
  0
LINE
  5
AD13
330
ACD3
100
AcDbEntity
  8
1
  6
Continuous
100
AcDbLine
 10
201.2
 20
98.50000000000001
 30
0.0
 11
201.2
 21
79.5
 31
0.0
  0
LINE
  5
AD14
330
ACD3
100
AcDbEntity
  8
1
  6
Continuous
100
AcDbLine
 10
201.4
 20
79.5
 30
0.0
 11
201.4
 21
84.0
 31
0.0
  0
LINE
  5
AD15
330
ACD3
100
AcDbEntity
  8
1
  6
Continuous
100
AcDbLine
 10
201.4
 20
81.29999999999999
 30
0.0
 11
201.2
 21
81.09999999999997
 31
0.0
  0
LINE
  5
AD16
330
ACD3
100
AcDbEntity
  8
1
  6
Continuous
100
AcDbLine
 10
203.2
 20
94.0
 30
0.0
 11
203.2
 21
84.0
 31
0.0
  0
LINE
  5
AD17
330
ACD3
100
AcDbEntity
  8
1
  6
Continuous
100
AcDbLine
 10
201.2
 20
94.0
 30
0.0
 11
203.2
 21
94.0
 31
0.0
  0
LINE
  5
AD18
330
ACD3
100
AcDbEntity
  8
1
  6
Continuous
100
AcDbLine
 10
201.2
 20
84.0
 30
0.0
 11
203.4
 21
84.0
 31
0.0
  0
LINE
  5
AD19
330
ACD3
100
AcDbEntity
  8
1
  6
Continuous
100
AcDbLine
 10
269.635711
 20
100.0
 30
0.0
 11
272.635711
 21
100.0
 31
0.0
  0
LINE
  5
AD1A
330
ACD3
100
AcDbEntity
  8
1
  6
Continuous
100
AcDbLine
 10
203.4
 20
96.90000000000001
 30
0.0
 11
201.4
 21
96.90000000000001
 31
0.0
  0
LINE
  5
AD1B
330
ACD3
100
AcDbEntity
  8
1
  6
Continuous
100
AcDbLine
 10
203.4
 20
97.66025400000003
 30
0.0
 11
201.4
 21
97.66025400000003
 31
0.0
  0
LINE
  5
AD1C
330
ACD3
100
AcDbEntity
  8
1
  6
Continuous
100
AcDbLine
 10
201.4
 20
94.0
 30
0.0
 11
201.4
 21
97.66025400000003
 31
0.0
  0
LINE
  5
AD1D
330
ACD3
100
AcDbEntity
  8
1
  6
Continuous
100
AcDbLine
 10
201.4
 20
96.70000000000001
 30
0.0
 11
201.2
 21
96.90000000000001
 31
0.0
  0
LINE
  5
AD1E
330
ACD3
100
AcDbEntity
  8
1
  6
Continuous
100
AcDbLine
 10
203.4
 20
79.5
 30
0.0
 11
201.4
 21
79.5
 31
0.0
  0
LINE
  5
AD1F
330
ACD3
100
AcDbEntity
  8
1
  6
Continuous
100
AcDbLine
 10
266.135711
 20
41.0
 30
0.0
 11
269.635711
 21
41.0
 31
0.0
  0
LINE
  5
AD20
330
ACD3
100
AcDbEntity
  8
1
  6
Continuous
100
AcDbLine
 10
266.135711
 20
44.0
 30
0.0
 11
269.635711
 21
44.0
 31
0.0
  0
LINE
  5
AD21
330
ACD3
100
AcDbEntity
  8
1
  6
Continuous
100
AcDbLine
 10
266.135711
 20
41.0
 30
0.0
 11
266.135711
 21
44.0
 31
0.0
  0
ARC
  5
AD22
330
ACD3
100
AcDbEntity
  8
1
  6
Continuous
100
AcDbCircle
 10
269.635711
 20
44.0
 30
0.0
 40
3.0
100
AcDbArc
 50
270.0
 51
0.0
  0
LINE
  5
AD23
330
ACD3
100
AcDbEntity
  8
1
  6
Continuous
100
AcDbLine
 10
292.433558
 20
202.980763
 30
0.0
 11
286.514114
 21
202.980763
 31
0.0
  0
LINE
  5
AD24
330
ACD3
100
AcDbEntity
  8
1
  6
Continuous
100
AcDbLine
 10
292.433558
 20
187.969656
 30
0.0
 11
286.514114
 21
187.969656
 31
0.0
  0
LINE
  5
AD25
330
ACD3
100
AcDbEntity
  8
1
  6
Continuous
100
AcDbLine
 10
292.433558
 20
199.227986
 30
0.0
 11
286.514114
 21
199.227986
 31
0.0
  0
LINE
  5
AD26
330
ACD3
100
AcDbEntity
  8
1
  6
Continuous
100
AcDbLine
 10
292.433558
 20
191.722432
 30
0.0
 11
286.514114
 21
191.722432
 31
0.0
  0
LINE
  5
AD27
330
ACD3
100
AcDbEntity
  8
1
  6
Continuous
100
AcDbLine
 10
293.0141139999999
 20
201.9752089999999
 30
0.0
 11
293.0141139999999
 21
188.9752089999998
 31
0.0
  0
LINE
  5
AD28
330
ACD3
100
AcDbEntity
  8
1
  6
Continuous
100
AcDbLine
 10
293.0141139999999
 20
201.9752089999999
 30
0.0
 11
292.433558
 21
202.980763
 31
0.0
  0
LINE
  5
AD29
330
ACD3
100
AcDbEntity
  8
1
  6
Continuous
100
AcDbLine
 10
293.0141139999999
 20
188.9752089999998
 30
0.0
 11
292.433558
 21
187.969656
 31
0.0
  0
ARC
  5
AD2A
330
ACD3
100
AcDbEntity
  8
1
  6
Continuous
100
AcDbCircle
 10
280.594671
 20
195.475209
 30
0.0
 40
12.419443
100
AcDbArc
 50
342.4120459999999
 51
17.587954
  0
LINE
  5
AD2B
330
ACD3
100
AcDbEntity
  8
1
  6
Continuous
100
AcDbLine
 10
215.2
 20
198.9752089999998
 30
0.0
 11
215.2
 21
191.975209
 31
0.0
  0
ARC
  5
AD2C
330
ACD3
100
AcDbEntity
  8
1
  6
Continuous
100
AcDbCircle
 10
286.2238909999998
 20
188.975221
 30
0.0
 40
6.790222999999999
100
AcDbArc
 50
0.0
 51
23.86502399999999
  0
ARC
  5
AD2D
330
ACD3
100
AcDbEntity
  8
1
  6
Continuous
100
AcDbCircle
 10
286.2238909999998
 20
201.975197
 30
0.0
 40
6.790222999999999
100
AcDbArc
 50
336.1349759999999
 51
0.0
  0
LINE
  5
AD2E
330
ACD3
100
AcDbEntity
  8
1
  6
Continuous
100
AcDbLine
 10
201.2
 20
185.475209
 30
0.0
 11
200.1999999999999
 21
184.475209
 31
0.0
  0
LINE
  5
AD2F
330
ACD3
100
AcDbEntity
  8
1
  6
Continuous
100
AcDbLine
 10
200.1999999999999
 20
184.475209
 30
0.0
 11
200.1999999999999
 21
189.9299409999999
 31
0.0
  0
LINE
  5
AD30
330
ACD3
100
AcDbEntity
  8
1
  6
Continuous
100
AcDbLine
 10
272.635711
 20
206.475209
 30
0.0
 11
272.635711
 21
184.475209
 31
0.0
  0
LINE
  5
AD31
330
ACD3
100
AcDbEntity
  8
1
  6
Continuous
100
AcDbLine
 10
269.635711
 20
206.475209
 30
0.0
 11
269.635711
 21
184.475209
 31
0.0
  0
LINE
  5
AD32
330
ACD3
100
AcDbEntity
  8
1
  6
Continuous
100
AcDbLine
 10
266.135711
 20
184.475209
 30
0.0
 11
272.635711
 21
184.475209
 31
0.0
  0
LINE
  5
AD33
330
ACD3
100
AcDbEntity
  8
1
  6
Continuous
100
AcDbLine
 10
266.135711
 20
206.475209
 30
0.0
 11
272.635711
 21
206.475209
 31
0.0
  0
LINE
  5
AD34
330
ACD3
100
AcDbEntity
  8
1
  6
Continuous
100
AcDbLine
 10
201.4
 20
203.1752089999999
 30
0.0
 11
201.2
 21
203.375209
 31
0.0
  0
LINE
  5
AD35
330
ACD3
100
AcDbEntity
  8
1
  6
Continuous
100
AcDbLine
 10
201.4
 20
204.975209
 30
0.0
 11
201.4
 21
188.503704
 31
0.0
  0
LINE
  5
AD36
330
ACD3
100
AcDbEntity
  8
1
  6
Continuous
100
AcDbLine
 10
203.4
 20
186.814955
 30
0.0
 11
203.2
 21
186.814955
 31
0.0
  0
LINE
  5
AD37
330
ACD3
100
AcDbEntity
  8
1
  6
Continuous
100
AcDbLine
 10
201.2
 20
185.475209
 30
0.0
 11
201.2
 21
205.475209
 31
0.0
  0
LINE
  5
AD38
330
ACD3
100
AcDbEntity
  8
1
  6
Continuous
100
AcDbLine
 10
203.2
 20
185.475209
 30
0.0
 11
203.2
 21
188.503704
 31
0.0
  0
LINE
  5
AD39
330
ACD3
100
AcDbEntity
  8
1
  6
Continuous
100
AcDbLine
 10
201.2
 20
185.475209
 30
0.0
 11
203.2
 21
185.475209
 31
0.0
  0
LINE
  5
AD3A
330
ACD3
100
AcDbEntity
  8
1
  6
Continuous
100
AcDbLine
 10
201.4
 20
188.503705
 30
0.0
 11
201.2
 21
188.503705
 31
0.0
  0
ARC
  5
AD3B
330
ACD3
100
AcDbEntity
  8
1
  6
Continuous
100
AcDbCircle
 10
190.1999999999999
 20
195.475209
 30
0.0
 40
11.43459699999998
100
AcDbArc
 50
330.990456
 51
344.152689
  0
ARC
  5
AD3C
330
ACD3
100
AcDbEntity
  8
1
  6
Continuous
100
AcDbCircle
 10
190.1999999999999
 20
195.475209
 30
0.0
 40
11.43459699999998
100
AcDbArc
 50
15.84731099999999
 51
29.00954399999999
  0
LINE
  5
AD3D
330
ACD3
100
AcDbEntity
  8
1
  6
Continuous
100
AcDbLine
 10
284.5141139999999
 20
187.7752089999999
 30
0.0
 11
286.514114
 21
187.7752089999999
 31
0.0
  0
LINE
  5
AD3E
330
ACD3
100
AcDbEntity
  8
1
  6
Continuous
100
AcDbLine
 10
284.5141139999999
 20
203.1752089999999
 30
0.0
 11
286.514114
 21
203.1752089999999
 31
0.0
  0
LINE
  5
AD3F
330
ACD3
100
AcDbEntity
  8
1
  6
Continuous
100
AcDbLine
 10
286.514114
 20
203.1752089999999
 30
0.0
 11
286.514114
 21
187.7752089999999
 31
0.0
  0
LINE
  5
AD40
330
ACD3
100
AcDbEntity
  8
1
  6
Continuous
100
AcDbLine
 10
203.4
 20
204.975209
 30
0.0
 11
201.4
 21
204.975209
 31
0.0
  0
LINE
  5
AD41
330
ACD3
100
AcDbEntity
  8
1
  6
Continuous
100
AcDbLine
 10
200.1999999999999
 20
206.475209
 30
0.0
 11
201.2
 21
205.475209
 31
0.0
  0
LINE
  5
AD42
330
ACD3
100
AcDbEntity
  8
1
  6
Continuous
100
AcDbLine
 10
200.1999999999999
 20
201.020477
 30
0.0
 11
200.1999999999999
 21
206.475209
 31
0.0
  0
LINE
  5
AD43
330
ACD3
100
AcDbEntity
  8
1
  6
Continuous
100
AcDbLine
 10
162.1999999999998
 20
105.2
 30
0.0
 11
162.1999999999998
 21
72.79999999999998
 31
0.0
  0
LINE
  5
AD44
330
ACD3
100
AcDbEntity
  8
1
  6
Continuous
100
AcDbLine
 10
169.1999999999999
 20
106.0
 30
0.0
 11
169.1999999999999
 21
72.0
 31
0.0
  0
LINE
  5
AD45
330
ACD3
100
AcDbEntity
  8
1
  6
Continuous
100
AcDbLine
 10
171.6999999999998
 20
106.0
 30
0.0
 11
171.6999999999998
 21
72.0
 31
0.0
  0
LINE
  5
AD46
330
ACD3
100
AcDbEntity
  8
1
  6
Continuous
100
AcDbLine
 10
253.586669
 20
73.0
 30
0.0
 11
253.586669
 21
105.0
 31
0.0
  0
LINE
  5
AD47
330
ACD3
100
AcDbEntity
  8
1
  6
Continuous
100
AcDbLine
 10
249.586669
 20
73.0
 30
0.0
 11
249.586669
 21
105.0
 31
0.0
  0
LINE
  5
AD48
330
ACD3
100
AcDbEntity
  8
1
  6
Continuous
100
AcDbLine
 10
170.6999999999998
 20
106.0
 30
0.0
 11
170.6999999999998
 21
72.0
 31
0.0
  0
LINE
  5
AD49
330
ACD3
100
AcDbEntity
  8
1
  6
Continuous
100
AcDbLine
 10
165.1999999999999
 20
106.0
 30
0.0
 11
165.1999999999999
 21
72.0
 31
0.0
  0
LINE
  5
AD4A
330
ACD3
100
AcDbEntity
  8
1
  6
Continuous
100
AcDbLine
 10
163.0
 20
106.0
 30
0.0
 11
171.6999999999998
 21
106.0
 31
0.0
  0
LINE
  5
AD4B
330
ACD3
100
AcDbEntity
  8
1
  6
Continuous
100
AcDbLine
 10
249.586669
 20
105.0
 30
0.0
 11
253.586669
 21
105.0
 31
0.0
  0
ARC
  5
AD4C
330
ACD3
100
AcDbEntity
  8
1
  6
Continuous
100
AcDbCircle
 10
163.0
 20
105.2
 30
0.0
 40
0.8
100
AcDbArc
 50
90.0
 51
180.0
  0
LINE
  5
AD4D
330
ACD3
100
AcDbEntity
  8
1
  6
Continuous
100
AcDbLine
 10
163.0
 20
72.0
 30
0.0
 11
171.6999999999998
 21
72.0
 31
0.0
  0
LINE
  5
AD4E
330
ACD3
100
AcDbEntity
  8
1
  6
Continuous
100
AcDbLine
 10
173.0
 20
98.50000000000001
 30
0.0
 11
173.0
 21
79.5
 31
0.0
  0
LINE
  5
AD4F
330
ACD3
100
AcDbEntity
  8
1
  6
Continuous
100
AcDbLine
 10
253.586669
 20
89.0
 30
0.0
 11
249.586669
 21
89.0
 31
0.0
  0
LINE
  5
AD50
330
ACD3
100
AcDbEntity
  8
1
  6
Continuous
100
AcDbLine
 10
249.586669
 20
73.0
 30
0.0
 11
253.586669
 21
73.0
 31
0.0
  0
LINE
  5
AD51
330
ACD3
100
AcDbEntity
  8
4
  6
CENTER
100
AcDbLine
 10
169.6999999999999
 20
75.0
 30
0.0
 11
175.1999999999999
 21
75.0
 31
0.0
  0
LINE
  5
AD52
330
ACD3
100
AcDbEntity
  8
1
  6
Continuous
100
AcDbLine
 10
173.6999999999999
 20
76.5
 30
0.0
 11
173.6999999999999
 21
73.5
 31
0.0
  0
LINE
  5
AD53
330
ACD3
100
AcDbEntity
  8
1
  6
Continuous
100
AcDbLine
 10
171.6999999999998
 20
76.5
 30
0.0
 11
173.6999999999999
 21
76.5
 31
0.0
  0
LINE
  5
AD54
330
ACD3
100
AcDbEntity
  8
1
  6
Continuous
100
AcDbLine
 10
171.6999999999998
 20
73.5
 30
0.0
 11
173.6999999999999
 21
73.5
 31
0.0
  0
LINE
  5
AD55
330
ACD3
100
AcDbEntity
  8
4
  6
CENTER
100
AcDbLine
 10
159.4999999999998
 20
76.0
 30
0.0
 11
166.1999999999999
 21
76.0
 31
0.0
  0
LINE
  5
AD56
330
ACD3
100
AcDbEntity
  8
1
  6
Continuous
100
AcDbLine
 10
161.6999999999999
 20
78.5
 30
0.0
 11
162.1999999999998
 21
78.5
 31
0.0
  0
LINE
  5
AD57
330
ACD3
100
AcDbEntity
  8
1
  6
Continuous
100
AcDbLine
 10
161.6999999999999
 20
78.5
 30
0.0
 11
161.6999999999999
 21
73.5
 31
0.0
  0
ARC
  5
AD58
330
ACD3
100
AcDbEntity
  8
1
  6
Continuous
100
AcDbCircle
 10
165.814286
 20
76.0
 30
0.0
 40
4.814286
100
AcDbArc
 50
148.715507
 51
211.284493
  0
LINE
  5
AD59
330
ACD3
100
AcDbEntity
  8
1
  6
Continuous
100
AcDbLine
 10
161.6999999999999
 20
73.5
 30
0.0
 11
162.1999999999998
 21
73.5
 31
0.0
  0
ARC
  5
AD5A
330
ACD3
100
AcDbEntity
  8
1
  6
Continuous
100
AcDbCircle
 10
163.0
 20
72.79999999999998
 30
0.0
 40
0.8
100
AcDbArc
 50
180.0
 51
270.0
  0
LINE
  5
AD5B
330
ACD3
100
AcDbEntity
  8
1
  6
Continuous
100
AcDbLine
 10
163.0
 20
178.475209
 30
0.0
 11
171.6999999999998
 21
178.475209
 31
0.0
  0
LINE
  5
AD5C
330
ACD3
100
AcDbEntity
  8
1
  6
Continuous
100
AcDbLine
 10
173.0
 20
184.475209
 30
0.0
 11
173.0
 21
189.9299409999999
 31
0.0
  0
LINE
  5
AD5D
330
ACD3
100
AcDbEntity
  8
1
  6
Continuous
100
AcDbLine
 10
171.6999999999998
 20
184.475209
 30
0.0
 11
200.1999999999999
 21
184.475209
 31
0.0
  0
LINE
  5
AD5E
330
ACD3
100
AcDbEntity
  8
1
  6
Continuous
100
AcDbLine
 10
171.6999999999998
 20
206.475209
 30
0.0
 11
200.1999999999999
 21
206.475209
 31
0.0
  0
LINE
  5
AD5F
330
ACD3
100
AcDbEntity
  8
2
  6
Continuous
100
AcDbLine
 10
173.0
 20
205.6632089999999
 30
0.0
 11
201.012
 21
205.6632089999999
 31
0.0
  0
LINE
  5
AD60
330
ACD3
100
AcDbEntity
  8
1
  6
Continuous
100
AcDbLine
 10
173.0
 20
201.020477
 30
0.0
 11
173.0
 21
206.475209
 31
0.0
  0
ARC
  5
AD61
330
ACD3
100
AcDbEntity
  8
1
  6
Continuous
100
AcDbCircle
 10
163.0
 20
179.275209
 30
0.0
 40
0.8
100
AcDbArc
 50
180.0
 51
270.0
  0
LINE
  5
AD62
330
ACD3
100
AcDbEntity
  8
1
  6
Continuous
100
AcDbLine
 10
161.6999999999999
 20
192.975209
 30
0.0
 11
162.1999999999998
 21
192.975209
 31
0.0
  0
LINE
  5
AD63
330
ACD3
100
AcDbEntity
  8
1
  6
Continuous
100
AcDbLine
 10
161.6999999999999
 20
197.975209
 30
0.0
 11
162.1999999999998
 21
197.975209
 31
0.0
  0
LINE
  5
AD64
330
ACD3
100
AcDbEntity
  8
1
  6
Continuous
100
AcDbLine
 10
161.6999999999999
 20
192.975209
 30
0.0
 11
161.6999999999999
 21
197.975209
 31
0.0
  0
ARC
  5
AD65
330
ACD3
100
AcDbEntity
  8
1
  6
Continuous
100
AcDbCircle
 10
165.814286
 20
195.475209
 30
0.0
 40
4.814286
100
AcDbArc
 50
148.715507
 51
211.284493
  0
ARC
  5
AD66
330
ACD3
100
AcDbEntity
  8
5
  6
PHANTOM
100
AcDbCircle
 10
47.0
 20
195.475209
 30
0.0
 40
9.0
100
AcDbArc
 50
231.37937
 51
308.62063
  0
ARC
  5
AD67
330
ACD3
100
AcDbEntity
  8
5
  6
PHANTOM
100
AcDbCircle
 10
47.0
 20
195.475209
 30
0.0
 40
9.0
100
AcDbArc
 50
51.37937
 51
128.62063
  0
CIRCLE
  5
AD68
330
ACD3
100
AcDbEntity
  8
5
  6
PHANTOM
100
AcDbCircle
 10
47.0
 20
195.475209
 30
0.0
 40
8.0
  0
LINE
  5
AD69
330
ACD3
100
AcDbEntity
  8
1
  6
Continuous
100
AcDbLine
 10
25.0
 20
206.475209
 30
0.0
 11
25.0
 21
184.475209
 31
0.0
  0
LINE
  5
AD6A
330
ACD3
100
AcDbEntity
  8
1
  6
Continuous
100
AcDbLine
 10
28.0
 20
206.475209
 30
0.0
 11
28.0
 21
184.475209
 31
0.0
  0
LINE
  5
AD6B
330
ACD3
100
AcDbEntity
  8
1
  6
Continuous
100
AcDbLine
 10
25.0
 20
184.475209
 30
0.0
 11
60.03851899999999
 21
184.475209
 31
0.0
  0
LINE
  5
AD6C
330
ACD3
100
AcDbEntity
  8
1
  6
Continuous
100
AcDbLine
 10
25.0
 20
206.475209
 30
0.0
 11
60.03851899999999
 21
206.475209
 31
0.0
  0
ARC
  5
AD6D
330
ACD3
100
AcDbEntity
  8
5
  6
PHANTOM
100
AcDbCircle
 10
47.0
 20
195.475209
 30
0.0
 40
9.0
100
AcDbArc
 50
141.37937
 51
218.6206299999998
  0
LINE
  5
AD6E
330
ACD3
100
AcDbEntity
  8
1
  6
Continuous
100
AcDbLine
 10
163.0
 20
212.4752089999998
 30
0.0
 11
171.6999999999998
 21
212.4752089999998
 31
0.0
  0
ARC
  5
AD6F
330
ACD3
100
AcDbEntity
  8
1
  6
Continuous
100
AcDbCircle
 10
163.0
 20
211.6752089999998
 30
0.0
 40
0.8
100
AcDbArc
 50
90.0
 51
180.0
  0
LINE
  5
AD70
330
ACD3
100
AcDbEntity
  8
5
  6
PHANTOM
100
AcDbLine
 10
84.0
 20
243.4752089999999
 30
0.0
 11
62.0
 21
243.4752089999999
 31
0.0
  0
LINE
  5
AD71
330
ACD3
100
AcDbEntity
  8
5
  6
PHANTOM
100
AcDbLine
 10
84.0
 20
240.4752089999998
 30
0.0
 11
62.0
 21
240.4752089999998
 31
0.0
  0
LINE
  5
AD72
330
ACD3
100
AcDbEntity
  8
1
  6
Continuous
100
AcDbLine
 10
78.76425899999998
 20
206.624378
 30
0.0
 11
77.015822
 21
207.3138539999999
 31
0.0
  0
ARC
  5
AD73
330
ACD3
100
AcDbEntity
  8
1
  6
Continuous
100
AcDbCircle
 10
73.0
 20
195.475209
 30
0.0
 40
15.0
100
AcDbArc
 50
45.09604399999999
 51
134.903956
  0
ARC
  5
AD74
330
ACD3
100
AcDbEntity
  8
1
  6
Continuous
100
AcDbCircle
 10
73.0
 20
195.475209
 30
0.0
 40
4.65
100
AcDbArc
 50
302.5227479999998
 51
57.477252
  0
ARC
  5
AD75
330
ACD3
100
AcDbEntity
  8
1
  6
Continuous
100
AcDbCircle
 10
75.916737
 20
184.001882
 30
0.0
 40
0.7697149999999999
100
AcDbArc
 50
23.440001
 51
88.58796099999997
  0
ARC
  5
AD76
330
ACD3
100
AcDbEntity
  8
1
  6
Continuous
100
AcDbCircle
 10
73.0
 20
195.475209
 30
0.0
 40
10.0
100
AcDbArc
 50
224.2159089999999
 51
315.784091
  0
ARC
  5
AD77
330
ACD3
100
AcDbEntity
  8
1
  6
Continuous
100
AcDbCircle
 10
73.0
 20
195.475209
 30
0.0
 40
10.0
100
AcDbArc
 50
46.21590900000001
 51
133.7840909999999
  0
ARC
  5
AD78
330
ACD3
100
AcDbEntity
  8
1
  6
Continuous
100
AcDbCircle
 10
76.08901899999998
 20
183.0567269999999
 30
0.0
 40
1.148606999999999
100
AcDbArc
 50
238.848761
 51
294.3717609999998
  0
ARC
  5
AD79
330
ACD3
100
AcDbEntity
  8
1
  6
Continuous
100
AcDbCircle
 10
73.0
 20
195.475209
 30
0.0
 40
15.0
100
AcDbArc
 50
223.096044
 51
316.9039559999998
  0
LINE
  5
AD7A
330
ACD3
100
AcDbEntity
  8
1
  6
Continuous
100
AcDbLine
 10
76.053921
 20
183.203011
 30
0.0
 11
77.057905
 21
183.524983
 31
0.0
  0
LINE
  5
AD7B
330
ACD3
100
AcDbEntity
  8
1
  6
Continuous
100
AcDbLine
 10
76.45732399999999
 20
205.8975629999999
 30
0.0
 11
77.55786399999998
 21
208.6884149999999
 31
0.0
  0
LINE
  5
AD7C
330
ACD3
100
AcDbEntity
  8
4
  6
CENTER
100
AcDbLine
 10
73.0
 20
248.0070459999998
 30
0.0
 11
73.0
 21
175.3098
 31
0.0
  0
LINE
  5
AD7D
330
ACD3
100
AcDbEntity
  8
1
  6
Continuous
100
AcDbLine
 10
74.80653100000002
 20
206.2766639999999
 30
0.0
 11
76.48264199999998
 21
209.0173829999999
 31
0.0
  0
LINE
  5
AD7E
330
ACD3
100
AcDbEntity
  8
1
  6
Continuous
100
AcDbLine
 10
74.80559499999998
 20
206.271475
 30
0.0
 11
74.246015
 21
209.420842
 31
0.0
  0
LINE
  5
AD7F
330
ACD3
100
AcDbEntity
  8
1
  6
Continuous
100
AcDbLine
 10
67.64568100000001
 20
208.489661
 30
0.0
 11
67.13523000000001
 21
206.278904
 31
0.0
  0
LINE
  5
AD80
330
ACD3
100
AcDbEntity
  8
1
  6
Continuous
100
AcDbLine
 10
70.317555
 20
206.0866789999999
 30
0.0
 11
69.46966399999999
 21
208.964358
 31
0.0
  0
LINE
  5
AD81
330
ACD3
100
AcDbEntity
  8
1
  6
Continuous
100
AcDbLine
 10
70.317555
 20
206.0866789999999
 30
0.0
 11
71.24473399999998
 21
208.770457
 31
0.0
  0
LINE
  5
AD82
330
ACD3
100
AcDbEntity
  8
4
  6
CENTER
100
AcDbLine
 10
47.0
 20
215.4752089999998
 30
0.0
 11
47.0
 21
175.475209
 31
0.0
  0
ARC
  5
AD83
330
ACD3
100
AcDbEntity
  8
1
  6
Continuous
100
AcDbCircle
 10
69.671745
 20
184.019445
 30
0.0
 40
0.7697149999999999
100
AcDbArc
 50
354.784264
 51
59.932224
  0
ARC
  5
AD84
330
ACD3
100
AcDbEntity
  8
1
  6
Continuous
100
AcDbCircle
 10
75.907386
 20
183.6231009999999
 30
0.0
 40
1.148606999999999
100
AcDbArc
 50
88.58796099999997
 51
156.712761
  0
ARC
  5
AD85
330
ACD3
100
AcDbEntity
  8
1
  6
Continuous
100
AcDbCircle
 10
66.83744399999999
 20
184.843655
 30
0.0
 40
1.148606999999999
100
AcDbArc
 50
2.907106
 51
100.771206
  0
ARC
  5
AD86
330
ACD3
100
AcDbEntity
  8
1
  6
Continuous
100
AcDbCircle
 10
66.922043
 20
184.398952
 30
0.0
 40
1.601290999999998
100
AcDbArc
 50
100.771206
 51
182.907206
  0
LINE
  5
AD87
330
ACD3
100
AcDbEntity
  8
1
  6
Continuous
100
AcDbLine
 10
65.680621
 20
187.22183
 30
0.0
 11
63.616336
 21
185.0449779999999
 31
0.0
  0
ARC
  5
AD88
330
ACD3
100
AcDbEntity
  8
1
  6
Continuous
100
AcDbCircle
 10
69.481897
 20
183.6915429999999
 30
0.0
 40
1.148606999999999
100
AcDbArc
 50
59.932224
 51
128.057024
  0
LINE
  5
AD89
330
ACD3
100
AcDbEntity
  8
1
  6
Continuous
100
AcDbLine
 10
71.295574
 20
184.567653
 30
0.0
 11
71.05421899999997
 21
181.424755
 31
0.0
  0
LINE
  5
AD8A
330
ACD3
100
AcDbEntity
  8
1
  6
Continuous
100
AcDbLine
 10
73.86634499999998
 20
184.472081
 30
0.0
 11
74.13600099999998
 21
181.3314839999999
 31
0.0
  0
LINE
  5
AD8B
330
ACD3
100
AcDbEntity
  8
1
  6
Continuous
100
AcDbLine
 10
59.961481
 20
184.475209
 30
0.0
 11
60.038518
 21
184.475209
 31
0.0
  0
LINE
  5
AD8C
330
ACD3
100
AcDbEntity
  8
1
  6
Continuous
100
AcDbLine
 10
71.17373600000002
 20
182.9810939999999
 30
0.0
 11
72.78798399999998
 21
182.85713
 31
0.0
  0
ARC
  5
AD8D
330
ACD3
100
AcDbEntity
  8
1
  6
Continuous
100
AcDbCircle
 10
69.36968199999999
 20
183.107446
 30
0.0
 40
1.148606999999999
100
AcDbArc
 50
210.1930239999998
 51
278.3180239999999
  0
ARC
  5
AD8E
330
ACD3
100
AcDbEntity
  8
1
  6
Continuous
100
AcDbCircle
 10
69.42450799999999
 20
182.732537
 30
0.0
 40
0.7697149999999999
100
AcDbArc
 50
278.3180239999999
 51
343.4660239999999
  0
ARC
  5
AD8F
330
ACD3
100
AcDbEntity
  8
1
  6
Continuous
100
AcDbCircle
 10
66.38534399999999
 20
184.8206989999999
 30
0.0
 40
1.601290999999998
100
AcDbArc
 50
280.771206
 51
2.907106
  0
ARC
  5
AD90
330
ACD3
100
AcDbEntity
  8
1
  6
Continuous
100
AcDbCircle
 10
66.469948
 20
184.375993
 30
0.0
 40
1.148606999999999
100
AcDbArc
 50
182.907206
 51
280.771206
  0
LINE
  5
AD91
330
ACD3
100
AcDbEntity
  8
1
  6
Continuous
100
AcDbLine
 10
72.90866
 20
184.428579
 30
0.0
 11
72.66730600000002
 21
181.285681
 31
0.0
  0
ARC
  5
AD92
330
ACD3
100
AcDbEntity
  8
1
  6
Continuous
100
AcDbCircle
 10
69.76098399999999
 20
183.3350979999999
 30
0.0
 40
1.601290999999998
100
AcDbArc
 50
128.057024
 51
210.1930239999998
  0
ARC
  5
AD93
330
ACD3
100
AcDbEntity
  8
1
  6
Continuous
100
AcDbCircle
 10
76.32315
 20
183.444127
 30
0.0
 40
1.601290999999998
100
AcDbArc
 50
156.712761
 51
238.848761
  0
CIRCLE
  5
AD94
330
ACD3
100
AcDbEntity
  8
5
  6
PHANTOM
100
AcDbCircle
 10
60.0
 20
195.475209
 30
0.0
 40
2.5
  0
LINE
  5
AD95
330
ACD3
100
AcDbEntity
  8
1
  6
Continuous
100
AcDbLine
 10
59.961481
 20
206.475209
 30
0.0
 11
60.038518
 21
206.475209
 31
0.0
  0
LINE
  5
AD96
330
ACD3
100
AcDbEntity
  8
4
  6
CENTER
100
AcDbLine
 10
60.0
 20
191.475209
 30
0.0
 11
60.0
 21
199.475209
 31
0.0
  0
ARC
  5
AD97
330
ACD3
100
AcDbEntity
  8
5
  6
PHANTOM
100
AcDbCircle
 10
47.0
 20
195.475209
 30
0.0
 40
9.0
100
AcDbArc
 50
321.37937
 51
38.62063
  0
LINE
  5
AD98
330
ACD3
100
AcDbEntity
  8
1
  6
Continuous
100
AcDbLine
 10
75.5
 20
191.5544309999999
 30
0.0
 11
75.5
 21
187.823249
 31
0.0
  0
LINE
  5
AD99
330
ACD3
100
AcDbEntity
  8
1
  6
Continuous
100
AcDbLine
 10
75.5
 20
203.12717
 30
0.0
 11
75.5
 21
199.3959869999999
 31
0.0
  0
LINE
  5
AD9A
330
ACD3
100
AcDbEntity
  8
1
  6
Continuous
100
AcDbLine
 10
70.5
 20
191.5544309999999
 30
0.0
 11
70.5
 21
187.823249
 31
0.0
  0
LINE
  5
AD9B
330
ACD3
100
AcDbEntity
  8
1
  6
Continuous
100
AcDbLine
 10
70.5
 20
203.12717
 30
0.0
 11
70.5
 21
199.3959869999999
 31
0.0
  0
ARC
  5
AD9C
330
ACD3
100
AcDbEntity
  8
1
  6
Continuous
100
AcDbCircle
 10
73.0
 20
195.475209
 30
0.0
 40
4.65
100
AcDbArc
 50
122.522748
 51
237.477252
  0
ARC
  5
AD9D
330
ACD3
100
AcDbEntity
  8
1
  6
Continuous
100
AcDbCircle
 10
60.0
 20
195.475209
 30
0.0
 40
6.625
100
AcDbArc
 50
270.0
 51
90.0
  0
LINE
  5
AD9E
330
ACD3
100
AcDbEntity
  8
1
  6
Continuous
100
AcDbLine
 10
64.73257
 20
202.6619759999999
 30
0.0
 11
62.46105400000001
 21
204.636575
 31
0.0
  0
ARC
  5
AD9F
330
ACD3
100
AcDbEntity
  8
1
  6
Continuous
100
AcDbCircle
 10
62.777067
 20
185.9100819999999
 30
0.0
 40
1.0
100
AcDbArc
 50
129.0
 51
223.096044
  0
LINE
  5
ADA0
330
ACD3
100
AcDbEntity
  8
1
  6
Continuous
100
AcDbLine
 10
64.48679199999999
 20
188.5813499999999
 30
0.0
 11
62.14774699999999
 21
186.687228
 31
0.0
  0
ARC
  5
ADA1
330
ACD3
100
AcDbEntity
  8
1
  6
Continuous
100
AcDbCircle
 10
65.116112
 20
187.804204
 30
0.0
 40
1.0
100
AcDbArc
 50
44.215909
 51
129.0
  0
LINE
  5
ADA2
330
ACD3
100
AcDbEntity
  8
1
  6
Continuous
100
AcDbLine
 10
65.03512099999999
 20
187.909793
 30
0.0
 11
66.40123199999999
 21
186.614325
 31
0.0
  0
ARC
  5
ADA3
330
ACD3
100
AcDbEntity
  8
1
  6
Continuous
100
AcDbCircle
 10
65.38862900000001
 20
203.416685
 30
0.0
 40
1.0
100
AcDbArc
 50
228.9999999999999
 51
313.7840909999998
  0
LINE
  5
ADA4
330
ACD3
100
AcDbEntity
  8
1
  6
Continuous
100
AcDbLine
 10
66.17187699999999
 20
204.0194389999999
 30
0.0
 11
66.220216
 21
204.4778589999999
 31
0.0
  0
ARC
  5
ADA5
330
ACD3
100
AcDbEntity
  8
1
  6
Continuous
100
AcDbCircle
 10
67.933718
 20
206.262254
 30
0.0
 40
0.9380599999999999
100
AcDbArc
 50
257.8538200000001
 51
343.5934199999999
  0
ARC
  5
ADA6
330
ACD3
100
AcDbEntity
  8
1
  6
Continuous
100
AcDbCircle
 10
73.0
 20
195.475209
 30
0.0
 40
8.05
100
AcDbArc
 50
251.907078
 51
288.092922
  0
ARC
  5
ADA7
330
ACD3
100
AcDbEntity
  8
1
  6
Continuous
100
AcDbCircle
 10
73.0
 20
195.475209
 30
0.0
 40
8.05
100
AcDbArc
 50
71.907078
 51
108.092922
  0
ARC
  5
ADA8
330
ACD3
100
AcDbEntity
  8
1
  6
Continuous
100
AcDbCircle
 10
73.0
 20
195.475209
 30
0.0
 40
8.0
100
AcDbArc
 50
251.790043
 51
288.2099569999999
  0
ARC
  5
ADA9
330
ACD3
100
AcDbEntity
  8
1
  6
Continuous
100
AcDbCircle
 10
73.0
 20
195.475209
 30
0.0
 40
8.0
100
AcDbArc
 50
71.79004300000002
 51
108.209957
  0
ARC
  5
ADAA
330
ACD3
100
AcDbEntity
  8
1
  6
Continuous
100
AcDbCircle
 10
67.901257
 20
206.11144
 30
0.0
 40
0.7837930000000001
100
AcDbArc
 50
163.59342
 51
257.8538200000001
  0
LINE
  5
ADAB
330
ACD3
100
AcDbEntity
  8
1
  6
Continuous
100
AcDbLine
 10
66.171882
 20
204.0194329999999
 30
0.0
 11
64.248164
 21
206.321456
 31
0.0
  0
ARC
  5
ADAC
330
ACD3
100
AcDbEntity
  8
1
  6
Continuous
100
AcDbCircle
 10
63.117113
 20
205.391284
 30
0.0
 40
1.0
100
AcDbArc
 50
134.903956
 51
228.9999999999999
  0
ARC
  5
ADAD
330
ACD3
100
AcDbEntity
  8
1
  6
Continuous
100
AcDbCircle
 10
68.081704
 20
206.2186819999999
 30
0.0
 40
0.7837930000000001
100
AcDbArc
 50
343.5934199999999
 51
55.00042
  0
LINE
  5
ADAE
330
ACD3
100
AcDbEntity
  8
5
  6
PHANTOM
100
AcDbLine
 10
62.0
 20
208.43669
 30
0.0
 11
62.0
 21
243.4752089999999
 31
0.0
  0
LINE
  5
ADAF
330
ACD3
100
AcDbEntity
  8
1
  6
Continuous
100
AcDbLine
 10
75.96796600000002
 20
208.1904399999999
 30
0.0
 11
74.412816
 21
208.4709689999999
 31
0.0
  0
LINE
  5
ADB0
330
ACD3
100
AcDbEntity
  8
1
  6
Continuous
100
AcDbLine
 10
73.43398399999998
 20
207.996974
 30
0.0
 11
72.49673100000002
 21
207.927532
 31
0.0
  0
LINE
  5
ADB1
330
ACD3
100
AcDbEntity
  8
1
  6
Continuous
100
AcDbLine
 10
67.64568100000001
 20
208.489661
 30
0.0
 11
66.114896
 21
207.5798999999999
 31
0.0
  0
LINE
  5
ADB2
330
ACD3
100
AcDbEntity
  8
1
  6
Continuous
100
AcDbLine
 10
71.24473399999998
 20
208.770457
 30
0.0
 11
69.372804
 21
208.218905
 31
0.0
  0
LINE
  5
ADB3
330
ACD3
100
AcDbEntity
  8
1
  6
Continuous
100
AcDbLine
 10
78.20576099999998
 20
205.208086
 30
0.0
 11
79.30630100000001
 21
207.9989389999998
 31
0.0
  0
LINE
  5
ADB4
330
ACD3
100
AcDbEntity
  8
1
  6
Continuous
100
AcDbLine
 10
79.750078
 20
204.167595
 30
0.0
 11
81.47550599999998
 21
206.6217459999998
 31
0.0
  0
LINE
  5
ADB5
330
ACD3
100
AcDbEntity
  8
1
  6
Continuous
100
AcDbLine
 10
79.48775600000002
 20
184.4744369999999
 30
0.0
 11
80.21630999999997
 21
183.2637649999998
 31
0.0
  0
LINE
  5
ADB6
330
ACD3
100
AcDbEntity
  8
1
  6
Continuous
100
AcDbLine
 10
80.196017
 20
187.227104
 30
0.0
 11
81.37877600000001
 21
184.158964
 31
0.0
  0
LINE
  5
ADB7
330
ACD3
100
AcDbEntity
  8
1
  6
Continuous
100
AcDbLine
 10
77.14742599999998
 20
185.236049
 30
0.0
 11
78.47971699999998
 21
182.3792919999999
 31
0.0
  0
LINE
  5
ADB8
330
ACD3
100
AcDbEntity
  8
1
  6
Continuous
100
AcDbLine
 10
77.194441
 20
183.09923
 30
0.0
 11
77.48610399999998
 21
182.1897599999998
 31
0.0
  0
ARC
  5
ADB9
330
ACD3
100
AcDbEntity
  8
1
  6
Continuous
100
AcDbCircle
 10
76.11732999999998
 20
182.9942349999998
 30
0.0
 40
1.079996999999997
100
AcDbArc
 50
287.3627609999999
 51
29.43486099999999
  0
LINE
  5
ADBA
330
ACD3
100
AcDbEntity
  8
1
  6
Continuous
100
AcDbLine
 10
79.268957
 20
191.4814429999999
 30
0.0
 11
84.77732000000001
 21
187.972228
 31
0.0
  0
ARC
  5
ADBB
330
ACD3
100
AcDbEntity
  8
1
  6
Continuous
100
AcDbCircle
 10
85.31461999999997
 20
202.1347979999999
 30
0.0
 40
1.0
100
AcDbArc
 50
28.403956
 51
122.5
  0
ARC
  5
ADBC
330
ACD3
100
AcDbEntity
  8
1
  6
Continuous
100
AcDbCircle
 10
85.31461999999997
 20
188.81562
 30
0.0
 40
1.0
100
AcDbArc
 50
237.5
 51
331.596044
  0
ARC
  5
ADBD
330
ACD3
100
AcDbEntity
  8
1
  6
Continuous
100
AcDbCircle
 10
79.80625699999999
 20
192.324834
 30
0.0
 40
1.0
100
AcDbArc
 50
155.162256
 51
237.5
  0
ARC
  5
ADBE
330
ACD3
100
AcDbEntity
  8
1
  6
Continuous
100
AcDbCircle
 10
73.0
 20
195.475209
 30
0.0
 40
6.5
100
AcDbArc
 50
335.162256
 51
24.837744
  0
LINE
  5
ADBF
330
ACD3
100
AcDbEntity
  8
1
  6
Continuous
100
AcDbLine
 10
79.268957
 20
199.468975
 30
0.0
 11
84.77732000000001
 21
202.9781899999999
 31
0.0
  0
ARC
  5
ADC0
330
ACD3
100
AcDbEntity
  8
1
  6
Continuous
100
AcDbCircle
 10
79.80625699999999
 20
198.625584
 30
0.0
 40
1.0
100
AcDbArc
 50
122.5
 51
204.837744
  0
LINE
  5
ADC1
330
ACD3
100
AcDbEntity
  8
1
  6
Continuous
100
AcDbLine
 10
81.26742900000001
 20
202.6619759999999
 30
0.0
 11
83.538945
 21
204.636575
 31
0.0
  0
LINE
  5
ADC2
330
ACD3
100
AcDbEntity
  8
1
  6
Continuous
100
AcDbLine
 10
81.51320699999997
 20
188.5813499999999
 30
0.0
 11
83.85225199999998
 21
186.687228
 31
0.0
  0
LINE
  5
ADC3
330
ACD3
100
AcDbEntity
  8
1
  6
Continuous
100
AcDbLine
 10
80.19238799999998
 20
187.2310929999999
 30
0.0
 11
83.09921000000001
 21
185.724511
 31
0.0
  0
ARC
  5
ADC4
330
ACD3
100
AcDbEntity
  8
1
  6
Continuous
100
AcDbCircle
 10
80.88388700000001
 20
187.804204
 30
0.0
 40
1.0
100
AcDbArc
 50
50.99999999999999
 51
135.7840909999999
  0
LINE
  5
ADC5
330
ACD3
100
AcDbEntity
  8
1
  6
Continuous
100
AcDbLine
 10
79.48496799999998
 20
184.47907
 30
0.0
 11
77.713836
 21
185.4623489999999
 31
0.0
  0
LINE
  5
ADC6
330
ACD3
100
AcDbEntity
  8
1
  6
Continuous
100
AcDbLine
 10
79.48775999999998
 20
184.47443
 30
0.0
 11
79.45087599999998
 21
186.509865
 31
0.0
  0
LINE
  5
ADC7
330
ACD3
100
AcDbEntity
  8
1
  6
Continuous
100
AcDbLine
 10
81.036923
 20
185.0676339999999
 30
0.0
 11
82.246798
 21
186.1685939999999
 31
0.0
  0
ARC
  5
ADC8
330
ACD3
100
AcDbEntity
  8
1
  6
Continuous
100
AcDbCircle
 10
80.61136999999998
 20
203.416685
 30
0.0
 40
1.0
100
AcDbArc
 50
226.215909
 51
311.0
  0
ARC
  5
ADC9
330
ACD3
100
AcDbEntity
  8
1
  6
Continuous
100
AcDbCircle
 10
83.222932
 20
185.9100819999999
 30
0.0
 40
1.0
100
AcDbArc
 50
316.9039559999998
 51
50.99999999999999
  0
LINE
  5
ADCA
330
ACD3
100
AcDbEntity
  8
1
  6
Continuous
100
AcDbLine
 10
80.71211099999997
 20
203.4912229999999
 30
0.0
 11
78.779499
 21
204.8499759999999
 31
0.0
  0
ARC
  5
ADCB
330
ACD3
100
AcDbEntity
  8
1
  6
Continuous
100
AcDbCircle
 10
73.0
 20
195.475209
 30
0.0
 40
15.0
100
AcDbArc
 50
331.596044
 51
28.403956
  0
ARC
  5
ADCC
330
ACD3
100
AcDbEntity
  8
1
  6
Continuous
100
AcDbCircle
 10
82.88288599999999
 20
205.391284
 30
0.0
 40
1.0
100
AcDbArc
 50
311.0
 51
45.09604399999999
  0
LINE
  5
ADCD
330
ACD3
100
AcDbEntity
  8
5
  6
PHANTOM
100
AcDbLine
 10
84.0
 20
243.4752089999999
 30
0.0
 11
84.0
 21
208.43669
 31
0.0
  0
ARC
  5
ADCE
330
ACD3
100
AcDbEntity
  8
1
  6
Continuous
100
AcDbCircle
 10
358.279194
 20
195.475209
 30
0.0
 40
17.0
100
AcDbArc
 50
40.32021499999999
 51
79.74992299999998
  0
ARC
  5
ADCF
330
ACD3
100
AcDbEntity
  8
1
  6
Continuous
100
AcDbCircle
 10
358.279194
 20
195.475209
 30
0.0
 40
17.0
100
AcDbArc
 50
100.250077
 51
139.749923
  0
LINE
  5
ADD0
330
ACD3
100
AcDbEntity
  8
4
  6
CENTER
100
AcDbLine
 10
358.279194
 20
216.950418
 30
0.0
 11
358.279194
 21
174.0
 31
0.0
  0
LINE
  5
ADD1
330
ACD3
100
AcDbEntity
  8
1
  6
Continuous
100
AcDbLine
 10
358.279194
 20
213.950418
 30
0.0
 11
342.279194
 21
204.7128129999999
 31
0.0
  0
LINE
  5
ADD2
330
ACD3
100
AcDbEntity
  8
1
  6
Continuous
100
AcDbLine
 10
371.226635
 20
206.475209
 30
0.0
 11
358.279194
 21
213.950418
 31
0.0
  0
ARC
  5
ADD3
330
ACD3
100
AcDbEntity
  8
1
  6
Continuous
100
AcDbCircle
 10
358.279194
 20
195.475209
 30
0.0
 40
17.0
100
AcDbArc
 50
220.250077
 51
259.749923
  0
LINE
  5
ADD4
330
ACD3
100
AcDbEntity
  8
1
  6
Continuous
100
AcDbLine
 10
358.279194
 20
177.0
 30
0.0
 11
342.279194
 21
186.2376049999998
 31
0.0
  0
LINE
  5
ADD5
330
ACD3
100
AcDbEntity
  8
1
  6
Continuous
100
AcDbLine
 10
342.279194
 20
186.2376049999998
 30
0.0
 11
342.279194
 21
204.7128129999999
 31
0.0
  0
ARC
  5
ADD6
330
ACD3
100
AcDbEntity
  8
1
  6
Continuous
100
AcDbCircle
 10
358.279194
 20
195.475209
 30
0.0
 40
17.0
100
AcDbArc
 50
160.2500769999998
 51
199.749923
  0
LINE
  5
ADD7
330
ACD3
100
AcDbEntity
  8
1
  6
Continuous
100
AcDbLine
 10
371.226635
 20
184.475209
 30
0.0
 11
358.279194
 21
177.0
 31
0.0
  0
ARC
  5
ADD8
330
ACD3
100
AcDbEntity
  8
1
  6
Continuous
100
AcDbCircle
 10
358.279194
 20
195.475209
 30
0.0
 40
17.0
100
AcDbArc
 50
280.2500769999999
 51
319.6797849999999
  0
ARC
  5
ADD9
330
ACD3
100
AcDbEntity
  8
1
  6
Continuous
100
AcDbCircle
 10
358.279194
 20
195.475209
 30
0.0
 40
11.0
100
AcDbArc
 50
90.0
 51
270.0
  0
CIRCLE
  5
ADDA
330
ACD3
100
AcDbEntity
  8
2
  6
Continuous
100
AcDbCircle
 10
358.279194
 20
195.475209
 30
0.0
 40
3.3235
  0
CIRCLE
  5
ADDB
330
ACD3
100
AcDbEntity
  8
1
  6
Continuous
100
AcDbCircle
 10
358.279194
 20
195.475209
 30
0.0
 40
4.0
  0
LINE
  5
ADDC
330
ACD3
100
AcDbEntity
  8
4
  6
CENTER
100
AcDbLine
 10
371.279194
 20
199.475209
 30
0.0
 11
371.279194
 21
191.475209
 31
0.0
  0
CIRCLE
  5
ADDD
330
ACD3
100
AcDbEntity
  8
1
  6
Continuous
100
AcDbCircle
 10
73.0
 20
195.475209
 30
0.0
 40
17.0
  0
ARC
  5
ADDE
330
ACD3
100
AcDbEntity
  8
1
  6
Continuous
100
AcDbCircle
 10
60.0
 20
195.475209
 30
0.0
 40
3.375
100
AcDbArc
 50
270.0
 51
90.0
  0
ARC
  5
ADDF
330
ACD3
100
AcDbEntity
  8
1
  6
Continuous
100
AcDbCircle
 10
60.0
 20
200.475209
 30
0.0
 40
1.625
100
AcDbArc
 50
90.0
 51
270.0
  0
ARC
  5
ADE0
330
ACD3
100
AcDbEntity
  8
1
  6
Continuous
100
AcDbCircle
 10
60.0
 20
190.475209
 30
0.0
 40
1.625
100
AcDbArc
 50
90.0
 51
270.0
  0
CIRCLE
  5
ADE1
330
ACD3
100
AcDbEntity
  8
1
  6
Continuous
100
AcDbCircle
 10
73.0
 20
195.475209
 30
0.0
 40
16.05
  0
LINE
  5
ADE2
330
ACD3
100
AcDbEntity
  8
4
  6
CENTER
100
AcDbLine
 10
243.896493
 20
195.475209
 30
0.0
 11
296.866052
 21
195.475209
 31
0.0
  0
LINE
  5
ADE3
330
ACD3
100
AcDbEntity
  8
1
  6
Continuous
100
AcDbLine
 10
249.586669
 20
213.950418
 30
0.0
 11
249.586669
 21
177.0
 31
0.0
  0
LINE
  5
ADE4
330
ACD3
100
AcDbEntity
  8
1
  6
Continuous
100
AcDbLine
 10
253.586669
 20
213.950418
 30
0.0
 11
253.586669
 21
177.0
 31
0.0
  0
LINE
  5
ADE5
330
ACD3
100
AcDbEntity
  8
2
  6
Continuous
100
AcDbLine
 10
173.0
 20
205.6632089999999
 30
0.0
 11
171.6999999999998
 21
206.4137639999999
 31
0.0
  0
LINE
  5
ADE6
330
ACD3
100
AcDbEntity
  8
2
  6
Continuous
100
AcDbLine
 10
173.0
 20
185.2872089999999
 30
0.0
 11
201.012
 21
185.2872089999999
 31
0.0
  0
LINE
  5
ADE7
330
ACD3
100
AcDbEntity
  8
2
  6
Continuous
100
AcDbLine
 10
173.0
 20
185.2872089999999
 30
0.0
 11
171.6999999999998
 21
184.536654
 31
0.0
  0
LINE
  5
ADE8
330
ACD3
100
AcDbEntity
  8
1
  6
Continuous
100
AcDbLine
 10
205.4
 20
199.475209
 30
0.0
 11
214.6999999999999
 21
199.475209
 31
0.0
  0
LINE
  5
ADE9
330
ACD3
100
AcDbEntity
  8
1
  6
Continuous
100
AcDbLine
 10
205.4
 20
191.475209
 30
0.0
 11
214.6999999999999
 21
191.475209
 31
0.0
  0
LINE
  5
ADEA
330
ACD3
100
AcDbEntity
  8
1
  6
Continuous
100
AcDbLine
 10
214.6999999999999
 20
199.475209
 30
0.0
 11
215.2
 21
198.9752089999998
 31
0.0
  0
LINE
  5
ADEB
330
ACD3
100
AcDbEntity
  8
1
  6
Continuous
100
AcDbLine
 10
215.2
 20
191.975209
 30
0.0
 11
214.6999999999999
 21
191.475209
 31
0.0
  0
LINE
  5
ADEC
330
ACD3
100
AcDbEntity
  8
1
  6
Continuous
100
AcDbLine
 10
214.6999999999999
 20
199.475209
 30
0.0
 11
214.6999999999999
 21
191.475209
 31
0.0
  0
LINE
  5
ADED
330
ACD3
100
AcDbEntity
  8
1
  6
Continuous
100
AcDbLine
 10
207.4
 20
199.475209
 30
0.0
 11
207.4
 21
191.475209
 31
0.0
  0
LINE
  5
ADEE
330
ACD3
100
AcDbEntity
  8
1
  6
Continuous
100
AcDbLine
 10
205.4
 20
200.919931
 30
0.0
 11
205.4
 21
190.030487
 31
0.0
  0
LINE
  5
ADEF
330
ACD3
100
AcDbEntity
  8
1
  6
Continuous
100
AcDbLine
 10
203.4
 20
204.975209
 30
0.0
 11
203.4
 21
186.814955
 31
0.0
  0
LINE
  5
ADF0
330
ACD3
100
AcDbEntity
  8
2
  6
Continuous
100
AcDbLine
 10
205.4
 20
200.919931
 30
0.0
 11
203.4
 21
198.2686239999999
 31
0.0
  0
LINE
  5
ADF1
330
ACD3
100
AcDbEntity
  8
2
  6
Continuous
100
AcDbLine
 10
203.4
 20
198.2686239999999
 30
0.0
 11
205.4
 21
195.687341
 31
0.0
  0
LINE
  5
ADF2
330
ACD3
100
AcDbEntity
  8
2
  6
Continuous
100
AcDbLine
 10
203.4
 20
192.681794
 30
0.0
 11
205.4
 21
195.263077
 31
0.0
  0
LINE
  5
ADF3
330
ACD3
100
AcDbEntity
  8
1
  6
Continuous
100
AcDbLine
 10
284.5141139999999
 20
203.1752089999999
 30
0.0
 11
284.5141139999999
 21
187.7752089999999
 31
0.0
  0
LINE
  5
ADF4
330
ACD3
100
AcDbEntity
  8
1
  6
Continuous
100
AcDbLine
 10
286.514114
 20
197.475209
 30
0.0
 11
284.5141139999999
 21
195.475209
 31
0.0
  0
LINE
  5
ADF5
330
ACD3
100
AcDbEntity
  8
1
  6
Continuous
100
AcDbLine
 10
286.514114
 20
195.475209
 30
0.0
 11
284.5141139999999
 21
193.475209
 31
0.0
  0
LINE
  5
ADF6
330
ACD3
100
AcDbEntity
  8
1
  6
Continuous
100
AcDbLine
 10
266.135711
 20
206.475209
 30
0.0
 11
266.135711
 21
184.475209
 31
0.0
  0
LINE
  5
ADF7
330
ACD3
100
AcDbEntity
  8
2
  6
Continuous
100
AcDbLine
 10
207.4
 20
198.798709
 30
0.0
 11
215.2
 21
198.798709
 31
0.0
  0
LINE
  5
ADF8
330
ACD3
100
AcDbEntity
  8
2
  6
Continuous
100
AcDbLine
 10
207.4
 20
192.151709
 30
0.0
 11
215.2
 21
192.151709
 31
0.0
  0
LINE
  5
ADF9
330
ACD3
100
AcDbEntity
  8
2
  6
Continuous
100
AcDbLine
 10
207.4
 20
192.151709
 30
0.0
 11
206.228268
 21
191.475209
 31
0.0
  0
LINE
  5
ADFA
330
ACD3
100
AcDbEntity
  8
2
  6
Continuous
100
AcDbLine
 10
207.4
 20
198.798709
 30
0.0
 11
206.228268
 21
199.475209
 31
0.0
  0
LINE
  5
ADFB
330
ACD3
100
AcDbEntity
  8
1
  6
Continuous
100
AcDbLine
 10
205.4
 20
195.263077
 30
0.0
 11
203.4
 21
195.263077
 31
0.0
  0
LINE
  5
ADFC
330
ACD3
100
AcDbEntity
  8
1
  6
Continuous
100
AcDbLine
 10
205.4
 20
195.687341
 30
0.0
 11
203.4
 21
195.687341
 31
0.0
  0
LINE
  5
ADFD
330
ACD3
100
AcDbEntity
  8
1
  6
Continuous
100
AcDbLine
 10
205.4
 20
200.919931
 30
0.0
 11
203.4
 21
200.919931
 31
0.0
  0
LINE
  5
ADFE
330
ACD3
100
AcDbEntity
  8
2
  6
Continuous
100
AcDbLine
 10
205.4
 20
190.030487
 30
0.0
 11
203.4
 21
192.681794
 31
0.0
  0
LINE
  5
ADFF
330
ACD3
100
AcDbEntity
  8
1
  6
Continuous
100
AcDbLine
 10
205.4
 20
190.030487
 30
0.0
 11
203.4
 21
190.030487
 31
0.0
  0
LINE
  5
AE00
330
ACD3
100
AcDbEntity
  8
1
  6
Continuous
100
AcDbLine
 10
203.2
 20
188.503704
 30
0.0
 11
201.2
 21
188.503704
 31
0.0
  0
LINE
  5
AE01
330
ACD3
100
AcDbEntity
  8
1
  6
Continuous
100
AcDbLine
 10
247.7866689999999
 20
207.875209
 30
0.0
 11
247.7866689999999
 21
183.075209
 31
0.0
  0
ARC
  5
AE02
330
ACD3
100
AcDbEntity
  8
1
  6
Continuous
100
AcDbCircle
 10
248.6866689999998
 20
207.875209
 30
0.0
 40
0.9
100
AcDbArc
 50
0.0
 51
180.0
  0
ARC
  5
AE03
330
ACD3
100
AcDbEntity
  8
1
  6
Continuous
100
AcDbCircle
 10
248.6866689999998
 20
183.075209
 30
0.0
 40
0.9
100
AcDbArc
 50
180.0
 51
0.0
  0
LINE
  5
AE04
330
ACD3
100
AcDbEntity
  8
4
  6
CENTER
100
AcDbLine
 10
243.896493
 20
89.0
 30
0.0
 11
296.866052
 21
89.0
 31
0.0
  0
LINE
  5
AE05
330
ACD3
100
AcDbEntity
  8
1
  6
Continuous
100
AcDbLine
 10
247.7866689999999
 20
101.4
 30
0.0
 11
247.7866689999999
 21
76.59999999999998
 31
0.0
  0
ARC
  5
AE06
330
ACD3
100
AcDbEntity
  8
1
  6
Continuous
100
AcDbCircle
 10
248.6866689999998
 20
76.59999999999998
 30
0.0
 40
0.9
100
AcDbArc
 50
180.0
 51
0.0
  0
ARC
  5
AE07
330
ACD3
100
AcDbEntity
  8
1
  6
Continuous
100
AcDbCircle
 10
248.6866689999998
 20
101.4
 30
0.0
 40
0.9
100
AcDbArc
 50
0.0
 51
180.0
  0
LINE
  5
AE08
330
ACD3
100
AcDbEntity
  8
1
  6
Continuous
100
AcDbLine
 10
286.514114
 20
89.0
 30
0.0
 11
284.5141139999999
 21
87.0
 31
0.0
  0
LINE
  5
AE09
330
ACD3
100
AcDbEntity
  8
1
  6
Continuous
100
AcDbLine
 10
286.514114
 20
91.0
 30
0.0
 11
284.5141139999999
 21
89.0
 31
0.0
  0
LINE
  5
AE0A
330
ACD3
100
AcDbEntity
  8
1
  6
Continuous
100
AcDbLine
 10
284.5141139999999
 20
96.70000000000001
 30
0.0
 11
284.5141139999999
 21
81.29999999999999
 31
0.0
  0
LINE
  5
AE0B
330
ACD3
100
AcDbEntity
  8
1
  6
Continuous
100
AcDbLine
 10
286.514114
 20
96.70000000000001
 30
0.0
 11
286.514114
 21
81.29999999999999
 31
0.0
  0
LINE
  5
AE0C
330
ACD3
100
AcDbEntity
  8
1
  6
Continuous
100
AcDbLine
 10
284.5141139999999
 20
96.70000000000001
 30
0.0
 11
286.514114
 21
96.70000000000001
 31
0.0
  0
LINE
  5
AE0D
330
ACD3
100
AcDbEntity
  8
1
  6
Continuous
100
AcDbLine
 10
284.5141139999999
 20
81.29999999999999
 30
0.0
 11
286.514114
 21
81.29999999999999
 31
0.0
  0
LINE
  5
AE0E
330
ACD3
100
AcDbEntity
  8
1
  6
Continuous
100
AcDbLine
 10
203.4
 20
97.66025400000003
 30
0.0
 11
203.4
 21
79.5
 31
0.0
  0
LINE
  5
AE0F
330
ACD3
100
AcDbEntity
  8
1
  6
Continuous
100
AcDbLine
 10
203.4
 20
200.475209
 30
0.0
 11
201.4
 21
200.475209
 31
0.0
  0
LINE
  5
AE10
330
ACD3
100
AcDbEntity
  8
1
  6
Continuous
100
AcDbLine
 10
203.4
 20
199.4252089999999
 30
0.0
 11
201.4
 21
199.4252089999999
 31
0.0
  0
LINE
  5
AE11
330
ACD3
100
AcDbEntity
  8
2
  6
Continuous
100
AcDbLine
 10
207.4
 20
92.3235
 30
0.0
 11
215.2
 21
92.3235
 31
0.0
  0
LINE
  5
AE12
330
ACD3
100
AcDbEntity
  8
1
  6
Continuous
100
AcDbLine
 10
214.6999999999999
 20
93.0
 30
0.0
 11
214.6999999999999
 21
85.0
 31
0.0
  0
LINE
  5
AE13
330
ACD3
100
AcDbEntity
  8
1
  6
Continuous
100
AcDbLine
 10
214.6999999999999
 20
93.0
 30
0.0
 11
215.2
 21
92.5
 31
0.0
  0
LINE
  5
AE14
330
ACD3
100
AcDbEntity
  8
1
  6
Continuous
100
AcDbLine
 10
205.4
 20
93.0
 30
0.0
 11
214.6999999999999
 21
93.0
 31
0.0
  0
LINE
  5
AE15
330
ACD3
100
AcDbEntity
  8
1
  6
Continuous
100
AcDbLine
 10
215.2
 20
92.5
 30
0.0
 11
215.2
 21
85.5
 31
0.0
  0
LINE
  5
AE16
330
ACD3
100
AcDbEntity
  8
2
  6
Continuous
100
AcDbLine
 10
207.4
 20
85.6765
 30
0.0
 11
215.2
 21
85.6765
 31
0.0
  0
LINE
  5
AE17
330
ACD3
100
AcDbEntity
  8
1
  6
Continuous
100
AcDbLine
 10
215.2
 20
85.5
 30
0.0
 11
214.6999999999999
 21
85.0
 31
0.0
  0
LINE
  5
AE18
330
ACD3
100
AcDbEntity
  8
1
  6
Continuous
100
AcDbLine
 10
205.4
 20
85.0
 30
0.0
 11
214.6999999999999
 21
85.0
 31
0.0
  0
LINE
  5
AE19
330
ACD3
100
AcDbEntity
  8
1
  6
Continuous
100
AcDbLine
 10
205.4
 20
94.44472199999998
 30
0.0
 11
203.4
 21
94.44472199999998
 31
0.0
  0
LINE
  5
AE1A
330
ACD3
100
AcDbEntity
  8
2
  6
Continuous
100
AcDbLine
 10
207.4
 20
92.3235
 30
0.0
 11
206.228268
 21
93.0
 31
0.0
  0
LINE
  5
AE1B
330
ACD3
100
AcDbEntity
  8
2
  6
Continuous
100
AcDbLine
 10
203.4
 20
91.79341499999999
 30
0.0
 11
205.4
 21
89.21213199999998
 31
0.0
  0
LINE
  5
AE1C
330
ACD3
100
AcDbEntity
  8
2
  6
Continuous
100
AcDbLine
 10
205.4
 20
94.44472199999998
 30
0.0
 11
203.4
 21
91.79341499999999
 31
0.0
  0
LINE
  5
AE1D
330
ACD3
100
AcDbEntity
  8
1
  6
Continuous
100
AcDbLine
 10
205.4
 20
94.44472199999998
 30
0.0
 11
205.4
 21
83.555278
 31
0.0
  0
LINE
  5
AE1E
330
ACD3
100
AcDbEntity
  8
1
  6
Continuous
100
AcDbLine
 10
207.4
 20
93.0
 30
0.0
 11
207.4
 21
85.0
 31
0.0
  0
LINE
  5
AE1F
330
ACD3
100
AcDbEntity
  8
1
  6
Continuous
100
AcDbLine
 10
205.4
 20
89.21213199999998
 30
0.0
 11
203.4
 21
89.21213199999998
 31
0.0
  0
LINE
  5
AE20
330
ACD3
100
AcDbEntity
  8
1
  6
Continuous
100
AcDbLine
 10
205.4
 20
88.787868
 30
0.0
 11
203.4
 21
88.787868
 31
0.0
  0
LINE
  5
AE21
330
ACD3
100
AcDbEntity
  8
1
  6
Continuous
100
AcDbLine
 10
205.4
 20
83.555278
 30
0.0
 11
203.4
 21
83.555278
 31
0.0
  0
LINE
  5
AE22
330
ACD3
100
AcDbEntity
  8
2
  6
Continuous
100
AcDbLine
 10
205.4
 20
83.555278
 30
0.0
 11
203.4
 21
86.20658500000002
 31
0.0
  0
LINE
  5
AE23
330
ACD3
100
AcDbEntity
  8
2
  6
Continuous
100
AcDbLine
 10
207.4
 20
85.6765
 30
0.0
 11
206.228268
 21
85.0
 31
0.0
  0
LINE
  5
AE24
330
ACD3
100
AcDbEntity
  8
2
  6
Continuous
100
AcDbLine
 10
203.4
 20
86.20658500000002
 30
0.0
 11
205.4
 21
88.787868
 31
0.0
  0
LINE
  5
AE25
330
ACD3
100
AcDbEntity
  8
1
  6
Continuous
100
AcDbLine
 10
253.586669
 20
204.7128129999999
 30
0.0
 11
249.586669
 21
204.7128129999999
 31
0.0
  0
LINE
  5
AE26
330
ACD3
100
AcDbEntity
  8
1
  6
Continuous
100
AcDbLine
 10
253.586669
 20
186.2376049999998
 30
0.0
 11
249.586669
 21
186.2376049999998
 31
0.0
  0
LINE
  5
AE27
330
ACD3
100
AcDbEntity
  8
1
  6
Continuous
100
AcDbLine
 10
406.279194
 20
184.475209
 30
0.0
 11
358.279194
 21
184.475209
 31
0.0
  0
LINE
  5
AE28
330
ACD3
100
AcDbEntity
  8
1
  6
Continuous
100
AcDbLine
 10
406.279194
 20
206.475209
 30
0.0
 11
358.279194
 21
206.475209
 31
0.0
  0
LINE
  5
AE29
330
ACD3
100
AcDbEntity
  8
1
  6
Continuous
100
AcDbLine
 10
406.279194
 20
206.475209
 30
0.0
 11
406.279194
 21
184.475209
 31
0.0
  0
LINE
  5
AE2A
330
ACD3
100
AcDbEntity
  8
4
  6
CENTER
100
AcDbLine
 10
410.62623
 20
195.475209
 30
0.0
 11
336.85867
 21
195.475209
 31
0.0
  0
CIRCLE
  5
AE2B
330
ACD3
100
AcDbEntity
  8
1
  6
Continuous
100
AcDbCircle
 10
358.279194
 20
195.475209
 30
0.0
 40
7.7
  0
CIRCLE
  5
AE2C
330
ACD3
100
AcDbEntity
  8
1
  6
Continuous
100
AcDbCircle
 10
358.279194
 20
195.475209
 30
0.0
 40
6.5
  0
LINE
  5
AE2D
330
ACD3
100
AcDbEntity
  8
1
  6
Continuous
100
AcDbLine
 10
364.779194
 20
199.2282089999999
 30
0.0
 11
364.779194
 21
191.7222089999999
 31
0.0
  0
LINE
  5
AE2E
330
ACD3
100
AcDbEntity
  8
1
  6
Continuous
100
AcDbLine
 10
358.279194
 20
187.9692089999998
 30
0.0
 11
364.779194
 21
191.7222089999999
 31
0.0
  0
LINE
  5
AE2F
330
ACD3
100
AcDbEntity
  8
1
  6
Continuous
100
AcDbLine
 10
351.779194
 20
191.7222089999999
 30
0.0
 11
358.279194
 21
187.9692089999998
 31
0.0
  0
LINE
  5
AE30
330
ACD3
100
AcDbEntity
  8
1
  6
Continuous
100
AcDbLine
 10
358.279194
 20
202.980209
 30
0.0
 11
364.779194
 21
199.2282089999999
 31
0.0
  0
LINE
  5
AE31
330
ACD3
100
AcDbEntity
  8
1
  6
Continuous
100
AcDbLine
 10
351.779194
 20
199.2282089999999
 30
0.0
 11
358.279194
 21
202.980209
 31
0.0
  0
LINE
  5
AE32
330
ACD3
100
AcDbEntity
  8
1
  6
Continuous
100
AcDbLine
 10
351.779194
 20
199.2282089999999
 30
0.0
 11
351.779194
 21
191.7222089999999
 31
0.0
  0
LINE
  5
AE33
330
ACD3
100
AcDbEntity
  8
1
  6
Continuous
100
AcDbLine
 10
544.2848999999998
 20
188.503704
 30
0.0
 11
546.2849
 21
188.503704
 31
0.0
  0
LINE
  5
AE34
330
ACD3
100
AcDbEntity
  8
1
  6
Continuous
100
AcDbLine
 10
544.0848999999998
 20
204.975209
 30
0.0
 11
546.0848999999998
 21
204.975209
 31
0.0
  0
LINE
  5
AE35
330
ACD3
100
AcDbEntity
  8
1
  6
Continuous
100
AcDbLine
 10
546.2849
 20
185.475209
 30
0.0
 11
544.2848999999998
 21
185.475209
 31
0.0
  0
LINE
  5
AE36
330
ACD3
100
AcDbEntity
  8
4
  6
CENTER
100
AcDbLine
 10
589.4849
 20
195.475209
 30
0.0
 11
529.2849
 21
195.475209
 31
0.0
  0
LINE
  5
AE37
330
ACD3
100
AcDbEntity
  8
1
  6
Continuous
100
AcDbLine
 10
582.2848999999997
 20
178.475209
 30
0.0
 11
582.2848999999997
 21
212.4752089999998
 31
0.0
  0
LINE
  5
AE38
330
ACD3
100
AcDbEntity
  8
1
  6
Continuous
100
AcDbLine
 10
575.7849
 20
212.4752089999998
 30
0.0
 11
575.7849
 21
178.475209
 31
0.0
  0
LINE
  5
AE39
330
ACD3
100
AcDbEntity
  8
1
  6
Continuous
100
AcDbLine
 10
585.2848999999999
 20
179.275209
 30
0.0
 11
585.2848999999999
 21
211.6752089999998
 31
0.0
  0
LINE
  5
AE3A
330
ACD3
100
AcDbEntity
  8
1
  6
Continuous
100
AcDbLine
 10
576.7849
 20
212.4752089999998
 30
0.0
 11
576.7849
 21
178.475209
 31
0.0
  0
LINE
  5
AE3B
330
ACD3
100
AcDbEntity
  8
1
  6
Continuous
100
AcDbLine
 10
578.2848999999997
 20
212.4752089999998
 30
0.0
 11
578.2848999999997
 21
178.475209
 31
0.0
  0
LINE
  5
AE3C
330
ACD3
100
AcDbEntity
  8
2
  6
Continuous
100
AcDbLine
 10
574.4849
 20
185.2872089999999
 30
0.0
 11
546.4729
 21
185.2872089999999
 31
0.0
  0
LINE
  5
AE3D
330
ACD3
100
AcDbEntity
  8
2
  6
Continuous
100
AcDbLine
 10
574.4849
 20
205.6632089999999
 30
0.0
 11
546.4729
 21
205.6632089999999
 31
0.0
  0
LINE
  5
AE3E
330
ACD3
100
AcDbEntity
  8
1
  6
Continuous
100
AcDbLine
 10
575.7849
 20
206.475209
 30
0.0
 11
547.2849
 21
206.475209
 31
0.0
  0
LINE
  5
AE3F
330
ACD3
100
AcDbEntity
  8
1
  6
Continuous
100
AcDbLine
 10
575.7849
 20
184.475209
 30
0.0
 11
547.2849
 21
184.475209
 31
0.0
  0
LINE
  5
AE40
330
ACD3
100
AcDbEntity
  8
1
  6
Continuous
100
AcDbLine
 10
547.2849
 20
201.020477
 30
0.0
 11
575.7849
 21
201.020477
 31
0.0
  0
LINE
  5
AE41
330
ACD3
100
AcDbEntity
  8
1
  6
Continuous
100
AcDbLine
 10
547.2849
 20
189.9299409999999
 30
0.0
 11
575.7849
 21
189.9299409999999
 31
0.0
  0
LINE
  5
AE42
330
ACD3
100
AcDbEntity
  8
2
  6
Continuous
100
AcDbLine
 10
575.7849
 20
190.4735949999999
 30
0.0
 11
547.2849
 21
201.020477
 31
0.0
  0
LINE
  5
AE43
330
ACD3
100
AcDbEntity
  8
2
  6
Continuous
100
AcDbLine
 10
547.2849
 20
189.9299409999999
 30
0.0
 11
575.7849
 21
200.4768229999998
 31
0.0
  0
LINE
  5
AE44
330
ACD3
100
AcDbEntity
  8
1
  6
Continuous
100
AcDbLine
 10
574.4849
 20
184.475209
 30
0.0
 11
574.4849
 21
189.9299409999999
 31
0.0
  0
LINE
  5
AE45
330
ACD3
100
AcDbEntity
  8
2
  6
Continuous
100
AcDbLine
 10
574.4849
 20
185.2872089999999
 30
0.0
 11
575.7849
 21
184.536654
 31
0.0
  0
ARC
  5
AE46
330
ACD3
100
AcDbEntity
  8
1
  6
Continuous
100
AcDbCircle
 10
584.4849
 20
179.275209
 30
0.0
 40
0.8
100
AcDbArc
 50
270.0
 51
0.0
  0
LINE
  5
AE47
330
ACD3
100
AcDbEntity
  8
1
  6
Continuous
100
AcDbLine
 10
584.4849
 20
178.475209
 30
0.0
 11
575.7849
 21
178.475209
 31
0.0
  0
LINE
  5
AE48
330
ACD3
100
AcDbEntity
  8
2
  6
Continuous
100
AcDbLine
 10
574.4849
 20
205.6632089999999
 30
0.0
 11
575.7849
 21
206.4137639999999
 31
0.0
  0
ARC
  5
AE49
330
ACD3
100
AcDbEntity
  8
1
  6
Continuous
100
AcDbCircle
 10
581.6706139999999
 20
195.475209
 30
0.0
 40
4.814286
100
AcDbArc
 50
328.715507
 51
31.284493
  0
LINE
  5
AE4A
330
ACD3
100
AcDbEntity
  8
1
  6
Continuous
100
AcDbLine
 10
585.7848999999998
 20
192.975209
 30
0.0
 11
585.7848999999998
 21
197.975209
 31
0.0
  0
LINE
  5
AE4B
330
ACD3
100
AcDbEntity
  8
1
  6
Continuous
100
AcDbLine
 10
585.7848999999998
 20
197.975209
 30
0.0
 11
585.2848999999999
 21
197.975209
 31
0.0
  0
LINE
  5
AE4C
330
ACD3
100
AcDbEntity
  8
1
  6
Continuous
100
AcDbLine
 10
585.7848999999998
 20
192.975209
 30
0.0
 11
585.2848999999999
 21
192.975209
 31
0.0
  0
LINE
  5
AE4D
330
ACD3
100
AcDbEntity
  8
1
  6
Continuous
100
AcDbLine
 10
574.4849
 20
201.020477
 30
0.0
 11
574.4849
 21
206.475209
 31
0.0
  0
LINE
  5
AE4E
330
ACD3
100
AcDbEntity
  8
1
  6
Continuous
100
AcDbLine
 10
573.7848999999997
 20
196.975209
 30
0.0
 11
573.7848999999997
 21
193.9752089999998
 31
0.0
  0
LINE
  5
AE4F
330
ACD3
100
AcDbEntity
  8
1
  6
Continuous
100
AcDbLine
 10
575.7849
 20
196.975209
 30
0.0
 11
573.7848999999997
 21
196.975209
 31
0.0
  0
LINE
  5
AE50
330
ACD3
100
AcDbEntity
  8
1
  6
Continuous
100
AcDbLine
 10
575.7849
 20
193.9752089999998
 30
0.0
 11
573.7848999999997
 21
193.9752089999998
 31
0.0
  0
LINE
  5
AE51
330
ACD3
100
AcDbEntity
  8
1
  6
Continuous
100
AcDbLine
 10
546.2849
 20
185.475209
 30
0.0
 11
546.2849
 21
205.475209
 31
0.0
  0
LINE
  5
AE52
330
ACD3
100
AcDbEntity
  8
1
  6
Continuous
100
AcDbLine
 10
547.2849
 20
184.475209
 30
0.0
 11
547.2849
 21
189.9299409999999
 31
0.0
  0
LINE
  5
AE53
330
ACD3
100
AcDbEntity
  8
1
  6
Continuous
100
AcDbLine
 10
546.2849
 20
185.475209
 30
0.0
 11
547.2849
 21
184.475209
 31
0.0
  0
LINE
  5
AE54
330
ACD3
100
AcDbEntity
  8
1
  6
Continuous
100
AcDbLine
 10
547.2849
 20
201.020477
 30
0.0
 11
547.2849
 21
206.475209
 31
0.0
  0
LINE
  5
AE55
330
ACD3
100
AcDbEntity
  8
1
  6
Continuous
100
AcDbLine
 10
547.2849
 20
206.475209
 30
0.0
 11
546.2849
 21
205.475209
 31
0.0
  0
ARC
  5
AE56
330
ACD3
100
AcDbEntity
  8
1
  6
Continuous
100
AcDbCircle
 10
557.2848999999998
 20
195.475209
 30
0.0
 40
11.43459699999998
100
AcDbArc
 50
150.990456
 51
164.1526889999999
  0
ARC
  5
AE57
330
ACD3
100
AcDbEntity
  8
1
  6
Continuous
100
AcDbCircle
 10
557.2848999999998
 20
195.475209
 30
0.0
 40
11.43459699999998
100
AcDbArc
 50
195.8473109999999
 51
209.009544
  0
LINE
  5
AE58
330
ACD3
100
AcDbEntity
  8
1
  6
Continuous
100
AcDbLine
 10
546.0848999999998
 20
188.503705
 30
0.0
 11
546.2849
 21
188.503705
 31
0.0
  0
LINE
  5
AE59
330
ACD3
100
AcDbEntity
  8
1
  6
Continuous
100
AcDbLine
 10
546.0848999999998
 20
204.975209
 30
0.0
 11
546.0848999999998
 21
188.503704
 31
0.0
  0
LINE
  5
AE5A
330
ACD3
100
AcDbEntity
  8
1
  6
Continuous
100
AcDbLine
 10
546.0848999999998
 20
203.1752089999999
 30
0.0
 11
546.2849
 21
203.375209
 31
0.0
  0
ARC
  5
AE5B
330
ACD3
100
AcDbEntity
  8
1
  6
Continuous
100
AcDbCircle
 10
584.4849
 20
211.6752089999998
 30
0.0
 40
0.8
100
AcDbArc
 50
0.0
 51
90.0
  0
LINE
  5
AE5C
330
ACD3
100
AcDbEntity
  8
1
  6
Continuous
100
AcDbLine
 10
584.4849
 20
212.4752089999998
 30
0.0
 11
575.7849
 21
212.4752089999998
 31
0.0
  0
LINE
  5
AE5D
330
ACD3
100
AcDbEntity
  8
4
  6
CENTER
100
AcDbLine
 10
503.588407
 20
195.475209
 30
0.0
 11
450.618849
 21
195.475209
 31
0.0
  0
LINE
  5
AE5E
330
ACD3
100
AcDbEntity
  8
1
  6
Continuous
100
AcDbLine
 10
493.8982309999998
 20
213.950418
 30
0.0
 11
493.8982309999998
 21
177.0
 31
0.0
  0
LINE
  5
AE5F
330
ACD3
100
AcDbEntity
  8
1
  6
Continuous
100
AcDbLine
 10
497.8982309999998
 20
213.950418
 30
0.0
 11
497.8982309999998
 21
177.0
 31
0.0
  0
LINE
  5
AE60
330
ACD3
100
AcDbEntity
  8
1
  6
Continuous
100
AcDbLine
 10
544.0848999999998
 20
204.975209
 30
0.0
 11
544.0848999999998
 21
186.814955
 31
0.0
  0
LINE
  5
AE61
330
ACD3
100
AcDbEntity
  8
1
  6
Continuous
100
AcDbLine
 10
544.2848999999998
 20
185.475209
 30
0.0
 11
544.2848999999998
 21
188.503704
 31
0.0
  0
LINE
  5
AE62
330
ACD3
100
AcDbEntity
  8
1
  6
Continuous
100
AcDbLine
 10
544.0848999999998
 20
186.814955
 30
0.0
 11
544.2848999999998
 21
186.814955
 31
0.0
  0
LINE
  5
AE63
330
ACD3
100
AcDbEntity
  8
1
  6
Continuous
100
AcDbLine
 10
542.0848999999998
 20
190.030487
 30
0.0
 11
544.0848999999998
 21
190.030487
 31
0.0
  0
LINE
  5
AE64
330
ACD3
100
AcDbEntity
  8
2
  6
Continuous
100
AcDbLine
 10
542.0848999999998
 20
190.030487
 30
0.0
 11
544.0848999999998
 21
192.681794
 31
0.0
  0
LINE
  5
AE65
330
ACD3
100
AcDbEntity
  8
1
  6
Continuous
100
AcDbLine
 10
542.0848999999998
 20
200.919931
 30
0.0
 11
544.0848999999998
 21
200.919931
 31
0.0
  0
LINE
  5
AE66
330
ACD3
100
AcDbEntity
  8
1
  6
Continuous
100
AcDbLine
 10
542.0848999999998
 20
195.687341
 30
0.0
 11
544.0848999999998
 21
195.687341
 31
0.0
  0
LINE
  5
AE67
330
ACD3
100
AcDbEntity
  8
1
  6
Continuous
100
AcDbLine
 10
542.0848999999998
 20
195.263077
 30
0.0
 11
544.0848999999998
 21
195.263077
 31
0.0
  0
LINE
  5
AE68
330
ACD3
100
AcDbEntity
  8
2
  6
Continuous
100
AcDbLine
 10
540.0849
 20
198.798709
 30
0.0
 11
541.2566329999998
 21
199.475209
 31
0.0
  0
LINE
  5
AE69
330
ACD3
100
AcDbEntity
  8
2
  6
Continuous
100
AcDbLine
 10
540.0849
 20
192.151709
 30
0.0
 11
541.2566329999998
 21
191.475209
 31
0.0
  0
LINE
  5
AE6A
330
ACD3
100
AcDbEntity
  8
2
  6
Continuous
100
AcDbLine
 10
540.0849
 20
192.151709
 30
0.0
 11
532.2848999999998
 21
192.151709
 31
0.0
  0
LINE
  5
AE6B
330
ACD3
100
AcDbEntity
  8
2
  6
Continuous
100
AcDbLine
 10
540.0849
 20
198.798709
 30
0.0
 11
532.2848999999998
 21
198.798709
 31
0.0
  0
LINE
  5
AE6C
330
ACD3
100
AcDbEntity
  8
2
  6
Continuous
100
AcDbLine
 10
544.0848999999998
 20
192.681794
 30
0.0
 11
542.0848999999998
 21
195.263077
 31
0.0
  0
LINE
  5
AE6D
330
ACD3
100
AcDbEntity
  8
2
  6
Continuous
100
AcDbLine
 10
544.0848999999998
 20
198.2686239999999
 30
0.0
 11
542.0848999999998
 21
195.687341
 31
0.0
  0
LINE
  5
AE6E
330
ACD3
100
AcDbEntity
  8
2
  6
Continuous
100
AcDbLine
 10
542.0848999999998
 20
200.919931
 30
0.0
 11
544.0848999999998
 21
198.2686239999999
 31
0.0
  0
LINE
  5
AE6F
330
ACD3
100
AcDbEntity
  8
1
  6
Continuous
100
AcDbLine
 10
542.0848999999998
 20
200.919931
 30
0.0
 11
542.0848999999998
 21
190.030487
 31
0.0
  0
LINE
  5
AE70
330
ACD3
100
AcDbEntity
  8
1
  6
Continuous
100
AcDbLine
 10
540.0849
 20
199.475209
 30
0.0
 11
540.0849
 21
191.475209
 31
0.0
  0
LINE
  5
AE71
330
ACD3
100
AcDbEntity
  8
1
  6
Continuous
100
AcDbLine
 10
532.7848999999998
 20
199.475209
 30
0.0
 11
532.7848999999998
 21
191.475209
 31
0.0
  0
LINE
  5
AE72
330
ACD3
100
AcDbEntity
  8
1
  6
Continuous
100
AcDbLine
 10
532.2848999999998
 20
191.975209
 30
0.0
 11
532.7848999999998
 21
191.475209
 31
0.0
  0
LINE
  5
AE73
330
ACD3
100
AcDbEntity
  8
1
  6
Continuous
100
AcDbLine
 10
532.7848999999998
 20
199.475209
 30
0.0
 11
532.2848999999998
 21
198.9752089999998
 31
0.0
  0
LINE
  5
AE74
330
ACD3
100
AcDbEntity
  8
1
  6
Continuous
100
AcDbLine
 10
542.0848999999998
 20
191.475209
 30
0.0
 11
532.7848999999998
 21
191.475209
 31
0.0
  0
LINE
  5
AE75
330
ACD3
100
AcDbEntity
  8
1
  6
Continuous
100
AcDbLine
 10
542.0848999999998
 20
199.475209
 30
0.0
 11
532.7848999999998
 21
199.475209
 31
0.0
  0
LINE
  5
AE76
330
ACD3
100
AcDbEntity
  8
1
  6
Continuous
100
AcDbLine
 10
532.2848999999998
 20
198.9752089999998
 30
0.0
 11
532.2848999999998
 21
191.975209
 31
0.0
  0
LINE
  5
AE77
330
ACD3
100
AcDbEntity
  8
1
  6
Continuous
100
AcDbLine
 10
499.6982309999999
 20
207.875209
 30
0.0
 11
499.6982309999999
 21
183.075209
 31
0.0
  0
LINE
  5
AE78
330
ACD3
100
AcDbEntity
  8
1
  6
Continuous
100
AcDbLine
 10
493.8982309999998
 20
186.2376049999998
 30
0.0
 11
497.8982309999998
 21
186.2376049999998
 31
0.0
  0
ARC
  5
AE79
330
ACD3
100
AcDbEntity
  8
1
  6
Continuous
100
AcDbCircle
 10
498.7982309999998
 20
183.075209
 30
0.0
 40
0.9
100
AcDbArc
 50
180.0
 51
0.0
  0
LINE
  5
AE7A
330
ACD3
100
AcDbEntity
  8
1
  6
Continuous
100
AcDbLine
 10
493.8982309999998
 20
204.7128129999999
 30
0.0
 11
497.8982309999998
 21
204.7128129999999
 31
0.0
  0
ARC
  5
AE7B
330
ACD3
100
AcDbEntity
  8
1
  6
Continuous
100
AcDbCircle
 10
498.7982309999998
 20
207.875209
 30
0.0
 40
0.9
100
AcDbArc
 50
0.0
 51
180.0
  0
LINE
  5
AE7C
330
ACD3
100
AcDbEntity
  8
1
  6
Continuous
100
AcDbLine
 10
481.3491889999998
 20
206.475209
 30
0.0
 11
481.3491889999998
 21
184.475209
 31
0.0
  0
LINE
  5
AE7D
330
ACD3
100
AcDbEntity
  8
1
  6
Continuous
100
AcDbLine
 10
474.8491889999998
 20
206.475209
 30
0.0
 11
474.8491889999998
 21
184.475209
 31
0.0
  0
LINE
  5
AE7E
330
ACD3
100
AcDbEntity
  8
1
  6
Continuous
100
AcDbLine
 10
481.3491889999998
 20
184.475209
 30
0.0
 11
474.8491889999998
 21
184.475209
 31
0.0
  0
LINE
  5
AE7F
330
ACD3
100
AcDbEntity
  8
1
  6
Continuous
100
AcDbLine
 10
481.3491889999998
 20
206.475209
 30
0.0
 11
474.8491889999998
 21
206.475209
 31
0.0
  0
LINE
  5
AE80
330
ACD3
100
AcDbEntity
  8
1
  6
Continuous
100
AcDbLine
 10
460.970787
 20
195.475209
 30
0.0
 11
462.9707869999998
 21
197.475209
 31
0.0
  0
LINE
  5
AE81
330
ACD3
100
AcDbEntity
  8
1
  6
Continuous
100
AcDbLine
 10
460.970787
 20
193.475209
 30
0.0
 11
462.9707869999998
 21
195.475209
 31
0.0
  0
LINE
  5
AE82
330
ACD3
100
AcDbEntity
  8
1
  6
Continuous
100
AcDbLine
 10
462.9707869999998
 20
203.1752089999999
 30
0.0
 11
462.9707869999998
 21
187.7752089999999
 31
0.0
  0
LINE
  5
AE83
330
ACD3
100
AcDbEntity
  8
1
  6
Continuous
100
AcDbLine
 10
460.970787
 20
203.1752089999999
 30
0.0
 11
460.970787
 21
187.7752089999999
 31
0.0
  0
LINE
  5
AE84
330
ACD3
100
AcDbEntity
  8
1
  6
Continuous
100
AcDbLine
 10
462.9707869999998
 20
203.1752089999999
 30
0.0
 11
460.970787
 21
203.1752089999999
 31
0.0
  0
LINE
  5
AE85
330
ACD3
100
AcDbEntity
  8
1
  6
Continuous
100
AcDbLine
 10
462.9707869999998
 20
187.7752089999999
 30
0.0
 11
460.970787
 21
187.7752089999999
 31
0.0
  0
ARC
  5
AE86
330
ACD3
100
AcDbEntity
  8
1
  6
Continuous
100
AcDbCircle
 10
461.2610099999998
 20
201.975197
 30
0.0
 40
6.790222999999999
100
AcDbArc
 50
180.0
 51
203.8650239999999
  0
ARC
  5
AE87
330
ACD3
100
AcDbEntity
  8
1
  6
Continuous
100
AcDbCircle
 10
461.2610099999998
 20
188.975221
 30
0.0
 40
6.790222999999999
100
AcDbArc
 50
156.1349759999998
 51
180.0
  0
ARC
  5
AE88
330
ACD3
100
AcDbEntity
  8
1
  6
Continuous
100
AcDbCircle
 10
466.89023
 20
195.475209
 30
0.0
 40
12.419443
100
AcDbArc
 50
162.412046
 51
197.5879539999999
  0
LINE
  5
AE89
330
ACD3
100
AcDbEntity
  8
1
  6
Continuous
100
AcDbLine
 10
454.4707869999998
 20
188.9752089999998
 30
0.0
 11
455.0513429999998
 21
187.969656
 31
0.0
  0
LINE
  5
AE8A
330
ACD3
100
AcDbEntity
  8
1
  6
Continuous
100
AcDbLine
 10
454.4707869999998
 20
201.9752089999999
 30
0.0
 11
455.0513429999998
 21
202.980763
 31
0.0
  0
LINE
  5
AE8B
330
ACD3
100
AcDbEntity
  8
1
  6
Continuous
100
AcDbLine
 10
454.4707869999998
 20
201.9752089999999
 30
0.0
 11
454.4707869999998
 21
188.9752089999998
 31
0.0
  0
LINE
  5
AE8C
330
ACD3
100
AcDbEntity
  8
1
  6
Continuous
100
AcDbLine
 10
455.0513429999998
 20
191.722432
 30
0.0
 11
460.970787
 21
191.722432
 31
0.0
  0
LINE
  5
AE8D
330
ACD3
100
AcDbEntity
  8
1
  6
Continuous
100
AcDbLine
 10
455.0513429999998
 20
199.227986
 30
0.0
 11
460.970787
 21
199.227986
 31
0.0
  0
LINE
  5
AE8E
330
ACD3
100
AcDbEntity
  8
1
  6
Continuous
100
AcDbLine
 10
455.0513429999998
 20
187.969656
 30
0.0
 11
460.970787
 21
187.969656
 31
0.0
  0
LINE
  5
AE8F
330
ACD3
100
AcDbEntity
  8
1
  6
Continuous
100
AcDbLine
 10
455.0513429999998
 20
202.980763
 30
0.0
 11
460.970787
 21
202.980763
 31
0.0
  0
LINE
  5
AE90
330
ACD3
100
AcDbEntity
  8
1
  6
Continuous
100
AcDbLine
 10
544.0848999999998
 20
192.35271
 30
0.0
 11
546.0848999999998
 21
192.35271
 31
0.0
  0
LINE
  5
AE91
330
ACD3
100
AcDbEntity
  8
1
  6
Continuous
100
AcDbLine
 10
544.0848999999998
 20
198.5977079999999
 30
0.0
 11
546.0848999999998
 21
198.5977079999999
 31
0.0
  0
LINE
  5
AE92
330
ACD3
100
AcDbEntity
  8
1
  6
Continuous
100
AcDbLine
 10
203.4
 20
311.450418
 30
0.0
 11
201.4
 21
311.450418
 31
0.0
  0
LINE
  5
AE93
330
ACD3
100
AcDbEntity
  8
1
  6
Continuous
100
AcDbLine
 10
203.4
 20
293.290164
 30
0.0
 11
201.4
 21
293.290164
 31
0.0
  0
LINE
  5
AE94
330
ACD3
100
AcDbEntity
  8
4
  6
CENTER
100
AcDbLine
 10
158.0
 20
301.950418
 30
0.0
 11
218.1999999999999
 21
301.950418
 31
0.0
  0
ARC
  5
AE95
330
ACD3
100
AcDbEntity
  8
1
  6
Continuous
100
AcDbCircle
 10
165.814286
 20
314.950418
 30
0.0
 40
4.814286
100
AcDbArc
 50
148.715507
 51
211.284493
  0
LINE
  5
AE96
330
ACD3
100
AcDbEntity
  8
1
  6
Continuous
100
AcDbLine
 10
161.6999999999999
 20
312.450418
 30
0.0
 11
161.6999999999999
 21
317.450418
 31
0.0
  0
LINE
  5
AE97
330
ACD3
100
AcDbEntity
  8
1
  6
Continuous
100
AcDbLine
 10
165.1999999999999
 20
284.950418
 30
0.0
 11
165.1999999999999
 21
318.950418
 31
0.0
  0
LINE
  5
AE98
330
ACD3
100
AcDbEntity
  8
1
  6
Continuous
100
AcDbLine
 10
170.6999999999998
 20
284.950418
 30
0.0
 11
170.6999999999998
 21
318.950418
 31
0.0
  0
LINE
  5
AE99
330
ACD3
100
AcDbEntity
  8
1
  6
Continuous
100
AcDbLine
 10
171.6999999999998
 20
284.950418
 30
0.0
 11
171.6999999999998
 21
318.950418
 31
0.0
  0
LINE
  5
AE9A
330
ACD3
100
AcDbEntity
  8
1
  6
Continuous
100
AcDbLine
 10
169.1999999999999
 20
284.950418
 30
0.0
 11
169.1999999999999
 21
318.950418
 31
0.0
  0
LINE
  5
AE9B
330
ACD3
100
AcDbEntity
  8
1
  6
Continuous
100
AcDbLine
 10
162.1999999999998
 20
285.750418
 30
0.0
 11
162.1999999999998
 21
318.150418
 31
0.0
  0
LINE
  5
AE9C
330
ACD3
100
AcDbEntity
  8
4
  6
CENTER
100
AcDbLine
 10
168.6999999999999
 20
315.950418
 30
0.0
 11
175.1999999999999
 21
315.950418
 31
0.0
  0
ARC
  5
AE9D
330
ACD3
100
AcDbEntity
  8
1
  6
Continuous
100
AcDbCircle
 10
163.0
 20
318.150418
 30
0.0
 40
0.8
100
AcDbArc
 50
90.0
 51
180.0
  0
LINE
  5
AE9E
330
ACD3
100
AcDbEntity
  8
1
  6
Continuous
100
AcDbLine
 10
161.6999999999999
 20
317.450418
 30
0.0
 11
162.1999999999998
 21
317.450418
 31
0.0
  0
LINE
  5
AE9F
330
ACD3
100
AcDbEntity
  8
4
  6
CENTER
100
AcDbLine
 10
159.4999999999998
 20
314.950418
 30
0.0
 11
166.1999999999999
 21
314.950418
 31
0.0
  0
LINE
  5
AEA0
330
ACD3
100
AcDbEntity
  8
1
  6
Continuous
100
AcDbLine
 10
171.6999999999998
 20
317.450418
 30
0.0
 11
173.6999999999999
 21
317.450418
 31
0.0
  0
LINE
  5
AEA1
330
ACD3
100
AcDbEntity
  8
1
  6
Continuous
100
AcDbLine
 10
171.6999999999998
 20
314.450418
 30
0.0
 11
173.6999999999999
 21
314.450418
 31
0.0
  0
LINE
  5
AEA2
330
ACD3
100
AcDbEntity
  8
1
  6
Continuous
100
AcDbLine
 10
173.6999999999999
 20
314.450418
 30
0.0
 11
173.6999999999999
 21
317.450418
 31
0.0
  0
LINE
  5
AEA3
330
ACD3
100
AcDbEntity
  8
1
  6
Continuous
100
AcDbLine
 10
163.0
 20
318.950418
 30
0.0
 11
171.6999999999998
 21
318.950418
 31
0.0
  0
LINE
  5
AEA4
330
ACD3
100
AcDbEntity
  8
1
  6
Continuous
100
AcDbLine
 10
171.6999999999998
 20
311.450418
 30
0.0
 11
201.2
 21
311.450418
 31
0.0
  0
LINE
  5
AEA5
330
ACD3
100
AcDbEntity
  8
1
  6
Continuous
100
AcDbLine
 10
171.6999999999998
 20
292.4504179999999
 30
0.0
 11
201.2
 21
292.4504179999999
 31
0.0
  0
LINE
  5
AEA6
330
ACD3
100
AcDbEntity
  8
1
  6
Continuous
100
AcDbLine
 10
161.6999999999999
 20
312.450418
 30
0.0
 11
162.1999999999998
 21
312.450418
 31
0.0
  0
LINE
  5
AEA7
330
ACD3
100
AcDbEntity
  8
1
  6
Continuous
100
AcDbLine
 10
173.0
 20
292.4504179999999
 30
0.0
 11
173.0
 21
311.450418
 31
0.0
  0
ARC
  5
AEA8
330
ACD3
100
AcDbEntity
  8
1
  6
Continuous
100
AcDbCircle
 10
163.0
 20
285.750418
 30
0.0
 40
0.8
100
AcDbArc
 50
180.0
 51
270.0
  0
LINE
  5
AEA9
330
ACD3
100
AcDbEntity
  8
1
  6
Continuous
100
AcDbLine
 10
163.0
 20
284.950418
 30
0.0
 11
171.6999999999998
 21
284.950418
 31
0.0
  0
LINE
  5
AEAA
330
ACD3
100
AcDbEntity
  8
1
  6
Continuous
100
AcDbLine
 10
201.4
 20
294.250418
 30
0.0
 11
201.2
 21
294.0504179999999
 31
0.0
  0
LINE
  5
AEAB
330
ACD3
100
AcDbEntity
  8
1
  6
Continuous
100
AcDbLine
 10
201.4
 20
311.450418
 30
0.0
 11
201.4
 21
293.290164
 31
0.0
  0
LINE
  5
AEAC
330
ACD3
100
AcDbEntity
  8
1
  6
Continuous
100
AcDbLine
 10
201.4
 20
309.650418
 30
0.0
 11
201.2
 21
309.8504179999999
 31
0.0
  0
LINE
  5
AEAD
330
ACD3
100
AcDbEntity
  8
1
  6
Continuous
100
AcDbLine
 10
201.2
 20
292.4504179999999
 30
0.0
 11
201.2
 21
311.450418
 31
0.0
  0
LINE
  5
AEAE
330
ACD3
100
AcDbEntity
  8
1
  6
Continuous
100
AcDbLine
 10
200.1999999999999
 20
292.4504179999999
 30
0.0
 11
200.1999999999999
 21
311.450418
 31
0.0
  0
LINE
  5
AEAF
330
ACD3
100
AcDbEntity
  8
1
  6
Continuous
100
AcDbLine
 10
247.7866689999999
 20
289.5504179999999
 30
0.0
 11
247.7866689999999
 21
314.3504179999998
 31
0.0
  0
LINE
  5
AEB0
330
ACD3
100
AcDbEntity
  8
1
  6
Continuous
100
AcDbLine
 10
249.586669
 20
317.950418
 30
0.0
 11
249.586669
 21
285.950418
 31
0.0
  0
LINE
  5
AEB1
330
ACD3
100
AcDbEntity
  8
1
  6
Continuous
100
AcDbLine
 10
253.586669
 20
317.950418
 30
0.0
 11
253.586669
 21
285.950418
 31
0.0
  0
LINE
  5
AEB2
330
ACD3
100
AcDbEntity
  8
1
  6
Continuous
100
AcDbLine
 10
269.635711
 20
346.950418
 30
0.0
 11
269.635711
 21
290.950418
 31
0.0
  0
LINE
  5
AEB3
330
ACD3
100
AcDbEntity
  8
1
  6
Continuous
100
AcDbLine
 10
272.635711
 20
346.950418
 30
0.0
 11
272.635711
 21
290.950418
 31
0.0
  0
LINE
  5
AEB4
330
ACD3
100
AcDbEntity
  8
1
  6
Continuous
100
AcDbLine
 10
249.586669
 20
317.950418
 30
0.0
 11
253.586669
 21
317.950418
 31
0.0
  0
ARC
  5
AEB5
330
ACD3
100
AcDbEntity
  8
1
  6
Continuous
100
AcDbCircle
 10
248.6866689999998
 20
314.3504179999998
 30
0.0
 40
0.9
100
AcDbArc
 50
0.0
 51
180.0
  0
ARC
  5
AEB6
330
ACD3
100
AcDbEntity
  8
1
  6
Continuous
100
AcDbCircle
 10
269.635711
 20
346.950418
 30
0.0
 40
3.0
100
AcDbArc
 50
0.0
 51
90.0
  0
LINE
  5
AEB7
330
ACD3
100
AcDbEntity
  8
1
  6
Continuous
100
AcDbLine
 10
266.135711
 20
349.950418
 30
0.0
 11
266.135711
 21
346.950418
 31
0.0
  0
LINE
  5
AEB8
330
ACD3
100
AcDbEntity
  8
1
  6
Continuous
100
AcDbLine
 10
266.135711
 20
346.950418
 30
0.0
 11
269.635711
 21
346.950418
 31
0.0
  0
LINE
  5
AEB9
330
ACD3
100
AcDbEntity
  8
1
  6
Continuous
100
AcDbLine
 10
266.135711
 20
349.950418
 30
0.0
 11
269.635711
 21
349.950418
 31
0.0
  0
LINE
  5
AEBA
330
ACD3
100
AcDbEntity
  8
4
  6
CENTER
100
AcDbLine
 10
243.896493
 20
301.950418
 30
0.0
 11
296.866052
 21
301.950418
 31
0.0
  0
LINE
  5
AEBB
330
ACD3
100
AcDbEntity
  8
2
  6
Continuous
100
AcDbLine
 10
203.4
 20
304.7438329999998
 30
0.0
 11
205.4
 21
302.16255
 31
0.0
  0
LINE
  5
AEBC
330
ACD3
100
AcDbEntity
  8
2
  6
Continuous
100
AcDbLine
 10
207.4
 20
305.2739179999999
 30
0.0
 11
206.228268
 21
305.950418
 31
0.0
  0
LINE
  5
AEBD
330
ACD3
100
AcDbEntity
  8
2
  6
Continuous
100
AcDbLine
 10
205.4
 20
307.3951399999999
 30
0.0
 11
203.4
 21
304.7438329999998
 31
0.0
  0
LINE
  5
AEBE
330
ACD3
100
AcDbEntity
  8
1
  6
Continuous
100
AcDbLine
 10
205.4
 20
307.3951399999999
 30
0.0
 11
203.4
 21
307.3951399999999
 31
0.0
  0
LINE
  5
AEBF
330
ACD3
100
AcDbEntity
  8
1
  6
Continuous
100
AcDbLine
 10
205.4
 20
302.16255
 30
0.0
 11
203.4
 21
302.16255
 31
0.0
  0
LINE
  5
AEC0
330
ACD3
100
AcDbEntity
  8
1
  6
Continuous
100
AcDbLine
 10
205.4
 20
301.7382859999999
 30
0.0
 11
203.4
 21
301.7382859999999
 31
0.0
  0
LINE
  5
AEC1
330
ACD3
100
AcDbEntity
  8
1
  6
Continuous
100
AcDbLine
 10
207.4
 20
297.950418
 30
0.0
 11
207.4
 21
305.950418
 31
0.0
  0
LINE
  5
AEC2
330
ACD3
100
AcDbEntity
  8
1
  6
Continuous
100
AcDbLine
 10
205.4
 20
296.505696
 30
0.0
 11
205.4
 21
307.3951399999999
 31
0.0
  0
LINE
  5
AEC3
330
ACD3
100
AcDbEntity
  8
2
  6
Continuous
100
AcDbLine
 10
205.4
 20
296.505696
 30
0.0
 11
203.4
 21
299.1570029999999
 31
0.0
  0
LINE
  5
AEC4
330
ACD3
100
AcDbEntity
  8
2
  6
Continuous
100
AcDbLine
 10
203.4
 20
299.1570029999999
 30
0.0
 11
205.4
 21
301.7382859999999
 31
0.0
  0
LINE
  5
AEC5
330
ACD3
100
AcDbEntity
  8
2
  6
Continuous
100
AcDbLine
 10
207.4
 20
298.6269179999998
 30
0.0
 11
206.228268
 21
297.950418
 31
0.0
  0
LINE
  5
AEC6
330
ACD3
100
AcDbEntity
  8
1
  6
Continuous
100
AcDbLine
 10
205.4
 20
296.505696
 30
0.0
 11
203.4
 21
296.505696
 31
0.0
  0
LINE
  5
AEC7
330
ACD3
100
AcDbEntity
  8
1
  6
Continuous
100
AcDbLine
 10
205.4
 20
305.950418
 30
0.0
 11
214.6999999999999
 21
305.950418
 31
0.0
  0
LINE
  5
AEC8
330
ACD3
100
AcDbEntity
  8
1
  6
Continuous
100
AcDbLine
 10
215.2
 20
305.450418
 30
0.0
 11
214.6999999999999
 21
305.950418
 31
0.0
  0
LINE
  5
AEC9
330
ACD3
100
AcDbEntity
  8
2
  6
Continuous
100
AcDbLine
 10
207.4
 20
305.2739179999999
 30
0.0
 11
215.2
 21
305.2739179999999
 31
0.0
  0
LINE
  5
AECA
330
ACD3
100
AcDbEntity
  8
1
  6
Continuous
100
AcDbLine
 10
215.2
 20
298.450418
 30
0.0
 11
215.2
 21
305.450418
 31
0.0
  0
LINE
  5
AECB
330
ACD3
100
AcDbEntity
  8
1
  6
Continuous
100
AcDbLine
 10
205.4
 20
297.950418
 30
0.0
 11
214.6999999999999
 21
297.950418
 31
0.0
  0
LINE
  5
AECC
330
ACD3
100
AcDbEntity
  8
1
  6
Continuous
100
AcDbLine
 10
214.6999999999999
 20
297.950418
 30
0.0
 11
215.2
 21
298.450418
 31
0.0
  0
LINE
  5
AECD
330
ACD3
100
AcDbEntity
  8
1
  6
Continuous
100
AcDbLine
 10
214.6999999999999
 20
297.950418
 30
0.0
 11
214.6999999999999
 21
305.950418
 31
0.0
  0
LINE
  5
AECE
330
ACD3
100
AcDbEntity
  8
2
  6
Continuous
100
AcDbLine
 10
207.4
 20
298.6269179999998
 30
0.0
 11
215.2
 21
298.6269179999998
 31
0.0
  0
LINE
  5
AECF
330
ACD3
100
AcDbEntity
  8
1
  6
Continuous
100
AcDbLine
 10
203.4
 20
293.290164
 30
0.0
 11
203.4
 21
311.450418
 31
0.0
  0
LINE
  5
AED0
330
ACD3
100
AcDbEntity
  8
1
  6
Continuous
100
AcDbLine
 10
253.586669
 20
301.950418
 30
0.0
 11
249.586669
 21
301.950418
 31
0.0
  0
LINE
  5
AED1
330
ACD3
100
AcDbEntity
  8
1
  6
Continuous
100
AcDbLine
 10
249.586669
 20
285.950418
 30
0.0
 11
253.586669
 21
285.950418
 31
0.0
  0
ARC
  5
AED2
330
ACD3
100
AcDbEntity
  8
1
  6
Continuous
100
AcDbCircle
 10
248.6866689999998
 20
289.5504179999999
 30
0.0
 40
0.9
100
AcDbArc
 50
180.0
 51
0.0
  0
LINE
  5
AED3
330
ACD3
100
AcDbEntity
  8
1
  6
Continuous
100
AcDbLine
 10
284.5141139999999
 20
309.650418
 30
0.0
 11
286.514114
 21
309.650418
 31
0.0
  0
LINE
  5
AED4
330
ACD3
100
AcDbEntity
  8
1
  6
Continuous
100
AcDbLine
 10
284.5141139999999
 20
294.250418
 30
0.0
 11
286.514114
 21
294.250418
 31
0.0
  0
LINE
  5
AED5
330
ACD3
100
AcDbEntity
  8
1
  6
Continuous
100
AcDbLine
 10
286.514114
 20
294.250418
 30
0.0
 11
286.514114
 21
309.650418
 31
0.0
  0
LINE
  5
AED6
330
ACD3
100
AcDbEntity
  8
1
  6
Continuous
100
AcDbLine
 10
284.5141139999999
 20
294.250418
 30
0.0
 11
284.5141139999999
 21
309.650418
 31
0.0
  0
LINE
  5
AED7
330
ACD3
100
AcDbEntity
  8
1
  6
Continuous
100
AcDbLine
 10
286.514114
 20
303.950418
 30
0.0
 11
284.5141139999999
 21
301.950418
 31
0.0
  0
LINE
  5
AED8
330
ACD3
100
AcDbEntity
  8
1
  6
Continuous
100
AcDbLine
 10
286.514114
 20
301.950418
 30
0.0
 11
284.5141139999999
 21
299.950418
 31
0.0
  0
ARC
  5
AED9
330
ACD3
100
AcDbEntity
  8
1
  6
Continuous
100
AcDbCircle
 10
283.6269619999999
 20
305.200418
 30
0.0
 40
9.387152
100
AcDbArc
 50
339.7438419999998
 51
20.256158
  0
ARC
  5
AEDA
330
ACD3
100
AcDbEntity
  8
1
  6
Continuous
100
AcDbCircle
 10
283.6269619999999
 20
298.7004179999999
 30
0.0
 40
9.387152
100
AcDbArc
 50
339.7438419999998
 51
20.256158
  0
LINE
  5
AEDB
330
ACD3
100
AcDbEntity
  8
1
  6
Continuous
100
AcDbLine
 10
293.0141139999999
 20
308.450418
 30
0.0
 11
293.0141139999999
 21
295.450418
 31
0.0
  0
LINE
  5
AEDC
330
ACD3
100
AcDbEntity
  8
1
  6
Continuous
100
AcDbLine
 10
292.433558
 20
301.950418
 30
0.0
 11
286.514114
 21
301.950418
 31
0.0
  0
LINE
  5
AEDD
330
ACD3
100
AcDbEntity
  8
1
  6
Continuous
100
AcDbLine
 10
286.514114
 20
308.450418
 30
0.0
 11
293.0141139999999
 21
308.450418
 31
0.0
  0
LINE
  5
AEDE
330
ACD3
100
AcDbEntity
  8
1
  6
Continuous
100
AcDbLine
 10
286.514114
 20
295.450418
 30
0.0
 11
293.0141139999999
 21
295.450418
 31
0.0
  0
LINE
  5
AEDF
330
ACD3
100
AcDbEntity
  8
1
  6
Continuous
100
AcDbLine
 10
269.635711
 20
290.950418
 30
0.0
 11
272.635711
 21
290.950418
 31
0.0
  0
LINE
  5
AEE0
330
ACD3
100
AcDbEntity
  8
1
  6
Continuous
100
AcDbLine
 10
203.4
 20
305.072917
 30
0.0
 11
201.4
 21
305.072917
 31
0.0
  0
LINE
  5
AEE1
330
ACD3
100
AcDbEntity
  8
1
  6
Continuous
100
AcDbLine
 10
203.4
 20
298.827919
 30
0.0
 11
201.4
 21
298.827919
 31
0.0
  0
LINE
  5
AEE2
330
ACD3
100
AcDbEntity
  8
1
  6
Continuous
100
AcDbLine
 10
253.586669
 20
213.950418
 30
0.0
 11
249.586669
 21
213.950418
 31
0.0
  0
LINE
  5
AEE3
330
ACD3
100
AcDbEntity
  8
1
  6
Continuous
100
AcDbLine
 10
253.586669
 20
177.0
 30
0.0
 11
249.586669
 21
177.0
 31
0.0
  0
LINE
  5
AEE4
330
ACD3
100
AcDbEntity
  8
1
  6
Continuous
100
AcDbLine
 10
497.8982309999998
 20
177.0
 30
0.0
 11
493.8982309999998
 21
177.0
 31
0.0
  0
LINE
  5
AEE5
330
ACD3
100
AcDbEntity
  8
1
  6
Continuous
100
AcDbLine
 10
497.8982309999998
 20
213.950418
 30
0.0
 11
493.8982309999998
 21
213.950418
 31
0.0
  0
LINE
  5
AEE6
330
ACD3
100
AcDbEntity
  8
1
  6
Continuous
100
AcDbLine
 10
249.586669
 20
303.750418
 30
0.0
 11
247.7866689999999
 21
301.950418
 31
0.0
  0
LINE
  5
AEE7
330
ACD3
100
AcDbEntity
  8
1
  6
Continuous
100
AcDbLine
 10
249.586669
 20
301.950418
 30
0.0
 11
247.7866689999999
 21
300.1504179999999
 31
0.0
  0
LINE
  5
AEE8
330
ACD3
100
AcDbEntity
  8
1
  6
Continuous
100
AcDbLine
 10
249.586669
 20
195.475209
 30
0.0
 11
247.7866689999999
 21
193.6752089999998
 31
0.0
  0
LINE
  5
AEE9
330
ACD3
100
AcDbEntity
  8
1
  6
Continuous
100
AcDbLine
 10
249.586669
 20
197.275209
 30
0.0
 11
247.7866689999999
 21
195.475209
 31
0.0
  0
LINE
  5
AEEA
330
ACD3
100
AcDbEntity
  8
1
  6
Continuous
100
AcDbLine
 10
249.586669
 20
89.0
 30
0.0
 11
247.7866689999999
 21
87.2
 31
0.0
  0
LINE
  5
AEEB
330
ACD3
100
AcDbEntity
  8
1
  6
Continuous
100
AcDbLine
 10
249.586669
 20
90.8
 30
0.0
 11
247.7866689999999
 21
89.0
 31
0.0
  0
LINE
  5
AEEC
330
ACD3
100
AcDbEntity
  8
1
  6
Continuous
100
AcDbLine
 10
499.6982309999999
 20
195.475209
 30
0.0
 11
497.8982309999998
 21
193.6752089999998
 31
0.0
  0
LINE
  5
AEED
330
ACD3
100
AcDbEntity
  8
1
  6
Continuous
100
AcDbLine
 10
499.6982309999999
 20
197.275209
 30
0.0
 11
497.8982309999998
 21
195.475209
 31
0.0
  0
ENDSEC
  0
SECTION
  2
OBJECTS
  0
DICTIONARY
  5
ACC1
330
0
100
AcDbDictionary
281
     1
  3
ACAD_CIP_PREVIOUS_PRODUCT_INFO
350
AF53
  3
ACAD_COLOR
350
AF35
  3
ACAD_DETAILVIEWSTYLE
350
AF4E
  3
ACAD_GROUP
350
ACC2
  3
ACAD_LAYOUT
350
ACCE
  3
ACAD_MATERIAL
350
AF03
  3
ACAD_MLEADERSTYLE
350
AF4A
  3
ACAD_MLINESTYLE
350
ACCB
  3
ACAD_PLOTSETTINGS
350
ACCD
  3
ACAD_PLOTSTYLENAME
350
AF01
  3
ACAD_SCALELIST
350
AF38
  3
ACAD_SECTIONVIEWSTYLE
350
AF4C
  3
ACAD_TABLESTYLE
350
AF36
  3
ACAD_VISUALSTYLE
350
AF1C
  3
ACDB_RECOMPOSE_DATA
350
AF71
  3
AcDbVariableDictionary
350
AF64
  3
DWGPROPS
350
AF72
  0
DICTIONARY
  5
AF54
330
ACC5
100
AcDbDictionary
280
     1
281
     1
  3
ADSK_XREC_LAYER_RECONCILED
360
AF55
  0
DICTIONARY
  5
AF56
330
ACDB
100
AcDbDictionary
280
     1
281
     1
  3
ADSK_XREC_LAYER_RECONCILED
360
AF57
  0
DICTIONARY
  5
AF58
330
ACDC
100
AcDbDictionary
280
     1
281
     1
  3
ADSK_XREC_LAYER_RECONCILED
360
AF59
  0
DICTIONARY
  5
AF5A
330
ACDD
100
AcDbDictionary
280
     1
281
     1
  3
ADSK_XREC_LAYER_RECONCILED
360
AF5B
  0
DICTIONARY
  5
AF5C
330
ACDE
100
AcDbDictionary
280
     1
281
     1
  3
ADSK_XREC_LAYER_RECONCILED
360
AF5D
  0
DICTIONARY
  5
AF5E
330
ACDF
100
AcDbDictionary
280
     1
281
     1
  3
ADSK_XREC_LAYER_RECONCILED
360
AF5F
  0
DICTIONARY
  5
AF60
330
ACE0
100
AcDbDictionary
280
     1
281
     1
  3
ADSK_XREC_LAYER_RECONCILED
360
AF61
  0
DICTIONARY
  5
AF62
330
ACE1
100
AcDbDictionary
280
     1
281
     1
  3
ADSK_XREC_LAYER_RECONCILED
360
AF63
  0
DICTIONARY
  5
AEFC
330
ACD3
100
AcDbDictionary
281
     1
  3
ACAD_LAYOUTSELFREF
350
AEFD
  0
DICTIONARY
  5
AEFA
330
ACCF
100
AcDbDictionary
281
     1
  3
ACAD_LAYOUTSELFREF
350
AEFB
  0
XRECORD
  5
AF53
102
{ACAD_REACTORS
330
ACC1
102
}
330
ACC1
100
AcDbXrecord
280
     1
300
ACDLT
300
2014
300
ACDLT_F_S
  0
DICTIONARY
  5
AF35
102
{ACAD_REACTORS
330
ACC1
102
}
330
ACC1
100
AcDbDictionary
281
     1
  0
DICTIONARY
  5
AF4E
102
{ACAD_REACTORS
330
ACC1
102
}
330
ACC1
100
AcDbDictionary
281
     1
  3
Imperial24
350
AF4F
  0
DICTIONARY
  5
ACC2
102
{ACAD_REACTORS
330
ACC1
102
}
330
ACC1
100
AcDbDictionary
281
     1
  0
DICTIONARY
  5
ACCE
102
{ACAD_REACTORS
330
ACC1
102
}
330
ACC1
100
AcDbDictionary
281
     1
  3
Model
350
AF50
  3
レイアウト1
350
AF51
  0
DICTIONARY
  5
AF03
102
{ACAD_REACTORS
330
ACC1
102
}
330
ACC1
100
AcDbDictionary
281
     1
  3
ByBlock
350
AF0C
  3
ByLayer
350
AF04
  3
Global
350
AF14
  0
DICTIONARY
  5
AF4A
102
{ACAD_REACTORS
330
ACC1
102
}
330
ACC1
100
AcDbDictionary
281
     1
  3
Standard
350
AF4B
  0
DICTIONARY
  5
ACCB
102
{ACAD_REACTORS
330
ACC1
102
}
330
ACC1
100
AcDbDictionary
281
     1
  3
STANDARD
350
ACCC
  0
DICTIONARY
  5
ACCD
102
{ACAD_REACTORS
330
ACC1
102
}
330
ACC1
100
AcDbDictionary
281
     1
  0
ACDBDICTIONARYWDFLT
  5
AF01
102
{ACAD_REACTORS
330
ACC1
102
}
330
ACC1
100
AcDbDictionary
281
     1
  3
Normal
350
AF02
100
AcDbDictionaryWithDefault
340
AF02
  0
DICTIONARY
  5
AF38
102
{ACAD_REACTORS
330
ACC1
102
}
330
ACC1
100
AcDbDictionary
281
     1
  3
A0
350
AF39
  3
A1
350
AF3A
  3
A2
350
AF3B
  3
A3
350
AF3C
  3
A4
350
AF3D
  3
A5
350
AF3E
  3
A6
350
AF3F
  3
A7
350
AF40
  3
A8
350
AF41
  3
A9
350
AF42
  3
B0
350
AF43
  3
B1
350
AF44
  3
B2
350
AF45
  3
B3
350
AF46
  3
B4
350
AF47
  3
B5
350
AF48
  3
B6
350
AF49
  0
DICTIONARY
  5
AF4C
102
{ACAD_REACTORS
330
ACC1
102
}
330
ACC1
100
AcDbDictionary
281
     1
  3
Imperial24
350
AF4D
  0
DICTIONARY
  5
AF36
102
{ACAD_REACTORS
330
ACC1
102
}
330
ACC1
100
AcDbDictionary
281
     1
  3
Standard
350
AF37
  0
DICTIONARY
  5
AF1C
102
{ACAD_REACTORS
330
ACC1
102
}
330
ACC1
100
AcDbDictionary
281
     1
  3
2dWireframe
350
AF22
  3
Basic
350
AF21
  3
Brighten
350
AF28
  3
ColorChange
350
AF2C
  3
Conceptual
350
AF25
  3
Dim
350
AF27
  3
EdgeColorOff
350
AF34
  3
Facepattern
350
AF2B
  3
Flat
350
AF1D
  3
FlatWithEdges
350
AF1E
  3
Gouraud
350
AF1F
  3
GouraudWithEdges
350
AF20
  3
Hidden
350
AF24
  3
JitterOff
350
AF32
  3
Linepattern
350
AF2A
  3
OverhangOff
350
AF33
  3
Realistic
350
AF26
  3
Shaded
350
AF31
  3
Shaded with edges
350
AF30
  3
Shades of Gray
350
AF2D
  3
Sketchy
350
AF2E
  3
Thicken
350
AF29
  3
Wireframe
350
AF23
  3
X-Ray
350
AF2F
  0
XRECORD
  5
AF71
102
{ACAD_REACTORS
330
ACC1
102
}
330
ACC1
100
AcDbXrecord
280
     1
 90
        1
330
AF37
  0
DICTIONARY
  5
AF64
102
{ACAD_REACTORS
330
ACC1
102
}
330
ACC1
100
AcDbDictionary
281
     1
  3
CANNOSCALE
350
AF69
  3
CMLEADERSTYLE
350
AF66
  3
CTABLESTYLE
350
AF65
  3
CVIEWDETAILSTYLE
350
AF67
  3
CVIEWSECTIONSTYLE
350
AF68
  3
DIMASSOC
350
AF6C
  3
INDEXCTL
350
AF6B
  3
SORTENTS
350
AF6A
  3
XCLIPFRAME
350
AF6D
  0
XRECORD
  5
AF72
102
{ACAD_REACTORS
330
ACC1
102
}
330
ACC1
100
AcDbXrecord
280
     1
  1
DWGPROPS COOKIE
  2

  3

  4

  6

  7

  8
Yoshitsune
  9

300
=
301
=
302
=
303
=
304
=
305
=
306
=
307
=
308
=
309
=
 40
0.0000147337962963
 41
2451368.492009722
 42
2457192.642647604
  1

 90
        0
  0
XRECORD
  5
AF55
102
{ACAD_REACTORS
330
AF54
102
}
330
AF54
100
AcDbXrecord
280
     1
290
     1
  0
XRECORD
  5
AF57
102
{ACAD_REACTORS
330
AF56
102
}
330
AF56
100
AcDbXrecord
280
     1
290
     1
  0
XRECORD
  5
AF59
102
{ACAD_REACTORS
330
AF58
102
}
330
AF58
100
AcDbXrecord
280
     1
290
     1
  0
XRECORD
  5
AF5B
102
{ACAD_REACTORS
330
AF5A
102
}
330
AF5A
100
AcDbXrecord
280
     1
290
     1
  0
XRECORD
  5
AF5D
102
{ACAD_REACTORS
330
AF5C
102
}
330
AF5C
100
AcDbXrecord
280
     1
290
     1
  0
XRECORD
  5
AF5F
102
{ACAD_REACTORS
330
AF5E
102
}
330
AF5E
100
AcDbXrecord
280
     1
290
     1
  0
XRECORD
  5
AF61
102
{ACAD_REACTORS
330
AF60
102
}
330
AF60
100
AcDbXrecord
280
     1
290
     1
  0
XRECORD
  5
AF63
102
{ACAD_REACTORS
330
AF62
102
}
330
AF62
100
AcDbXrecord
280
     1
290
     1
  0
XRECORD
  5
AEFD
102
{ACAD_REACTORS
330
AEFC
102
}
330
AEFC
100
AcDbXrecord
280
     1
340
ACD3
  0
XRECORD
  5
AEFB
102
{ACAD_REACTORS
330
AEFA
102
}
330
AEFA
100
AcDbXrecord
280
     1
340
ACCF
  0
ACDBDETAILVIEWSTYLE
  5
AF4F
102
{ACAD_XDICTIONARY
360
AFAA
102
}
102
{ACAD_REACTORS
330
AF4E
102
}
330
AF4E
100
AcDbModelDocViewStyle
 70
     0
  3
Imperial24
290
     0
100
AcDbDetailViewStyle
 70
     0
 71
     0
 90
        3
 71
     1
340
ACC6
 40
0.24
340
0
 40
0.24
300

 40
0.36
280
     3
 71
     2
340
ACCA
 90
       25
 71
     3
340
ACC6
 40
0.24
 90
        1
 40
0.75
 90
        1
300
%<\AcVar ViewType \f "%tc1">% %<\AcVar ViewDetailId>%\PSCALE %<\AcVar ViewScale \f "%sn">%
 71
     4
340
ACCA
 90
       25
340
ACCA
 90
       25
280
     0
  0
LAYOUT
  5
AF50
102
{ACAD_XDICTIONARY
360
AFAC
102
}
102
{ACAD_REACTORS
330
ACCE
102
}
330
ACCE
100
AcDbPlotSettings
  1

  2
Canon LBP9100C
  4

  6

 40
0.0
 41
0.0
 42
0.0
 43
0.0
 44
0.0
 45
0.0
 46
0.0
 47
0.0
 48
0.0
 49
0.0
140
0.0
141
0.0
142
1.0
143
1.0
 70
  1712
 72
     0
 73
     0
 74
     0
  7

 75
     0
147
1.0
148
0.0
149
0.0
100
AcDbLayout
  1
Model
 70
     1
 71
     0
 10
0.0
 20
0.0
 11
12.0
 21
9.0
 12
0.0
 22
0.0
 32
0.0
 14
0.0
 24
0.0
 34
0.0
 15
0.0
 25
0.0
 35
0.0
146
0.0
 13
0.0
 23
0.0
 33
0.0
 16
1.0
 26
0.0
 36
0.0
 17
0.0
 27
1.0
 37
0.0
 76
     0
330
ACD3
331
AEF9
  0
LAYOUT
  5
AF51
102
{ACAD_XDICTIONARY
360
AFAE
102
}
102
{ACAD_REACTORS
330
ACCE
102
}
330
ACCE
100
AcDbPlotSettings
  1

  2
Canon LBP9100C
  4

  6

 40
0.0
 41
0.0
 42
0.0
 43
0.0
 44
0.0
 45
0.0
 46
0.0
 47
0.0
 48
0.0
 49
0.0
140
0.0
141
0.0
142
1.0
143
1.0
 70
   688
 72
     0
 73
     0
 74
     5
  7

 75
    16
147
1.0
148
0.0
149
0.0
100
AcDbLayout
  1
レイアウト1
 70
     0
 71
     1
 10
0.0
 20
0.0
 11
420.0
 21
297.0
 12
0.0
 22
0.0
 32
0.0
 14
1.000000000000000E+20
 24
1.000000000000000E+20
 34
1.000000000000000E+20
 15
-1.000000000000000E+20
 25
-1.000000000000000E+20
 35
-1.000000000000000E+20
146
0.0
 13
0.0
 23
0.0
 33
0.0
 16
1.0
 26
0.0
 36
0.0
 17
0.0
 27
1.0
 37
0.0
 76
     0
330
ACCF
  0
MATERIAL
  5
AF0C
102
{ACAD_XDICTIONARY
360
AF0D
102
}
102
{ACAD_REACTORS
330
AF03
102
}
330
AF03
100
AcDbMaterial
  1
ByBlock
 72
     0
 43
0.0208333333333333
 43
0.0
 43
0.0
 43
0.0
 43
0.0
 43
0.0208333333333333
 43
0.0
 43
0.0
 43
0.0
 43
0.0
 43
1.0
 43
0.0
 43
0.0
 43
0.0
 43
0.0
 43
1.0
 77
     0
 47
0.0208333333333333
 47
0.0
 47
0.0
 47
0.0
 47
0.0
 47
0.0208333333333333
 47
0.0
 47
0.0
 47
0.0
 47
0.0
 47
1.0
 47
0.0
 47
0.0
 47
0.0
 47
0.0
 47
1.0
171
     0
 49
0.0208333333333333
 49
0.0
 49
0.0
 49
0.0
 49
0.0
 49
0.0208333333333333
 49
0.0
 49
0.0
 49
0.0
 49
0.0
 49
1.0
 49
0.0
 49
0.0
 49
0.0
 49
0.0
 49
1.0
175
     0
142
0.0208333333333333
142
0.0
142
0.0
142
0.0
142
0.0
142
0.0208333333333333
142
0.0
142
0.0
142
0.0
142
0.0
142
1.0
142
0.0
142
0.0
142
0.0
142
0.0
142
1.0
179
     0
144
0.0208333333333333
144
0.0
144
0.0
144
0.0
144
0.0
144
0.0208333333333333
144
0.0
144
0.0
144
0.0
144
0.0
144
1.0
144
0.0
144
0.0
144
0.0
144
0.0
144
1.0
147
0.0208333333333333
147
0.0
147
0.0
147
0.0
147
0.0
147
0.0208333333333333
147
0.0
147
0.0
147
0.0
147
0.0
147
1.0
147
0.0
147
0.0
147
0.0
147
0.0
147
1.0
  0
MATERIAL
  5
AF04
102
{ACAD_XDICTIONARY
360
AF05
102
}
102
{ACAD_REACTORS
330
AF03
102
}
330
AF03
100
AcDbMaterial
  1
ByLayer
 72
     0
 43
0.0208333333333333
 43
0.0
 43
0.0
 43
0.0
 43
0.0
 43
0.0208333333333333
 43
0.0
 43
0.0
 43
0.0
 43
0.0
 43
1.0
 43
0.0
 43
0.0
 43
0.0
 43
0.0
 43
1.0
 77
     0
 47
0.0208333333333333
 47
0.0
 47
0.0
 47
0.0
 47
0.0
 47
0.0208333333333333
 47
0.0
 47
0.0
 47
0.0
 47
0.0
 47
1.0
 47
0.0
 47
0.0
 47
0.0
 47
0.0
 47
1.0
171
     0
 49
0.0208333333333333
 49
0.0
 49
0.0
 49
0.0
 49
0.0
 49
0.0208333333333333
 49
0.0
 49
0.0
 49
0.0
 49
0.0
 49
1.0
 49
0.0
 49
0.0
 49
0.0
 49
0.0
 49
1.0
175
     0
142
0.0208333333333333
142
0.0
142
0.0
142
0.0
142
0.0
142
0.0208333333333333
142
0.0
142
0.0
142
0.0
142
0.0
142
1.0
142
0.0
142
0.0
142
0.0
142
0.0
142
1.0
179
     0
144
0.0208333333333333
144
0.0
144
0.0
144
0.0
144
0.0
144
0.0208333333333333
144
0.0
144
0.0
144
0.0
144
0.0
144
1.0
144
0.0
144
0.0
144
0.0
144
0.0
144
1.0
147
0.0208333333333333
147
0.0
147
0.0
147
0.0
147
0.0
147
0.0208333333333333
147
0.0
147
0.0
147
0.0
147
0.0
147
1.0
147
0.0
147
0.0
147
0.0
147
0.0
147
1.0
  0
MATERIAL
  5
AF14
102
{ACAD_XDICTIONARY
360
AF15
102
}
102
{ACAD_REACTORS
330
AF03
102
}
330
AF03
100
AcDbMaterial
  1
Global
 72
     0
 43
0.0208333333333333
 43
0.0
 43
0.0
 43
0.0
 43
0.0
 43
0.0208333333333333
 43
0.0
 43
0.0
 43
0.0
 43
0.0
 43
1.0
 43
0.0
 43
0.0
 43
0.0
 43
0.0
 43
1.0
 77
     0
 47
0.0208333333333333
 47
0.0
 47
0.0
 47
0.0
 47
0.0
 47
0.0208333333333333
 47
0.0
 47
0.0
 47
0.0
 47
0.0
 47
1.0
 47
0.0
 47
0.0
 47
0.0
 47
0.0
 47
1.0
171
     0
 49
0.0208333333333333
 49
0.0
 49
0.0
 49
0.0
 49
0.0
 49
0.0208333333333333
 49
0.0
 49
0.0
 49
0.0
 49
0.0
 49
1.0
 49
0.0
 49
0.0
 49
0.0
 49
0.0
 49
1.0
175
     0
142
0.0208333333333333
142
0.0
142
0.0
142
0.0
142
0.0
142
0.0208333333333333
142
0.0
142
0.0
142
0.0
142
0.0
142
1.0
142
0.0
142
0.0
142
0.0
142
0.0
142
1.0
179
     0
144
0.0208333333333333
144
0.0
144
0.0
144
0.0
144
0.0
144
0.0208333333333333
144
0.0
144
0.0
144
0.0
144
0.0
144
1.0
144
0.0
144
0.0
144
0.0
144
0.0
144
1.0
147
0.0208333333333333
147
0.0
147
0.0
147
0.0
147
0.0
147
0.0208333333333333
147
0.0
147
0.0
147
0.0
147
0.0
147
1.0
147
0.0
147
0.0
147
0.0
147
0.0
147
1.0
  0
MLEADERSTYLE
  5
AF4B
102
{ACAD_REACTORS
330
AF4A
102
}
330
AF4A
100
AcDbMLeaderStyle
170
     2
171
     1
172
     0
 90
        2
 40
0.0
 41
0.0
173
     1
 91
-1056964608
340
ACC8
 92
       -2
290
     1
 42
0.09
291
     1
 43
0.36
  3
Standard
 44
0.18
300

342
ACC6
174
     1
178
     6
175
     1
176
     0
 93
-1056964608
 45
0.18
292
     0
297
     0
 46
0.18
 94
-1056964608
 47
1.0
 49
1.0
140
1.0
293
     1
141
0.0
294
     1
177
     0
142
1.0
295
     0
296
     0
143
0.125
1001
ACAD_MLEADERVER
1070
     2
  0
MLINESTYLE
  5
ACCC
102
{ACAD_REACTORS
330
ACCB
102
}
330
ACCB
100
AcDbMlineStyle
  2
STANDARD
 70
     0
  3

 62
   256
 51
90.0
 52
90.0
 71
     2
 49
0.5
 62
   256
  6
BYLAYER
 49
-0.5
 62
   256
  6
BYLAYER
  0
ACDBPLACEHOLDER
  5
AF02
102
{ACAD_REACTORS
330
AF01
102
}
330
AF01
  0
SCALE
  5
AF39
102
{ACAD_REACTORS
330
AF38
102
}
330
AF38
100
AcDbScale
 70
     0
300
1:1
140
1.0
141
1.0
290
     1
  0
SCALE
  5
AF3A
102
{ACAD_REACTORS
330
AF38
102
}
330
AF38
100
AcDbScale
 70
     0
300
1/128" = 1'-0"
140
0.0078125
141
12.0
290
     0
  0
SCALE
  5
AF3B
102
{ACAD_REACTORS
330
AF38
102
}
330
AF38
100
AcDbScale
 70
     0
300
1/64" = 1'-0"
140
0.015625
141
12.0
290
     0
  0
SCALE
  5
AF3C
102
{ACAD_REACTORS
330
AF38
102
}
330
AF38
100
AcDbScale
 70
     0
300
1/32" = 1'-0"
140
0.03125
141
12.0
290
     0
  0
SCALE
  5
AF3D
102
{ACAD_REACTORS
330
AF38
102
}
330
AF38
100
AcDbScale
 70
     0
300
1/16" = 1'-0"
140
0.0625
141
12.0
290
     0
  0
SCALE
  5
AF3E
102
{ACAD_REACTORS
330
AF38
102
}
330
AF38
100
AcDbScale
 70
     0
300
3/32" = 1'-0"
140
0.09375
141
12.0
290
     0
  0
SCALE
  5
AF3F
102
{ACAD_REACTORS
330
AF38
102
}
330
AF38
100
AcDbScale
 70
     0
300
1/8" = 1'-0"
140
0.125
141
12.0
290
     0
  0
SCALE
  5
AF40
102
{ACAD_REACTORS
330
AF38
102
}
330
AF38
100
AcDbScale
 70
     0
300
3/16" = 1'-0"
140
0.1875
141
12.0
290
     0
  0
SCALE
  5
AF41
102
{ACAD_REACTORS
330
AF38
102
}
330
AF38
100
AcDbScale
 70
     0
300
1/4" = 1'-0"
140
0.25
141
12.0
290
     0
  0
SCALE
  5
AF42
102
{ACAD_REACTORS
330
AF38
102
}
330
AF38
100
AcDbScale
 70
     0
300
3/8" = 1'-0"
140
0.375
141
12.0
290
     0
  0
SCALE
  5
AF43
102
{ACAD_REACTORS
330
AF38
102
}
330
AF38
100
AcDbScale
 70
     0
300
1/2" = 1'-0"
140
0.5
141
12.0
290
     0
  0
SCALE
  5
AF44
102
{ACAD_REACTORS
330
AF38
102
}
330
AF38
100
AcDbScale
 70
     0
300
3/4" = 1'-0"
140
0.75
141
12.0
290
     0
  0
SCALE
  5
AF45
102
{ACAD_REACTORS
330
AF38
102
}
330
AF38
100
AcDbScale
 70
     0
300
1" = 1'-0"
140
1.0
141
12.0
290
     0
  0
SCALE
  5
AF46
102
{ACAD_REACTORS
330
AF38
102
}
330
AF38
100
AcDbScale
 70
     0
300
1-1/2" = 1'-0"
140
1.5
141
12.0
290
     0
  0
SCALE
  5
AF47
102
{ACAD_REACTORS
330
AF38
102
}
330
AF38
100
AcDbScale
 70
     0
300
3" = 1'-0"
140
3.0
141
12.0
290
     0
  0
SCALE
  5
AF48
102
{ACAD_REACTORS
330
AF38
102
}
330
AF38
100
AcDbScale
 70
     0
300
6" = 1'-0"
140
6.0
141
12.0
290
     0
  0
SCALE
  5
AF49
102
{ACAD_REACTORS
330
AF38
102
}
330
AF38
100
AcDbScale
 70
     0
300
1'-0" = 1'-0"
140
12.0
141
12.0
290
     0
  0
ACDBSECTIONVIEWSTYLE
  5
AF4D
102
{ACAD_XDICTIONARY
360
AFA8
102
}
102
{ACAD_REACTORS
330
AF4C
102
}
330
AF4C
100
AcDbModelDocViewStyle
 70
     0
  3
Imperial24
290
     0
100
AcDbSectionViewStyle
 70
     0
 71
     0
 90
       78
 71
     1
340
ACC6
 40
0.24
340
0
340
0
 40
0.24
300
I, O, Q, S, X, Z
 40
0.48
 90
        3
 40
0.18
 90
        1
 71
     2
340
ACCA
 90
       25
340
ACCA
 90
       50
 40
0.24
 40
0.0
 40
0.24
 71
     3
340
ACC6
 40
0.24
 90
        1
 40
0.75
 90
        1
300
%<\AcVar ViewType \f "%tc1">% %<\AcVar ViewSectionStartId>%-%<\AcVar ViewSectionEndId>%\PSCALE %<\AcVar ViewScale \f "%sn">%
 71
     4
300
ANSI31
 40
1.0
 90
        0
290
     0
290
     0
 90
        6
 40
0.0
 40
1.570796326794896
 40
0.2617993877991494
 40
1.308996938995747
 40
-0.2617993877991494
 40
1.832595714594046
  0
TABLESTYLE
  5
AF37
102
{ACAD_XDICTIONARY
360
AF6F
102
}
102
{ACAD_REACTORS
330
AF36
102
}
330
AF36
100
AcDbTableStyle
  3
Standard
 70
     0
 71
     0
 40
0.06
 41
0.06
280
     0
281
     0
  7
STANDARD
140
0.18
170
     2
 62
     0
 63
     7
283
     0
274
    -2
284
     1
 64
     0
275
    -2
285
     1
 65
     0
276
    -2
286
     1
 66
     0
277
    -2
287
     1
 67
     0
278
    -2
288
     1
 68
     0
279
    -2
289
     1
 69
     0
  7
STANDARD
140
0.25
170
     5
 62
     0
 63
     7
283
     0
274
    -2
284
     1
 64
     0
275
    -2
285
     1
 65
     0
276
    -2
286
     1
 66
     0
277
    -2
287
     1
 67
     0
278
    -2
288
     1
 68
     0
279
    -2
289
     1
 69
     0
  7
STANDARD
140
0.18
170
     5
 62
     0
 63
     7
283
     0
274
    -2
284
     1
 64
     0
275
    -2
285
     1
 65
     0
276
    -2
286
     1
 66
     0
277
    -2
287
     1
 67
     0
278
    -2
288
     1
 68
     0
279
    -2
289
     1
 69
     0
  0
VISUALSTYLE
  5
AF22
102
{ACAD_XDICTIONARY
360
AF80
102
}
102
{ACAD_REACTORS
330
AF1C
102
}
330
AF1C
100
AcDbVisualStyle
  2
2dWireframe
 70
     4
 71
     0
 72
     2
 73
     0
 90
        0
 40
-0.6
 41
-30.0
 62
     5
 63
     7
 74
     1
 91
        4
 64
     7
 65
   257
 75
     1
175
     1
 42
1.0
 92
        0
 66
   257
 43
1.0
 76
     1
 77
     6
 78
     2
 67
     7
 79
     5
170
     0
171
     0
290
     0
174
     0
 93
        1
 44
0.0
173
     0
291
     0
 45
0.0
1001
ACAD
1000
AcDbSavedByObjectVersion
1070
     0
  0
VISUALSTYLE
  5
AF21
102
{ACAD_XDICTIONARY
360
AF7E
102
}
102
{ACAD_REACTORS
330
AF1C
102
}
330
AF1C
100
AcDbVisualStyle
  2
Basic
 70
     7
 71
     1
 72
     0
 73
     1
 90
        0
 40
-0.6
 41
-30.0
 62
     5
 63
     7
 74
     0
 91
        4
 64
     7
 65
   257
 75
     1
175
     1
 42
1.0
 92
        8
 66
     7
 43
1.0
 76
     1
 77
     6
 78
     2
 67
     7
 79
     5
170
     0
171
     0
290
     0
174
     0
 93
        1
 44
0.0
173
     0
291
     1
 45
0.0
1001
ACAD
1000
AcDbSavedByObjectVersion
1070
     0
  0
VISUALSTYLE
  5
AF28
102
{ACAD_XDICTIONARY
360
AF8C
102
}
102
{ACAD_REACTORS
330
AF1C
102
}
330
AF1C
100
AcDbVisualStyle
  2
Brighten
 70
    12
 71
     2
 72
     2
 73
     0
 90
        0
 40
-0.6
 41
-30.0
 62
     5
 63
     7
 74
     1
 91
        4
 64
     7
 65
   257
 75
     1
175
     1
 42
1.0
 92
        8
 66
     7
 43
1.0
 76
     1
 77
     6
 78
     2
 67
     7
 79
     5
170
     0
171
     0
290
     0
174
     0
 93
        1
 44
50.0
173
     0
291
     1
 45
0.0
1001
ACAD
1000
AcDbSavedByObjectVersion
1070
     0
  0
VISUALSTYLE
  5
AF2C
102
{ACAD_XDICTIONARY
360
AF94
102
}
102
{ACAD_REACTORS
330
AF1C
102
}
330
AF1C
100
AcDbVisualStyle
  2
ColorChange
 70
    16
 71
     2
 72
     2
 73
     3
 90
        0
 40
-0.6
 41
-30.0
 62
     5
 63
     8
 74
     1
 91
        4
 64
     7
 65
   257
 75
     1
175
     1
 42
1.0
 92
        8
 66
     8
 43
1.0
 76
     1
 77
     6
 78
     2
 67
     7
 79
     5
170
     0
171
     0
290
     0
174
     0
 93
        1
 44
0.0
173
     0
291
     1
 45
0.0
1001
ACAD
1000
AcDbSavedByObjectVersion
1070
     0
  0
VISUALSTYLE
  5
AF25
102
{ACAD_XDICTIONARY
360
AF86
102
}
102
{ACAD_REACTORS
330
AF1C
102
}
330
AF1C
100
AcDbVisualStyle
  2
Conceptual
 70
     9
 71
     3
 72
     2
 73
     0
 90
        0
 40
-0.6
 41
-30.0
 62
     5
 63
     7
 74
     2
 91
        2
 64
     7
 65
   257
 75
     1
175
     1
 42
179.0
 92
        8
 66
     7
 43
1.0
 76
     1
 77
     6
 78
     2
 67
     7
 79
     3
170
     0
171
     0
290
     0
174
     0
 93
        1
 44
0.0
173
     0
291
     0
 45
0.0
1001
ACAD
1000
AcDbSavedByObjectVersion
1070
     0
  0
VISUALSTYLE
  5
AF27
102
{ACAD_XDICTIONARY
360
AF8A
102
}
102
{ACAD_REACTORS
330
AF1C
102
}
330
AF1C
100
AcDbVisualStyle
  2
Dim
 70
    11
 71
     2
 72
     2
 73
     0
 90
        0
 40
-0.6
 41
-30.0
 62
     5
 63
     7
 74
     1
 91
        4
 64
     7
 65
   257
 75
     1
175
     1
 42
1.0
 92
        8
 66
     7
 43
1.0
 76
     1
 77
     6
 78
     2
 67
     7
 79
     5
170
     0
171
     0
290
     0
174
     0
 93
        1
 44
-50.0
173
     0
291
     1
 45
0.0
1001
ACAD
1000
AcDbSavedByObjectVersion
1070
     0
  0
VISUALSTYLE
  5
AF34
102
{ACAD_XDICTIONARY
360
AFA4
102
}
102
{ACAD_REACTORS
330
AF1C
102
}
330
AF1C
100
AcDbVisualStyle
  2
EdgeColorOff
 70
    22
 71
     2
 72
     2
 73
     0
 90
        0
 40
-0.6
 41
-30.0
 62
     5
 63
     7
 74
     1
 91
        4
 64
     7
 65
   257
 75
     1
175
     1
 42
1.0
 92
        8
 66
     7
 43
1.0
 76
     1
 77
     6
 78
     2
 67
     7
 79
     5
170
     0
171
     0
290
     0
174
     0
 93
        1
 44
0.0
173
     0
291
     1
 45
0.0
1001
ACAD
1000
AcDbSavedByObjectVersion
1070
     0
  0
VISUALSTYLE
  5
AF2B
102
{ACAD_XDICTIONARY
360
AF92
102
}
102
{ACAD_REACTORS
330
AF1C
102
}
330
AF1C
100
AcDbVisualStyle
  2
Facepattern
 70
    15
 71
     2
 72
     2
 73
     0
 90
        0
 40
-0.6
 41
-30.0
 62
     5
 63
     7
 74
     1
 91
        4
 64
     7
 65
   257
 75
     1
175
     1
 42
1.0
 92
        8
 66
     7
 43
1.0
 76
     1
 77
     6
 78
     2
 67
     7
 79
     5
170
     0
171
     0
290
     0
174
     0
 93
        1
 44
0.0
173
     0
291
     1
 45
0.0
1001
ACAD
1000
AcDbSavedByObjectVersion
1070
     0
  0
VISUALSTYLE
  5
AF1D
102
{ACAD_XDICTIONARY
360
AF76
102
}
102
{ACAD_REACTORS
330
AF1C
102
}
330
AF1C
100
AcDbVisualStyle
  2
Flat
 70
     0
 71
     2
 72
     1
 73
     1
 90
        2
 40
-0.6
 41
30.0
 62
     5
 63
     7
 74
     0
 91
        0
 64
     7
 65
   257
 75
     1
175
     1
 42
1.0
 92
        8
 66
     7
 43
1.0
 76
     1
 77
     6
 78
     2
 67
     7
 79
     5
170
     0
171
     0
290
     0
174
     0
 93
       13
 44
0.0
173
     0
291
     1
 45
0.0
1001
ACAD
1000
AcDbSavedByObjectVersion
1070
     0
  0
VISUALSTYLE
  5
AF1E
102
{ACAD_XDICTIONARY
360
AF78
102
}
102
{ACAD_REACTORS
330
AF1C
102
}
330
AF1C
100
AcDbVisualStyle
  2
FlatWithEdges
 70
     1
 71
     2
 72
     1
 73
     1
 90
        2
 40
-0.6
 41
30.0
 62
     5
 63
     7
 74
     1
 91
        0
 64
     7
 65
   257
 75
     1
175
     1
 42
1.0
 92
        0
 66
   257
 43
1.0
 76
     1
 77
     6
 78
     2
 67
     7
 79
     5
170
     0
171
     0
290
     0
174
     0
 93
       13
 44
0.0
173
     0
291
     1
 45
0.0
1001
ACAD
1000
AcDbSavedByObjectVersion
1070
     0
  0
VISUALSTYLE
  5
AF1F
102
{ACAD_XDICTIONARY
360
AF7A
102
}
102
{ACAD_REACTORS
330
AF1C
102
}
330
AF1C
100
AcDbVisualStyle
  2
Gouraud
 70
     2
 71
     2
 72
     2
 73
     1
 90
        2
 40
-0.6
 41
30.0
 62
     5
 63
     7
 74
     0
 91
        0
 64
     7
 65
   257
 75
     1
175
     1
 42
1.0
 92
        0
 66
     7
 43
1.0
 76
     1
 77
     6
 78
     2
 67
     7
 79
     5
170
     0
171
     0
290
     0
174
     0
 93
       13
 44
0.0
173
     0
291
     1
 45
0.0
1001
ACAD
1000
AcDbSavedByObjectVersion
1070
     0
  0
VISUALSTYLE
  5
AF20
102
{ACAD_XDICTIONARY
360
AF7C
102
}
102
{ACAD_REACTORS
330
AF1C
102
}
330
AF1C
100
AcDbVisualStyle
  2
GouraudWithEdges
 70
     3
 71
     2
 72
     2
 73
     1
 90
        2
 40
-0.6
 41
30.0
 62
     5
 63
     7
 74
     1
 91
        0
 64
     7
 65
   257
 75
     1
175
     1
 42
1.0
 92
        0
 66
   257
 43
1.0
 76
     1
 77
     6
 78
     2
 67
     7
 79
     5
170
     0
171
     0
290
     0
174
     0
 93
       13
 44
0.0
173
     0
291
     1
 45
0.0
1001
ACAD
1000
AcDbSavedByObjectVersion
1070
     0
  0
VISUALSTYLE
  5
AF24
102
{ACAD_XDICTIONARY
360
AF84
102
}
102
{ACAD_REACTORS
330
AF1C
102
}
330
AF1C
100
AcDbVisualStyle
  2
Hidden
 70
     6
 71
     1
 72
     2
 73
     2
 90
        0
 40
-0.6
 41
-30.0
 62
     5
 63
     7
 74
     2
 91
        2
 64
     7
 65
   257
 75
     2
175
     1
 42
40.0
 92
        0
 66
   257
 43
1.0
 76
     1
 77
     6
 78
     2
 67
     7
 79
     3
170
     0
171
     0
290
     0
174
     0
 93
        1
 44
0.0
173
     0
291
     0
 45
0.0
1001
ACAD
1000
AcDbSavedByObjectVersion
1070
     0
  0
VISUALSTYLE
  5
AF32
102
{ACAD_XDICTIONARY
360
AFA0
102
}
102
{ACAD_REACTORS
330
AF1C
102
}
330
AF1C
100
AcDbVisualStyle
  2
JitterOff
 70
    20
 71
     2
 72
     2
 73
     0
 90
        0
 40
-0.6
 41
-30.0
 62
     5
 63
     7
 74
     1
 91
        4
 64
     7
 65
   257
 75
     1
175
     1
 42
1.0
 92
       10
 66
     7
 43
1.0
 76
     1
 77
     6
 78
     2
 67
     7
 79
     5
170
     0
171
     0
290
     0
174
     0
 93
        1
 44
0.0
173
     0
291
     1
 45
0.0
1001
ACAD
1000
AcDbSavedByObjectVersion
1070
     0
  0
VISUALSTYLE
  5
AF2A
102
{ACAD_XDICTIONARY
360
AF90
102
}
102
{ACAD_REACTORS
330
AF1C
102
}
330
AF1C
100
AcDbVisualStyle
  2
Linepattern
 70
    14
 71
     2
 72
     2
 73
     0
 90
        0
 40
-0.6
 41
-30.0
 62
     5
 63
     7
 74
     1
 91
        4
 64
     7
 65
   257
 75
     7
175
     7
 42
1.0
 92
        8
 66
     7
 43
1.0
 76
     1
 77
     6
 78
     2
 67
     7
 79
     5
170
     0
171
     0
290
     0
174
     0
 93
        1
 44
0.0
173
     0
291
     1
 45
0.0
1001
ACAD
1000
AcDbSavedByObjectVersion
1070
     0
  0
VISUALSTYLE
  5
AF33
102
{ACAD_XDICTIONARY
360
AFA2
102
}
102
{ACAD_REACTORS
330
AF1C
102
}
330
AF1C
100
AcDbVisualStyle
  2
OverhangOff
 70
    21
 71
     2
 72
     2
 73
     0
 90
        0
 40
-0.6
 41
-30.0
 62
     5
 63
     7
 74
     1
 91
        4
 64
     7
 65
   257
 75
     1
175
     1
 42
1.0
 92
        9
 66
     7
 43
1.0
 76
     1
 77
     6
 78
     2
 67
     7
 79
     5
170
     0
171
     0
290
     0
174
     0
 93
        1
 44
0.0
173
     0
291
     1
 45
0.0
1001
ACAD
1000
AcDbSavedByObjectVersion
1070
     0
  0
VISUALSTYLE
  5
AF26
102
{ACAD_XDICTIONARY
360
AF88
102
}
102
{ACAD_REACTORS
330
AF1C
102
}
330
AF1C
100
AcDbVisualStyle
  2
Realistic
 70
     8
 71
     2
 72
     3
 73
     0
 90
        2
 40
-0.6
 41
30.0
 62
     5
 63
     7
 74
     0
 91
        0
 64
     7
 65
   257
 75
     1
175
     1
 42
1.0
 92
        8
 66
   257
 43
1.0
 76
     1
 77
     6
 78
     2
 67
     7
 79
     3
170
     0
171
     0
290
     0
174
     0
 93
       13
 44
0.0
173
     0
291
     0
 45
0.0
1001
ACAD
1000
AcDbSavedByObjectVersion
1070
     0
  0
VISUALSTYLE
  5
AF31
102
{ACAD_XDICTIONARY
360
AF9E
102
}
102
{ACAD_REACTORS
330
AF1C
102
}
330
AF1C
100
AcDbVisualStyle
  2
Shaded
 70
    27
 71
     2
 72
     2
 73
     1
 90
        2
 40
-0.6
 41
30.0
 62
     5
 63
     7
 74
     0
 91
        4
 64
     7
 65
   257
 75
     1
175
     1
 42
1.0
 92
        8
 66
   257
 43
1.0
 76
     1
 77
     6
 78
     2
 67
     8
 79
     3
170
     0
171
     0
290
     0
174
     0
 93
        5
 44
0.0
173
     0
291
     0
 45
0.0
1001
ACAD
1000
AcDbSavedByObjectVersion
1070
     0
  0
VISUALSTYLE
  5
AF30
102
{ACAD_XDICTIONARY
360
AF9C
102
}
102
{ACAD_REACTORS
330
AF1C
102
}
330
AF1C
100
AcDbVisualStyle
  2
Shaded with edges
 70
    26
 71
     2
 72
     2
 73
     1
 90
        2
 40
-0.6
 41
30.0
 62
     5
 63
     7
 74
     1
 91
       10
 64
     7
 65
   257
 75
     2
175
     1
 42
1.0
 92
        8
 66
   257
 43
1.0
 76
     1
 77
     6
 78
     2
 67
     7
 79
     3
170
     0
171
     0
290
     0
174
     0
 93
        5
 44
0.0
173
     0
291
     0
 45
0.0
1001
ACAD
1000
AcDbSavedByObjectVersion
1070
     0
  0
VISUALSTYLE
  5
AF2D
102
{ACAD_XDICTIONARY
360
AF96
102
}
102
{ACAD_REACTORS
330
AF1C
102
}
330
AF1C
100
AcDbVisualStyle
  2
Shades of Gray
 70
    23
 71
     2
 72
     2
 73
     3
 90
        0
 40
-0.6
 41
-30.0
 62
     5
 63
     7
 74
     2
 91
        2
 64
     7
 65
     7
 75
     1
175
     1
 42
40.0
 92
        8
 66
     7
 43
1.0
 76
     1
 77
     6
 78
     2
 67
     7
 79
     3
170
     0
171
     0
290
     0
174
     0
 93
        1
 44
0.0
173
     0
291
     0
 45
0.0
1001
ACAD
1000
AcDbSavedByObjectVersion
1070
     0
  0
VISUALSTYLE
  5
AF2E
102
{ACAD_XDICTIONARY
360
AF98
102
}
102
{ACAD_REACTORS
330
AF1C
102
}
330
AF1C
100
AcDbVisualStyle
  2
Sketchy
 70
    24
 71
     1
 72
     2
 73
     2
 90
        0
 40
-0.6
 41
-30.0
 62
     5
 63
     7
 74
     2
 91
        2
 64
     7
 65
     7
 75
     1
175
     1
 42
40.0
 92
       11
 66
     7
 43
1.0
 76
     1
 77
     6
 78
     2
 67
     7
 79
     6
170
     0
171
     0
290
     0
174
     0
 93
        1
 44
0.0
173
     0
291
     0
 45
0.0
1001
ACAD
1000
AcDbSavedByObjectVersion
1070
     0
  0
VISUALSTYLE
  5
AF29
102
{ACAD_XDICTIONARY
360
AF8E
102
}
102
{ACAD_REACTORS
330
AF1C
102
}
330
AF1C
100
AcDbVisualStyle
  2
Thicken
 70
    13
 71
     2
 72
     2
 73
     0
 90
        0
 40
-0.6
 41
-30.0
 62
     5
 63
     7
 74
     1
 91
        4
 64
     7
 65
   257
 75
     1
175
     1
 42
1.0
 92
       12
 66
     7
 43
1.0
 76
     1
 77
     6
 78
     2
 67
     7
 79
     5
170
     0
171
     0
290
     0
174
     0
 93
        1
 44
0.0
173
     0
291
     1
 45
0.0
1001
ACAD
1000
AcDbSavedByObjectVersion
1070
     0
  0
VISUALSTYLE
  5
AF23
102
{ACAD_XDICTIONARY
360
AF82
102
}
102
{ACAD_REACTORS
330
AF1C
102
}
330
AF1C
100
AcDbVisualStyle
  2
Wireframe
 70
     5
 71
     0
 72
     2
 73
     0
 90
        0
 40
-0.6
 41
-30.0
 62
     5
 63
     7
 74
     1
 91
        4
 64
     7
 65
   257
 75
     1
175
     1
 42
1.0
 92
        0
 66
   257
 43
1.0
 76
     1
 77
     6
 78
     2
 67
     7
 79
     3
170
     0
171
     0
290
     0
174
     0
 93
        1
 44
0.0
173
     0
291
     0
 45
0.0
1001
ACAD
1000
AcDbSavedByObjectVersion
1070
     0
  0
VISUALSTYLE
  5
AF2F
102
{ACAD_XDICTIONARY
360
AF9A
102
}
102
{ACAD_REACTORS
330
AF1C
102
}
330
AF1C
100
AcDbVisualStyle
  2
X-Ray
 70
    25
 71
     2
 72
     2
 73
     1
 90
        1
 40
0.5
 41
-30.0
 62
     5
 63
     7
 74
     1
 91
        0
 64
     7
 65
   257
 75
     1
175
     1
 42
1.0
 92
        8
 66
     7
 43
1.0
 76
     1
 77
     6
 78
     2
 67
     7
 79
     3
170
     0
171
     0
290
     0
174
     0
 93
       13
 44
0.0
173
     0
291
     0
 45
0.0
1001
ACAD
1000
AcDbSavedByObjectVersion
1070
     0
  0
DICTIONARYVAR
  5
AF69
102
{ACAD_REACTORS
330
AF64
102
}
330
AF64
100
DictionaryVariables
280
     0
  1
1:1
  0
DICTIONARYVAR
  5
AF66
102
{ACAD_REACTORS
330
AF64
102
}
330
AF64
100
DictionaryVariables
280
     0
  1
STANDARD
  0
DICTIONARYVAR
  5
AF65
102
{ACAD_REACTORS
330
AF64
102
}
330
AF64
100
DictionaryVariables
280
     0
  1
STANDARD
  0
DICTIONARYVAR
  5
AF67
102
{ACAD_REACTORS
330
AF64
102
}
330
AF64
100
DictionaryVariables
280
     0
  1
Imperial24
  0
DICTIONARYVAR
  5
AF68
102
{ACAD_REACTORS
330
AF64
102
}
330
AF64
100
DictionaryVariables
280
     0
  1
Imperial24
  0
DICTIONARYVAR
  5
AF6C
102
{ACAD_REACTORS
330
AF64
102
}
330
AF64
100
DictionaryVariables
280
     0
  1
1
  0
DICTIONARYVAR
  5
AF6B
102
{ACAD_REACTORS
330
AF64
102
}
330
AF64
100
DictionaryVariables
280
     0
  1
0
  0
DICTIONARYVAR
  5
AF6A
102
{ACAD_REACTORS
330
AF64
102
}
330
AF64
100
DictionaryVariables
280
     0
  1
127
  0
DICTIONARYVAR
  5
AF6D
102
{ACAD_REACTORS
330
AF64
102
}
330
AF64
100
DictionaryVariables
280
     0
  1
2
  0
DICTIONARY
  5
AFAA
330
AF4F
100
AcDbDictionary
280
     1
281
     1
  3
ACAD_XREC_ROUNDTRIP
360
AFAB
  0
DICTIONARY
  5
AFAC
330
AF50
100
AcDbDictionary
280
     1
281
     1
  3
ACAD_XREC_ROUNDTRIP
360
AFAD
  0
DICTIONARY
  5
AFAE
330
AF51
100
AcDbDictionary
280
     1
281
     1
  3
ACAD_XREC_ROUNDTRIP
360
AFAF
  0
DICTIONARY
  5
AF0D
330
AF0C
100
AcDbDictionary
280
     1
281
     1
  3
ACAD_XREC_ROUNDTRIP
360
AF74
  3
BUMPTILE
360
AF0F
  3
DIFFUSETILE
360
AF0E
  3
OPACITYTILE
360
AF12
  3
REFLECTIONTILE
360
AF11
  3
REFRACTIONTILE
360
AF13
  3
SPECULARTILE
360
AF10
  0
DICTIONARY
  5
AF05
330
AF04
100
AcDbDictionary
280
     1
281
     1
  3
ACAD_XREC_ROUNDTRIP
360
AF73
  3
BUMPTILE
360
AF07
  3
DIFFUSETILE
360
AF06
  3
OPACITYTILE
360
AF0A
  3
REFLECTIONTILE
360
AF09
  3
REFRACTIONTILE
360
AF0B
  3
SPECULARTILE
360
AF08
  0
DICTIONARY
  5
AF15
330
AF14
100
AcDbDictionary
280
     1
281
     1
  3
ACAD_XREC_ROUNDTRIP
360
AF75
  3
BUMPTILE
360
AF17
  3
DIFFUSETILE
360
AF16
  3
OPACITYTILE
360
AF1A
  3
REFLECTIONTILE
360
AF19
  3
REFRACTIONTILE
360
AF1B
  3
SPECULARTILE
360
AF18
  0
DICTIONARY
  5
AFA8
330
AF4D
100
AcDbDictionary
280
     1
281
     1
  3
ACAD_XREC_ROUNDTRIP
360
AFA9
  0
DICTIONARY
  5
AF6F
330
AF37
100
AcDbDictionary
280
     1
281
     1
  3
ACAD_ROUNDTRIP_2008_TABLESTYLE_CELLSTYLEMAP
360
AF70
  3
ACAD_XREC_ROUNDTRIP
360
AFA6
  0
DICTIONARY
  5
AF80
330
AF22
100
AcDbDictionary
280
     1
281
     1
  3
ACAD_XREC_ROUNDTRIP
360
AF81
  0
DICTIONARY
  5
AF7E
330
AF21
100
AcDbDictionary
280
     1
281
     1
  3
ACAD_XREC_ROUNDTRIP
360
AF7F
  0
DICTIONARY
  5
AF8C
330
AF28
100
AcDbDictionary
280
     1
281
     1
  3
ACAD_XREC_ROUNDTRIP
360
AF8D
  0
DICTIONARY
  5
AF94
330
AF2C
100
AcDbDictionary
280
     1
281
     1
  3
ACAD_XREC_ROUNDTRIP
360
AF95
  0
DICTIONARY
  5
AF86
330
AF25
100
AcDbDictionary
280
     1
281
     1
  3
ACAD_XREC_ROUNDTRIP
360
AF87
  0
DICTIONARY
  5
AF8A
330
AF27
100
AcDbDictionary
280
     1
281
     1
  3
ACAD_XREC_ROUNDTRIP
360
AF8B
  0
DICTIONARY
  5
AFA4
330
AF34
100
AcDbDictionary
280
     1
281
     1
  3
ACAD_XREC_ROUNDTRIP
360
AFA5
  0
DICTIONARY
  5
AF92
330
AF2B
100
AcDbDictionary
280
     1
281
     1
  3
ACAD_XREC_ROUNDTRIP
360
AF93
  0
DICTIONARY
  5
AF76
330
AF1D
100
AcDbDictionary
280
     1
281
     1
  3
ACAD_XREC_ROUNDTRIP
360
AF77
  0
DICTIONARY
  5
AF78
330
AF1E
100
AcDbDictionary
280
     1
281
     1
  3
ACAD_XREC_ROUNDTRIP
360
AF79
  0
DICTIONARY
  5
AF7A
330
AF1F
100
AcDbDictionary
280
     1
281
     1
  3
ACAD_XREC_ROUNDTRIP
360
AF7B
  0
DICTIONARY
  5
AF7C
330
AF20
100
AcDbDictionary
280
     1
281
     1
  3
ACAD_XREC_ROUNDTRIP
360
AF7D
  0
DICTIONARY
  5
AF84
330
AF24
100
AcDbDictionary
280
     1
281
     1
  3
ACAD_XREC_ROUNDTRIP
360
AF85
  0
DICTIONARY
  5
AFA0
330
AF32
100
AcDbDictionary
280
     1
281
     1
  3
ACAD_XREC_ROUNDTRIP
360
AFA1
  0
DICTIONARY
  5
AF90
330
AF2A
100
AcDbDictionary
280
     1
281
     1
  3
ACAD_XREC_ROUNDTRIP
360
AF91
  0
DICTIONARY
  5
AFA2
330
AF33
100
AcDbDictionary
280
     1
281
     1
  3
ACAD_XREC_ROUNDTRIP
360
AFA3
  0
DICTIONARY
  5
AF88
330
AF26
100
AcDbDictionary
280
     1
281
     1
  3
ACAD_XREC_ROUNDTRIP
360
AF89
  0
DICTIONARY
  5
AF9E
330
AF31
100
AcDbDictionary
280
     1
281
     1
  3
ACAD_XREC_ROUNDTRIP
360
AF9F
  0
DICTIONARY
  5
AF9C
330
AF30
100
AcDbDictionary
280
     1
281
     1
  3
ACAD_XREC_ROUNDTRIP
360
AF9D
  0
DICTIONARY
  5
AF96
330
AF2D
100
AcDbDictionary
280
     1
281
     1
  3
ACAD_XREC_ROUNDTRIP
360
AF97
  0
DICTIONARY
  5
AF98
330
AF2E
100
AcDbDictionary
280
     1
281
     1
  3
ACAD_XREC_ROUNDTRIP
360
AF99
  0
DICTIONARY
  5
AF8E
330
AF29
100
AcDbDictionary
280
     1
281
     1
  3
ACAD_XREC_ROUNDTRIP
360
AF8F
  0
DICTIONARY
  5
AF82
330
AF23
100
AcDbDictionary
280
     1
281
     1
  3
ACAD_XREC_ROUNDTRIP
360
AF83
  0
DICTIONARY
  5
AF9A
330
AF2F
100
AcDbDictionary
280
     1
281
     1
  3
ACAD_XREC_ROUNDTRIP
360
AF9B
  0
XRECORD
  5
AFAB
102
{ACAD_REACTORS
330
AFAA
102
}
330
AFAA
100
AcDbXrecord
280
     1
102
DISPLAYNAME
  1
Imperial24
102
FLAGS
 90
        0
  0
XRECORD
  5
AFAD
102
{ACAD_REACTORS
330
AFAC
102
}
330
AFAC
100
AcDbXrecord
280
     1
102
SHADEPLOT
 70
     0
102
SHADEPLOTRESLEVEL
 70
     2
102
SHADEPLOTCUSTOMDPI
 70
   300
  0
XRECORD
  5
AFAF
102
{ACAD_REACTORS
330
AFAE
102
}
330
AFAE
100
AcDbXrecord
280
     1
102
SHADEPLOT
 70
     0
102
SHADEPLOTRESLEVEL
 70
     2
102
SHADEPLOTCUSTOMDPI
 70
   300
  0
XRECORD
  5
AF74
102
{ACAD_REACTORS
330
AF0D
102
}
330
AF0D
100
AcDbXrecord
280
     1
102
MATERIAL
148
0.0
149
0.0
149
0.0
 93
        0
 94
      127
282
     0
 72
     0
 77
     0
171
     0
175
     0
179
     0
273
     0
  0
XRECORD
  5
AF0F
102
{ACAD_REACTORS
330
AF0D
102
}
330
AF0D
100
AcDbXrecord
280
     1
270
     1
271
     1
  0
XRECORD
  5
AF0E
102
{ACAD_REACTORS
330
AF0D
102
}
330
AF0D
100
AcDbXrecord
280
     1
270
     1
271
     1
  0
XRECORD
  5
AF12
102
{ACAD_REACTORS
330
AF0D
102
}
330
AF0D
100
AcDbXrecord
280
     1
270
     1
271
     1
  0
XRECORD
  5
AF11
102
{ACAD_REACTORS
330
AF0D
102
}
330
AF0D
100
AcDbXrecord
280
     1
270
     1
271
     1
  0
XRECORD
  5
AF13
102
{ACAD_REACTORS
330
AF0D
102
}
330
AF0D
100
AcDbXrecord
280
     1
270
     1
271
     1
  0
XRECORD
  5
AF10
102
{ACAD_REACTORS
330
AF0D
102
}
330
AF0D
100
AcDbXrecord
280
     1
270
     1
271
     1
  0
XRECORD
  5
AF73
102
{ACAD_REACTORS
330
AF05
102
}
330
AF05
100
AcDbXrecord
280
     1
102
MATERIAL
148
0.0
149
0.0
149
0.0
 93
        0
 94
      127
282
     0
 72
     0
 77
     0
171
     0
175
     0
179
     0
273
     0
  0
XRECORD
  5
AF07
102
{ACAD_REACTORS
330
AF05
102
}
330
AF05
100
AcDbXrecord
280
     1
270
     1
271
     1
  0
XRECORD
  5
AF06
102
{ACAD_REACTORS
330
AF05
102
}
330
AF05
100
AcDbXrecord
280
     1
270
     1
271
     1
  0
XRECORD
  5
AF0A
102
{ACAD_REACTORS
330
AF05
102
}
330
AF05
100
AcDbXrecord
280
     1
270
     1
271
     1
  0
XRECORD
  5
AF09
102
{ACAD_REACTORS
330
AF05
102
}
330
AF05
100
AcDbXrecord
280
     1
270
     1
271
     1
  0
XRECORD
  5
AF0B
102
{ACAD_REACTORS
330
AF05
102
}
330
AF05
100
AcDbXrecord
280
     1
270
     1
271
     1
  0
XRECORD
  5
AF08
102
{ACAD_REACTORS
330
AF05
102
}
330
AF05
100
AcDbXrecord
280
     1
270
     1
271
     1
  0
XRECORD
  5
AF75
102
{ACAD_REACTORS
330
AF15
102
}
330
AF15
100
AcDbXrecord
280
     1
102
MATERIAL
148
0.0
149
0.0
149
0.0
 93
        0
 94
      127
282
     0
 72
     0
 77
     0
171
     0
175
     0
179
     0
273
     0
  0
XRECORD
  5
AF17
102
{ACAD_REACTORS
330
AF15
102
}
330
AF15
100
AcDbXrecord
280
     1
270
     1
271
     1
  0
XRECORD
  5
AF16
102
{ACAD_REACTORS
330
AF15
102
}
330
AF15
100
AcDbXrecord
280
     1
270
     1
271
     1
  0
XRECORD
  5
AF1A
102
{ACAD_REACTORS
330
AF15
102
}
330
AF15
100
AcDbXrecord
280
     1
270
     1
271
     1
  0
XRECORD
  5
AF19
102
{ACAD_REACTORS
330
AF15
102
}
330
AF15
100
AcDbXrecord
280
     1
270
     1
271
     1
  0
XRECORD
  5
AF1B
102
{ACAD_REACTORS
330
AF15
102
}
330
AF15
100
AcDbXrecord
280
     1
270
     1
271
     1
  0
XRECORD
  5
AF18
102
{ACAD_REACTORS
330
AF15
102
}
330
AF15
100
AcDbXrecord
280
     1
270
     1
271
     1
  0
XRECORD
  5
AFA9
102
{ACAD_REACTORS
330
AFA8
102
}
330
AFA8
100
AcDbXrecord
280
     1
102
DISPLAYNAME
  1
Imperial24
102
FLAGS
 90
        0
  0
CELLSTYLEMAP
  5
AF70
102
{ACAD_REACTORS
330
AF6F
102
}
330
AF6F
100
AcDbCellStyleMap
 90
        3
300
CELLSTYLE
  1
TABLEFORMAT_BEGIN
 90
        5
170
     1
 91
        0
 92
    32768
 62
   257
 93
        1
300
CONTENTFORMAT
  1
CONTENTFORMAT_BEGIN
 90
        0
 91
        0
 92
      512
 93
        0
300

 40
0.0
140
1.0
 94
        5
 62
     0
340
ACC6
144
0.25
309
CONTENTFORMAT_END
171
     0
 94
        0
309
TABLEFORMAT_END
  1
CELLSTYLE_BEGIN
 90
        1
 91
        1
300
_TITLE
309
CELLSTYLE_END
300
CELLSTYLE
  1
TABLEFORMAT_BEGIN
 90
        5
170
     1
 91
        0
 92
        0
 62
   257
 93
        1
300
CONTENTFORMAT
  1
CONTENTFORMAT_BEGIN
 90
        0
 91
        0
 92
      512
 93
        0
300

 40
0.0
140
1.0
 94
        5
 62
     0
340
ACC6
144
0.18
309
CONTENTFORMAT_END
171
     0
 94
        0
309
TABLEFORMAT_END
  1
CELLSTYLE_BEGIN
 90
        2
 91
        1
300
_HEADER
309
CELLSTYLE_END
300
CELLSTYLE
  1
TABLEFORMAT_BEGIN
 90
        5
170
     1
 91
        0
 92
        0
 62
   257
 93
        1
300
CONTENTFORMAT
  1
CONTENTFORMAT_BEGIN
 90
        0
 91
        0
 92
      512
 93
        0
300

 40
0.0
140
1.0
 94
        2
 62
     0
340
ACC6
144
0.18
309
CONTENTFORMAT_END
171
     0
 94
        0
309
TABLEFORMAT_END
  1
CELLSTYLE_BEGIN
 90
        3
 91
        2
300
_DATA
309
CELLSTYLE_END
  0
XRECORD
  5
AFA6
102
{ACAD_REACTORS
330
AF6F
102
}
330
AF6F
100
AcDbXrecord
280
     1
102
ACAD_ROUNDTRIP_PRE2007_TABLESTYLE
 90
      512
 91
        0
  1

 92
      512
 93
        0
  2

 94
      512
 95
        0
  3

  0
XRECORD
  5
AF81
102
{ACAD_REACTORS
330
AF80
102
}
330
AF80
100
AcDbXrecord
280
     1
102
RTVSPost2010Prop28
280
     1
102
RTVSPost2010PropOp28
 70
     1
102
RTVSPost2010Prop29
280
     1
102
RTVSPost2010PropOp29
 70
     1
102
RTVSPost2010Prop30
280
     0
102
RTVSPost2010PropOp30
 70
     1
102
RTVSPost2010Prop31
280
     0
102
RTVSPost2010PropOp31
 70
     1
102
RTVSPost2010Prop32
280
     0
102
RTVSPost2010PropOp32
 70
     1
102
RTVSPost2010Prop33
280
     0
102
RTVSPost2010PropOp33
 70
     1
102
RTVSPost2010Prop34
280
     0
102
RTVSPost2010PropOp34
 70
     1
102
RTVSPost2010Prop35
280
     0
102
RTVSPost2010PropOp35
 70
     1
102
RTVSPost2010Prop36
280
     0
102
RTVSPost2010PropOp36
 70
     1
102
RTVSPost2010Prop37
 90
       50
102
RTVSPost2010PropOp37
 70
     1
102
RTVSPost2010Prop38
140
0.0
102
RTVSPost2010PropOp38
 70
     1
102
RTVSPost2010Prop39
140
1.0
102
RTVSPost2010PropOp39
 70
     1
102
RTVSPost2010Prop40
 90
        0
102
RTVSPost2010PropOp40
 70
     1
102
RTVSPost2010Prop41ColorIndex
 90
       18
102
RTVSPost2010Prop41ColorRGB
 90
        0
102
RTVSPost2010PropOp41
 70
     1
102
RTVSPost2010Prop42
 90
       50
102
RTVSPost2010PropOp42
 70
     1
102
RTVSPost2010Prop43
 90
        3
102
RTVSPost2010PropOp43
 70
     1
102
RTVSPost2010Prop44ColorIndex
 90
        5
102
RTVSPost2010Prop44ColorRGB
 90
      255
102
RTVSPost2010PropOp44
 70
     1
102
RTVSPost2010Prop45
280
     0
102
RTVSPost2010PropOp45
 70
     1
102
RTVSPost2010Prop46
 90
       50
102
RTVSPost2010PropOp46
 70
     1
102
RTVSPost2010Prop47
 90
       50
102
RTVSPost2010PropOp47
 70
     1
102
RTVSPost2010Prop48
 90
       50
102
RTVSPost2010PropOp48
 70
     1
102
RTVSPost2010Prop49
280
     0
102
RTVSPost2010PropOp49
 70
     1
102
RTVSPost2010Prop50
 90
       50
102
RTVSPost2010PropOp50
 70
     1
102
RTVSPost2010Prop51ColorIndex
 90
      256
102
RTVSPost2010Prop51ColorRGB
 90
-16777216
102
RTVSPost2010PropOp51
 70
     0
102
RTVSPost2010Prop52
140
1.0
102
RTVSPost2010PropOp52
 70
     0
102
RTVSPost2010Prop53
 90
        2
102
RTVSPost2010PropOp53
 70
     1
102
RTVSPost2010Prop54
  1
strokes_ogs.tif
102
RTVSPost2010PropOp54
 70
     1
102
RTVSPost2010Prop55
280
     0
102
RTVSPost2010PropOp55
 70
     1
102
RTVSPost2010Prop56
140
1.0
102
RTVSPost2010PropOp56
 70
     1
102
RTVSPost2010Prop57
140
1.0
102
RTVSPost2010PropOp57
 70
     1
102
RTVSPropertyOp0
 70
     1
102
RTVSPropertyOp1
 70
     1
102
RTVSPropertyOp2
 70
     1
102
RTVSPropertyOp3
 70
     1
102
RTVSPropertyOp4
 70
     1
102
RTVSPropertyOp5
 70
     1
102
RTVSPropertyOp6
 70
     1
102
RTVSPropertyOp7
 70
     1
102
RTVSPropertyOp8
 70
     1
102
RTVSPropertyOp9
 70
     1
102
RTVSPropertyOp10
 70
     1
102
RTVSPropertyOp11
 70
     1
102
RTVSPropertyOp12
 70
     1
102
RTVSPropertyOp13
 70
     1
102
RTVSPropertyOp14
 70
     1
102
RTVSPropertyOp15
 70
     1
102
RTVSPropertyOp16
 70
     1
102
RTVSPropertyOp17
 70
     1
102
RTVSPropertyOp18
 70
     1
102
RTVSPropertyOp19
 70
     1
102
RTVSPropertyOp20
 70
     1
102
RTVSPropertyOp21
 70
     1
102
RTVSPropertyOp22
 70
     1
102
RTVSPropertyOp23
 70
     1
102
RTVSPropertyOp24
 70
     1
102
RTVSPropertyOp25
 70
     1
102
RTVSPropertyOp26
 70
     1
102
RTVSPropertyOp27
 70
     1
102
RTVSPropertyOp28
 70
     1
102
RTVSPropertyOp29
 70
     1
102
RTVSPropertyOp30
 70
     1
102
RTVSPropertyOp31
 70
     1
102
RTVSPropertyOp32
 70
     1
102
RTVSPropertyOp33
 70
     1
102
RTVSPropertyOp34
 70
     1
102
RTVSPropertyOp35
 70
     1
102
RTVSPropertyOp36
 70
     1
102
RTVSPropertyOp37
 70
     1
102
RTVSPropertyOp38
 70
     1
102
RTVSPropertyOp39
 70
     1
102
RTVSPropertyOp40
 70
     1
102
RTVSPropertyOp41
 70
     1
102
RTVSPropertyOp42
 70
     1
102
RTVSPropertyOp43
 70
     1
102
RTVSPropertyOp44
 70
     1
102
RTVSPropertyOp45
 70
     1
102
RTVSPropertyOp46
 70
     1
102
RTVSPropertyOp47
 70
     1
102
RTVSPropertyOp48
 70
     1
102
RTVSPropertyOp49
 70
     1
102
RTVSPropertyOp50
 70
     1
102
RTVSPropertyOp51
 70
     0
102
RTVSPropertyOp52
 70
     0
102
RTVSPropertyOp53
 70
     1
102
RTVSPropertyOp54
 70
     1
102
RTVSPropertyOp55
 70
     1
102
RTVSPropertyOp56
 70
     1
102
RTVSPropertyOp57
 70
     1
102
RTVSPropertyOp58
 70
     1
102
RTVSPropertyOp59
 70
     1
102
RTVSPropertyOp60
 70
     1
102
RTVSPropertyOp61
 70
     1
102
RTVSPropertyOp62
 70
     1
  0
XRECORD
  5
AF7F
102
{ACAD_REACTORS
330
AF7E
102
}
330
AF7E
100
AcDbXrecord
280
     1
102
RTVSPost2010Prop28
280
     0
102
RTVSPost2010PropOp28
 70
     1
102
RTVSPost2010Prop29
280
     1
102
RTVSPost2010PropOp29
 70
     1
102
RTVSPost2010Prop30
280
     1
102
RTVSPost2010PropOp30
 70
     1
102
RTVSPost2010Prop31
280
     0
102
RTVSPost2010PropOp31
 70
     1
102
RTVSPost2010Prop32
280
     0
102
RTVSPost2010PropOp32
 70
     1
102
RTVSPost2010Prop33
280
     0
102
RTVSPost2010PropOp33
 70
     1
102
RTVSPost2010Prop34
280
     0
102
RTVSPost2010PropOp34
 70
     1
102
RTVSPost2010Prop35
280
     0
102
RTVSPost2010PropOp35
 70
     1
102
RTVSPost2010Prop36
280
     0
102
RTVSPost2010PropOp36
 70
     1
102
RTVSPost2010Prop37
 90
       50
102
RTVSPost2010PropOp37
 70
     1
102
RTVSPost2010Prop38
140
0.0
102
RTVSPost2010PropOp38
 70
     1
102
RTVSPost2010Prop39
140
1.0
102
RTVSPost2010PropOp39
 70
     1
102
RTVSPost2010Prop40
 90
        0
102
RTVSPost2010PropOp40
 70
     1
102
RTVSPost2010Prop41ColorIndex
 90
       18
102
RTVSPost2010Prop41ColorRGB
 90
        0
102
RTVSPost2010PropOp41
 70
     1
102
RTVSPost2010Prop42
 90
       50
102
RTVSPost2010PropOp42
 70
     1
102
RTVSPost2010Prop43
 90
        3
102
RTVSPost2010PropOp43
 70
     1
102
RTVSPost2010Prop44ColorIndex
 90
        5
102
RTVSPost2010Prop44ColorRGB
 90
      255
102
RTVSPost2010PropOp44
 70
     1
102
RTVSPost2010Prop45
280
     0
102
RTVSPost2010PropOp45
 70
     1
102
RTVSPost2010Prop46
 90
       50
102
RTVSPost2010PropOp46
 70
     1
102
RTVSPost2010Prop47
 90
       50
102
RTVSPost2010PropOp47
 70
     1
102
RTVSPost2010Prop48
 90
       50
102
RTVSPost2010PropOp48
 70
     1
102
RTVSPost2010Prop49
280
     0
102
RTVSPost2010PropOp49
 70
     1
102
RTVSPost2010Prop50
 90
       50
102
RTVSPost2010PropOp50
 70
     1
102
RTVSPost2010Prop51ColorIndex
 90
      256
102
RTVSPost2010Prop51ColorRGB
 90
-16777216
102
RTVSPost2010PropOp51
 70
     0
102
RTVSPost2010Prop52
140
1.0
102
RTVSPost2010PropOp52
 70
     0
102
RTVSPost2010Prop53
 90
        2
102
RTVSPost2010PropOp53
 70
     1
102
RTVSPost2010Prop54
  1
strokes_ogs.tif
102
RTVSPost2010PropOp54
 70
     1
102
RTVSPost2010Prop55
280
     0
102
RTVSPost2010PropOp55
 70
     1
102
RTVSPost2010Prop56
140
1.0
102
RTVSPost2010PropOp56
 70
     1
102
RTVSPost2010Prop57
140
1.0
102
RTVSPost2010PropOp57
 70
     1
102
RTVSPropertyOp0
 70
     1
102
RTVSPropertyOp1
 70
     1
102
RTVSPropertyOp2
 70
     1
102
RTVSPropertyOp3
 70
     1
102
RTVSPropertyOp4
 70
     1
102
RTVSPropertyOp5
 70
     1
102
RTVSPropertyOp6
 70
     1
102
RTVSPropertyOp7
 70
     1
102
RTVSPropertyOp8
 70
     1
102
RTVSPropertyOp9
 70
     1
102
RTVSPropertyOp10
 70
     1
102
RTVSPropertyOp11
 70
     1
102
RTVSPropertyOp12
 70
     1
102
RTVSPropertyOp13
 70
     1
102
RTVSPropertyOp14
 70
     1
102
RTVSPropertyOp15
 70
     1
102
RTVSPropertyOp16
 70
     1
102
RTVSPropertyOp17
 70
     1
102
RTVSPropertyOp18
 70
     1
102
RTVSPropertyOp19
 70
     1
102
RTVSPropertyOp20
 70
     1
102
RTVSPropertyOp21
 70
     1
102
RTVSPropertyOp22
 70
     1
102
RTVSPropertyOp23
 70
     1
102
RTVSPropertyOp24
 70
     1
102
RTVSPropertyOp25
 70
     1
102
RTVSPropertyOp26
 70
     1
102
RTVSPropertyOp27
 70
     1
102
RTVSPropertyOp28
 70
     1
102
RTVSPropertyOp29
 70
     1
102
RTVSPropertyOp30
 70
     1
102
RTVSPropertyOp31
 70
     1
102
RTVSPropertyOp32
 70
     1
102
RTVSPropertyOp33
 70
     1
102
RTVSPropertyOp34
 70
     1
102
RTVSPropertyOp35
 70
     1
102
RTVSPropertyOp36
 70
     1
102
RTVSPropertyOp37
 70
     1
102
RTVSPropertyOp38
 70
     1
102
RTVSPropertyOp39
 70
     1
102
RTVSPropertyOp40
 70
     1
102
RTVSPropertyOp41
 70
     1
102
RTVSPropertyOp42
 70
     1
102
RTVSPropertyOp43
 70
     1
102
RTVSPropertyOp44
 70
     1
102
RTVSPropertyOp45
 70
     1
102
RTVSPropertyOp46
 70
     1
102
RTVSPropertyOp47
 70
     1
102
RTVSPropertyOp48
 70
     1
102
RTVSPropertyOp49
 70
     1
102
RTVSPropertyOp50
 70
     1
102
RTVSPropertyOp51
 70
     0
102
RTVSPropertyOp52
 70
     0
102
RTVSPropertyOp53
 70
     1
102
RTVSPropertyOp54
 70
     1
102
RTVSPropertyOp55
 70
     1
102
RTVSPropertyOp56
 70
     1
102
RTVSPropertyOp57
 70
     1
102
RTVSPropertyOp58
 70
     1
102
RTVSPropertyOp59
 70
     1
102
RTVSPropertyOp60
 70
     1
102
RTVSPropertyOp61
 70
     1
102
RTVSPropertyOp62
 70
     1
  0
XRECORD
  5
AF8D
102
{ACAD_REACTORS
330
AF8C
102
}
330
AF8C
100
AcDbXrecord
280
     1
102
RTVSPost2010Prop28
280
     0
102
RTVSPost2010PropOp28
 70
     1
102
RTVSPost2010Prop29
280
     1
102
RTVSPost2010PropOp29
 70
     1
102
RTVSPost2010Prop30
280
     1
102
RTVSPost2010PropOp30
 70
     1
102
RTVSPost2010Prop31
280
     0
102
RTVSPost2010PropOp31
 70
     1
102
RTVSPost2010Prop32
280
     0
102
RTVSPost2010PropOp32
 70
     1
102
RTVSPost2010Prop33
280
     0
102
RTVSPost2010PropOp33
 70
     1
102
RTVSPost2010Prop34
280
     0
102
RTVSPost2010PropOp34
 70
     1
102
RTVSPost2010Prop35
280
     0
102
RTVSPost2010PropOp35
 70
     1
102
RTVSPost2010Prop36
280
     0
102
RTVSPost2010PropOp36
 70
     1
102
RTVSPost2010Prop37
 90
       50
102
RTVSPost2010PropOp37
 70
     1
102
RTVSPost2010Prop38
140
0.0
102
RTVSPost2010PropOp38
 70
     1
102
RTVSPost2010Prop39
140
1.0
102
RTVSPost2010PropOp39
 70
     1
102
RTVSPost2010Prop40
 90
        0
102
RTVSPost2010PropOp40
 70
     1
102
RTVSPost2010Prop41ColorIndex
 90
       18
102
RTVSPost2010Prop41ColorRGB
 90
        0
102
RTVSPost2010PropOp41
 70
     1
102
RTVSPost2010Prop42
 90
       50
102
RTVSPost2010PropOp42
 70
     1
102
RTVSPost2010Prop43
 90
        3
102
RTVSPost2010PropOp43
 70
     1
102
RTVSPost2010Prop44ColorIndex
 90
        5
102
RTVSPost2010Prop44ColorRGB
 90
      255
102
RTVSPost2010PropOp44
 70
     1
102
RTVSPost2010Prop45
280
     0
102
RTVSPost2010PropOp45
 70
     1
102
RTVSPost2010Prop46
 90
       50
102
RTVSPost2010PropOp46
 70
     1
102
RTVSPost2010Prop47
 90
       50
102
RTVSPost2010PropOp47
 70
     1
102
RTVSPost2010Prop48
 90
       50
102
RTVSPost2010PropOp48
 70
     1
102
RTVSPost2010Prop49
280
     0
102
RTVSPost2010PropOp49
 70
     1
102
RTVSPost2010Prop50
 90
       50
102
RTVSPost2010PropOp50
 70
     1
102
RTVSPost2010Prop51ColorIndex
 90
      256
102
RTVSPost2010Prop51ColorRGB
 90
-16777216
102
RTVSPost2010PropOp51
 70
     0
102
RTVSPost2010Prop52
140
1.0
102
RTVSPost2010PropOp52
 70
     0
102
RTVSPost2010Prop53
 90
        2
102
RTVSPost2010PropOp53
 70
     1
102
RTVSPost2010Prop54
  1
strokes_ogs.tif
102
RTVSPost2010PropOp54
 70
     1
102
RTVSPost2010Prop55
280
     0
102
RTVSPost2010PropOp55
 70
     1
102
RTVSPost2010Prop56
140
1.0
102
RTVSPost2010PropOp56
 70
     1
102
RTVSPost2010Prop57
140
1.0
102
RTVSPost2010PropOp57
 70
     1
102
RTVSPropertyOp0
 70
     1
102
RTVSPropertyOp1
 70
     1
102
RTVSPropertyOp2
 70
     1
102
RTVSPropertyOp3
 70
     1
102
RTVSPropertyOp4
 70
     1
102
RTVSPropertyOp5
 70
     1
102
RTVSPropertyOp6
 70
     1
102
RTVSPropertyOp7
 70
     1
102
RTVSPropertyOp8
 70
     1
102
RTVSPropertyOp9
 70
     1
102
RTVSPropertyOp10
 70
     1
102
RTVSPropertyOp11
 70
     1
102
RTVSPropertyOp12
 70
     1
102
RTVSPropertyOp13
 70
     1
102
RTVSPropertyOp14
 70
     1
102
RTVSPropertyOp15
 70
     1
102
RTVSPropertyOp16
 70
     1
102
RTVSPropertyOp17
 70
     1
102
RTVSPropertyOp18
 70
     1
102
RTVSPropertyOp19
 70
     1
102
RTVSPropertyOp20
 70
     1
102
RTVSPropertyOp21
 70
     1
102
RTVSPropertyOp22
 70
     1
102
RTVSPropertyOp23
 70
     1
102
RTVSPropertyOp24
 70
     1
102
RTVSPropertyOp25
 70
     1
102
RTVSPropertyOp26
 70
     1
102
RTVSPropertyOp27
 70
     1
102
RTVSPropertyOp28
 70
     1
102
RTVSPropertyOp29
 70
     1
102
RTVSPropertyOp30
 70
     1
102
RTVSPropertyOp31
 70
     1
102
RTVSPropertyOp32
 70
     1
102
RTVSPropertyOp33
 70
     1
102
RTVSPropertyOp34
 70
     1
102
RTVSPropertyOp35
 70
     1
102
RTVSPropertyOp36
 70
     1
102
RTVSPropertyOp37
 70
     1
102
RTVSPropertyOp38
 70
     1
102
RTVSPropertyOp39
 70
     1
102
RTVSPropertyOp40
 70
     1
102
RTVSPropertyOp41
 70
     1
102
RTVSPropertyOp42
 70
     1
102
RTVSPropertyOp43
 70
     1
102
RTVSPropertyOp44
 70
     1
102
RTVSPropertyOp45
 70
     1
102
RTVSPropertyOp46
 70
     1
102
RTVSPropertyOp47
 70
     1
102
RTVSPropertyOp48
 70
     1
102
RTVSPropertyOp49
 70
     1
102
RTVSPropertyOp50
 70
     1
102
RTVSPropertyOp51
 70
     0
102
RTVSPropertyOp52
 70
     0
102
RTVSPropertyOp53
 70
     1
102
RTVSPropertyOp54
 70
     1
102
RTVSPropertyOp55
 70
     1
102
RTVSPropertyOp56
 70
     1
102
RTVSPropertyOp57
 70
     1
102
RTVSPropertyOp58
 70
     1
102
RTVSPropertyOp59
 70
     1
102
RTVSPropertyOp60
 70
     1
102
RTVSPropertyOp61
 70
     1
102
RTVSPropertyOp62
 70
     1
  0
XRECORD
  5
AF95
102
{ACAD_REACTORS
330
AF94
102
}
330
AF94
100
AcDbXrecord
280
     1
102
RTVSPost2010Prop28
280
     0
102
RTVSPost2010PropOp28
 70
     1
102
RTVSPost2010Prop29
280
     1
102
RTVSPost2010PropOp29
 70
     1
102
RTVSPost2010Prop30
280
     1
102
RTVSPost2010PropOp30
 70
     1
102
RTVSPost2010Prop31
280
     0
102
RTVSPost2010PropOp31
 70
     1
102
RTVSPost2010Prop32
280
     0
102
RTVSPost2010PropOp32
 70
     1
102
RTVSPost2010Prop33
280
     0
102
RTVSPost2010PropOp33
 70
     1
102
RTVSPost2010Prop34
280
     0
102
RTVSPost2010PropOp34
 70
     1
102
RTVSPost2010Prop35
280
     0
102
RTVSPost2010PropOp35
 70
     1
102
RTVSPost2010Prop36
280
     0
102
RTVSPost2010PropOp36
 70
     1
102
RTVSPost2010Prop37
 90
       50
102
RTVSPost2010PropOp37
 70
     1
102
RTVSPost2010Prop38
140
0.0
102
RTVSPost2010PropOp38
 70
     1
102
RTVSPost2010Prop39
140
1.0
102
RTVSPost2010PropOp39
 70
     1
102
RTVSPost2010Prop40
 90
        0
102
RTVSPost2010PropOp40
 70
     1
102
RTVSPost2010Prop41ColorIndex
 90
       18
102
RTVSPost2010Prop41ColorRGB
 90
        0
102
RTVSPost2010PropOp41
 70
     1
102
RTVSPost2010Prop42
 90
       50
102
RTVSPost2010PropOp42
 70
     1
102
RTVSPost2010Prop43
 90
        3
102
RTVSPost2010PropOp43
 70
     1
102
RTVSPost2010Prop44ColorIndex
 90
        5
102
RTVSPost2010Prop44ColorRGB
 90
      255
102
RTVSPost2010PropOp44
 70
     1
102
RTVSPost2010Prop45
280
     0
102
RTVSPost2010PropOp45
 70
     1
102
RTVSPost2010Prop46
 90
       50
102
RTVSPost2010PropOp46
 70
     1
102
RTVSPost2010Prop47
 90
       50
102
RTVSPost2010PropOp47
 70
     1
102
RTVSPost2010Prop48
 90
       50
102
RTVSPost2010PropOp48
 70
     1
102
RTVSPost2010Prop49
280
     0
102
RTVSPost2010PropOp49
 70
     1
102
RTVSPost2010Prop50
 90
       50
102
RTVSPost2010PropOp50
 70
     1
102
RTVSPost2010Prop51ColorIndex
 90
      256
102
RTVSPost2010Prop51ColorRGB
 90
-16777216
102
RTVSPost2010PropOp51
 70
     0
102
RTVSPost2010Prop52
140
1.0
102
RTVSPost2010PropOp52
 70
     0
102
RTVSPost2010Prop53
 90
        2
102
RTVSPost2010PropOp53
 70
     1
102
RTVSPost2010Prop54
  1
strokes_ogs.tif
102
RTVSPost2010PropOp54
 70
     1
102
RTVSPost2010Prop55
280
     0
102
RTVSPost2010PropOp55
 70
     1
102
RTVSPost2010Prop56
140
1.0
102
RTVSPost2010PropOp56
 70
     1
102
RTVSPost2010Prop57
140
1.0
102
RTVSPost2010PropOp57
 70
     1
102
RTVSPropertyOp0
 70
     1
102
RTVSPropertyOp1
 70
     1
102
RTVSPropertyOp2
 70
     1
102
RTVSPropertyOp3
 70
     1
102
RTVSPropertyOp4
 70
     1
102
RTVSPropertyOp5
 70
     1
102
RTVSPropertyOp6
 70
     1
102
RTVSPropertyOp7
 70
     1
102
RTVSPropertyOp8
 70
     1
102
RTVSPropertyOp9
 70
     1
102
RTVSPropertyOp10
 70
     1
102
RTVSPropertyOp11
 70
     1
102
RTVSPropertyOp12
 70
     1
102
RTVSPropertyOp13
 70
     1
102
RTVSPropertyOp14
 70
     1
102
RTVSPropertyOp15
 70
     1
102
RTVSPropertyOp16
 70
     1
102
RTVSPropertyOp17
 70
     1
102
RTVSPropertyOp18
 70
     1
102
RTVSPropertyOp19
 70
     1
102
RTVSPropertyOp20
 70
     1
102
RTVSPropertyOp21
 70
     1
102
RTVSPropertyOp22
 70
     1
102
RTVSPropertyOp23
 70
     1
102
RTVSPropertyOp24
 70
     1
102
RTVSPropertyOp25
 70
     1
102
RTVSPropertyOp26
 70
     1
102
RTVSPropertyOp27
 70
     1
102
RTVSPropertyOp28
 70
     1
102
RTVSPropertyOp29
 70
     1
102
RTVSPropertyOp30
 70
     1
102
RTVSPropertyOp31
 70
     1
102
RTVSPropertyOp32
 70
     1
102
RTVSPropertyOp33
 70
     1
102
RTVSPropertyOp34
 70
     1
102
RTVSPropertyOp35
 70
     1
102
RTVSPropertyOp36
 70
     1
102
RTVSPropertyOp37
 70
     1
102
RTVSPropertyOp38
 70
     1
102
RTVSPropertyOp39
 70
     1
102
RTVSPropertyOp40
 70
     1
102
RTVSPropertyOp41
 70
     1
102
RTVSPropertyOp42
 70
     1
102
RTVSPropertyOp43
 70
     1
102
RTVSPropertyOp44
 70
     1
102
RTVSPropertyOp45
 70
     1
102
RTVSPropertyOp46
 70
     1
102
RTVSPropertyOp47
 70
     1
102
RTVSPropertyOp48
 70
     1
102
RTVSPropertyOp49
 70
     1
102
RTVSPropertyOp50
 70
     1
102
RTVSPropertyOp51
 70
     0
102
RTVSPropertyOp52
 70
     0
102
RTVSPropertyOp53
 70
     1
102
RTVSPropertyOp54
 70
     1
102
RTVSPropertyOp55
 70
     1
102
RTVSPropertyOp56
 70
     1
102
RTVSPropertyOp57
 70
     1
102
RTVSPropertyOp58
 70
     1
102
RTVSPropertyOp59
 70
     1
102
RTVSPropertyOp60
 70
     1
102
RTVSPropertyOp61
 70
     1
102
RTVSPropertyOp62
 70
     1
  0
XRECORD
  5
AF87
102
{ACAD_REACTORS
330
AF86
102
}
330
AF86
100
AcDbXrecord
280
     1
102
RTVSPost2010Prop28
280
     0
102
RTVSPost2010PropOp28
 70
     1
102
RTVSPost2010Prop29
280
     1
102
RTVSPost2010PropOp29
 70
     1
102
RTVSPost2010Prop30
280
     1
102
RTVSPost2010PropOp30
 70
     1
102
RTVSPost2010Prop31
280
     0
102
RTVSPost2010PropOp31
 70
     1
102
RTVSPost2010Prop32
280
     0
102
RTVSPost2010PropOp32
 70
     1
102
RTVSPost2010Prop33
280
     0
102
RTVSPost2010PropOp33
 70
     1
102
RTVSPost2010Prop34
280
     0
102
RTVSPost2010PropOp34
 70
     1
102
RTVSPost2010Prop35
280
     0
102
RTVSPost2010PropOp35
 70
     1
102
RTVSPost2010Prop36
280
     0
102
RTVSPost2010PropOp36
 70
     1
102
RTVSPost2010Prop37
 90
       50
102
RTVSPost2010PropOp37
 70
     1
102
RTVSPost2010Prop38
140
0.0
102
RTVSPost2010PropOp38
 70
     1
102
RTVSPost2010Prop39
140
1.0
102
RTVSPost2010PropOp39
 70
     1
102
RTVSPost2010Prop40
 90
        0
102
RTVSPost2010PropOp40
 70
     1
102
RTVSPost2010Prop41ColorIndex
 90
       18
102
RTVSPost2010Prop41ColorRGB
 90
        0
102
RTVSPost2010PropOp41
 70
     1
102
RTVSPost2010Prop42
 90
       50
102
RTVSPost2010PropOp42
 70
     1
102
RTVSPost2010Prop43
 90
        3
102
RTVSPost2010PropOp43
 70
     1
102
RTVSPost2010Prop44ColorIndex
 90
        5
102
RTVSPost2010Prop44ColorRGB
 90
      255
102
RTVSPost2010PropOp44
 70
     1
102
RTVSPost2010Prop45
280
     0
102
RTVSPost2010PropOp45
 70
     1
102
RTVSPost2010Prop46
 90
       50
102
RTVSPost2010PropOp46
 70
     1
102
RTVSPost2010Prop47
 90
       50
102
RTVSPost2010PropOp47
 70
     1
102
RTVSPost2010Prop48
 90
       50
102
RTVSPost2010PropOp48
 70
     1
102
RTVSPost2010Prop49
280
     0
102
RTVSPost2010PropOp49
 70
     1
102
RTVSPost2010Prop50
 90
       50
102
RTVSPost2010PropOp50
 70
     1
102
RTVSPost2010Prop51ColorIndex
 90
      256
102
RTVSPost2010Prop51ColorRGB
 90
-16777216
102
RTVSPost2010PropOp51
 70
     0
102
RTVSPost2010Prop52
140
1.0
102
RTVSPost2010PropOp52
 70
     0
102
RTVSPost2010Prop53
 90
        2
102
RTVSPost2010PropOp53
 70
     1
102
RTVSPost2010Prop54
  1
strokes_ogs.tif
102
RTVSPost2010PropOp54
 70
     1
102
RTVSPost2010Prop55
280
     0
102
RTVSPost2010PropOp55
 70
     1
102
RTVSPost2010Prop56
140
1.0
102
RTVSPost2010PropOp56
 70
     1
102
RTVSPost2010Prop57
140
1.0
102
RTVSPost2010PropOp57
 70
     1
102
RTVSPropertyOp0
 70
     1
102
RTVSPropertyOp1
 70
     1
102
RTVSPropertyOp2
 70
     1
102
RTVSPropertyOp3
 70
     1
102
RTVSPropertyOp4
 70
     1
102
RTVSPropertyOp5
 70
     1
102
RTVSPropertyOp6
 70
     1
102
RTVSPropertyOp7
 70
     1
102
RTVSPropertyOp8
 70
     1
102
RTVSPropertyOp9
 70
     1
102
RTVSPropertyOp10
 70
     1
102
RTVSPropertyOp11
 70
     1
102
RTVSPropertyOp12
 70
     1
102
RTVSPropertyOp13
 70
     1
102
RTVSPropertyOp14
 70
     1
102
RTVSPropertyOp15
 70
     1
102
RTVSPropertyOp16
 70
     1
102
RTVSPropertyOp17
 70
     1
102
RTVSPropertyOp18
 70
     1
102
RTVSPropertyOp19
 70
     1
102
RTVSPropertyOp20
 70
     1
102
RTVSPropertyOp21
 70
     1
102
RTVSPropertyOp22
 70
     1
102
RTVSPropertyOp23
 70
     1
102
RTVSPropertyOp24
 70
     1
102
RTVSPropertyOp25
 70
     1
102
RTVSPropertyOp26
 70
     1
102
RTVSPropertyOp27
 70
     1
102
RTVSPropertyOp28
 70
     1
102
RTVSPropertyOp29
 70
     1
102
RTVSPropertyOp30
 70
     1
102
RTVSPropertyOp31
 70
     1
102
RTVSPropertyOp32
 70
     1
102
RTVSPropertyOp33
 70
     1
102
RTVSPropertyOp34
 70
     1
102
RTVSPropertyOp35
 70
     1
102
RTVSPropertyOp36
 70
     1
102
RTVSPropertyOp37
 70
     1
102
RTVSPropertyOp38
 70
     1
102
RTVSPropertyOp39
 70
     1
102
RTVSPropertyOp40
 70
     1
102
RTVSPropertyOp41
 70
     1
102
RTVSPropertyOp42
 70
     1
102
RTVSPropertyOp43
 70
     1
102
RTVSPropertyOp44
 70
     1
102
RTVSPropertyOp45
 70
     1
102
RTVSPropertyOp46
 70
     1
102
RTVSPropertyOp47
 70
     1
102
RTVSPropertyOp48
 70
     1
102
RTVSPropertyOp49
 70
     1
102
RTVSPropertyOp50
 70
     1
102
RTVSPropertyOp51
 70
     0
102
RTVSPropertyOp52
 70
     0
102
RTVSPropertyOp53
 70
     1
102
RTVSPropertyOp54
 70
     1
102
RTVSPropertyOp55
 70
     1
102
RTVSPropertyOp56
 70
     1
102
RTVSPropertyOp57
 70
     1
102
RTVSPropertyOp58
 70
     1
102
RTVSPropertyOp59
 70
     1
102
RTVSPropertyOp60
 70
     1
102
RTVSPropertyOp61
 70
     1
102
RTVSPropertyOp62
 70
     1
  0
XRECORD
  5
AF8B
102
{ACAD_REACTORS
330
AF8A
102
}
330
AF8A
100
AcDbXrecord
280
     1
102
RTVSPost2010Prop28
280
     0
102
RTVSPost2010PropOp28
 70
     1
102
RTVSPost2010Prop29
280
     1
102
RTVSPost2010PropOp29
 70
     1
102
RTVSPost2010Prop30
280
     1
102
RTVSPost2010PropOp30
 70
     1
102
RTVSPost2010Prop31
280
     0
102
RTVSPost2010PropOp31
 70
     1
102
RTVSPost2010Prop32
280
     0
102
RTVSPost2010PropOp32
 70
     1
102
RTVSPost2010Prop33
280
     0
102
RTVSPost2010PropOp33
 70
     1
102
RTVSPost2010Prop34
280
     0
102
RTVSPost2010PropOp34
 70
     1
102
RTVSPost2010Prop35
280
     0
102
RTVSPost2010PropOp35
 70
     1
102
RTVSPost2010Prop36
280
     0
102
RTVSPost2010PropOp36
 70
     1
102
RTVSPost2010Prop37
 90
       50
102
RTVSPost2010PropOp37
 70
     1
102
RTVSPost2010Prop38
140
0.0
102
RTVSPost2010PropOp38
 70
     1
102
RTVSPost2010Prop39
140
1.0
102
RTVSPost2010PropOp39
 70
     1
102
RTVSPost2010Prop40
 90
        0
102
RTVSPost2010PropOp40
 70
     1
102
RTVSPost2010Prop41ColorIndex
 90
       18
102
RTVSPost2010Prop41ColorRGB
 90
        0
102
RTVSPost2010PropOp41
 70
     1
102
RTVSPost2010Prop42
 90
       50
102
RTVSPost2010PropOp42
 70
     1
102
RTVSPost2010Prop43
 90
        3
102
RTVSPost2010PropOp43
 70
     1
102
RTVSPost2010Prop44ColorIndex
 90
        5
102
RTVSPost2010Prop44ColorRGB
 90
      255
102
RTVSPost2010PropOp44
 70
     1
102
RTVSPost2010Prop45
280
     0
102
RTVSPost2010PropOp45
 70
     1
102
RTVSPost2010Prop46
 90
       50
102
RTVSPost2010PropOp46
 70
     1
102
RTVSPost2010Prop47
 90
       50
102
RTVSPost2010PropOp47
 70
     1
102
RTVSPost2010Prop48
 90
       50
102
RTVSPost2010PropOp48
 70
     1
102
RTVSPost2010Prop49
280
     0
102
RTVSPost2010PropOp49
 70
     1
102
RTVSPost2010Prop50
 90
       50
102
RTVSPost2010PropOp50
 70
     1
102
RTVSPost2010Prop51ColorIndex
 90
      256
102
RTVSPost2010Prop51ColorRGB
 90
-16777216
102
RTVSPost2010PropOp51
 70
     0
102
RTVSPost2010Prop52
140
1.0
102
RTVSPost2010PropOp52
 70
     0
102
RTVSPost2010Prop53
 90
        2
102
RTVSPost2010PropOp53
 70
     1
102
RTVSPost2010Prop54
  1
strokes_ogs.tif
102
RTVSPost2010PropOp54
 70
     1
102
RTVSPost2010Prop55
280
     0
102
RTVSPost2010PropOp55
 70
     1
102
RTVSPost2010Prop56
140
1.0
102
RTVSPost2010PropOp56
 70
     1
102
RTVSPost2010Prop57
140
1.0
102
RTVSPost2010PropOp57
 70
     1
102
RTVSPropertyOp0
 70
     1
102
RTVSPropertyOp1
 70
     1
102
RTVSPropertyOp2
 70
     1
102
RTVSPropertyOp3
 70
     1
102
RTVSPropertyOp4
 70
     1
102
RTVSPropertyOp5
 70
     1
102
RTVSPropertyOp6
 70
     1
102
RTVSPropertyOp7
 70
     1
102
RTVSPropertyOp8
 70
     1
102
RTVSPropertyOp9
 70
     1
102
RTVSPropertyOp10
 70
     1
102
RTVSPropertyOp11
 70
     1
102
RTVSPropertyOp12
 70
     1
102
RTVSPropertyOp13
 70
     1
102
RTVSPropertyOp14
 70
     1
102
RTVSPropertyOp15
 70
     1
102
RTVSPropertyOp16
 70
     1
102
RTVSPropertyOp17
 70
     1
102
RTVSPropertyOp18
 70
     1
102
RTVSPropertyOp19
 70
     1
102
RTVSPropertyOp20
 70
     1
102
RTVSPropertyOp21
 70
     1
102
RTVSPropertyOp22
 70
     1
102
RTVSPropertyOp23
 70
     1
102
RTVSPropertyOp24
 70
     1
102
RTVSPropertyOp25
 70
     1
102
RTVSPropertyOp26
 70
     1
102
RTVSPropertyOp27
 70
     1
102
RTVSPropertyOp28
 70
     1
102
RTVSPropertyOp29
 70
     1
102
RTVSPropertyOp30
 70
     1
102
RTVSPropertyOp31
 70
     1
102
RTVSPropertyOp32
 70
     1
102
RTVSPropertyOp33
 70
     1
102
RTVSPropertyOp34
 70
     1
102
RTVSPropertyOp35
 70
     1
102
RTVSPropertyOp36
 70
     1
102
RTVSPropertyOp37
 70
     1
102
RTVSPropertyOp38
 70
     1
102
RTVSPropertyOp39
 70
     1
102
RTVSPropertyOp40
 70
     1
102
RTVSPropertyOp41
 70
     1
102
RTVSPropertyOp42
 70
     1
102
RTVSPropertyOp43
 70
     1
102
RTVSPropertyOp44
 70
     1
102
RTVSPropertyOp45
 70
     1
102
RTVSPropertyOp46
 70
     1
102
RTVSPropertyOp47
 70
     1
102
RTVSPropertyOp48
 70
     1
102
RTVSPropertyOp49
 70
     1
102
RTVSPropertyOp50
 70
     1
102
RTVSPropertyOp51
 70
     0
102
RTVSPropertyOp52
 70
     0
102
RTVSPropertyOp53
 70
     1
102
RTVSPropertyOp54
 70
     1
102
RTVSPropertyOp55
 70
     1
102
RTVSPropertyOp56
 70
     1
102
RTVSPropertyOp57
 70
     1
102
RTVSPropertyOp58
 70
     1
102
RTVSPropertyOp59
 70
     1
102
RTVSPropertyOp60
 70
     1
102
RTVSPropertyOp61
 70
     1
102
RTVSPropertyOp62
 70
     1
  0
XRECORD
  5
AFA5
102
{ACAD_REACTORS
330
AFA4
102
}
330
AFA4
100
AcDbXrecord
280
     1
102
RTVSPost2010Prop28
280
     0
102
RTVSPost2010PropOp28
 70
     1
102
RTVSPost2010Prop29
280
     1
102
RTVSPost2010PropOp29
 70
     1
102
RTVSPost2010Prop30
280
     1
102
RTVSPost2010PropOp30
 70
     1
102
RTVSPost2010Prop31
280
     0
102
RTVSPost2010PropOp31
 70
     1
102
RTVSPost2010Prop32
280
     0
102
RTVSPost2010PropOp32
 70
     1
102
RTVSPost2010Prop33
280
     0
102
RTVSPost2010PropOp33
 70
     1
102
RTVSPost2010Prop34
280
     0
102
RTVSPost2010PropOp34
 70
     1
102
RTVSPost2010Prop35
280
     0
102
RTVSPost2010PropOp35
 70
     1
102
RTVSPost2010Prop36
280
     0
102
RTVSPost2010PropOp36
 70
     1
102
RTVSPost2010Prop37
 90
       50
102
RTVSPost2010PropOp37
 70
     0
102
RTVSPost2010Prop38
140
0.0
102
RTVSPost2010PropOp38
 70
     0
102
RTVSPost2010Prop39
140
1.0
102
RTVSPost2010PropOp39
 70
     0
102
RTVSPost2010Prop40
 90
        0
102
RTVSPost2010PropOp40
 70
     0
102
RTVSPost2010Prop41ColorIndex
 90
       18
102
RTVSPost2010Prop41ColorRGB
 90
        0
102
RTVSPost2010PropOp41
 70
     0
102
RTVSPost2010Prop42
 90
       50
102
RTVSPost2010PropOp42
 70
     0
102
RTVSPost2010Prop43
 90
        3
102
RTVSPost2010PropOp43
 70
     0
102
RTVSPost2010Prop44ColorIndex
 90
        5
102
RTVSPost2010Prop44ColorRGB
 90
      255
102
RTVSPost2010PropOp44
 70
     0
102
RTVSPost2010Prop45
280
     0
102
RTVSPost2010PropOp45
 70
     1
102
RTVSPost2010Prop46
 90
       50
102
RTVSPost2010PropOp46
 70
     0
102
RTVSPost2010Prop47
 90
       50
102
RTVSPost2010PropOp47
 70
     0
102
RTVSPost2010Prop48
 90
       50
102
RTVSPost2010PropOp48
 70
     0
102
RTVSPost2010Prop49
280
     0
102
RTVSPost2010PropOp49
 70
     1
102
RTVSPost2010Prop50
 90
       50
102
RTVSPost2010PropOp50
 70
     0
102
RTVSPost2010Prop51ColorIndex
 90
      256
102
RTVSPost2010Prop51ColorRGB
 90
-16777216
102
RTVSPost2010PropOp51
 70
     0
102
RTVSPost2010Prop52
140
1.0
102
RTVSPost2010PropOp52
 70
     0
102
RTVSPost2010Prop53
 90
        2
102
RTVSPost2010PropOp53
 70
     0
102
RTVSPost2010Prop54
  1
strokes_ogs.tif
102
RTVSPost2010PropOp54
 70
     0
102
RTVSPost2010Prop55
280
     0
102
RTVSPost2010PropOp55
 70
     1
102
RTVSPost2010Prop56
140
1.0
102
RTVSPost2010PropOp56
 70
     0
102
RTVSPost2010Prop57
140
1.0
102
RTVSPost2010PropOp57
 70
     0
102
RTVSPropertyOp0
 70
     0
102
RTVSPropertyOp1
 70
     0
102
RTVSPropertyOp2
 70
     0
102
RTVSPropertyOp3
 70
     0
102
RTVSPropertyOp4
 70
     0
102
RTVSPropertyOp5
 70
     0
102
RTVSPropertyOp6
 70
     0
102
RTVSPropertyOp7
 70
     0
102
RTVSPropertyOp8
 70
     0
102
RTVSPropertyOp9
 70
     0
102
RTVSPropertyOp10
 70
     0
102
RTVSPropertyOp11
 70
     0
102
RTVSPropertyOp12
 70
     0
102
RTVSPropertyOp13
 70
     0
102
RTVSPropertyOp14
 70
     2
102
RTVSPropertyOp15
 70
     0
102
RTVSPropertyOp16
 70
     0
102
RTVSPropertyOp17
 70
     0
102
RTVSPropertyOp18
 70
     0
102
RTVSPropertyOp19
 70
     0
102
RTVSPropertyOp20
 70
     0
102
RTVSPropertyOp21
 70
     0
102
RTVSPropertyOp22
 70
     0
102
RTVSPropertyOp23
 70
     0
102
RTVSPropertyOp24
 70
     0
102
RTVSPropertyOp25
 70
     0
102
RTVSPropertyOp26
 70
     0
102
RTVSPropertyOp27
 70
     0
102
RTVSPropertyOp28
 70
     1
102
RTVSPropertyOp29
 70
     1
102
RTVSPropertyOp30
 70
     1
102
RTVSPropertyOp31
 70
     1
102
RTVSPropertyOp32
 70
     1
102
RTVSPropertyOp33
 70
     1
102
RTVSPropertyOp34
 70
     1
102
RTVSPropertyOp35
 70
     1
102
RTVSPropertyOp36
 70
     1
102
RTVSPropertyOp37
 70
     0
102
RTVSPropertyOp38
 70
     0
102
RTVSPropertyOp39
 70
     0
102
RTVSPropertyOp40
 70
     0
102
RTVSPropertyOp41
 70
     0
102
RTVSPropertyOp42
 70
     0
102
RTVSPropertyOp43
 70
     0
102
RTVSPropertyOp44
 70
     0
102
RTVSPropertyOp45
 70
     1
102
RTVSPropertyOp46
 70
     0
102
RTVSPropertyOp47
 70
     0
102
RTVSPropertyOp48
 70
     0
102
RTVSPropertyOp49
 70
     1
102
RTVSPropertyOp50
 70
     0
102
RTVSPropertyOp51
 70
     0
102
RTVSPropertyOp52
 70
     0
102
RTVSPropertyOp53
 70
     0
102
RTVSPropertyOp54
 70
     0
102
RTVSPropertyOp55
 70
     1
102
RTVSPropertyOp56
 70
     0
102
RTVSPropertyOp57
 70
     0
102
RTVSPropertyOp58
 70
     0
102
RTVSPropertyOp59
 70
     0
102
RTVSPropertyOp60
 70
     0
102
RTVSPropertyOp61
 70
     0
102
RTVSPropertyOp62
 70
     0
  0
XRECORD
  5
AF93
102
{ACAD_REACTORS
330
AF92
102
}
330
AF92
100
AcDbXrecord
280
     1
102
RTVSPost2010Prop28
280
     0
102
RTVSPost2010PropOp28
 70
     1
102
RTVSPost2010Prop29
280
     1
102
RTVSPost2010PropOp29
 70
     1
102
RTVSPost2010Prop30
280
     1
102
RTVSPost2010PropOp30
 70
     1
102
RTVSPost2010Prop31
280
     0
102
RTVSPost2010PropOp31
 70
     1
102
RTVSPost2010Prop32
280
     0
102
RTVSPost2010PropOp32
 70
     1
102
RTVSPost2010Prop33
280
     0
102
RTVSPost2010PropOp33
 70
     1
102
RTVSPost2010Prop34
280
     0
102
RTVSPost2010PropOp34
 70
     1
102
RTVSPost2010Prop35
280
     0
102
RTVSPost2010PropOp35
 70
     1
102
RTVSPost2010Prop36
280
     0
102
RTVSPost2010PropOp36
 70
     1
102
RTVSPost2010Prop37
 90
       50
102
RTVSPost2010PropOp37
 70
     1
102
RTVSPost2010Prop38
140
0.0
102
RTVSPost2010PropOp38
 70
     1
102
RTVSPost2010Prop39
140
1.0
102
RTVSPost2010PropOp39
 70
     1
102
RTVSPost2010Prop40
 90
        0
102
RTVSPost2010PropOp40
 70
     1
102
RTVSPost2010Prop41ColorIndex
 90
       18
102
RTVSPost2010Prop41ColorRGB
 90
        0
102
RTVSPost2010PropOp41
 70
     1
102
RTVSPost2010Prop42
 90
       50
102
RTVSPost2010PropOp42
 70
     1
102
RTVSPost2010Prop43
 90
        3
102
RTVSPost2010PropOp43
 70
     1
102
RTVSPost2010Prop44ColorIndex
 90
        5
102
RTVSPost2010Prop44ColorRGB
 90
      255
102
RTVSPost2010PropOp44
 70
     1
102
RTVSPost2010Prop45
280
     0
102
RTVSPost2010PropOp45
 70
     1
102
RTVSPost2010Prop46
 90
       50
102
RTVSPost2010PropOp46
 70
     1
102
RTVSPost2010Prop47
 90
       50
102
RTVSPost2010PropOp47
 70
     1
102
RTVSPost2010Prop48
 90
       50
102
RTVSPost2010PropOp48
 70
     1
102
RTVSPost2010Prop49
280
     0
102
RTVSPost2010PropOp49
 70
     1
102
RTVSPost2010Prop50
 90
       50
102
RTVSPost2010PropOp50
 70
     1
102
RTVSPost2010Prop51ColorIndex
 90
      256
102
RTVSPost2010Prop51ColorRGB
 90
-16777216
102
RTVSPost2010PropOp51
 70
     0
102
RTVSPost2010Prop52
140
1.0
102
RTVSPost2010PropOp52
 70
     0
102
RTVSPost2010Prop53
 90
        2
102
RTVSPost2010PropOp53
 70
     1
102
RTVSPost2010Prop54
  1
strokes_ogs.tif
102
RTVSPost2010PropOp54
 70
     1
102
RTVSPost2010Prop55
280
     0
102
RTVSPost2010PropOp55
 70
     1
102
RTVSPost2010Prop56
140
1.0
102
RTVSPost2010PropOp56
 70
     1
102
RTVSPost2010Prop57
140
1.0
102
RTVSPost2010PropOp57
 70
     1
102
RTVSPropertyOp0
 70
     1
102
RTVSPropertyOp1
 70
     1
102
RTVSPropertyOp2
 70
     1
102
RTVSPropertyOp3
 70
     1
102
RTVSPropertyOp4
 70
     1
102
RTVSPropertyOp5
 70
     1
102
RTVSPropertyOp6
 70
     1
102
RTVSPropertyOp7
 70
     1
102
RTVSPropertyOp8
 70
     1
102
RTVSPropertyOp9
 70
     1
102
RTVSPropertyOp10
 70
     1
102
RTVSPropertyOp11
 70
     1
102
RTVSPropertyOp12
 70
     1
102
RTVSPropertyOp13
 70
     1
102
RTVSPropertyOp14
 70
     1
102
RTVSPropertyOp15
 70
     1
102
RTVSPropertyOp16
 70
     1
102
RTVSPropertyOp17
 70
     1
102
RTVSPropertyOp18
 70
     1
102
RTVSPropertyOp19
 70
     1
102
RTVSPropertyOp20
 70
     1
102
RTVSPropertyOp21
 70
     1
102
RTVSPropertyOp22
 70
     1
102
RTVSPropertyOp23
 70
     1
102
RTVSPropertyOp24
 70
     1
102
RTVSPropertyOp25
 70
     1
102
RTVSPropertyOp26
 70
     1
102
RTVSPropertyOp27
 70
     1
102
RTVSPropertyOp28
 70
     1
102
RTVSPropertyOp29
 70
     1
102
RTVSPropertyOp30
 70
     1
102
RTVSPropertyOp31
 70
     1
102
RTVSPropertyOp32
 70
     1
102
RTVSPropertyOp33
 70
     1
102
RTVSPropertyOp34
 70
     1
102
RTVSPropertyOp35
 70
     1
102
RTVSPropertyOp36
 70
     1
102
RTVSPropertyOp37
 70
     1
102
RTVSPropertyOp38
 70
     1
102
RTVSPropertyOp39
 70
     1
102
RTVSPropertyOp40
 70
     1
102
RTVSPropertyOp41
 70
     1
102
RTVSPropertyOp42
 70
     1
102
RTVSPropertyOp43
 70
     1
102
RTVSPropertyOp44
 70
     1
102
RTVSPropertyOp45
 70
     1
102
RTVSPropertyOp46
 70
     1
102
RTVSPropertyOp47
 70
     1
102
RTVSPropertyOp48
 70
     1
102
RTVSPropertyOp49
 70
     1
102
RTVSPropertyOp50
 70
     1
102
RTVSPropertyOp51
 70
     0
102
RTVSPropertyOp52
 70
     0
102
RTVSPropertyOp53
 70
     1
102
RTVSPropertyOp54
 70
     1
102
RTVSPropertyOp55
 70
     1
102
RTVSPropertyOp56
 70
     1
102
RTVSPropertyOp57
 70
     1
102
RTVSPropertyOp58
 70
     1
102
RTVSPropertyOp59
 70
     1
102
RTVSPropertyOp60
 70
     1
102
RTVSPropertyOp61
 70
     1
102
RTVSPropertyOp62
 70
     1
  0
XRECORD
  5
AF77
102
{ACAD_REACTORS
330
AF76
102
}
330
AF76
100
AcDbXrecord
280
     1
102
RTVSPost2010Prop28
280
     0
102
RTVSPost2010PropOp28
 70
     1
102
RTVSPost2010Prop29
280
     1
102
RTVSPost2010PropOp29
 70
     1
102
RTVSPost2010Prop30
280
     1
102
RTVSPost2010PropOp30
 70
     1
102
RTVSPost2010Prop31
280
     0
102
RTVSPost2010PropOp31
 70
     1
102
RTVSPost2010Prop32
280
     0
102
RTVSPost2010PropOp32
 70
     1
102
RTVSPost2010Prop33
280
     0
102
RTVSPost2010PropOp33
 70
     1
102
RTVSPost2010Prop34
280
     0
102
RTVSPost2010PropOp34
 70
     1
102
RTVSPost2010Prop35
280
     0
102
RTVSPost2010PropOp35
 70
     1
102
RTVSPost2010Prop36
280
     0
102
RTVSPost2010PropOp36
 70
     1
102
RTVSPost2010Prop37
 90
       50
102
RTVSPost2010PropOp37
 70
     1
102
RTVSPost2010Prop38
140
0.0
102
RTVSPost2010PropOp38
 70
     1
102
RTVSPost2010Prop39
140
1.0
102
RTVSPost2010PropOp39
 70
     1
102
RTVSPost2010Prop40
 90
        0
102
RTVSPost2010PropOp40
 70
     1
102
RTVSPost2010Prop41ColorIndex
 90
       18
102
RTVSPost2010Prop41ColorRGB
 90
        0
102
RTVSPost2010PropOp41
 70
     1
102
RTVSPost2010Prop42
 90
       50
102
RTVSPost2010PropOp42
 70
     1
102
RTVSPost2010Prop43
 90
        3
102
RTVSPost2010PropOp43
 70
     1
102
RTVSPost2010Prop44ColorIndex
 90
        5
102
RTVSPost2010Prop44ColorRGB
 90
      255
102
RTVSPost2010PropOp44
 70
     1
102
RTVSPost2010Prop45
280
     0
102
RTVSPost2010PropOp45
 70
     1
102
RTVSPost2010Prop46
 90
       50
102
RTVSPost2010PropOp46
 70
     1
102
RTVSPost2010Prop47
 90
       50
102
RTVSPost2010PropOp47
 70
     1
102
RTVSPost2010Prop48
 90
       50
102
RTVSPost2010PropOp48
 70
     1
102
RTVSPost2010Prop49
280
     0
102
RTVSPost2010PropOp49
 70
     1
102
RTVSPost2010Prop50
 90
       50
102
RTVSPost2010PropOp50
 70
     1
102
RTVSPost2010Prop51ColorIndex
 90
      256
102
RTVSPost2010Prop51ColorRGB
 90
-16777216
102
RTVSPost2010PropOp51
 70
     0
102
RTVSPost2010Prop52
140
1.0
102
RTVSPost2010PropOp52
 70
     0
102
RTVSPost2010Prop53
 90
        2
102
RTVSPost2010PropOp53
 70
     1
102
RTVSPost2010Prop54
  1
strokes_ogs.tif
102
RTVSPost2010PropOp54
 70
     1
102
RTVSPost2010Prop55
280
     0
102
RTVSPost2010PropOp55
 70
     1
102
RTVSPost2010Prop56
140
1.0
102
RTVSPost2010PropOp56
 70
     1
102
RTVSPost2010Prop57
140
1.0
102
RTVSPost2010PropOp57
 70
     1
102
RTVSPropertyOp0
 70
     1
102
RTVSPropertyOp1
 70
     1
102
RTVSPropertyOp2
 70
     1
102
RTVSPropertyOp3
 70
     1
102
RTVSPropertyOp4
 70
     1
102
RTVSPropertyOp5
 70
     1
102
RTVSPropertyOp6
 70
     1
102
RTVSPropertyOp7
 70
     1
102
RTVSPropertyOp8
 70
     1
102
RTVSPropertyOp9
 70
     1
102
RTVSPropertyOp10
 70
     1
102
RTVSPropertyOp11
 70
     1
102
RTVSPropertyOp12
 70
     1
102
RTVSPropertyOp13
 70
     1
102
RTVSPropertyOp14
 70
     1
102
RTVSPropertyOp15
 70
     1
102
RTVSPropertyOp16
 70
     1
102
RTVSPropertyOp17
 70
     1
102
RTVSPropertyOp18
 70
     1
102
RTVSPropertyOp19
 70
     1
102
RTVSPropertyOp20
 70
     1
102
RTVSPropertyOp21
 70
     1
102
RTVSPropertyOp22
 70
     1
102
RTVSPropertyOp23
 70
     1
102
RTVSPropertyOp24
 70
     1
102
RTVSPropertyOp25
 70
     1
102
RTVSPropertyOp26
 70
     1
102
RTVSPropertyOp27
 70
     1
102
RTVSPropertyOp28
 70
     1
102
RTVSPropertyOp29
 70
     1
102
RTVSPropertyOp30
 70
     1
102
RTVSPropertyOp31
 70
     1
102
RTVSPropertyOp32
 70
     1
102
RTVSPropertyOp33
 70
     1
102
RTVSPropertyOp34
 70
     1
102
RTVSPropertyOp35
 70
     1
102
RTVSPropertyOp36
 70
     1
102
RTVSPropertyOp37
 70
     1
102
RTVSPropertyOp38
 70
     1
102
RTVSPropertyOp39
 70
     1
102
RTVSPropertyOp40
 70
     1
102
RTVSPropertyOp41
 70
     1
102
RTVSPropertyOp42
 70
     1
102
RTVSPropertyOp43
 70
     1
102
RTVSPropertyOp44
 70
     1
102
RTVSPropertyOp45
 70
     1
102
RTVSPropertyOp46
 70
     1
102
RTVSPropertyOp47
 70
     1
102
RTVSPropertyOp48
 70
     1
102
RTVSPropertyOp49
 70
     1
102
RTVSPropertyOp50
 70
     1
102
RTVSPropertyOp51
 70
     0
102
RTVSPropertyOp52
 70
     0
102
RTVSPropertyOp53
 70
     1
102
RTVSPropertyOp54
 70
     1
102
RTVSPropertyOp55
 70
     1
102
RTVSPropertyOp56
 70
     1
102
RTVSPropertyOp57
 70
     1
102
RTVSPropertyOp58
 70
     1
102
RTVSPropertyOp59
 70
     1
102
RTVSPropertyOp60
 70
     1
102
RTVSPropertyOp61
 70
     1
102
RTVSPropertyOp62
 70
     1
  0
XRECORD
  5
AF79
102
{ACAD_REACTORS
330
AF78
102
}
330
AF78
100
AcDbXrecord
280
     1
102
RTVSPost2010Prop28
280
     0
102
RTVSPost2010PropOp28
 70
     1
102
RTVSPost2010Prop29
280
     1
102
RTVSPost2010PropOp29
 70
     1
102
RTVSPost2010Prop30
280
     1
102
RTVSPost2010PropOp30
 70
     1
102
RTVSPost2010Prop31
280
     0
102
RTVSPost2010PropOp31
 70
     1
102
RTVSPost2010Prop32
280
     0
102
RTVSPost2010PropOp32
 70
     1
102
RTVSPost2010Prop33
280
     0
102
RTVSPost2010PropOp33
 70
     1
102
RTVSPost2010Prop34
280
     0
102
RTVSPost2010PropOp34
 70
     1
102
RTVSPost2010Prop35
280
     0
102
RTVSPost2010PropOp35
 70
     1
102
RTVSPost2010Prop36
280
     0
102
RTVSPost2010PropOp36
 70
     1
102
RTVSPost2010Prop37
 90
       50
102
RTVSPost2010PropOp37
 70
     1
102
RTVSPost2010Prop38
140
0.0
102
RTVSPost2010PropOp38
 70
     1
102
RTVSPost2010Prop39
140
1.0
102
RTVSPost2010PropOp39
 70
     1
102
RTVSPost2010Prop40
 90
        0
102
RTVSPost2010PropOp40
 70
     1
102
RTVSPost2010Prop41ColorIndex
 90
       18
102
RTVSPost2010Prop41ColorRGB
 90
        0
102
RTVSPost2010PropOp41
 70
     1
102
RTVSPost2010Prop42
 90
       50
102
RTVSPost2010PropOp42
 70
     1
102
RTVSPost2010Prop43
 90
        3
102
RTVSPost2010PropOp43
 70
     1
102
RTVSPost2010Prop44ColorIndex
 90
        5
102
RTVSPost2010Prop44ColorRGB
 90
      255
102
RTVSPost2010PropOp44
 70
     1
102
RTVSPost2010Prop45
280
     0
102
RTVSPost2010PropOp45
 70
     1
102
RTVSPost2010Prop46
 90
       50
102
RTVSPost2010PropOp46
 70
     1
102
RTVSPost2010Prop47
 90
       50
102
RTVSPost2010PropOp47
 70
     1
102
RTVSPost2010Prop48
 90
       50
102
RTVSPost2010PropOp48
 70
     1
102
RTVSPost2010Prop49
280
     0
102
RTVSPost2010PropOp49
 70
     1
102
RTVSPost2010Prop50
 90
       50
102
RTVSPost2010PropOp50
 70
     1
102
RTVSPost2010Prop51ColorIndex
 90
      256
102
RTVSPost2010Prop51ColorRGB
 90
-16777216
102
RTVSPost2010PropOp51
 70
     0
102
RTVSPost2010Prop52
140
1.0
102
RTVSPost2010PropOp52
 70
     0
102
RTVSPost2010Prop53
 90
        2
102
RTVSPost2010PropOp53
 70
     1
102
RTVSPost2010Prop54
  1
strokes_ogs.tif
102
RTVSPost2010PropOp54
 70
     1
102
RTVSPost2010Prop55
280
     0
102
RTVSPost2010PropOp55
 70
     1
102
RTVSPost2010Prop56
140
1.0
102
RTVSPost2010PropOp56
 70
     1
102
RTVSPost2010Prop57
140
1.0
102
RTVSPost2010PropOp57
 70
     1
102
RTVSPropertyOp0
 70
     1
102
RTVSPropertyOp1
 70
     1
102
RTVSPropertyOp2
 70
     1
102
RTVSPropertyOp3
 70
     1
102
RTVSPropertyOp4
 70
     1
102
RTVSPropertyOp5
 70
     1
102
RTVSPropertyOp6
 70
     1
102
RTVSPropertyOp7
 70
     1
102
RTVSPropertyOp8
 70
     1
102
RTVSPropertyOp9
 70
     1
102
RTVSPropertyOp10
 70
     1
102
RTVSPropertyOp11
 70
     1
102
RTVSPropertyOp12
 70
     1
102
RTVSPropertyOp13
 70
     1
102
RTVSPropertyOp14
 70
     1
102
RTVSPropertyOp15
 70
     1
102
RTVSPropertyOp16
 70
     1
102
RTVSPropertyOp17
 70
     1
102
RTVSPropertyOp18
 70
     1
102
RTVSPropertyOp19
 70
     1
102
RTVSPropertyOp20
 70
     1
102
RTVSPropertyOp21
 70
     1
102
RTVSPropertyOp22
 70
     1
102
RTVSPropertyOp23
 70
     1
102
RTVSPropertyOp24
 70
     1
102
RTVSPropertyOp25
 70
     1
102
RTVSPropertyOp26
 70
     1
102
RTVSPropertyOp27
 70
     1
102
RTVSPropertyOp28
 70
     1
102
RTVSPropertyOp29
 70
     1
102
RTVSPropertyOp30
 70
     1
102
RTVSPropertyOp31
 70
     1
102
RTVSPropertyOp32
 70
     1
102
RTVSPropertyOp33
 70
     1
102
RTVSPropertyOp34
 70
     1
102
RTVSPropertyOp35
 70
     1
102
RTVSPropertyOp36
 70
     1
102
RTVSPropertyOp37
 70
     1
102
RTVSPropertyOp38
 70
     1
102
RTVSPropertyOp39
 70
     1
102
RTVSPropertyOp40
 70
     1
102
RTVSPropertyOp41
 70
     1
102
RTVSPropertyOp42
 70
     1
102
RTVSPropertyOp43
 70
     1
102
RTVSPropertyOp44
 70
     1
102
RTVSPropertyOp45
 70
     1
102
RTVSPropertyOp46
 70
     1
102
RTVSPropertyOp47
 70
     1
102
RTVSPropertyOp48
 70
     1
102
RTVSPropertyOp49
 70
     1
102
RTVSPropertyOp50
 70
     1
102
RTVSPropertyOp51
 70
     0
102
RTVSPropertyOp52
 70
     0
102
RTVSPropertyOp53
 70
     1
102
RTVSPropertyOp54
 70
     1
102
RTVSPropertyOp55
 70
     1
102
RTVSPropertyOp56
 70
     1
102
RTVSPropertyOp57
 70
     1
102
RTVSPropertyOp58
 70
     1
102
RTVSPropertyOp59
 70
     1
102
RTVSPropertyOp60
 70
     1
102
RTVSPropertyOp61
 70
     1
102
RTVSPropertyOp62
 70
     1
  0
XRECORD
  5
AF7B
102
{ACAD_REACTORS
330
AF7A
102
}
330
AF7A
100
AcDbXrecord
280
     1
102
RTVSPost2010Prop28
280
     0
102
RTVSPost2010PropOp28
 70
     1
102
RTVSPost2010Prop29
280
     1
102
RTVSPost2010PropOp29
 70
     1
102
RTVSPost2010Prop30
280
     1
102
RTVSPost2010PropOp30
 70
     1
102
RTVSPost2010Prop31
280
     0
102
RTVSPost2010PropOp31
 70
     1
102
RTVSPost2010Prop32
280
     0
102
RTVSPost2010PropOp32
 70
     1
102
RTVSPost2010Prop33
280
     0
102
RTVSPost2010PropOp33
 70
     1
102
RTVSPost2010Prop34
280
     0
102
RTVSPost2010PropOp34
 70
     1
102
RTVSPost2010Prop35
280
     0
102
RTVSPost2010PropOp35
 70
     1
102
RTVSPost2010Prop36
280
     0
102
RTVSPost2010PropOp36
 70
     1
102
RTVSPost2010Prop37
 90
       50
102
RTVSPost2010PropOp37
 70
     1
102
RTVSPost2010Prop38
140
0.0
102
RTVSPost2010PropOp38
 70
     1
102
RTVSPost2010Prop39
140
1.0
102
RTVSPost2010PropOp39
 70
     1
102
RTVSPost2010Prop40
 90
        0
102
RTVSPost2010PropOp40
 70
     1
102
RTVSPost2010Prop41ColorIndex
 90
       18
102
RTVSPost2010Prop41ColorRGB
 90
        0
102
RTVSPost2010PropOp41
 70
     1
102
RTVSPost2010Prop42
 90
       50
102
RTVSPost2010PropOp42
 70
     1
102
RTVSPost2010Prop43
 90
        3
102
RTVSPost2010PropOp43
 70
     1
102
RTVSPost2010Prop44ColorIndex
 90
        5
102
RTVSPost2010Prop44ColorRGB
 90
      255
102
RTVSPost2010PropOp44
 70
     1
102
RTVSPost2010Prop45
280
     0
102
RTVSPost2010PropOp45
 70
     1
102
RTVSPost2010Prop46
 90
       50
102
RTVSPost2010PropOp46
 70
     1
102
RTVSPost2010Prop47
 90
       50
102
RTVSPost2010PropOp47
 70
     1
102
RTVSPost2010Prop48
 90
       50
102
RTVSPost2010PropOp48
 70
     1
102
RTVSPost2010Prop49
280
     0
102
RTVSPost2010PropOp49
 70
     1
102
RTVSPost2010Prop50
 90
       50
102
RTVSPost2010PropOp50
 70
     1
102
RTVSPost2010Prop51ColorIndex
 90
      256
102
RTVSPost2010Prop51ColorRGB
 90
-16777216
102
RTVSPost2010PropOp51
 70
     0
102
RTVSPost2010Prop52
140
1.0
102
RTVSPost2010PropOp52
 70
     0
102
RTVSPost2010Prop53
 90
        2
102
RTVSPost2010PropOp53
 70
     1
102
RTVSPost2010Prop54
  1
strokes_ogs.tif
102
RTVSPost2010PropOp54
 70
     1
102
RTVSPost2010Prop55
280
     0
102
RTVSPost2010PropOp55
 70
     1
102
RTVSPost2010Prop56
140
1.0
102
RTVSPost2010PropOp56
 70
     1
102
RTVSPost2010Prop57
140
1.0
102
RTVSPost2010PropOp57
 70
     1
102
RTVSPropertyOp0
 70
     1
102
RTVSPropertyOp1
 70
     1
102
RTVSPropertyOp2
 70
     1
102
RTVSPropertyOp3
 70
     1
102
RTVSPropertyOp4
 70
     1
102
RTVSPropertyOp5
 70
     1
102
RTVSPropertyOp6
 70
     1
102
RTVSPropertyOp7
 70
     1
102
RTVSPropertyOp8
 70
     1
102
RTVSPropertyOp9
 70
     1
102
RTVSPropertyOp10
 70
     1
102
RTVSPropertyOp11
 70
     1
102
RTVSPropertyOp12
 70
     1
102
RTVSPropertyOp13
 70
     1
102
RTVSPropertyOp14
 70
     1
102
RTVSPropertyOp15
 70
     1
102
RTVSPropertyOp16
 70
     1
102
RTVSPropertyOp17
 70
     1
102
RTVSPropertyOp18
 70
     1
102
RTVSPropertyOp19
 70
     1
102
RTVSPropertyOp20
 70
     1
102
RTVSPropertyOp21
 70
     1
102
RTVSPropertyOp22
 70
     1
102
RTVSPropertyOp23
 70
     1
102
RTVSPropertyOp24
 70
     1
102
RTVSPropertyOp25
 70
     1
102
RTVSPropertyOp26
 70
     1
102
RTVSPropertyOp27
 70
     1
102
RTVSPropertyOp28
 70
     1
102
RTVSPropertyOp29
 70
     1
102
RTVSPropertyOp30
 70
     1
102
RTVSPropertyOp31
 70
     1
102
RTVSPropertyOp32
 70
     1
102
RTVSPropertyOp33
 70
     1
102
RTVSPropertyOp34
 70
     1
102
RTVSPropertyOp35
 70
     1
102
RTVSPropertyOp36
 70
     1
102
RTVSPropertyOp37
 70
     1
102
RTVSPropertyOp38
 70
     1
102
RTVSPropertyOp39
 70
     1
102
RTVSPropertyOp40
 70
     1
102
RTVSPropertyOp41
 70
     1
102
RTVSPropertyOp42
 70
     1
102
RTVSPropertyOp43
 70
     1
102
RTVSPropertyOp44
 70
     1
102
RTVSPropertyOp45
 70
     1
102
RTVSPropertyOp46
 70
     1
102
RTVSPropertyOp47
 70
     1
102
RTVSPropertyOp48
 70
     1
102
RTVSPropertyOp49
 70
     1
102
RTVSPropertyOp50
 70
     1
102
RTVSPropertyOp51
 70
     0
102
RTVSPropertyOp52
 70
     0
102
RTVSPropertyOp53
 70
     1
102
RTVSPropertyOp54
 70
     1
102
RTVSPropertyOp55
 70
     1
102
RTVSPropertyOp56
 70
     1
102
RTVSPropertyOp57
 70
     1
102
RTVSPropertyOp58
 70
     1
102
RTVSPropertyOp59
 70
     1
102
RTVSPropertyOp60
 70
     1
102
RTVSPropertyOp61
 70
     1
102
RTVSPropertyOp62
 70
     1
  0
XRECORD
  5
AF7D
102
{ACAD_REACTORS
330
AF7C
102
}
330
AF7C
100
AcDbXrecord
280
     1
102
RTVSPost2010Prop28
280
     0
102
RTVSPost2010PropOp28
 70
     1
102
RTVSPost2010Prop29
280
     1
102
RTVSPost2010PropOp29
 70
     1
102
RTVSPost2010Prop30
280
     1
102
RTVSPost2010PropOp30
 70
     1
102
RTVSPost2010Prop31
280
     0
102
RTVSPost2010PropOp31
 70
     1
102
RTVSPost2010Prop32
280
     0
102
RTVSPost2010PropOp32
 70
     1
102
RTVSPost2010Prop33
280
     0
102
RTVSPost2010PropOp33
 70
     1
102
RTVSPost2010Prop34
280
     0
102
RTVSPost2010PropOp34
 70
     1
102
RTVSPost2010Prop35
280
     0
102
RTVSPost2010PropOp35
 70
     1
102
RTVSPost2010Prop36
280
     0
102
RTVSPost2010PropOp36
 70
     1
102
RTVSPost2010Prop37
 90
       50
102
RTVSPost2010PropOp37
 70
     1
102
RTVSPost2010Prop38
140
0.0
102
RTVSPost2010PropOp38
 70
     1
102
RTVSPost2010Prop39
140
1.0
102
RTVSPost2010PropOp39
 70
     1
102
RTVSPost2010Prop40
 90
        0
102
RTVSPost2010PropOp40
 70
     1
102
RTVSPost2010Prop41ColorIndex
 90
       18
102
RTVSPost2010Prop41ColorRGB
 90
        0
102
RTVSPost2010PropOp41
 70
     1
102
RTVSPost2010Prop42
 90
       50
102
RTVSPost2010PropOp42
 70
     1
102
RTVSPost2010Prop43
 90
        3
102
RTVSPost2010PropOp43
 70
     1
102
RTVSPost2010Prop44ColorIndex
 90
        5
102
RTVSPost2010Prop44ColorRGB
 90
      255
102
RTVSPost2010PropOp44
 70
     1
102
RTVSPost2010Prop45
280
     0
102
RTVSPost2010PropOp45
 70
     1
102
RTVSPost2010Prop46
 90
       50
102
RTVSPost2010PropOp46
 70
     1
102
RTVSPost2010Prop47
 90
       50
102
RTVSPost2010PropOp47
 70
     1
102
RTVSPost2010Prop48
 90
       50
102
RTVSPost2010PropOp48
 70
     1
102
RTVSPost2010Prop49
280
     0
102
RTVSPost2010PropOp49
 70
     1
102
RTVSPost2010Prop50
 90
       50
102
RTVSPost2010PropOp50
 70
     1
102
RTVSPost2010Prop51ColorIndex
 90
      256
102
RTVSPost2010Prop51ColorRGB
 90
-16777216
102
RTVSPost2010PropOp51
 70
     0
102
RTVSPost2010Prop52
140
1.0
102
RTVSPost2010PropOp52
 70
     0
102
RTVSPost2010Prop53
 90
        2
102
RTVSPost2010PropOp53
 70
     1
102
RTVSPost2010Prop54
  1
strokes_ogs.tif
102
RTVSPost2010PropOp54
 70
     1
102
RTVSPost2010Prop55
280
     0
102
RTVSPost2010PropOp55
 70
     1
102
RTVSPost2010Prop56
140
1.0
102
RTVSPost2010PropOp56
 70
     1
102
RTVSPost2010Prop57
140
1.0
102
RTVSPost2010PropOp57
 70
     1
102
RTVSPropertyOp0
 70
     1
102
RTVSPropertyOp1
 70
     1
102
RTVSPropertyOp2
 70
     1
102
RTVSPropertyOp3
 70
     1
102
RTVSPropertyOp4
 70
     1
102
RTVSPropertyOp5
 70
     1
102
RTVSPropertyOp6
 70
     1
102
RTVSPropertyOp7
 70
     1
102
RTVSPropertyOp8
 70
     1
102
RTVSPropertyOp9
 70
     1
102
RTVSPropertyOp10
 70
     1
102
RTVSPropertyOp11
 70
     1
102
RTVSPropertyOp12
 70
     1
102
RTVSPropertyOp13
 70
     1
102
RTVSPropertyOp14
 70
     1
102
RTVSPropertyOp15
 70
     1
102
RTVSPropertyOp16
 70
     1
102
RTVSPropertyOp17
 70
     1
102
RTVSPropertyOp18
 70
     1
102
RTVSPropertyOp19
 70
     1
102
RTVSPropertyOp20
 70
     1
102
RTVSPropertyOp21
 70
     1
102
RTVSPropertyOp22
 70
     1
102
RTVSPropertyOp23
 70
     1
102
RTVSPropertyOp24
 70
     1
102
RTVSPropertyOp25
 70
     1
102
RTVSPropertyOp26
 70
     1
102
RTVSPropertyOp27
 70
     1
102
RTVSPropertyOp28
 70
     1
102
RTVSPropertyOp29
 70
     1
102
RTVSPropertyOp30
 70
     1
102
RTVSPropertyOp31
 70
     1
102
RTVSPropertyOp32
 70
     1
102
RTVSPropertyOp33
 70
     1
102
RTVSPropertyOp34
 70
     1
102
RTVSPropertyOp35
 70
     1
102
RTVSPropertyOp36
 70
     1
102
RTVSPropertyOp37
 70
     1
102
RTVSPropertyOp38
 70
     1
102
RTVSPropertyOp39
 70
     1
102
RTVSPropertyOp40
 70
     1
102
RTVSPropertyOp41
 70
     1
102
RTVSPropertyOp42
 70
     1
102
RTVSPropertyOp43
 70
     1
102
RTVSPropertyOp44
 70
     1
102
RTVSPropertyOp45
 70
     1
102
RTVSPropertyOp46
 70
     1
102
RTVSPropertyOp47
 70
     1
102
RTVSPropertyOp48
 70
     1
102
RTVSPropertyOp49
 70
     1
102
RTVSPropertyOp50
 70
     1
102
RTVSPropertyOp51
 70
     0
102
RTVSPropertyOp52
 70
     0
102
RTVSPropertyOp53
 70
     1
102
RTVSPropertyOp54
 70
     1
102
RTVSPropertyOp55
 70
     1
102
RTVSPropertyOp56
 70
     1
102
RTVSPropertyOp57
 70
     1
102
RTVSPropertyOp58
 70
     1
102
RTVSPropertyOp59
 70
     1
102
RTVSPropertyOp60
 70
     1
102
RTVSPropertyOp61
 70
     1
102
RTVSPropertyOp62
 70
     1
  0
XRECORD
  5
AF85
102
{ACAD_REACTORS
330
AF84
102
}
330
AF84
100
AcDbXrecord
280
     1
102
RTVSPost2010Prop28
280
     0
102
RTVSPost2010PropOp28
 70
     1
102
RTVSPost2010Prop29
280
     1
102
RTVSPost2010PropOp29
 70
     1
102
RTVSPost2010Prop30
280
     1
102
RTVSPost2010PropOp30
 70
     1
102
RTVSPost2010Prop31
280
     0
102
RTVSPost2010PropOp31
 70
     1
102
RTVSPost2010Prop32
280
     0
102
RTVSPost2010PropOp32
 70
     1
102
RTVSPost2010Prop33
280
     0
102
RTVSPost2010PropOp33
 70
     1
102
RTVSPost2010Prop34
280
     0
102
RTVSPost2010PropOp34
 70
     1
102
RTVSPost2010Prop35
280
     0
102
RTVSPost2010PropOp35
 70
     1
102
RTVSPost2010Prop36
280
     0
102
RTVSPost2010PropOp36
 70
     1
102
RTVSPost2010Prop37
 90
       50
102
RTVSPost2010PropOp37
 70
     1
102
RTVSPost2010Prop38
140
0.0
102
RTVSPost2010PropOp38
 70
     1
102
RTVSPost2010Prop39
140
1.0
102
RTVSPost2010PropOp39
 70
     1
102
RTVSPost2010Prop40
 90
        0
102
RTVSPost2010PropOp40
 70
     1
102
RTVSPost2010Prop41ColorIndex
 90
       18
102
RTVSPost2010Prop41ColorRGB
 90
        0
102
RTVSPost2010PropOp41
 70
     1
102
RTVSPost2010Prop42
 90
       50
102
RTVSPost2010PropOp42
 70
     1
102
RTVSPost2010Prop43
 90
        3
102
RTVSPost2010PropOp43
 70
     1
102
RTVSPost2010Prop44ColorIndex
 90
        5
102
RTVSPost2010Prop44ColorRGB
 90
      255
102
RTVSPost2010PropOp44
 70
     1
102
RTVSPost2010Prop45
280
     0
102
RTVSPost2010PropOp45
 70
     1
102
RTVSPost2010Prop46
 90
       50
102
RTVSPost2010PropOp46
 70
     1
102
RTVSPost2010Prop47
 90
       50
102
RTVSPost2010PropOp47
 70
     1
102
RTVSPost2010Prop48
 90
       50
102
RTVSPost2010PropOp48
 70
     1
102
RTVSPost2010Prop49
280
     0
102
RTVSPost2010PropOp49
 70
     1
102
RTVSPost2010Prop50
 90
       50
102
RTVSPost2010PropOp50
 70
     1
102
RTVSPost2010Prop51ColorIndex
 90
      256
102
RTVSPost2010Prop51ColorRGB
 90
-16777216
102
RTVSPost2010PropOp51
 70
     0
102
RTVSPost2010Prop52
140
1.0
102
RTVSPost2010PropOp52
 70
     0
102
RTVSPost2010Prop53
 90
        2
102
RTVSPost2010PropOp53
 70
     1
102
RTVSPost2010Prop54
  1
strokes_ogs.tif
102
RTVSPost2010PropOp54
 70
     1
102
RTVSPost2010Prop55
280
     0
102
RTVSPost2010PropOp55
 70
     1
102
RTVSPost2010Prop56
140
1.0
102
RTVSPost2010PropOp56
 70
     1
102
RTVSPost2010Prop57
140
1.0
102
RTVSPost2010PropOp57
 70
     1
102
RTVSPropertyOp0
 70
     1
102
RTVSPropertyOp1
 70
     1
102
RTVSPropertyOp2
 70
     1
102
RTVSPropertyOp3
 70
     1
102
RTVSPropertyOp4
 70
     1
102
RTVSPropertyOp5
 70
     1
102
RTVSPropertyOp6
 70
     1
102
RTVSPropertyOp7
 70
     1
102
RTVSPropertyOp8
 70
     1
102
RTVSPropertyOp9
 70
     1
102
RTVSPropertyOp10
 70
     1
102
RTVSPropertyOp11
 70
     1
102
RTVSPropertyOp12
 70
     1
102
RTVSPropertyOp13
 70
     1
102
RTVSPropertyOp14
 70
     1
102
RTVSPropertyOp15
 70
     1
102
RTVSPropertyOp16
 70
     1
102
RTVSPropertyOp17
 70
     1
102
RTVSPropertyOp18
 70
     1
102
RTVSPropertyOp19
 70
     1
102
RTVSPropertyOp20
 70
     1
102
RTVSPropertyOp21
 70
     1
102
RTVSPropertyOp22
 70
     1
102
RTVSPropertyOp23
 70
     1
102
RTVSPropertyOp24
 70
     1
102
RTVSPropertyOp25
 70
     1
102
RTVSPropertyOp26
 70
     1
102
RTVSPropertyOp27
 70
     1
102
RTVSPropertyOp28
 70
     1
102
RTVSPropertyOp29
 70
     1
102
RTVSPropertyOp30
 70
     1
102
RTVSPropertyOp31
 70
     1
102
RTVSPropertyOp32
 70
     1
102
RTVSPropertyOp33
 70
     1
102
RTVSPropertyOp34
 70
     1
102
RTVSPropertyOp35
 70
     1
102
RTVSPropertyOp36
 70
     1
102
RTVSPropertyOp37
 70
     1
102
RTVSPropertyOp38
 70
     1
102
RTVSPropertyOp39
 70
     1
102
RTVSPropertyOp40
 70
     1
102
RTVSPropertyOp41
 70
     1
102
RTVSPropertyOp42
 70
     1
102
RTVSPropertyOp43
 70
     1
102
RTVSPropertyOp44
 70
     1
102
RTVSPropertyOp45
 70
     1
102
RTVSPropertyOp46
 70
     1
102
RTVSPropertyOp47
 70
     1
102
RTVSPropertyOp48
 70
     1
102
RTVSPropertyOp49
 70
     1
102
RTVSPropertyOp50
 70
     1
102
RTVSPropertyOp51
 70
     0
102
RTVSPropertyOp52
 70
     0
102
RTVSPropertyOp53
 70
     1
102
RTVSPropertyOp54
 70
     1
102
RTVSPropertyOp55
 70
     1
102
RTVSPropertyOp56
 70
     1
102
RTVSPropertyOp57
 70
     1
102
RTVSPropertyOp58
 70
     1
102
RTVSPropertyOp59
 70
     1
102
RTVSPropertyOp60
 70
     1
102
RTVSPropertyOp61
 70
     1
102
RTVSPropertyOp62
 70
     1
  0
XRECORD
  5
AFA1
102
{ACAD_REACTORS
330
AFA0
102
}
330
AFA0
100
AcDbXrecord
280
     1
102
RTVSPost2010Prop28
280
     0
102
RTVSPost2010PropOp28
 70
     1
102
RTVSPost2010Prop29
280
     1
102
RTVSPost2010PropOp29
 70
     1
102
RTVSPost2010Prop30
280
     1
102
RTVSPost2010PropOp30
 70
     1
102
RTVSPost2010Prop31
280
     0
102
RTVSPost2010PropOp31
 70
     1
102
RTVSPost2010Prop32
280
     0
102
RTVSPost2010PropOp32
 70
     1
102
RTVSPost2010Prop33
280
     0
102
RTVSPost2010PropOp33
 70
     1
102
RTVSPost2010Prop34
280
     0
102
RTVSPost2010PropOp34
 70
     1
102
RTVSPost2010Prop35
280
     0
102
RTVSPost2010PropOp35
 70
     1
102
RTVSPost2010Prop36
280
     0
102
RTVSPost2010PropOp36
 70
     1
102
RTVSPost2010Prop37
 90
       50
102
RTVSPost2010PropOp37
 70
     0
102
RTVSPost2010Prop38
140
0.0
102
RTVSPost2010PropOp38
 70
     0
102
RTVSPost2010Prop39
140
1.0
102
RTVSPost2010PropOp39
 70
     0
102
RTVSPost2010Prop40
 90
        0
102
RTVSPost2010PropOp40
 70
     0
102
RTVSPost2010Prop41ColorIndex
 90
       18
102
RTVSPost2010Prop41ColorRGB
 90
        0
102
RTVSPost2010PropOp41
 70
     0
102
RTVSPost2010Prop42
 90
       50
102
RTVSPost2010PropOp42
 70
     0
102
RTVSPost2010Prop43
 90
        3
102
RTVSPost2010PropOp43
 70
     0
102
RTVSPost2010Prop44ColorIndex
 90
        5
102
RTVSPost2010Prop44ColorRGB
 90
      255
102
RTVSPost2010PropOp44
 70
     0
102
RTVSPost2010Prop45
280
     0
102
RTVSPost2010PropOp45
 70
     1
102
RTVSPost2010Prop46
 90
       50
102
RTVSPost2010PropOp46
 70
     0
102
RTVSPost2010Prop47
 90
       50
102
RTVSPost2010PropOp47
 70
     0
102
RTVSPost2010Prop48
 90
       50
102
RTVSPost2010PropOp48
 70
     0
102
RTVSPost2010Prop49
280
     0
102
RTVSPost2010PropOp49
 70
     1
102
RTVSPost2010Prop50
 90
       50
102
RTVSPost2010PropOp50
 70
     0
102
RTVSPost2010Prop51ColorIndex
 90
      256
102
RTVSPost2010Prop51ColorRGB
 90
-16777216
102
RTVSPost2010PropOp51
 70
     0
102
RTVSPost2010Prop52
140
1.0
102
RTVSPost2010PropOp52
 70
     0
102
RTVSPost2010Prop53
 90
        2
102
RTVSPost2010PropOp53
 70
     0
102
RTVSPost2010Prop54
  1
strokes_ogs.tif
102
RTVSPost2010PropOp54
 70
     0
102
RTVSPost2010Prop55
280
     0
102
RTVSPost2010PropOp55
 70
     1
102
RTVSPost2010Prop56
140
1.0
102
RTVSPost2010PropOp56
 70
     0
102
RTVSPost2010Prop57
140
1.0
102
RTVSPost2010PropOp57
 70
     0
102
RTVSPropertyOp0
 70
     0
102
RTVSPropertyOp1
 70
     0
102
RTVSPropertyOp2
 70
     0
102
RTVSPropertyOp3
 70
     0
102
RTVSPropertyOp4
 70
     0
102
RTVSPropertyOp5
 70
     0
102
RTVSPropertyOp6
 70
     0
102
RTVSPropertyOp7
 70
     0
102
RTVSPropertyOp8
 70
     0
102
RTVSPropertyOp9
 70
     0
102
RTVSPropertyOp10
 70
     0
102
RTVSPropertyOp11
 70
     0
102
RTVSPropertyOp12
 70
     0
102
RTVSPropertyOp13
 70
     0
102
RTVSPropertyOp14
 70
     2
102
RTVSPropertyOp15
 70
     0
102
RTVSPropertyOp16
 70
     0
102
RTVSPropertyOp17
 70
     0
102
RTVSPropertyOp18
 70
     0
102
RTVSPropertyOp19
 70
     0
102
RTVSPropertyOp20
 70
     0
102
RTVSPropertyOp21
 70
     0
102
RTVSPropertyOp22
 70
     0
102
RTVSPropertyOp23
 70
     0
102
RTVSPropertyOp24
 70
     0
102
RTVSPropertyOp25
 70
     0
102
RTVSPropertyOp26
 70
     0
102
RTVSPropertyOp27
 70
     0
102
RTVSPropertyOp28
 70
     1
102
RTVSPropertyOp29
 70
     1
102
RTVSPropertyOp30
 70
     1
102
RTVSPropertyOp31
 70
     1
102
RTVSPropertyOp32
 70
     1
102
RTVSPropertyOp33
 70
     1
102
RTVSPropertyOp34
 70
     1
102
RTVSPropertyOp35
 70
     1
102
RTVSPropertyOp36
 70
     1
102
RTVSPropertyOp37
 70
     0
102
RTVSPropertyOp38
 70
     0
102
RTVSPropertyOp39
 70
     0
102
RTVSPropertyOp40
 70
     0
102
RTVSPropertyOp41
 70
     0
102
RTVSPropertyOp42
 70
     0
102
RTVSPropertyOp43
 70
     0
102
RTVSPropertyOp44
 70
     0
102
RTVSPropertyOp45
 70
     1
102
RTVSPropertyOp46
 70
     0
102
RTVSPropertyOp47
 70
     0
102
RTVSPropertyOp48
 70
     0
102
RTVSPropertyOp49
 70
     1
102
RTVSPropertyOp50
 70
     0
102
RTVSPropertyOp51
 70
     0
102
RTVSPropertyOp52
 70
     0
102
RTVSPropertyOp53
 70
     0
102
RTVSPropertyOp54
 70
     0
102
RTVSPropertyOp55
 70
     1
102
RTVSPropertyOp56
 70
     0
102
RTVSPropertyOp57
 70
     0
102
RTVSPropertyOp58
 70
     0
102
RTVSPropertyOp59
 70
     0
102
RTVSPropertyOp60
 70
     0
102
RTVSPropertyOp61
 70
     0
102
RTVSPropertyOp62
 70
     0
  0
XRECORD
  5
AF91
102
{ACAD_REACTORS
330
AF90
102
}
330
AF90
100
AcDbXrecord
280
     1
102
RTVSPost2010Prop28
280
     0
102
RTVSPost2010PropOp28
 70
     1
102
RTVSPost2010Prop29
280
     1
102
RTVSPost2010PropOp29
 70
     1
102
RTVSPost2010Prop30
280
     1
102
RTVSPost2010PropOp30
 70
     1
102
RTVSPost2010Prop31
280
     0
102
RTVSPost2010PropOp31
 70
     1
102
RTVSPost2010Prop32
280
     0
102
RTVSPost2010PropOp32
 70
     1
102
RTVSPost2010Prop33
280
     0
102
RTVSPost2010PropOp33
 70
     1
102
RTVSPost2010Prop34
280
     0
102
RTVSPost2010PropOp34
 70
     1
102
RTVSPost2010Prop35
280
     0
102
RTVSPost2010PropOp35
 70
     1
102
RTVSPost2010Prop36
280
     0
102
RTVSPost2010PropOp36
 70
     1
102
RTVSPost2010Prop37
 90
       50
102
RTVSPost2010PropOp37
 70
     1
102
RTVSPost2010Prop38
140
0.0
102
RTVSPost2010PropOp38
 70
     1
102
RTVSPost2010Prop39
140
1.0
102
RTVSPost2010PropOp39
 70
     1
102
RTVSPost2010Prop40
 90
        0
102
RTVSPost2010PropOp40
 70
     1
102
RTVSPost2010Prop41ColorIndex
 90
       18
102
RTVSPost2010Prop41ColorRGB
 90
        0
102
RTVSPost2010PropOp41
 70
     1
102
RTVSPost2010Prop42
 90
       50
102
RTVSPost2010PropOp42
 70
     1
102
RTVSPost2010Prop43
 90
        3
102
RTVSPost2010PropOp43
 70
     1
102
RTVSPost2010Prop44ColorIndex
 90
        5
102
RTVSPost2010Prop44ColorRGB
 90
      255
102
RTVSPost2010PropOp44
 70
     1
102
RTVSPost2010Prop45
280
     0
102
RTVSPost2010PropOp45
 70
     1
102
RTVSPost2010Prop46
 90
       50
102
RTVSPost2010PropOp46
 70
     1
102
RTVSPost2010Prop47
 90
       50
102
RTVSPost2010PropOp47
 70
     1
102
RTVSPost2010Prop48
 90
       50
102
RTVSPost2010PropOp48
 70
     1
102
RTVSPost2010Prop49
280
     0
102
RTVSPost2010PropOp49
 70
     1
102
RTVSPost2010Prop50
 90
       50
102
RTVSPost2010PropOp50
 70
     1
102
RTVSPost2010Prop51ColorIndex
 90
      256
102
RTVSPost2010Prop51ColorRGB
 90
-16777216
102
RTVSPost2010PropOp51
 70
     0
102
RTVSPost2010Prop52
140
1.0
102
RTVSPost2010PropOp52
 70
     0
102
RTVSPost2010Prop53
 90
        2
102
RTVSPost2010PropOp53
 70
     1
102
RTVSPost2010Prop54
  1
strokes_ogs.tif
102
RTVSPost2010PropOp54
 70
     1
102
RTVSPost2010Prop55
280
     0
102
RTVSPost2010PropOp55
 70
     1
102
RTVSPost2010Prop56
140
1.0
102
RTVSPost2010PropOp56
 70
     1
102
RTVSPost2010Prop57
140
1.0
102
RTVSPost2010PropOp57
 70
     1
102
RTVSPropertyOp0
 70
     1
102
RTVSPropertyOp1
 70
     1
102
RTVSPropertyOp2
 70
     1
102
RTVSPropertyOp3
 70
     1
102
RTVSPropertyOp4
 70
     1
102
RTVSPropertyOp5
 70
     1
102
RTVSPropertyOp6
 70
     1
102
RTVSPropertyOp7
 70
     1
102
RTVSPropertyOp8
 70
     1
102
RTVSPropertyOp9
 70
     1
102
RTVSPropertyOp10
 70
     1
102
RTVSPropertyOp11
 70
     1
102
RTVSPropertyOp12
 70
     1
102
RTVSPropertyOp13
 70
     1
102
RTVSPropertyOp14
 70
     1
102
RTVSPropertyOp15
 70
     1
102
RTVSPropertyOp16
 70
     1
102
RTVSPropertyOp17
 70
     1
102
RTVSPropertyOp18
 70
     1
102
RTVSPropertyOp19
 70
     1
102
RTVSPropertyOp20
 70
     1
102
RTVSPropertyOp21
 70
     1
102
RTVSPropertyOp22
 70
     1
102
RTVSPropertyOp23
 70
     1
102
RTVSPropertyOp24
 70
     1
102
RTVSPropertyOp25
 70
     1
102
RTVSPropertyOp26
 70
     1
102
RTVSPropertyOp27
 70
     1
102
RTVSPropertyOp28
 70
     1
102
RTVSPropertyOp29
 70
     1
102
RTVSPropertyOp30
 70
     1
102
RTVSPropertyOp31
 70
     1
102
RTVSPropertyOp32
 70
     1
102
RTVSPropertyOp33
 70
     1
102
RTVSPropertyOp34
 70
     1
102
RTVSPropertyOp35
 70
     1
102
RTVSPropertyOp36
 70
     1
102
RTVSPropertyOp37
 70
     1
102
RTVSPropertyOp38
 70
     1
102
RTVSPropertyOp39
 70
     1
102
RTVSPropertyOp40
 70
     1
102
RTVSPropertyOp41
 70
     1
102
RTVSPropertyOp42
 70
     1
102
RTVSPropertyOp43
 70
     1
102
RTVSPropertyOp44
 70
     1
102
RTVSPropertyOp45
 70
     1
102
RTVSPropertyOp46
 70
     1
102
RTVSPropertyOp47
 70
     1
102
RTVSPropertyOp48
 70
     1
102
RTVSPropertyOp49
 70
     1
102
RTVSPropertyOp50
 70
     1
102
RTVSPropertyOp51
 70
     0
102
RTVSPropertyOp52
 70
     0
102
RTVSPropertyOp53
 70
     1
102
RTVSPropertyOp54
 70
     1
102
RTVSPropertyOp55
 70
     1
102
RTVSPropertyOp56
 70
     1
102
RTVSPropertyOp57
 70
     1
102
RTVSPropertyOp58
 70
     1
102
RTVSPropertyOp59
 70
     1
102
RTVSPropertyOp60
 70
     1
102
RTVSPropertyOp61
 70
     1
102
RTVSPropertyOp62
 70
     1
  0
XRECORD
  5
AFA3
102
{ACAD_REACTORS
330
AFA2
102
}
330
AFA2
100
AcDbXrecord
280
     1
102
RTVSPost2010Prop28
280
     0
102
RTVSPost2010PropOp28
 70
     1
102
RTVSPost2010Prop29
280
     1
102
RTVSPost2010PropOp29
 70
     1
102
RTVSPost2010Prop30
280
     1
102
RTVSPost2010PropOp30
 70
     1
102
RTVSPost2010Prop31
280
     0
102
RTVSPost2010PropOp31
 70
     1
102
RTVSPost2010Prop32
280
     0
102
RTVSPost2010PropOp32
 70
     1
102
RTVSPost2010Prop33
280
     0
102
RTVSPost2010PropOp33
 70
     1
102
RTVSPost2010Prop34
280
     0
102
RTVSPost2010PropOp34
 70
     1
102
RTVSPost2010Prop35
280
     0
102
RTVSPost2010PropOp35
 70
     1
102
RTVSPost2010Prop36
280
     0
102
RTVSPost2010PropOp36
 70
     1
102
RTVSPost2010Prop37
 90
       50
102
RTVSPost2010PropOp37
 70
     0
102
RTVSPost2010Prop38
140
0.0
102
RTVSPost2010PropOp38
 70
     0
102
RTVSPost2010Prop39
140
1.0
102
RTVSPost2010PropOp39
 70
     0
102
RTVSPost2010Prop40
 90
        0
102
RTVSPost2010PropOp40
 70
     0
102
RTVSPost2010Prop41ColorIndex
 90
       18
102
RTVSPost2010Prop41ColorRGB
 90
        0
102
RTVSPost2010PropOp41
 70
     0
102
RTVSPost2010Prop42
 90
       50
102
RTVSPost2010PropOp42
 70
     0
102
RTVSPost2010Prop43
 90
        3
102
RTVSPost2010PropOp43
 70
     0
102
RTVSPost2010Prop44ColorIndex
 90
        5
102
RTVSPost2010Prop44ColorRGB
 90
      255
102
RTVSPost2010PropOp44
 70
     0
102
RTVSPost2010Prop45
280
     0
102
RTVSPost2010PropOp45
 70
     1
102
RTVSPost2010Prop46
 90
       50
102
RTVSPost2010PropOp46
 70
     0
102
RTVSPost2010Prop47
 90
       50
102
RTVSPost2010PropOp47
 70
     0
102
RTVSPost2010Prop48
 90
       50
102
RTVSPost2010PropOp48
 70
     0
102
RTVSPost2010Prop49
280
     0
102
RTVSPost2010PropOp49
 70
     1
102
RTVSPost2010Prop50
 90
       50
102
RTVSPost2010PropOp50
 70
     0
102
RTVSPost2010Prop51ColorIndex
 90
      256
102
RTVSPost2010Prop51ColorRGB
 90
-16777216
102
RTVSPost2010PropOp51
 70
     0
102
RTVSPost2010Prop52
140
1.0
102
RTVSPost2010PropOp52
 70
     0
102
RTVSPost2010Prop53
 90
        2
102
RTVSPost2010PropOp53
 70
     0
102
RTVSPost2010Prop54
  1
strokes_ogs.tif
102
RTVSPost2010PropOp54
 70
     0
102
RTVSPost2010Prop55
280
     0
102
RTVSPost2010PropOp55
 70
     1
102
RTVSPost2010Prop56
140
1.0
102
RTVSPost2010PropOp56
 70
     0
102
RTVSPost2010Prop57
140
1.0
102
RTVSPost2010PropOp57
 70
     0
102
RTVSPropertyOp0
 70
     0
102
RTVSPropertyOp1
 70
     0
102
RTVSPropertyOp2
 70
     0
102
RTVSPropertyOp3
 70
     0
102
RTVSPropertyOp4
 70
     0
102
RTVSPropertyOp5
 70
     0
102
RTVSPropertyOp6
 70
     0
102
RTVSPropertyOp7
 70
     0
102
RTVSPropertyOp8
 70
     0
102
RTVSPropertyOp9
 70
     0
102
RTVSPropertyOp10
 70
     0
102
RTVSPropertyOp11
 70
     0
102
RTVSPropertyOp12
 70
     0
102
RTVSPropertyOp13
 70
     0
102
RTVSPropertyOp14
 70
     2
102
RTVSPropertyOp15
 70
     0
102
RTVSPropertyOp16
 70
     0
102
RTVSPropertyOp17
 70
     0
102
RTVSPropertyOp18
 70
     0
102
RTVSPropertyOp19
 70
     0
102
RTVSPropertyOp20
 70
     0
102
RTVSPropertyOp21
 70
     0
102
RTVSPropertyOp22
 70
     0
102
RTVSPropertyOp23
 70
     0
102
RTVSPropertyOp24
 70
     0
102
RTVSPropertyOp25
 70
     0
102
RTVSPropertyOp26
 70
     0
102
RTVSPropertyOp27
 70
     0
102
RTVSPropertyOp28
 70
     1
102
RTVSPropertyOp29
 70
     1
102
RTVSPropertyOp30
 70
     1
102
RTVSPropertyOp31
 70
     1
102
RTVSPropertyOp32
 70
     1
102
RTVSPropertyOp33
 70
     1
102
RTVSPropertyOp34
 70
     1
102
RTVSPropertyOp35
 70
     1
102
RTVSPropertyOp36
 70
     1
102
RTVSPropertyOp37
 70
     0
102
RTVSPropertyOp38
 70
     0
102
RTVSPropertyOp39
 70
     0
102
RTVSPropertyOp40
 70
     0
102
RTVSPropertyOp41
 70
     0
102
RTVSPropertyOp42
 70
     0
102
RTVSPropertyOp43
 70
     0
102
RTVSPropertyOp44
 70
     0
102
RTVSPropertyOp45
 70
     1
102
RTVSPropertyOp46
 70
     0
102
RTVSPropertyOp47
 70
     0
102
RTVSPropertyOp48
 70
     0
102
RTVSPropertyOp49
 70
     1
102
RTVSPropertyOp50
 70
     0
102
RTVSPropertyOp51
 70
     0
102
RTVSPropertyOp52
 70
     0
102
RTVSPropertyOp53
 70
     0
102
RTVSPropertyOp54
 70
     0
102
RTVSPropertyOp55
 70
     1
102
RTVSPropertyOp56
 70
     0
102
RTVSPropertyOp57
 70
     0
102
RTVSPropertyOp58
 70
     0
102
RTVSPropertyOp59
 70
     0
102
RTVSPropertyOp60
 70
     0
102
RTVSPropertyOp61
 70
     0
102
RTVSPropertyOp62
 70
     0
  0
XRECORD
  5
AF89
102
{ACAD_REACTORS
330
AF88
102
}
330
AF88
100
AcDbXrecord
280
     1
102
RTVSPost2010Prop28
280
     0
102
RTVSPost2010PropOp28
 70
     1
102
RTVSPost2010Prop29
280
     1
102
RTVSPost2010PropOp29
 70
     1
102
RTVSPost2010Prop30
280
     1
102
RTVSPost2010PropOp30
 70
     1
102
RTVSPost2010Prop31
280
     0
102
RTVSPost2010PropOp31
 70
     1
102
RTVSPost2010Prop32
280
     0
102
RTVSPost2010PropOp32
 70
     1
102
RTVSPost2010Prop33
280
     0
102
RTVSPost2010PropOp33
 70
     1
102
RTVSPost2010Prop34
280
     0
102
RTVSPost2010PropOp34
 70
     1
102
RTVSPost2010Prop35
280
     0
102
RTVSPost2010PropOp35
 70
     1
102
RTVSPost2010Prop36
280
     0
102
RTVSPost2010PropOp36
 70
     1
102
RTVSPost2010Prop37
 90
       50
102
RTVSPost2010PropOp37
 70
     1
102
RTVSPost2010Prop38
140
0.0
102
RTVSPost2010PropOp38
 70
     1
102
RTVSPost2010Prop39
140
1.0
102
RTVSPost2010PropOp39
 70
     1
102
RTVSPost2010Prop40
 90
        0
102
RTVSPost2010PropOp40
 70
     1
102
RTVSPost2010Prop41ColorIndex
 90
       18
102
RTVSPost2010Prop41ColorRGB
 90
        0
102
RTVSPost2010PropOp41
 70
     1
102
RTVSPost2010Prop42
 90
       50
102
RTVSPost2010PropOp42
 70
     1
102
RTVSPost2010Prop43
 90
        3
102
RTVSPost2010PropOp43
 70
     1
102
RTVSPost2010Prop44ColorIndex
 90
        5
102
RTVSPost2010Prop44ColorRGB
 90
      255
102
RTVSPost2010PropOp44
 70
     1
102
RTVSPost2010Prop45
280
     0
102
RTVSPost2010PropOp45
 70
     1
102
RTVSPost2010Prop46
 90
       50
102
RTVSPost2010PropOp46
 70
     1
102
RTVSPost2010Prop47
 90
       50
102
RTVSPost2010PropOp47
 70
     1
102
RTVSPost2010Prop48
 90
       50
102
RTVSPost2010PropOp48
 70
     1
102
RTVSPost2010Prop49
280
     0
102
RTVSPost2010PropOp49
 70
     1
102
RTVSPost2010Prop50
 90
       50
102
RTVSPost2010PropOp50
 70
     1
102
RTVSPost2010Prop51ColorIndex
 90
      256
102
RTVSPost2010Prop51ColorRGB
 90
-16777216
102
RTVSPost2010PropOp51
 70
     0
102
RTVSPost2010Prop52
140
1.0
102
RTVSPost2010PropOp52
 70
     0
102
RTVSPost2010Prop53
 90
        2
102
RTVSPost2010PropOp53
 70
     1
102
RTVSPost2010Prop54
  1
strokes_ogs.tif
102
RTVSPost2010PropOp54
 70
     1
102
RTVSPost2010Prop55
280
     0
102
RTVSPost2010PropOp55
 70
     1
102
RTVSPost2010Prop56
140
1.0
102
RTVSPost2010PropOp56
 70
     1
102
RTVSPost2010Prop57
140
1.0
102
RTVSPost2010PropOp57
 70
     1
102
RTVSPropertyOp0
 70
     1
102
RTVSPropertyOp1
 70
     1
102
RTVSPropertyOp2
 70
     1
102
RTVSPropertyOp3
 70
     1
102
RTVSPropertyOp4
 70
     1
102
RTVSPropertyOp5
 70
     1
102
RTVSPropertyOp6
 70
     1
102
RTVSPropertyOp7
 70
     1
102
RTVSPropertyOp8
 70
     1
102
RTVSPropertyOp9
 70
     1
102
RTVSPropertyOp10
 70
     1
102
RTVSPropertyOp11
 70
     1
102
RTVSPropertyOp12
 70
     1
102
RTVSPropertyOp13
 70
     1
102
RTVSPropertyOp14
 70
     1
102
RTVSPropertyOp15
 70
     1
102
RTVSPropertyOp16
 70
     1
102
RTVSPropertyOp17
 70
     1
102
RTVSPropertyOp18
 70
     1
102
RTVSPropertyOp19
 70
     1
102
RTVSPropertyOp20
 70
     1
102
RTVSPropertyOp21
 70
     1
102
RTVSPropertyOp22
 70
     1
102
RTVSPropertyOp23
 70
     1
102
RTVSPropertyOp24
 70
     1
102
RTVSPropertyOp25
 70
     1
102
RTVSPropertyOp26
 70
     1
102
RTVSPropertyOp27
 70
     1
102
RTVSPropertyOp28
 70
     1
102
RTVSPropertyOp29
 70
     1
102
RTVSPropertyOp30
 70
     1
102
RTVSPropertyOp31
 70
     1
102
RTVSPropertyOp32
 70
     1
102
RTVSPropertyOp33
 70
     1
102
RTVSPropertyOp34
 70
     1
102
RTVSPropertyOp35
 70
     1
102
RTVSPropertyOp36
 70
     1
102
RTVSPropertyOp37
 70
     1
102
RTVSPropertyOp38
 70
     1
102
RTVSPropertyOp39
 70
     1
102
RTVSPropertyOp40
 70
     1
102
RTVSPropertyOp41
 70
     1
102
RTVSPropertyOp42
 70
     1
102
RTVSPropertyOp43
 70
     1
102
RTVSPropertyOp44
 70
     1
102
RTVSPropertyOp45
 70
     1
102
RTVSPropertyOp46
 70
     1
102
RTVSPropertyOp47
 70
     1
102
RTVSPropertyOp48
 70
     1
102
RTVSPropertyOp49
 70
     1
102
RTVSPropertyOp50
 70
     1
102
RTVSPropertyOp51
 70
     0
102
RTVSPropertyOp52
 70
     0
102
RTVSPropertyOp53
 70
     1
102
RTVSPropertyOp54
 70
     1
102
RTVSPropertyOp55
 70
     1
102
RTVSPropertyOp56
 70
     1
102
RTVSPropertyOp57
 70
     1
102
RTVSPropertyOp58
 70
     1
102
RTVSPropertyOp59
 70
     1
102
RTVSPropertyOp60
 70
     1
102
RTVSPropertyOp61
 70
     1
102
RTVSPropertyOp62
 70
     1
  0
XRECORD
  5
AF9F
102
{ACAD_REACTORS
330
AF9E
102
}
330
AF9E
100
AcDbXrecord
280
     1
102
RTVSPost2010Prop28
280
     0
102
RTVSPost2010PropOp28
 70
     1
102
RTVSPost2010Prop29
280
     1
102
RTVSPost2010PropOp29
 70
     1
102
RTVSPost2010Prop30
280
     1
102
RTVSPost2010PropOp30
 70
     1
102
RTVSPost2010Prop31
280
     0
102
RTVSPost2010PropOp31
 70
     1
102
RTVSPost2010Prop32
280
     0
102
RTVSPost2010PropOp32
 70
     1
102
RTVSPost2010Prop33
280
     0
102
RTVSPost2010PropOp33
 70
     1
102
RTVSPost2010Prop34
280
     0
102
RTVSPost2010PropOp34
 70
     1
102
RTVSPost2010Prop35
280
     0
102
RTVSPost2010PropOp35
 70
     1
102
RTVSPost2010Prop36
280
     0
102
RTVSPost2010PropOp36
 70
     1
102
RTVSPost2010Prop37
 90
       50
102
RTVSPost2010PropOp37
 70
     1
102
RTVSPost2010Prop38
140
0.0
102
RTVSPost2010PropOp38
 70
     1
102
RTVSPost2010Prop39
140
1.0
102
RTVSPost2010PropOp39
 70
     1
102
RTVSPost2010Prop40
 90
        0
102
RTVSPost2010PropOp40
 70
     1
102
RTVSPost2010Prop41ColorIndex
 90
       18
102
RTVSPost2010Prop41ColorRGB
 90
        0
102
RTVSPost2010PropOp41
 70
     1
102
RTVSPost2010Prop42
 90
       50
102
RTVSPost2010PropOp42
 70
     1
102
RTVSPost2010Prop43
 90
        3
102
RTVSPost2010PropOp43
 70
     1
102
RTVSPost2010Prop44ColorIndex
 90
        5
102
RTVSPost2010Prop44ColorRGB
 90
      255
102
RTVSPost2010PropOp44
 70
     1
102
RTVSPost2010Prop45
280
     0
102
RTVSPost2010PropOp45
 70
     1
102
RTVSPost2010Prop46
 90
       50
102
RTVSPost2010PropOp46
 70
     1
102
RTVSPost2010Prop47
 90
       50
102
RTVSPost2010PropOp47
 70
     1
102
RTVSPost2010Prop48
 90
       50
102
RTVSPost2010PropOp48
 70
     1
102
RTVSPost2010Prop49
280
     0
102
RTVSPost2010PropOp49
 70
     1
102
RTVSPost2010Prop50
 90
       50
102
RTVSPost2010PropOp50
 70
     1
102
RTVSPost2010Prop51ColorIndex
 90
      256
102
RTVSPost2010Prop51ColorRGB
 90
-16777216
102
RTVSPost2010PropOp51
 70
     0
102
RTVSPost2010Prop52
140
1.0
102
RTVSPost2010PropOp52
 70
     0
102
RTVSPost2010Prop53
 90
        2
102
RTVSPost2010PropOp53
 70
     1
102
RTVSPost2010Prop54
  1
strokes_ogs.tif
102
RTVSPost2010PropOp54
 70
     1
102
RTVSPost2010Prop55
280
     0
102
RTVSPost2010PropOp55
 70
     1
102
RTVSPost2010Prop56
140
1.0
102
RTVSPost2010PropOp56
 70
     1
102
RTVSPost2010Prop57
140
1.0
102
RTVSPost2010PropOp57
 70
     1
102
RTVSPropertyOp0
 70
     1
102
RTVSPropertyOp1
 70
     1
102
RTVSPropertyOp2
 70
     1
102
RTVSPropertyOp3
 70
     1
102
RTVSPropertyOp4
 70
     1
102
RTVSPropertyOp5
 70
     1
102
RTVSPropertyOp6
 70
     1
102
RTVSPropertyOp7
 70
     1
102
RTVSPropertyOp8
 70
     1
102
RTVSPropertyOp9
 70
     1
102
RTVSPropertyOp10
 70
     1
102
RTVSPropertyOp11
 70
     1
102
RTVSPropertyOp12
 70
     1
102
RTVSPropertyOp13
 70
     1
102
RTVSPropertyOp14
 70
     1
102
RTVSPropertyOp15
 70
     1
102
RTVSPropertyOp16
 70
     1
102
RTVSPropertyOp17
 70
     1
102
RTVSPropertyOp18
 70
     1
102
RTVSPropertyOp19
 70
     1
102
RTVSPropertyOp20
 70
     1
102
RTVSPropertyOp21
 70
     1
102
RTVSPropertyOp22
 70
     1
102
RTVSPropertyOp23
 70
     1
102
RTVSPropertyOp24
 70
     1
102
RTVSPropertyOp25
 70
     1
102
RTVSPropertyOp26
 70
     1
102
RTVSPropertyOp27
 70
     1
102
RTVSPropertyOp28
 70
     1
102
RTVSPropertyOp29
 70
     1
102
RTVSPropertyOp30
 70
     1
102
RTVSPropertyOp31
 70
     1
102
RTVSPropertyOp32
 70
     1
102
RTVSPropertyOp33
 70
     1
102
RTVSPropertyOp34
 70
     1
102
RTVSPropertyOp35
 70
     1
102
RTVSPropertyOp36
 70
     1
102
RTVSPropertyOp37
 70
     1
102
RTVSPropertyOp38
 70
     1
102
RTVSPropertyOp39
 70
     1
102
RTVSPropertyOp40
 70
     1
102
RTVSPropertyOp41
 70
     1
102
RTVSPropertyOp42
 70
     1
102
RTVSPropertyOp43
 70
     1
102
RTVSPropertyOp44
 70
     1
102
RTVSPropertyOp45
 70
     1
102
RTVSPropertyOp46
 70
     1
102
RTVSPropertyOp47
 70
     1
102
RTVSPropertyOp48
 70
     1
102
RTVSPropertyOp49
 70
     1
102
RTVSPropertyOp50
 70
     1
102
RTVSPropertyOp51
 70
     0
102
RTVSPropertyOp52
 70
     0
102
RTVSPropertyOp53
 70
     1
102
RTVSPropertyOp54
 70
     1
102
RTVSPropertyOp55
 70
     1
102
RTVSPropertyOp56
 70
     1
102
RTVSPropertyOp57
 70
     1
102
RTVSPropertyOp58
 70
     1
102
RTVSPropertyOp59
 70
     1
102
RTVSPropertyOp60
 70
     1
102
RTVSPropertyOp61
 70
     1
102
RTVSPropertyOp62
 70
     1
  0
XRECORD
  5
AF9D
102
{ACAD_REACTORS
330
AF9C
102
}
330
AF9C
100
AcDbXrecord
280
     1
102
RTVSPost2010Prop28
280
     0
102
RTVSPost2010PropOp28
 70
     1
102
RTVSPost2010Prop29
280
     1
102
RTVSPost2010PropOp29
 70
     1
102
RTVSPost2010Prop30
280
     1
102
RTVSPost2010PropOp30
 70
     1
102
RTVSPost2010Prop31
280
     0
102
RTVSPost2010PropOp31
 70
     1
102
RTVSPost2010Prop32
280
     0
102
RTVSPost2010PropOp32
 70
     1
102
RTVSPost2010Prop33
280
     0
102
RTVSPost2010PropOp33
 70
     1
102
RTVSPost2010Prop34
280
     0
102
RTVSPost2010PropOp34
 70
     1
102
RTVSPost2010Prop35
280
     0
102
RTVSPost2010PropOp35
 70
     1
102
RTVSPost2010Prop36
280
     0
102
RTVSPost2010PropOp36
 70
     1
102
RTVSPost2010Prop37
 90
       50
102
RTVSPost2010PropOp37
 70
     1
102
RTVSPost2010Prop38
140
0.0
102
RTVSPost2010PropOp38
 70
     1
102
RTVSPost2010Prop39
140
1.0
102
RTVSPost2010PropOp39
 70
     1
102
RTVSPost2010Prop40
 90
        0
102
RTVSPost2010PropOp40
 70
     1
102
RTVSPost2010Prop41ColorIndex
 90
       18
102
RTVSPost2010Prop41ColorRGB
 90
        0
102
RTVSPost2010PropOp41
 70
     1
102
RTVSPost2010Prop42
 90
       50
102
RTVSPost2010PropOp42
 70
     1
102
RTVSPost2010Prop43
 90
        3
102
RTVSPost2010PropOp43
 70
     1
102
RTVSPost2010Prop44ColorIndex
 90
        5
102
RTVSPost2010Prop44ColorRGB
 90
      255
102
RTVSPost2010PropOp44
 70
     1
102
RTVSPost2010Prop45
280
     0
102
RTVSPost2010PropOp45
 70
     1
102
RTVSPost2010Prop46
 90
       50
102
RTVSPost2010PropOp46
 70
     1
102
RTVSPost2010Prop47
 90
       50
102
RTVSPost2010PropOp47
 70
     1
102
RTVSPost2010Prop48
 90
       50
102
RTVSPost2010PropOp48
 70
     1
102
RTVSPost2010Prop49
280
     0
102
RTVSPost2010PropOp49
 70
     1
102
RTVSPost2010Prop50
 90
       50
102
RTVSPost2010PropOp50
 70
     1
102
RTVSPost2010Prop51ColorIndex
 90
      256
102
RTVSPost2010Prop51ColorRGB
 90
-16777216
102
RTVSPost2010PropOp51
 70
     0
102
RTVSPost2010Prop52
140
1.0
102
RTVSPost2010PropOp52
 70
     0
102
RTVSPost2010Prop53
 90
        2
102
RTVSPost2010PropOp53
 70
     1
102
RTVSPost2010Prop54
  1
strokes_ogs.tif
102
RTVSPost2010PropOp54
 70
     1
102
RTVSPost2010Prop55
280
     0
102
RTVSPost2010PropOp55
 70
     1
102
RTVSPost2010Prop56
140
1.0
102
RTVSPost2010PropOp56
 70
     1
102
RTVSPost2010Prop57
140
1.0
102
RTVSPost2010PropOp57
 70
     1
102
RTVSPropertyOp0
 70
     1
102
RTVSPropertyOp1
 70
     1
102
RTVSPropertyOp2
 70
     1
102
RTVSPropertyOp3
 70
     1
102
RTVSPropertyOp4
 70
     1
102
RTVSPropertyOp5
 70
     1
102
RTVSPropertyOp6
 70
     1
102
RTVSPropertyOp7
 70
     1
102
RTVSPropertyOp8
 70
     1
102
RTVSPropertyOp9
 70
     1
102
RTVSPropertyOp10
 70
     1
102
RTVSPropertyOp11
 70
     1
102
RTVSPropertyOp12
 70
     1
102
RTVSPropertyOp13
 70
     1
102
RTVSPropertyOp14
 70
     1
102
RTVSPropertyOp15
 70
     1
102
RTVSPropertyOp16
 70
     1
102
RTVSPropertyOp17
 70
     1
102
RTVSPropertyOp18
 70
     1
102
RTVSPropertyOp19
 70
     1
102
RTVSPropertyOp20
 70
     1
102
RTVSPropertyOp21
 70
     1
102
RTVSPropertyOp22
 70
     1
102
RTVSPropertyOp23
 70
     1
102
RTVSPropertyOp24
 70
     1
102
RTVSPropertyOp25
 70
     1
102
RTVSPropertyOp26
 70
     1
102
RTVSPropertyOp27
 70
     1
102
RTVSPropertyOp28
 70
     1
102
RTVSPropertyOp29
 70
     1
102
RTVSPropertyOp30
 70
     1
102
RTVSPropertyOp31
 70
     1
102
RTVSPropertyOp32
 70
     1
102
RTVSPropertyOp33
 70
     1
102
RTVSPropertyOp34
 70
     1
102
RTVSPropertyOp35
 70
     1
102
RTVSPropertyOp36
 70
     1
102
RTVSPropertyOp37
 70
     1
102
RTVSPropertyOp38
 70
     1
102
RTVSPropertyOp39
 70
     1
102
RTVSPropertyOp40
 70
     1
102
RTVSPropertyOp41
 70
     1
102
RTVSPropertyOp42
 70
     1
102
RTVSPropertyOp43
 70
     1
102
RTVSPropertyOp44
 70
     1
102
RTVSPropertyOp45
 70
     1
102
RTVSPropertyOp46
 70
     1
102
RTVSPropertyOp47
 70
     1
102
RTVSPropertyOp48
 70
     1
102
RTVSPropertyOp49
 70
     1
102
RTVSPropertyOp50
 70
     1
102
RTVSPropertyOp51
 70
     0
102
RTVSPropertyOp52
 70
     0
102
RTVSPropertyOp53
 70
     1
102
RTVSPropertyOp54
 70
     1
102
RTVSPropertyOp55
 70
     1
102
RTVSPropertyOp56
 70
     1
102
RTVSPropertyOp57
 70
     1
102
RTVSPropertyOp58
 70
     1
102
RTVSPropertyOp59
 70
     1
102
RTVSPropertyOp60
 70
     1
102
RTVSPropertyOp61
 70
     1
102
RTVSPropertyOp62
 70
     1
  0
XRECORD
  5
AF97
102
{ACAD_REACTORS
330
AF96
102
}
330
AF96
100
AcDbXrecord
280
     1
102
RTVSPost2010Prop28
280
     0
102
RTVSPost2010PropOp28
 70
     1
102
RTVSPost2010Prop29
280
     1
102
RTVSPost2010PropOp29
 70
     1
102
RTVSPost2010Prop30
280
     1
102
RTVSPost2010PropOp30
 70
     1
102
RTVSPost2010Prop31
280
     0
102
RTVSPost2010PropOp31
 70
     1
102
RTVSPost2010Prop32
280
     0
102
RTVSPost2010PropOp32
 70
     1
102
RTVSPost2010Prop33
280
     0
102
RTVSPost2010PropOp33
 70
     1
102
RTVSPost2010Prop34
280
     0
102
RTVSPost2010PropOp34
 70
     1
102
RTVSPost2010Prop35
280
     0
102
RTVSPost2010PropOp35
 70
     1
102
RTVSPost2010Prop36
280
     0
102
RTVSPost2010PropOp36
 70
     1
102
RTVSPost2010Prop37
 90
       50
102
RTVSPost2010PropOp37
 70
     1
102
RTVSPost2010Prop38
140
0.0
102
RTVSPost2010PropOp38
 70
     1
102
RTVSPost2010Prop39
140
1.0
102
RTVSPost2010PropOp39
 70
     1
102
RTVSPost2010Prop40
 90
        0
102
RTVSPost2010PropOp40
 70
     1
102
RTVSPost2010Prop41ColorIndex
 90
       18
102
RTVSPost2010Prop41ColorRGB
 90
        0
102
RTVSPost2010PropOp41
 70
     1
102
RTVSPost2010Prop42
 90
       50
102
RTVSPost2010PropOp42
 70
     1
102
RTVSPost2010Prop43
 90
        3
102
RTVSPost2010PropOp43
 70
     1
102
RTVSPost2010Prop44ColorIndex
 90
        5
102
RTVSPost2010Prop44ColorRGB
 90
      255
102
RTVSPost2010PropOp44
 70
     1
102
RTVSPost2010Prop45
280
     0
102
RTVSPost2010PropOp45
 70
     1
102
RTVSPost2010Prop46
 90
       50
102
RTVSPost2010PropOp46
 70
     1
102
RTVSPost2010Prop47
 90
       50
102
RTVSPost2010PropOp47
 70
     1
102
RTVSPost2010Prop48
 90
       50
102
RTVSPost2010PropOp48
 70
     1
102
RTVSPost2010Prop49
280
     0
102
RTVSPost2010PropOp49
 70
     1
102
RTVSPost2010Prop50
 90
       50
102
RTVSPost2010PropOp50
 70
     1
102
RTVSPost2010Prop51ColorIndex
 90
      256
102
RTVSPost2010Prop51ColorRGB
 90
-16777216
102
RTVSPost2010PropOp51
 70
     0
102
RTVSPost2010Prop52
140
1.0
102
RTVSPost2010PropOp52
 70
     0
102
RTVSPost2010Prop53
 90
        2
102
RTVSPost2010PropOp53
 70
     1
102
RTVSPost2010Prop54
  1
strokes_ogs.tif
102
RTVSPost2010PropOp54
 70
     1
102
RTVSPost2010Prop55
280
     0
102
RTVSPost2010PropOp55
 70
     1
102
RTVSPost2010Prop56
140
1.0
102
RTVSPost2010PropOp56
 70
     1
102
RTVSPost2010Prop57
140
1.0
102
RTVSPost2010PropOp57
 70
     1
102
RTVSPropertyOp0
 70
     1
102
RTVSPropertyOp1
 70
     1
102
RTVSPropertyOp2
 70
     1
102
RTVSPropertyOp3
 70
     1
102
RTVSPropertyOp4
 70
     1
102
RTVSPropertyOp5
 70
     1
102
RTVSPropertyOp6
 70
     1
102
RTVSPropertyOp7
 70
     1
102
RTVSPropertyOp8
 70
     1
102
RTVSPropertyOp9
 70
     1
102
RTVSPropertyOp10
 70
     1
102
RTVSPropertyOp11
 70
     1
102
RTVSPropertyOp12
 70
     1
102
RTVSPropertyOp13
 70
     1
102
RTVSPropertyOp14
 70
     1
102
RTVSPropertyOp15
 70
     1
102
RTVSPropertyOp16
 70
     1
102
RTVSPropertyOp17
 70
     1
102
RTVSPropertyOp18
 70
     1
102
RTVSPropertyOp19
 70
     1
102
RTVSPropertyOp20
 70
     1
102
RTVSPropertyOp21
 70
     1
102
RTVSPropertyOp22
 70
     1
102
RTVSPropertyOp23
 70
     1
102
RTVSPropertyOp24
 70
     1
102
RTVSPropertyOp25
 70
     1
102
RTVSPropertyOp26
 70
     1
102
RTVSPropertyOp27
 70
     1
102
RTVSPropertyOp28
 70
     1
102
RTVSPropertyOp29
 70
     1
102
RTVSPropertyOp30
 70
     1
102
RTVSPropertyOp31
 70
     1
102
RTVSPropertyOp32
 70
     1
102
RTVSPropertyOp33
 70
     1
102
RTVSPropertyOp34
 70
     1
102
RTVSPropertyOp35
 70
     1
102
RTVSPropertyOp36
 70
     1
102
RTVSPropertyOp37
 70
     1
102
RTVSPropertyOp38
 70
     1
102
RTVSPropertyOp39
 70
     1
102
RTVSPropertyOp40
 70
     1
102
RTVSPropertyOp41
 70
     1
102
RTVSPropertyOp42
 70
     1
102
RTVSPropertyOp43
 70
     1
102
RTVSPropertyOp44
 70
     1
102
RTVSPropertyOp45
 70
     1
102
RTVSPropertyOp46
 70
     1
102
RTVSPropertyOp47
 70
     1
102
RTVSPropertyOp48
 70
     1
102
RTVSPropertyOp49
 70
     1
102
RTVSPropertyOp50
 70
     1
102
RTVSPropertyOp51
 70
     0
102
RTVSPropertyOp52
 70
     0
102
RTVSPropertyOp53
 70
     1
102
RTVSPropertyOp54
 70
     1
102
RTVSPropertyOp55
 70
     1
102
RTVSPropertyOp56
 70
     1
102
RTVSPropertyOp57
 70
     1
102
RTVSPropertyOp58
 70
     1
102
RTVSPropertyOp59
 70
     1
102
RTVSPropertyOp60
 70
     1
102
RTVSPropertyOp61
 70
     1
102
RTVSPropertyOp62
 70
     1
  0
XRECORD
  5
AF99
102
{ACAD_REACTORS
330
AF98
102
}
330
AF98
100
AcDbXrecord
280
     1
102
RTVSPost2010Prop28
280
     0
102
RTVSPost2010PropOp28
 70
     1
102
RTVSPost2010Prop29
280
     1
102
RTVSPost2010PropOp29
 70
     1
102
RTVSPost2010Prop30
280
     1
102
RTVSPost2010PropOp30
 70
     1
102
RTVSPost2010Prop31
280
     0
102
RTVSPost2010PropOp31
 70
     1
102
RTVSPost2010Prop32
280
     0
102
RTVSPost2010PropOp32
 70
     1
102
RTVSPost2010Prop33
280
     0
102
RTVSPost2010PropOp33
 70
     1
102
RTVSPost2010Prop34
280
     0
102
RTVSPost2010PropOp34
 70
     1
102
RTVSPost2010Prop35
280
     0
102
RTVSPost2010PropOp35
 70
     1
102
RTVSPost2010Prop36
280
     0
102
RTVSPost2010PropOp36
 70
     1
102
RTVSPost2010Prop37
 90
       50
102
RTVSPost2010PropOp37
 70
     1
102
RTVSPost2010Prop38
140
0.0
102
RTVSPost2010PropOp38
 70
     1
102
RTVSPost2010Prop39
140
1.0
102
RTVSPost2010PropOp39
 70
     1
102
RTVSPost2010Prop40
 90
        0
102
RTVSPost2010PropOp40
 70
     1
102
RTVSPost2010Prop41ColorIndex
 90
       18
102
RTVSPost2010Prop41ColorRGB
 90
        0
102
RTVSPost2010PropOp41
 70
     1
102
RTVSPost2010Prop42
 90
       50
102
RTVSPost2010PropOp42
 70
     1
102
RTVSPost2010Prop43
 90
        3
102
RTVSPost2010PropOp43
 70
     1
102
RTVSPost2010Prop44ColorIndex
 90
        5
102
RTVSPost2010Prop44ColorRGB
 90
      255
102
RTVSPost2010PropOp44
 70
     1
102
RTVSPost2010Prop45
280
     0
102
RTVSPost2010PropOp45
 70
     1
102
RTVSPost2010Prop46
 90
       50
102
RTVSPost2010PropOp46
 70
     1
102
RTVSPost2010Prop47
 90
       50
102
RTVSPost2010PropOp47
 70
     1
102
RTVSPost2010Prop48
 90
       50
102
RTVSPost2010PropOp48
 70
     1
102
RTVSPost2010Prop49
280
     0
102
RTVSPost2010PropOp49
 70
     1
102
RTVSPost2010Prop50
 90
       50
102
RTVSPost2010PropOp50
 70
     1
102
RTVSPost2010Prop51ColorIndex
 90
      256
102
RTVSPost2010Prop51ColorRGB
 90
-16777216
102
RTVSPost2010PropOp51
 70
     0
102
RTVSPost2010Prop52
140
1.0
102
RTVSPost2010PropOp52
 70
     0
102
RTVSPost2010Prop53
 90
        2
102
RTVSPost2010PropOp53
 70
     1
102
RTVSPost2010Prop54
  1
strokes_ogs.tif
102
RTVSPost2010PropOp54
 70
     1
102
RTVSPost2010Prop55
280
     0
102
RTVSPost2010PropOp55
 70
     1
102
RTVSPost2010Prop56
140
1.0
102
RTVSPost2010PropOp56
 70
     1
102
RTVSPost2010Prop57
140
1.0
102
RTVSPost2010PropOp57
 70
     1
102
RTVSPropertyOp0
 70
     1
102
RTVSPropertyOp1
 70
     1
102
RTVSPropertyOp2
 70
     1
102
RTVSPropertyOp3
 70
     1
102
RTVSPropertyOp4
 70
     1
102
RTVSPropertyOp5
 70
     1
102
RTVSPropertyOp6
 70
     1
102
RTVSPropertyOp7
 70
     1
102
RTVSPropertyOp8
 70
     1
102
RTVSPropertyOp9
 70
     1
102
RTVSPropertyOp10
 70
     1
102
RTVSPropertyOp11
 70
     1
102
RTVSPropertyOp12
 70
     1
102
RTVSPropertyOp13
 70
     1
102
RTVSPropertyOp14
 70
     1
102
RTVSPropertyOp15
 70
     1
102
RTVSPropertyOp16
 70
     1
102
RTVSPropertyOp17
 70
     1
102
RTVSPropertyOp18
 70
     1
102
RTVSPropertyOp19
 70
     1
102
RTVSPropertyOp20
 70
     1
102
RTVSPropertyOp21
 70
     1
102
RTVSPropertyOp22
 70
     1
102
RTVSPropertyOp23
 70
     1
102
RTVSPropertyOp24
 70
     1
102
RTVSPropertyOp25
 70
     1
102
RTVSPropertyOp26
 70
     1
102
RTVSPropertyOp27
 70
     1
102
RTVSPropertyOp28
 70
     1
102
RTVSPropertyOp29
 70
     1
102
RTVSPropertyOp30
 70
     1
102
RTVSPropertyOp31
 70
     1
102
RTVSPropertyOp32
 70
     1
102
RTVSPropertyOp33
 70
     1
102
RTVSPropertyOp34
 70
     1
102
RTVSPropertyOp35
 70
     1
102
RTVSPropertyOp36
 70
     1
102
RTVSPropertyOp37
 70
     1
102
RTVSPropertyOp38
 70
     1
102
RTVSPropertyOp39
 70
     1
102
RTVSPropertyOp40
 70
     1
102
RTVSPropertyOp41
 70
     1
102
RTVSPropertyOp42
 70
     1
102
RTVSPropertyOp43
 70
     1
102
RTVSPropertyOp44
 70
     1
102
RTVSPropertyOp45
 70
     1
102
RTVSPropertyOp46
 70
     1
102
RTVSPropertyOp47
 70
     1
102
RTVSPropertyOp48
 70
     1
102
RTVSPropertyOp49
 70
     1
102
RTVSPropertyOp50
 70
     1
102
RTVSPropertyOp51
 70
     0
102
RTVSPropertyOp52
 70
     0
102
RTVSPropertyOp53
 70
     1
102
RTVSPropertyOp54
 70
     1
102
RTVSPropertyOp55
 70
     1
102
RTVSPropertyOp56
 70
     1
102
RTVSPropertyOp57
 70
     1
102
RTVSPropertyOp58
 70
     1
102
RTVSPropertyOp59
 70
     1
102
RTVSPropertyOp60
 70
     1
102
RTVSPropertyOp61
 70
     1
102
RTVSPropertyOp62
 70
     1
  0
XRECORD
  5
AF8F
102
{ACAD_REACTORS
330
AF8E
102
}
330
AF8E
100
AcDbXrecord
280
     1
102
RTVSPost2010Prop28
280
     0
102
RTVSPost2010PropOp28
 70
     1
102
RTVSPost2010Prop29
280
     1
102
RTVSPost2010PropOp29
 70
     1
102
RTVSPost2010Prop30
280
     1
102
RTVSPost2010PropOp30
 70
     1
102
RTVSPost2010Prop31
280
     0
102
RTVSPost2010PropOp31
 70
     1
102
RTVSPost2010Prop32
280
     0
102
RTVSPost2010PropOp32
 70
     1
102
RTVSPost2010Prop33
280
     0
102
RTVSPost2010PropOp33
 70
     1
102
RTVSPost2010Prop34
280
     0
102
RTVSPost2010PropOp34
 70
     1
102
RTVSPost2010Prop35
280
     0
102
RTVSPost2010PropOp35
 70
     1
102
RTVSPost2010Prop36
280
     0
102
RTVSPost2010PropOp36
 70
     1
102
RTVSPost2010Prop37
 90
       50
102
RTVSPost2010PropOp37
 70
     1
102
RTVSPost2010Prop38
140
0.0
102
RTVSPost2010PropOp38
 70
     1
102
RTVSPost2010Prop39
140
1.0
102
RTVSPost2010PropOp39
 70
     1
102
RTVSPost2010Prop40
 90
        0
102
RTVSPost2010PropOp40
 70
     1
102
RTVSPost2010Prop41ColorIndex
 90
       18
102
RTVSPost2010Prop41ColorRGB
 90
        0
102
RTVSPost2010PropOp41
 70
     1
102
RTVSPost2010Prop42
 90
       50
102
RTVSPost2010PropOp42
 70
     1
102
RTVSPost2010Prop43
 90
        3
102
RTVSPost2010PropOp43
 70
     1
102
RTVSPost2010Prop44ColorIndex
 90
        5
102
RTVSPost2010Prop44ColorRGB
 90
      255
102
RTVSPost2010PropOp44
 70
     1
102
RTVSPost2010Prop45
280
     0
102
RTVSPost2010PropOp45
 70
     1
102
RTVSPost2010Prop46
 90
       50
102
RTVSPost2010PropOp46
 70
     1
102
RTVSPost2010Prop47
 90
       50
102
RTVSPost2010PropOp47
 70
     1
102
RTVSPost2010Prop48
 90
       50
102
RTVSPost2010PropOp48
 70
     1
102
RTVSPost2010Prop49
280
     0
102
RTVSPost2010PropOp49
 70
     1
102
RTVSPost2010Prop50
 90
       50
102
RTVSPost2010PropOp50
 70
     1
102
RTVSPost2010Prop51ColorIndex
 90
      256
102
RTVSPost2010Prop51ColorRGB
 90
-16777216
102
RTVSPost2010PropOp51
 70
     0
102
RTVSPost2010Prop52
140
1.0
102
RTVSPost2010PropOp52
 70
     0
102
RTVSPost2010Prop53
 90
        2
102
RTVSPost2010PropOp53
 70
     1
102
RTVSPost2010Prop54
  1
strokes_ogs.tif
102
RTVSPost2010PropOp54
 70
     1
102
RTVSPost2010Prop55
280
     0
102
RTVSPost2010PropOp55
 70
     1
102
RTVSPost2010Prop56
140
1.0
102
RTVSPost2010PropOp56
 70
     1
102
RTVSPost2010Prop57
140
1.0
102
RTVSPost2010PropOp57
 70
     1
102
RTVSPropertyOp0
 70
     1
102
RTVSPropertyOp1
 70
     1
102
RTVSPropertyOp2
 70
     1
102
RTVSPropertyOp3
 70
     1
102
RTVSPropertyOp4
 70
     1
102
RTVSPropertyOp5
 70
     1
102
RTVSPropertyOp6
 70
     1
102
RTVSPropertyOp7
 70
     1
102
RTVSPropertyOp8
 70
     1
102
RTVSPropertyOp9
 70
     1
102
RTVSPropertyOp10
 70
     1
102
RTVSPropertyOp11
 70
     1
102
RTVSPropertyOp12
 70
     1
102
RTVSPropertyOp13
 70
     1
102
RTVSPropertyOp14
 70
     1
102
RTVSPropertyOp15
 70
     1
102
RTVSPropertyOp16
 70
     1
102
RTVSPropertyOp17
 70
     1
102
RTVSPropertyOp18
 70
     1
102
RTVSPropertyOp19
 70
     1
102
RTVSPropertyOp20
 70
     1
102
RTVSPropertyOp21
 70
     1
102
RTVSPropertyOp22
 70
     1
102
RTVSPropertyOp23
 70
     1
102
RTVSPropertyOp24
 70
     1
102
RTVSPropertyOp25
 70
     1
102
RTVSPropertyOp26
 70
     1
102
RTVSPropertyOp27
 70
     1
102
RTVSPropertyOp28
 70
     1
102
RTVSPropertyOp29
 70
     1
102
RTVSPropertyOp30
 70
     1
102
RTVSPropertyOp31
 70
     1
102
RTVSPropertyOp32
 70
     1
102
RTVSPropertyOp33
 70
     1
102
RTVSPropertyOp34
 70
     1
102
RTVSPropertyOp35
 70
     1
102
RTVSPropertyOp36
 70
     1
102
RTVSPropertyOp37
 70
     1
102
RTVSPropertyOp38
 70
     1
102
RTVSPropertyOp39
 70
     1
102
RTVSPropertyOp40
 70
     1
102
RTVSPropertyOp41
 70
     1
102
RTVSPropertyOp42
 70
     1
102
RTVSPropertyOp43
 70
     1
102
RTVSPropertyOp44
 70
     1
102
RTVSPropertyOp45
 70
     1
102
RTVSPropertyOp46
 70
     1
102
RTVSPropertyOp47
 70
     1
102
RTVSPropertyOp48
 70
     1
102
RTVSPropertyOp49
 70
     1
102
RTVSPropertyOp50
 70
     1
102
RTVSPropertyOp51
 70
     0
102
RTVSPropertyOp52
 70
     0
102
RTVSPropertyOp53
 70
     1
102
RTVSPropertyOp54
 70
     1
102
RTVSPropertyOp55
 70
     1
102
RTVSPropertyOp56
 70
     1
102
RTVSPropertyOp57
 70
     1
102
RTVSPropertyOp58
 70
     1
102
RTVSPropertyOp59
 70
     1
102
RTVSPropertyOp60
 70
     1
102
RTVSPropertyOp61
 70
     1
102
RTVSPropertyOp62
 70
     1
  0
XRECORD
  5
AF83
102
{ACAD_REACTORS
330
AF82
102
}
330
AF82
100
AcDbXrecord
280
     1
102
RTVSPost2010Prop28
280
     0
102
RTVSPost2010PropOp28
 70
     1
102
RTVSPost2010Prop29
280
     1
102
RTVSPost2010PropOp29
 70
     1
102
RTVSPost2010Prop30
280
     1
102
RTVSPost2010PropOp30
 70
     1
102
RTVSPost2010Prop31
280
     0
102
RTVSPost2010PropOp31
 70
     1
102
RTVSPost2010Prop32
280
     0
102
RTVSPost2010PropOp32
 70
     1
102
RTVSPost2010Prop33
280
     0
102
RTVSPost2010PropOp33
 70
     1
102
RTVSPost2010Prop34
280
     0
102
RTVSPost2010PropOp34
 70
     1
102
RTVSPost2010Prop35
280
     0
102
RTVSPost2010PropOp35
 70
     1
102
RTVSPost2010Prop36
280
     0
102
RTVSPost2010PropOp36
 70
     1
102
RTVSPost2010Prop37
 90
       50
102
RTVSPost2010PropOp37
 70
     1
102
RTVSPost2010Prop38
140
0.0
102
RTVSPost2010PropOp38
 70
     1
102
RTVSPost2010Prop39
140
1.0
102
RTVSPost2010PropOp39
 70
     1
102
RTVSPost2010Prop40
 90
        0
102
RTVSPost2010PropOp40
 70
     1
102
RTVSPost2010Prop41ColorIndex
 90
       18
102
RTVSPost2010Prop41ColorRGB
 90
        0
102
RTVSPost2010PropOp41
 70
     1
102
RTVSPost2010Prop42
 90
       50
102
RTVSPost2010PropOp42
 70
     1
102
RTVSPost2010Prop43
 90
        3
102
RTVSPost2010PropOp43
 70
     1
102
RTVSPost2010Prop44ColorIndex
 90
        5
102
RTVSPost2010Prop44ColorRGB
 90
      255
102
RTVSPost2010PropOp44
 70
     1
102
RTVSPost2010Prop45
280
     0
102
RTVSPost2010PropOp45
 70
     1
102
RTVSPost2010Prop46
 90
       50
102
RTVSPost2010PropOp46
 70
     1
102
RTVSPost2010Prop47
 90
       50
102
RTVSPost2010PropOp47
 70
     1
102
RTVSPost2010Prop48
 90
       50
102
RTVSPost2010PropOp48
 70
     1
102
RTVSPost2010Prop49
280
     0
102
RTVSPost2010PropOp49
 70
     1
102
RTVSPost2010Prop50
 90
       50
102
RTVSPost2010PropOp50
 70
     1
102
RTVSPost2010Prop51ColorIndex
 90
      256
102
RTVSPost2010Prop51ColorRGB
 90
-16777216
102
RTVSPost2010PropOp51
 70
     0
102
RTVSPost2010Prop52
140
1.0
102
RTVSPost2010PropOp52
 70
     0
102
RTVSPost2010Prop53
 90
        2
102
RTVSPost2010PropOp53
 70
     1
102
RTVSPost2010Prop54
  1
strokes_ogs.tif
102
RTVSPost2010PropOp54
 70
     1
102
RTVSPost2010Prop55
280
     0
102
RTVSPost2010PropOp55
 70
     1
102
RTVSPost2010Prop56
140
1.0
102
RTVSPost2010PropOp56
 70
     1
102
RTVSPost2010Prop57
140
1.0
102
RTVSPost2010PropOp57
 70
     1
102
RTVSPropertyOp0
 70
     1
102
RTVSPropertyOp1
 70
     1
102
RTVSPropertyOp2
 70
     1
102
RTVSPropertyOp3
 70
     1
102
RTVSPropertyOp4
 70
     1
102
RTVSPropertyOp5
 70
     1
102
RTVSPropertyOp6
 70
     1
102
RTVSPropertyOp7
 70
     1
102
RTVSPropertyOp8
 70
     1
102
RTVSPropertyOp9
 70
     1
102
RTVSPropertyOp10
 70
     1
102
RTVSPropertyOp11
 70
     1
102
RTVSPropertyOp12
 70
     1
102
RTVSPropertyOp13
 70
     1
102
RTVSPropertyOp14
 70
     1
102
RTVSPropertyOp15
 70
     1
102
RTVSPropertyOp16
 70
     1
102
RTVSPropertyOp17
 70
     1
102
RTVSPropertyOp18
 70
     1
102
RTVSPropertyOp19
 70
     1
102
RTVSPropertyOp20
 70
     1
102
RTVSPropertyOp21
 70
     1
102
RTVSPropertyOp22
 70
     1
102
RTVSPropertyOp23
 70
     1
102
RTVSPropertyOp24
 70
     1
102
RTVSPropertyOp25
 70
     1
102
RTVSPropertyOp26
 70
     1
102
RTVSPropertyOp27
 70
     1
102
RTVSPropertyOp28
 70
     1
102
RTVSPropertyOp29
 70
     1
102
RTVSPropertyOp30
 70
     1
102
RTVSPropertyOp31
 70
     1
102
RTVSPropertyOp32
 70
     1
102
RTVSPropertyOp33
 70
     1
102
RTVSPropertyOp34
 70
     1
102
RTVSPropertyOp35
 70
     1
102
RTVSPropertyOp36
 70
     1
102
RTVSPropertyOp37
 70
     1
102
RTVSPropertyOp38
 70
     1
102
RTVSPropertyOp39
 70
     1
102
RTVSPropertyOp40
 70
     1
102
RTVSPropertyOp41
 70
     1
102
RTVSPropertyOp42
 70
     1
102
RTVSPropertyOp43
 70
     1
102
RTVSPropertyOp44
 70
     1
102
RTVSPropertyOp45
 70
     1
102
RTVSPropertyOp46
 70
     1
102
RTVSPropertyOp47
 70
     1
102
RTVSPropertyOp48
 70
     1
102
RTVSPropertyOp49
 70
     1
102
RTVSPropertyOp50
 70
     1
102
RTVSPropertyOp51
 70
     0
102
RTVSPropertyOp52
 70
     0
102
RTVSPropertyOp53
 70
     1
102
RTVSPropertyOp54
 70
     1
102
RTVSPropertyOp55
 70
     1
102
RTVSPropertyOp56
 70
     1
102
RTVSPropertyOp57
 70
     1
102
RTVSPropertyOp58
 70
     1
102
RTVSPropertyOp59
 70
     1
102
RTVSPropertyOp60
 70
     1
102
RTVSPropertyOp61
 70
     1
102
RTVSPropertyOp62
 70
     1
  0
XRECORD
  5
AF9B
102
{ACAD_REACTORS
330
AF9A
102
}
330
AF9A
100
AcDbXrecord
280
     1
102
RTVSPost2010Prop28
280
     0
102
RTVSPost2010PropOp28
 70
     1
102
RTVSPost2010Prop29
280
     1
102
RTVSPost2010PropOp29
 70
     1
102
RTVSPost2010Prop30
280
     1
102
RTVSPost2010PropOp30
 70
     1
102
RTVSPost2010Prop31
280
     0
102
RTVSPost2010PropOp31
 70
     1
102
RTVSPost2010Prop32
280
     0
102
RTVSPost2010PropOp32
 70
     1
102
RTVSPost2010Prop33
280
     0
102
RTVSPost2010PropOp33
 70
     1
102
RTVSPost2010Prop34
280
     0
102
RTVSPost2010PropOp34
 70
     1
102
RTVSPost2010Prop35
280
     0
102
RTVSPost2010PropOp35
 70
     1
102
RTVSPost2010Prop36
280
     0
102
RTVSPost2010PropOp36
 70
     1
102
RTVSPost2010Prop37
 90
       50
102
RTVSPost2010PropOp37
 70
     1
102
RTVSPost2010Prop38
140
0.0
102
RTVSPost2010PropOp38
 70
     1
102
RTVSPost2010Prop39
140
1.0
102
RTVSPost2010PropOp39
 70
     1
102
RTVSPost2010Prop40
 90
        0
102
RTVSPost2010PropOp40
 70
     1
102
RTVSPost2010Prop41ColorIndex
 90
       18
102
RTVSPost2010Prop41ColorRGB
 90
        0
102
RTVSPost2010PropOp41
 70
     1
102
RTVSPost2010Prop42
 90
       50
102
RTVSPost2010PropOp42
 70
     1
102
RTVSPost2010Prop43
 90
        3
102
RTVSPost2010PropOp43
 70
     1
102
RTVSPost2010Prop44ColorIndex
 90
        5
102
RTVSPost2010Prop44ColorRGB
 90
      255
102
RTVSPost2010PropOp44
 70
     1
102
RTVSPost2010Prop45
280
     0
102
RTVSPost2010PropOp45
 70
     1
102
RTVSPost2010Prop46
 90
       50
102
RTVSPost2010PropOp46
 70
     1
102
RTVSPost2010Prop47
 90
       50
102
RTVSPost2010PropOp47
 70
     1
102
RTVSPost2010Prop48
 90
       50
102
RTVSPost2010PropOp48
 70
     1
102
RTVSPost2010Prop49
280
     0
102
RTVSPost2010PropOp49
 70
     1
102
RTVSPost2010Prop50
 90
       50
102
RTVSPost2010PropOp50
 70
     1
102
RTVSPost2010Prop51ColorIndex
 90
      256
102
RTVSPost2010Prop51ColorRGB
 90
-16777216
102
RTVSPost2010PropOp51
 70
     0
102
RTVSPost2010Prop52
140
1.0
102
RTVSPost2010PropOp52
 70
     0
102
RTVSPost2010Prop53
 90
        2
102
RTVSPost2010PropOp53
 70
     1
102
RTVSPost2010Prop54
  1
strokes_ogs.tif
102
RTVSPost2010PropOp54
 70
     1
102
RTVSPost2010Prop55
280
     0
102
RTVSPost2010PropOp55
 70
     1
102
RTVSPost2010Prop56
140
1.0
102
RTVSPost2010PropOp56
 70
     1
102
RTVSPost2010Prop57
140
1.0
102
RTVSPost2010PropOp57
 70
     1
102
RTVSPropertyOp0
 70
     1
102
RTVSPropertyOp1
 70
     1
102
RTVSPropertyOp2
 70
     1
102
RTVSPropertyOp3
 70
     1
102
RTVSPropertyOp4
 70
     1
102
RTVSPropertyOp5
 70
     1
102
RTVSPropertyOp6
 70
     1
102
RTVSPropertyOp7
 70
     1
102
RTVSPropertyOp8
 70
     1
102
RTVSPropertyOp9
 70
     1
102
RTVSPropertyOp10
 70
     1
102
RTVSPropertyOp11
 70
     1
102
RTVSPropertyOp12
 70
     1
102
RTVSPropertyOp13
 70
     1
102
RTVSPropertyOp14
 70
     1
102
RTVSPropertyOp15
 70
     1
102
RTVSPropertyOp16
 70
     1
102
RTVSPropertyOp17
 70
     1
102
RTVSPropertyOp18
 70
     1
102
RTVSPropertyOp19
 70
     1
102
RTVSPropertyOp20
 70
     1
102
RTVSPropertyOp21
 70
     1
102
RTVSPropertyOp22
 70
     1
102
RTVSPropertyOp23
 70
     1
102
RTVSPropertyOp24
 70
     1
102
RTVSPropertyOp25
 70
     1
102
RTVSPropertyOp26
 70
     1
102
RTVSPropertyOp27
 70
     1
102
RTVSPropertyOp28
 70
     1
102
RTVSPropertyOp29
 70
     1
102
RTVSPropertyOp30
 70
     1
102
RTVSPropertyOp31
 70
     1
102
RTVSPropertyOp32
 70
     1
102
RTVSPropertyOp33
 70
     1
102
RTVSPropertyOp34
 70
     1
102
RTVSPropertyOp35
 70
     1
102
RTVSPropertyOp36
 70
     1
102
RTVSPropertyOp37
 70
     1
102
RTVSPropertyOp38
 70
     1
102
RTVSPropertyOp39
 70
     1
102
RTVSPropertyOp40
 70
     1
102
RTVSPropertyOp41
 70
     1
102
RTVSPropertyOp42
 70
     1
102
RTVSPropertyOp43
 70
     1
102
RTVSPropertyOp44
 70
     1
102
RTVSPropertyOp45
 70
     1
102
RTVSPropertyOp46
 70
     1
102
RTVSPropertyOp47
 70
     1
102
RTVSPropertyOp48
 70
     1
102
RTVSPropertyOp49
 70
     1
102
RTVSPropertyOp50
 70
     1
102
RTVSPropertyOp51
 70
     0
102
RTVSPropertyOp52
 70
     0
102
RTVSPropertyOp53
 70
     1
102
RTVSPropertyOp54
 70
     1
102
RTVSPropertyOp55
 70
     1
102
RTVSPropertyOp56
 70
     1
102
RTVSPropertyOp57
 70
     1
102
RTVSPropertyOp58
 70
     1
102
RTVSPropertyOp59
 70
     1
102
RTVSPropertyOp60
 70
     1
102
RTVSPropertyOp61
 70
     1
102
RTVSPropertyOp62
 70
     1
  0
ENDSEC
  0
EOF
