  0
SECTION
  2
HEADER
  9
$ACADVER
  1
AC1015
  9
$ACADMAINTVER
 70
    20
  9
$DWGCODEPAGE
  3
ANSI_932
  9
$INSBASE
 10
0.0
 20
0.0
 30
0.0
  9
$EXTMIN
 10
10.0
 20
9.999999999999998
 30
0.0
  9
$EXTMAX
 10
389.991394
 20
257.5
 30
0.0
  9
$LIMMIN
 10
0.0
 20
0.0
  9
$LIMMAX
 10
495.0
 20
341.25
  9
$ORTHOMODE
 70
     0
  9
$REGENMODE
 70
     1
  9
$FILLMODE
 70
     1
  9
$QTEXTMODE
 70
     0
  9
$MIRRTEXT
 70
     1
  9
$LTSCALE
 40
20.0
  9
$ATTMODE
 70
     1
  9
$TEXTSIZE
 40
5.0
  9
$TRACEWID
 40
1.0
  9
$TEXTSTYLE
  7
STANDARD
  9
$CLAYER
  8
0
  9
$CELTYPE
  6
BYLAYER
  9
$CECOLOR
 62
   256
  9
$CELTSCALE
 40
1.0
  9
$DISPSILH
 70
     0
  9
$DIMSCALE
 40
1.0
  9
$DIMASZ
 40
2.5
  9
$DIMEXO
 40
1.0
  9
$DIMDLI
 40
10.0
  9
$DIMRND
 40
0.0
  9
$DIMDLE
 40
0.0
  9
$DIMEXE
 40
1.0
  9
$DIMTP
 40
0.0
  9
$DIMTM
 40
0.0
  9
$DIMTXT
 40
2.5
  9
$DIMCEN
 40
0.0
  9
$DIMTSZ
 40
0.0
  9
$DIMTOL
 70
     0
  9
$DIMLIM
 70
     0
  9
$DIMTIH
 70
     0
  9
$DIMTOH
 70
     0
  9
$DIMSE1
 70
     0
  9
$DIMSE2
 70
     0
  9
$DIMTAD
 70
     3
  9
$DIMZIN
 70
     8
  9
$DIMBLK
  1

  9
$DIMASO
 70
     1
  9
$DIMSHO
 70
     1
  9
$DIMPOST
  1

  9
$DIMAPOST
  1

  9
$DIMALT
 70
     0
  9
$DIMALTD
 70
     2
  9
$DIMALTF
 40
25.4
  9
$DIMLFAC
 40
1.0
  9
$DIMTOFL
 70
     1
  9
$DIMTVP
 40
0.0
  9
$DIMTIX
 70
     0
  9
$DIMSOXD
 70
     0
  9
$DIMSAH
 70
     1
  9
$DIMBLK1
  1
OPEN
  9
$DIMBLK2
  1
OPEN
  9
$DIMSTYLE
  2
STANDARD
  9
$DIMCLRD
 70
     0
  9
$DIMCLRE
 70
     0
  9
$DIMCLRT
 70
     0
  9
$DIMTFAC
 40
1.0
  9
$DIMGAP
 40
1.0
  9
$DIMJUST
 70
     0
  9
$DIMSD1
 70
     0
  9
$DIMSD2
 70
     0
  9
$DIMTOLJ
 70
     1
  9
$DIMTZIN
 70
     0
  9
$DIMALTZ
 70
     0
  9
$DIMALTTZ
 70
     0
  9
$DIMUPT
 70
     0
  9
$DIMDEC
 70
     4
  9
$DIMTDEC
 70
     4
  9
$DIMALTU
 70
     2
  9
$DIMALTTD
 70
     2
  9
$DIMTXSTY
  7
STANDARD
  9
$DIMAUNIT
 70
     0
  9
$DIMADEC
 70
     0
  9
$DIMALTRND
 40
0.0
  9
$DIMAZIN
 70
     0
  9
$DIMDSEP
 70
    46
  9
$DIMATFIT
 70
     3
  9
$DIMFRAC
 70
     0
  9
$DIMLDRBLK
  1
OPEN
  9
$DIMLUNIT
 70
     2
  9
$DIMLWD
 70
    -2
  9
$DIMLWE
 70
    -2
  9
$DIMTMOVE
 70
     0
  9
$LUNITS
 70
     2
  9
$LUPREC
 70
     4
  9
$SKETCHINC
 40
1.0
  9
$FILLETRAD
 40
0.0
  9
$AUNITS
 70
     0
  9
$AUPREC
 70
     2
  9
$MENU
  1
.
  9
$ELEVATION
 40
0.0
  9
$PELEVATION
 40
0.0
  9
$THICKNESS
 40
0.0
  9
$LIMCHECK
 70
     0
  9
$CHAMFERA
 40
10.0
  9
$CHAMFERB
 40
10.0
  9
$CHAMFERC
 40
0.0
  9
$CHAMFERD
 40
0.0
  9
$SKPOLY
 70
     0
  9
$TDCREATE
 40
2451368.500356597
  9
$TDUCREATE
 40
2451368.125356597
  9
$TDUPDATE
 40
2457192.642865162
  9
$TDUUPDATE
 40
2457192.267865162
  9
$TDINDWG
 40
0.0000208218
  9
$TDUSRTIMER
 40
0.0000203125
  9
$USRTIMER
 70
     1
  9
$ANGBASE
 50
0.0
  9
$ANGDIR
 70
     0
  9
$PDMODE
 70
     0
  9
$PDSIZE
 40
0.0
  9
$PLINEWID
 40
0.0
  9
$SPLFRAME
 70
     0
  9
$SPLINETYPE
 70
     6
  9
$SPLINESEGS
 70
     8
  9
$HANDSEED
  5
A881
  9
$SURFTAB1
 70
     6
  9
$SURFTAB2
 70
     6
  9
$SURFTYPE
 70
     6
  9
$SURFU
 70
     6
  9
$SURFV
 70
     6
  9
$UCSBASE
  2

  9
$UCSNAME
  2

  9
$UCSORG
 10
0.0
 20
0.0
 30
0.0
  9
$UCSXDIR
 10
1.0
 20
0.0
 30
0.0
  9
$UCSYDIR
 10
0.0
 20
1.0
 30
0.0
  9
$UCSORTHOREF
  2

  9
$UCSORTHOVIEW
 70
     0
  9
$UCSORGTOP
 10
0.0
 20
0.0
 30
0.0
  9
$UCSORGBOTTOM
 10
0.0
 20
0.0
 30
0.0
  9
$UCSORGLEFT
 10
0.0
 20
0.0
 30
0.0
  9
$UCSORGRIGHT
 10
0.0
 20
0.0
 30
0.0
  9
$UCSORGFRONT
 10
0.0
 20
0.0
 30
0.0
  9
$UCSORGBACK
 10
0.0
 20
0.0
 30
0.0
  9
$PUCSBASE
  2

  9
$PUCSNAME
  2

  9
$PUCSORG
 10
0.0
 20
0.0
 30
0.0
  9
$PUCSXDIR
 10
1.0
 20
0.0
 30
0.0
  9
$PUCSYDIR
 10
0.0
 20
1.0
 30
0.0
  9
$PUCSORTHOREF
  2

  9
$PUCSORTHOVIEW
 70
     0
  9
$PUCSORGTOP
 10
0.0
 20
0.0
 30
0.0
  9
$PUCSORGBOTTOM
 10
0.0
 20
0.0
 30
0.0
  9
$PUCSORGLEFT
 10
0.0
 20
0.0
 30
0.0
  9
$PUCSORGRIGHT
 10
0.0
 20
0.0
 30
0.0
  9
$PUCSORGFRONT
 10
0.0
 20
0.0
 30
0.0
  9
$PUCSORGBACK
 10
0.0
 20
0.0
 30
0.0
  9
$USERI1
 70
     0
  9
$USERI2
 70
     0
  9
$USERI3
 70
     0
  9
$USERI4
 70
     0
  9
$USERI5
 70
     0
  9
$USERR1
 40
0.0
  9
$USERR2
 40
0.0
  9
$USERR3
 40
0.0
  9
$USERR4
 40
0.0
  9
$USERR5
 40
0.0
  9
$WORLDVIEW
 70
     1
  9
$SHADEDGE
 70
     3
  9
$SHADEDIF
 70
    70
  9
$TILEMODE
 70
     1
  9
$MAXACTVP
 70
    16
  9
$PINSBASE
 10
0.0
 20
0.0
 30
0.0
  9
$PLIMCHECK
 70
     0
  9
$PEXTMIN
 10
1.000000000000000E+20
 20
1.000000000000000E+20
 30
1.000000000000000E+20
  9
$PEXTMAX
 10
-1.000000000000000E+20
 20
-1.000000000000000E+20
 30
-1.000000000000000E+20
  9
$PLIMMIN
 10
0.0
 20
0.0
  9
$PLIMMAX
 10
420.0
 20
297.0
  9
$UNITMODE
 70
     0
  9
$VISRETAIN
 70
     0
  9
$PLINEGEN
 70
     0
  9
$PSLTSCALE
 70
     0
  9
$TREEDEPTH
 70
  3020
  9
$CMLSTYLE
  2
STANDARD
  9
$CMLJUST
 70
     0
  9
$CMLSCALE
 40
1.0
  9
$PROXYGRAPHICS
 70
     1
  9
$MEASUREMENT
 70
     0
  9
$CELWEIGHT
370
    -1
  9
$ENDCAPS
280
     0
  9
$JOINSTYLE
280
     0
  9
$LWDISPLAY
290
     0
  9
$INSUNITS
 70
     0
  9
$HYPERLINKBASE
  1

  9
$STYLESHEET
  1

  9
$XEDIT
290
     1
  9
$CEPSNTYPE
380
     0
  9
$PSTYLEMODE
290
     1
  9
$FINGERPRINTGUID
  2
{0A4DF7C1-4BB5-4DDC-8BE6-892E2612891C}
  9
$VERSIONGUID
  2
{DE599701-4A1A-402C-978D-4D3222800964}
  9
$EXTNAMES
290
     1
  9
$PSVPSCALE
 40
0.0
  9
$OLESTARTUP
290
     0
  0
ENDSEC
  0
SECTION
  2
CLASSES
  0
CLASS
  1
ACDBDICTIONARYWDFLT
  2
AcDbDictionaryWithDefault
  3
ObjectDBX Classes
 90
        0
280
     0
281
     0
  0
CLASS
  1
ACDBPLACEHOLDER
  2
AcDbPlaceHolder
  3
ObjectDBX Classes
 90
        0
280
     0
281
     0
  0
CLASS
  1
LAYOUT
  2
AcDbLayout
  3
ObjectDBX Classes
 90
        0
280
     0
281
     0
  0
CLASS
  1
DICTIONARYVAR
  2
AcDbDictionaryVar
  3
ObjectDBX Classes
 90
        0
280
     0
281
     0
  0
CLASS
  1
MATERIAL
  2
AcDbMaterial
  3
ObjectDBX Classes
 90
     1153
280
     0
281
     0
  0
CLASS
  1
VISUALSTYLE
  2
AcDbVisualStyle
  3
ObjectDBX Classes
 90
     4095
280
     0
281
     0
  0
CLASS
  1
TABLESTYLE
  2
AcDbTableStyle
  3
ObjectDBX Classes
 90
     4095
280
     0
281
     0
  0
CLASS
  1
SCALE
  2
AcDbScale
  3
ObjectDBX Classes
 90
     1153
280
     0
281
     0
  0
CLASS
  1
MLEADERSTYLE
  2
AcDbMLeaderStyle
  3
ACDB_MLEADERSTYLE_CLASS
 90
     4095
280
     0
281
     0
  0
CLASS
  1
ACDBSECTIONVIEWSTYLE
  2
AcDbSectionViewStyle
  3
ObjectDBX Classes
 90
     1025
280
     0
281
     0
  0
CLASS
  1
ACDBDETAILVIEWSTYLE
  2
AcDbDetailViewStyle
  3
ObjectDBX Classes
 90
     1025
280
     0
281
     0
  0
CLASS
  1
CELLSTYLEMAP
  2
AcDbCellStyleMap
  3
ObjectDBX Classes
 90
     1152
280
     0
281
     0
  0
ENDSEC
  0
SECTION
  2
TABLES
  0
TABLE
  2
VPORT
  5
A5B2
330
0
100
AcDbSymbolTable
 70
     1
  0
VPORT
  5
A7CA
330
A5B2
100
AcDbSymbolTableRecord
100
AcDbViewportTableRecord
  2
*ACTIVE
 70
     0
 10
0.0
 20
0.0
 11
1.0
 21
1.0
 12
274.9785204823069
 22
133.7459857827296
 13
0.0
 23
0.0
 14
10.0
 24
10.0
 15
10.0
 25
10.0
 16
0.0
 26
0.0
 36
1.0
 17
0.0
 27
0.0
 37
0.0
 40
250.2860221405795
 41
1.899603698811096
 42
50.0
 43
0.0
 44
0.0
 50
0.0
 51
0.0
 71
     0
 72
   100
 73
     1
 74
     0
 75
     0
 76
     0
 77
     0
 78
     0
281
     0
 65
     1
110
0.0
120
0.0
130
0.0
111
1.0
121
0.0
131
0.0
112
0.0
122
1.0
132
0.0
 79
     0
146
0.0
1001
ACAD_NAV_VCDISPLAY
1070
     3
  0
ENDTAB
  0
TABLE
  2
LTYPE
  5
A5AF
330
0
100
AcDbSymbolTable
 70
     4
  0
LTYPE
  5
A5BD
330
A5AF
100
AcDbSymbolTableRecord
100
AcDbLinetypeTableRecord
  2
BYBLOCK
 70
     0
  3

 72
    65
 73
     0
 40
0.0
  0
LTYPE
  5
A5BE
330
A5AF
100
AcDbSymbolTableRecord
100
AcDbLinetypeTableRecord
  2
BYLAYER
 70
     0
  3

 72
    65
 73
     0
 40
0.0
  0
LTYPE
  5
A5BF
330
A5AF
100
AcDbSymbolTableRecord
100
AcDbLinetypeTableRecord
  2
CONTINUOUS
 70
     0
  3
Solid line
 72
    65
 73
     0
 40
0.0
  0
LTYPE
  5
A5CD
330
A5AF
100
AcDbSymbolTableRecord
100
AcDbLinetypeTableRecord
  2
DASHED
 70
     0
  3
__ __ __ __ __ __ __ __ __ __ __ __ __ __ __ __
 72
    65
 73
     2
 40
0.75
 49
0.5
 74
     0
 49
-0.25
 74
     0
  0
LTYPE
  5
A5CE
330
A5AF
100
AcDbSymbolTableRecord
100
AcDbLinetypeTableRecord
  2
CENTER
 70
     0
  3
____ _ ____ _ ____ _ ____ _ ____ _ ____ _ ____ 
 72
    65
 73
     4
 40
2.0
 49
1.25
 74
     0
 49
-0.25
 74
     0
 49
0.25
 74
     0
 49
-0.25
 74
     0
  0
LTYPE
  5
A5CF
330
A5AF
100
AcDbSymbolTableRecord
100
AcDbLinetypeTableRecord
  2
PHANTOM
 70
     0
  3
______  __  __  ______  __  __  ______  __  __ 
 72
    65
 73
     6
 40
2.5
 49
1.25
 74
     0
 49
-0.25
 74
     0
 49
0.25
 74
     0
 49
-0.25
 74
     0
 49
0.25
 74
     0
 49
-0.25
 74
     0
  0
ENDTAB
  0
TABLE
  2
LAYER
  5
A5AC
330
0
100
AcDbSymbolTable
 70
     8
  0
LAYER
  5
A5BA
102
{ACAD_XDICTIONARY
360
A825
102
}
330
A5AC
100
AcDbSymbolTableRecord
100
AcDbLayerTableRecord
  2
0
 70
     0
 62
     7
  6
CONTINUOUS
370
    -3
390
A7D3
  0
LAYER
  5
A5D0
102
{ACAD_XDICTIONARY
360
A827
102
}
330
A5AC
100
AcDbSymbolTableRecord
100
AcDbLayerTableRecord
  2
4
 70
     0
 62
     1
  6
CENTER
370
    -3
390
A7D3
  0
LAYER
  5
A5D1
102
{ACAD_XDICTIONARY
360
A829
102
}
330
A5AC
100
AcDbSymbolTableRecord
100
AcDbLayerTableRecord
  2
5
 70
     0
 62
     6
  6
PHANTOM
370
    -3
390
A7D3
  0
LAYER
  5
A5D2
102
{ACAD_XDICTIONARY
360
A82B
102
}
330
A5AC
100
AcDbSymbolTableRecord
100
AcDbLayerTableRecord
  2
1
 70
     0
 62
     7
  6
CONTINUOUS
370
    -3
390
A7D3
  0
LAYER
  5
A5D3
102
{ACAD_XDICTIONARY
360
A82D
102
}
330
A5AC
100
AcDbSymbolTableRecord
100
AcDbLayerTableRecord
  2
2
 70
     0
 62
     4
  6
CONTINUOUS
370
    -3
390
A7D3
  0
LAYER
  5
A5D4
102
{ACAD_XDICTIONARY
360
A82F
102
}
330
A5AC
100
AcDbSymbolTableRecord
100
AcDbLayerTableRecord
  2
3
 70
     0
 62
     2
  6
DASHED
370
    -3
390
A7D3
  0
LAYER
  5
A5D5
102
{ACAD_XDICTIONARY
360
A831
102
}
330
A5AC
100
AcDbSymbolTableRecord
100
AcDbLayerTableRecord
  2
6
 70
     0
 62
     5
  6
CONTINUOUS
370
    -3
390
A7D3
  0
LAYER
  5
A5D6
102
{ACAD_XDICTIONARY
360
A833
102
}
330
A5AC
100
AcDbSymbolTableRecord
100
AcDbLayerTableRecord
  2
7
 70
     0
 62
     3
  6
CONTINUOUS
370
    -3
390
A7D3
  0
ENDTAB
  0
TABLE
  2
STYLE
  5
A5AD
330
0
100
AcDbSymbolTable
 70
     1
  0
STYLE
  5
A5BB
330
A5AD
100
AcDbSymbolTableRecord
100
AcDbTextStyleTableRecord
  2
STANDARD
 70
     0
 40
0.0
 41
1.0
 50
0.0
 71
     0
 42
5.0
  3
txt
  4

  0
ENDTAB
  0
TABLE
  2
VIEW
  5
A5B0
330
0
100
AcDbSymbolTable
 70
     0
  0
ENDTAB
  0
TABLE
  2
UCS
  5
A5B1
330
0
100
AcDbSymbolTable
 70
     0
  0
ENDTAB
  0
TABLE
  2
APPID
  5
A5B3
330
0
100
AcDbSymbolTable
 70
     3
  0
APPID
  5
A5BC
330
A5B3
100
AcDbSymbolTableRecord
100
AcDbRegAppTableRecord
  2
ACAD
 70
     0
  0
APPID
  5
A83F
330
A5B3
100
AcDbSymbolTableRecord
100
AcDbRegAppTableRecord
  2
ACAD_NAV_VCDISPLAY
 70
     0
  0
APPID
  5
A878
330
A5B3
100
AcDbSymbolTableRecord
100
AcDbRegAppTableRecord
  2
ACAD_MLEADERVER
 70
     0
  0
ENDTAB
  0
TABLE
  2
DIMSTYLE
  5
A5B4
330
0
100
AcDbSymbolTable
 70
     1
100
AcDbDimStyleTable
 71
     0
  0
DIMSTYLE
105
A5D8
330
A5B4
100
AcDbSymbolTableRecord
100
AcDbDimStyleTableRecord
  2
STANDARD
 70
     0
 41
2.5
 42
1.0
 43
10.0
 44
1.0
 73
     0
 74
     0
 77
     3
 78
     8
140
2.5
141
0.0
147
1.0
172
     1
173
     1
284
     8
285
     8
286
     8
340
A5BB
  0
ENDTAB
  0
TABLE
  2
BLOCK_RECORD
  5
A5AB
330
0
100
AcDbSymbolTable
 70
     1
  0
BLOCK_RECORD
  5
A5C8
102
{ACAD_XDICTIONARY
360
A7CD
102
}
330
A5AB
100
AcDbSymbolTableRecord
100
AcDbBlockTableRecord
  2
*MODEL_SPACE
340
A821
  0
BLOCK_RECORD
  5
A5C4
102
{ACAD_XDICTIONARY
360
A7CB
102
}
330
A5AB
100
AcDbSymbolTableRecord
100
AcDbBlockTableRecord
  2
*PAPER_SPACE
340
A822
  0
BLOCK_RECORD
  5
A5E0
330
A5AB
100
AcDbSymbolTableRecord
100
AcDbBlockTableRecord
  2
_OPEN
340
0
  0
ENDTAB
  0
ENDSEC
  0
SECTION
  2
BLOCKS
  0
BLOCK
  5
A5C9
330
A5C8
100
AcDbEntity
  8
0
100
AcDbBlockBegin
  2
*MODEL_SPACE
 70
     0
 10
0.0
 20
0.0
 30
0.0
  3
*MODEL_SPACE
  1

  0
ENDBLK
  5
A5CA
330
A5C8
100
AcDbEntity
  8
0
100
AcDbBlockEnd
  0
BLOCK
  5
A5C5
330
A5C4
100
AcDbEntity
 67
     1
  8
0
100
AcDbBlockBegin
  2
*PAPER_SPACE
 70
     0
 10
0.0
 20
0.0
 30
0.0
  3
*PAPER_SPACE
  1

  0
ENDBLK
  5
A5C6
330
A5C4
100
AcDbEntity
 67
     1
  8
0
100
AcDbBlockEnd
  0
BLOCK
  5
A5E1
330
A5E0
100
AcDbEntity
  8
0
100
AcDbBlockBegin
  2
_OPEN
 70
     0
 10
0.0
 20
0.0
 30
0.0
  3
_OPEN
  1

  0
LINE
  5
A5E2
330
A5E0
100
AcDbEntity
  8
0
  6
ByBlock
 62
     0
100
AcDbLine
 10
-1.0
 20
0.166667
 30
0.0
 11
0.0
 21
0.0
 31
0.0
  0
LINE
  5
A5E3
330
A5E0
100
AcDbEntity
  8
0
  6
ByBlock
 62
     0
100
AcDbLine
 10
0.0
 20
0.0
 30
0.0
 11
-1.0
 21
-0.166667
 31
0.0
  0
LINE
  5
A5E4
330
A5E0
100
AcDbEntity
  8
0
  6
ByBlock
 62
     0
100
AcDbLine
 10
0.0
 20
0.0
 30
0.0
 11
-1.0
 21
0.0
 31
0.0
  0
ENDBLK
  5
A5E5
330
A5E0
100
AcDbEntity
  8
0
100
AcDbBlockEnd
  0
ENDSEC
  0
SECTION
  2
ENTITIES
  0
TEXT
  5
A5E6
330
A5C8
100
AcDbEntity
  8
7
  6
Continuous
100
AcDbText
 10
10.0
 20
18.0
 30
0.0
 40
3.0
  1
TYPE No.THA-428
100
AcDbText
  0
TEXT
  5
A5E7
330
A5C8
100
AcDbEntity
  8
7
  6
Continuous
100
AcDbText
 10
10.0
 20
26.0
 30
0.0
 40
3.0
  1
CODE No.3938
100
AcDbText
  0
TEXT
  5
A5E8
330
A5C8
100
AcDbEntity
  8
1
  6
Continuous
100
AcDbText
 10
10.0
 20
10.0
 30
0.0
 40
1.399999999999999
  1
LAYER
100
AcDbText
  0
TEXT
  5
A5E9
330
A5C8
100
AcDbEntity
  8
1
  6
Continuous
100
AcDbText
 10
17.97951099999998
 20
10.04873699999998
 30
0.0
 40
1.399999999999999
  1
1
100
AcDbText
  0
TEXT
  5
A5EA
330
A5C8
100
AcDbEntity
  8
7
  6
Continuous
100
AcDbText
 10
29.97951099999999
 20
10.04873699999998
 30
0.0
 40
1.399999999999999
  1
7
100
AcDbText
  0
TEXT
  5
A5EB
330
A5C8
100
AcDbEntity
  8
4
  6
CENTER
100
AcDbText
 10
23.97951099999999
 20
10.04873699999998
 30
0.0
 40
1.399999999999999
  1
4
100
AcDbText
  0
TEXT
  5
A5EC
330
A5C8
100
AcDbEntity
  8
3
  6
DASHED
100
AcDbText
 10
21.979511
 20
10.04873699999998
 30
0.0
 40
1.399999999999999
  1
3
100
AcDbText
  0
TEXT
  5
A5ED
330
A5C8
100
AcDbEntity
  8
2
  6
Continuous
100
AcDbText
 10
19.97951099999999
 20
10.04873699999998
 30
0.0
 40
1.399999999999999
  1
2
100
AcDbText
  0
TEXT
  5
A5EE
330
A5C8
100
AcDbEntity
  8
6
  6
Continuous
100
AcDbText
 10
27.979511
 20
10.04873699999998
 30
0.0
 40
1.399999999999999
  1
6
100
AcDbText
  0
TEXT
  5
A5EF
330
A5C8
100
AcDbEntity
  8
5
  6
PHANTOM
100
AcDbText
 10
25.97951099999999
 20
10.04873699999998
 30
0.0
 40
1.399999999999999
  1
5
100
AcDbText
  0
LINE
  5
A5F0
330
A5C8
100
AcDbEntity
  8
1
  6
Continuous
100
AcDbLine
 10
119.991372
 20
162.5
 30
0.0
 11
119.991372
 21
136.0
 31
0.0
  0
LINE
  5
A5F1
330
A5C8
100
AcDbEntity
  8
1
  6
Continuous
100
AcDbLine
 10
117.991372
 20
159.75
 30
0.0
 11
117.991372
 21
138.7499999999998
 31
0.0
  0
LINE
  5
A5F2
330
A5C8
100
AcDbEntity
  8
1
  6
Continuous
100
AcDbLine
 10
106.9913719999999
 20
160.25
 30
0.0
 11
106.9913719999999
 21
138.25
 31
0.0
  0
LINE
  5
A5F3
330
A5C8
100
AcDbEntity
  8
1
  6
Continuous
100
AcDbLine
 10
102.9913719999999
 20
160.5191879999999
 30
0.0
 11
102.9913719999999
 21
137.9808129999998
 31
0.0
  0
LINE
  5
A5F4
330
A5C8
100
AcDbEntity
  8
1
  6
Continuous
100
AcDbLine
 10
106.491372
 20
137.7499999999998
 30
0.0
 11
103.4127239999999
 21
137.7499999999998
 31
0.0
  0
LINE
  5
A5F5
330
A5C8
100
AcDbEntity
  8
1
  6
Continuous
100
AcDbLine
 10
106.491372
 20
160.7499999999998
 30
0.0
 11
103.4127239999999
 21
160.7499999999998
 31
0.0
  0
ARC
  5
A5F6
330
A5C8
100
AcDbEntity
  8
1
  6
Continuous
100
AcDbCircle
 10
168.6163719999998
 20
149.2499999999998
 30
0.0
 40
66.625
100
AcDbArc
 50
170.424239
 51
189.575761
  0
ARC
  5
A5F7
330
A5C8
100
AcDbEntity
  8
1
  6
Continuous
100
AcDbCircle
 10
117.991372
 20
161.7499999999998
 30
0.0
 40
2.0
100
AcDbArc
 50
270.0
 51
0.0
  0
ARC
  5
A5F8
330
A5C8
100
AcDbEntity
  8
1
  6
Continuous
100
AcDbCircle
 10
117.991372
 20
136.7499999999998
 30
0.0
 40
2.0
100
AcDbArc
 50
0.0
 51
90.0
  0
LINE
  5
A5F9
330
A5C8
100
AcDbEntity
  8
1
  6
Continuous
100
AcDbLine
 10
165.432629
 20
159.0
 30
0.0
 11
165.432629
 21
139.5
 31
0.0
  0
LINE
  5
A5FA
330
A5C8
100
AcDbEntity
  8
1
  6
Continuous
100
AcDbLine
 10
129.7913719999999
 20
157.2499999999998
 30
0.0
 11
129.7913719999999
 21
141.25
 31
0.0
  0
LINE
  5
A5FB
330
A5C8
100
AcDbEntity
  8
1
  6
Continuous
100
AcDbLine
 10
128.7913719999999
 20
158.25
 30
0.0
 11
129.7913719999999
 21
157.2499999999998
 31
0.0
  0
LINE
  5
A5FC
330
A5C8
100
AcDbEntity
  8
1
  6
Continuous
100
AcDbLine
 10
129.7913719999999
 20
141.25
 30
0.0
 11
128.7913719999999
 21
140.25
 31
0.0
  0
LINE
  5
A5FD
330
A5C8
100
AcDbEntity
  8
1
  6
Continuous
100
AcDbLine
 10
128.7913719999999
 20
158.25
 30
0.0
 11
128.7913719999999
 21
140.25
 31
0.0
  0
LINE
  5
A5FE
330
A5C8
100
AcDbEntity
  8
1
  6
Continuous
100
AcDbLine
 10
117.4913719999999
 20
156.75
 30
0.0
 11
117.4913719999999
 21
141.7499999999998
 31
0.0
  0
LINE
  5
A5FF
330
A5C8
100
AcDbEntity
  8
1
  6
Continuous
100
AcDbLine
 10
117.991372
 20
141.7499999999998
 30
0.0
 11
117.4913719999999
 21
141.7499999999998
 31
0.0
  0
LINE
  5
A600
330
A5C8
100
AcDbEntity
  8
1
  6
Continuous
100
AcDbLine
 10
117.991372
 20
156.75
 30
0.0
 11
117.4913719999999
 21
156.75
 31
0.0
  0
LINE
  5
A601
330
A5C8
100
AcDbEntity
  8
1
  6
Continuous
100
AcDbLine
 10
129.9913719999999
 20
143.25
 30
0.0
 11
129.7913719999999
 21
143.25
 31
0.0
  0
LINE
  5
A602
330
A5C8
100
AcDbEntity
  8
1
  6
Continuous
100
AcDbLine
 10
129.9913719999999
 20
155.25
 30
0.0
 11
129.7913719999999
 21
155.25
 31
0.0
  0
LINE
  5
A603
330
A5C8
100
AcDbEntity
  8
4
  6
CENTER
100
AcDbLine
 10
136.9913719999999
 20
149.2499999999998
 30
0.0
 11
96.991372
 21
149.2499999999998
 31
0.0
  0
CIRCLE
  5
A604
330
A5C8
100
AcDbEntity
  8
1
  6
Continuous
100
AcDbCircle
 10
38.25
 20
149.2499999999998
 30
0.0
 40
11.5
  0
LINE
  5
A605
330
A5C8
100
AcDbEntity
  8
1
  6
Continuous
100
AcDbLine
 10
122.4913719999999
 20
136.0
 30
0.0
 11
119.991372
 21
136.0
 31
0.0
  0
LINE
  5
A606
330
A5C8
100
AcDbEntity
  8
1
  6
Continuous
100
AcDbLine
 10
122.4913719999999
 20
162.5
 30
0.0
 11
119.991372
 21
162.5
 31
0.0
  0
LINE
  5
A607
330
A5C8
100
AcDbEntity
  8
1
  6
Continuous
100
AcDbLine
 10
123.6913719999999
 20
161.5
 30
0.0
 11
122.4913719999999
 21
161.5
 31
0.0
  0
LINE
  5
A608
330
A5C8
100
AcDbEntity
  8
1
  6
Continuous
100
AcDbLine
 10
123.6913719999999
 20
159.0
 30
0.0
 11
122.4913719999999
 21
159.0
 31
0.0
  0
CIRCLE
  5
A609
330
A5C8
100
AcDbEntity
  8
1
  6
Continuous
100
AcDbCircle
 10
38.25
 20
149.2499999999998
 30
0.0
 40
13.25
  0
LINE
  5
A60A
330
A5C8
100
AcDbEntity
  8
4
  6
CENTER
100
AcDbLine
 10
56.5
 20
149.2499999999998
 30
0.0
 11
20.0
 21
149.2499999999998
 31
0.0
  0
LINE
  5
A60B
330
A5C8
100
AcDbEntity
  8
1
  6
Continuous
100
AcDbLine
 10
169.432629
 20
163.761107
 30
0.0
 11
169.432629
 21
134.7388929999999
 31
0.0
  0
LINE
  5
A60C
330
A5C8
100
AcDbEntity
  8
1
  6
Continuous
100
AcDbLine
 10
166.4326289999999
 20
164.261107
 30
0.0
 11
166.4326289999999
 21
134.238893
 31
0.0
  0
LINE
  5
A60D
330
A5C8
100
AcDbEntity
  8
1
  6
Continuous
100
AcDbLine
 10
168.9326289999999
 20
164.261107
 30
0.0
 11
166.4326289999999
 21
164.261107
 31
0.0
  0
LINE
  5
A60E
330
A5C8
100
AcDbEntity
  8
1
  6
Continuous
100
AcDbLine
 10
168.9326289999999
 20
134.238893
 30
0.0
 11
166.4326289999999
 21
134.238893
 31
0.0
  0
LINE
  5
A60F
330
A5C8
100
AcDbEntity
  8
1
  6
Continuous
100
AcDbLine
 10
184.691372
 20
143.1499999999998
 30
0.0
 11
184.691372
 21
155.3499999999999
 31
0.0
  0
LINE
  5
A610
330
A5C8
100
AcDbEntity
  8
1
  6
Continuous
100
AcDbLine
 10
184.691372
 20
155.3499999999999
 30
0.0
 11
183.191372
 21
155.3499999999999
 31
0.0
  0
LINE
  5
A611
330
A5C8
100
AcDbEntity
  8
1
  6
Continuous
100
AcDbLine
 10
184.691372
 20
143.1499999999998
 30
0.0
 11
183.191372
 21
143.1499999999998
 31
0.0
  0
LINE
  5
A612
330
A5C8
100
AcDbEntity
  8
1
  6
Continuous
100
AcDbLine
 10
29.53146999999999
 20
159.2274619999998
 30
0.0
 11
25.25
 21
156.7555539999999
 31
0.0
  0
LINE
  5
A613
330
A5C8
100
AcDbEntity
  8
1
  6
Continuous
100
AcDbLine
 10
38.25
 20
164.261107
 30
0.0
 11
33.96853
 21
161.7891989999999
 31
0.0
  0
LINE
  5
A614
330
A5C8
100
AcDbEntity
  8
1
  6
Continuous
100
AcDbLine
 10
25.25
 20
146.6882619999998
 30
0.0
 11
25.25
 21
141.744447
 31
0.0
  0
LINE
  5
A615
330
A5C8
100
AcDbEntity
  8
1
  6
Continuous
100
AcDbLine
 10
25.25
 20
156.7555539999999
 30
0.0
 11
25.25
 21
151.8117379999999
 31
0.0
  0
LINE
  5
A616
330
A5C8
100
AcDbEntity
  8
1
  6
Continuous
100
AcDbLine
 10
29.53146999999999
 20
139.272539
 30
0.0
 11
25.25
 21
141.744447
 31
0.0
  0
LINE
  5
A617
330
A5C8
100
AcDbEntity
  8
1
  6
Continuous
100
AcDbLine
 10
38.25
 20
134.238893
 30
0.0
 11
33.96853
 21
136.710801
 31
0.0
  0
LINE
  5
A618
330
A5C8
100
AcDbEntity
  8
1
  6
Continuous
100
AcDbLine
 10
42.53147
 20
136.710801
 30
0.0
 11
38.25
 21
134.238893
 31
0.0
  0
LINE
  5
A619
330
A5C8
100
AcDbEntity
  8
1
  6
Continuous
100
AcDbLine
 10
51.25
 20
141.744447
 30
0.0
 11
46.96852999999999
 21
139.272539
 31
0.0
  0
LINE
  5
A61A
330
A5C8
100
AcDbEntity
  8
1
  6
Continuous
100
AcDbLine
 10
51.25
 20
146.6882619999998
 30
0.0
 11
51.25
 21
141.744447
 31
0.0
  0
LINE
  5
A61B
330
A5C8
100
AcDbEntity
  8
1
  6
Continuous
100
AcDbLine
 10
51.25
 20
156.7555539999999
 30
0.0
 11
51.25
 21
151.8117379999999
 31
0.0
  0
LINE
  5
A61C
330
A5C8
100
AcDbEntity
  8
1
  6
Continuous
100
AcDbLine
 10
42.53147
 20
161.7891989999999
 30
0.0
 11
38.25
 21
164.261107
 31
0.0
  0
LINE
  5
A61D
330
A5C8
100
AcDbEntity
  8
1
  6
Continuous
100
AcDbLine
 10
51.25
 20
156.7555539999999
 30
0.0
 11
46.96852999999999
 21
159.2274619999998
 31
0.0
  0
ARC
  5
A61E
330
A5C8
100
AcDbEntity
  8
1
  6
Continuous
100
AcDbCircle
 10
168.9326289999999
 20
163.761107
 30
0.0
 40
0.5
100
AcDbArc
 50
0.0
 51
90.0
  0
ARC
  5
A61F
330
A5C8
100
AcDbEntity
  8
1
  6
Continuous
100
AcDbCircle
 10
168.9326289999999
 20
134.7388929999999
 30
0.0
 40
0.5
100
AcDbArc
 50
270.0
 51
0.0
  0
LINE
  5
A620
330
A5C8
100
AcDbEntity
  8
1
  6
Continuous
100
AcDbLine
 10
183.191372
 20
157.0999999999999
 30
0.0
 11
183.191372
 21
141.4
 31
0.0
  0
CIRCLE
  5
A621
330
A5C8
100
AcDbEntity
  8
1
  6
Continuous
100
AcDbCircle
 10
243.491383
 20
149.2499999999998
 30
0.0
 40
9.0
  0
CIRCLE
  5
A622
330
A5C8
100
AcDbEntity
  8
2
  6
Continuous
100
AcDbCircle
 10
243.491383
 20
149.2499999999998
 30
0.0
 40
8.4585
  0
ARC
  5
A623
330
A5C8
100
AcDbEntity
  8
1
  6
Continuous
100
AcDbCircle
 10
243.491383
 20
149.2499999999998
 30
0.0
 40
13.25
100
AcDbArc
 50
108.852306
 51
131.1476969999999
  0
LINE
  5
A624
330
A5C8
100
AcDbEntity
  8
1
  6
Continuous
100
AcDbLine
 10
166.4326289999999
 20
156.7555539999999
 30
0.0
 11
169.432629
 21
156.7555539999999
 31
0.0
  0
LINE
  5
A625
330
A5C8
100
AcDbEntity
  8
1
  6
Continuous
100
AcDbLine
 10
166.4326289999999
 20
141.744447
 30
0.0
 11
169.432629
 21
141.744447
 31
0.0
  0
LINE
  5
A626
330
A5C8
100
AcDbEntity
  8
1
  6
Continuous
100
AcDbLine
 10
183.191372
 20
141.4
 30
0.0
 11
181.9913719999999
 21
141.4
 31
0.0
  0
LINE
  5
A627
330
A5C8
100
AcDbEntity
  8
1
  6
Continuous
100
AcDbLine
 10
183.191372
 20
157.0999999999999
 30
0.0
 11
181.9913719999999
 21
157.0999999999999
 31
0.0
  0
LINE
  5
A628
330
A5C8
100
AcDbEntity
  8
1
  6
Continuous
100
AcDbLine
 10
122.4913719999999
 20
162.5
 30
0.0
 11
122.4913719999999
 21
136.0
 31
0.0
  0
LINE
  5
A629
330
A5C8
100
AcDbEntity
  8
4
  6
CENTER
100
AcDbLine
 10
38.25
 20
131.0
 30
0.0
 11
38.25
 21
167.5
 31
0.0
  0
ARC
  5
A62A
330
A5C8
100
AcDbEntity
  8
1
  6
Continuous
100
AcDbCircle
 10
106.491372
 20
160.25
 30
0.0
 40
0.5
100
AcDbArc
 50
0.0
 51
90.0
  0
ARC
  5
A62B
330
A5C8
100
AcDbEntity
  8
1
  6
Continuous
100
AcDbCircle
 10
103.4127239999999
 20
160.25
 30
0.0
 40
0.5
100
AcDbArc
 50
90.0
 51
170.424239
  0
ARC
  5
A62C
330
A5C8
100
AcDbEntity
  8
1
  6
Continuous
100
AcDbCircle
 10
106.491372
 20
138.25
 30
0.0
 40
0.5
100
AcDbArc
 50
270.0
 51
0.0
  0
ARC
  5
A62D
330
A5C8
100
AcDbEntity
  8
1
  6
Continuous
100
AcDbCircle
 10
103.4127239999999
 20
138.25
 30
0.0
 40
0.5
100
AcDbArc
 50
189.575761
 51
270.0
  0
LINE
  5
A62E
330
A5C8
100
AcDbEntity
  8
1
  6
Continuous
100
AcDbLine
 10
129.9913719999999
 20
155.25
 30
0.0
 11
129.9913719999999
 21
143.25
 31
0.0
  0
LINE
  5
A62F
330
A5C8
100
AcDbEntity
  8
1
  6
Continuous
100
AcDbLine
 10
131.9913719999999
 20
154.906
 30
0.0
 11
129.9913719999999
 21
154.906
 31
0.0
  0
LINE
  5
A630
330
A5C8
100
AcDbEntity
  8
2
  6
Continuous
100
AcDbLine
 10
131.9913719999999
 20
149.2499999999998
 30
0.0
 11
129.9913719999999
 21
154.906
 31
0.0
  0
LINE
  5
A631
330
A5C8
100
AcDbEntity
  8
2
  6
Continuous
100
AcDbLine
 10
131.9913719999999
 20
154.906
 30
0.0
 11
129.9913719999999
 21
149.2499999999998
 31
0.0
  0
LINE
  5
A632
330
A5C8
100
AcDbEntity
  8
1
  6
Continuous
100
AcDbLine
 10
131.9913719999999
 20
149.2499999999998
 30
0.0
 11
129.9913719999999
 21
149.2499999999998
 31
0.0
  0
LINE
  5
A633
330
A5C8
100
AcDbEntity
  8
2
  6
Continuous
100
AcDbLine
 10
129.9913719999999
 20
149.2499999999998
 30
0.0
 11
131.9913719999999
 21
143.5939999999999
 31
0.0
  0
LINE
  5
A634
330
A5C8
100
AcDbEntity
  8
2
  6
Continuous
100
AcDbLine
 10
129.9913719999999
 20
143.5939999999999
 30
0.0
 11
131.9913719999999
 21
149.2499999999998
 31
0.0
  0
LINE
  5
A635
330
A5C8
100
AcDbEntity
  8
1
  6
Continuous
100
AcDbLine
 10
131.9913719999999
 20
143.5939999999999
 30
0.0
 11
129.9913719999999
 21
143.5939999999999
 31
0.0
  0
LINE
  5
A636
330
A5C8
100
AcDbEntity
  8
1
  6
Continuous
100
AcDbLine
 10
181.9913719999999
 20
157.0999999999999
 30
0.0
 11
181.9913719999999
 21
141.4
 31
0.0
  0
ARC
  5
A637
330
A5C8
100
AcDbEntity
  8
1
  6
Continuous
100
AcDbCircle
 10
112.2702599999998
 20
157.5288889999999
 30
0.0
 40
5.278888999999998
100
AcDbArc
 50
180.0
 51
351.5151499999998
  0
ARC
  5
A638
330
A5C8
100
AcDbEntity
  8
1
  6
Continuous
100
AcDbCircle
 10
112.2702599999998
 20
140.971111
 30
0.0
 40
5.278888999999998
100
AcDbArc
 50
8.484849999999998
 51
180.0
  0
ARC
  5
A639
330
A5C8
100
AcDbEntity
  8
1
  6
Continuous
100
AcDbCircle
 10
165.9326289999999
 20
139.5
 30
0.0
 40
0.5
100
AcDbArc
 50
180.0
 51
0.0
  0
ARC
  5
A63A
330
A5C8
100
AcDbEntity
  8
1
  6
Continuous
100
AcDbCircle
 10
165.9326289999999
 20
159.0
 30
0.0
 40
0.5
100
AcDbArc
 50
0.0
 51
180.0
  0
LINE
  5
A63B
330
A5C8
100
AcDbEntity
  8
1
  6
Continuous
100
AcDbLine
 10
122.4913719999999
 20
140.25
 30
0.0
 11
128.7913719999999
 21
140.25
 31
0.0
  0
LINE
  5
A63C
330
A5C8
100
AcDbEntity
  8
2
  6
Continuous
100
AcDbLine
 10
129.332872
 20
140.7915
 30
0.0
 11
122.4913719999999
 21
140.7915
 31
0.0
  0
LINE
  5
A63D
330
A5C8
100
AcDbEntity
  8
2
  6
Continuous
100
AcDbLine
 10
129.332872
 20
157.7084999999998
 30
0.0
 11
122.4913719999999
 21
157.7084999999998
 31
0.0
  0
LINE
  5
A63E
330
A5C8
100
AcDbEntity
  8
1
  6
Continuous
100
AcDbLine
 10
122.4913719999999
 20
158.25
 30
0.0
 11
128.7913719999999
 21
158.25
 31
0.0
  0
LINE
  5
A63F
330
A5C8
100
AcDbEntity
  8
1
  6
Continuous
100
AcDbLine
 10
106.9913719999999
 20
150.2499999999998
 30
0.0
 11
102.9913719999999
 21
150.2499999999998
 31
0.0
  0
LINE
  5
A640
330
A5C8
100
AcDbEntity
  8
1
  6
Continuous
100
AcDbLine
 10
106.9913719999999
 20
151.25
 30
0.0
 11
102.9913719999999
 21
151.25
 31
0.0
  0
LINE
  5
A641
330
A5C8
100
AcDbEntity
  8
1
  6
Continuous
100
AcDbLine
 10
106.9913719999999
 20
152.2499999999998
 30
0.0
 11
102.9913719999999
 21
152.2499999999998
 31
0.0
  0
LINE
  5
A642
330
A5C8
100
AcDbEntity
  8
1
  6
Continuous
100
AcDbLine
 10
106.9913719999999
 20
153.2499999999998
 30
0.0
 11
102.9913719999999
 21
153.2499999999998
 31
0.0
  0
LINE
  5
A643
330
A5C8
100
AcDbEntity
  8
1
  6
Continuous
100
AcDbLine
 10
106.9913719999999
 20
154.2499999999998
 30
0.0
 11
102.9913719999999
 21
154.2499999999998
 31
0.0
  0
LINE
  5
A644
330
A5C8
100
AcDbEntity
  8
1
  6
Continuous
100
AcDbLine
 10
106.9913719999999
 20
155.25
 30
0.0
 11
102.9913719999999
 21
155.25
 31
0.0
  0
LINE
  5
A645
330
A5C8
100
AcDbEntity
  8
1
  6
Continuous
100
AcDbLine
 10
106.9913719999999
 20
156.25
 30
0.0
 11
102.9913719999999
 21
156.25
 31
0.0
  0
LINE
  5
A646
330
A5C8
100
AcDbEntity
  8
1
  6
Continuous
100
AcDbLine
 10
106.9913719999999
 20
157.2499999999998
 30
0.0
 11
102.9913719999999
 21
157.2499999999998
 31
0.0
  0
LINE
  5
A647
330
A5C8
100
AcDbEntity
  8
1
  6
Continuous
100
AcDbLine
 10
106.9913719999999
 20
158.25
 30
0.0
 11
102.9913719999999
 21
158.25
 31
0.0
  0
LINE
  5
A648
330
A5C8
100
AcDbEntity
  8
1
  6
Continuous
100
AcDbLine
 10
106.9913719999999
 20
159.25
 30
0.0
 11
102.9913719999999
 21
159.25
 31
0.0
  0
LINE
  5
A649
330
A5C8
100
AcDbEntity
  8
1
  6
Continuous
100
AcDbLine
 10
106.9913719999999
 20
160.25
 30
0.0
 11
102.9913719999999
 21
160.25
 31
0.0
  0
LINE
  5
A64A
330
A5C8
100
AcDbEntity
  8
1
  6
Continuous
100
AcDbLine
 10
106.9913719999999
 20
148.2499999999998
 30
0.0
 11
102.9913719999999
 21
148.2499999999998
 31
0.0
  0
LINE
  5
A64B
330
A5C8
100
AcDbEntity
  8
1
  6
Continuous
100
AcDbLine
 10
106.9913719999999
 20
147.2499999999998
 30
0.0
 11
102.9913719999999
 21
147.2499999999998
 31
0.0
  0
LINE
  5
A64C
330
A5C8
100
AcDbEntity
  8
1
  6
Continuous
100
AcDbLine
 10
106.9913719999999
 20
146.25
 30
0.0
 11
102.9913719999999
 21
146.25
 31
0.0
  0
LINE
  5
A64D
330
A5C8
100
AcDbEntity
  8
1
  6
Continuous
100
AcDbLine
 10
106.9913719999999
 20
145.25
 30
0.0
 11
102.9913719999999
 21
145.25
 31
0.0
  0
LINE
  5
A64E
330
A5C8
100
AcDbEntity
  8
1
  6
Continuous
100
AcDbLine
 10
106.9913719999999
 20
144.25
 30
0.0
 11
102.9913719999999
 21
144.25
 31
0.0
  0
LINE
  5
A64F
330
A5C8
100
AcDbEntity
  8
1
  6
Continuous
100
AcDbLine
 10
106.9913719999999
 20
143.25
 30
0.0
 11
102.9913719999999
 21
143.25
 31
0.0
  0
LINE
  5
A650
330
A5C8
100
AcDbEntity
  8
1
  6
Continuous
100
AcDbLine
 10
106.9913719999999
 20
142.25
 30
0.0
 11
102.9913719999999
 21
142.25
 31
0.0
  0
LINE
  5
A651
330
A5C8
100
AcDbEntity
  8
1
  6
Continuous
100
AcDbLine
 10
106.9913719999999
 20
141.25
 30
0.0
 11
102.9913719999999
 21
141.25
 31
0.0
  0
LINE
  5
A652
330
A5C8
100
AcDbEntity
  8
1
  6
Continuous
100
AcDbLine
 10
106.9913719999999
 20
140.25
 30
0.0
 11
102.9913719999999
 21
140.25
 31
0.0
  0
LINE
  5
A653
330
A5C8
100
AcDbEntity
  8
1
  6
Continuous
100
AcDbLine
 10
106.9913719999999
 20
139.25
 30
0.0
 11
102.9913719999999
 21
139.25
 31
0.0
  0
LINE
  5
A654
330
A5C8
100
AcDbEntity
  8
1
  6
Continuous
100
AcDbLine
 10
106.9913719999999
 20
138.25
 30
0.0
 11
102.9913719999999
 21
138.25
 31
0.0
  0
LINE
  5
A655
330
A5C8
100
AcDbEntity
  8
1
  6
Continuous
100
AcDbLine
 10
123.6913719999999
 20
161.5
 30
0.0
 11
123.6913719999999
 21
159.0
 31
0.0
  0
LINE
  5
A656
330
A5C8
100
AcDbEntity
  8
4
  6
CENTER
100
AcDbLine
 10
193.6913719999998
 20
149.2499999999998
 30
0.0
 11
160.4326289999999
 21
149.2499999999998
 31
0.0
  0
LINE
  5
A657
330
A5C8
100
AcDbEntity
  8
1
  6
Continuous
100
AcDbLine
 10
188.691372
 20
154.2499999999998
 30
0.0
 11
188.691372
 21
144.249
 31
0.0
  0
ARC
  5
A658
330
A5C8
100
AcDbEntity
  8
1
  6
Continuous
100
AcDbCircle
 10
179.130423
 20
149.2499999999998
 30
0.0
 40
9.560949
100
AcDbArc
 50
342.4247879999999
 51
17.575212
  0
ARC
  5
A659
330
A5C8
100
AcDbEntity
  8
1
  6
Continuous
100
AcDbCircle
 10
194.252321
 20
149.2499999999998
 30
0.0
 40
9.560949
100
AcDbArc
 50
162.4247879999998
 51
197.5752119999999
  0
LINE
  5
A65A
330
A5C8
100
AcDbEntity
  8
1
  6
Continuous
100
AcDbLine
 10
185.1376639999998
 20
146.363
 30
0.0
 11
188.2450799999998
 21
146.363
 31
0.0
  0
LINE
  5
A65B
330
A5C8
100
AcDbEntity
  8
1
  6
Continuous
100
AcDbLine
 10
185.1376639999998
 20
143.4759999999999
 30
0.0
 11
188.2450799999998
 21
143.4759999999999
 31
0.0
  0
ARC
  5
A65C
330
A5C8
100
AcDbEntity
  8
1
  6
Continuous
100
AcDbCircle
 10
187.2473719999999
 20
144.9199999999999
 30
0.0
 40
2.55582
100
AcDbArc
 50
214.3528569999999
 51
214.3839999999999
  0
ARC
  5
A65D
330
A5C8
100
AcDbEntity
  8
1
  6
Continuous
100
AcDbCircle
 10
187.2473519999998
 20
144.9189999999999
 30
0.0
 40
2.555979999999999
100
AcDbArc
 50
145.6283629999998
 51
205.6283629999998
  0
LINE
  5
A65E
330
A5C8
100
AcDbEntity
  8
1
  6
Continuous
100
AcDbLine
 10
184.691372
 20
144.249
 30
0.0
 11
185.1376639999998
 21
143.4759999999999
 31
0.0
  0
ARC
  5
A65F
330
A5C8
100
AcDbEntity
  8
1
  6
Continuous
100
AcDbCircle
 10
186.1353919999999
 20
144.9189999999999
 30
0.0
 40
2.555979999999999
100
AcDbArc
 50
334.371637
 51
34.371637
  0
LINE
  5
A660
330
A5C8
100
AcDbEntity
  8
1
  6
Continuous
100
AcDbLine
 10
188.691372
 20
144.249
 30
0.0
 11
188.2450799999998
 21
143.4759999999999
 31
0.0
  0
ARC
  5
A661
330
A5C8
100
AcDbEntity
  8
1
  6
Continuous
100
AcDbCircle
 10
186.1353719999999
 20
144.9199999999999
 30
0.0
 40
2.55582
100
AcDbArc
 50
325.6159999999998
 51
325.647143
  0
ARC
  5
A662
330
A5C8
100
AcDbEntity
  8
1
  6
Continuous
100
AcDbCircle
 10
187.2473519999998
 20
153.58
 30
0.0
 40
2.555979999999999
100
AcDbArc
 50
154.371637
 51
214.371637
  0
ARC
  5
A663
330
A5C8
100
AcDbEntity
  8
1
  6
Continuous
100
AcDbCircle
 10
186.1353919999999
 20
153.58
 30
0.0
 40
2.555979999999999
100
AcDbArc
 50
325.6283629999999
 51
25.628363
  0
LINE
  5
A664
330
A5C8
100
AcDbEntity
  8
1
  6
Continuous
100
AcDbLine
 10
185.1376639999998
 20
152.137
 30
0.0
 11
188.2450799999998
 21
152.137
 31
0.0
  0
LINE
  5
A665
330
A5C8
100
AcDbEntity
  8
1
  6
Continuous
100
AcDbLine
 10
185.1376639999998
 20
155.0229999999999
 30
0.0
 11
188.2450799999998
 21
155.0229999999999
 31
0.0
  0
LINE
  5
A666
330
A5C8
100
AcDbEntity
  8
1
  6
Continuous
100
AcDbLine
 10
184.691372
 20
154.2499999999998
 30
0.0
 11
185.1376639999998
 21
155.0229999999999
 31
0.0
  0
LINE
  5
A667
330
A5C8
100
AcDbEntity
  8
1
  6
Continuous
100
AcDbLine
 10
188.691372
 20
154.2499999999998
 30
0.0
 11
188.2450799999998
 21
155.0229999999999
 31
0.0
  0
LINE
  5
A668
330
A5C8
100
AcDbEntity
  8
1
  6
Continuous
100
AcDbLine
 10
184.691372
 20
149.2499999999998
 30
0.0
 11
183.191372
 21
147.75
 31
0.0
  0
LINE
  5
A669
330
A5C8
100
AcDbEntity
  8
1
  6
Continuous
100
AcDbLine
 10
184.691372
 20
150.75
 30
0.0
 11
183.191372
 21
149.2499999999998
 31
0.0
  0
LINE
  5
A66A
330
A5C8
100
AcDbEntity
  8
1
  6
Continuous
100
AcDbLine
 10
131.9913719999999
 20
154.906
 30
0.0
 11
131.9913719999999
 21
143.5939999999999
 31
0.0
  0
LINE
  5
A66B
330
A5C8
100
AcDbEntity
  8
4
  6
CENTER
100
AcDbLine
 10
225.241383
 20
149.2499999999998
 30
0.0
 11
261.7413829999999
 21
149.2499999999998
 31
0.0
  0
LINE
  5
A66C
330
A5C8
100
AcDbEntity
  8
4
  6
CENTER
100
AcDbLine
 10
243.491383
 20
131.0
 30
0.0
 11
243.491383
 21
167.5
 31
0.0
  0
LINE
  5
A66D
330
A5C8
100
AcDbEntity
  8
1
  6
Continuous
100
AcDbLine
 10
243.491383
 20
134.238893
 30
0.0
 11
256.491383
 21
141.744447
 31
0.0
  0
LINE
  5
A66E
330
A5C8
100
AcDbEntity
  8
1
  6
Continuous
100
AcDbLine
 10
256.491383
 20
156.7555539999999
 30
0.0
 11
256.491383
 21
141.744447
 31
0.0
  0
LINE
  5
A66F
330
A5C8
100
AcDbEntity
  8
1
  6
Continuous
100
AcDbLine
 10
243.4913839999999
 20
164.261107
 30
0.0
 11
256.491383
 21
156.7555539999999
 31
0.0
  0
LINE
  5
A670
330
A5C8
100
AcDbEntity
  8
1
  6
Continuous
100
AcDbLine
 10
230.491383
 20
156.7555529999999
 30
0.0
 11
243.4913839999999
 21
164.261107
 31
0.0
  0
LINE
  5
A671
330
A5C8
100
AcDbEntity
  8
1
  6
Continuous
100
AcDbLine
 10
230.491383
 20
156.7555529999999
 30
0.0
 11
230.491383
 21
141.744447
 31
0.0
  0
LINE
  5
A672
330
A5C8
100
AcDbEntity
  8
1
  6
Continuous
100
AcDbLine
 10
230.491383
 20
141.744447
 30
0.0
 11
243.491383
 21
134.238893
 31
0.0
  0
ARC
  5
A673
330
A5C8
100
AcDbEntity
  8
1
  6
Continuous
100
AcDbCircle
 10
243.491383
 20
149.2499999999998
 30
0.0
 40
13.25
100
AcDbArc
 50
168.8523089999999
 51
191.1476909999999
  0
ARC
  5
A674
330
A5C8
100
AcDbEntity
  8
1
  6
Continuous
100
AcDbCircle
 10
243.491383
 20
149.2499999999998
 30
0.0
 40
13.25
100
AcDbArc
 50
228.852302
 51
251.147695
  0
ARC
  5
A675
330
A5C8
100
AcDbEntity
  8
1
  6
Continuous
100
AcDbCircle
 10
243.491383
 20
149.2499999999998
 30
0.0
 40
13.25
100
AcDbArc
 50
288.852306
 51
311.147697
  0
ARC
  5
A676
330
A5C8
100
AcDbEntity
  8
1
  6
Continuous
100
AcDbCircle
 10
243.491383
 20
149.2499999999998
 30
0.0
 40
13.25
100
AcDbArc
 50
348.852309
 51
11.14769099999998
  0
ARC
  5
A677
330
A5C8
100
AcDbEntity
  8
1
  6
Continuous
100
AcDbCircle
 10
243.491383
 20
149.2499999999998
 30
0.0
 40
13.25
100
AcDbArc
 50
48.852321
 51
71.147676
  0
CIRCLE
  5
A678
330
A5C8
100
AcDbEntity
  8
1
  6
Continuous
100
AcDbCircle
 10
243.491383
 20
149.2499999999998
 30
0.0
 40
7.849999999999998
  0
CIRCLE
  5
A679
330
A5C8
100
AcDbEntity
  8
1
  6
Continuous
100
AcDbCircle
 10
243.491383
 20
149.2499999999998
 30
0.0
 40
6.099999999999997
  0
LINE
  5
A67A
330
A5C8
100
AcDbEntity
  8
1
  6
Continuous
100
AcDbLine
 10
248.4913829999999
 20
146.363
 30
0.0
 11
248.4913829999999
 21
152.137
 31
0.0
  0
LINE
  5
A67B
330
A5C8
100
AcDbEntity
  8
1
  6
Continuous
100
AcDbLine
 10
238.491383
 20
146.363
 30
0.0
 11
238.491383
 21
152.137
 31
0.0
  0
CIRCLE
  5
A67C
330
A5C8
100
AcDbEntity
  8
1
  6
Continuous
100
AcDbCircle
 10
243.491383
 20
149.2499999999998
 30
0.0
 40
5.0
  0
LINE
  5
A67D
330
A5C8
100
AcDbEntity
  8
1
  6
Continuous
100
AcDbLine
 10
248.4913829999999
 20
146.363
 30
0.0
 11
243.491383
 21
143.4759999999999
 31
0.0
  0
LINE
  5
A67E
330
A5C8
100
AcDbEntity
  8
1
  6
Continuous
100
AcDbLine
 10
238.491383
 20
146.363
 30
0.0
 11
243.491383
 21
143.4759999999999
 31
0.0
  0
LINE
  5
A67F
330
A5C8
100
AcDbEntity
  8
1
  6
Continuous
100
AcDbLine
 10
243.491383
 20
155.0229999999999
 30
0.0
 11
248.4913829999999
 21
152.137
 31
0.0
  0
LINE
  5
A680
330
A5C8
100
AcDbEntity
  8
1
  6
Continuous
100
AcDbLine
 10
243.491383
 20
155.0229999999999
 30
0.0
 11
238.491383
 21
152.137
 31
0.0
  0
LINE
  5
A681
330
A5C8
100
AcDbEntity
  8
4
  6
CENTER
100
AcDbLine
 10
136.9913719999999
 20
54.25
 30
0.0
 11
96.991372
 21
54.25
 31
0.0
  0
LINE
  5
A682
330
A5C8
100
AcDbEntity
  8
4
  6
CENTER
100
AcDbLine
 10
193.6913719999998
 20
54.25
 30
0.0
 11
160.4326289999999
 21
54.25
 31
0.0
  0
LINE
  5
A683
330
A5C8
100
AcDbEntity
  8
1
  6
Continuous
100
AcDbLine
 10
122.4913719999999
 20
67.5
 30
0.0
 11
122.4913719999999
 21
41.0
 31
0.0
  0
LINE
  5
A684
330
A5C8
100
AcDbEntity
  8
1
  6
Continuous
100
AcDbLine
 10
119.991372
 20
67.5
 30
0.0
 11
119.991372
 21
41.0
 31
0.0
  0
ARC
  5
A685
330
A5C8
100
AcDbEntity
  8
1
  6
Continuous
100
AcDbCircle
 10
168.6163719999998
 20
54.25
 30
0.0
 40
66.625
100
AcDbArc
 50
170.424239
 51
189.575761
  0
LINE
  5
A686
330
A5C8
100
AcDbEntity
  8
1
  6
Continuous
100
AcDbLine
 10
102.9913719999999
 20
65.519188
 30
0.0
 11
102.9913719999999
 21
42.98081299999998
 31
0.0
  0
LINE
  5
A687
330
A5C8
100
AcDbEntity
  8
1
  6
Continuous
100
AcDbLine
 10
106.9913719999999
 20
65.25
 30
0.0
 11
106.9913719999999
 21
43.25
 31
0.0
  0
LINE
  5
A688
330
A5C8
100
AcDbEntity
  8
1
  6
Continuous
100
AcDbLine
 10
117.991372
 20
64.75
 30
0.0
 11
117.991372
 21
43.75
 31
0.0
  0
LINE
  5
A689
330
A5C8
100
AcDbEntity
  8
1
  6
Continuous
100
AcDbLine
 10
106.9913719999999
 20
43.25
 30
0.0
 11
102.9913719999999
 21
43.25
 31
0.0
  0
LINE
  5
A68A
330
A5C8
100
AcDbEntity
  8
1
  6
Continuous
100
AcDbLine
 10
106.9913719999999
 20
44.24999999999999
 30
0.0
 11
102.9913719999999
 21
44.24999999999999
 31
0.0
  0
ARC
  5
A68B
330
A5C8
100
AcDbEntity
  8
1
  6
Continuous
100
AcDbCircle
 10
103.4127239999999
 20
43.25
 30
0.0
 40
0.5
100
AcDbArc
 50
189.575761
 51
270.0
  0
ARC
  5
A68C
330
A5C8
100
AcDbEntity
  8
1
  6
Continuous
100
AcDbCircle
 10
106.491372
 20
43.25
 30
0.0
 40
0.5
100
AcDbArc
 50
270.0
 51
0.0
  0
LINE
  5
A68D
330
A5C8
100
AcDbEntity
  8
1
  6
Continuous
100
AcDbLine
 10
106.491372
 20
42.75
 30
0.0
 11
103.4127239999999
 21
42.75
 31
0.0
  0
LINE
  5
A68E
330
A5C8
100
AcDbEntity
  8
1
  6
Continuous
100
AcDbLine
 10
122.4913719999999
 20
41.0
 30
0.0
 11
119.991372
 21
41.0
 31
0.0
  0
ARC
  5
A68F
330
A5C8
100
AcDbEntity
  8
1
  6
Continuous
100
AcDbCircle
 10
117.991372
 20
41.74999999999999
 30
0.0
 40
2.0
100
AcDbArc
 50
0.0
 51
90.0
  0
ARC
  5
A690
330
A5C8
100
AcDbEntity
  8
1
  6
Continuous
100
AcDbCircle
 10
112.2702599999998
 20
45.971111
 30
0.0
 40
5.278888999999998
100
AcDbArc
 50
8.484849999999998
 51
180.0
  0
ARC
  5
A691
330
A5C8
100
AcDbEntity
  8
1
  6
Continuous
100
AcDbCircle
 10
112.2702599999998
 20
62.528889
 30
0.0
 40
5.278888999999998
100
AcDbArc
 50
180.0
 51
351.5151499999998
  0
LINE
  5
A692
330
A5C8
100
AcDbEntity
  8
1
  6
Continuous
100
AcDbLine
 10
106.9913719999999
 20
45.25
 30
0.0
 11
102.9913719999999
 21
45.25
 31
0.0
  0
LINE
  5
A693
330
A5C8
100
AcDbEntity
  8
1
  6
Continuous
100
AcDbLine
 10
106.9913719999999
 20
46.25
 30
0.0
 11
102.9913719999999
 21
46.25
 31
0.0
  0
LINE
  5
A694
330
A5C8
100
AcDbEntity
  8
1
  6
Continuous
100
AcDbLine
 10
106.9913719999999
 20
47.25
 30
0.0
 11
102.9913719999999
 21
47.25
 31
0.0
  0
LINE
  5
A695
330
A5C8
100
AcDbEntity
  8
1
  6
Continuous
100
AcDbLine
 10
106.9913719999999
 20
48.25
 30
0.0
 11
102.9913719999999
 21
48.25
 31
0.0
  0
LINE
  5
A696
330
A5C8
100
AcDbEntity
  8
1
  6
Continuous
100
AcDbLine
 10
106.9913719999999
 20
49.25
 30
0.0
 11
102.9913719999999
 21
49.25
 31
0.0
  0
LINE
  5
A697
330
A5C8
100
AcDbEntity
  8
1
  6
Continuous
100
AcDbLine
 10
106.9913719999999
 20
50.25
 30
0.0
 11
102.9913719999999
 21
50.25
 31
0.0
  0
LINE
  5
A698
330
A5C8
100
AcDbEntity
  8
1
  6
Continuous
100
AcDbLine
 10
106.9913719999999
 20
51.25
 30
0.0
 11
102.9913719999999
 21
51.25
 31
0.0
  0
LINE
  5
A699
330
A5C8
100
AcDbEntity
  8
1
  6
Continuous
100
AcDbLine
 10
106.9913719999999
 20
52.25
 30
0.0
 11
102.9913719999999
 21
52.25
 31
0.0
  0
LINE
  5
A69A
330
A5C8
100
AcDbEntity
  8
1
  6
Continuous
100
AcDbLine
 10
106.9913719999999
 20
53.25
 30
0.0
 11
102.9913719999999
 21
53.25
 31
0.0
  0
LINE
  5
A69B
330
A5C8
100
AcDbEntity
  8
1
  6
Continuous
100
AcDbLine
 10
106.9913719999999
 20
65.25
 30
0.0
 11
102.9913719999999
 21
65.25
 31
0.0
  0
LINE
  5
A69C
330
A5C8
100
AcDbEntity
  8
1
  6
Continuous
100
AcDbLine
 10
106.9913719999999
 20
64.25
 30
0.0
 11
102.9913719999999
 21
64.25
 31
0.0
  0
LINE
  5
A69D
330
A5C8
100
AcDbEntity
  8
1
  6
Continuous
100
AcDbLine
 10
106.9913719999999
 20
63.25
 30
0.0
 11
102.9913719999999
 21
63.25
 31
0.0
  0
LINE
  5
A69E
330
A5C8
100
AcDbEntity
  8
1
  6
Continuous
100
AcDbLine
 10
106.9913719999999
 20
62.25
 30
0.0
 11
102.9913719999999
 21
62.25
 31
0.0
  0
LINE
  5
A69F
330
A5C8
100
AcDbEntity
  8
1
  6
Continuous
100
AcDbLine
 10
106.9913719999999
 20
61.25
 30
0.0
 11
102.9913719999999
 21
61.25
 31
0.0
  0
LINE
  5
A6A0
330
A5C8
100
AcDbEntity
  8
1
  6
Continuous
100
AcDbLine
 10
106.9913719999999
 20
60.25
 30
0.0
 11
102.9913719999999
 21
60.25
 31
0.0
  0
LINE
  5
A6A1
330
A5C8
100
AcDbEntity
  8
1
  6
Continuous
100
AcDbLine
 10
106.9913719999999
 20
59.25
 30
0.0
 11
102.9913719999999
 21
59.25
 31
0.0
  0
LINE
  5
A6A2
330
A5C8
100
AcDbEntity
  8
1
  6
Continuous
100
AcDbLine
 10
106.9913719999999
 20
58.25
 30
0.0
 11
102.9913719999999
 21
58.25
 31
0.0
  0
LINE
  5
A6A3
330
A5C8
100
AcDbEntity
  8
1
  6
Continuous
100
AcDbLine
 10
106.9913719999999
 20
57.25
 30
0.0
 11
102.9913719999999
 21
57.25
 31
0.0
  0
LINE
  5
A6A4
330
A5C8
100
AcDbEntity
  8
1
  6
Continuous
100
AcDbLine
 10
106.9913719999999
 20
56.25
 30
0.0
 11
102.9913719999999
 21
56.25
 31
0.0
  0
LINE
  5
A6A5
330
A5C8
100
AcDbEntity
  8
1
  6
Continuous
100
AcDbLine
 10
106.9913719999999
 20
55.25
 30
0.0
 11
102.9913719999999
 21
55.25
 31
0.0
  0
ARC
  5
A6A6
330
A5C8
100
AcDbEntity
  8
1
  6
Continuous
100
AcDbCircle
 10
103.4127239999999
 20
65.25
 30
0.0
 40
0.5
100
AcDbArc
 50
90.0
 51
170.424239
  0
ARC
  5
A6A7
330
A5C8
100
AcDbEntity
  8
1
  6
Continuous
100
AcDbCircle
 10
106.491372
 20
65.25
 30
0.0
 40
0.5
100
AcDbArc
 50
0.0
 51
90.0
  0
LINE
  5
A6A8
330
A5C8
100
AcDbEntity
  8
1
  6
Continuous
100
AcDbLine
 10
106.491372
 20
65.75
 30
0.0
 11
103.4127239999999
 21
65.75
 31
0.0
  0
LINE
  5
A6A9
330
A5C8
100
AcDbEntity
  8
1
  6
Continuous
100
AcDbLine
 10
131.9913719999999
 20
59.906
 30
0.0
 11
131.9913719999999
 21
48.59399999999999
 31
0.0
  0
LINE
  5
A6AA
330
A5C8
100
AcDbEntity
  8
1
  6
Continuous
100
AcDbLine
 10
122.4913719999999
 20
63.25
 30
0.0
 11
128.7913719999999
 21
63.25
 31
0.0
  0
LINE
  5
A6AB
330
A5C8
100
AcDbEntity
  8
2
  6
Continuous
100
AcDbLine
 10
129.332872
 20
62.7085
 30
0.0
 11
122.4913719999999
 21
62.7085
 31
0.0
  0
LINE
  5
A6AC
330
A5C8
100
AcDbEntity
  8
2
  6
Continuous
100
AcDbLine
 10
129.332872
 20
45.7915
 30
0.0
 11
122.4913719999999
 21
45.7915
 31
0.0
  0
LINE
  5
A6AD
330
A5C8
100
AcDbEntity
  8
1
  6
Continuous
100
AcDbLine
 10
122.4913719999999
 20
45.25
 30
0.0
 11
128.7913719999999
 21
45.25
 31
0.0
  0
LINE
  5
A6AE
330
A5C8
100
AcDbEntity
  8
1
  6
Continuous
100
AcDbLine
 10
131.9913719999999
 20
48.59399999999999
 30
0.0
 11
129.9913719999999
 21
48.59399999999999
 31
0.0
  0
LINE
  5
A6AF
330
A5C8
100
AcDbEntity
  8
2
  6
Continuous
100
AcDbLine
 10
129.9913719999999
 20
48.59399999999999
 30
0.0
 11
131.9913719999999
 21
54.25
 31
0.0
  0
LINE
  5
A6B0
330
A5C8
100
AcDbEntity
  8
2
  6
Continuous
100
AcDbLine
 10
129.9913719999999
 20
54.25
 30
0.0
 11
131.9913719999999
 21
48.59399999999999
 31
0.0
  0
LINE
  5
A6B1
330
A5C8
100
AcDbEntity
  8
1
  6
Continuous
100
AcDbLine
 10
131.9913719999999
 20
54.25
 30
0.0
 11
129.9913719999999
 21
54.25
 31
0.0
  0
LINE
  5
A6B2
330
A5C8
100
AcDbEntity
  8
2
  6
Continuous
100
AcDbLine
 10
131.9913719999999
 20
59.906
 30
0.0
 11
129.9913719999999
 21
54.25
 31
0.0
  0
LINE
  5
A6B3
330
A5C8
100
AcDbEntity
  8
2
  6
Continuous
100
AcDbLine
 10
131.9913719999999
 20
54.25
 30
0.0
 11
129.9913719999999
 21
59.906
 31
0.0
  0
LINE
  5
A6B4
330
A5C8
100
AcDbEntity
  8
1
  6
Continuous
100
AcDbLine
 10
131.9913719999999
 20
59.906
 30
0.0
 11
129.9913719999999
 21
59.906
 31
0.0
  0
LINE
  5
A6B5
330
A5C8
100
AcDbEntity
  8
1
  6
Continuous
100
AcDbLine
 10
129.9913719999999
 20
60.25
 30
0.0
 11
129.9913719999999
 21
48.25
 31
0.0
  0
LINE
  5
A6B6
330
A5C8
100
AcDbEntity
  8
1
  6
Continuous
100
AcDbLine
 10
129.9913719999999
 20
60.25
 30
0.0
 11
129.7913719999999
 21
60.25
 31
0.0
  0
LINE
  5
A6B7
330
A5C8
100
AcDbEntity
  8
1
  6
Continuous
100
AcDbLine
 10
129.9913719999999
 20
48.25
 30
0.0
 11
129.7913719999999
 21
48.25
 31
0.0
  0
LINE
  5
A6B8
330
A5C8
100
AcDbEntity
  8
1
  6
Continuous
100
AcDbLine
 10
117.991372
 20
61.75
 30
0.0
 11
117.4913719999999
 21
61.75
 31
0.0
  0
LINE
  5
A6B9
330
A5C8
100
AcDbEntity
  8
1
  6
Continuous
100
AcDbLine
 10
117.991372
 20
46.74999999999999
 30
0.0
 11
117.4913719999999
 21
46.74999999999999
 31
0.0
  0
LINE
  5
A6BA
330
A5C8
100
AcDbEntity
  8
1
  6
Continuous
100
AcDbLine
 10
117.4913719999999
 20
61.75
 30
0.0
 11
117.4913719999999
 21
46.74999999999999
 31
0.0
  0
LINE
  5
A6BB
330
A5C8
100
AcDbEntity
  8
1
  6
Continuous
100
AcDbLine
 10
128.7913719999999
 20
63.25
 30
0.0
 11
128.7913719999999
 21
45.25
 31
0.0
  0
LINE
  5
A6BC
330
A5C8
100
AcDbEntity
  8
1
  6
Continuous
100
AcDbLine
 10
129.7913719999999
 20
46.25
 30
0.0
 11
128.7913719999999
 21
45.25
 31
0.0
  0
LINE
  5
A6BD
330
A5C8
100
AcDbEntity
  8
1
  6
Continuous
100
AcDbLine
 10
128.7913719999999
 20
63.25
 30
0.0
 11
129.7913719999999
 21
62.25
 31
0.0
  0
LINE
  5
A6BE
330
A5C8
100
AcDbEntity
  8
1
  6
Continuous
100
AcDbLine
 10
129.7913719999999
 20
62.25
 30
0.0
 11
129.7913719999999
 21
46.25
 31
0.0
  0
ARC
  5
A6BF
330
A5C8
100
AcDbEntity
  8
1
  6
Continuous
100
AcDbCircle
 10
117.991372
 20
66.75
 30
0.0
 40
2.0
100
AcDbArc
 50
270.0
 51
0.0
  0
LINE
  5
A6C0
330
A5C8
100
AcDbEntity
  8
1
  6
Continuous
100
AcDbLine
 10
122.4913719999999
 20
67.5
 30
0.0
 11
119.991372
 21
67.5
 31
0.0
  0
LINE
  5
A6C1
330
A5C8
100
AcDbEntity
  8
1
  6
Continuous
100
AcDbLine
 10
166.4326289999999
 20
67.25
 30
0.0
 11
166.4326289999999
 21
41.25
 31
0.0
  0
LINE
  5
A6C2
330
A5C8
100
AcDbEntity
  8
1
  6
Continuous
100
AcDbLine
 10
169.432629
 20
66.75
 30
0.0
 11
169.432629
 21
41.74999999999999
 31
0.0
  0
LINE
  5
A6C3
330
A5C8
100
AcDbEntity
  8
1
  6
Continuous
100
AcDbLine
 10
165.432629
 20
64.0
 30
0.0
 11
165.432629
 21
44.5
 31
0.0
  0
ARC
  5
A6C4
330
A5C8
100
AcDbEntity
  8
1
  6
Continuous
100
AcDbCircle
 10
165.9326289999999
 20
44.5
 30
0.0
 40
0.5
100
AcDbArc
 50
180.0
 51
0.0
  0
ARC
  5
A6C5
330
A5C8
100
AcDbEntity
  8
1
  6
Continuous
100
AcDbCircle
 10
168.9326289999999
 20
41.74999999999999
 30
0.0
 40
0.5
100
AcDbArc
 50
270.0
 51
0.0
  0
LINE
  5
A6C6
330
A5C8
100
AcDbEntity
  8
1
  6
Continuous
100
AcDbLine
 10
168.9326289999999
 20
41.25
 30
0.0
 11
166.4326289999999
 21
41.25
 31
0.0
  0
ARC
  5
A6C7
330
A5C8
100
AcDbEntity
  8
1
  6
Continuous
100
AcDbCircle
 10
165.9326289999999
 20
64.0
 30
0.0
 40
0.5
100
AcDbArc
 50
0.0
 51
180.0
  0
LINE
  5
A6C8
330
A5C8
100
AcDbEntity
  8
1
  6
Continuous
100
AcDbLine
 10
166.4326289999999
 20
54.25
 30
0.0
 11
169.432629
 21
54.25
 31
0.0
  0
LINE
  5
A6C9
330
A5C8
100
AcDbEntity
  8
1
  6
Continuous
100
AcDbLine
 10
184.691372
 20
55.75
 30
0.0
 11
183.191372
 21
54.25
 31
0.0
  0
LINE
  5
A6CA
330
A5C8
100
AcDbEntity
  8
1
  6
Continuous
100
AcDbLine
 10
184.691372
 20
54.25
 30
0.0
 11
183.191372
 21
52.75
 31
0.0
  0
LINE
  5
A6CB
330
A5C8
100
AcDbEntity
  8
1
  6
Continuous
100
AcDbLine
 10
181.9913719999999
 20
62.1
 30
0.0
 11
181.9913719999999
 21
46.39999999999999
 31
0.0
  0
LINE
  5
A6CC
330
A5C8
100
AcDbEntity
  8
1
  6
Continuous
100
AcDbLine
 10
183.191372
 20
62.1
 30
0.0
 11
181.9913719999999
 21
62.1
 31
0.0
  0
LINE
  5
A6CD
330
A5C8
100
AcDbEntity
  8
1
  6
Continuous
100
AcDbLine
 10
183.191372
 20
46.39999999999999
 30
0.0
 11
181.9913719999999
 21
46.39999999999999
 31
0.0
  0
LINE
  5
A6CE
330
A5C8
100
AcDbEntity
  8
1
  6
Continuous
100
AcDbLine
 10
183.191372
 20
62.1
 30
0.0
 11
183.191372
 21
46.39999999999999
 31
0.0
  0
LINE
  5
A6CF
330
A5C8
100
AcDbEntity
  8
1
  6
Continuous
100
AcDbLine
 10
184.691372
 20
48.15
 30
0.0
 11
183.191372
 21
48.15
 31
0.0
  0
LINE
  5
A6D0
330
A5C8
100
AcDbEntity
  8
1
  6
Continuous
100
AcDbLine
 10
184.691372
 20
60.35
 30
0.0
 11
183.191372
 21
60.35
 31
0.0
  0
LINE
  5
A6D1
330
A5C8
100
AcDbEntity
  8
1
  6
Continuous
100
AcDbLine
 10
184.691372
 20
48.15
 30
0.0
 11
184.691372
 21
60.35
 31
0.0
  0
ARC
  5
A6D2
330
A5C8
100
AcDbEntity
  8
1
  6
Continuous
100
AcDbCircle
 10
168.9326289999999
 20
66.75
 30
0.0
 40
0.5
100
AcDbArc
 50
0.0
 51
90.0
  0
LINE
  5
A6D3
330
A5C8
100
AcDbEntity
  8
1
  6
Continuous
100
AcDbLine
 10
168.9326289999999
 20
67.25
 30
0.0
 11
166.4326289999999
 21
67.25
 31
0.0
  0
ARC
  5
A6D4
330
A5C8
100
AcDbEntity
  8
1
  6
Continuous
100
AcDbCircle
 10
191.916664
 20
51.75
 30
0.0
 40
7.225291999999997
100
AcDbArc
 50
159.7567339999999
 51
200.243266
  0
LINE
  5
A6D5
330
A5C8
100
AcDbEntity
  8
1
  6
Continuous
100
AcDbLine
 10
188.691372
 20
59.25
 30
0.0
 11
188.691372
 21
49.25
 31
0.0
  0
ARC
  5
A6D6
330
A5C8
100
AcDbEntity
  8
1
  6
Continuous
100
AcDbCircle
 10
181.46608
 20
51.75
 30
0.0
 40
7.225291999999997
100
AcDbArc
 50
339.756734
 51
20.24326599999999
  0
LINE
  5
A6D7
330
A5C8
100
AcDbEntity
  8
1
  6
Continuous
100
AcDbLine
 10
184.691372
 20
49.25
 30
0.0
 11
188.691372
 21
49.25
 31
0.0
  0
ARC
  5
A6D8
330
A5C8
100
AcDbEntity
  8
1
  6
Continuous
100
AcDbCircle
 10
191.916664
 20
56.75
 30
0.0
 40
7.225291999999997
100
AcDbArc
 50
159.7567339999999
 51
200.243266
  0
ARC
  5
A6D9
330
A5C8
100
AcDbEntity
  8
1
  6
Continuous
100
AcDbCircle
 10
181.46608
 20
56.75
 30
0.0
 40
7.225291999999997
100
AcDbArc
 50
339.756734
 51
20.24326599999999
  0
LINE
  5
A6DA
330
A5C8
100
AcDbEntity
  8
1
  6
Continuous
100
AcDbLine
 10
188.2450799999998
 20
54.25
 30
0.0
 11
185.1376639999998
 21
54.25
 31
0.0
  0
LINE
  5
A6DB
330
A5C8
100
AcDbEntity
  8
1
  6
Continuous
100
AcDbLine
 10
184.691372
 20
59.25
 30
0.0
 11
188.691372
 21
59.25
 31
0.0
  0
LINE
  5
A6DC
330
A5C8
100
AcDbEntity
  8
4
  6
CENTER
100
AcDbLine
 10
136.9913719999999
 20
244.2499999999999
 30
0.0
 11
96.991372
 21
244.2499999999999
 31
0.0
  0
LINE
  5
A6DD
330
A5C8
100
AcDbEntity
  8
4
  6
CENTER
100
AcDbLine
 10
193.6913719999998
 20
244.2499999999999
 30
0.0
 11
160.4326289999999
 21
244.2499999999999
 31
0.0
  0
LINE
  5
A6DE
330
A5C8
100
AcDbEntity
  8
1
  6
Continuous
100
AcDbLine
 10
129.7913719999999
 20
236.25
 30
0.0
 11
129.7913719999999
 21
252.2499999999999
 31
0.0
  0
LINE
  5
A6DF
330
A5C8
100
AcDbEntity
  8
1
  6
Continuous
100
AcDbLine
 10
128.7913719999999
 20
235.25
 30
0.0
 11
128.7913719999999
 21
253.25
 31
0.0
  0
LINE
  5
A6E0
330
A5C8
100
AcDbEntity
  8
1
  6
Continuous
100
AcDbLine
 10
117.4913719999999
 20
236.75
 30
0.0
 11
117.4913719999999
 21
251.75
 31
0.0
  0
LINE
  5
A6E1
330
A5C8
100
AcDbEntity
  8
1
  6
Continuous
100
AcDbLine
 10
129.9913719999999
 20
238.2499999999998
 30
0.0
 11
129.9913719999999
 21
250.2499999999999
 31
0.0
  0
LINE
  5
A6E2
330
A5C8
100
AcDbEntity
  8
2
  6
Continuous
100
AcDbLine
 10
131.9913719999999
 20
244.2499999999999
 30
0.0
 11
129.9913719999999
 21
238.594
 31
0.0
  0
LINE
  5
A6E3
330
A5C8
100
AcDbEntity
  8
2
  6
Continuous
100
AcDbLine
 10
131.9913719999999
 20
238.594
 30
0.0
 11
129.9913719999999
 21
244.2499999999999
 31
0.0
  0
LINE
  5
A6E4
330
A5C8
100
AcDbEntity
  8
1
  6
Continuous
100
AcDbLine
 10
131.9913719999999
 20
238.594
 30
0.0
 11
131.9913719999999
 21
249.9059999999999
 31
0.0
  0
LINE
  5
A6E5
330
A5C8
100
AcDbEntity
  8
1
  6
Continuous
100
AcDbLine
 10
117.991372
 20
233.7499999999999
 30
0.0
 11
117.991372
 21
254.7499999999998
 31
0.0
  0
LINE
  5
A6E6
330
A5C8
100
AcDbEntity
  8
1
  6
Continuous
100
AcDbLine
 10
106.9913719999999
 20
233.25
 30
0.0
 11
106.9913719999999
 21
255.25
 31
0.0
  0
LINE
  5
A6E7
330
A5C8
100
AcDbEntity
  8
1
  6
Continuous
100
AcDbLine
 10
102.9913719999999
 20
232.980812
 30
0.0
 11
102.9913719999999
 21
255.5191869999999
 31
0.0
  0
ARC
  5
A6E8
330
A5C8
100
AcDbEntity
  8
1
  6
Continuous
100
AcDbCircle
 10
168.6163719999998
 20
244.2499999999999
 30
0.0
 40
66.625
100
AcDbArc
 50
170.424239
 51
189.575761
  0
LINE
  5
A6E9
330
A5C8
100
AcDbEntity
  8
1
  6
Continuous
100
AcDbLine
 10
119.991372
 20
231.0
 30
0.0
 11
119.991372
 21
257.5
 31
0.0
  0
LINE
  5
A6EA
330
A5C8
100
AcDbEntity
  8
1
  6
Continuous
100
AcDbLine
 10
122.4913719999999
 20
231.0
 30
0.0
 11
122.4913719999999
 21
257.5
 31
0.0
  0
ARC
  5
A6EB
330
A5C8
100
AcDbEntity
  8
1
  6
Continuous
100
AcDbCircle
 10
112.2702599999998
 20
252.528889
 30
0.0
 40
5.278888999999998
100
AcDbArc
 50
180.0
 51
351.5151499999998
  0
LINE
  5
A6EC
330
A5C8
100
AcDbEntity
  8
1
  6
Continuous
100
AcDbLine
 10
106.9913719999999
 20
243.25
 30
0.0
 11
102.9913719999999
 21
243.25
 31
0.0
  0
LINE
  5
A6ED
330
A5C8
100
AcDbEntity
  8
1
  6
Continuous
100
AcDbLine
 10
106.9913719999999
 20
242.2499999999998
 30
0.0
 11
102.9913719999999
 21
242.2499999999998
 31
0.0
  0
LINE
  5
A6EE
330
A5C8
100
AcDbEntity
  8
1
  6
Continuous
100
AcDbLine
 10
106.9913719999999
 20
245.25
 30
0.0
 11
102.9913719999999
 21
245.25
 31
0.0
  0
LINE
  5
A6EF
330
A5C8
100
AcDbEntity
  8
1
  6
Continuous
100
AcDbLine
 10
106.9913719999999
 20
246.2499999999999
 30
0.0
 11
102.9913719999999
 21
246.2499999999999
 31
0.0
  0
LINE
  5
A6F0
330
A5C8
100
AcDbEntity
  8
1
  6
Continuous
100
AcDbLine
 10
106.9913719999999
 20
247.25
 30
0.0
 11
102.9913719999999
 21
247.25
 31
0.0
  0
LINE
  5
A6F1
330
A5C8
100
AcDbEntity
  8
1
  6
Continuous
100
AcDbLine
 10
106.9913719999999
 20
248.2499999999999
 30
0.0
 11
102.9913719999999
 21
248.2499999999999
 31
0.0
  0
LINE
  5
A6F2
330
A5C8
100
AcDbEntity
  8
1
  6
Continuous
100
AcDbLine
 10
106.9913719999999
 20
249.25
 30
0.0
 11
102.9913719999999
 21
249.25
 31
0.0
  0
LINE
  5
A6F3
330
A5C8
100
AcDbEntity
  8
1
  6
Continuous
100
AcDbLine
 10
106.9913719999999
 20
250.2499999999999
 30
0.0
 11
102.9913719999999
 21
250.2499999999999
 31
0.0
  0
LINE
  5
A6F4
330
A5C8
100
AcDbEntity
  8
1
  6
Continuous
100
AcDbLine
 10
106.9913719999999
 20
251.25
 30
0.0
 11
102.9913719999999
 21
251.25
 31
0.0
  0
LINE
  5
A6F5
330
A5C8
100
AcDbEntity
  8
1
  6
Continuous
100
AcDbLine
 10
106.9913719999999
 20
252.2499999999999
 30
0.0
 11
102.9913719999999
 21
252.2499999999999
 31
0.0
  0
LINE
  5
A6F6
330
A5C8
100
AcDbEntity
  8
1
  6
Continuous
100
AcDbLine
 10
106.9913719999999
 20
253.25
 30
0.0
 11
102.9913719999999
 21
253.25
 31
0.0
  0
LINE
  5
A6F7
330
A5C8
100
AcDbEntity
  8
1
  6
Continuous
100
AcDbLine
 10
106.491372
 20
255.75
 30
0.0
 11
103.4127239999999
 21
255.75
 31
0.0
  0
ARC
  5
A6F8
330
A5C8
100
AcDbEntity
  8
1
  6
Continuous
100
AcDbCircle
 10
106.491372
 20
255.25
 30
0.0
 40
0.5
100
AcDbArc
 50
0.0
 51
90.0
  0
ARC
  5
A6F9
330
A5C8
100
AcDbEntity
  8
1
  6
Continuous
100
AcDbCircle
 10
103.4127239999999
 20
255.25
 30
0.0
 40
0.5
100
AcDbArc
 50
90.0
 51
170.424239
  0
LINE
  5
A6FA
330
A5C8
100
AcDbEntity
  8
1
  6
Continuous
100
AcDbLine
 10
106.9913719999999
 20
254.2499999999999
 30
0.0
 11
102.9913719999999
 21
254.2499999999999
 31
0.0
  0
LINE
  5
A6FB
330
A5C8
100
AcDbEntity
  8
1
  6
Continuous
100
AcDbLine
 10
106.9913719999999
 20
255.25
 30
0.0
 11
102.9913719999999
 21
255.25
 31
0.0
  0
LINE
  5
A6FC
330
A5C8
100
AcDbEntity
  8
1
  6
Continuous
100
AcDbLine
 10
129.7913719999999
 20
252.2499999999999
 30
0.0
 11
128.7913719999999
 21
253.25
 31
0.0
  0
LINE
  5
A6FD
330
A5C8
100
AcDbEntity
  8
1
  6
Continuous
100
AcDbLine
 10
117.991372
 20
251.75
 30
0.0
 11
117.4913719999999
 21
251.75
 31
0.0
  0
LINE
  5
A6FE
330
A5C8
100
AcDbEntity
  8
1
  6
Continuous
100
AcDbLine
 10
129.9913719999999
 20
250.2499999999999
 30
0.0
 11
129.7913719999999
 21
250.2499999999999
 31
0.0
  0
LINE
  5
A6FF
330
A5C8
100
AcDbEntity
  8
1
  6
Continuous
100
AcDbLine
 10
131.9913719999999
 20
244.2499999999999
 30
0.0
 11
129.9913719999999
 21
244.2499999999999
 31
0.0
  0
LINE
  5
A700
330
A5C8
100
AcDbEntity
  8
2
  6
Continuous
100
AcDbLine
 10
129.9913719999999
 20
244.2499999999999
 30
0.0
 11
131.9913719999999
 21
249.9059999999999
 31
0.0
  0
LINE
  5
A701
330
A5C8
100
AcDbEntity
  8
2
  6
Continuous
100
AcDbLine
 10
129.9913719999999
 20
249.9059999999999
 30
0.0
 11
131.9913719999999
 21
244.2499999999999
 31
0.0
  0
LINE
  5
A702
330
A5C8
100
AcDbEntity
  8
1
  6
Continuous
100
AcDbLine
 10
131.9913719999999
 20
249.9059999999999
 30
0.0
 11
129.9913719999999
 21
249.9059999999999
 31
0.0
  0
LINE
  5
A703
330
A5C8
100
AcDbEntity
  8
1
  6
Continuous
100
AcDbLine
 10
122.4913719999999
 20
253.25
 30
0.0
 11
128.7913719999999
 21
253.25
 31
0.0
  0
LINE
  5
A704
330
A5C8
100
AcDbEntity
  8
2
  6
Continuous
100
AcDbLine
 10
129.332872
 20
252.7085
 30
0.0
 11
122.4913719999999
 21
252.7085
 31
0.0
  0
ARC
  5
A705
330
A5C8
100
AcDbEntity
  8
1
  6
Continuous
100
AcDbCircle
 10
117.991372
 20
256.7499999999999
 30
0.0
 40
2.0
100
AcDbArc
 50
270.0
 51
0.0
  0
LINE
  5
A706
330
A5C8
100
AcDbEntity
  8
1
  6
Continuous
100
AcDbLine
 10
122.4913719999999
 20
257.5
 30
0.0
 11
119.991372
 21
257.5
 31
0.0
  0
ARC
  5
A707
330
A5C8
100
AcDbEntity
  8
1
  6
Continuous
100
AcDbCircle
 10
112.2702599999998
 20
235.9711109999998
 30
0.0
 40
5.278888999999998
100
AcDbArc
 50
8.484849999999998
 51
180.0
  0
LINE
  5
A708
330
A5C8
100
AcDbEntity
  8
1
  6
Continuous
100
AcDbLine
 10
106.491372
 20
232.75
 30
0.0
 11
103.4127239999999
 21
232.75
 31
0.0
  0
ARC
  5
A709
330
A5C8
100
AcDbEntity
  8
1
  6
Continuous
100
AcDbCircle
 10
106.491372
 20
233.25
 30
0.0
 40
0.5
100
AcDbArc
 50
270.0
 51
0.0
  0
ARC
  5
A70A
330
A5C8
100
AcDbEntity
  8
1
  6
Continuous
100
AcDbCircle
 10
103.4127239999999
 20
233.25
 30
0.0
 40
0.5
100
AcDbArc
 50
189.575761
 51
270.0
  0
LINE
  5
A70B
330
A5C8
100
AcDbEntity
  8
1
  6
Continuous
100
AcDbLine
 10
106.9913719999999
 20
241.25
 30
0.0
 11
102.9913719999999
 21
241.25
 31
0.0
  0
LINE
  5
A70C
330
A5C8
100
AcDbEntity
  8
1
  6
Continuous
100
AcDbLine
 10
106.9913719999999
 20
240.2499999999998
 30
0.0
 11
102.9913719999999
 21
240.2499999999998
 31
0.0
  0
LINE
  5
A70D
330
A5C8
100
AcDbEntity
  8
1
  6
Continuous
100
AcDbLine
 10
106.9913719999999
 20
239.25
 30
0.0
 11
102.9913719999999
 21
239.25
 31
0.0
  0
LINE
  5
A70E
330
A5C8
100
AcDbEntity
  8
1
  6
Continuous
100
AcDbLine
 10
106.9913719999999
 20
238.2499999999998
 30
0.0
 11
102.9913719999999
 21
238.2499999999998
 31
0.0
  0
LINE
  5
A70F
330
A5C8
100
AcDbEntity
  8
1
  6
Continuous
100
AcDbLine
 10
106.9913719999999
 20
237.25
 30
0.0
 11
102.9913719999999
 21
237.25
 31
0.0
  0
LINE
  5
A710
330
A5C8
100
AcDbEntity
  8
1
  6
Continuous
100
AcDbLine
 10
106.9913719999999
 20
236.25
 30
0.0
 11
102.9913719999999
 21
236.25
 31
0.0
  0
LINE
  5
A711
330
A5C8
100
AcDbEntity
  8
1
  6
Continuous
100
AcDbLine
 10
106.9913719999999
 20
235.25
 30
0.0
 11
102.9913719999999
 21
235.25
 31
0.0
  0
LINE
  5
A712
330
A5C8
100
AcDbEntity
  8
1
  6
Continuous
100
AcDbLine
 10
106.9913719999999
 20
234.25
 30
0.0
 11
102.9913719999999
 21
234.25
 31
0.0
  0
LINE
  5
A713
330
A5C8
100
AcDbEntity
  8
1
  6
Continuous
100
AcDbLine
 10
106.9913719999999
 20
233.25
 30
0.0
 11
102.9913719999999
 21
233.25
 31
0.0
  0
LINE
  5
A714
330
A5C8
100
AcDbEntity
  8
1
  6
Continuous
100
AcDbLine
 10
122.4913719999999
 20
231.0
 30
0.0
 11
119.991372
 21
231.0
 31
0.0
  0
ARC
  5
A715
330
A5C8
100
AcDbEntity
  8
1
  6
Continuous
100
AcDbCircle
 10
117.991372
 20
231.7499999999999
 30
0.0
 40
2.0
100
AcDbArc
 50
0.0
 51
90.0
  0
LINE
  5
A716
330
A5C8
100
AcDbEntity
  8
1
  6
Continuous
100
AcDbLine
 10
128.7913719999999
 20
235.25
 30
0.0
 11
129.7913719999999
 21
236.25
 31
0.0
  0
LINE
  5
A717
330
A5C8
100
AcDbEntity
  8
1
  6
Continuous
100
AcDbLine
 10
117.991372
 20
236.75
 30
0.0
 11
117.4913719999999
 21
236.75
 31
0.0
  0
LINE
  5
A718
330
A5C8
100
AcDbEntity
  8
1
  6
Continuous
100
AcDbLine
 10
129.9913719999999
 20
238.2499999999998
 30
0.0
 11
129.7913719999999
 21
238.2499999999998
 31
0.0
  0
LINE
  5
A719
330
A5C8
100
AcDbEntity
  8
1
  6
Continuous
100
AcDbLine
 10
131.9913719999999
 20
238.594
 30
0.0
 11
129.9913719999999
 21
238.594
 31
0.0
  0
LINE
  5
A71A
330
A5C8
100
AcDbEntity
  8
2
  6
Continuous
100
AcDbLine
 10
129.332872
 20
235.7915
 30
0.0
 11
122.4913719999999
 21
235.7915
 31
0.0
  0
LINE
  5
A71B
330
A5C8
100
AcDbEntity
  8
1
  6
Continuous
100
AcDbLine
 10
122.4913719999999
 20
235.25
 30
0.0
 11
128.7913719999999
 21
235.25
 31
0.0
  0
LINE
  5
A71C
330
A5C8
100
AcDbEntity
  8
1
  6
Continuous
100
AcDbLine
 10
188.691372
 20
239.25
 30
0.0
 11
188.691372
 21
249.25
 31
0.0
  0
ARC
  5
A71D
330
A5C8
100
AcDbEntity
  8
1
  6
Continuous
100
AcDbCircle
 10
181.46608
 20
241.7499999999999
 30
0.0
 40
7.225291999999997
100
AcDbArc
 50
339.756734
 51
20.24326599999999
  0
ARC
  5
A71E
330
A5C8
100
AcDbEntity
  8
1
  6
Continuous
100
AcDbCircle
 10
191.916664
 20
241.7499999999999
 30
0.0
 40
7.225291999999997
100
AcDbArc
 50
159.7567339999999
 51
200.243266
  0
LINE
  5
A71F
330
A5C8
100
AcDbEntity
  8
1
  6
Continuous
100
AcDbLine
 10
169.432629
 20
231.7499999999999
 30
0.0
 11
169.432629
 21
256.7499999999999
 31
0.0
  0
LINE
  5
A720
330
A5C8
100
AcDbEntity
  8
1
  6
Continuous
100
AcDbLine
 10
166.4326289999999
 20
231.25
 30
0.0
 11
166.4326289999999
 21
257.25
 31
0.0
  0
LINE
  5
A721
330
A5C8
100
AcDbEntity
  8
1
  6
Continuous
100
AcDbLine
 10
184.691372
 20
250.3499999999999
 30
0.0
 11
184.691372
 21
238.1499999999999
 31
0.0
  0
LINE
  5
A722
330
A5C8
100
AcDbEntity
  8
1
  6
Continuous
100
AcDbLine
 10
183.191372
 20
236.4
 30
0.0
 11
183.191372
 21
252.0999999999999
 31
0.0
  0
LINE
  5
A723
330
A5C8
100
AcDbEntity
  8
1
  6
Continuous
100
AcDbLine
 10
181.9913719999999
 20
236.4
 30
0.0
 11
181.9913719999999
 21
252.0999999999999
 31
0.0
  0
LINE
  5
A724
330
A5C8
100
AcDbEntity
  8
1
  6
Continuous
100
AcDbLine
 10
165.432629
 20
234.5
 30
0.0
 11
165.432629
 21
254.0
 31
0.0
  0
ARC
  5
A725
330
A5C8
100
AcDbEntity
  8
1
  6
Continuous
100
AcDbCircle
 10
168.9326289999999
 20
256.7499999999999
 30
0.0
 40
0.5
100
AcDbArc
 50
0.0
 51
90.0
  0
LINE
  5
A726
330
A5C8
100
AcDbEntity
  8
1
  6
Continuous
100
AcDbLine
 10
168.9326289999999
 20
257.25
 30
0.0
 11
166.4326289999999
 21
257.25
 31
0.0
  0
LINE
  5
A727
330
A5C8
100
AcDbEntity
  8
1
  6
Continuous
100
AcDbLine
 10
166.4326289999999
 20
244.2499999999999
 30
0.0
 11
169.432629
 21
244.2499999999999
 31
0.0
  0
ARC
  5
A728
330
A5C8
100
AcDbEntity
  8
1
  6
Continuous
100
AcDbCircle
 10
165.9326289999999
 20
254.0
 30
0.0
 40
0.5
100
AcDbArc
 50
0.0
 51
180.0
  0
ARC
  5
A729
330
A5C8
100
AcDbEntity
  8
1
  6
Continuous
100
AcDbCircle
 10
181.46608
 20
246.75
 30
0.0
 40
7.225291999999997
100
AcDbArc
 50
339.756734
 51
20.24326599999999
  0
LINE
  5
A72A
330
A5C8
100
AcDbEntity
  8
1
  6
Continuous
100
AcDbLine
 10
184.691372
 20
249.25
 30
0.0
 11
188.691372
 21
249.25
 31
0.0
  0
LINE
  5
A72B
330
A5C8
100
AcDbEntity
  8
1
  6
Continuous
100
AcDbLine
 10
188.2450799999998
 20
244.2499999999999
 30
0.0
 11
185.1376639999998
 21
244.2499999999999
 31
0.0
  0
ARC
  5
A72C
330
A5C8
100
AcDbEntity
  8
1
  6
Continuous
100
AcDbCircle
 10
191.916664
 20
246.75
 30
0.0
 40
7.225291999999997
100
AcDbArc
 50
159.7567339999999
 51
200.243266
  0
LINE
  5
A72D
330
A5C8
100
AcDbEntity
  8
1
  6
Continuous
100
AcDbLine
 10
184.691372
 20
250.3499999999999
 30
0.0
 11
183.191372
 21
250.3499999999999
 31
0.0
  0
LINE
  5
A72E
330
A5C8
100
AcDbEntity
  8
1
  6
Continuous
100
AcDbLine
 10
183.191372
 20
252.0999999999999
 30
0.0
 11
181.9913719999999
 21
252.0999999999999
 31
0.0
  0
LINE
  5
A72F
330
A5C8
100
AcDbEntity
  8
1
  6
Continuous
100
AcDbLine
 10
184.691372
 20
244.2499999999999
 30
0.0
 11
183.191372
 21
242.75
 31
0.0
  0
LINE
  5
A730
330
A5C8
100
AcDbEntity
  8
1
  6
Continuous
100
AcDbLine
 10
184.691372
 20
245.75
 30
0.0
 11
183.191372
 21
244.2499999999999
 31
0.0
  0
ARC
  5
A731
330
A5C8
100
AcDbEntity
  8
1
  6
Continuous
100
AcDbCircle
 10
168.9326289999999
 20
231.7499999999999
 30
0.0
 40
0.5
100
AcDbArc
 50
270.0
 51
0.0
  0
LINE
  5
A732
330
A5C8
100
AcDbEntity
  8
1
  6
Continuous
100
AcDbLine
 10
168.9326289999999
 20
231.25
 30
0.0
 11
166.4326289999999
 21
231.25
 31
0.0
  0
ARC
  5
A733
330
A5C8
100
AcDbEntity
  8
1
  6
Continuous
100
AcDbCircle
 10
165.9326289999999
 20
234.5
 30
0.0
 40
0.5
100
AcDbArc
 50
180.0
 51
0.0
  0
LINE
  5
A734
330
A5C8
100
AcDbEntity
  8
1
  6
Continuous
100
AcDbLine
 10
184.691372
 20
239.25
 30
0.0
 11
188.691372
 21
239.25
 31
0.0
  0
LINE
  5
A735
330
A5C8
100
AcDbEntity
  8
1
  6
Continuous
100
AcDbLine
 10
184.691372
 20
238.1499999999999
 30
0.0
 11
183.191372
 21
238.1499999999999
 31
0.0
  0
LINE
  5
A736
330
A5C8
100
AcDbEntity
  8
1
  6
Continuous
100
AcDbLine
 10
183.191372
 20
236.4
 30
0.0
 11
181.9913719999999
 21
236.4
 31
0.0
  0
LINE
  5
A737
330
A5C8
100
AcDbEntity
  8
4
  6
CENTER
100
AcDbLine
 10
349.991394
 20
149.2499999999998
 30
0.0
 11
389.991394
 21
149.2499999999998
 31
0.0
  0
LINE
  5
A738
330
A5C8
100
AcDbEntity
  8
4
  6
CENTER
100
AcDbLine
 10
293.2913939999999
 20
149.2499999999998
 30
0.0
 11
326.5501369999999
 21
149.2499999999998
 31
0.0
  0
LINE
  5
A739
330
A5C8
100
AcDbEntity
  8
1
  6
Continuous
100
AcDbLine
 10
364.491394
 20
162.5
 30
0.0
 11
364.491394
 21
136.0
 31
0.0
  0
LINE
  5
A73A
330
A5C8
100
AcDbEntity
  8
1
  6
Continuous
100
AcDbLine
 10
366.991394
 20
162.5
 30
0.0
 11
366.991394
 21
136.0
 31
0.0
  0
ARC
  5
A73B
330
A5C8
100
AcDbEntity
  8
1
  6
Continuous
100
AcDbCircle
 10
318.366394
 20
149.2499999999998
 30
0.0
 40
66.625
100
AcDbArc
 50
350.4242389999998
 51
9.575760999999998
  0
LINE
  5
A73C
330
A5C8
100
AcDbEntity
  8
1
  6
Continuous
100
AcDbLine
 10
383.991394
 20
160.5191879999999
 30
0.0
 11
383.991394
 21
137.9808129999998
 31
0.0
  0
LINE
  5
A73D
330
A5C8
100
AcDbEntity
  8
1
  6
Continuous
100
AcDbLine
 10
379.991394
 20
160.25
 30
0.0
 11
379.991394
 21
138.25
 31
0.0
  0
LINE
  5
A73E
330
A5C8
100
AcDbEntity
  8
1
  6
Continuous
100
AcDbLine
 10
368.991394
 20
159.75
 30
0.0
 11
368.991394
 21
138.7499999999998
 31
0.0
  0
LINE
  5
A73F
330
A5C8
100
AcDbEntity
  8
1
  6
Continuous
100
AcDbLine
 10
379.991394
 20
138.25
 30
0.0
 11
383.991394
 21
138.25
 31
0.0
  0
LINE
  5
A740
330
A5C8
100
AcDbEntity
  8
1
  6
Continuous
100
AcDbLine
 10
379.991394
 20
139.25
 30
0.0
 11
383.991394
 21
139.25
 31
0.0
  0
ARC
  5
A741
330
A5C8
100
AcDbEntity
  8
1
  6
Continuous
100
AcDbCircle
 10
383.570042
 20
138.25
 30
0.0
 40
0.5
100
AcDbArc
 50
270.0
 51
350.4242389999998
  0
ARC
  5
A742
330
A5C8
100
AcDbEntity
  8
1
  6
Continuous
100
AcDbCircle
 10
380.491394
 20
138.25
 30
0.0
 40
0.5
100
AcDbArc
 50
180.0
 51
270.0
  0
LINE
  5
A743
330
A5C8
100
AcDbEntity
  8
1
  6
Continuous
100
AcDbLine
 10
380.491394
 20
137.7499999999998
 30
0.0
 11
383.570042
 21
137.7499999999998
 31
0.0
  0
LINE
  5
A744
330
A5C8
100
AcDbEntity
  8
1
  6
Continuous
100
AcDbLine
 10
364.491394
 20
136.0
 30
0.0
 11
366.991394
 21
136.0
 31
0.0
  0
ARC
  5
A745
330
A5C8
100
AcDbEntity
  8
1
  6
Continuous
100
AcDbCircle
 10
368.991394
 20
136.7499999999998
 30
0.0
 40
2.0
100
AcDbArc
 50
90.0
 51
180.0
  0
ARC
  5
A746
330
A5C8
100
AcDbEntity
  8
1
  6
Continuous
100
AcDbCircle
 10
374.712506
 20
140.971111
 30
0.0
 40
5.278888999999998
100
AcDbArc
 50
0.0
 51
171.51515
  0
ARC
  5
A747
330
A5C8
100
AcDbEntity
  8
1
  6
Continuous
100
AcDbCircle
 10
374.712506
 20
157.5288889999999
 30
0.0
 40
5.278888999999998
100
AcDbArc
 50
188.48485
 51
0.0
  0
LINE
  5
A748
330
A5C8
100
AcDbEntity
  8
1
  6
Continuous
100
AcDbLine
 10
379.991394
 20
140.25
 30
0.0
 11
383.991394
 21
140.25
 31
0.0
  0
LINE
  5
A749
330
A5C8
100
AcDbEntity
  8
1
  6
Continuous
100
AcDbLine
 10
379.991394
 20
141.25
 30
0.0
 11
383.991394
 21
141.25
 31
0.0
  0
LINE
  5
A74A
330
A5C8
100
AcDbEntity
  8
1
  6
Continuous
100
AcDbLine
 10
379.991394
 20
142.25
 30
0.0
 11
383.991394
 21
142.25
 31
0.0
  0
LINE
  5
A74B
330
A5C8
100
AcDbEntity
  8
1
  6
Continuous
100
AcDbLine
 10
379.991394
 20
143.25
 30
0.0
 11
383.991394
 21
143.25
 31
0.0
  0
LINE
  5
A74C
330
A5C8
100
AcDbEntity
  8
1
  6
Continuous
100
AcDbLine
 10
379.991394
 20
144.25
 30
0.0
 11
383.991394
 21
144.25
 31
0.0
  0
LINE
  5
A74D
330
A5C8
100
AcDbEntity
  8
1
  6
Continuous
100
AcDbLine
 10
379.991394
 20
145.25
 30
0.0
 11
383.991394
 21
145.25
 31
0.0
  0
LINE
  5
A74E
330
A5C8
100
AcDbEntity
  8
1
  6
Continuous
100
AcDbLine
 10
379.991394
 20
146.25
 30
0.0
 11
383.991394
 21
146.25
 31
0.0
  0
LINE
  5
A74F
330
A5C8
100
AcDbEntity
  8
1
  6
Continuous
100
AcDbLine
 10
379.991394
 20
147.2499999999998
 30
0.0
 11
383.991394
 21
147.2499999999998
 31
0.0
  0
LINE
  5
A750
330
A5C8
100
AcDbEntity
  8
1
  6
Continuous
100
AcDbLine
 10
379.991394
 20
148.2499999999998
 30
0.0
 11
383.991394
 21
148.2499999999998
 31
0.0
  0
LINE
  5
A751
330
A5C8
100
AcDbEntity
  8
1
  6
Continuous
100
AcDbLine
 10
379.991394
 20
160.25
 30
0.0
 11
383.991394
 21
160.25
 31
0.0
  0
LINE
  5
A752
330
A5C8
100
AcDbEntity
  8
1
  6
Continuous
100
AcDbLine
 10
379.991394
 20
159.25
 30
0.0
 11
383.991394
 21
159.25
 31
0.0
  0
LINE
  5
A753
330
A5C8
100
AcDbEntity
  8
1
  6
Continuous
100
AcDbLine
 10
379.991394
 20
158.25
 30
0.0
 11
383.991394
 21
158.25
 31
0.0
  0
LINE
  5
A754
330
A5C8
100
AcDbEntity
  8
1
  6
Continuous
100
AcDbLine
 10
379.991394
 20
157.2499999999998
 30
0.0
 11
383.991394
 21
157.2499999999998
 31
0.0
  0
LINE
  5
A755
330
A5C8
100
AcDbEntity
  8
1
  6
Continuous
100
AcDbLine
 10
379.991394
 20
156.25
 30
0.0
 11
383.991394
 21
156.25
 31
0.0
  0
LINE
  5
A756
330
A5C8
100
AcDbEntity
  8
1
  6
Continuous
100
AcDbLine
 10
379.991394
 20
155.25
 30
0.0
 11
383.991394
 21
155.25
 31
0.0
  0
LINE
  5
A757
330
A5C8
100
AcDbEntity
  8
1
  6
Continuous
100
AcDbLine
 10
379.991394
 20
154.2499999999998
 30
0.0
 11
383.991394
 21
154.2499999999998
 31
0.0
  0
LINE
  5
A758
330
A5C8
100
AcDbEntity
  8
1
  6
Continuous
100
AcDbLine
 10
379.991394
 20
153.2499999999998
 30
0.0
 11
383.991394
 21
153.2499999999998
 31
0.0
  0
LINE
  5
A759
330
A5C8
100
AcDbEntity
  8
1
  6
Continuous
100
AcDbLine
 10
379.991394
 20
152.2499999999998
 30
0.0
 11
383.991394
 21
152.2499999999998
 31
0.0
  0
LINE
  5
A75A
330
A5C8
100
AcDbEntity
  8
1
  6
Continuous
100
AcDbLine
 10
379.991394
 20
151.25
 30
0.0
 11
383.991394
 21
151.25
 31
0.0
  0
LINE
  5
A75B
330
A5C8
100
AcDbEntity
  8
1
  6
Continuous
100
AcDbLine
 10
379.991394
 20
150.2499999999998
 30
0.0
 11
383.991394
 21
150.2499999999998
 31
0.0
  0
ARC
  5
A75C
330
A5C8
100
AcDbEntity
  8
1
  6
Continuous
100
AcDbCircle
 10
383.570042
 20
160.25
 30
0.0
 40
0.5
100
AcDbArc
 50
9.575760999999998
 51
90.0
  0
ARC
  5
A75D
330
A5C8
100
AcDbEntity
  8
1
  6
Continuous
100
AcDbCircle
 10
380.491394
 20
160.25
 30
0.0
 40
0.5
100
AcDbArc
 50
90.0
 51
180.0
  0
LINE
  5
A75E
330
A5C8
100
AcDbEntity
  8
1
  6
Continuous
100
AcDbLine
 10
380.491394
 20
160.7499999999998
 30
0.0
 11
383.570042
 21
160.7499999999998
 31
0.0
  0
LINE
  5
A75F
330
A5C8
100
AcDbEntity
  8
1
  6
Continuous
100
AcDbLine
 10
354.991394
 20
154.906
 30
0.0
 11
354.991394
 21
143.5939999999999
 31
0.0
  0
LINE
  5
A760
330
A5C8
100
AcDbEntity
  8
1
  6
Continuous
100
AcDbLine
 10
363.2913939999999
 20
161.5
 30
0.0
 11
363.2913939999999
 21
159.0
 31
0.0
  0
LINE
  5
A761
330
A5C8
100
AcDbEntity
  8
1
  6
Continuous
100
AcDbLine
 10
364.491394
 20
158.25
 30
0.0
 11
358.191394
 21
158.25
 31
0.0
  0
LINE
  5
A762
330
A5C8
100
AcDbEntity
  8
2
  6
Continuous
100
AcDbLine
 10
357.649894
 20
157.7084999999998
 30
0.0
 11
364.491394
 21
157.7084999999998
 31
0.0
  0
LINE
  5
A763
330
A5C8
100
AcDbEntity
  8
2
  6
Continuous
100
AcDbLine
 10
357.649894
 20
140.7915
 30
0.0
 11
364.491394
 21
140.7915
 31
0.0
  0
LINE
  5
A764
330
A5C8
100
AcDbEntity
  8
1
  6
Continuous
100
AcDbLine
 10
364.491394
 20
140.25
 30
0.0
 11
358.191394
 21
140.25
 31
0.0
  0
LINE
  5
A765
330
A5C8
100
AcDbEntity
  8
1
  6
Continuous
100
AcDbLine
 10
354.991394
 20
143.5939999999999
 30
0.0
 11
356.991394
 21
143.5939999999999
 31
0.0
  0
LINE
  5
A766
330
A5C8
100
AcDbEntity
  8
2
  6
Continuous
100
AcDbLine
 10
356.991394
 20
143.5939999999999
 30
0.0
 11
354.991394
 21
149.2499999999998
 31
0.0
  0
LINE
  5
A767
330
A5C8
100
AcDbEntity
  8
2
  6
Continuous
100
AcDbLine
 10
356.991394
 20
149.2499999999998
 30
0.0
 11
354.991394
 21
143.5939999999999
 31
0.0
  0
LINE
  5
A768
330
A5C8
100
AcDbEntity
  8
1
  6
Continuous
100
AcDbLine
 10
354.991394
 20
149.2499999999998
 30
0.0
 11
356.991394
 21
149.2499999999998
 31
0.0
  0
LINE
  5
A769
330
A5C8
100
AcDbEntity
  8
2
  6
Continuous
100
AcDbLine
 10
354.991394
 20
154.906
 30
0.0
 11
356.991394
 21
149.2499999999998
 31
0.0
  0
LINE
  5
A76A
330
A5C8
100
AcDbEntity
  8
2
  6
Continuous
100
AcDbLine
 10
354.991394
 20
149.2499999999998
 30
0.0
 11
356.991394
 21
154.906
 31
0.0
  0
LINE
  5
A76B
330
A5C8
100
AcDbEntity
  8
1
  6
Continuous
100
AcDbLine
 10
354.991394
 20
154.906
 30
0.0
 11
356.991394
 21
154.906
 31
0.0
  0
LINE
  5
A76C
330
A5C8
100
AcDbEntity
  8
1
  6
Continuous
100
AcDbLine
 10
356.991394
 20
155.25
 30
0.0
 11
356.991394
 21
143.25
 31
0.0
  0
LINE
  5
A76D
330
A5C8
100
AcDbEntity
  8
1
  6
Continuous
100
AcDbLine
 10
363.2913939999999
 20
159.0
 30
0.0
 11
364.491394
 21
159.0
 31
0.0
  0
LINE
  5
A76E
330
A5C8
100
AcDbEntity
  8
1
  6
Continuous
100
AcDbLine
 10
363.2913939999999
 20
161.5
 30
0.0
 11
364.491394
 21
161.5
 31
0.0
  0
LINE
  5
A76F
330
A5C8
100
AcDbEntity
  8
1
  6
Continuous
100
AcDbLine
 10
356.991394
 20
155.25
 30
0.0
 11
357.1913939999998
 21
155.25
 31
0.0
  0
LINE
  5
A770
330
A5C8
100
AcDbEntity
  8
1
  6
Continuous
100
AcDbLine
 10
356.991394
 20
143.25
 30
0.0
 11
357.1913939999998
 21
143.25
 31
0.0
  0
LINE
  5
A771
330
A5C8
100
AcDbEntity
  8
1
  6
Continuous
100
AcDbLine
 10
368.991394
 20
156.75
 30
0.0
 11
369.491394
 21
156.75
 31
0.0
  0
LINE
  5
A772
330
A5C8
100
AcDbEntity
  8
1
  6
Continuous
100
AcDbLine
 10
368.991394
 20
141.7499999999998
 30
0.0
 11
369.491394
 21
141.7499999999998
 31
0.0
  0
LINE
  5
A773
330
A5C8
100
AcDbEntity
  8
1
  6
Continuous
100
AcDbLine
 10
369.491394
 20
156.75
 30
0.0
 11
369.491394
 21
141.7499999999998
 31
0.0
  0
LINE
  5
A774
330
A5C8
100
AcDbEntity
  8
1
  6
Continuous
100
AcDbLine
 10
358.191394
 20
158.25
 30
0.0
 11
358.191394
 21
140.25
 31
0.0
  0
LINE
  5
A775
330
A5C8
100
AcDbEntity
  8
1
  6
Continuous
100
AcDbLine
 10
357.1913939999998
 20
141.25
 30
0.0
 11
358.191394
 21
140.25
 31
0.0
  0
LINE
  5
A776
330
A5C8
100
AcDbEntity
  8
1
  6
Continuous
100
AcDbLine
 10
358.191394
 20
158.25
 30
0.0
 11
357.1913939999998
 21
157.2499999999998
 31
0.0
  0
LINE
  5
A777
330
A5C8
100
AcDbEntity
  8
1
  6
Continuous
100
AcDbLine
 10
357.1913939999998
 20
157.2499999999998
 30
0.0
 11
357.1913939999998
 21
141.25
 31
0.0
  0
ARC
  5
A778
330
A5C8
100
AcDbEntity
  8
1
  6
Continuous
100
AcDbCircle
 10
368.991394
 20
161.7499999999998
 30
0.0
 40
2.0
100
AcDbArc
 50
180.0
 51
270.0
  0
LINE
  5
A779
330
A5C8
100
AcDbEntity
  8
1
  6
Continuous
100
AcDbLine
 10
364.491394
 20
162.5
 30
0.0
 11
366.991394
 21
162.5
 31
0.0
  0
LINE
  5
A77A
330
A5C8
100
AcDbEntity
  8
1
  6
Continuous
100
AcDbLine
 10
320.550137
 20
164.261107
 30
0.0
 11
320.550137
 21
134.238893
 31
0.0
  0
LINE
  5
A77B
330
A5C8
100
AcDbEntity
  8
1
  6
Continuous
100
AcDbLine
 10
317.550137
 20
163.761107
 30
0.0
 11
317.550137
 21
134.7388929999999
 31
0.0
  0
LINE
  5
A77C
330
A5C8
100
AcDbEntity
  8
1
  6
Continuous
100
AcDbLine
 10
321.550137
 20
159.0
 30
0.0
 11
321.550137
 21
139.5
 31
0.0
  0
ARC
  5
A77D
330
A5C8
100
AcDbEntity
  8
1
  6
Continuous
100
AcDbCircle
 10
321.050137
 20
139.5
 30
0.0
 40
0.5
100
AcDbArc
 50
180.0
 51
0.0
  0
ARC
  5
A77E
330
A5C8
100
AcDbEntity
  8
1
  6
Continuous
100
AcDbCircle
 10
318.0501369999999
 20
134.7388929999999
 30
0.0
 40
0.5
100
AcDbArc
 50
180.0
 51
270.0
  0
LINE
  5
A77F
330
A5C8
100
AcDbEntity
  8
1
  6
Continuous
100
AcDbLine
 10
318.0501369999999
 20
134.238893
 30
0.0
 11
320.550137
 21
134.238893
 31
0.0
  0
ARC
  5
A780
330
A5C8
100
AcDbEntity
  8
1
  6
Continuous
100
AcDbCircle
 10
321.050137
 20
159.0
 30
0.0
 40
0.5
100
AcDbArc
 50
0.0
 51
180.0
  0
LINE
  5
A781
330
A5C8
100
AcDbEntity
  8
1
  6
Continuous
100
AcDbLine
 10
320.550137
 20
141.744447
 30
0.0
 11
317.550137
 21
141.744447
 31
0.0
  0
LINE
  5
A782
330
A5C8
100
AcDbEntity
  8
1
  6
Continuous
100
AcDbLine
 10
320.550137
 20
156.7555539999999
 30
0.0
 11
317.550137
 21
156.7555539999999
 31
0.0
  0
LINE
  5
A783
330
A5C8
100
AcDbEntity
  8
1
  6
Continuous
100
AcDbLine
 10
302.2913939999999
 20
147.75
 30
0.0
 11
303.7913939999999
 21
149.2499999999998
 31
0.0
  0
LINE
  5
A784
330
A5C8
100
AcDbEntity
  8
1
  6
Continuous
100
AcDbLine
 10
302.2913939999999
 20
149.2499999999998
 30
0.0
 11
303.7913939999999
 21
150.75
 31
0.0
  0
LINE
  5
A785
330
A5C8
100
AcDbEntity
  8
1
  6
Continuous
100
AcDbLine
 10
298.2913939999999
 20
154.2499999999998
 30
0.0
 11
298.7376859999999
 21
155.0229999999999
 31
0.0
  0
LINE
  5
A786
330
A5C8
100
AcDbEntity
  8
1
  6
Continuous
100
AcDbLine
 10
302.2913939999999
 20
154.2499999999998
 30
0.0
 11
301.845102
 21
155.0229999999999
 31
0.0
  0
LINE
  5
A787
330
A5C8
100
AcDbEntity
  8
1
  6
Continuous
100
AcDbLine
 10
301.845102
 20
155.0229999999999
 30
0.0
 11
298.7376859999999
 21
155.0229999999999
 31
0.0
  0
LINE
  5
A788
330
A5C8
100
AcDbEntity
  8
1
  6
Continuous
100
AcDbLine
 10
301.845102
 20
152.137
 30
0.0
 11
298.7376859999999
 21
152.137
 31
0.0
  0
ARC
  5
A789
330
A5C8
100
AcDbEntity
  8
1
  6
Continuous
100
AcDbCircle
 10
300.8473739999999
 20
153.58
 30
0.0
 40
2.555979999999999
100
AcDbArc
 50
154.371637
 51
214.371637
  0
ARC
  5
A78A
330
A5C8
100
AcDbEntity
  8
1
  6
Continuous
100
AcDbCircle
 10
299.735414
 20
153.58
 30
0.0
 40
2.555979999999999
100
AcDbArc
 50
325.6283629999999
 51
25.628363
  0
ARC
  5
A78B
330
A5C8
100
AcDbEntity
  8
1
  6
Continuous
100
AcDbCircle
 10
300.847394
 20
144.9199999999999
 30
0.0
 40
2.55582
100
AcDbArc
 50
214.3528569999999
 51
214.3839999999999
  0
LINE
  5
A78C
330
A5C8
100
AcDbEntity
  8
1
  6
Continuous
100
AcDbLine
 10
298.2913939999999
 20
144.249
 30
0.0
 11
298.7376859999999
 21
143.4759999999999
 31
0.0
  0
ARC
  5
A78D
330
A5C8
100
AcDbEntity
  8
1
  6
Continuous
100
AcDbCircle
 10
300.8473739999999
 20
144.9189999999999
 30
0.0
 40
2.555979999999999
100
AcDbArc
 50
145.6283629999998
 51
205.6283629999998
  0
LINE
  5
A78E
330
A5C8
100
AcDbEntity
  8
1
  6
Continuous
100
AcDbLine
 10
302.2913939999999
 20
144.249
 30
0.0
 11
301.845102
 21
143.4759999999999
 31
0.0
  0
ARC
  5
A78F
330
A5C8
100
AcDbEntity
  8
1
  6
Continuous
100
AcDbCircle
 10
299.735414
 20
144.9189999999999
 30
0.0
 40
2.555979999999999
100
AcDbArc
 50
334.371637
 51
34.371637
  0
ARC
  5
A790
330
A5C8
100
AcDbEntity
  8
1
  6
Continuous
100
AcDbCircle
 10
299.7353939999999
 20
144.9199999999999
 30
0.0
 40
2.55582
100
AcDbArc
 50
325.6159999999998
 51
325.647143
  0
LINE
  5
A791
330
A5C8
100
AcDbEntity
  8
1
  6
Continuous
100
AcDbLine
 10
301.845102
 20
143.4759999999999
 30
0.0
 11
298.7376859999999
 21
143.4759999999999
 31
0.0
  0
LINE
  5
A792
330
A5C8
100
AcDbEntity
  8
1
  6
Continuous
100
AcDbLine
 10
301.845102
 20
146.363
 30
0.0
 11
298.7376859999999
 21
146.363
 31
0.0
  0
ARC
  5
A793
330
A5C8
100
AcDbEntity
  8
1
  6
Continuous
100
AcDbCircle
 10
292.7304449999999
 20
149.2499999999998
 30
0.0
 40
9.560949
100
AcDbArc
 50
342.4247879999999
 51
17.575212
  0
ARC
  5
A794
330
A5C8
100
AcDbEntity
  8
1
  6
Continuous
100
AcDbCircle
 10
307.852343
 20
149.2499999999998
 30
0.0
 40
9.560949
100
AcDbArc
 50
162.4247879999998
 51
197.5752119999999
  0
LINE
  5
A795
330
A5C8
100
AcDbEntity
  8
1
  6
Continuous
100
AcDbLine
 10
298.2913939999999
 20
154.2499999999998
 30
0.0
 11
298.2913939999999
 21
144.249
 31
0.0
  0
LINE
  5
A796
330
A5C8
100
AcDbEntity
  8
1
  6
Continuous
100
AcDbLine
 10
304.991394
 20
157.0999999999999
 30
0.0
 11
304.991394
 21
141.4
 31
0.0
  0
LINE
  5
A797
330
A5C8
100
AcDbEntity
  8
1
  6
Continuous
100
AcDbLine
 10
303.7913939999999
 20
157.0999999999999
 30
0.0
 11
304.991394
 21
157.0999999999999
 31
0.0
  0
LINE
  5
A798
330
A5C8
100
AcDbEntity
  8
1
  6
Continuous
100
AcDbLine
 10
303.7913939999999
 20
141.4
 30
0.0
 11
304.991394
 21
141.4
 31
0.0
  0
LINE
  5
A799
330
A5C8
100
AcDbEntity
  8
1
  6
Continuous
100
AcDbLine
 10
303.7913939999999
 20
157.0999999999999
 30
0.0
 11
303.7913939999999
 21
141.4
 31
0.0
  0
LINE
  5
A79A
330
A5C8
100
AcDbEntity
  8
1
  6
Continuous
100
AcDbLine
 10
302.2913939999999
 20
143.1499999999998
 30
0.0
 11
303.7913939999999
 21
143.1499999999998
 31
0.0
  0
LINE
  5
A79B
330
A5C8
100
AcDbEntity
  8
1
  6
Continuous
100
AcDbLine
 10
302.2913939999999
 20
155.3499999999999
 30
0.0
 11
303.7913939999999
 21
155.3499999999999
 31
0.0
  0
LINE
  5
A79C
330
A5C8
100
AcDbEntity
  8
1
  6
Continuous
100
AcDbLine
 10
302.2913939999999
 20
143.1499999999998
 30
0.0
 11
302.2913939999999
 21
155.3499999999999
 31
0.0
  0
ARC
  5
A79D
330
A5C8
100
AcDbEntity
  8
1
  6
Continuous
100
AcDbCircle
 10
318.0501369999999
 20
163.761107
 30
0.0
 40
0.5
100
AcDbArc
 50
90.0
 51
180.0
  0
LINE
  5
A79E
330
A5C8
100
AcDbEntity
  8
1
  6
Continuous
100
AcDbLine
 10
318.0501369999999
 20
164.261107
 30
0.0
 11
320.550137
 21
164.261107
 31
0.0
  0
LINE
  5
A79F
330
A5C8
100
AcDbEntity
  8
1
  6
Continuous
100
AcDbLine
 10
123.6913719999999
 20
245.5
 30
0.0
 11
122.4913719999999
 21
245.5
 31
0.0
  0
LINE
  5
A7A0
330
A5C8
100
AcDbEntity
  8
1
  6
Continuous
100
AcDbLine
 10
123.6913719999999
 20
245.5
 30
0.0
 11
123.6913719999999
 21
243.0
 31
0.0
  0
LINE
  5
A7A1
330
A5C8
100
AcDbEntity
  8
1
  6
Continuous
100
AcDbLine
 10
123.6913719999999
 20
243.0
 30
0.0
 11
122.4913719999999
 21
243.0
 31
0.0
  0
LINE
  5
A7A2
330
A5C8
100
AcDbEntity
  8
1
  6
Continuous
100
AcDbLine
 10
166.4326289999999
 20
244.2499999999999
 30
0.0
 11
165.432629
 21
243.25
 31
0.0
  0
LINE
  5
A7A3
330
A5C8
100
AcDbEntity
  8
1
  6
Continuous
100
AcDbLine
 10
166.4326289999999
 20
245.25
 30
0.0
 11
165.432629
 21
244.2499999999999
 31
0.0
  0
LINE
  5
A7A4
330
A5C8
100
AcDbEntity
  8
1
  6
Continuous
100
AcDbLine
 10
166.4326289999999
 20
149.2499999999998
 30
0.0
 11
165.432629
 21
148.2499999999998
 31
0.0
  0
LINE
  5
A7A5
330
A5C8
100
AcDbEntity
  8
1
  6
Continuous
100
AcDbLine
 10
166.4326289999999
 20
150.2499999999998
 30
0.0
 11
165.432629
 21
149.2499999999998
 31
0.0
  0
LINE
  5
A7A6
330
A5C8
100
AcDbEntity
  8
1
  6
Continuous
100
AcDbLine
 10
166.4326289999999
 20
55.25
 30
0.0
 11
165.432629
 21
54.25
 31
0.0
  0
LINE
  5
A7A7
330
A5C8
100
AcDbEntity
  8
1
  6
Continuous
100
AcDbLine
 10
166.4326289999999
 20
54.25
 30
0.0
 11
165.432629
 21
53.25
 31
0.0
  0
LINE
  5
A7A8
330
A5C8
100
AcDbEntity
  8
1
  6
Continuous
100
AcDbLine
 10
321.550137
 20
149.2499999999998
 30
0.0
 11
320.550137
 21
148.2499999999998
 31
0.0
  0
LINE
  5
A7A9
330
A5C8
100
AcDbEntity
  8
1
  6
Continuous
100
AcDbLine
 10
321.550137
 20
150.2499999999998
 30
0.0
 11
320.550137
 21
149.2499999999998
 31
0.0
  0
CIRCLE
  5
A7AA
330
A5C8
100
AcDbEntity
  8
1
  6
Continuous
100
AcDbCircle
 10
243.491383
 20
149.2499999999998
 30
0.0
 40
4.049999999999998
  0
LINE
  5
A7AB
330
A5C8
100
AcDbEntity
  8
1
  6
Continuous
100
AcDbLine
 10
244.844874
 20
146.461082
 30
0.0
 11
243.494348
 21
147.7652699999999
 31
0.0
  0
LINE
  5
A7AC
330
A5C8
100
AcDbEntity
  8
1
  6
Continuous
100
AcDbLine
 10
243.494348
 20
150.73473
 30
0.0
 11
244.844874
 21
152.038918
 31
0.0
  0
ARC
  5
A7AD
330
A5C8
100
AcDbEntity
  8
1
  6
Continuous
100
AcDbCircle
 10
243.491383
 20
149.2499999999998
 30
0.0
 40
3.1
100
AcDbArc
 50
205.887785
 51
244.112215
  0
LINE
  5
A7AE
330
A5C8
100
AcDbEntity
  8
1
  6
Continuous
100
AcDbLine
 10
243.488418
 20
147.7652699999999
 30
0.0
 11
242.1378919999999
 21
146.461082
 31
0.0
  0
LINE
  5
A7AF
330
A5C8
100
AcDbEntity
  8
1
  6
Continuous
100
AcDbLine
 10
243.491383
 20
147.766177
 30
0.0
 11
243.488418
 21
147.7652699999999
 31
0.0
  0
LINE
  5
A7B0
330
A5C8
100
AcDbEntity
  8
1
  6
Continuous
100
AcDbLine
 10
243.491383
 20
147.766177
 30
0.0
 11
243.494348
 21
147.7652699999999
 31
0.0
  0
LINE
  5
A7B1
330
A5C8
100
AcDbEntity
  8
1
  6
Continuous
100
AcDbLine
 10
240.7024649999999
 20
150.6034909999999
 30
0.0
 11
242.0066529999998
 21
149.2529649999999
 31
0.0
  0
LINE
  5
A7B2
330
A5C8
100
AcDbEntity
  8
1
  6
Continuous
100
AcDbLine
 10
242.00756
 20
149.2499999999998
 30
0.0
 11
242.0066529999998
 21
149.2529649999999
 31
0.0
  0
LINE
  5
A7B3
330
A5C8
100
AcDbEntity
  8
1
  6
Continuous
100
AcDbLine
 10
242.0066529999998
 20
149.247035
 30
0.0
 11
240.7024649999999
 21
147.896509
 31
0.0
  0
LINE
  5
A7B4
330
A5C8
100
AcDbEntity
  8
1
  6
Continuous
100
AcDbLine
 10
242.00756
 20
149.2499999999998
 30
0.0
 11
242.0066529999998
 21
149.247035
 31
0.0
  0
LINE
  5
A7B5
330
A5C8
100
AcDbEntity
  8
1
  6
Continuous
100
AcDbLine
 10
242.1378919999999
 20
152.038918
 30
0.0
 11
243.488418
 21
150.73473
 31
0.0
  0
LINE
  5
A7B6
330
A5C8
100
AcDbEntity
  8
1
  6
Continuous
100
AcDbLine
 10
243.491383
 20
150.733823
 30
0.0
 11
243.488418
 21
150.73473
 31
0.0
  0
LINE
  5
A7B7
330
A5C8
100
AcDbEntity
  8
1
  6
Continuous
100
AcDbLine
 10
243.491383
 20
150.733823
 30
0.0
 11
243.494348
 21
150.73473
 31
0.0
  0
ARC
  5
A7B8
330
A5C8
100
AcDbEntity
  8
1
  6
Continuous
100
AcDbCircle
 10
243.491383
 20
149.2499999999998
 30
0.0
 40
3.1
100
AcDbArc
 50
115.8877849999999
 51
154.1122149999999
  0
ARC
  5
A7B9
330
A5C8
100
AcDbEntity
  8
1
  6
Continuous
100
AcDbCircle
 10
243.491383
 20
149.2499999999998
 30
0.0
 40
3.1
100
AcDbArc
 50
295.887785
 51
334.1122149999999
  0
ARC
  5
A7BA
330
A5C8
100
AcDbEntity
  8
1
  6
Continuous
100
AcDbCircle
 10
243.491383
 20
149.2499999999998
 30
0.0
 40
3.1
100
AcDbArc
 50
25.887785
 51
64.112215
  0
LINE
  5
A7BB
330
A5C8
100
AcDbEntity
  8
1
  6
Continuous
100
AcDbLine
 10
246.280301
 20
147.896509
 30
0.0
 11
244.976113
 21
149.247035
 31
0.0
  0
LINE
  5
A7BC
330
A5C8
100
AcDbEntity
  8
1
  6
Continuous
100
AcDbLine
 10
244.9752059999999
 20
149.2499999999998
 30
0.0
 11
244.976113
 21
149.247035
 31
0.0
  0
LINE
  5
A7BD
330
A5C8
100
AcDbEntity
  8
1
  6
Continuous
100
AcDbLine
 10
244.976113
 20
149.2529649999999
 30
0.0
 11
246.280301
 21
150.6034909999999
 31
0.0
  0
LINE
  5
A7BE
330
A5C8
100
AcDbEntity
  8
1
  6
Continuous
100
AcDbLine
 10
244.9752059999999
 20
149.2499999999998
 30
0.0
 11
244.976113
 21
149.2529649999999
 31
0.0
  0
ENDSEC
  0
SECTION
  2
OBJECTS
  0
DICTIONARY
  5
A5B6
330
0
100
AcDbDictionary
281
     1
  3
ACAD_CIP_PREVIOUS_PRODUCT_INFO
350
A824
  3
ACAD_COLOR
350
A806
  3
ACAD_DETAILVIEWSTYLE
350
A81F
  3
ACAD_GROUP
350
A5B7
  3
ACAD_LAYOUT
350
A5C3
  3
ACAD_MATERIAL
350
A7D4
  3
ACAD_MLEADERSTYLE
350
A81B
  3
ACAD_MLINESTYLE
350
A5C0
  3
ACAD_PLOTSETTINGS
350
A5C2
  3
ACAD_PLOTSTYLENAME
350
A7D2
  3
ACAD_SCALELIST
350
A809
  3
ACAD_SECTIONVIEWSTYLE
350
A81D
  3
ACAD_TABLESTYLE
350
A807
  3
ACAD_VISUALSTYLE
350
A7ED
  3
ACDB_RECOMPOSE_DATA
350
A842
  3
AcDbVariableDictionary
350
A835
  3
DWGPROPS
350
A843
  0
DICTIONARY
  5
A825
330
A5BA
100
AcDbDictionary
280
     1
281
     1
  3
ADSK_XREC_LAYER_RECONCILED
360
A826
  0
DICTIONARY
  5
A827
330
A5D0
100
AcDbDictionary
280
     1
281
     1
  3
ADSK_XREC_LAYER_RECONCILED
360
A828
  0
DICTIONARY
  5
A829
330
A5D1
100
AcDbDictionary
280
     1
281
     1
  3
ADSK_XREC_LAYER_RECONCILED
360
A82A
  0
DICTIONARY
  5
A82B
330
A5D2
100
AcDbDictionary
280
     1
281
     1
  3
ADSK_XREC_LAYER_RECONCILED
360
A82C
  0
DICTIONARY
  5
A82D
330
A5D3
100
AcDbDictionary
280
     1
281
     1
  3
ADSK_XREC_LAYER_RECONCILED
360
A82E
  0
DICTIONARY
  5
A82F
330
A5D4
100
AcDbDictionary
280
     1
281
     1
  3
ADSK_XREC_LAYER_RECONCILED
360
A830
  0
DICTIONARY
  5
A831
330
A5D5
100
AcDbDictionary
280
     1
281
     1
  3
ADSK_XREC_LAYER_RECONCILED
360
A832
  0
DICTIONARY
  5
A833
330
A5D6
100
AcDbDictionary
280
     1
281
     1
  3
ADSK_XREC_LAYER_RECONCILED
360
A834
  0
DICTIONARY
  5
A7CD
330
A5C8
100
AcDbDictionary
281
     1
  3
ACAD_LAYOUTSELFREF
350
A7CE
  0
DICTIONARY
  5
A7CB
330
A5C4
100
AcDbDictionary
281
     1
  3
ACAD_LAYOUTSELFREF
350
A7CC
  0
XRECORD
  5
A824
102
{ACAD_REACTORS
330
A5B6
102
}
330
A5B6
100
AcDbXrecord
280
     1
300
ACDLT
300
2014
300
ACDLT_F_S
  0
DICTIONARY
  5
A806
102
{ACAD_REACTORS
330
A5B6
102
}
330
A5B6
100
AcDbDictionary
281
     1
  0
DICTIONARY
  5
A81F
102
{ACAD_REACTORS
330
A5B6
102
}
330
A5B6
100
AcDbDictionary
281
     1
  3
Imperial24
350
A820
  0
DICTIONARY
  5
A5B7
102
{ACAD_REACTORS
330
A5B6
102
}
330
A5B6
100
AcDbDictionary
281
     1
  0
DICTIONARY
  5
A5C3
102
{ACAD_REACTORS
330
A5B6
102
}
330
A5B6
100
AcDbDictionary
281
     1
  3
Model
350
A821
  3
レイアウト1
350
A822
  0
DICTIONARY
  5
A7D4
102
{ACAD_REACTORS
330
A5B6
102
}
330
A5B6
100
AcDbDictionary
281
     1
  3
ByBlock
350
A7DD
  3
ByLayer
350
A7D5
  3
Global
350
A7E5
  0
DICTIONARY
  5
A81B
102
{ACAD_REACTORS
330
A5B6
102
}
330
A5B6
100
AcDbDictionary
281
     1
  3
Standard
350
A81C
  0
DICTIONARY
  5
A5C0
102
{ACAD_REACTORS
330
A5B6
102
}
330
A5B6
100
AcDbDictionary
281
     1
  3
STANDARD
350
A5C1
  0
DICTIONARY
  5
A5C2
102
{ACAD_REACTORS
330
A5B6
102
}
330
A5B6
100
AcDbDictionary
281
     1
  0
ACDBDICTIONARYWDFLT
  5
A7D2
102
{ACAD_REACTORS
330
A5B6
102
}
330
A5B6
100
AcDbDictionary
281
     1
  3
Normal
350
A7D3
100
AcDbDictionaryWithDefault
340
A7D3
  0
DICTIONARY
  5
A809
102
{ACAD_REACTORS
330
A5B6
102
}
330
A5B6
100
AcDbDictionary
281
     1
  3
A0
350
A80A
  3
A1
350
A80B
  3
A2
350
A80C
  3
A3
350
A80D
  3
A4
350
A80E
  3
A5
350
A80F
  3
A6
350
A810
  3
A7
350
A811
  3
A8
350
A812
  3
A9
350
A813
  3
B0
350
A814
  3
B1
350
A815
  3
B2
350
A816
  3
B3
350
A817
  3
B4
350
A818
  3
B5
350
A819
  3
B6
350
A81A
  0
DICTIONARY
  5
A81D
102
{ACAD_REACTORS
330
A5B6
102
}
330
A5B6
100
AcDbDictionary
281
     1
  3
Imperial24
350
A81E
  0
DICTIONARY
  5
A807
102
{ACAD_REACTORS
330
A5B6
102
}
330
A5B6
100
AcDbDictionary
281
     1
  3
Standard
350
A808
  0
DICTIONARY
  5
A7ED
102
{ACAD_REACTORS
330
A5B6
102
}
330
A5B6
100
AcDbDictionary
281
     1
  3
2dWireframe
350
A7F3
  3
Basic
350
A7F2
  3
Brighten
350
A7F9
  3
ColorChange
350
A7FD
  3
Conceptual
350
A7F6
  3
Dim
350
A7F8
  3
EdgeColorOff
350
A805
  3
Facepattern
350
A7FC
  3
Flat
350
A7EE
  3
FlatWithEdges
350
A7EF
  3
Gouraud
350
A7F0
  3
GouraudWithEdges
350
A7F1
  3
Hidden
350
A7F5
  3
JitterOff
350
A803
  3
Linepattern
350
A7FB
  3
OverhangOff
350
A804
  3
Realistic
350
A7F7
  3
Shaded
350
A802
  3
Shaded with edges
350
A801
  3
Shades of Gray
350
A7FE
  3
Sketchy
350
A7FF
  3
Thicken
350
A7FA
  3
Wireframe
350
A7F4
  3
X-Ray
350
A800
  0
XRECORD
  5
A842
102
{ACAD_REACTORS
330
A5B6
102
}
330
A5B6
100
AcDbXrecord
280
     1
 90
        1
330
A808
  0
DICTIONARY
  5
A835
102
{ACAD_REACTORS
330
A5B6
102
}
330
A5B6
100
AcDbDictionary
281
     1
  3
CANNOSCALE
350
A83A
  3
CMLEADERSTYLE
350
A837
  3
CTABLESTYLE
350
A836
  3
CVIEWDETAILSTYLE
350
A838
  3
CVIEWSECTIONSTYLE
350
A839
  3
DIMASSOC
350
A83D
  3
INDEXCTL
350
A83C
  3
SORTENTS
350
A83B
  3
XCLIPFRAME
350
A83E
  0
XRECORD
  5
A843
102
{ACAD_REACTORS
330
A5B6
102
}
330
A5B6
100
AcDbXrecord
280
     1
  1
DWGPROPS COOKIE
  2

  3

  4

  6

  7

  8
Yoshitsune
  9

300
=
301
=
302
=
303
=
304
=
305
=
306
=
307
=
308
=
309
=
 40
0.0000201273148148
 41
2451368.500356597
 42
2457192.642865162
  1

 90
        0
  0
XRECORD
  5
A826
102
{ACAD_REACTORS
330
A825
102
}
330
A825
100
AcDbXrecord
280
     1
290
     1
  0
XRECORD
  5
A828
102
{ACAD_REACTORS
330
A827
102
}
330
A827
100
AcDbXrecord
280
     1
290
     1
  0
XRECORD
  5
A82A
102
{ACAD_REACTORS
330
A829
102
}
330
A829
100
AcDbXrecord
280
     1
290
     1
  0
XRECORD
  5
A82C
102
{ACAD_REACTORS
330
A82B
102
}
330
A82B
100
AcDbXrecord
280
     1
290
     1
  0
XRECORD
  5
A82E
102
{ACAD_REACTORS
330
A82D
102
}
330
A82D
100
AcDbXrecord
280
     1
290
     1
  0
XRECORD
  5
A830
102
{ACAD_REACTORS
330
A82F
102
}
330
A82F
100
AcDbXrecord
280
     1
290
     1
  0
XRECORD
  5
A832
102
{ACAD_REACTORS
330
A831
102
}
330
A831
100
AcDbXrecord
280
     1
290
     1
  0
XRECORD
  5
A834
102
{ACAD_REACTORS
330
A833
102
}
330
A833
100
AcDbXrecord
280
     1
290
     1
  0
XRECORD
  5
A7CE
102
{ACAD_REACTORS
330
A7CD
102
}
330
A7CD
100
AcDbXrecord
280
     1
340
A5C8
  0
XRECORD
  5
A7CC
102
{ACAD_REACTORS
330
A7CB
102
}
330
A7CB
100
AcDbXrecord
280
     1
340
A5C4
  0
ACDBDETAILVIEWSTYLE
  5
A820
102
{ACAD_XDICTIONARY
360
A87B
102
}
102
{ACAD_REACTORS
330
A81F
102
}
330
A81F
100
AcDbModelDocViewStyle
 70
     0
  3
Imperial24
290
     0
100
AcDbDetailViewStyle
 70
     0
 71
     0
 90
        3
 71
     1
340
A5BB
 40
0.24
340
0
 40
0.24
300

 40
0.36
280
     3
 71
     2
340
A5BF
 90
       25
 71
     3
340
A5BB
 40
0.24
 90
        1
 40
0.75
 90
        1
300
%<\AcVar ViewType \f "%tc1">% %<\AcVar ViewDetailId>%\PSCALE %<\AcVar ViewScale \f "%sn">%
 71
     4
340
A5BF
 90
       25
340
A5BF
 90
       25
280
     0
  0
LAYOUT
  5
A821
102
{ACAD_XDICTIONARY
360
A87D
102
}
102
{ACAD_REACTORS
330
A5C3
102
}
330
A5C3
100
AcDbPlotSettings
  1

  2
Canon LBP9100C
  4

  6

 40
0.0
 41
0.0
 42
0.0
 43
0.0
 44
0.0
 45
0.0
 46
0.0
 47
0.0
 48
0.0
 49
0.0
140
0.0
141
0.0
142
1.0
143
1.0
 70
  1712
 72
     0
 73
     0
 74
     0
  7

 75
     0
147
1.0
148
0.0
149
0.0
100
AcDbLayout
  1
Model
 70
     1
 71
     0
 10
0.0
 20
0.0
 11
12.0
 21
9.0
 12
0.0
 22
0.0
 32
0.0
 14
0.0
 24
0.0
 34
0.0
 15
0.0
 25
0.0
 35
0.0
146
0.0
 13
0.0
 23
0.0
 33
0.0
 16
1.0
 26
0.0
 36
0.0
 17
0.0
 27
1.0
 37
0.0
 76
     0
330
A5C8
331
A7CA
  0
LAYOUT
  5
A822
102
{ACAD_XDICTIONARY
360
A87F
102
}
102
{ACAD_REACTORS
330
A5C3
102
}
330
A5C3
100
AcDbPlotSettings
  1

  2
Canon LBP9100C
  4

  6

 40
0.0
 41
0.0
 42
0.0
 43
0.0
 44
0.0
 45
0.0
 46
0.0
 47
0.0
 48
0.0
 49
0.0
140
0.0
141
0.0
142
1.0
143
1.0
 70
   688
 72
     0
 73
     0
 74
     5
  7

 75
    16
147
1.0
148
0.0
149
0.0
100
AcDbLayout
  1
レイアウト1
 70
     0
 71
     1
 10
0.0
 20
0.0
 11
420.0
 21
297.0
 12
0.0
 22
0.0
 32
0.0
 14
1.000000000000000E+20
 24
1.000000000000000E+20
 34
1.000000000000000E+20
 15
-1.000000000000000E+20
 25
-1.000000000000000E+20
 35
-1.000000000000000E+20
146
0.0
 13
0.0
 23
0.0
 33
0.0
 16
1.0
 26
0.0
 36
0.0
 17
0.0
 27
1.0
 37
0.0
 76
     0
330
A5C4
  0
MATERIAL
  5
A7DD
102
{ACAD_XDICTIONARY
360
A7DE
102
}
102
{ACAD_REACTORS
330
A7D4
102
}
330
A7D4
100
AcDbMaterial
  1
ByBlock
 72
     0
 43
0.0208333333333333
 43
0.0
 43
0.0
 43
0.0
 43
0.0
 43
0.0208333333333333
 43
0.0
 43
0.0
 43
0.0
 43
0.0
 43
1.0
 43
0.0
 43
0.0
 43
0.0
 43
0.0
 43
1.0
 77
     0
 47
0.0208333333333333
 47
0.0
 47
0.0
 47
0.0
 47
0.0
 47
0.0208333333333333
 47
0.0
 47
0.0
 47
0.0
 47
0.0
 47
1.0
 47
0.0
 47
0.0
 47
0.0
 47
0.0
 47
1.0
171
     0
 49
0.0208333333333333
 49
0.0
 49
0.0
 49
0.0
 49
0.0
 49
0.0208333333333333
 49
0.0
 49
0.0
 49
0.0
 49
0.0
 49
1.0
 49
0.0
 49
0.0
 49
0.0
 49
0.0
 49
1.0
175
     0
142
0.0208333333333333
142
0.0
142
0.0
142
0.0
142
0.0
142
0.0208333333333333
142
0.0
142
0.0
142
0.0
142
0.0
142
1.0
142
0.0
142
0.0
142
0.0
142
0.0
142
1.0
179
     0
144
0.0208333333333333
144
0.0
144
0.0
144
0.0
144
0.0
144
0.0208333333333333
144
0.0
144
0.0
144
0.0
144
0.0
144
1.0
144
0.0
144
0.0
144
0.0
144
0.0
144
1.0
147
0.0208333333333333
147
0.0
147
0.0
147
0.0
147
0.0
147
0.0208333333333333
147
0.0
147
0.0
147
0.0
147
0.0
147
1.0
147
0.0
147
0.0
147
0.0
147
0.0
147
1.0
  0
MATERIAL
  5
A7D5
102
{ACAD_XDICTIONARY
360
A7D6
102
}
102
{ACAD_REACTORS
330
A7D4
102
}
330
A7D4
100
AcDbMaterial
  1
ByLayer
 72
     0
 43
0.0208333333333333
 43
0.0
 43
0.0
 43
0.0
 43
0.0
 43
0.0208333333333333
 43
0.0
 43
0.0
 43
0.0
 43
0.0
 43
1.0
 43
0.0
 43
0.0
 43
0.0
 43
0.0
 43
1.0
 77
     0
 47
0.0208333333333333
 47
0.0
 47
0.0
 47
0.0
 47
0.0
 47
0.0208333333333333
 47
0.0
 47
0.0
 47
0.0
 47
0.0
 47
1.0
 47
0.0
 47
0.0
 47
0.0
 47
0.0
 47
1.0
171
     0
 49
0.0208333333333333
 49
0.0
 49
0.0
 49
0.0
 49
0.0
 49
0.0208333333333333
 49
0.0
 49
0.0
 49
0.0
 49
0.0
 49
1.0
 49
0.0
 49
0.0
 49
0.0
 49
0.0
 49
1.0
175
     0
142
0.0208333333333333
142
0.0
142
0.0
142
0.0
142
0.0
142
0.0208333333333333
142
0.0
142
0.0
142
0.0
142
0.0
142
1.0
142
0.0
142
0.0
142
0.0
142
0.0
142
1.0
179
     0
144
0.0208333333333333
144
0.0
144
0.0
144
0.0
144
0.0
144
0.0208333333333333
144
0.0
144
0.0
144
0.0
144
0.0
144
1.0
144
0.0
144
0.0
144
0.0
144
0.0
144
1.0
147
0.0208333333333333
147
0.0
147
0.0
147
0.0
147
0.0
147
0.0208333333333333
147
0.0
147
0.0
147
0.0
147
0.0
147
1.0
147
0.0
147
0.0
147
0.0
147
0.0
147
1.0
  0
MATERIAL
  5
A7E5
102
{ACAD_XDICTIONARY
360
A7E6
102
}
102
{ACAD_REACTORS
330
A7D4
102
}
330
A7D4
100
AcDbMaterial
  1
Global
 72
     0
 43
0.0208333333333333
 43
0.0
 43
0.0
 43
0.0
 43
0.0
 43
0.0208333333333333
 43
0.0
 43
0.0
 43
0.0
 43
0.0
 43
1.0
 43
0.0
 43
0.0
 43
0.0
 43
0.0
 43
1.0
 77
     0
 47
0.0208333333333333
 47
0.0
 47
0.0
 47
0.0
 47
0.0
 47
0.0208333333333333
 47
0.0
 47
0.0
 47
0.0
 47
0.0
 47
1.0
 47
0.0
 47
0.0
 47
0.0
 47
0.0
 47
1.0
171
     0
 49
0.0208333333333333
 49
0.0
 49
0.0
 49
0.0
 49
0.0
 49
0.0208333333333333
 49
0.0
 49
0.0
 49
0.0
 49
0.0
 49
1.0
 49
0.0
 49
0.0
 49
0.0
 49
0.0
 49
1.0
175
     0
142
0.0208333333333333
142
0.0
142
0.0
142
0.0
142
0.0
142
0.0208333333333333
142
0.0
142
0.0
142
0.0
142
0.0
142
1.0
142
0.0
142
0.0
142
0.0
142
0.0
142
1.0
179
     0
144
0.0208333333333333
144
0.0
144
0.0
144
0.0
144
0.0
144
0.0208333333333333
144
0.0
144
0.0
144
0.0
144
0.0
144
1.0
144
0.0
144
0.0
144
0.0
144
0.0
144
1.0
147
0.0208333333333333
147
0.0
147
0.0
147
0.0
147
0.0
147
0.0208333333333333
147
0.0
147
0.0
147
0.0
147
0.0
147
1.0
147
0.0
147
0.0
147
0.0
147
0.0
147
1.0
  0
MLEADERSTYLE
  5
A81C
102
{ACAD_REACTORS
330
A81B
102
}
330
A81B
100
AcDbMLeaderStyle
170
     2
171
     1
172
     0
 90
        2
 40
0.0
 41
0.0
173
     1
 91
-1056964608
340
A5BD
 92
       -2
290
     1
 42
0.09
291
     1
 43
0.36
  3
Standard
 44
0.18
300

342
A5BB
174
     1
178
     6
175
     1
176
     0
 93
-1056964608
 45
0.18
292
     0
297
     0
 46
0.18
 94
-1056964608
 47
1.0
 49
1.0
140
1.0
293
     1
141
0.0
294
     1
177
     0
142
1.0
295
     0
296
     0
143
0.125
1001
ACAD_MLEADERVER
1070
     2
  0
MLINESTYLE
  5
A5C1
102
{ACAD_REACTORS
330
A5C0
102
}
330
A5C0
100
AcDbMlineStyle
  2
STANDARD
 70
     0
  3

 62
   256
 51
90.0
 52
90.0
 71
     2
 49
0.5
 62
   256
  6
BYLAYER
 49
-0.5
 62
   256
  6
BYLAYER
  0
ACDBPLACEHOLDER
  5
A7D3
102
{ACAD_REACTORS
330
A7D2
102
}
330
A7D2
  0
SCALE
  5
A80A
102
{ACAD_REACTORS
330
A809
102
}
330
A809
100
AcDbScale
 70
     0
300
1:1
140
1.0
141
1.0
290
     1
  0
SCALE
  5
A80B
102
{ACAD_REACTORS
330
A809
102
}
330
A809
100
AcDbScale
 70
     0
300
1/128" = 1'-0"
140
0.0078125
141
12.0
290
     0
  0
SCALE
  5
A80C
102
{ACAD_REACTORS
330
A809
102
}
330
A809
100
AcDbScale
 70
     0
300
1/64" = 1'-0"
140
0.015625
141
12.0
290
     0
  0
SCALE
  5
A80D
102
{ACAD_REACTORS
330
A809
102
}
330
A809
100
AcDbScale
 70
     0
300
1/32" = 1'-0"
140
0.03125
141
12.0
290
     0
  0
SCALE
  5
A80E
102
{ACAD_REACTORS
330
A809
102
}
330
A809
100
AcDbScale
 70
     0
300
1/16" = 1'-0"
140
0.0625
141
12.0
290
     0
  0
SCALE
  5
A80F
102
{ACAD_REACTORS
330
A809
102
}
330
A809
100
AcDbScale
 70
     0
300
3/32" = 1'-0"
140
0.09375
141
12.0
290
     0
  0
SCALE
  5
A810
102
{ACAD_REACTORS
330
A809
102
}
330
A809
100
AcDbScale
 70
     0
300
1/8" = 1'-0"
140
0.125
141
12.0
290
     0
  0
SCALE
  5
A811
102
{ACAD_REACTORS
330
A809
102
}
330
A809
100
AcDbScale
 70
     0
300
3/16" = 1'-0"
140
0.1875
141
12.0
290
     0
  0
SCALE
  5
A812
102
{ACAD_REACTORS
330
A809
102
}
330
A809
100
AcDbScale
 70
     0
300
1/4" = 1'-0"
140
0.25
141
12.0
290
     0
  0
SCALE
  5
A813
102
{ACAD_REACTORS
330
A809
102
}
330
A809
100
AcDbScale
 70
     0
300
3/8" = 1'-0"
140
0.375
141
12.0
290
     0
  0
SCALE
  5
A814
102
{ACAD_REACTORS
330
A809
102
}
330
A809
100
AcDbScale
 70
     0
300
1/2" = 1'-0"
140
0.5
141
12.0
290
     0
  0
SCALE
  5
A815
102
{ACAD_REACTORS
330
A809
102
}
330
A809
100
AcDbScale
 70
     0
300
3/4" = 1'-0"
140
0.75
141
12.0
290
     0
  0
SCALE
  5
A816
102
{ACAD_REACTORS
330
A809
102
}
330
A809
100
AcDbScale
 70
     0
300
1" = 1'-0"
140
1.0
141
12.0
290
     0
  0
SCALE
  5
A817
102
{ACAD_REACTORS
330
A809
102
}
330
A809
100
AcDbScale
 70
     0
300
1-1/2" = 1'-0"
140
1.5
141
12.0
290
     0
  0
SCALE
  5
A818
102
{ACAD_REACTORS
330
A809
102
}
330
A809
100
AcDbScale
 70
     0
300
3" = 1'-0"
140
3.0
141
12.0
290
     0
  0
SCALE
  5
A819
102
{ACAD_REACTORS
330
A809
102
}
330
A809
100
AcDbScale
 70
     0
300
6" = 1'-0"
140
6.0
141
12.0
290
     0
  0
SCALE
  5
A81A
102
{ACAD_REACTORS
330
A809
102
}
330
A809
100
AcDbScale
 70
     0
300
1'-0" = 1'-0"
140
12.0
141
12.0
290
     0
  0
ACDBSECTIONVIEWSTYLE
  5
A81E
102
{ACAD_XDICTIONARY
360
A879
102
}
102
{ACAD_REACTORS
330
A81D
102
}
330
A81D
100
AcDbModelDocViewStyle
 70
     0
  3
Imperial24
290
     0
100
AcDbSectionViewStyle
 70
     0
 71
     0
 90
       78
 71
     1
340
A5BB
 40
0.24
340
0
340
0
 40
0.24
300
I, O, Q, S, X, Z
 40
0.48
 90
        3
 40
0.18
 90
        1
 71
     2
340
A5BF
 90
       25
340
A5BF
 90
       50
 40
0.24
 40
0.0
 40
0.24
 71
     3
340
A5BB
 40
0.24
 90
        1
 40
0.75
 90
        1
300
%<\AcVar ViewType \f "%tc1">% %<\AcVar ViewSectionStartId>%-%<\AcVar ViewSectionEndId>%\PSCALE %<\AcVar ViewScale \f "%sn">%
 71
     4
300
ANSI31
 40
1.0
 90
        0
290
     0
290
     0
 90
        6
 40
0.0
 40
1.570796326794896
 40
0.2617993877991494
 40
1.308996938995747
 40
-0.2617993877991494
 40
1.832595714594046
  0
TABLESTYLE
  5
A808
102
{ACAD_XDICTIONARY
360
A840
102
}
102
{ACAD_REACTORS
330
A807
102
}
330
A807
100
AcDbTableStyle
  3
Standard
 70
     0
 71
     0
 40
0.06
 41
0.06
280
     0
281
     0
  7
STANDARD
140
0.18
170
     2
 62
     0
 63
     7
283
     0
274
    -2
284
     1
 64
     0
275
    -2
285
     1
 65
     0
276
    -2
286
     1
 66
     0
277
    -2
287
     1
 67
     0
278
    -2
288
     1
 68
     0
279
    -2
289
     1
 69
     0
  7
STANDARD
140
0.25
170
     5
 62
     0
 63
     7
283
     0
274
    -2
284
     1
 64
     0
275
    -2
285
     1
 65
     0
276
    -2
286
     1
 66
     0
277
    -2
287
     1
 67
     0
278
    -2
288
     1
 68
     0
279
    -2
289
     1
 69
     0
  7
STANDARD
140
0.18
170
     5
 62
     0
 63
     7
283
     0
274
    -2
284
     1
 64
     0
275
    -2
285
     1
 65
     0
276
    -2
286
     1
 66
     0
277
    -2
287
     1
 67
     0
278
    -2
288
     1
 68
     0
279
    -2
289
     1
 69
     0
  0
VISUALSTYLE
  5
A7F3
102
{ACAD_XDICTIONARY
360
A851
102
}
102
{ACAD_REACTORS
330
A7ED
102
}
330
A7ED
100
AcDbVisualStyle
  2
2dWireframe
 70
     4
 71
     0
 72
     2
 73
     0
 90
        0
 40
-0.6
 41
-30.0
 62
     5
 63
     7
 74
     1
 91
        4
 64
     7
 65
   257
 75
     1
175
     1
 42
1.0
 92
        0
 66
   257
 43
1.0
 76
     1
 77
     6
 78
     2
 67
     7
 79
     5
170
     0
171
     0
290
     0
174
     0
 93
        1
 44
0.0
173
     0
291
     0
 45
0.0
1001
ACAD
1000
AcDbSavedByObjectVersion
1070
     0
  0
VISUALSTYLE
  5
A7F2
102
{ACAD_XDICTIONARY
360
A84F
102
}
102
{ACAD_REACTORS
330
A7ED
102
}
330
A7ED
100
AcDbVisualStyle
  2
Basic
 70
     7
 71
     1
 72
     0
 73
     1
 90
        0
 40
-0.6
 41
-30.0
 62
     5
 63
     7
 74
     0
 91
        4
 64
     7
 65
   257
 75
     1
175
     1
 42
1.0
 92
        8
 66
     7
 43
1.0
 76
     1
 77
     6
 78
     2
 67
     7
 79
     5
170
     0
171
     0
290
     0
174
     0
 93
        1
 44
0.0
173
     0
291
     1
 45
0.0
1001
ACAD
1000
AcDbSavedByObjectVersion
1070
     0
  0
VISUALSTYLE
  5
A7F9
102
{ACAD_XDICTIONARY
360
A85D
102
}
102
{ACAD_REACTORS
330
A7ED
102
}
330
A7ED
100
AcDbVisualStyle
  2
Brighten
 70
    12
 71
     2
 72
     2
 73
     0
 90
        0
 40
-0.6
 41
-30.0
 62
     5
 63
     7
 74
     1
 91
        4
 64
     7
 65
   257
 75
     1
175
     1
 42
1.0
 92
        8
 66
     7
 43
1.0
 76
     1
 77
     6
 78
     2
 67
     7
 79
     5
170
     0
171
     0
290
     0
174
     0
 93
        1
 44
50.0
173
     0
291
     1
 45
0.0
1001
ACAD
1000
AcDbSavedByObjectVersion
1070
     0
  0
VISUALSTYLE
  5
A7FD
102
{ACAD_XDICTIONARY
360
A865
102
}
102
{ACAD_REACTORS
330
A7ED
102
}
330
A7ED
100
AcDbVisualStyle
  2
ColorChange
 70
    16
 71
     2
 72
     2
 73
     3
 90
        0
 40
-0.6
 41
-30.0
 62
     5
 63
     8
 74
     1
 91
        4
 64
     7
 65
   257
 75
     1
175
     1
 42
1.0
 92
        8
 66
     8
 43
1.0
 76
     1
 77
     6
 78
     2
 67
     7
 79
     5
170
     0
171
     0
290
     0
174
     0
 93
        1
 44
0.0
173
     0
291
     1
 45
0.0
1001
ACAD
1000
AcDbSavedByObjectVersion
1070
     0
  0
VISUALSTYLE
  5
A7F6
102
{ACAD_XDICTIONARY
360
A857
102
}
102
{ACAD_REACTORS
330
A7ED
102
}
330
A7ED
100
AcDbVisualStyle
  2
Conceptual
 70
     9
 71
     3
 72
     2
 73
     0
 90
        0
 40
-0.6
 41
-30.0
 62
     5
 63
     7
 74
     2
 91
        2
 64
     7
 65
   257
 75
     1
175
     1
 42
179.0
 92
        8
 66
     7
 43
1.0
 76
     1
 77
     6
 78
     2
 67
     7
 79
     3
170
     0
171
     0
290
     0
174
     0
 93
        1
 44
0.0
173
     0
291
     0
 45
0.0
1001
ACAD
1000
AcDbSavedByObjectVersion
1070
     0
  0
VISUALSTYLE
  5
A7F8
102
{ACAD_XDICTIONARY
360
A85B
102
}
102
{ACAD_REACTORS
330
A7ED
102
}
330
A7ED
100
AcDbVisualStyle
  2
Dim
 70
    11
 71
     2
 72
     2
 73
     0
 90
        0
 40
-0.6
 41
-30.0
 62
     5
 63
     7
 74
     1
 91
        4
 64
     7
 65
   257
 75
     1
175
     1
 42
1.0
 92
        8
 66
     7
 43
1.0
 76
     1
 77
     6
 78
     2
 67
     7
 79
     5
170
     0
171
     0
290
     0
174
     0
 93
        1
 44
-50.0
173
     0
291
     1
 45
0.0
1001
ACAD
1000
AcDbSavedByObjectVersion
1070
     0
  0
VISUALSTYLE
  5
A805
102
{ACAD_XDICTIONARY
360
A875
102
}
102
{ACAD_REACTORS
330
A7ED
102
}
330
A7ED
100
AcDbVisualStyle
  2
EdgeColorOff
 70
    22
 71
     2
 72
     2
 73
     0
 90
        0
 40
-0.6
 41
-30.0
 62
     5
 63
     7
 74
     1
 91
        4
 64
     7
 65
   257
 75
     1
175
     1
 42
1.0
 92
        8
 66
     7
 43
1.0
 76
     1
 77
     6
 78
     2
 67
     7
 79
     5
170
     0
171
     0
290
     0
174
     0
 93
        1
 44
0.0
173
     0
291
     1
 45
0.0
1001
ACAD
1000
AcDbSavedByObjectVersion
1070
     0
  0
VISUALSTYLE
  5
A7FC
102
{ACAD_XDICTIONARY
360
A863
102
}
102
{ACAD_REACTORS
330
A7ED
102
}
330
A7ED
100
AcDbVisualStyle
  2
Facepattern
 70
    15
 71
     2
 72
     2
 73
     0
 90
        0
 40
-0.6
 41
-30.0
 62
     5
 63
     7
 74
     1
 91
        4
 64
     7
 65
   257
 75
     1
175
     1
 42
1.0
 92
        8
 66
     7
 43
1.0
 76
     1
 77
     6
 78
     2
 67
     7
 79
     5
170
     0
171
     0
290
     0
174
     0
 93
        1
 44
0.0
173
     0
291
     1
 45
0.0
1001
ACAD
1000
AcDbSavedByObjectVersion
1070
     0
  0
VISUALSTYLE
  5
A7EE
102
{ACAD_XDICTIONARY
360
A847
102
}
102
{ACAD_REACTORS
330
A7ED
102
}
330
A7ED
100
AcDbVisualStyle
  2
Flat
 70
     0
 71
     2
 72
     1
 73
     1
 90
        2
 40
-0.6
 41
30.0
 62
     5
 63
     7
 74
     0
 91
        0
 64
     7
 65
   257
 75
     1
175
     1
 42
1.0
 92
        8
 66
     7
 43
1.0
 76
     1
 77
     6
 78
     2
 67
     7
 79
     5
170
     0
171
     0
290
     0
174
     0
 93
       13
 44
0.0
173
     0
291
     1
 45
0.0
1001
ACAD
1000
AcDbSavedByObjectVersion
1070
     0
  0
VISUALSTYLE
  5
A7EF
102
{ACAD_XDICTIONARY
360
A849
102
}
102
{ACAD_REACTORS
330
A7ED
102
}
330
A7ED
100
AcDbVisualStyle
  2
FlatWithEdges
 70
     1
 71
     2
 72
     1
 73
     1
 90
        2
 40
-0.6
 41
30.0
 62
     5
 63
     7
 74
     1
 91
        0
 64
     7
 65
   257
 75
     1
175
     1
 42
1.0
 92
        0
 66
   257
 43
1.0
 76
     1
 77
     6
 78
     2
 67
     7
 79
     5
170
     0
171
     0
290
     0
174
     0
 93
       13
 44
0.0
173
     0
291
     1
 45
0.0
1001
ACAD
1000
AcDbSavedByObjectVersion
1070
     0
  0
VISUALSTYLE
  5
A7F0
102
{ACAD_XDICTIONARY
360
A84B
102
}
102
{ACAD_REACTORS
330
A7ED
102
}
330
A7ED
100
AcDbVisualStyle
  2
Gouraud
 70
     2
 71
     2
 72
     2
 73
     1
 90
        2
 40
-0.6
 41
30.0
 62
     5
 63
     7
 74
     0
 91
        0
 64
     7
 65
   257
 75
     1
175
     1
 42
1.0
 92
        0
 66
     7
 43
1.0
 76
     1
 77
     6
 78
     2
 67
     7
 79
     5
170
     0
171
     0
290
     0
174
     0
 93
       13
 44
0.0
173
     0
291
     1
 45
0.0
1001
ACAD
1000
AcDbSavedByObjectVersion
1070
     0
  0
VISUALSTYLE
  5
A7F1
102
{ACAD_XDICTIONARY
360
A84D
102
}
102
{ACAD_REACTORS
330
A7ED
102
}
330
A7ED
100
AcDbVisualStyle
  2
GouraudWithEdges
 70
     3
 71
     2
 72
     2
 73
     1
 90
        2
 40
-0.6
 41
30.0
 62
     5
 63
     7
 74
     1
 91
        0
 64
     7
 65
   257
 75
     1
175
     1
 42
1.0
 92
        0
 66
   257
 43
1.0
 76
     1
 77
     6
 78
     2
 67
     7
 79
     5
170
     0
171
     0
290
     0
174
     0
 93
       13
 44
0.0
173
     0
291
     1
 45
0.0
1001
ACAD
1000
AcDbSavedByObjectVersion
1070
     0
  0
VISUALSTYLE
  5
A7F5
102
{ACAD_XDICTIONARY
360
A855
102
}
102
{ACAD_REACTORS
330
A7ED
102
}
330
A7ED
100
AcDbVisualStyle
  2
Hidden
 70
     6
 71
     1
 72
     2
 73
     2
 90
        0
 40
-0.6
 41
-30.0
 62
     5
 63
     7
 74
     2
 91
        2
 64
     7
 65
   257
 75
     2
175
     1
 42
40.0
 92
        0
 66
   257
 43
1.0
 76
     1
 77
     6
 78
     2
 67
     7
 79
     3
170
     0
171
     0
290
     0
174
     0
 93
        1
 44
0.0
173
     0
291
     0
 45
0.0
1001
ACAD
1000
AcDbSavedByObjectVersion
1070
     0
  0
VISUALSTYLE
  5
A803
102
{ACAD_XDICTIONARY
360
A871
102
}
102
{ACAD_REACTORS
330
A7ED
102
}
330
A7ED
100
AcDbVisualStyle
  2
JitterOff
 70
    20
 71
     2
 72
     2
 73
     0
 90
        0
 40
-0.6
 41
-30.0
 62
     5
 63
     7
 74
     1
 91
        4
 64
     7
 65
   257
 75
     1
175
     1
 42
1.0
 92
       10
 66
     7
 43
1.0
 76
     1
 77
     6
 78
     2
 67
     7
 79
     5
170
     0
171
     0
290
     0
174
     0
 93
        1
 44
0.0
173
     0
291
     1
 45
0.0
1001
ACAD
1000
AcDbSavedByObjectVersion
1070
     0
  0
VISUALSTYLE
  5
A7FB
102
{ACAD_XDICTIONARY
360
A861
102
}
102
{ACAD_REACTORS
330
A7ED
102
}
330
A7ED
100
AcDbVisualStyle
  2
Linepattern
 70
    14
 71
     2
 72
     2
 73
     0
 90
        0
 40
-0.6
 41
-30.0
 62
     5
 63
     7
 74
     1
 91
        4
 64
     7
 65
   257
 75
     7
175
     7
 42
1.0
 92
        8
 66
     7
 43
1.0
 76
     1
 77
     6
 78
     2
 67
     7
 79
     5
170
     0
171
     0
290
     0
174
     0
 93
        1
 44
0.0
173
     0
291
     1
 45
0.0
1001
ACAD
1000
AcDbSavedByObjectVersion
1070
     0
  0
VISUALSTYLE
  5
A804
102
{ACAD_XDICTIONARY
360
A873
102
}
102
{ACAD_REACTORS
330
A7ED
102
}
330
A7ED
100
AcDbVisualStyle
  2
OverhangOff
 70
    21
 71
     2
 72
     2
 73
     0
 90
        0
 40
-0.6
 41
-30.0
 62
     5
 63
     7
 74
     1
 91
        4
 64
     7
 65
   257
 75
     1
175
     1
 42
1.0
 92
        9
 66
     7
 43
1.0
 76
     1
 77
     6
 78
     2
 67
     7
 79
     5
170
     0
171
     0
290
     0
174
     0
 93
        1
 44
0.0
173
     0
291
     1
 45
0.0
1001
ACAD
1000
AcDbSavedByObjectVersion
1070
     0
  0
VISUALSTYLE
  5
A7F7
102
{ACAD_XDICTIONARY
360
A859
102
}
102
{ACAD_REACTORS
330
A7ED
102
}
330
A7ED
100
AcDbVisualStyle
  2
Realistic
 70
     8
 71
     2
 72
     3
 73
     0
 90
        2
 40
-0.6
 41
30.0
 62
     5
 63
     7
 74
     0
 91
        0
 64
     7
 65
   257
 75
     1
175
     1
 42
1.0
 92
        8
 66
   257
 43
1.0
 76
     1
 77
     6
 78
     2
 67
     7
 79
     3
170
     0
171
     0
290
     0
174
     0
 93
       13
 44
0.0
173
     0
291
     0
 45
0.0
1001
ACAD
1000
AcDbSavedByObjectVersion
1070
     0
  0
VISUALSTYLE
  5
A802
102
{ACAD_XDICTIONARY
360
A86F
102
}
102
{ACAD_REACTORS
330
A7ED
102
}
330
A7ED
100
AcDbVisualStyle
  2
Shaded
 70
    27
 71
     2
 72
     2
 73
     1
 90
        2
 40
-0.6
 41
30.0
 62
     5
 63
     7
 74
     0
 91
        4
 64
     7
 65
   257
 75
     1
175
     1
 42
1.0
 92
        8
 66
   257
 43
1.0
 76
     1
 77
     6
 78
     2
 67
     8
 79
     3
170
     0
171
     0
290
     0
174
     0
 93
        5
 44
0.0
173
     0
291
     0
 45
0.0
1001
ACAD
1000
AcDbSavedByObjectVersion
1070
     0
  0
VISUALSTYLE
  5
A801
102
{ACAD_XDICTIONARY
360
A86D
102
}
102
{ACAD_REACTORS
330
A7ED
102
}
330
A7ED
100
AcDbVisualStyle
  2
Shaded with edges
 70
    26
 71
     2
 72
     2
 73
     1
 90
        2
 40
-0.6
 41
30.0
 62
     5
 63
     7
 74
     1
 91
       10
 64
     7
 65
   257
 75
     2
175
     1
 42
1.0
 92
        8
 66
   257
 43
1.0
 76
     1
 77
     6
 78
     2
 67
     7
 79
     3
170
     0
171
     0
290
     0
174
     0
 93
        5
 44
0.0
173
     0
291
     0
 45
0.0
1001
ACAD
1000
AcDbSavedByObjectVersion
1070
     0
  0
VISUALSTYLE
  5
A7FE
102
{ACAD_XDICTIONARY
360
A867
102
}
102
{ACAD_REACTORS
330
A7ED
102
}
330
A7ED
100
AcDbVisualStyle
  2
Shades of Gray
 70
    23
 71
     2
 72
     2
 73
     3
 90
        0
 40
-0.6
 41
-30.0
 62
     5
 63
     7
 74
     2
 91
        2
 64
     7
 65
     7
 75
     1
175
     1
 42
40.0
 92
        8
 66
     7
 43
1.0
 76
     1
 77
     6
 78
     2
 67
     7
 79
     3
170
     0
171
     0
290
     0
174
     0
 93
        1
 44
0.0
173
     0
291
     0
 45
0.0
1001
ACAD
1000
AcDbSavedByObjectVersion
1070
     0
  0
VISUALSTYLE
  5
A7FF
102
{ACAD_XDICTIONARY
360
A869
102
}
102
{ACAD_REACTORS
330
A7ED
102
}
330
A7ED
100
AcDbVisualStyle
  2
Sketchy
 70
    24
 71
     1
 72
     2
 73
     2
 90
        0
 40
-0.6
 41
-30.0
 62
     5
 63
     7
 74
     2
 91
        2
 64
     7
 65
     7
 75
     1
175
     1
 42
40.0
 92
       11
 66
     7
 43
1.0
 76
     1
 77
     6
 78
     2
 67
     7
 79
     6
170
     0
171
     0
290
     0
174
     0
 93
        1
 44
0.0
173
     0
291
     0
 45
0.0
1001
ACAD
1000
AcDbSavedByObjectVersion
1070
     0
  0
VISUALSTYLE
  5
A7FA
102
{ACAD_XDICTIONARY
360
A85F
102
}
102
{ACAD_REACTORS
330
A7ED
102
}
330
A7ED
100
AcDbVisualStyle
  2
Thicken
 70
    13
 71
     2
 72
     2
 73
     0
 90
        0
 40
-0.6
 41
-30.0
 62
     5
 63
     7
 74
     1
 91
        4
 64
     7
 65
   257
 75
     1
175
     1
 42
1.0
 92
       12
 66
     7
 43
1.0
 76
     1
 77
     6
 78
     2
 67
     7
 79
     5
170
     0
171
     0
290
     0
174
     0
 93
        1
 44
0.0
173
     0
291
     1
 45
0.0
1001
ACAD
1000
AcDbSavedByObjectVersion
1070
     0
  0
VISUALSTYLE
  5
A7F4
102
{ACAD_XDICTIONARY
360
A853
102
}
102
{ACAD_REACTORS
330
A7ED
102
}
330
A7ED
100
AcDbVisualStyle
  2
Wireframe
 70
     5
 71
     0
 72
     2
 73
     0
 90
        0
 40
-0.6
 41
-30.0
 62
     5
 63
     7
 74
     1
 91
        4
 64
     7
 65
   257
 75
     1
175
     1
 42
1.0
 92
        0
 66
   257
 43
1.0
 76
     1
 77
     6
 78
     2
 67
     7
 79
     3
170
     0
171
     0
290
     0
174
     0
 93
        1
 44
0.0
173
     0
291
     0
 45
0.0
1001
ACAD
1000
AcDbSavedByObjectVersion
1070
     0
  0
VISUALSTYLE
  5
A800
102
{ACAD_XDICTIONARY
360
A86B
102
}
102
{ACAD_REACTORS
330
A7ED
102
}
330
A7ED
100
AcDbVisualStyle
  2
X-Ray
 70
    25
 71
     2
 72
     2
 73
     1
 90
        1
 40
0.5
 41
-30.0
 62
     5
 63
     7
 74
     1
 91
        0
 64
     7
 65
   257
 75
     1
175
     1
 42
1.0
 92
        8
 66
     7
 43
1.0
 76
     1
 77
     6
 78
     2
 67
     7
 79
     3
170
     0
171
     0
290
     0
174
     0
 93
       13
 44
0.0
173
     0
291
     0
 45
0.0
1001
ACAD
1000
AcDbSavedByObjectVersion
1070
     0
  0
DICTIONARYVAR
  5
A83A
102
{ACAD_REACTORS
330
A835
102
}
330
A835
100
DictionaryVariables
280
     0
  1
1:1
  0
DICTIONARYVAR
  5
A837
102
{ACAD_REACTORS
330
A835
102
}
330
A835
100
DictionaryVariables
280
     0
  1
STANDARD
  0
DICTIONARYVAR
  5
A836
102
{ACAD_REACTORS
330
A835
102
}
330
A835
100
DictionaryVariables
280
     0
  1
STANDARD
  0
DICTIONARYVAR
  5
A838
102
{ACAD_REACTORS
330
A835
102
}
330
A835
100
DictionaryVariables
280
     0
  1
Imperial24
  0
DICTIONARYVAR
  5
A839
102
{ACAD_REACTORS
330
A835
102
}
330
A835
100
DictionaryVariables
280
     0
  1
Imperial24
  0
DICTIONARYVAR
  5
A83D
102
{ACAD_REACTORS
330
A835
102
}
330
A835
100
DictionaryVariables
280
     0
  1
1
  0
DICTIONARYVAR
  5
A83C
102
{ACAD_REACTORS
330
A835
102
}
330
A835
100
DictionaryVariables
280
     0
  1
0
  0
DICTIONARYVAR
  5
A83B
102
{ACAD_REACTORS
330
A835
102
}
330
A835
100
DictionaryVariables
280
     0
  1
127
  0
DICTIONARYVAR
  5
A83E
102
{ACAD_REACTORS
330
A835
102
}
330
A835
100
DictionaryVariables
280
     0
  1
2
  0
DICTIONARY
  5
A87B
330
A820
100
AcDbDictionary
280
     1
281
     1
  3
ACAD_XREC_ROUNDTRIP
360
A87C
  0
DICTIONARY
  5
A87D
330
A821
100
AcDbDictionary
280
     1
281
     1
  3
ACAD_XREC_ROUNDTRIP
360
A87E
  0
DICTIONARY
  5
A87F
330
A822
100
AcDbDictionary
280
     1
281
     1
  3
ACAD_XREC_ROUNDTRIP
360
A880
  0
DICTIONARY
  5
A7DE
330
A7DD
100
AcDbDictionary
280
     1
281
     1
  3
ACAD_XREC_ROUNDTRIP
360
A845
  3
BUMPTILE
360
A7E0
  3
DIFFUSETILE
360
A7DF
  3
OPACITYTILE
360
A7E3
  3
REFLECTIONTILE
360
A7E2
  3
REFRACTIONTILE
360
A7E4
  3
SPECULARTILE
360
A7E1
  0
DICTIONARY
  5
A7D6
330
A7D5
100
AcDbDictionary
280
     1
281
     1
  3
ACAD_XREC_ROUNDTRIP
360
A844
  3
BUMPTILE
360
A7D8
  3
DIFFUSETILE
360
A7D7
  3
OPACITYTILE
360
A7DB
  3
REFLECTIONTILE
360
A7DA
  3
REFRACTIONTILE
360
A7DC
  3
SPECULARTILE
360
A7D9
  0
DICTIONARY
  5
A7E6
330
A7E5
100
AcDbDictionary
280
     1
281
     1
  3
ACAD_XREC_ROUNDTRIP
360
A846
  3
BUMPTILE
360
A7E8
  3
DIFFUSETILE
360
A7E7
  3
OPACITYTILE
360
A7EB
  3
REFLECTIONTILE
360
A7EA
  3
REFRACTIONTILE
360
A7EC
  3
SPECULARTILE
360
A7E9
  0
DICTIONARY
  5
A879
330
A81E
100
AcDbDictionary
280
     1
281
     1
  3
ACAD_XREC_ROUNDTRIP
360
A87A
  0
DICTIONARY
  5
A840
330
A808
100
AcDbDictionary
280
     1
281
     1
  3
ACAD_ROUNDTRIP_2008_TABLESTYLE_CELLSTYLEMAP
360
A841
  3
ACAD_XREC_ROUNDTRIP
360
A877
  0
DICTIONARY
  5
A851
330
A7F3
100
AcDbDictionary
280
     1
281
     1
  3
ACAD_XREC_ROUNDTRIP
360
A852
  0
DICTIONARY
  5
A84F
330
A7F2
100
AcDbDictionary
280
     1
281
     1
  3
ACAD_XREC_ROUNDTRIP
360
A850
  0
DICTIONARY
  5
A85D
330
A7F9
100
AcDbDictionary
280
     1
281
     1
  3
ACAD_XREC_ROUNDTRIP
360
A85E
  0
DICTIONARY
  5
A865
330
A7FD
100
AcDbDictionary
280
     1
281
     1
  3
ACAD_XREC_ROUNDTRIP
360
A866
  0
DICTIONARY
  5
A857
330
A7F6
100
AcDbDictionary
280
     1
281
     1
  3
ACAD_XREC_ROUNDTRIP
360
A858
  0
DICTIONARY
  5
A85B
330
A7F8
100
AcDbDictionary
280
     1
281
     1
  3
ACAD_XREC_ROUNDTRIP
360
A85C
  0
DICTIONARY
  5
A875
330
A805
100
AcDbDictionary
280
     1
281
     1
  3
ACAD_XREC_ROUNDTRIP
360
A876
  0
DICTIONARY
  5
A863
330
A7FC
100
AcDbDictionary
280
     1
281
     1
  3
ACAD_XREC_ROUNDTRIP
360
A864
  0
DICTIONARY
  5
A847
330
A7EE
100
AcDbDictionary
280
     1
281
     1
  3
ACAD_XREC_ROUNDTRIP
360
A848
  0
DICTIONARY
  5
A849
330
A7EF
100
AcDbDictionary
280
     1
281
     1
  3
ACAD_XREC_ROUNDTRIP
360
A84A
  0
DICTIONARY
  5
A84B
330
A7F0
100
AcDbDictionary
280
     1
281
     1
  3
ACAD_XREC_ROUNDTRIP
360
A84C
  0
DICTIONARY
  5
A84D
330
A7F1
100
AcDbDictionary
280
     1
281
     1
  3
ACAD_XREC_ROUNDTRIP
360
A84E
  0
DICTIONARY
  5
A855
330
A7F5
100
AcDbDictionary
280
     1
281
     1
  3
ACAD_XREC_ROUNDTRIP
360
A856
  0
DICTIONARY
  5
A871
330
A803
100
AcDbDictionary
280
     1
281
     1
  3
ACAD_XREC_ROUNDTRIP
360
A872
  0
DICTIONARY
  5
A861
330
A7FB
100
AcDbDictionary
280
     1
281
     1
  3
ACAD_XREC_ROUNDTRIP
360
A862
  0
DICTIONARY
  5
A873
330
A804
100
AcDbDictionary
280
     1
281
     1
  3
ACAD_XREC_ROUNDTRIP
360
A874
  0
DICTIONARY
  5
A859
330
A7F7
100
AcDbDictionary
280
     1
281
     1
  3
ACAD_XREC_ROUNDTRIP
360
A85A
  0
DICTIONARY
  5
A86F
330
A802
100
AcDbDictionary
280
     1
281
     1
  3
ACAD_XREC_ROUNDTRIP
360
A870
  0
DICTIONARY
  5
A86D
330
A801
100
AcDbDictionary
280
     1
281
     1
  3
ACAD_XREC_ROUNDTRIP
360
A86E
  0
DICTIONARY
  5
A867
330
A7FE
100
AcDbDictionary
280
     1
281
     1
  3
ACAD_XREC_ROUNDTRIP
360
A868
  0
DICTIONARY
  5
A869
330
A7FF
100
AcDbDictionary
280
     1
281
     1
  3
ACAD_XREC_ROUNDTRIP
360
A86A
  0
DICTIONARY
  5
A85F
330
A7FA
100
AcDbDictionary
280
     1
281
     1
  3
ACAD_XREC_ROUNDTRIP
360
A860
  0
DICTIONARY
  5
A853
330
A7F4
100
AcDbDictionary
280
     1
281
     1
  3
ACAD_XREC_ROUNDTRIP
360
A854
  0
DICTIONARY
  5
A86B
330
A800
100
AcDbDictionary
280
     1
281
     1
  3
ACAD_XREC_ROUNDTRIP
360
A86C
  0
XRECORD
  5
A87C
102
{ACAD_REACTORS
330
A87B
102
}
330
A87B
100
AcDbXrecord
280
     1
102
DISPLAYNAME
  1
Imperial24
102
FLAGS
 90
        0
  0
XRECORD
  5
A87E
102
{ACAD_REACTORS
330
A87D
102
}
330
A87D
100
AcDbXrecord
280
     1
102
SHADEPLOT
 70
     0
102
SHADEPLOTRESLEVEL
 70
     2
102
SHADEPLOTCUSTOMDPI
 70
   300
  0
XRECORD
  5
A880
102
{ACAD_REACTORS
330
A87F
102
}
330
A87F
100
AcDbXrecord
280
     1
102
SHADEPLOT
 70
     0
102
SHADEPLOTRESLEVEL
 70
     2
102
SHADEPLOTCUSTOMDPI
 70
   300
  0
XRECORD
  5
A845
102
{ACAD_REACTORS
330
A7DE
102
}
330
A7DE
100
AcDbXrecord
280
     1
102
MATERIAL
148
0.0
149
0.0
149
0.0
 93
        0
 94
      127
282
     0
 72
     0
 77
     0
171
     0
175
     0
179
     0
273
     0
  0
XRECORD
  5
A7E0
102
{ACAD_REACTORS
330
A7DE
102
}
330
A7DE
100
AcDbXrecord
280
     1
270
     1
271
     1
  0
XRECORD
  5
A7DF
102
{ACAD_REACTORS
330
A7DE
102
}
330
A7DE
100
AcDbXrecord
280
     1
270
     1
271
     1
  0
XRECORD
  5
A7E3
102
{ACAD_REACTORS
330
A7DE
102
}
330
A7DE
100
AcDbXrecord
280
     1
270
     1
271
     1
  0
XRECORD
  5
A7E2
102
{ACAD_REACTORS
330
A7DE
102
}
330
A7DE
100
AcDbXrecord
280
     1
270
     1
271
     1
  0
XRECORD
  5
A7E4
102
{ACAD_REACTORS
330
A7DE
102
}
330
A7DE
100
AcDbXrecord
280
     1
270
     1
271
     1
  0
XRECORD
  5
A7E1
102
{ACAD_REACTORS
330
A7DE
102
}
330
A7DE
100
AcDbXrecord
280
     1
270
     1
271
     1
  0
XRECORD
  5
A844
102
{ACAD_REACTORS
330
A7D6
102
}
330
A7D6
100
AcDbXrecord
280
     1
102
MATERIAL
148
0.0
149
0.0
149
0.0
 93
        0
 94
      127
282
     0
 72
     0
 77
     0
171
     0
175
     0
179
     0
273
     0
  0
XRECORD
  5
A7D8
102
{ACAD_REACTORS
330
A7D6
102
}
330
A7D6
100
AcDbXrecord
280
     1
270
     1
271
     1
  0
XRECORD
  5
A7D7
102
{ACAD_REACTORS
330
A7D6
102
}
330
A7D6
100
AcDbXrecord
280
     1
270
     1
271
     1
  0
XRECORD
  5
A7DB
102
{ACAD_REACTORS
330
A7D6
102
}
330
A7D6
100
AcDbXrecord
280
     1
270
     1
271
     1
  0
XRECORD
  5
A7DA
102
{ACAD_REACTORS
330
A7D6
102
}
330
A7D6
100
AcDbXrecord
280
     1
270
     1
271
     1
  0
XRECORD
  5
A7DC
102
{ACAD_REACTORS
330
A7D6
102
}
330
A7D6
100
AcDbXrecord
280
     1
270
     1
271
     1
  0
XRECORD
  5
A7D9
102
{ACAD_REACTORS
330
A7D6
102
}
330
A7D6
100
AcDbXrecord
280
     1
270
     1
271
     1
  0
XRECORD
  5
A846
102
{ACAD_REACTORS
330
A7E6
102
}
330
A7E6
100
AcDbXrecord
280
     1
102
MATERIAL
148
0.0
149
0.0
149
0.0
 93
        0
 94
      127
282
     0
 72
     0
 77
     0
171
     0
175
     0
179
     0
273
     0
  0
XRECORD
  5
A7E8
102
{ACAD_REACTORS
330
A7E6
102
}
330
A7E6
100
AcDbXrecord
280
     1
270
     1
271
     1
  0
XRECORD
  5
A7E7
102
{ACAD_REACTORS
330
A7E6
102
}
330
A7E6
100
AcDbXrecord
280
     1
270
     1
271
     1
  0
XRECORD
  5
A7EB
102
{ACAD_REACTORS
330
A7E6
102
}
330
A7E6
100
AcDbXrecord
280
     1
270
     1
271
     1
  0
XRECORD
  5
A7EA
102
{ACAD_REACTORS
330
A7E6
102
}
330
A7E6
100
AcDbXrecord
280
     1
270
     1
271
     1
  0
XRECORD
  5
A7EC
102
{ACAD_REACTORS
330
A7E6
102
}
330
A7E6
100
AcDbXrecord
280
     1
270
     1
271
     1
  0
XRECORD
  5
A7E9
102
{ACAD_REACTORS
330
A7E6
102
}
330
A7E6
100
AcDbXrecord
280
     1
270
     1
271
     1
  0
XRECORD
  5
A87A
102
{ACAD_REACTORS
330
A879
102
}
330
A879
100
AcDbXrecord
280
     1
102
DISPLAYNAME
  1
Imperial24
102
FLAGS
 90
        0
  0
CELLSTYLEMAP
  5
A841
102
{ACAD_REACTORS
330
A840
102
}
330
A840
100
AcDbCellStyleMap
 90
        3
300
CELLSTYLE
  1
TABLEFORMAT_BEGIN
 90
        5
170
     1
 91
        0
 92
    32768
 62
   257
 93
        1
300
CONTENTFORMAT
  1
CONTENTFORMAT_BEGIN
 90
        0
 91
        0
 92
      512
 93
        0
300

 40
0.0
140
1.0
 94
        5
 62
     0
340
A5BB
144
0.25
309
CONTENTFORMAT_END
171
     0
 94
        0
309
TABLEFORMAT_END
  1
CELLSTYLE_BEGIN
 90
        1
 91
        1
300
_TITLE
309
CELLSTYLE_END
300
CELLSTYLE
  1
TABLEFORMAT_BEGIN
 90
        5
170
     1
 91
        0
 92
        0
 62
   257
 93
        1
300
CONTENTFORMAT
  1
CONTENTFORMAT_BEGIN
 90
        0
 91
        0
 92
      512
 93
        0
300

 40
0.0
140
1.0
 94
        5
 62
     0
340
A5BB
144
0.18
309
CONTENTFORMAT_END
171
     0
 94
        0
309
TABLEFORMAT_END
  1
CELLSTYLE_BEGIN
 90
        2
 91
        1
300
_HEADER
309
CELLSTYLE_END
300
CELLSTYLE
  1
TABLEFORMAT_BEGIN
 90
        5
170
     1
 91
        0
 92
        0
 62
   257
 93
        1
300
CONTENTFORMAT
  1
CONTENTFORMAT_BEGIN
 90
        0
 91
        0
 92
      512
 93
        0
300

 40
0.0
140
1.0
 94
        2
 62
     0
340
A5BB
144
0.18
309
CONTENTFORMAT_END
171
     0
 94
        0
309
TABLEFORMAT_END
  1
CELLSTYLE_BEGIN
 90
        3
 91
        2
300
_DATA
309
CELLSTYLE_END
  0
XRECORD
  5
A877
102
{ACAD_REACTORS
330
A840
102
}
330
A840
100
AcDbXrecord
280
     1
102
ACAD_ROUNDTRIP_PRE2007_TABLESTYLE
 90
      512
 91
        0
  1

 92
      512
 93
        0
  2

 94
      512
 95
        0
  3

  0
XRECORD
  5
A852
102
{ACAD_REACTORS
330
A851
102
}
330
A851
100
AcDbXrecord
280
     1
102
RTVSPost2010Prop28
280
     1
102
RTVSPost2010PropOp28
 70
     1
102
RTVSPost2010Prop29
280
     1
102
RTVSPost2010PropOp29
 70
     1
102
RTVSPost2010Prop30
280
     0
102
RTVSPost2010PropOp30
 70
     1
102
RTVSPost2010Prop31
280
     0
102
RTVSPost2010PropOp31
 70
     1
102
RTVSPost2010Prop32
280
     0
102
RTVSPost2010PropOp32
 70
     1
102
RTVSPost2010Prop33
280
     0
102
RTVSPost2010PropOp33
 70
     1
102
RTVSPost2010Prop34
280
     0
102
RTVSPost2010PropOp34
 70
     1
102
RTVSPost2010Prop35
280
     0
102
RTVSPost2010PropOp35
 70
     1
102
RTVSPost2010Prop36
280
     0
102
RTVSPost2010PropOp36
 70
     1
102
RTVSPost2010Prop37
 90
       50
102
RTVSPost2010PropOp37
 70
     1
102
RTVSPost2010Prop38
140
0.0
102
RTVSPost2010PropOp38
 70
     1
102
RTVSPost2010Prop39
140
1.0
102
RTVSPost2010PropOp39
 70
     1
102
RTVSPost2010Prop40
 90
        0
102
RTVSPost2010PropOp40
 70
     1
102
RTVSPost2010Prop41ColorIndex
 90
       18
102
RTVSPost2010Prop41ColorRGB
 90
        0
102
RTVSPost2010PropOp41
 70
     1
102
RTVSPost2010Prop42
 90
       50
102
RTVSPost2010PropOp42
 70
     1
102
RTVSPost2010Prop43
 90
        3
102
RTVSPost2010PropOp43
 70
     1
102
RTVSPost2010Prop44ColorIndex
 90
        5
102
RTVSPost2010Prop44ColorRGB
 90
      255
102
RTVSPost2010PropOp44
 70
     1
102
RTVSPost2010Prop45
280
     0
102
RTVSPost2010PropOp45
 70
     1
102
RTVSPost2010Prop46
 90
       50
102
RTVSPost2010PropOp46
 70
     1
102
RTVSPost2010Prop47
 90
       50
102
RTVSPost2010PropOp47
 70
     1
102
RTVSPost2010Prop48
 90
       50
102
RTVSPost2010PropOp48
 70
     1
102
RTVSPost2010Prop49
280
     0
102
RTVSPost2010PropOp49
 70
     1
102
RTVSPost2010Prop50
 90
       50
102
RTVSPost2010PropOp50
 70
     1
102
RTVSPost2010Prop51ColorIndex
 90
      256
102
RTVSPost2010Prop51ColorRGB
 90
-16777216
102
RTVSPost2010PropOp51
 70
     0
102
RTVSPost2010Prop52
140
1.0
102
RTVSPost2010PropOp52
 70
     0
102
RTVSPost2010Prop53
 90
        2
102
RTVSPost2010PropOp53
 70
     1
102
RTVSPost2010Prop54
  1
strokes_ogs.tif
102
RTVSPost2010PropOp54
 70
     1
102
RTVSPost2010Prop55
280
     0
102
RTVSPost2010PropOp55
 70
     1
102
RTVSPost2010Prop56
140
1.0
102
RTVSPost2010PropOp56
 70
     1
102
RTVSPost2010Prop57
140
1.0
102
RTVSPost2010PropOp57
 70
     1
102
RTVSPropertyOp0
 70
     1
102
RTVSPropertyOp1
 70
     1
102
RTVSPropertyOp2
 70
     1
102
RTVSPropertyOp3
 70
     1
102
RTVSPropertyOp4
 70
     1
102
RTVSPropertyOp5
 70
     1
102
RTVSPropertyOp6
 70
     1
102
RTVSPropertyOp7
 70
     1
102
RTVSPropertyOp8
 70
     1
102
RTVSPropertyOp9
 70
     1
102
RTVSPropertyOp10
 70
     1
102
RTVSPropertyOp11
 70
     1
102
RTVSPropertyOp12
 70
     1
102
RTVSPropertyOp13
 70
     1
102
RTVSPropertyOp14
 70
     1
102
RTVSPropertyOp15
 70
     1
102
RTVSPropertyOp16
 70
     1
102
RTVSPropertyOp17
 70
     1
102
RTVSPropertyOp18
 70
     1
102
RTVSPropertyOp19
 70
     1
102
RTVSPropertyOp20
 70
     1
102
RTVSPropertyOp21
 70
     1
102
RTVSPropertyOp22
 70
     1
102
RTVSPropertyOp23
 70
     1
102
RTVSPropertyOp24
 70
     1
102
RTVSPropertyOp25
 70
     1
102
RTVSPropertyOp26
 70
     1
102
RTVSPropertyOp27
 70
     1
102
RTVSPropertyOp28
 70
     1
102
RTVSPropertyOp29
 70
     1
102
RTVSPropertyOp30
 70
     1
102
RTVSPropertyOp31
 70
     1
102
RTVSPropertyOp32
 70
     1
102
RTVSPropertyOp33
 70
     1
102
RTVSPropertyOp34
 70
     1
102
RTVSPropertyOp35
 70
     1
102
RTVSPropertyOp36
 70
     1
102
RTVSPropertyOp37
 70
     1
102
RTVSPropertyOp38
 70
     1
102
RTVSPropertyOp39
 70
     1
102
RTVSPropertyOp40
 70
     1
102
RTVSPropertyOp41
 70
     1
102
RTVSPropertyOp42
 70
     1
102
RTVSPropertyOp43
 70
     1
102
RTVSPropertyOp44
 70
     1
102
RTVSPropertyOp45
 70
     1
102
RTVSPropertyOp46
 70
     1
102
RTVSPropertyOp47
 70
     1
102
RTVSPropertyOp48
 70
     1
102
RTVSPropertyOp49
 70
     1
102
RTVSPropertyOp50
 70
     1
102
RTVSPropertyOp51
 70
     0
102
RTVSPropertyOp52
 70
     0
102
RTVSPropertyOp53
 70
     1
102
RTVSPropertyOp54
 70
     1
102
RTVSPropertyOp55
 70
     1
102
RTVSPropertyOp56
 70
     1
102
RTVSPropertyOp57
 70
     1
102
RTVSPropertyOp58
 70
     1
102
RTVSPropertyOp59
 70
     1
102
RTVSPropertyOp60
 70
     1
102
RTVSPropertyOp61
 70
     1
102
RTVSPropertyOp62
 70
     1
  0
XRECORD
  5
A850
102
{ACAD_REACTORS
330
A84F
102
}
330
A84F
100
AcDbXrecord
280
     1
102
RTVSPost2010Prop28
280
     0
102
RTVSPost2010PropOp28
 70
     1
102
RTVSPost2010Prop29
280
     1
102
RTVSPost2010PropOp29
 70
     1
102
RTVSPost2010Prop30
280
     1
102
RTVSPost2010PropOp30
 70
     1
102
RTVSPost2010Prop31
280
     0
102
RTVSPost2010PropOp31
 70
     1
102
RTVSPost2010Prop32
280
     0
102
RTVSPost2010PropOp32
 70
     1
102
RTVSPost2010Prop33
280
     0
102
RTVSPost2010PropOp33
 70
     1
102
RTVSPost2010Prop34
280
     0
102
RTVSPost2010PropOp34
 70
     1
102
RTVSPost2010Prop35
280
     0
102
RTVSPost2010PropOp35
 70
     1
102
RTVSPost2010Prop36
280
     0
102
RTVSPost2010PropOp36
 70
     1
102
RTVSPost2010Prop37
 90
       50
102
RTVSPost2010PropOp37
 70
     1
102
RTVSPost2010Prop38
140
0.0
102
RTVSPost2010PropOp38
 70
     1
102
RTVSPost2010Prop39
140
1.0
102
RTVSPost2010PropOp39
 70
     1
102
RTVSPost2010Prop40
 90
        0
102
RTVSPost2010PropOp40
 70
     1
102
RTVSPost2010Prop41ColorIndex
 90
       18
102
RTVSPost2010Prop41ColorRGB
 90
        0
102
RTVSPost2010PropOp41
 70
     1
102
RTVSPost2010Prop42
 90
       50
102
RTVSPost2010PropOp42
 70
     1
102
RTVSPost2010Prop43
 90
        3
102
RTVSPost2010PropOp43
 70
     1
102
RTVSPost2010Prop44ColorIndex
 90
        5
102
RTVSPost2010Prop44ColorRGB
 90
      255
102
RTVSPost2010PropOp44
 70
     1
102
RTVSPost2010Prop45
280
     0
102
RTVSPost2010PropOp45
 70
     1
102
RTVSPost2010Prop46
 90
       50
102
RTVSPost2010PropOp46
 70
     1
102
RTVSPost2010Prop47
 90
       50
102
RTVSPost2010PropOp47
 70
     1
102
RTVSPost2010Prop48
 90
       50
102
RTVSPost2010PropOp48
 70
     1
102
RTVSPost2010Prop49
280
     0
102
RTVSPost2010PropOp49
 70
     1
102
RTVSPost2010Prop50
 90
       50
102
RTVSPost2010PropOp50
 70
     1
102
RTVSPost2010Prop51ColorIndex
 90
      256
102
RTVSPost2010Prop51ColorRGB
 90
-16777216
102
RTVSPost2010PropOp51
 70
     0
102
RTVSPost2010Prop52
140
1.0
102
RTVSPost2010PropOp52
 70
     0
102
RTVSPost2010Prop53
 90
        2
102
RTVSPost2010PropOp53
 70
     1
102
RTVSPost2010Prop54
  1
strokes_ogs.tif
102
RTVSPost2010PropOp54
 70
     1
102
RTVSPost2010Prop55
280
     0
102
RTVSPost2010PropOp55
 70
     1
102
RTVSPost2010Prop56
140
1.0
102
RTVSPost2010PropOp56
 70
     1
102
RTVSPost2010Prop57
140
1.0
102
RTVSPost2010PropOp57
 70
     1
102
RTVSPropertyOp0
 70
     1
102
RTVSPropertyOp1
 70
     1
102
RTVSPropertyOp2
 70
     1
102
RTVSPropertyOp3
 70
     1
102
RTVSPropertyOp4
 70
     1
102
RTVSPropertyOp5
 70
     1
102
RTVSPropertyOp6
 70
     1
102
RTVSPropertyOp7
 70
     1
102
RTVSPropertyOp8
 70
     1
102
RTVSPropertyOp9
 70
     1
102
RTVSPropertyOp10
 70
     1
102
RTVSPropertyOp11
 70
     1
102
RTVSPropertyOp12
 70
     1
102
RTVSPropertyOp13
 70
     1
102
RTVSPropertyOp14
 70
     1
102
RTVSPropertyOp15
 70
     1
102
RTVSPropertyOp16
 70
     1
102
RTVSPropertyOp17
 70
     1
102
RTVSPropertyOp18
 70
     1
102
RTVSPropertyOp19
 70
     1
102
RTVSPropertyOp20
 70
     1
102
RTVSPropertyOp21
 70
     1
102
RTVSPropertyOp22
 70
     1
102
RTVSPropertyOp23
 70
     1
102
RTVSPropertyOp24
 70
     1
102
RTVSPropertyOp25
 70
     1
102
RTVSPropertyOp26
 70
     1
102
RTVSPropertyOp27
 70
     1
102
RTVSPropertyOp28
 70
     1
102
RTVSPropertyOp29
 70
     1
102
RTVSPropertyOp30
 70
     1
102
RTVSPropertyOp31
 70
     1
102
RTVSPropertyOp32
 70
     1
102
RTVSPropertyOp33
 70
     1
102
RTVSPropertyOp34
 70
     1
102
RTVSPropertyOp35
 70
     1
102
RTVSPropertyOp36
 70
     1
102
RTVSPropertyOp37
 70
     1
102
RTVSPropertyOp38
 70
     1
102
RTVSPropertyOp39
 70
     1
102
RTVSPropertyOp40
 70
     1
102
RTVSPropertyOp41
 70
     1
102
RTVSPropertyOp42
 70
     1
102
RTVSPropertyOp43
 70
     1
102
RTVSPropertyOp44
 70
     1
102
RTVSPropertyOp45
 70
     1
102
RTVSPropertyOp46
 70
     1
102
RTVSPropertyOp47
 70
     1
102
RTVSPropertyOp48
 70
     1
102
RTVSPropertyOp49
 70
     1
102
RTVSPropertyOp50
 70
     1
102
RTVSPropertyOp51
 70
     0
102
RTVSPropertyOp52
 70
     0
102
RTVSPropertyOp53
 70
     1
102
RTVSPropertyOp54
 70
     1
102
RTVSPropertyOp55
 70
     1
102
RTVSPropertyOp56
 70
     1
102
RTVSPropertyOp57
 70
     1
102
RTVSPropertyOp58
 70
     1
102
RTVSPropertyOp59
 70
     1
102
RTVSPropertyOp60
 70
     1
102
RTVSPropertyOp61
 70
     1
102
RTVSPropertyOp62
 70
     1
  0
XRECORD
  5
A85E
102
{ACAD_REACTORS
330
A85D
102
}
330
A85D
100
AcDbXrecord
280
     1
102
RTVSPost2010Prop28
280
     0
102
RTVSPost2010PropOp28
 70
     1
102
RTVSPost2010Prop29
280
     1
102
RTVSPost2010PropOp29
 70
     1
102
RTVSPost2010Prop30
280
     1
102
RTVSPost2010PropOp30
 70
     1
102
RTVSPost2010Prop31
280
     0
102
RTVSPost2010PropOp31
 70
     1
102
RTVSPost2010Prop32
280
     0
102
RTVSPost2010PropOp32
 70
     1
102
RTVSPost2010Prop33
280
     0
102
RTVSPost2010PropOp33
 70
     1
102
RTVSPost2010Prop34
280
     0
102
RTVSPost2010PropOp34
 70
     1
102
RTVSPost2010Prop35
280
     0
102
RTVSPost2010PropOp35
 70
     1
102
RTVSPost2010Prop36
280
     0
102
RTVSPost2010PropOp36
 70
     1
102
RTVSPost2010Prop37
 90
       50
102
RTVSPost2010PropOp37
 70
     1
102
RTVSPost2010Prop38
140
0.0
102
RTVSPost2010PropOp38
 70
     1
102
RTVSPost2010Prop39
140
1.0
102
RTVSPost2010PropOp39
 70
     1
102
RTVSPost2010Prop40
 90
        0
102
RTVSPost2010PropOp40
 70
     1
102
RTVSPost2010Prop41ColorIndex
 90
       18
102
RTVSPost2010Prop41ColorRGB
 90
        0
102
RTVSPost2010PropOp41
 70
     1
102
RTVSPost2010Prop42
 90
       50
102
RTVSPost2010PropOp42
 70
     1
102
RTVSPost2010Prop43
 90
        3
102
RTVSPost2010PropOp43
 70
     1
102
RTVSPost2010Prop44ColorIndex
 90
        5
102
RTVSPost2010Prop44ColorRGB
 90
      255
102
RTVSPost2010PropOp44
 70
     1
102
RTVSPost2010Prop45
280
     0
102
RTVSPost2010PropOp45
 70
     1
102
RTVSPost2010Prop46
 90
       50
102
RTVSPost2010PropOp46
 70
     1
102
RTVSPost2010Prop47
 90
       50
102
RTVSPost2010PropOp47
 70
     1
102
RTVSPost2010Prop48
 90
       50
102
RTVSPost2010PropOp48
 70
     1
102
RTVSPost2010Prop49
280
     0
102
RTVSPost2010PropOp49
 70
     1
102
RTVSPost2010Prop50
 90
       50
102
RTVSPost2010PropOp50
 70
     1
102
RTVSPost2010Prop51ColorIndex
 90
      256
102
RTVSPost2010Prop51ColorRGB
 90
-16777216
102
RTVSPost2010PropOp51
 70
     0
102
RTVSPost2010Prop52
140
1.0
102
RTVSPost2010PropOp52
 70
     0
102
RTVSPost2010Prop53
 90
        2
102
RTVSPost2010PropOp53
 70
     1
102
RTVSPost2010Prop54
  1
strokes_ogs.tif
102
RTVSPost2010PropOp54
 70
     1
102
RTVSPost2010Prop55
280
     0
102
RTVSPost2010PropOp55
 70
     1
102
RTVSPost2010Prop56
140
1.0
102
RTVSPost2010PropOp56
 70
     1
102
RTVSPost2010Prop57
140
1.0
102
RTVSPost2010PropOp57
 70
     1
102
RTVSPropertyOp0
 70
     1
102
RTVSPropertyOp1
 70
     1
102
RTVSPropertyOp2
 70
     1
102
RTVSPropertyOp3
 70
     1
102
RTVSPropertyOp4
 70
     1
102
RTVSPropertyOp5
 70
     1
102
RTVSPropertyOp6
 70
     1
102
RTVSPropertyOp7
 70
     1
102
RTVSPropertyOp8
 70
     1
102
RTVSPropertyOp9
 70
     1
102
RTVSPropertyOp10
 70
     1
102
RTVSPropertyOp11
 70
     1
102
RTVSPropertyOp12
 70
     1
102
RTVSPropertyOp13
 70
     1
102
RTVSPropertyOp14
 70
     1
102
RTVSPropertyOp15
 70
     1
102
RTVSPropertyOp16
 70
     1
102
RTVSPropertyOp17
 70
     1
102
RTVSPropertyOp18
 70
     1
102
RTVSPropertyOp19
 70
     1
102
RTVSPropertyOp20
 70
     1
102
RTVSPropertyOp21
 70
     1
102
RTVSPropertyOp22
 70
     1
102
RTVSPropertyOp23
 70
     1
102
RTVSPropertyOp24
 70
     1
102
RTVSPropertyOp25
 70
     1
102
RTVSPropertyOp26
 70
     1
102
RTVSPropertyOp27
 70
     1
102
RTVSPropertyOp28
 70
     1
102
RTVSPropertyOp29
 70
     1
102
RTVSPropertyOp30
 70
     1
102
RTVSPropertyOp31
 70
     1
102
RTVSPropertyOp32
 70
     1
102
RTVSPropertyOp33
 70
     1
102
RTVSPropertyOp34
 70
     1
102
RTVSPropertyOp35
 70
     1
102
RTVSPropertyOp36
 70
     1
102
RTVSPropertyOp37
 70
     1
102
RTVSPropertyOp38
 70
     1
102
RTVSPropertyOp39
 70
     1
102
RTVSPropertyOp40
 70
     1
102
RTVSPropertyOp41
 70
     1
102
RTVSPropertyOp42
 70
     1
102
RTVSPropertyOp43
 70
     1
102
RTVSPropertyOp44
 70
     1
102
RTVSPropertyOp45
 70
     1
102
RTVSPropertyOp46
 70
     1
102
RTVSPropertyOp47
 70
     1
102
RTVSPropertyOp48
 70
     1
102
RTVSPropertyOp49
 70
     1
102
RTVSPropertyOp50
 70
     1
102
RTVSPropertyOp51
 70
     0
102
RTVSPropertyOp52
 70
     0
102
RTVSPropertyOp53
 70
     1
102
RTVSPropertyOp54
 70
     1
102
RTVSPropertyOp55
 70
     1
102
RTVSPropertyOp56
 70
     1
102
RTVSPropertyOp57
 70
     1
102
RTVSPropertyOp58
 70
     1
102
RTVSPropertyOp59
 70
     1
102
RTVSPropertyOp60
 70
     1
102
RTVSPropertyOp61
 70
     1
102
RTVSPropertyOp62
 70
     1
  0
XRECORD
  5
A866
102
{ACAD_REACTORS
330
A865
102
}
330
A865
100
AcDbXrecord
280
     1
102
RTVSPost2010Prop28
280
     0
102
RTVSPost2010PropOp28
 70
     1
102
RTVSPost2010Prop29
280
     1
102
RTVSPost2010PropOp29
 70
     1
102
RTVSPost2010Prop30
280
     1
102
RTVSPost2010PropOp30
 70
     1
102
RTVSPost2010Prop31
280
     0
102
RTVSPost2010PropOp31
 70
     1
102
RTVSPost2010Prop32
280
     0
102
RTVSPost2010PropOp32
 70
     1
102
RTVSPost2010Prop33
280
     0
102
RTVSPost2010PropOp33
 70
     1
102
RTVSPost2010Prop34
280
     0
102
RTVSPost2010PropOp34
 70
     1
102
RTVSPost2010Prop35
280
     0
102
RTVSPost2010PropOp35
 70
     1
102
RTVSPost2010Prop36
280
     0
102
RTVSPost2010PropOp36
 70
     1
102
RTVSPost2010Prop37
 90
       50
102
RTVSPost2010PropOp37
 70
     1
102
RTVSPost2010Prop38
140
0.0
102
RTVSPost2010PropOp38
 70
     1
102
RTVSPost2010Prop39
140
1.0
102
RTVSPost2010PropOp39
 70
     1
102
RTVSPost2010Prop40
 90
        0
102
RTVSPost2010PropOp40
 70
     1
102
RTVSPost2010Prop41ColorIndex
 90
       18
102
RTVSPost2010Prop41ColorRGB
 90
        0
102
RTVSPost2010PropOp41
 70
     1
102
RTVSPost2010Prop42
 90
       50
102
RTVSPost2010PropOp42
 70
     1
102
RTVSPost2010Prop43
 90
        3
102
RTVSPost2010PropOp43
 70
     1
102
RTVSPost2010Prop44ColorIndex
 90
        5
102
RTVSPost2010Prop44ColorRGB
 90
      255
102
RTVSPost2010PropOp44
 70
     1
102
RTVSPost2010Prop45
280
     0
102
RTVSPost2010PropOp45
 70
     1
102
RTVSPost2010Prop46
 90
       50
102
RTVSPost2010PropOp46
 70
     1
102
RTVSPost2010Prop47
 90
       50
102
RTVSPost2010PropOp47
 70
     1
102
RTVSPost2010Prop48
 90
       50
102
RTVSPost2010PropOp48
 70
     1
102
RTVSPost2010Prop49
280
     0
102
RTVSPost2010PropOp49
 70
     1
102
RTVSPost2010Prop50
 90
       50
102
RTVSPost2010PropOp50
 70
     1
102
RTVSPost2010Prop51ColorIndex
 90
      256
102
RTVSPost2010Prop51ColorRGB
 90
-16777216
102
RTVSPost2010PropOp51
 70
     0
102
RTVSPost2010Prop52
140
1.0
102
RTVSPost2010PropOp52
 70
     0
102
RTVSPost2010Prop53
 90
        2
102
RTVSPost2010PropOp53
 70
     1
102
RTVSPost2010Prop54
  1
strokes_ogs.tif
102
RTVSPost2010PropOp54
 70
     1
102
RTVSPost2010Prop55
280
     0
102
RTVSPost2010PropOp55
 70
     1
102
RTVSPost2010Prop56
140
1.0
102
RTVSPost2010PropOp56
 70
     1
102
RTVSPost2010Prop57
140
1.0
102
RTVSPost2010PropOp57
 70
     1
102
RTVSPropertyOp0
 70
     1
102
RTVSPropertyOp1
 70
     1
102
RTVSPropertyOp2
 70
     1
102
RTVSPropertyOp3
 70
     1
102
RTVSPropertyOp4
 70
     1
102
RTVSPropertyOp5
 70
     1
102
RTVSPropertyOp6
 70
     1
102
RTVSPropertyOp7
 70
     1
102
RTVSPropertyOp8
 70
     1
102
RTVSPropertyOp9
 70
     1
102
RTVSPropertyOp10
 70
     1
102
RTVSPropertyOp11
 70
     1
102
RTVSPropertyOp12
 70
     1
102
RTVSPropertyOp13
 70
     1
102
RTVSPropertyOp14
 70
     1
102
RTVSPropertyOp15
 70
     1
102
RTVSPropertyOp16
 70
     1
102
RTVSPropertyOp17
 70
     1
102
RTVSPropertyOp18
 70
     1
102
RTVSPropertyOp19
 70
     1
102
RTVSPropertyOp20
 70
     1
102
RTVSPropertyOp21
 70
     1
102
RTVSPropertyOp22
 70
     1
102
RTVSPropertyOp23
 70
     1
102
RTVSPropertyOp24
 70
     1
102
RTVSPropertyOp25
 70
     1
102
RTVSPropertyOp26
 70
     1
102
RTVSPropertyOp27
 70
     1
102
RTVSPropertyOp28
 70
     1
102
RTVSPropertyOp29
 70
     1
102
RTVSPropertyOp30
 70
     1
102
RTVSPropertyOp31
 70
     1
102
RTVSPropertyOp32
 70
     1
102
RTVSPropertyOp33
 70
     1
102
RTVSPropertyOp34
 70
     1
102
RTVSPropertyOp35
 70
     1
102
RTVSPropertyOp36
 70
     1
102
RTVSPropertyOp37
 70
     1
102
RTVSPropertyOp38
 70
     1
102
RTVSPropertyOp39
 70
     1
102
RTVSPropertyOp40
 70
     1
102
RTVSPropertyOp41
 70
     1
102
RTVSPropertyOp42
 70
     1
102
RTVSPropertyOp43
 70
     1
102
RTVSPropertyOp44
 70
     1
102
RTVSPropertyOp45
 70
     1
102
RTVSPropertyOp46
 70
     1
102
RTVSPropertyOp47
 70
     1
102
RTVSPropertyOp48
 70
     1
102
RTVSPropertyOp49
 70
     1
102
RTVSPropertyOp50
 70
     1
102
RTVSPropertyOp51
 70
     0
102
RTVSPropertyOp52
 70
     0
102
RTVSPropertyOp53
 70
     1
102
RTVSPropertyOp54
 70
     1
102
RTVSPropertyOp55
 70
     1
102
RTVSPropertyOp56
 70
     1
102
RTVSPropertyOp57
 70
     1
102
RTVSPropertyOp58
 70
     1
102
RTVSPropertyOp59
 70
     1
102
RTVSPropertyOp60
 70
     1
102
RTVSPropertyOp61
 70
     1
102
RTVSPropertyOp62
 70
     1
  0
XRECORD
  5
A858
102
{ACAD_REACTORS
330
A857
102
}
330
A857
100
AcDbXrecord
280
     1
102
RTVSPost2010Prop28
280
     0
102
RTVSPost2010PropOp28
 70
     1
102
RTVSPost2010Prop29
280
     1
102
RTVSPost2010PropOp29
 70
     1
102
RTVSPost2010Prop30
280
     1
102
RTVSPost2010PropOp30
 70
     1
102
RTVSPost2010Prop31
280
     0
102
RTVSPost2010PropOp31
 70
     1
102
RTVSPost2010Prop32
280
     0
102
RTVSPost2010PropOp32
 70
     1
102
RTVSPost2010Prop33
280
     0
102
RTVSPost2010PropOp33
 70
     1
102
RTVSPost2010Prop34
280
     0
102
RTVSPost2010PropOp34
 70
     1
102
RTVSPost2010Prop35
280
     0
102
RTVSPost2010PropOp35
 70
     1
102
RTVSPost2010Prop36
280
     0
102
RTVSPost2010PropOp36
 70
     1
102
RTVSPost2010Prop37
 90
       50
102
RTVSPost2010PropOp37
 70
     1
102
RTVSPost2010Prop38
140
0.0
102
RTVSPost2010PropOp38
 70
     1
102
RTVSPost2010Prop39
140
1.0
102
RTVSPost2010PropOp39
 70
     1
102
RTVSPost2010Prop40
 90
        0
102
RTVSPost2010PropOp40
 70
     1
102
RTVSPost2010Prop41ColorIndex
 90
       18
102
RTVSPost2010Prop41ColorRGB
 90
        0
102
RTVSPost2010PropOp41
 70
     1
102
RTVSPost2010Prop42
 90
       50
102
RTVSPost2010PropOp42
 70
     1
102
RTVSPost2010Prop43
 90
        3
102
RTVSPost2010PropOp43
 70
     1
102
RTVSPost2010Prop44ColorIndex
 90
        5
102
RTVSPost2010Prop44ColorRGB
 90
      255
102
RTVSPost2010PropOp44
 70
     1
102
RTVSPost2010Prop45
280
     0
102
RTVSPost2010PropOp45
 70
     1
102
RTVSPost2010Prop46
 90
       50
102
RTVSPost2010PropOp46
 70
     1
102
RTVSPost2010Prop47
 90
       50
102
RTVSPost2010PropOp47
 70
     1
102
RTVSPost2010Prop48
 90
       50
102
RTVSPost2010PropOp48
 70
     1
102
RTVSPost2010Prop49
280
     0
102
RTVSPost2010PropOp49
 70
     1
102
RTVSPost2010Prop50
 90
       50
102
RTVSPost2010PropOp50
 70
     1
102
RTVSPost2010Prop51ColorIndex
 90
      256
102
RTVSPost2010Prop51ColorRGB
 90
-16777216
102
RTVSPost2010PropOp51
 70
     0
102
RTVSPost2010Prop52
140
1.0
102
RTVSPost2010PropOp52
 70
     0
102
RTVSPost2010Prop53
 90
        2
102
RTVSPost2010PropOp53
 70
     1
102
RTVSPost2010Prop54
  1
strokes_ogs.tif
102
RTVSPost2010PropOp54
 70
     1
102
RTVSPost2010Prop55
280
     0
102
RTVSPost2010PropOp55
 70
     1
102
RTVSPost2010Prop56
140
1.0
102
RTVSPost2010PropOp56
 70
     1
102
RTVSPost2010Prop57
140
1.0
102
RTVSPost2010PropOp57
 70
     1
102
RTVSPropertyOp0
 70
     1
102
RTVSPropertyOp1
 70
     1
102
RTVSPropertyOp2
 70
     1
102
RTVSPropertyOp3
 70
     1
102
RTVSPropertyOp4
 70
     1
102
RTVSPropertyOp5
 70
     1
102
RTVSPropertyOp6
 70
     1
102
RTVSPropertyOp7
 70
     1
102
RTVSPropertyOp8
 70
     1
102
RTVSPropertyOp9
 70
     1
102
RTVSPropertyOp10
 70
     1
102
RTVSPropertyOp11
 70
     1
102
RTVSPropertyOp12
 70
     1
102
RTVSPropertyOp13
 70
     1
102
RTVSPropertyOp14
 70
     1
102
RTVSPropertyOp15
 70
     1
102
RTVSPropertyOp16
 70
     1
102
RTVSPropertyOp17
 70
     1
102
RTVSPropertyOp18
 70
     1
102
RTVSPropertyOp19
 70
     1
102
RTVSPropertyOp20
 70
     1
102
RTVSPropertyOp21
 70
     1
102
RTVSPropertyOp22
 70
     1
102
RTVSPropertyOp23
 70
     1
102
RTVSPropertyOp24
 70
     1
102
RTVSPropertyOp25
 70
     1
102
RTVSPropertyOp26
 70
     1
102
RTVSPropertyOp27
 70
     1
102
RTVSPropertyOp28
 70
     1
102
RTVSPropertyOp29
 70
     1
102
RTVSPropertyOp30
 70
     1
102
RTVSPropertyOp31
 70
     1
102
RTVSPropertyOp32
 70
     1
102
RTVSPropertyOp33
 70
     1
102
RTVSPropertyOp34
 70
     1
102
RTVSPropertyOp35
 70
     1
102
RTVSPropertyOp36
 70
     1
102
RTVSPropertyOp37
 70
     1
102
RTVSPropertyOp38
 70
     1
102
RTVSPropertyOp39
 70
     1
102
RTVSPropertyOp40
 70
     1
102
RTVSPropertyOp41
 70
     1
102
RTVSPropertyOp42
 70
     1
102
RTVSPropertyOp43
 70
     1
102
RTVSPropertyOp44
 70
     1
102
RTVSPropertyOp45
 70
     1
102
RTVSPropertyOp46
 70
     1
102
RTVSPropertyOp47
 70
     1
102
RTVSPropertyOp48
 70
     1
102
RTVSPropertyOp49
 70
     1
102
RTVSPropertyOp50
 70
     1
102
RTVSPropertyOp51
 70
     0
102
RTVSPropertyOp52
 70
     0
102
RTVSPropertyOp53
 70
     1
102
RTVSPropertyOp54
 70
     1
102
RTVSPropertyOp55
 70
     1
102
RTVSPropertyOp56
 70
     1
102
RTVSPropertyOp57
 70
     1
102
RTVSPropertyOp58
 70
     1
102
RTVSPropertyOp59
 70
     1
102
RTVSPropertyOp60
 70
     1
102
RTVSPropertyOp61
 70
     1
102
RTVSPropertyOp62
 70
     1
  0
XRECORD
  5
A85C
102
{ACAD_REACTORS
330
A85B
102
}
330
A85B
100
AcDbXrecord
280
     1
102
RTVSPost2010Prop28
280
     0
102
RTVSPost2010PropOp28
 70
     1
102
RTVSPost2010Prop29
280
     1
102
RTVSPost2010PropOp29
 70
     1
102
RTVSPost2010Prop30
280
     1
102
RTVSPost2010PropOp30
 70
     1
102
RTVSPost2010Prop31
280
     0
102
RTVSPost2010PropOp31
 70
     1
102
RTVSPost2010Prop32
280
     0
102
RTVSPost2010PropOp32
 70
     1
102
RTVSPost2010Prop33
280
     0
102
RTVSPost2010PropOp33
 70
     1
102
RTVSPost2010Prop34
280
     0
102
RTVSPost2010PropOp34
 70
     1
102
RTVSPost2010Prop35
280
     0
102
RTVSPost2010PropOp35
 70
     1
102
RTVSPost2010Prop36
280
     0
102
RTVSPost2010PropOp36
 70
     1
102
RTVSPost2010Prop37
 90
       50
102
RTVSPost2010PropOp37
 70
     1
102
RTVSPost2010Prop38
140
0.0
102
RTVSPost2010PropOp38
 70
     1
102
RTVSPost2010Prop39
140
1.0
102
RTVSPost2010PropOp39
 70
     1
102
RTVSPost2010Prop40
 90
        0
102
RTVSPost2010PropOp40
 70
     1
102
RTVSPost2010Prop41ColorIndex
 90
       18
102
RTVSPost2010Prop41ColorRGB
 90
        0
102
RTVSPost2010PropOp41
 70
     1
102
RTVSPost2010Prop42
 90
       50
102
RTVSPost2010PropOp42
 70
     1
102
RTVSPost2010Prop43
 90
        3
102
RTVSPost2010PropOp43
 70
     1
102
RTVSPost2010Prop44ColorIndex
 90
        5
102
RTVSPost2010Prop44ColorRGB
 90
      255
102
RTVSPost2010PropOp44
 70
     1
102
RTVSPost2010Prop45
280
     0
102
RTVSPost2010PropOp45
 70
     1
102
RTVSPost2010Prop46
 90
       50
102
RTVSPost2010PropOp46
 70
     1
102
RTVSPost2010Prop47
 90
       50
102
RTVSPost2010PropOp47
 70
     1
102
RTVSPost2010Prop48
 90
       50
102
RTVSPost2010PropOp48
 70
     1
102
RTVSPost2010Prop49
280
     0
102
RTVSPost2010PropOp49
 70
     1
102
RTVSPost2010Prop50
 90
       50
102
RTVSPost2010PropOp50
 70
     1
102
RTVSPost2010Prop51ColorIndex
 90
      256
102
RTVSPost2010Prop51ColorRGB
 90
-16777216
102
RTVSPost2010PropOp51
 70
     0
102
RTVSPost2010Prop52
140
1.0
102
RTVSPost2010PropOp52
 70
     0
102
RTVSPost2010Prop53
 90
        2
102
RTVSPost2010PropOp53
 70
     1
102
RTVSPost2010Prop54
  1
strokes_ogs.tif
102
RTVSPost2010PropOp54
 70
     1
102
RTVSPost2010Prop55
280
     0
102
RTVSPost2010PropOp55
 70
     1
102
RTVSPost2010Prop56
140
1.0
102
RTVSPost2010PropOp56
 70
     1
102
RTVSPost2010Prop57
140
1.0
102
RTVSPost2010PropOp57
 70
     1
102
RTVSPropertyOp0
 70
     1
102
RTVSPropertyOp1
 70
     1
102
RTVSPropertyOp2
 70
     1
102
RTVSPropertyOp3
 70
     1
102
RTVSPropertyOp4
 70
     1
102
RTVSPropertyOp5
 70
     1
102
RTVSPropertyOp6
 70
     1
102
RTVSPropertyOp7
 70
     1
102
RTVSPropertyOp8
 70
     1
102
RTVSPropertyOp9
 70
     1
102
RTVSPropertyOp10
 70
     1
102
RTVSPropertyOp11
 70
     1
102
RTVSPropertyOp12
 70
     1
102
RTVSPropertyOp13
 70
     1
102
RTVSPropertyOp14
 70
     1
102
RTVSPropertyOp15
 70
     1
102
RTVSPropertyOp16
 70
     1
102
RTVSPropertyOp17
 70
     1
102
RTVSPropertyOp18
 70
     1
102
RTVSPropertyOp19
 70
     1
102
RTVSPropertyOp20
 70
     1
102
RTVSPropertyOp21
 70
     1
102
RTVSPropertyOp22
 70
     1
102
RTVSPropertyOp23
 70
     1
102
RTVSPropertyOp24
 70
     1
102
RTVSPropertyOp25
 70
     1
102
RTVSPropertyOp26
 70
     1
102
RTVSPropertyOp27
 70
     1
102
RTVSPropertyOp28
 70
     1
102
RTVSPropertyOp29
 70
     1
102
RTVSPropertyOp30
 70
     1
102
RTVSPropertyOp31
 70
     1
102
RTVSPropertyOp32
 70
     1
102
RTVSPropertyOp33
 70
     1
102
RTVSPropertyOp34
 70
     1
102
RTVSPropertyOp35
 70
     1
102
RTVSPropertyOp36
 70
     1
102
RTVSPropertyOp37
 70
     1
102
RTVSPropertyOp38
 70
     1
102
RTVSPropertyOp39
 70
     1
102
RTVSPropertyOp40
 70
     1
102
RTVSPropertyOp41
 70
     1
102
RTVSPropertyOp42
 70
     1
102
RTVSPropertyOp43
 70
     1
102
RTVSPropertyOp44
 70
     1
102
RTVSPropertyOp45
 70
     1
102
RTVSPropertyOp46
 70
     1
102
RTVSPropertyOp47
 70
     1
102
RTVSPropertyOp48
 70
     1
102
RTVSPropertyOp49
 70
     1
102
RTVSPropertyOp50
 70
     1
102
RTVSPropertyOp51
 70
     0
102
RTVSPropertyOp52
 70
     0
102
RTVSPropertyOp53
 70
     1
102
RTVSPropertyOp54
 70
     1
102
RTVSPropertyOp55
 70
     1
102
RTVSPropertyOp56
 70
     1
102
RTVSPropertyOp57
 70
     1
102
RTVSPropertyOp58
 70
     1
102
RTVSPropertyOp59
 70
     1
102
RTVSPropertyOp60
 70
     1
102
RTVSPropertyOp61
 70
     1
102
RTVSPropertyOp62
 70
     1
  0
XRECORD
  5
A876
102
{ACAD_REACTORS
330
A875
102
}
330
A875
100
AcDbXrecord
280
     1
102
RTVSPost2010Prop28
280
     0
102
RTVSPost2010PropOp28
 70
     1
102
RTVSPost2010Prop29
280
     1
102
RTVSPost2010PropOp29
 70
     1
102
RTVSPost2010Prop30
280
     1
102
RTVSPost2010PropOp30
 70
     1
102
RTVSPost2010Prop31
280
     0
102
RTVSPost2010PropOp31
 70
     1
102
RTVSPost2010Prop32
280
     0
102
RTVSPost2010PropOp32
 70
     1
102
RTVSPost2010Prop33
280
     0
102
RTVSPost2010PropOp33
 70
     1
102
RTVSPost2010Prop34
280
     0
102
RTVSPost2010PropOp34
 70
     1
102
RTVSPost2010Prop35
280
     0
102
RTVSPost2010PropOp35
 70
     1
102
RTVSPost2010Prop36
280
     0
102
RTVSPost2010PropOp36
 70
     1
102
RTVSPost2010Prop37
 90
       50
102
RTVSPost2010PropOp37
 70
     0
102
RTVSPost2010Prop38
140
0.0
102
RTVSPost2010PropOp38
 70
     0
102
RTVSPost2010Prop39
140
1.0
102
RTVSPost2010PropOp39
 70
     0
102
RTVSPost2010Prop40
 90
        0
102
RTVSPost2010PropOp40
 70
     0
102
RTVSPost2010Prop41ColorIndex
 90
       18
102
RTVSPost2010Prop41ColorRGB
 90
        0
102
RTVSPost2010PropOp41
 70
     0
102
RTVSPost2010Prop42
 90
       50
102
RTVSPost2010PropOp42
 70
     0
102
RTVSPost2010Prop43
 90
        3
102
RTVSPost2010PropOp43
 70
     0
102
RTVSPost2010Prop44ColorIndex
 90
        5
102
RTVSPost2010Prop44ColorRGB
 90
      255
102
RTVSPost2010PropOp44
 70
     0
102
RTVSPost2010Prop45
280
     0
102
RTVSPost2010PropOp45
 70
     1
102
RTVSPost2010Prop46
 90
       50
102
RTVSPost2010PropOp46
 70
     0
102
RTVSPost2010Prop47
 90
       50
102
RTVSPost2010PropOp47
 70
     0
102
RTVSPost2010Prop48
 90
       50
102
RTVSPost2010PropOp48
 70
     0
102
RTVSPost2010Prop49
280
     0
102
RTVSPost2010PropOp49
 70
     1
102
RTVSPost2010Prop50
 90
       50
102
RTVSPost2010PropOp50
 70
     0
102
RTVSPost2010Prop51ColorIndex
 90
      256
102
RTVSPost2010Prop51ColorRGB
 90
-16777216
102
RTVSPost2010PropOp51
 70
     0
102
RTVSPost2010Prop52
140
1.0
102
RTVSPost2010PropOp52
 70
     0
102
RTVSPost2010Prop53
 90
        2
102
RTVSPost2010PropOp53
 70
     0
102
RTVSPost2010Prop54
  1
strokes_ogs.tif
102
RTVSPost2010PropOp54
 70
     0
102
RTVSPost2010Prop55
280
     0
102
RTVSPost2010PropOp55
 70
     1
102
RTVSPost2010Prop56
140
1.0
102
RTVSPost2010PropOp56
 70
     0
102
RTVSPost2010Prop57
140
1.0
102
RTVSPost2010PropOp57
 70
     0
102
RTVSPropertyOp0
 70
     0
102
RTVSPropertyOp1
 70
     0
102
RTVSPropertyOp2
 70
     0
102
RTVSPropertyOp3
 70
     0
102
RTVSPropertyOp4
 70
     0
102
RTVSPropertyOp5
 70
     0
102
RTVSPropertyOp6
 70
     0
102
RTVSPropertyOp7
 70
     0
102
RTVSPropertyOp8
 70
     0
102
RTVSPropertyOp9
 70
     0
102
RTVSPropertyOp10
 70
     0
102
RTVSPropertyOp11
 70
     0
102
RTVSPropertyOp12
 70
     0
102
RTVSPropertyOp13
 70
     0
102
RTVSPropertyOp14
 70
     2
102
RTVSPropertyOp15
 70
     0
102
RTVSPropertyOp16
 70
     0
102
RTVSPropertyOp17
 70
     0
102
RTVSPropertyOp18
 70
     0
102
RTVSPropertyOp19
 70
     0
102
RTVSPropertyOp20
 70
     0
102
RTVSPropertyOp21
 70
     0
102
RTVSPropertyOp22
 70
     0
102
RTVSPropertyOp23
 70
     0
102
RTVSPropertyOp24
 70
     0
102
RTVSPropertyOp25
 70
     0
102
RTVSPropertyOp26
 70
     0
102
RTVSPropertyOp27
 70
     0
102
RTVSPropertyOp28
 70
     1
102
RTVSPropertyOp29
 70
     1
102
RTVSPropertyOp30
 70
     1
102
RTVSPropertyOp31
 70
     1
102
RTVSPropertyOp32
 70
     1
102
RTVSPropertyOp33
 70
     1
102
RTVSPropertyOp34
 70
     1
102
RTVSPropertyOp35
 70
     1
102
RTVSPropertyOp36
 70
     1
102
RTVSPropertyOp37
 70
     0
102
RTVSPropertyOp38
 70
     0
102
RTVSPropertyOp39
 70
     0
102
RTVSPropertyOp40
 70
     0
102
RTVSPropertyOp41
 70
     0
102
RTVSPropertyOp42
 70
     0
102
RTVSPropertyOp43
 70
     0
102
RTVSPropertyOp44
 70
     0
102
RTVSPropertyOp45
 70
     1
102
RTVSPropertyOp46
 70
     0
102
RTVSPropertyOp47
 70
     0
102
RTVSPropertyOp48
 70
     0
102
RTVSPropertyOp49
 70
     1
102
RTVSPropertyOp50
 70
     0
102
RTVSPropertyOp51
 70
     0
102
RTVSPropertyOp52
 70
     0
102
RTVSPropertyOp53
 70
     0
102
RTVSPropertyOp54
 70
     0
102
RTVSPropertyOp55
 70
     1
102
RTVSPropertyOp56
 70
     0
102
RTVSPropertyOp57
 70
     0
102
RTVSPropertyOp58
 70
     0
102
RTVSPropertyOp59
 70
     0
102
RTVSPropertyOp60
 70
     0
102
RTVSPropertyOp61
 70
     0
102
RTVSPropertyOp62
 70
     0
  0
XRECORD
  5
A864
102
{ACAD_REACTORS
330
A863
102
}
330
A863
100
AcDbXrecord
280
     1
102
RTVSPost2010Prop28
280
     0
102
RTVSPost2010PropOp28
 70
     1
102
RTVSPost2010Prop29
280
     1
102
RTVSPost2010PropOp29
 70
     1
102
RTVSPost2010Prop30
280
     1
102
RTVSPost2010PropOp30
 70
     1
102
RTVSPost2010Prop31
280
     0
102
RTVSPost2010PropOp31
 70
     1
102
RTVSPost2010Prop32
280
     0
102
RTVSPost2010PropOp32
 70
     1
102
RTVSPost2010Prop33
280
     0
102
RTVSPost2010PropOp33
 70
     1
102
RTVSPost2010Prop34
280
     0
102
RTVSPost2010PropOp34
 70
     1
102
RTVSPost2010Prop35
280
     0
102
RTVSPost2010PropOp35
 70
     1
102
RTVSPost2010Prop36
280
     0
102
RTVSPost2010PropOp36
 70
     1
102
RTVSPost2010Prop37
 90
       50
102
RTVSPost2010PropOp37
 70
     1
102
RTVSPost2010Prop38
140
0.0
102
RTVSPost2010PropOp38
 70
     1
102
RTVSPost2010Prop39
140
1.0
102
RTVSPost2010PropOp39
 70
     1
102
RTVSPost2010Prop40
 90
        0
102
RTVSPost2010PropOp40
 70
     1
102
RTVSPost2010Prop41ColorIndex
 90
       18
102
RTVSPost2010Prop41ColorRGB
 90
        0
102
RTVSPost2010PropOp41
 70
     1
102
RTVSPost2010Prop42
 90
       50
102
RTVSPost2010PropOp42
 70
     1
102
RTVSPost2010Prop43
 90
        3
102
RTVSPost2010PropOp43
 70
     1
102
RTVSPost2010Prop44ColorIndex
 90
        5
102
RTVSPost2010Prop44ColorRGB
 90
      255
102
RTVSPost2010PropOp44
 70
     1
102
RTVSPost2010Prop45
280
     0
102
RTVSPost2010PropOp45
 70
     1
102
RTVSPost2010Prop46
 90
       50
102
RTVSPost2010PropOp46
 70
     1
102
RTVSPost2010Prop47
 90
       50
102
RTVSPost2010PropOp47
 70
     1
102
RTVSPost2010Prop48
 90
       50
102
RTVSPost2010PropOp48
 70
     1
102
RTVSPost2010Prop49
280
     0
102
RTVSPost2010PropOp49
 70
     1
102
RTVSPost2010Prop50
 90
       50
102
RTVSPost2010PropOp50
 70
     1
102
RTVSPost2010Prop51ColorIndex
 90
      256
102
RTVSPost2010Prop51ColorRGB
 90
-16777216
102
RTVSPost2010PropOp51
 70
     0
102
RTVSPost2010Prop52
140
1.0
102
RTVSPost2010PropOp52
 70
     0
102
RTVSPost2010Prop53
 90
        2
102
RTVSPost2010PropOp53
 70
     1
102
RTVSPost2010Prop54
  1
strokes_ogs.tif
102
RTVSPost2010PropOp54
 70
     1
102
RTVSPost2010Prop55
280
     0
102
RTVSPost2010PropOp55
 70
     1
102
RTVSPost2010Prop56
140
1.0
102
RTVSPost2010PropOp56
 70
     1
102
RTVSPost2010Prop57
140
1.0
102
RTVSPost2010PropOp57
 70
     1
102
RTVSPropertyOp0
 70
     1
102
RTVSPropertyOp1
 70
     1
102
RTVSPropertyOp2
 70
     1
102
RTVSPropertyOp3
 70
     1
102
RTVSPropertyOp4
 70
     1
102
RTVSPropertyOp5
 70
     1
102
RTVSPropertyOp6
 70
     1
102
RTVSPropertyOp7
 70
     1
102
RTVSPropertyOp8
 70
     1
102
RTVSPropertyOp9
 70
     1
102
RTVSPropertyOp10
 70
     1
102
RTVSPropertyOp11
 70
     1
102
RTVSPropertyOp12
 70
     1
102
RTVSPropertyOp13
 70
     1
102
RTVSPropertyOp14
 70
     1
102
RTVSPropertyOp15
 70
     1
102
RTVSPropertyOp16
 70
     1
102
RTVSPropertyOp17
 70
     1
102
RTVSPropertyOp18
 70
     1
102
RTVSPropertyOp19
 70
     1
102
RTVSPropertyOp20
 70
     1
102
RTVSPropertyOp21
 70
     1
102
RTVSPropertyOp22
 70
     1
102
RTVSPropertyOp23
 70
     1
102
RTVSPropertyOp24
 70
     1
102
RTVSPropertyOp25
 70
     1
102
RTVSPropertyOp26
 70
     1
102
RTVSPropertyOp27
 70
     1
102
RTVSPropertyOp28
 70
     1
102
RTVSPropertyOp29
 70
     1
102
RTVSPropertyOp30
 70
     1
102
RTVSPropertyOp31
 70
     1
102
RTVSPropertyOp32
 70
     1
102
RTVSPropertyOp33
 70
     1
102
RTVSPropertyOp34
 70
     1
102
RTVSPropertyOp35
 70
     1
102
RTVSPropertyOp36
 70
     1
102
RTVSPropertyOp37
 70
     1
102
RTVSPropertyOp38
 70
     1
102
RTVSPropertyOp39
 70
     1
102
RTVSPropertyOp40
 70
     1
102
RTVSPropertyOp41
 70
     1
102
RTVSPropertyOp42
 70
     1
102
RTVSPropertyOp43
 70
     1
102
RTVSPropertyOp44
 70
     1
102
RTVSPropertyOp45
 70
     1
102
RTVSPropertyOp46
 70
     1
102
RTVSPropertyOp47
 70
     1
102
RTVSPropertyOp48
 70
     1
102
RTVSPropertyOp49
 70
     1
102
RTVSPropertyOp50
 70
     1
102
RTVSPropertyOp51
 70
     0
102
RTVSPropertyOp52
 70
     0
102
RTVSPropertyOp53
 70
     1
102
RTVSPropertyOp54
 70
     1
102
RTVSPropertyOp55
 70
     1
102
RTVSPropertyOp56
 70
     1
102
RTVSPropertyOp57
 70
     1
102
RTVSPropertyOp58
 70
     1
102
RTVSPropertyOp59
 70
     1
102
RTVSPropertyOp60
 70
     1
102
RTVSPropertyOp61
 70
     1
102
RTVSPropertyOp62
 70
     1
  0
XRECORD
  5
A848
102
{ACAD_REACTORS
330
A847
102
}
330
A847
100
AcDbXrecord
280
     1
102
RTVSPost2010Prop28
280
     0
102
RTVSPost2010PropOp28
 70
     1
102
RTVSPost2010Prop29
280
     1
102
RTVSPost2010PropOp29
 70
     1
102
RTVSPost2010Prop30
280
     1
102
RTVSPost2010PropOp30
 70
     1
102
RTVSPost2010Prop31
280
     0
102
RTVSPost2010PropOp31
 70
     1
102
RTVSPost2010Prop32
280
     0
102
RTVSPost2010PropOp32
 70
     1
102
RTVSPost2010Prop33
280
     0
102
RTVSPost2010PropOp33
 70
     1
102
RTVSPost2010Prop34
280
     0
102
RTVSPost2010PropOp34
 70
     1
102
RTVSPost2010Prop35
280
     0
102
RTVSPost2010PropOp35
 70
     1
102
RTVSPost2010Prop36
280
     0
102
RTVSPost2010PropOp36
 70
     1
102
RTVSPost2010Prop37
 90
       50
102
RTVSPost2010PropOp37
 70
     1
102
RTVSPost2010Prop38
140
0.0
102
RTVSPost2010PropOp38
 70
     1
102
RTVSPost2010Prop39
140
1.0
102
RTVSPost2010PropOp39
 70
     1
102
RTVSPost2010Prop40
 90
        0
102
RTVSPost2010PropOp40
 70
     1
102
RTVSPost2010Prop41ColorIndex
 90
       18
102
RTVSPost2010Prop41ColorRGB
 90
        0
102
RTVSPost2010PropOp41
 70
     1
102
RTVSPost2010Prop42
 90
       50
102
RTVSPost2010PropOp42
 70
     1
102
RTVSPost2010Prop43
 90
        3
102
RTVSPost2010PropOp43
 70
     1
102
RTVSPost2010Prop44ColorIndex
 90
        5
102
RTVSPost2010Prop44ColorRGB
 90
      255
102
RTVSPost2010PropOp44
 70
     1
102
RTVSPost2010Prop45
280
     0
102
RTVSPost2010PropOp45
 70
     1
102
RTVSPost2010Prop46
 90
       50
102
RTVSPost2010PropOp46
 70
     1
102
RTVSPost2010Prop47
 90
       50
102
RTVSPost2010PropOp47
 70
     1
102
RTVSPost2010Prop48
 90
       50
102
RTVSPost2010PropOp48
 70
     1
102
RTVSPost2010Prop49
280
     0
102
RTVSPost2010PropOp49
 70
     1
102
RTVSPost2010Prop50
 90
       50
102
RTVSPost2010PropOp50
 70
     1
102
RTVSPost2010Prop51ColorIndex
 90
      256
102
RTVSPost2010Prop51ColorRGB
 90
-16777216
102
RTVSPost2010PropOp51
 70
     0
102
RTVSPost2010Prop52
140
1.0
102
RTVSPost2010PropOp52
 70
     0
102
RTVSPost2010Prop53
 90
        2
102
RTVSPost2010PropOp53
 70
     1
102
RTVSPost2010Prop54
  1
strokes_ogs.tif
102
RTVSPost2010PropOp54
 70
     1
102
RTVSPost2010Prop55
280
     0
102
RTVSPost2010PropOp55
 70
     1
102
RTVSPost2010Prop56
140
1.0
102
RTVSPost2010PropOp56
 70
     1
102
RTVSPost2010Prop57
140
1.0
102
RTVSPost2010PropOp57
 70
     1
102
RTVSPropertyOp0
 70
     1
102
RTVSPropertyOp1
 70
     1
102
RTVSPropertyOp2
 70
     1
102
RTVSPropertyOp3
 70
     1
102
RTVSPropertyOp4
 70
     1
102
RTVSPropertyOp5
 70
     1
102
RTVSPropertyOp6
 70
     1
102
RTVSPropertyOp7
 70
     1
102
RTVSPropertyOp8
 70
     1
102
RTVSPropertyOp9
 70
     1
102
RTVSPropertyOp10
 70
     1
102
RTVSPropertyOp11
 70
     1
102
RTVSPropertyOp12
 70
     1
102
RTVSPropertyOp13
 70
     1
102
RTVSPropertyOp14
 70
     1
102
RTVSPropertyOp15
 70
     1
102
RTVSPropertyOp16
 70
     1
102
RTVSPropertyOp17
 70
     1
102
RTVSPropertyOp18
 70
     1
102
RTVSPropertyOp19
 70
     1
102
RTVSPropertyOp20
 70
     1
102
RTVSPropertyOp21
 70
     1
102
RTVSPropertyOp22
 70
     1
102
RTVSPropertyOp23
 70
     1
102
RTVSPropertyOp24
 70
     1
102
RTVSPropertyOp25
 70
     1
102
RTVSPropertyOp26
 70
     1
102
RTVSPropertyOp27
 70
     1
102
RTVSPropertyOp28
 70
     1
102
RTVSPropertyOp29
 70
     1
102
RTVSPropertyOp30
 70
     1
102
RTVSPropertyOp31
 70
     1
102
RTVSPropertyOp32
 70
     1
102
RTVSPropertyOp33
 70
     1
102
RTVSPropertyOp34
 70
     1
102
RTVSPropertyOp35
 70
     1
102
RTVSPropertyOp36
 70
     1
102
RTVSPropertyOp37
 70
     1
102
RTVSPropertyOp38
 70
     1
102
RTVSPropertyOp39
 70
     1
102
RTVSPropertyOp40
 70
     1
102
RTVSPropertyOp41
 70
     1
102
RTVSPropertyOp42
 70
     1
102
RTVSPropertyOp43
 70
     1
102
RTVSPropertyOp44
 70
     1
102
RTVSPropertyOp45
 70
     1
102
RTVSPropertyOp46
 70
     1
102
RTVSPropertyOp47
 70
     1
102
RTVSPropertyOp48
 70
     1
102
RTVSPropertyOp49
 70
     1
102
RTVSPropertyOp50
 70
     1
102
RTVSPropertyOp51
 70
     0
102
RTVSPropertyOp52
 70
     0
102
RTVSPropertyOp53
 70
     1
102
RTVSPropertyOp54
 70
     1
102
RTVSPropertyOp55
 70
     1
102
RTVSPropertyOp56
 70
     1
102
RTVSPropertyOp57
 70
     1
102
RTVSPropertyOp58
 70
     1
102
RTVSPropertyOp59
 70
     1
102
RTVSPropertyOp60
 70
     1
102
RTVSPropertyOp61
 70
     1
102
RTVSPropertyOp62
 70
     1
  0
XRECORD
  5
A84A
102
{ACAD_REACTORS
330
A849
102
}
330
A849
100
AcDbXrecord
280
     1
102
RTVSPost2010Prop28
280
     0
102
RTVSPost2010PropOp28
 70
     1
102
RTVSPost2010Prop29
280
     1
102
RTVSPost2010PropOp29
 70
     1
102
RTVSPost2010Prop30
280
     1
102
RTVSPost2010PropOp30
 70
     1
102
RTVSPost2010Prop31
280
     0
102
RTVSPost2010PropOp31
 70
     1
102
RTVSPost2010Prop32
280
     0
102
RTVSPost2010PropOp32
 70
     1
102
RTVSPost2010Prop33
280
     0
102
RTVSPost2010PropOp33
 70
     1
102
RTVSPost2010Prop34
280
     0
102
RTVSPost2010PropOp34
 70
     1
102
RTVSPost2010Prop35
280
     0
102
RTVSPost2010PropOp35
 70
     1
102
RTVSPost2010Prop36
280
     0
102
RTVSPost2010PropOp36
 70
     1
102
RTVSPost2010Prop37
 90
       50
102
RTVSPost2010PropOp37
 70
     1
102
RTVSPost2010Prop38
140
0.0
102
RTVSPost2010PropOp38
 70
     1
102
RTVSPost2010Prop39
140
1.0
102
RTVSPost2010PropOp39
 70
     1
102
RTVSPost2010Prop40
 90
        0
102
RTVSPost2010PropOp40
 70
     1
102
RTVSPost2010Prop41ColorIndex
 90
       18
102
RTVSPost2010Prop41ColorRGB
 90
        0
102
RTVSPost2010PropOp41
 70
     1
102
RTVSPost2010Prop42
 90
       50
102
RTVSPost2010PropOp42
 70
     1
102
RTVSPost2010Prop43
 90
        3
102
RTVSPost2010PropOp43
 70
     1
102
RTVSPost2010Prop44ColorIndex
 90
        5
102
RTVSPost2010Prop44ColorRGB
 90
      255
102
RTVSPost2010PropOp44
 70
     1
102
RTVSPost2010Prop45
280
     0
102
RTVSPost2010PropOp45
 70
     1
102
RTVSPost2010Prop46
 90
       50
102
RTVSPost2010PropOp46
 70
     1
102
RTVSPost2010Prop47
 90
       50
102
RTVSPost2010PropOp47
 70
     1
102
RTVSPost2010Prop48
 90
       50
102
RTVSPost2010PropOp48
 70
     1
102
RTVSPost2010Prop49
280
     0
102
RTVSPost2010PropOp49
 70
     1
102
RTVSPost2010Prop50
 90
       50
102
RTVSPost2010PropOp50
 70
     1
102
RTVSPost2010Prop51ColorIndex
 90
      256
102
RTVSPost2010Prop51ColorRGB
 90
-16777216
102
RTVSPost2010PropOp51
 70
     0
102
RTVSPost2010Prop52
140
1.0
102
RTVSPost2010PropOp52
 70
     0
102
RTVSPost2010Prop53
 90
        2
102
RTVSPost2010PropOp53
 70
     1
102
RTVSPost2010Prop54
  1
strokes_ogs.tif
102
RTVSPost2010PropOp54
 70
     1
102
RTVSPost2010Prop55
280
     0
102
RTVSPost2010PropOp55
 70
     1
102
RTVSPost2010Prop56
140
1.0
102
RTVSPost2010PropOp56
 70
     1
102
RTVSPost2010Prop57
140
1.0
102
RTVSPost2010PropOp57
 70
     1
102
RTVSPropertyOp0
 70
     1
102
RTVSPropertyOp1
 70
     1
102
RTVSPropertyOp2
 70
     1
102
RTVSPropertyOp3
 70
     1
102
RTVSPropertyOp4
 70
     1
102
RTVSPropertyOp5
 70
     1
102
RTVSPropertyOp6
 70
     1
102
RTVSPropertyOp7
 70
     1
102
RTVSPropertyOp8
 70
     1
102
RTVSPropertyOp9
 70
     1
102
RTVSPropertyOp10
 70
     1
102
RTVSPropertyOp11
 70
     1
102
RTVSPropertyOp12
 70
     1
102
RTVSPropertyOp13
 70
     1
102
RTVSPropertyOp14
 70
     1
102
RTVSPropertyOp15
 70
     1
102
RTVSPropertyOp16
 70
     1
102
RTVSPropertyOp17
 70
     1
102
RTVSPropertyOp18
 70
     1
102
RTVSPropertyOp19
 70
     1
102
RTVSPropertyOp20
 70
     1
102
RTVSPropertyOp21
 70
     1
102
RTVSPropertyOp22
 70
     1
102
RTVSPropertyOp23
 70
     1
102
RTVSPropertyOp24
 70
     1
102
RTVSPropertyOp25
 70
     1
102
RTVSPropertyOp26
 70
     1
102
RTVSPropertyOp27
 70
     1
102
RTVSPropertyOp28
 70
     1
102
RTVSPropertyOp29
 70
     1
102
RTVSPropertyOp30
 70
     1
102
RTVSPropertyOp31
 70
     1
102
RTVSPropertyOp32
 70
     1
102
RTVSPropertyOp33
 70
     1
102
RTVSPropertyOp34
 70
     1
102
RTVSPropertyOp35
 70
     1
102
RTVSPropertyOp36
 70
     1
102
RTVSPropertyOp37
 70
     1
102
RTVSPropertyOp38
 70
     1
102
RTVSPropertyOp39
 70
     1
102
RTVSPropertyOp40
 70
     1
102
RTVSPropertyOp41
 70
     1
102
RTVSPropertyOp42
 70
     1
102
RTVSPropertyOp43
 70
     1
102
RTVSPropertyOp44
 70
     1
102
RTVSPropertyOp45
 70
     1
102
RTVSPropertyOp46
 70
     1
102
RTVSPropertyOp47
 70
     1
102
RTVSPropertyOp48
 70
     1
102
RTVSPropertyOp49
 70
     1
102
RTVSPropertyOp50
 70
     1
102
RTVSPropertyOp51
 70
     0
102
RTVSPropertyOp52
 70
     0
102
RTVSPropertyOp53
 70
     1
102
RTVSPropertyOp54
 70
     1
102
RTVSPropertyOp55
 70
     1
102
RTVSPropertyOp56
 70
     1
102
RTVSPropertyOp57
 70
     1
102
RTVSPropertyOp58
 70
     1
102
RTVSPropertyOp59
 70
     1
102
RTVSPropertyOp60
 70
     1
102
RTVSPropertyOp61
 70
     1
102
RTVSPropertyOp62
 70
     1
  0
XRECORD
  5
A84C
102
{ACAD_REACTORS
330
A84B
102
}
330
A84B
100
AcDbXrecord
280
     1
102
RTVSPost2010Prop28
280
     0
102
RTVSPost2010PropOp28
 70
     1
102
RTVSPost2010Prop29
280
     1
102
RTVSPost2010PropOp29
 70
     1
102
RTVSPost2010Prop30
280
     1
102
RTVSPost2010PropOp30
 70
     1
102
RTVSPost2010Prop31
280
     0
102
RTVSPost2010PropOp31
 70
     1
102
RTVSPost2010Prop32
280
     0
102
RTVSPost2010PropOp32
 70
     1
102
RTVSPost2010Prop33
280
     0
102
RTVSPost2010PropOp33
 70
     1
102
RTVSPost2010Prop34
280
     0
102
RTVSPost2010PropOp34
 70
     1
102
RTVSPost2010Prop35
280
     0
102
RTVSPost2010PropOp35
 70
     1
102
RTVSPost2010Prop36
280
     0
102
RTVSPost2010PropOp36
 70
     1
102
RTVSPost2010Prop37
 90
       50
102
RTVSPost2010PropOp37
 70
     1
102
RTVSPost2010Prop38
140
0.0
102
RTVSPost2010PropOp38
 70
     1
102
RTVSPost2010Prop39
140
1.0
102
RTVSPost2010PropOp39
 70
     1
102
RTVSPost2010Prop40
 90
        0
102
RTVSPost2010PropOp40
 70
     1
102
RTVSPost2010Prop41ColorIndex
 90
       18
102
RTVSPost2010Prop41ColorRGB
 90
        0
102
RTVSPost2010PropOp41
 70
     1
102
RTVSPost2010Prop42
 90
       50
102
RTVSPost2010PropOp42
 70
     1
102
RTVSPost2010Prop43
 90
        3
102
RTVSPost2010PropOp43
 70
     1
102
RTVSPost2010Prop44ColorIndex
 90
        5
102
RTVSPost2010Prop44ColorRGB
 90
      255
102
RTVSPost2010PropOp44
 70
     1
102
RTVSPost2010Prop45
280
     0
102
RTVSPost2010PropOp45
 70
     1
102
RTVSPost2010Prop46
 90
       50
102
RTVSPost2010PropOp46
 70
     1
102
RTVSPost2010Prop47
 90
       50
102
RTVSPost2010PropOp47
 70
     1
102
RTVSPost2010Prop48
 90
       50
102
RTVSPost2010PropOp48
 70
     1
102
RTVSPost2010Prop49
280
     0
102
RTVSPost2010PropOp49
 70
     1
102
RTVSPost2010Prop50
 90
       50
102
RTVSPost2010PropOp50
 70
     1
102
RTVSPost2010Prop51ColorIndex
 90
      256
102
RTVSPost2010Prop51ColorRGB
 90
-16777216
102
RTVSPost2010PropOp51
 70
     0
102
RTVSPost2010Prop52
140
1.0
102
RTVSPost2010PropOp52
 70
     0
102
RTVSPost2010Prop53
 90
        2
102
RTVSPost2010PropOp53
 70
     1
102
RTVSPost2010Prop54
  1
strokes_ogs.tif
102
RTVSPost2010PropOp54
 70
     1
102
RTVSPost2010Prop55
280
     0
102
RTVSPost2010PropOp55
 70
     1
102
RTVSPost2010Prop56
140
1.0
102
RTVSPost2010PropOp56
 70
     1
102
RTVSPost2010Prop57
140
1.0
102
RTVSPost2010PropOp57
 70
     1
102
RTVSPropertyOp0
 70
     1
102
RTVSPropertyOp1
 70
     1
102
RTVSPropertyOp2
 70
     1
102
RTVSPropertyOp3
 70
     1
102
RTVSPropertyOp4
 70
     1
102
RTVSPropertyOp5
 70
     1
102
RTVSPropertyOp6
 70
     1
102
RTVSPropertyOp7
 70
     1
102
RTVSPropertyOp8
 70
     1
102
RTVSPropertyOp9
 70
     1
102
RTVSPropertyOp10
 70
     1
102
RTVSPropertyOp11
 70
     1
102
RTVSPropertyOp12
 70
     1
102
RTVSPropertyOp13
 70
     1
102
RTVSPropertyOp14
 70
     1
102
RTVSPropertyOp15
 70
     1
102
RTVSPropertyOp16
 70
     1
102
RTVSPropertyOp17
 70
     1
102
RTVSPropertyOp18
 70
     1
102
RTVSPropertyOp19
 70
     1
102
RTVSPropertyOp20
 70
     1
102
RTVSPropertyOp21
 70
     1
102
RTVSPropertyOp22
 70
     1
102
RTVSPropertyOp23
 70
     1
102
RTVSPropertyOp24
 70
     1
102
RTVSPropertyOp25
 70
     1
102
RTVSPropertyOp26
 70
     1
102
RTVSPropertyOp27
 70
     1
102
RTVSPropertyOp28
 70
     1
102
RTVSPropertyOp29
 70
     1
102
RTVSPropertyOp30
 70
     1
102
RTVSPropertyOp31
 70
     1
102
RTVSPropertyOp32
 70
     1
102
RTVSPropertyOp33
 70
     1
102
RTVSPropertyOp34
 70
     1
102
RTVSPropertyOp35
 70
     1
102
RTVSPropertyOp36
 70
     1
102
RTVSPropertyOp37
 70
     1
102
RTVSPropertyOp38
 70
     1
102
RTVSPropertyOp39
 70
     1
102
RTVSPropertyOp40
 70
     1
102
RTVSPropertyOp41
 70
     1
102
RTVSPropertyOp42
 70
     1
102
RTVSPropertyOp43
 70
     1
102
RTVSPropertyOp44
 70
     1
102
RTVSPropertyOp45
 70
     1
102
RTVSPropertyOp46
 70
     1
102
RTVSPropertyOp47
 70
     1
102
RTVSPropertyOp48
 70
     1
102
RTVSPropertyOp49
 70
     1
102
RTVSPropertyOp50
 70
     1
102
RTVSPropertyOp51
 70
     0
102
RTVSPropertyOp52
 70
     0
102
RTVSPropertyOp53
 70
     1
102
RTVSPropertyOp54
 70
     1
102
RTVSPropertyOp55
 70
     1
102
RTVSPropertyOp56
 70
     1
102
RTVSPropertyOp57
 70
     1
102
RTVSPropertyOp58
 70
     1
102
RTVSPropertyOp59
 70
     1
102
RTVSPropertyOp60
 70
     1
102
RTVSPropertyOp61
 70
     1
102
RTVSPropertyOp62
 70
     1
  0
XRECORD
  5
A84E
102
{ACAD_REACTORS
330
A84D
102
}
330
A84D
100
AcDbXrecord
280
     1
102
RTVSPost2010Prop28
280
     0
102
RTVSPost2010PropOp28
 70
     1
102
RTVSPost2010Prop29
280
     1
102
RTVSPost2010PropOp29
 70
     1
102
RTVSPost2010Prop30
280
     1
102
RTVSPost2010PropOp30
 70
     1
102
RTVSPost2010Prop31
280
     0
102
RTVSPost2010PropOp31
 70
     1
102
RTVSPost2010Prop32
280
     0
102
RTVSPost2010PropOp32
 70
     1
102
RTVSPost2010Prop33
280
     0
102
RTVSPost2010PropOp33
 70
     1
102
RTVSPost2010Prop34
280
     0
102
RTVSPost2010PropOp34
 70
     1
102
RTVSPost2010Prop35
280
     0
102
RTVSPost2010PropOp35
 70
     1
102
RTVSPost2010Prop36
280
     0
102
RTVSPost2010PropOp36
 70
     1
102
RTVSPost2010Prop37
 90
       50
102
RTVSPost2010PropOp37
 70
     1
102
RTVSPost2010Prop38
140
0.0
102
RTVSPost2010PropOp38
 70
     1
102
RTVSPost2010Prop39
140
1.0
102
RTVSPost2010PropOp39
 70
     1
102
RTVSPost2010Prop40
 90
        0
102
RTVSPost2010PropOp40
 70
     1
102
RTVSPost2010Prop41ColorIndex
 90
       18
102
RTVSPost2010Prop41ColorRGB
 90
        0
102
RTVSPost2010PropOp41
 70
     1
102
RTVSPost2010Prop42
 90
       50
102
RTVSPost2010PropOp42
 70
     1
102
RTVSPost2010Prop43
 90
        3
102
RTVSPost2010PropOp43
 70
     1
102
RTVSPost2010Prop44ColorIndex
 90
        5
102
RTVSPost2010Prop44ColorRGB
 90
      255
102
RTVSPost2010PropOp44
 70
     1
102
RTVSPost2010Prop45
280
     0
102
RTVSPost2010PropOp45
 70
     1
102
RTVSPost2010Prop46
 90
       50
102
RTVSPost2010PropOp46
 70
     1
102
RTVSPost2010Prop47
 90
       50
102
RTVSPost2010PropOp47
 70
     1
102
RTVSPost2010Prop48
 90
       50
102
RTVSPost2010PropOp48
 70
     1
102
RTVSPost2010Prop49
280
     0
102
RTVSPost2010PropOp49
 70
     1
102
RTVSPost2010Prop50
 90
       50
102
RTVSPost2010PropOp50
 70
     1
102
RTVSPost2010Prop51ColorIndex
 90
      256
102
RTVSPost2010Prop51ColorRGB
 90
-16777216
102
RTVSPost2010PropOp51
 70
     0
102
RTVSPost2010Prop52
140
1.0
102
RTVSPost2010PropOp52
 70
     0
102
RTVSPost2010Prop53
 90
        2
102
RTVSPost2010PropOp53
 70
     1
102
RTVSPost2010Prop54
  1
strokes_ogs.tif
102
RTVSPost2010PropOp54
 70
     1
102
RTVSPost2010Prop55
280
     0
102
RTVSPost2010PropOp55
 70
     1
102
RTVSPost2010Prop56
140
1.0
102
RTVSPost2010PropOp56
 70
     1
102
RTVSPost2010Prop57
140
1.0
102
RTVSPost2010PropOp57
 70
     1
102
RTVSPropertyOp0
 70
     1
102
RTVSPropertyOp1
 70
     1
102
RTVSPropertyOp2
 70
     1
102
RTVSPropertyOp3
 70
     1
102
RTVSPropertyOp4
 70
     1
102
RTVSPropertyOp5
 70
     1
102
RTVSPropertyOp6
 70
     1
102
RTVSPropertyOp7
 70
     1
102
RTVSPropertyOp8
 70
     1
102
RTVSPropertyOp9
 70
     1
102
RTVSPropertyOp10
 70
     1
102
RTVSPropertyOp11
 70
     1
102
RTVSPropertyOp12
 70
     1
102
RTVSPropertyOp13
 70
     1
102
RTVSPropertyOp14
 70
     1
102
RTVSPropertyOp15
 70
     1
102
RTVSPropertyOp16
 70
     1
102
RTVSPropertyOp17
 70
     1
102
RTVSPropertyOp18
 70
     1
102
RTVSPropertyOp19
 70
     1
102
RTVSPropertyOp20
 70
     1
102
RTVSPropertyOp21
 70
     1
102
RTVSPropertyOp22
 70
     1
102
RTVSPropertyOp23
 70
     1
102
RTVSPropertyOp24
 70
     1
102
RTVSPropertyOp25
 70
     1
102
RTVSPropertyOp26
 70
     1
102
RTVSPropertyOp27
 70
     1
102
RTVSPropertyOp28
 70
     1
102
RTVSPropertyOp29
 70
     1
102
RTVSPropertyOp30
 70
     1
102
RTVSPropertyOp31
 70
     1
102
RTVSPropertyOp32
 70
     1
102
RTVSPropertyOp33
 70
     1
102
RTVSPropertyOp34
 70
     1
102
RTVSPropertyOp35
 70
     1
102
RTVSPropertyOp36
 70
     1
102
RTVSPropertyOp37
 70
     1
102
RTVSPropertyOp38
 70
     1
102
RTVSPropertyOp39
 70
     1
102
RTVSPropertyOp40
 70
     1
102
RTVSPropertyOp41
 70
     1
102
RTVSPropertyOp42
 70
     1
102
RTVSPropertyOp43
 70
     1
102
RTVSPropertyOp44
 70
     1
102
RTVSPropertyOp45
 70
     1
102
RTVSPropertyOp46
 70
     1
102
RTVSPropertyOp47
 70
     1
102
RTVSPropertyOp48
 70
     1
102
RTVSPropertyOp49
 70
     1
102
RTVSPropertyOp50
 70
     1
102
RTVSPropertyOp51
 70
     0
102
RTVSPropertyOp52
 70
     0
102
RTVSPropertyOp53
 70
     1
102
RTVSPropertyOp54
 70
     1
102
RTVSPropertyOp55
 70
     1
102
RTVSPropertyOp56
 70
     1
102
RTVSPropertyOp57
 70
     1
102
RTVSPropertyOp58
 70
     1
102
RTVSPropertyOp59
 70
     1
102
RTVSPropertyOp60
 70
     1
102
RTVSPropertyOp61
 70
     1
102
RTVSPropertyOp62
 70
     1
  0
XRECORD
  5
A856
102
{ACAD_REACTORS
330
A855
102
}
330
A855
100
AcDbXrecord
280
     1
102
RTVSPost2010Prop28
280
     0
102
RTVSPost2010PropOp28
 70
     1
102
RTVSPost2010Prop29
280
     1
102
RTVSPost2010PropOp29
 70
     1
102
RTVSPost2010Prop30
280
     1
102
RTVSPost2010PropOp30
 70
     1
102
RTVSPost2010Prop31
280
     0
102
RTVSPost2010PropOp31
 70
     1
102
RTVSPost2010Prop32
280
     0
102
RTVSPost2010PropOp32
 70
     1
102
RTVSPost2010Prop33
280
     0
102
RTVSPost2010PropOp33
 70
     1
102
RTVSPost2010Prop34
280
     0
102
RTVSPost2010PropOp34
 70
     1
102
RTVSPost2010Prop35
280
     0
102
RTVSPost2010PropOp35
 70
     1
102
RTVSPost2010Prop36
280
     0
102
RTVSPost2010PropOp36
 70
     1
102
RTVSPost2010Prop37
 90
       50
102
RTVSPost2010PropOp37
 70
     1
102
RTVSPost2010Prop38
140
0.0
102
RTVSPost2010PropOp38
 70
     1
102
RTVSPost2010Prop39
140
1.0
102
RTVSPost2010PropOp39
 70
     1
102
RTVSPost2010Prop40
 90
        0
102
RTVSPost2010PropOp40
 70
     1
102
RTVSPost2010Prop41ColorIndex
 90
       18
102
RTVSPost2010Prop41ColorRGB
 90
        0
102
RTVSPost2010PropOp41
 70
     1
102
RTVSPost2010Prop42
 90
       50
102
RTVSPost2010PropOp42
 70
     1
102
RTVSPost2010Prop43
 90
        3
102
RTVSPost2010PropOp43
 70
     1
102
RTVSPost2010Prop44ColorIndex
 90
        5
102
RTVSPost2010Prop44ColorRGB
 90
      255
102
RTVSPost2010PropOp44
 70
     1
102
RTVSPost2010Prop45
280
     0
102
RTVSPost2010PropOp45
 70
     1
102
RTVSPost2010Prop46
 90
       50
102
RTVSPost2010PropOp46
 70
     1
102
RTVSPost2010Prop47
 90
       50
102
RTVSPost2010PropOp47
 70
     1
102
RTVSPost2010Prop48
 90
       50
102
RTVSPost2010PropOp48
 70
     1
102
RTVSPost2010Prop49
280
     0
102
RTVSPost2010PropOp49
 70
     1
102
RTVSPost2010Prop50
 90
       50
102
RTVSPost2010PropOp50
 70
     1
102
RTVSPost2010Prop51ColorIndex
 90
      256
102
RTVSPost2010Prop51ColorRGB
 90
-16777216
102
RTVSPost2010PropOp51
 70
     0
102
RTVSPost2010Prop52
140
1.0
102
RTVSPost2010PropOp52
 70
     0
102
RTVSPost2010Prop53
 90
        2
102
RTVSPost2010PropOp53
 70
     1
102
RTVSPost2010Prop54
  1
strokes_ogs.tif
102
RTVSPost2010PropOp54
 70
     1
102
RTVSPost2010Prop55
280
     0
102
RTVSPost2010PropOp55
 70
     1
102
RTVSPost2010Prop56
140
1.0
102
RTVSPost2010PropOp56
 70
     1
102
RTVSPost2010Prop57
140
1.0
102
RTVSPost2010PropOp57
 70
     1
102
RTVSPropertyOp0
 70
     1
102
RTVSPropertyOp1
 70
     1
102
RTVSPropertyOp2
 70
     1
102
RTVSPropertyOp3
 70
     1
102
RTVSPropertyOp4
 70
     1
102
RTVSPropertyOp5
 70
     1
102
RTVSPropertyOp6
 70
     1
102
RTVSPropertyOp7
 70
     1
102
RTVSPropertyOp8
 70
     1
102
RTVSPropertyOp9
 70
     1
102
RTVSPropertyOp10
 70
     1
102
RTVSPropertyOp11
 70
     1
102
RTVSPropertyOp12
 70
     1
102
RTVSPropertyOp13
 70
     1
102
RTVSPropertyOp14
 70
     1
102
RTVSPropertyOp15
 70
     1
102
RTVSPropertyOp16
 70
     1
102
RTVSPropertyOp17
 70
     1
102
RTVSPropertyOp18
 70
     1
102
RTVSPropertyOp19
 70
     1
102
RTVSPropertyOp20
 70
     1
102
RTVSPropertyOp21
 70
     1
102
RTVSPropertyOp22
 70
     1
102
RTVSPropertyOp23
 70
     1
102
RTVSPropertyOp24
 70
     1
102
RTVSPropertyOp25
 70
     1
102
RTVSPropertyOp26
 70
     1
102
RTVSPropertyOp27
 70
     1
102
RTVSPropertyOp28
 70
     1
102
RTVSPropertyOp29
 70
     1
102
RTVSPropertyOp30
 70
     1
102
RTVSPropertyOp31
 70
     1
102
RTVSPropertyOp32
 70
     1
102
RTVSPropertyOp33
 70
     1
102
RTVSPropertyOp34
 70
     1
102
RTVSPropertyOp35
 70
     1
102
RTVSPropertyOp36
 70
     1
102
RTVSPropertyOp37
 70
     1
102
RTVSPropertyOp38
 70
     1
102
RTVSPropertyOp39
 70
     1
102
RTVSPropertyOp40
 70
     1
102
RTVSPropertyOp41
 70
     1
102
RTVSPropertyOp42
 70
     1
102
RTVSPropertyOp43
 70
     1
102
RTVSPropertyOp44
 70
     1
102
RTVSPropertyOp45
 70
     1
102
RTVSPropertyOp46
 70
     1
102
RTVSPropertyOp47
 70
     1
102
RTVSPropertyOp48
 70
     1
102
RTVSPropertyOp49
 70
     1
102
RTVSPropertyOp50
 70
     1
102
RTVSPropertyOp51
 70
     0
102
RTVSPropertyOp52
 70
     0
102
RTVSPropertyOp53
 70
     1
102
RTVSPropertyOp54
 70
     1
102
RTVSPropertyOp55
 70
     1
102
RTVSPropertyOp56
 70
     1
102
RTVSPropertyOp57
 70
     1
102
RTVSPropertyOp58
 70
     1
102
RTVSPropertyOp59
 70
     1
102
RTVSPropertyOp60
 70
     1
102
RTVSPropertyOp61
 70
     1
102
RTVSPropertyOp62
 70
     1
  0
XRECORD
  5
A872
102
{ACAD_REACTORS
330
A871
102
}
330
A871
100
AcDbXrecord
280
     1
102
RTVSPost2010Prop28
280
     0
102
RTVSPost2010PropOp28
 70
     1
102
RTVSPost2010Prop29
280
     1
102
RTVSPost2010PropOp29
 70
     1
102
RTVSPost2010Prop30
280
     1
102
RTVSPost2010PropOp30
 70
     1
102
RTVSPost2010Prop31
280
     0
102
RTVSPost2010PropOp31
 70
     1
102
RTVSPost2010Prop32
280
     0
102
RTVSPost2010PropOp32
 70
     1
102
RTVSPost2010Prop33
280
     0
102
RTVSPost2010PropOp33
 70
     1
102
RTVSPost2010Prop34
280
     0
102
RTVSPost2010PropOp34
 70
     1
102
RTVSPost2010Prop35
280
     0
102
RTVSPost2010PropOp35
 70
     1
102
RTVSPost2010Prop36
280
     0
102
RTVSPost2010PropOp36
 70
     1
102
RTVSPost2010Prop37
 90
       50
102
RTVSPost2010PropOp37
 70
     0
102
RTVSPost2010Prop38
140
0.0
102
RTVSPost2010PropOp38
 70
     0
102
RTVSPost2010Prop39
140
1.0
102
RTVSPost2010PropOp39
 70
     0
102
RTVSPost2010Prop40
 90
        0
102
RTVSPost2010PropOp40
 70
     0
102
RTVSPost2010Prop41ColorIndex
 90
       18
102
RTVSPost2010Prop41ColorRGB
 90
        0
102
RTVSPost2010PropOp41
 70
     0
102
RTVSPost2010Prop42
 90
       50
102
RTVSPost2010PropOp42
 70
     0
102
RTVSPost2010Prop43
 90
        3
102
RTVSPost2010PropOp43
 70
     0
102
RTVSPost2010Prop44ColorIndex
 90
        5
102
RTVSPost2010Prop44ColorRGB
 90
      255
102
RTVSPost2010PropOp44
 70
     0
102
RTVSPost2010Prop45
280
     0
102
RTVSPost2010PropOp45
 70
     1
102
RTVSPost2010Prop46
 90
       50
102
RTVSPost2010PropOp46
 70
     0
102
RTVSPost2010Prop47
 90
       50
102
RTVSPost2010PropOp47
 70
     0
102
RTVSPost2010Prop48
 90
       50
102
RTVSPost2010PropOp48
 70
     0
102
RTVSPost2010Prop49
280
     0
102
RTVSPost2010PropOp49
 70
     1
102
RTVSPost2010Prop50
 90
       50
102
RTVSPost2010PropOp50
 70
     0
102
RTVSPost2010Prop51ColorIndex
 90
      256
102
RTVSPost2010Prop51ColorRGB
 90
-16777216
102
RTVSPost2010PropOp51
 70
     0
102
RTVSPost2010Prop52
140
1.0
102
RTVSPost2010PropOp52
 70
     0
102
RTVSPost2010Prop53
 90
        2
102
RTVSPost2010PropOp53
 70
     0
102
RTVSPost2010Prop54
  1
strokes_ogs.tif
102
RTVSPost2010PropOp54
 70
     0
102
RTVSPost2010Prop55
280
     0
102
RTVSPost2010PropOp55
 70
     1
102
RTVSPost2010Prop56
140
1.0
102
RTVSPost2010PropOp56
 70
     0
102
RTVSPost2010Prop57
140
1.0
102
RTVSPost2010PropOp57
 70
     0
102
RTVSPropertyOp0
 70
     0
102
RTVSPropertyOp1
 70
     0
102
RTVSPropertyOp2
 70
     0
102
RTVSPropertyOp3
 70
     0
102
RTVSPropertyOp4
 70
     0
102
RTVSPropertyOp5
 70
     0
102
RTVSPropertyOp6
 70
     0
102
RTVSPropertyOp7
 70
     0
102
RTVSPropertyOp8
 70
     0
102
RTVSPropertyOp9
 70
     0
102
RTVSPropertyOp10
 70
     0
102
RTVSPropertyOp11
 70
     0
102
RTVSPropertyOp12
 70
     0
102
RTVSPropertyOp13
 70
     0
102
RTVSPropertyOp14
 70
     2
102
RTVSPropertyOp15
 70
     0
102
RTVSPropertyOp16
 70
     0
102
RTVSPropertyOp17
 70
     0
102
RTVSPropertyOp18
 70
     0
102
RTVSPropertyOp19
 70
     0
102
RTVSPropertyOp20
 70
     0
102
RTVSPropertyOp21
 70
     0
102
RTVSPropertyOp22
 70
     0
102
RTVSPropertyOp23
 70
     0
102
RTVSPropertyOp24
 70
     0
102
RTVSPropertyOp25
 70
     0
102
RTVSPropertyOp26
 70
     0
102
RTVSPropertyOp27
 70
     0
102
RTVSPropertyOp28
 70
     1
102
RTVSPropertyOp29
 70
     1
102
RTVSPropertyOp30
 70
     1
102
RTVSPropertyOp31
 70
     1
102
RTVSPropertyOp32
 70
     1
102
RTVSPropertyOp33
 70
     1
102
RTVSPropertyOp34
 70
     1
102
RTVSPropertyOp35
 70
     1
102
RTVSPropertyOp36
 70
     1
102
RTVSPropertyOp37
 70
     0
102
RTVSPropertyOp38
 70
     0
102
RTVSPropertyOp39
 70
     0
102
RTVSPropertyOp40
 70
     0
102
RTVSPropertyOp41
 70
     0
102
RTVSPropertyOp42
 70
     0
102
RTVSPropertyOp43
 70
     0
102
RTVSPropertyOp44
 70
     0
102
RTVSPropertyOp45
 70
     1
102
RTVSPropertyOp46
 70
     0
102
RTVSPropertyOp47
 70
     0
102
RTVSPropertyOp48
 70
     0
102
RTVSPropertyOp49
 70
     1
102
RTVSPropertyOp50
 70
     0
102
RTVSPropertyOp51
 70
     0
102
RTVSPropertyOp52
 70
     0
102
RTVSPropertyOp53
 70
     0
102
RTVSPropertyOp54
 70
     0
102
RTVSPropertyOp55
 70
     1
102
RTVSPropertyOp56
 70
     0
102
RTVSPropertyOp57
 70
     0
102
RTVSPropertyOp58
 70
     0
102
RTVSPropertyOp59
 70
     0
102
RTVSPropertyOp60
 70
     0
102
RTVSPropertyOp61
 70
     0
102
RTVSPropertyOp62
 70
     0
  0
XRECORD
  5
A862
102
{ACAD_REACTORS
330
A861
102
}
330
A861
100
AcDbXrecord
280
     1
102
RTVSPost2010Prop28
280
     0
102
RTVSPost2010PropOp28
 70
     1
102
RTVSPost2010Prop29
280
     1
102
RTVSPost2010PropOp29
 70
     1
102
RTVSPost2010Prop30
280
     1
102
RTVSPost2010PropOp30
 70
     1
102
RTVSPost2010Prop31
280
     0
102
RTVSPost2010PropOp31
 70
     1
102
RTVSPost2010Prop32
280
     0
102
RTVSPost2010PropOp32
 70
     1
102
RTVSPost2010Prop33
280
     0
102
RTVSPost2010PropOp33
 70
     1
102
RTVSPost2010Prop34
280
     0
102
RTVSPost2010PropOp34
 70
     1
102
RTVSPost2010Prop35
280
     0
102
RTVSPost2010PropOp35
 70
     1
102
RTVSPost2010Prop36
280
     0
102
RTVSPost2010PropOp36
 70
     1
102
RTVSPost2010Prop37
 90
       50
102
RTVSPost2010PropOp37
 70
     1
102
RTVSPost2010Prop38
140
0.0
102
RTVSPost2010PropOp38
 70
     1
102
RTVSPost2010Prop39
140
1.0
102
RTVSPost2010PropOp39
 70
     1
102
RTVSPost2010Prop40
 90
        0
102
RTVSPost2010PropOp40
 70
     1
102
RTVSPost2010Prop41ColorIndex
 90
       18
102
RTVSPost2010Prop41ColorRGB
 90
        0
102
RTVSPost2010PropOp41
 70
     1
102
RTVSPost2010Prop42
 90
       50
102
RTVSPost2010PropOp42
 70
     1
102
RTVSPost2010Prop43
 90
        3
102
RTVSPost2010PropOp43
 70
     1
102
RTVSPost2010Prop44ColorIndex
 90
        5
102
RTVSPost2010Prop44ColorRGB
 90
      255
102
RTVSPost2010PropOp44
 70
     1
102
RTVSPost2010Prop45
280
     0
102
RTVSPost2010PropOp45
 70
     1
102
RTVSPost2010Prop46
 90
       50
102
RTVSPost2010PropOp46
 70
     1
102
RTVSPost2010Prop47
 90
       50
102
RTVSPost2010PropOp47
 70
     1
102
RTVSPost2010Prop48
 90
       50
102
RTVSPost2010PropOp48
 70
     1
102
RTVSPost2010Prop49
280
     0
102
RTVSPost2010PropOp49
 70
     1
102
RTVSPost2010Prop50
 90
       50
102
RTVSPost2010PropOp50
 70
     1
102
RTVSPost2010Prop51ColorIndex
 90
      256
102
RTVSPost2010Prop51ColorRGB
 90
-16777216
102
RTVSPost2010PropOp51
 70
     0
102
RTVSPost2010Prop52
140
1.0
102
RTVSPost2010PropOp52
 70
     0
102
RTVSPost2010Prop53
 90
        2
102
RTVSPost2010PropOp53
 70
     1
102
RTVSPost2010Prop54
  1
strokes_ogs.tif
102
RTVSPost2010PropOp54
 70
     1
102
RTVSPost2010Prop55
280
     0
102
RTVSPost2010PropOp55
 70
     1
102
RTVSPost2010Prop56
140
1.0
102
RTVSPost2010PropOp56
 70
     1
102
RTVSPost2010Prop57
140
1.0
102
RTVSPost2010PropOp57
 70
     1
102
RTVSPropertyOp0
 70
     1
102
RTVSPropertyOp1
 70
     1
102
RTVSPropertyOp2
 70
     1
102
RTVSPropertyOp3
 70
     1
102
RTVSPropertyOp4
 70
     1
102
RTVSPropertyOp5
 70
     1
102
RTVSPropertyOp6
 70
     1
102
RTVSPropertyOp7
 70
     1
102
RTVSPropertyOp8
 70
     1
102
RTVSPropertyOp9
 70
     1
102
RTVSPropertyOp10
 70
     1
102
RTVSPropertyOp11
 70
     1
102
RTVSPropertyOp12
 70
     1
102
RTVSPropertyOp13
 70
     1
102
RTVSPropertyOp14
 70
     1
102
RTVSPropertyOp15
 70
     1
102
RTVSPropertyOp16
 70
     1
102
RTVSPropertyOp17
 70
     1
102
RTVSPropertyOp18
 70
     1
102
RTVSPropertyOp19
 70
     1
102
RTVSPropertyOp20
 70
     1
102
RTVSPropertyOp21
 70
     1
102
RTVSPropertyOp22
 70
     1
102
RTVSPropertyOp23
 70
     1
102
RTVSPropertyOp24
 70
     1
102
RTVSPropertyOp25
 70
     1
102
RTVSPropertyOp26
 70
     1
102
RTVSPropertyOp27
 70
     1
102
RTVSPropertyOp28
 70
     1
102
RTVSPropertyOp29
 70
     1
102
RTVSPropertyOp30
 70
     1
102
RTVSPropertyOp31
 70
     1
102
RTVSPropertyOp32
 70
     1
102
RTVSPropertyOp33
 70
     1
102
RTVSPropertyOp34
 70
     1
102
RTVSPropertyOp35
 70
     1
102
RTVSPropertyOp36
 70
     1
102
RTVSPropertyOp37
 70
     1
102
RTVSPropertyOp38
 70
     1
102
RTVSPropertyOp39
 70
     1
102
RTVSPropertyOp40
 70
     1
102
RTVSPropertyOp41
 70
     1
102
RTVSPropertyOp42
 70
     1
102
RTVSPropertyOp43
 70
     1
102
RTVSPropertyOp44
 70
     1
102
RTVSPropertyOp45
 70
     1
102
RTVSPropertyOp46
 70
     1
102
RTVSPropertyOp47
 70
     1
102
RTVSPropertyOp48
 70
     1
102
RTVSPropertyOp49
 70
     1
102
RTVSPropertyOp50
 70
     1
102
RTVSPropertyOp51
 70
     0
102
RTVSPropertyOp52
 70
     0
102
RTVSPropertyOp53
 70
     1
102
RTVSPropertyOp54
 70
     1
102
RTVSPropertyOp55
 70
     1
102
RTVSPropertyOp56
 70
     1
102
RTVSPropertyOp57
 70
     1
102
RTVSPropertyOp58
 70
     1
102
RTVSPropertyOp59
 70
     1
102
RTVSPropertyOp60
 70
     1
102
RTVSPropertyOp61
 70
     1
102
RTVSPropertyOp62
 70
     1
  0
XRECORD
  5
A874
102
{ACAD_REACTORS
330
A873
102
}
330
A873
100
AcDbXrecord
280
     1
102
RTVSPost2010Prop28
280
     0
102
RTVSPost2010PropOp28
 70
     1
102
RTVSPost2010Prop29
280
     1
102
RTVSPost2010PropOp29
 70
     1
102
RTVSPost2010Prop30
280
     1
102
RTVSPost2010PropOp30
 70
     1
102
RTVSPost2010Prop31
280
     0
102
RTVSPost2010PropOp31
 70
     1
102
RTVSPost2010Prop32
280
     0
102
RTVSPost2010PropOp32
 70
     1
102
RTVSPost2010Prop33
280
     0
102
RTVSPost2010PropOp33
 70
     1
102
RTVSPost2010Prop34
280
     0
102
RTVSPost2010PropOp34
 70
     1
102
RTVSPost2010Prop35
280
     0
102
RTVSPost2010PropOp35
 70
     1
102
RTVSPost2010Prop36
280
     0
102
RTVSPost2010PropOp36
 70
     1
102
RTVSPost2010Prop37
 90
       50
102
RTVSPost2010PropOp37
 70
     0
102
RTVSPost2010Prop38
140
0.0
102
RTVSPost2010PropOp38
 70
     0
102
RTVSPost2010Prop39
140
1.0
102
RTVSPost2010PropOp39
 70
     0
102
RTVSPost2010Prop40
 90
        0
102
RTVSPost2010PropOp40
 70
     0
102
RTVSPost2010Prop41ColorIndex
 90
       18
102
RTVSPost2010Prop41ColorRGB
 90
        0
102
RTVSPost2010PropOp41
 70
     0
102
RTVSPost2010Prop42
 90
       50
102
RTVSPost2010PropOp42
 70
     0
102
RTVSPost2010Prop43
 90
        3
102
RTVSPost2010PropOp43
 70
     0
102
RTVSPost2010Prop44ColorIndex
 90
        5
102
RTVSPost2010Prop44ColorRGB
 90
      255
102
RTVSPost2010PropOp44
 70
     0
102
RTVSPost2010Prop45
280
     0
102
RTVSPost2010PropOp45
 70
     1
102
RTVSPost2010Prop46
 90
       50
102
RTVSPost2010PropOp46
 70
     0
102
RTVSPost2010Prop47
 90
       50
102
RTVSPost2010PropOp47
 70
     0
102
RTVSPost2010Prop48
 90
       50
102
RTVSPost2010PropOp48
 70
     0
102
RTVSPost2010Prop49
280
     0
102
RTVSPost2010PropOp49
 70
     1
102
RTVSPost2010Prop50
 90
       50
102
RTVSPost2010PropOp50
 70
     0
102
RTVSPost2010Prop51ColorIndex
 90
      256
102
RTVSPost2010Prop51ColorRGB
 90
-16777216
102
RTVSPost2010PropOp51
 70
     0
102
RTVSPost2010Prop52
140
1.0
102
RTVSPost2010PropOp52
 70
     0
102
RTVSPost2010Prop53
 90
        2
102
RTVSPost2010PropOp53
 70
     0
102
RTVSPost2010Prop54
  1
strokes_ogs.tif
102
RTVSPost2010PropOp54
 70
     0
102
RTVSPost2010Prop55
280
     0
102
RTVSPost2010PropOp55
 70
     1
102
RTVSPost2010Prop56
140
1.0
102
RTVSPost2010PropOp56
 70
     0
102
RTVSPost2010Prop57
140
1.0
102
RTVSPost2010PropOp57
 70
     0
102
RTVSPropertyOp0
 70
     0
102
RTVSPropertyOp1
 70
     0
102
RTVSPropertyOp2
 70
     0
102
RTVSPropertyOp3
 70
     0
102
RTVSPropertyOp4
 70
     0
102
RTVSPropertyOp5
 70
     0
102
RTVSPropertyOp6
 70
     0
102
RTVSPropertyOp7
 70
     0
102
RTVSPropertyOp8
 70
     0
102
RTVSPropertyOp9
 70
     0
102
RTVSPropertyOp10
 70
     0
102
RTVSPropertyOp11
 70
     0
102
RTVSPropertyOp12
 70
     0
102
RTVSPropertyOp13
 70
     0
102
RTVSPropertyOp14
 70
     2
102
RTVSPropertyOp15
 70
     0
102
RTVSPropertyOp16
 70
     0
102
RTVSPropertyOp17
 70
     0
102
RTVSPropertyOp18
 70
     0
102
RTVSPropertyOp19
 70
     0
102
RTVSPropertyOp20
 70
     0
102
RTVSPropertyOp21
 70
     0
102
RTVSPropertyOp22
 70
     0
102
RTVSPropertyOp23
 70
     0
102
RTVSPropertyOp24
 70
     0
102
RTVSPropertyOp25
 70
     0
102
RTVSPropertyOp26
 70
     0
102
RTVSPropertyOp27
 70
     0
102
RTVSPropertyOp28
 70
     1
102
RTVSPropertyOp29
 70
     1
102
RTVSPropertyOp30
 70
     1
102
RTVSPropertyOp31
 70
     1
102
RTVSPropertyOp32
 70
     1
102
RTVSPropertyOp33
 70
     1
102
RTVSPropertyOp34
 70
     1
102
RTVSPropertyOp35
 70
     1
102
RTVSPropertyOp36
 70
     1
102
RTVSPropertyOp37
 70
     0
102
RTVSPropertyOp38
 70
     0
102
RTVSPropertyOp39
 70
     0
102
RTVSPropertyOp40
 70
     0
102
RTVSPropertyOp41
 70
     0
102
RTVSPropertyOp42
 70
     0
102
RTVSPropertyOp43
 70
     0
102
RTVSPropertyOp44
 70
     0
102
RTVSPropertyOp45
 70
     1
102
RTVSPropertyOp46
 70
     0
102
RTVSPropertyOp47
 70
     0
102
RTVSPropertyOp48
 70
     0
102
RTVSPropertyOp49
 70
     1
102
RTVSPropertyOp50
 70
     0
102
RTVSPropertyOp51
 70
     0
102
RTVSPropertyOp52
 70
     0
102
RTVSPropertyOp53
 70
     0
102
RTVSPropertyOp54
 70
     0
102
RTVSPropertyOp55
 70
     1
102
RTVSPropertyOp56
 70
     0
102
RTVSPropertyOp57
 70
     0
102
RTVSPropertyOp58
 70
     0
102
RTVSPropertyOp59
 70
     0
102
RTVSPropertyOp60
 70
     0
102
RTVSPropertyOp61
 70
     0
102
RTVSPropertyOp62
 70
     0
  0
XRECORD
  5
A85A
102
{ACAD_REACTORS
330
A859
102
}
330
A859
100
AcDbXrecord
280
     1
102
RTVSPost2010Prop28
280
     0
102
RTVSPost2010PropOp28
 70
     1
102
RTVSPost2010Prop29
280
     1
102
RTVSPost2010PropOp29
 70
     1
102
RTVSPost2010Prop30
280
     1
102
RTVSPost2010PropOp30
 70
     1
102
RTVSPost2010Prop31
280
     0
102
RTVSPost2010PropOp31
 70
     1
102
RTVSPost2010Prop32
280
     0
102
RTVSPost2010PropOp32
 70
     1
102
RTVSPost2010Prop33
280
     0
102
RTVSPost2010PropOp33
 70
     1
102
RTVSPost2010Prop34
280
     0
102
RTVSPost2010PropOp34
 70
     1
102
RTVSPost2010Prop35
280
     0
102
RTVSPost2010PropOp35
 70
     1
102
RTVSPost2010Prop36
280
     0
102
RTVSPost2010PropOp36
 70
     1
102
RTVSPost2010Prop37
 90
       50
102
RTVSPost2010PropOp37
 70
     1
102
RTVSPost2010Prop38
140
0.0
102
RTVSPost2010PropOp38
 70
     1
102
RTVSPost2010Prop39
140
1.0
102
RTVSPost2010PropOp39
 70
     1
102
RTVSPost2010Prop40
 90
        0
102
RTVSPost2010PropOp40
 70
     1
102
RTVSPost2010Prop41ColorIndex
 90
       18
102
RTVSPost2010Prop41ColorRGB
 90
        0
102
RTVSPost2010PropOp41
 70
     1
102
RTVSPost2010Prop42
 90
       50
102
RTVSPost2010PropOp42
 70
     1
102
RTVSPost2010Prop43
 90
        3
102
RTVSPost2010PropOp43
 70
     1
102
RTVSPost2010Prop44ColorIndex
 90
        5
102
RTVSPost2010Prop44ColorRGB
 90
      255
102
RTVSPost2010PropOp44
 70
     1
102
RTVSPost2010Prop45
280
     0
102
RTVSPost2010PropOp45
 70
     1
102
RTVSPost2010Prop46
 90
       50
102
RTVSPost2010PropOp46
 70
     1
102
RTVSPost2010Prop47
 90
       50
102
RTVSPost2010PropOp47
 70
     1
102
RTVSPost2010Prop48
 90
       50
102
RTVSPost2010PropOp48
 70
     1
102
RTVSPost2010Prop49
280
     0
102
RTVSPost2010PropOp49
 70
     1
102
RTVSPost2010Prop50
 90
       50
102
RTVSPost2010PropOp50
 70
     1
102
RTVSPost2010Prop51ColorIndex
 90
      256
102
RTVSPost2010Prop51ColorRGB
 90
-16777216
102
RTVSPost2010PropOp51
 70
     0
102
RTVSPost2010Prop52
140
1.0
102
RTVSPost2010PropOp52
 70
     0
102
RTVSPost2010Prop53
 90
        2
102
RTVSPost2010PropOp53
 70
     1
102
RTVSPost2010Prop54
  1
strokes_ogs.tif
102
RTVSPost2010PropOp54
 70
     1
102
RTVSPost2010Prop55
280
     0
102
RTVSPost2010PropOp55
 70
     1
102
RTVSPost2010Prop56
140
1.0
102
RTVSPost2010PropOp56
 70
     1
102
RTVSPost2010Prop57
140
1.0
102
RTVSPost2010PropOp57
 70
     1
102
RTVSPropertyOp0
 70
     1
102
RTVSPropertyOp1
 70
     1
102
RTVSPropertyOp2
 70
     1
102
RTVSPropertyOp3
 70
     1
102
RTVSPropertyOp4
 70
     1
102
RTVSPropertyOp5
 70
     1
102
RTVSPropertyOp6
 70
     1
102
RTVSPropertyOp7
 70
     1
102
RTVSPropertyOp8
 70
     1
102
RTVSPropertyOp9
 70
     1
102
RTVSPropertyOp10
 70
     1
102
RTVSPropertyOp11
 70
     1
102
RTVSPropertyOp12
 70
     1
102
RTVSPropertyOp13
 70
     1
102
RTVSPropertyOp14
 70
     1
102
RTVSPropertyOp15
 70
     1
102
RTVSPropertyOp16
 70
     1
102
RTVSPropertyOp17
 70
     1
102
RTVSPropertyOp18
 70
     1
102
RTVSPropertyOp19
 70
     1
102
RTVSPropertyOp20
 70
     1
102
RTVSPropertyOp21
 70
     1
102
RTVSPropertyOp22
 70
     1
102
RTVSPropertyOp23
 70
     1
102
RTVSPropertyOp24
 70
     1
102
RTVSPropertyOp25
 70
     1
102
RTVSPropertyOp26
 70
     1
102
RTVSPropertyOp27
 70
     1
102
RTVSPropertyOp28
 70
     1
102
RTVSPropertyOp29
 70
     1
102
RTVSPropertyOp30
 70
     1
102
RTVSPropertyOp31
 70
     1
102
RTVSPropertyOp32
 70
     1
102
RTVSPropertyOp33
 70
     1
102
RTVSPropertyOp34
 70
     1
102
RTVSPropertyOp35
 70
     1
102
RTVSPropertyOp36
 70
     1
102
RTVSPropertyOp37
 70
     1
102
RTVSPropertyOp38
 70
     1
102
RTVSPropertyOp39
 70
     1
102
RTVSPropertyOp40
 70
     1
102
RTVSPropertyOp41
 70
     1
102
RTVSPropertyOp42
 70
     1
102
RTVSPropertyOp43
 70
     1
102
RTVSPropertyOp44
 70
     1
102
RTVSPropertyOp45
 70
     1
102
RTVSPropertyOp46
 70
     1
102
RTVSPropertyOp47
 70
     1
102
RTVSPropertyOp48
 70
     1
102
RTVSPropertyOp49
 70
     1
102
RTVSPropertyOp50
 70
     1
102
RTVSPropertyOp51
 70
     0
102
RTVSPropertyOp52
 70
     0
102
RTVSPropertyOp53
 70
     1
102
RTVSPropertyOp54
 70
     1
102
RTVSPropertyOp55
 70
     1
102
RTVSPropertyOp56
 70
     1
102
RTVSPropertyOp57
 70
     1
102
RTVSPropertyOp58
 70
     1
102
RTVSPropertyOp59
 70
     1
102
RTVSPropertyOp60
 70
     1
102
RTVSPropertyOp61
 70
     1
102
RTVSPropertyOp62
 70
     1
  0
XRECORD
  5
A870
102
{ACAD_REACTORS
330
A86F
102
}
330
A86F
100
AcDbXrecord
280
     1
102
RTVSPost2010Prop28
280
     0
102
RTVSPost2010PropOp28
 70
     1
102
RTVSPost2010Prop29
280
     1
102
RTVSPost2010PropOp29
 70
     1
102
RTVSPost2010Prop30
280
     1
102
RTVSPost2010PropOp30
 70
     1
102
RTVSPost2010Prop31
280
     0
102
RTVSPost2010PropOp31
 70
     1
102
RTVSPost2010Prop32
280
     0
102
RTVSPost2010PropOp32
 70
     1
102
RTVSPost2010Prop33
280
     0
102
RTVSPost2010PropOp33
 70
     1
102
RTVSPost2010Prop34
280
     0
102
RTVSPost2010PropOp34
 70
     1
102
RTVSPost2010Prop35
280
     0
102
RTVSPost2010PropOp35
 70
     1
102
RTVSPost2010Prop36
280
     0
102
RTVSPost2010PropOp36
 70
     1
102
RTVSPost2010Prop37
 90
       50
102
RTVSPost2010PropOp37
 70
     1
102
RTVSPost2010Prop38
140
0.0
102
RTVSPost2010PropOp38
 70
     1
102
RTVSPost2010Prop39
140
1.0
102
RTVSPost2010PropOp39
 70
     1
102
RTVSPost2010Prop40
 90
        0
102
RTVSPost2010PropOp40
 70
     1
102
RTVSPost2010Prop41ColorIndex
 90
       18
102
RTVSPost2010Prop41ColorRGB
 90
        0
102
RTVSPost2010PropOp41
 70
     1
102
RTVSPost2010Prop42
 90
       50
102
RTVSPost2010PropOp42
 70
     1
102
RTVSPost2010Prop43
 90
        3
102
RTVSPost2010PropOp43
 70
     1
102
RTVSPost2010Prop44ColorIndex
 90
        5
102
RTVSPost2010Prop44ColorRGB
 90
      255
102
RTVSPost2010PropOp44
 70
     1
102
RTVSPost2010Prop45
280
     0
102
RTVSPost2010PropOp45
 70
     1
102
RTVSPost2010Prop46
 90
       50
102
RTVSPost2010PropOp46
 70
     1
102
RTVSPost2010Prop47
 90
       50
102
RTVSPost2010PropOp47
 70
     1
102
RTVSPost2010Prop48
 90
       50
102
RTVSPost2010PropOp48
 70
     1
102
RTVSPost2010Prop49
280
     0
102
RTVSPost2010PropOp49
 70
     1
102
RTVSPost2010Prop50
 90
       50
102
RTVSPost2010PropOp50
 70
     1
102
RTVSPost2010Prop51ColorIndex
 90
      256
102
RTVSPost2010Prop51ColorRGB
 90
-16777216
102
RTVSPost2010PropOp51
 70
     0
102
RTVSPost2010Prop52
140
1.0
102
RTVSPost2010PropOp52
 70
     0
102
RTVSPost2010Prop53
 90
        2
102
RTVSPost2010PropOp53
 70
     1
102
RTVSPost2010Prop54
  1
strokes_ogs.tif
102
RTVSPost2010PropOp54
 70
     1
102
RTVSPost2010Prop55
280
     0
102
RTVSPost2010PropOp55
 70
     1
102
RTVSPost2010Prop56
140
1.0
102
RTVSPost2010PropOp56
 70
     1
102
RTVSPost2010Prop57
140
1.0
102
RTVSPost2010PropOp57
 70
     1
102
RTVSPropertyOp0
 70
     1
102
RTVSPropertyOp1
 70
     1
102
RTVSPropertyOp2
 70
     1
102
RTVSPropertyOp3
 70
     1
102
RTVSPropertyOp4
 70
     1
102
RTVSPropertyOp5
 70
     1
102
RTVSPropertyOp6
 70
     1
102
RTVSPropertyOp7
 70
     1
102
RTVSPropertyOp8
 70
     1
102
RTVSPropertyOp9
 70
     1
102
RTVSPropertyOp10
 70
     1
102
RTVSPropertyOp11
 70
     1
102
RTVSPropertyOp12
 70
     1
102
RTVSPropertyOp13
 70
     1
102
RTVSPropertyOp14
 70
     1
102
RTVSPropertyOp15
 70
     1
102
RTVSPropertyOp16
 70
     1
102
RTVSPropertyOp17
 70
     1
102
RTVSPropertyOp18
 70
     1
102
RTVSPropertyOp19
 70
     1
102
RTVSPropertyOp20
 70
     1
102
RTVSPropertyOp21
 70
     1
102
RTVSPropertyOp22
 70
     1
102
RTVSPropertyOp23
 70
     1
102
RTVSPropertyOp24
 70
     1
102
RTVSPropertyOp25
 70
     1
102
RTVSPropertyOp26
 70
     1
102
RTVSPropertyOp27
 70
     1
102
RTVSPropertyOp28
 70
     1
102
RTVSPropertyOp29
 70
     1
102
RTVSPropertyOp30
 70
     1
102
RTVSPropertyOp31
 70
     1
102
RTVSPropertyOp32
 70
     1
102
RTVSPropertyOp33
 70
     1
102
RTVSPropertyOp34
 70
     1
102
RTVSPropertyOp35
 70
     1
102
RTVSPropertyOp36
 70
     1
102
RTVSPropertyOp37
 70
     1
102
RTVSPropertyOp38
 70
     1
102
RTVSPropertyOp39
 70
     1
102
RTVSPropertyOp40
 70
     1
102
RTVSPropertyOp41
 70
     1
102
RTVSPropertyOp42
 70
     1
102
RTVSPropertyOp43
 70
     1
102
RTVSPropertyOp44
 70
     1
102
RTVSPropertyOp45
 70
     1
102
RTVSPropertyOp46
 70
     1
102
RTVSPropertyOp47
 70
     1
102
RTVSPropertyOp48
 70
     1
102
RTVSPropertyOp49
 70
     1
102
RTVSPropertyOp50
 70
     1
102
RTVSPropertyOp51
 70
     0
102
RTVSPropertyOp52
 70
     0
102
RTVSPropertyOp53
 70
     1
102
RTVSPropertyOp54
 70
     1
102
RTVSPropertyOp55
 70
     1
102
RTVSPropertyOp56
 70
     1
102
RTVSPropertyOp57
 70
     1
102
RTVSPropertyOp58
 70
     1
102
RTVSPropertyOp59
 70
     1
102
RTVSPropertyOp60
 70
     1
102
RTVSPropertyOp61
 70
     1
102
RTVSPropertyOp62
 70
     1
  0
XRECORD
  5
A86E
102
{ACAD_REACTORS
330
A86D
102
}
330
A86D
100
AcDbXrecord
280
     1
102
RTVSPost2010Prop28
280
     0
102
RTVSPost2010PropOp28
 70
     1
102
RTVSPost2010Prop29
280
     1
102
RTVSPost2010PropOp29
 70
     1
102
RTVSPost2010Prop30
280
     1
102
RTVSPost2010PropOp30
 70
     1
102
RTVSPost2010Prop31
280
     0
102
RTVSPost2010PropOp31
 70
     1
102
RTVSPost2010Prop32
280
     0
102
RTVSPost2010PropOp32
 70
     1
102
RTVSPost2010Prop33
280
     0
102
RTVSPost2010PropOp33
 70
     1
102
RTVSPost2010Prop34
280
     0
102
RTVSPost2010PropOp34
 70
     1
102
RTVSPost2010Prop35
280
     0
102
RTVSPost2010PropOp35
 70
     1
102
RTVSPost2010Prop36
280
     0
102
RTVSPost2010PropOp36
 70
     1
102
RTVSPost2010Prop37
 90
       50
102
RTVSPost2010PropOp37
 70
     1
102
RTVSPost2010Prop38
140
0.0
102
RTVSPost2010PropOp38
 70
     1
102
RTVSPost2010Prop39
140
1.0
102
RTVSPost2010PropOp39
 70
     1
102
RTVSPost2010Prop40
 90
        0
102
RTVSPost2010PropOp40
 70
     1
102
RTVSPost2010Prop41ColorIndex
 90
       18
102
RTVSPost2010Prop41ColorRGB
 90
        0
102
RTVSPost2010PropOp41
 70
     1
102
RTVSPost2010Prop42
 90
       50
102
RTVSPost2010PropOp42
 70
     1
102
RTVSPost2010Prop43
 90
        3
102
RTVSPost2010PropOp43
 70
     1
102
RTVSPost2010Prop44ColorIndex
 90
        5
102
RTVSPost2010Prop44ColorRGB
 90
      255
102
RTVSPost2010PropOp44
 70
     1
102
RTVSPost2010Prop45
280
     0
102
RTVSPost2010PropOp45
 70
     1
102
RTVSPost2010Prop46
 90
       50
102
RTVSPost2010PropOp46
 70
     1
102
RTVSPost2010Prop47
 90
       50
102
RTVSPost2010PropOp47
 70
     1
102
RTVSPost2010Prop48
 90
       50
102
RTVSPost2010PropOp48
 70
     1
102
RTVSPost2010Prop49
280
     0
102
RTVSPost2010PropOp49
 70
     1
102
RTVSPost2010Prop50
 90
       50
102
RTVSPost2010PropOp50
 70
     1
102
RTVSPost2010Prop51ColorIndex
 90
      256
102
RTVSPost2010Prop51ColorRGB
 90
-16777216
102
RTVSPost2010PropOp51
 70
     0
102
RTVSPost2010Prop52
140
1.0
102
RTVSPost2010PropOp52
 70
     0
102
RTVSPost2010Prop53
 90
        2
102
RTVSPost2010PropOp53
 70
     1
102
RTVSPost2010Prop54
  1
strokes_ogs.tif
102
RTVSPost2010PropOp54
 70
     1
102
RTVSPost2010Prop55
280
     0
102
RTVSPost2010PropOp55
 70
     1
102
RTVSPost2010Prop56
140
1.0
102
RTVSPost2010PropOp56
 70
     1
102
RTVSPost2010Prop57
140
1.0
102
RTVSPost2010PropOp57
 70
     1
102
RTVSPropertyOp0
 70
     1
102
RTVSPropertyOp1
 70
     1
102
RTVSPropertyOp2
 70
     1
102
RTVSPropertyOp3
 70
     1
102
RTVSPropertyOp4
 70
     1
102
RTVSPropertyOp5
 70
     1
102
RTVSPropertyOp6
 70
     1
102
RTVSPropertyOp7
 70
     1
102
RTVSPropertyOp8
 70
     1
102
RTVSPropertyOp9
 70
     1
102
RTVSPropertyOp10
 70
     1
102
RTVSPropertyOp11
 70
     1
102
RTVSPropertyOp12
 70
     1
102
RTVSPropertyOp13
 70
     1
102
RTVSPropertyOp14
 70
     1
102
RTVSPropertyOp15
 70
     1
102
RTVSPropertyOp16
 70
     1
102
RTVSPropertyOp17
 70
     1
102
RTVSPropertyOp18
 70
     1
102
RTVSPropertyOp19
 70
     1
102
RTVSPropertyOp20
 70
     1
102
RTVSPropertyOp21
 70
     1
102
RTVSPropertyOp22
 70
     1
102
RTVSPropertyOp23
 70
     1
102
RTVSPropertyOp24
 70
     1
102
RTVSPropertyOp25
 70
     1
102
RTVSPropertyOp26
 70
     1
102
RTVSPropertyOp27
 70
     1
102
RTVSPropertyOp28
 70
     1
102
RTVSPropertyOp29
 70
     1
102
RTVSPropertyOp30
 70
     1
102
RTVSPropertyOp31
 70
     1
102
RTVSPropertyOp32
 70
     1
102
RTVSPropertyOp33
 70
     1
102
RTVSPropertyOp34
 70
     1
102
RTVSPropertyOp35
 70
     1
102
RTVSPropertyOp36
 70
     1
102
RTVSPropertyOp37
 70
     1
102
RTVSPropertyOp38
 70
     1
102
RTVSPropertyOp39
 70
     1
102
RTVSPropertyOp40
 70
     1
102
RTVSPropertyOp41
 70
     1
102
RTVSPropertyOp42
 70
     1
102
RTVSPropertyOp43
 70
     1
102
RTVSPropertyOp44
 70
     1
102
RTVSPropertyOp45
 70
     1
102
RTVSPropertyOp46
 70
     1
102
RTVSPropertyOp47
 70
     1
102
RTVSPropertyOp48
 70
     1
102
RTVSPropertyOp49
 70
     1
102
RTVSPropertyOp50
 70
     1
102
RTVSPropertyOp51
 70
     0
102
RTVSPropertyOp52
 70
     0
102
RTVSPropertyOp53
 70
     1
102
RTVSPropertyOp54
 70
     1
102
RTVSPropertyOp55
 70
     1
102
RTVSPropertyOp56
 70
     1
102
RTVSPropertyOp57
 70
     1
102
RTVSPropertyOp58
 70
     1
102
RTVSPropertyOp59
 70
     1
102
RTVSPropertyOp60
 70
     1
102
RTVSPropertyOp61
 70
     1
102
RTVSPropertyOp62
 70
     1
  0
XRECORD
  5
A868
102
{ACAD_REACTORS
330
A867
102
}
330
A867
100
AcDbXrecord
280
     1
102
RTVSPost2010Prop28
280
     0
102
RTVSPost2010PropOp28
 70
     1
102
RTVSPost2010Prop29
280
     1
102
RTVSPost2010PropOp29
 70
     1
102
RTVSPost2010Prop30
280
     1
102
RTVSPost2010PropOp30
 70
     1
102
RTVSPost2010Prop31
280
     0
102
RTVSPost2010PropOp31
 70
     1
102
RTVSPost2010Prop32
280
     0
102
RTVSPost2010PropOp32
 70
     1
102
RTVSPost2010Prop33
280
     0
102
RTVSPost2010PropOp33
 70
     1
102
RTVSPost2010Prop34
280
     0
102
RTVSPost2010PropOp34
 70
     1
102
RTVSPost2010Prop35
280
     0
102
RTVSPost2010PropOp35
 70
     1
102
RTVSPost2010Prop36
280
     0
102
RTVSPost2010PropOp36
 70
     1
102
RTVSPost2010Prop37
 90
       50
102
RTVSPost2010PropOp37
 70
     1
102
RTVSPost2010Prop38
140
0.0
102
RTVSPost2010PropOp38
 70
     1
102
RTVSPost2010Prop39
140
1.0
102
RTVSPost2010PropOp39
 70
     1
102
RTVSPost2010Prop40
 90
        0
102
RTVSPost2010PropOp40
 70
     1
102
RTVSPost2010Prop41ColorIndex
 90
       18
102
RTVSPost2010Prop41ColorRGB
 90
        0
102
RTVSPost2010PropOp41
 70
     1
102
RTVSPost2010Prop42
 90
       50
102
RTVSPost2010PropOp42
 70
     1
102
RTVSPost2010Prop43
 90
        3
102
RTVSPost2010PropOp43
 70
     1
102
RTVSPost2010Prop44ColorIndex
 90
        5
102
RTVSPost2010Prop44ColorRGB
 90
      255
102
RTVSPost2010PropOp44
 70
     1
102
RTVSPost2010Prop45
280
     0
102
RTVSPost2010PropOp45
 70
     1
102
RTVSPost2010Prop46
 90
       50
102
RTVSPost2010PropOp46
 70
     1
102
RTVSPost2010Prop47
 90
       50
102
RTVSPost2010PropOp47
 70
     1
102
RTVSPost2010Prop48
 90
       50
102
RTVSPost2010PropOp48
 70
     1
102
RTVSPost2010Prop49
280
     0
102
RTVSPost2010PropOp49
 70
     1
102
RTVSPost2010Prop50
 90
       50
102
RTVSPost2010PropOp50
 70
     1
102
RTVSPost2010Prop51ColorIndex
 90
      256
102
RTVSPost2010Prop51ColorRGB
 90
-16777216
102
RTVSPost2010PropOp51
 70
     0
102
RTVSPost2010Prop52
140
1.0
102
RTVSPost2010PropOp52
 70
     0
102
RTVSPost2010Prop53
 90
        2
102
RTVSPost2010PropOp53
 70
     1
102
RTVSPost2010Prop54
  1
strokes_ogs.tif
102
RTVSPost2010PropOp54
 70
     1
102
RTVSPost2010Prop55
280
     0
102
RTVSPost2010PropOp55
 70
     1
102
RTVSPost2010Prop56
140
1.0
102
RTVSPost2010PropOp56
 70
     1
102
RTVSPost2010Prop57
140
1.0
102
RTVSPost2010PropOp57
 70
     1
102
RTVSPropertyOp0
 70
     1
102
RTVSPropertyOp1
 70
     1
102
RTVSPropertyOp2
 70
     1
102
RTVSPropertyOp3
 70
     1
102
RTVSPropertyOp4
 70
     1
102
RTVSPropertyOp5
 70
     1
102
RTVSPropertyOp6
 70
     1
102
RTVSPropertyOp7
 70
     1
102
RTVSPropertyOp8
 70
     1
102
RTVSPropertyOp9
 70
     1
102
RTVSPropertyOp10
 70
     1
102
RTVSPropertyOp11
 70
     1
102
RTVSPropertyOp12
 70
     1
102
RTVSPropertyOp13
 70
     1
102
RTVSPropertyOp14
 70
     1
102
RTVSPropertyOp15
 70
     1
102
RTVSPropertyOp16
 70
     1
102
RTVSPropertyOp17
 70
     1
102
RTVSPropertyOp18
 70
     1
102
RTVSPropertyOp19
 70
     1
102
RTVSPropertyOp20
 70
     1
102
RTVSPropertyOp21
 70
     1
102
RTVSPropertyOp22
 70
     1
102
RTVSPropertyOp23
 70
     1
102
RTVSPropertyOp24
 70
     1
102
RTVSPropertyOp25
 70
     1
102
RTVSPropertyOp26
 70
     1
102
RTVSPropertyOp27
 70
     1
102
RTVSPropertyOp28
 70
     1
102
RTVSPropertyOp29
 70
     1
102
RTVSPropertyOp30
 70
     1
102
RTVSPropertyOp31
 70
     1
102
RTVSPropertyOp32
 70
     1
102
RTVSPropertyOp33
 70
     1
102
RTVSPropertyOp34
 70
     1
102
RTVSPropertyOp35
 70
     1
102
RTVSPropertyOp36
 70
     1
102
RTVSPropertyOp37
 70
     1
102
RTVSPropertyOp38
 70
     1
102
RTVSPropertyOp39
 70
     1
102
RTVSPropertyOp40
 70
     1
102
RTVSPropertyOp41
 70
     1
102
RTVSPropertyOp42
 70
     1
102
RTVSPropertyOp43
 70
     1
102
RTVSPropertyOp44
 70
     1
102
RTVSPropertyOp45
 70
     1
102
RTVSPropertyOp46
 70
     1
102
RTVSPropertyOp47
 70
     1
102
RTVSPropertyOp48
 70
     1
102
RTVSPropertyOp49
 70
     1
102
RTVSPropertyOp50
 70
     1
102
RTVSPropertyOp51
 70
     0
102
RTVSPropertyOp52
 70
     0
102
RTVSPropertyOp53
 70
     1
102
RTVSPropertyOp54
 70
     1
102
RTVSPropertyOp55
 70
     1
102
RTVSPropertyOp56
 70
     1
102
RTVSPropertyOp57
 70
     1
102
RTVSPropertyOp58
 70
     1
102
RTVSPropertyOp59
 70
     1
102
RTVSPropertyOp60
 70
     1
102
RTVSPropertyOp61
 70
     1
102
RTVSPropertyOp62
 70
     1
  0
XRECORD
  5
A86A
102
{ACAD_REACTORS
330
A869
102
}
330
A869
100
AcDbXrecord
280
     1
102
RTVSPost2010Prop28
280
     0
102
RTVSPost2010PropOp28
 70
     1
102
RTVSPost2010Prop29
280
     1
102
RTVSPost2010PropOp29
 70
     1
102
RTVSPost2010Prop30
280
     1
102
RTVSPost2010PropOp30
 70
     1
102
RTVSPost2010Prop31
280
     0
102
RTVSPost2010PropOp31
 70
     1
102
RTVSPost2010Prop32
280
     0
102
RTVSPost2010PropOp32
 70
     1
102
RTVSPost2010Prop33
280
     0
102
RTVSPost2010PropOp33
 70
     1
102
RTVSPost2010Prop34
280
     0
102
RTVSPost2010PropOp34
 70
     1
102
RTVSPost2010Prop35
280
     0
102
RTVSPost2010PropOp35
 70
     1
102
RTVSPost2010Prop36
280
     0
102
RTVSPost2010PropOp36
 70
     1
102
RTVSPost2010Prop37
 90
       50
102
RTVSPost2010PropOp37
 70
     1
102
RTVSPost2010Prop38
140
0.0
102
RTVSPost2010PropOp38
 70
     1
102
RTVSPost2010Prop39
140
1.0
102
RTVSPost2010PropOp39
 70
     1
102
RTVSPost2010Prop40
 90
        0
102
RTVSPost2010PropOp40
 70
     1
102
RTVSPost2010Prop41ColorIndex
 90
       18
102
RTVSPost2010Prop41ColorRGB
 90
        0
102
RTVSPost2010PropOp41
 70
     1
102
RTVSPost2010Prop42
 90
       50
102
RTVSPost2010PropOp42
 70
     1
102
RTVSPost2010Prop43
 90
        3
102
RTVSPost2010PropOp43
 70
     1
102
RTVSPost2010Prop44ColorIndex
 90
        5
102
RTVSPost2010Prop44ColorRGB
 90
      255
102
RTVSPost2010PropOp44
 70
     1
102
RTVSPost2010Prop45
280
     0
102
RTVSPost2010PropOp45
 70
     1
102
RTVSPost2010Prop46
 90
       50
102
RTVSPost2010PropOp46
 70
     1
102
RTVSPost2010Prop47
 90
       50
102
RTVSPost2010PropOp47
 70
     1
102
RTVSPost2010Prop48
 90
       50
102
RTVSPost2010PropOp48
 70
     1
102
RTVSPost2010Prop49
280
     0
102
RTVSPost2010PropOp49
 70
     1
102
RTVSPost2010Prop50
 90
       50
102
RTVSPost2010PropOp50
 70
     1
102
RTVSPost2010Prop51ColorIndex
 90
      256
102
RTVSPost2010Prop51ColorRGB
 90
-16777216
102
RTVSPost2010PropOp51
 70
     0
102
RTVSPost2010Prop52
140
1.0
102
RTVSPost2010PropOp52
 70
     0
102
RTVSPost2010Prop53
 90
        2
102
RTVSPost2010PropOp53
 70
     1
102
RTVSPost2010Prop54
  1
strokes_ogs.tif
102
RTVSPost2010PropOp54
 70
     1
102
RTVSPost2010Prop55
280
     0
102
RTVSPost2010PropOp55
 70
     1
102
RTVSPost2010Prop56
140
1.0
102
RTVSPost2010PropOp56
 70
     1
102
RTVSPost2010Prop57
140
1.0
102
RTVSPost2010PropOp57
 70
     1
102
RTVSPropertyOp0
 70
     1
102
RTVSPropertyOp1
 70
     1
102
RTVSPropertyOp2
 70
     1
102
RTVSPropertyOp3
 70
     1
102
RTVSPropertyOp4
 70
     1
102
RTVSPropertyOp5
 70
     1
102
RTVSPropertyOp6
 70
     1
102
RTVSPropertyOp7
 70
     1
102
RTVSPropertyOp8
 70
     1
102
RTVSPropertyOp9
 70
     1
102
RTVSPropertyOp10
 70
     1
102
RTVSPropertyOp11
 70
     1
102
RTVSPropertyOp12
 70
     1
102
RTVSPropertyOp13
 70
     1
102
RTVSPropertyOp14
 70
     1
102
RTVSPropertyOp15
 70
     1
102
RTVSPropertyOp16
 70
     1
102
RTVSPropertyOp17
 70
     1
102
RTVSPropertyOp18
 70
     1
102
RTVSPropertyOp19
 70
     1
102
RTVSPropertyOp20
 70
     1
102
RTVSPropertyOp21
 70
     1
102
RTVSPropertyOp22
 70
     1
102
RTVSPropertyOp23
 70
     1
102
RTVSPropertyOp24
 70
     1
102
RTVSPropertyOp25
 70
     1
102
RTVSPropertyOp26
 70
     1
102
RTVSPropertyOp27
 70
     1
102
RTVSPropertyOp28
 70
     1
102
RTVSPropertyOp29
 70
     1
102
RTVSPropertyOp30
 70
     1
102
RTVSPropertyOp31
 70
     1
102
RTVSPropertyOp32
 70
     1
102
RTVSPropertyOp33
 70
     1
102
RTVSPropertyOp34
 70
     1
102
RTVSPropertyOp35
 70
     1
102
RTVSPropertyOp36
 70
     1
102
RTVSPropertyOp37
 70
     1
102
RTVSPropertyOp38
 70
     1
102
RTVSPropertyOp39
 70
     1
102
RTVSPropertyOp40
 70
     1
102
RTVSPropertyOp41
 70
     1
102
RTVSPropertyOp42
 70
     1
102
RTVSPropertyOp43
 70
     1
102
RTVSPropertyOp44
 70
     1
102
RTVSPropertyOp45
 70
     1
102
RTVSPropertyOp46
 70
     1
102
RTVSPropertyOp47
 70
     1
102
RTVSPropertyOp48
 70
     1
102
RTVSPropertyOp49
 70
     1
102
RTVSPropertyOp50
 70
     1
102
RTVSPropertyOp51
 70
     0
102
RTVSPropertyOp52
 70
     0
102
RTVSPropertyOp53
 70
     1
102
RTVSPropertyOp54
 70
     1
102
RTVSPropertyOp55
 70
     1
102
RTVSPropertyOp56
 70
     1
102
RTVSPropertyOp57
 70
     1
102
RTVSPropertyOp58
 70
     1
102
RTVSPropertyOp59
 70
     1
102
RTVSPropertyOp60
 70
     1
102
RTVSPropertyOp61
 70
     1
102
RTVSPropertyOp62
 70
     1
  0
XRECORD
  5
A860
102
{ACAD_REACTORS
330
A85F
102
}
330
A85F
100
AcDbXrecord
280
     1
102
RTVSPost2010Prop28
280
     0
102
RTVSPost2010PropOp28
 70
     1
102
RTVSPost2010Prop29
280
     1
102
RTVSPost2010PropOp29
 70
     1
102
RTVSPost2010Prop30
280
     1
102
RTVSPost2010PropOp30
 70
     1
102
RTVSPost2010Prop31
280
     0
102
RTVSPost2010PropOp31
 70
     1
102
RTVSPost2010Prop32
280
     0
102
RTVSPost2010PropOp32
 70
     1
102
RTVSPost2010Prop33
280
     0
102
RTVSPost2010PropOp33
 70
     1
102
RTVSPost2010Prop34
280
     0
102
RTVSPost2010PropOp34
 70
     1
102
RTVSPost2010Prop35
280
     0
102
RTVSPost2010PropOp35
 70
     1
102
RTVSPost2010Prop36
280
     0
102
RTVSPost2010PropOp36
 70
     1
102
RTVSPost2010Prop37
 90
       50
102
RTVSPost2010PropOp37
 70
     1
102
RTVSPost2010Prop38
140
0.0
102
RTVSPost2010PropOp38
 70
     1
102
RTVSPost2010Prop39
140
1.0
102
RTVSPost2010PropOp39
 70
     1
102
RTVSPost2010Prop40
 90
        0
102
RTVSPost2010PropOp40
 70
     1
102
RTVSPost2010Prop41ColorIndex
 90
       18
102
RTVSPost2010Prop41ColorRGB
 90
        0
102
RTVSPost2010PropOp41
 70
     1
102
RTVSPost2010Prop42
 90
       50
102
RTVSPost2010PropOp42
 70
     1
102
RTVSPost2010Prop43
 90
        3
102
RTVSPost2010PropOp43
 70
     1
102
RTVSPost2010Prop44ColorIndex
 90
        5
102
RTVSPost2010Prop44ColorRGB
 90
      255
102
RTVSPost2010PropOp44
 70
     1
102
RTVSPost2010Prop45
280
     0
102
RTVSPost2010PropOp45
 70
     1
102
RTVSPost2010Prop46
 90
       50
102
RTVSPost2010PropOp46
 70
     1
102
RTVSPost2010Prop47
 90
       50
102
RTVSPost2010PropOp47
 70
     1
102
RTVSPost2010Prop48
 90
       50
102
RTVSPost2010PropOp48
 70
     1
102
RTVSPost2010Prop49
280
     0
102
RTVSPost2010PropOp49
 70
     1
102
RTVSPost2010Prop50
 90
       50
102
RTVSPost2010PropOp50
 70
     1
102
RTVSPost2010Prop51ColorIndex
 90
      256
102
RTVSPost2010Prop51ColorRGB
 90
-16777216
102
RTVSPost2010PropOp51
 70
     0
102
RTVSPost2010Prop52
140
1.0
102
RTVSPost2010PropOp52
 70
     0
102
RTVSPost2010Prop53
 90
        2
102
RTVSPost2010PropOp53
 70
     1
102
RTVSPost2010Prop54
  1
strokes_ogs.tif
102
RTVSPost2010PropOp54
 70
     1
102
RTVSPost2010Prop55
280
     0
102
RTVSPost2010PropOp55
 70
     1
102
RTVSPost2010Prop56
140
1.0
102
RTVSPost2010PropOp56
 70
     1
102
RTVSPost2010Prop57
140
1.0
102
RTVSPost2010PropOp57
 70
     1
102
RTVSPropertyOp0
 70
     1
102
RTVSPropertyOp1
 70
     1
102
RTVSPropertyOp2
 70
     1
102
RTVSPropertyOp3
 70
     1
102
RTVSPropertyOp4
 70
     1
102
RTVSPropertyOp5
 70
     1
102
RTVSPropertyOp6
 70
     1
102
RTVSPropertyOp7
 70
     1
102
RTVSPropertyOp8
 70
     1
102
RTVSPropertyOp9
 70
     1
102
RTVSPropertyOp10
 70
     1
102
RTVSPropertyOp11
 70
     1
102
RTVSPropertyOp12
 70
     1
102
RTVSPropertyOp13
 70
     1
102
RTVSPropertyOp14
 70
     1
102
RTVSPropertyOp15
 70
     1
102
RTVSPropertyOp16
 70
     1
102
RTVSPropertyOp17
 70
     1
102
RTVSPropertyOp18
 70
     1
102
RTVSPropertyOp19
 70
     1
102
RTVSPropertyOp20
 70
     1
102
RTVSPropertyOp21
 70
     1
102
RTVSPropertyOp22
 70
     1
102
RTVSPropertyOp23
 70
     1
102
RTVSPropertyOp24
 70
     1
102
RTVSPropertyOp25
 70
     1
102
RTVSPropertyOp26
 70
     1
102
RTVSPropertyOp27
 70
     1
102
RTVSPropertyOp28
 70
     1
102
RTVSPropertyOp29
 70
     1
102
RTVSPropertyOp30
 70
     1
102
RTVSPropertyOp31
 70
     1
102
RTVSPropertyOp32
 70
     1
102
RTVSPropertyOp33
 70
     1
102
RTVSPropertyOp34
 70
     1
102
RTVSPropertyOp35
 70
     1
102
RTVSPropertyOp36
 70
     1
102
RTVSPropertyOp37
 70
     1
102
RTVSPropertyOp38
 70
     1
102
RTVSPropertyOp39
 70
     1
102
RTVSPropertyOp40
 70
     1
102
RTVSPropertyOp41
 70
     1
102
RTVSPropertyOp42
 70
     1
102
RTVSPropertyOp43
 70
     1
102
RTVSPropertyOp44
 70
     1
102
RTVSPropertyOp45
 70
     1
102
RTVSPropertyOp46
 70
     1
102
RTVSPropertyOp47
 70
     1
102
RTVSPropertyOp48
 70
     1
102
RTVSPropertyOp49
 70
     1
102
RTVSPropertyOp50
 70
     1
102
RTVSPropertyOp51
 70
     0
102
RTVSPropertyOp52
 70
     0
102
RTVSPropertyOp53
 70
     1
102
RTVSPropertyOp54
 70
     1
102
RTVSPropertyOp55
 70
     1
102
RTVSPropertyOp56
 70
     1
102
RTVSPropertyOp57
 70
     1
102
RTVSPropertyOp58
 70
     1
102
RTVSPropertyOp59
 70
     1
102
RTVSPropertyOp60
 70
     1
102
RTVSPropertyOp61
 70
     1
102
RTVSPropertyOp62
 70
     1
  0
XRECORD
  5
A854
102
{ACAD_REACTORS
330
A853
102
}
330
A853
100
AcDbXrecord
280
     1
102
RTVSPost2010Prop28
280
     0
102
RTVSPost2010PropOp28
 70
     1
102
RTVSPost2010Prop29
280
     1
102
RTVSPost2010PropOp29
 70
     1
102
RTVSPost2010Prop30
280
     1
102
RTVSPost2010PropOp30
 70
     1
102
RTVSPost2010Prop31
280
     0
102
RTVSPost2010PropOp31
 70
     1
102
RTVSPost2010Prop32
280
     0
102
RTVSPost2010PropOp32
 70
     1
102
RTVSPost2010Prop33
280
     0
102
RTVSPost2010PropOp33
 70
     1
102
RTVSPost2010Prop34
280
     0
102
RTVSPost2010PropOp34
 70
     1
102
RTVSPost2010Prop35
280
     0
102
RTVSPost2010PropOp35
 70
     1
102
RTVSPost2010Prop36
280
     0
102
RTVSPost2010PropOp36
 70
     1
102
RTVSPost2010Prop37
 90
       50
102
RTVSPost2010PropOp37
 70
     1
102
RTVSPost2010Prop38
140
0.0
102
RTVSPost2010PropOp38
 70
     1
102
RTVSPost2010Prop39
140
1.0
102
RTVSPost2010PropOp39
 70
     1
102
RTVSPost2010Prop40
 90
        0
102
RTVSPost2010PropOp40
 70
     1
102
RTVSPost2010Prop41ColorIndex
 90
       18
102
RTVSPost2010Prop41ColorRGB
 90
        0
102
RTVSPost2010PropOp41
 70
     1
102
RTVSPost2010Prop42
 90
       50
102
RTVSPost2010PropOp42
 70
     1
102
RTVSPost2010Prop43
 90
        3
102
RTVSPost2010PropOp43
 70
     1
102
RTVSPost2010Prop44ColorIndex
 90
        5
102
RTVSPost2010Prop44ColorRGB
 90
      255
102
RTVSPost2010PropOp44
 70
     1
102
RTVSPost2010Prop45
280
     0
102
RTVSPost2010PropOp45
 70
     1
102
RTVSPost2010Prop46
 90
       50
102
RTVSPost2010PropOp46
 70
     1
102
RTVSPost2010Prop47
 90
       50
102
RTVSPost2010PropOp47
 70
     1
102
RTVSPost2010Prop48
 90
       50
102
RTVSPost2010PropOp48
 70
     1
102
RTVSPost2010Prop49
280
     0
102
RTVSPost2010PropOp49
 70
     1
102
RTVSPost2010Prop50
 90
       50
102
RTVSPost2010PropOp50
 70
     1
102
RTVSPost2010Prop51ColorIndex
 90
      256
102
RTVSPost2010Prop51ColorRGB
 90
-16777216
102
RTVSPost2010PropOp51
 70
     0
102
RTVSPost2010Prop52
140
1.0
102
RTVSPost2010PropOp52
 70
     0
102
RTVSPost2010Prop53
 90
        2
102
RTVSPost2010PropOp53
 70
     1
102
RTVSPost2010Prop54
  1
strokes_ogs.tif
102
RTVSPost2010PropOp54
 70
     1
102
RTVSPost2010Prop55
280
     0
102
RTVSPost2010PropOp55
 70
     1
102
RTVSPost2010Prop56
140
1.0
102
RTVSPost2010PropOp56
 70
     1
102
RTVSPost2010Prop57
140
1.0
102
RTVSPost2010PropOp57
 70
     1
102
RTVSPropertyOp0
 70
     1
102
RTVSPropertyOp1
 70
     1
102
RTVSPropertyOp2
 70
     1
102
RTVSPropertyOp3
 70
     1
102
RTVSPropertyOp4
 70
     1
102
RTVSPropertyOp5
 70
     1
102
RTVSPropertyOp6
 70
     1
102
RTVSPropertyOp7
 70
     1
102
RTVSPropertyOp8
 70
     1
102
RTVSPropertyOp9
 70
     1
102
RTVSPropertyOp10
 70
     1
102
RTVSPropertyOp11
 70
     1
102
RTVSPropertyOp12
 70
     1
102
RTVSPropertyOp13
 70
     1
102
RTVSPropertyOp14
 70
     1
102
RTVSPropertyOp15
 70
     1
102
RTVSPropertyOp16
 70
     1
102
RTVSPropertyOp17
 70
     1
102
RTVSPropertyOp18
 70
     1
102
RTVSPropertyOp19
 70
     1
102
RTVSPropertyOp20
 70
     1
102
RTVSPropertyOp21
 70
     1
102
RTVSPropertyOp22
 70
     1
102
RTVSPropertyOp23
 70
     1
102
RTVSPropertyOp24
 70
     1
102
RTVSPropertyOp25
 70
     1
102
RTVSPropertyOp26
 70
     1
102
RTVSPropertyOp27
 70
     1
102
RTVSPropertyOp28
 70
     1
102
RTVSPropertyOp29
 70
     1
102
RTVSPropertyOp30
 70
     1
102
RTVSPropertyOp31
 70
     1
102
RTVSPropertyOp32
 70
     1
102
RTVSPropertyOp33
 70
     1
102
RTVSPropertyOp34
 70
     1
102
RTVSPropertyOp35
 70
     1
102
RTVSPropertyOp36
 70
     1
102
RTVSPropertyOp37
 70
     1
102
RTVSPropertyOp38
 70
     1
102
RTVSPropertyOp39
 70
     1
102
RTVSPropertyOp40
 70
     1
102
RTVSPropertyOp41
 70
     1
102
RTVSPropertyOp42
 70
     1
102
RTVSPropertyOp43
 70
     1
102
RTVSPropertyOp44
 70
     1
102
RTVSPropertyOp45
 70
     1
102
RTVSPropertyOp46
 70
     1
102
RTVSPropertyOp47
 70
     1
102
RTVSPropertyOp48
 70
     1
102
RTVSPropertyOp49
 70
     1
102
RTVSPropertyOp50
 70
     1
102
RTVSPropertyOp51
 70
     0
102
RTVSPropertyOp52
 70
     0
102
RTVSPropertyOp53
 70
     1
102
RTVSPropertyOp54
 70
     1
102
RTVSPropertyOp55
 70
     1
102
RTVSPropertyOp56
 70
     1
102
RTVSPropertyOp57
 70
     1
102
RTVSPropertyOp58
 70
     1
102
RTVSPropertyOp59
 70
     1
102
RTVSPropertyOp60
 70
     1
102
RTVSPropertyOp61
 70
     1
102
RTVSPropertyOp62
 70
     1
  0
XRECORD
  5
A86C
102
{ACAD_REACTORS
330
A86B
102
}
330
A86B
100
AcDbXrecord
280
     1
102
RTVSPost2010Prop28
280
     0
102
RTVSPost2010PropOp28
 70
     1
102
RTVSPost2010Prop29
280
     1
102
RTVSPost2010PropOp29
 70
     1
102
RTVSPost2010Prop30
280
     1
102
RTVSPost2010PropOp30
 70
     1
102
RTVSPost2010Prop31
280
     0
102
RTVSPost2010PropOp31
 70
     1
102
RTVSPost2010Prop32
280
     0
102
RTVSPost2010PropOp32
 70
     1
102
RTVSPost2010Prop33
280
     0
102
RTVSPost2010PropOp33
 70
     1
102
RTVSPost2010Prop34
280
     0
102
RTVSPost2010PropOp34
 70
     1
102
RTVSPost2010Prop35
280
     0
102
RTVSPost2010PropOp35
 70
     1
102
RTVSPost2010Prop36
280
     0
102
RTVSPost2010PropOp36
 70
     1
102
RTVSPost2010Prop37
 90
       50
102
RTVSPost2010PropOp37
 70
     1
102
RTVSPost2010Prop38
140
0.0
102
RTVSPost2010PropOp38
 70
     1
102
RTVSPost2010Prop39
140
1.0
102
RTVSPost2010PropOp39
 70
     1
102
RTVSPost2010Prop40
 90
        0
102
RTVSPost2010PropOp40
 70
     1
102
RTVSPost2010Prop41ColorIndex
 90
       18
102
RTVSPost2010Prop41ColorRGB
 90
        0
102
RTVSPost2010PropOp41
 70
     1
102
RTVSPost2010Prop42
 90
       50
102
RTVSPost2010PropOp42
 70
     1
102
RTVSPost2010Prop43
 90
        3
102
RTVSPost2010PropOp43
 70
     1
102
RTVSPost2010Prop44ColorIndex
 90
        5
102
RTVSPost2010Prop44ColorRGB
 90
      255
102
RTVSPost2010PropOp44
 70
     1
102
RTVSPost2010Prop45
280
     0
102
RTVSPost2010PropOp45
 70
     1
102
RTVSPost2010Prop46
 90
       50
102
RTVSPost2010PropOp46
 70
     1
102
RTVSPost2010Prop47
 90
       50
102
RTVSPost2010PropOp47
 70
     1
102
RTVSPost2010Prop48
 90
       50
102
RTVSPost2010PropOp48
 70
     1
102
RTVSPost2010Prop49
280
     0
102
RTVSPost2010PropOp49
 70
     1
102
RTVSPost2010Prop50
 90
       50
102
RTVSPost2010PropOp50
 70
     1
102
RTVSPost2010Prop51ColorIndex
 90
      256
102
RTVSPost2010Prop51ColorRGB
 90
-16777216
102
RTVSPost2010PropOp51
 70
     0
102
RTVSPost2010Prop52
140
1.0
102
RTVSPost2010PropOp52
 70
     0
102
RTVSPost2010Prop53
 90
        2
102
RTVSPost2010PropOp53
 70
     1
102
RTVSPost2010Prop54
  1
strokes_ogs.tif
102
RTVSPost2010PropOp54
 70
     1
102
RTVSPost2010Prop55
280
     0
102
RTVSPost2010PropOp55
 70
     1
102
RTVSPost2010Prop56
140
1.0
102
RTVSPost2010PropOp56
 70
     1
102
RTVSPost2010Prop57
140
1.0
102
RTVSPost2010PropOp57
 70
     1
102
RTVSPropertyOp0
 70
     1
102
RTVSPropertyOp1
 70
     1
102
RTVSPropertyOp2
 70
     1
102
RTVSPropertyOp3
 70
     1
102
RTVSPropertyOp4
 70
     1
102
RTVSPropertyOp5
 70
     1
102
RTVSPropertyOp6
 70
     1
102
RTVSPropertyOp7
 70
     1
102
RTVSPropertyOp8
 70
     1
102
RTVSPropertyOp9
 70
     1
102
RTVSPropertyOp10
 70
     1
102
RTVSPropertyOp11
 70
     1
102
RTVSPropertyOp12
 70
     1
102
RTVSPropertyOp13
 70
     1
102
RTVSPropertyOp14
 70
     1
102
RTVSPropertyOp15
 70
     1
102
RTVSPropertyOp16
 70
     1
102
RTVSPropertyOp17
 70
     1
102
RTVSPropertyOp18
 70
     1
102
RTVSPropertyOp19
 70
     1
102
RTVSPropertyOp20
 70
     1
102
RTVSPropertyOp21
 70
     1
102
RTVSPropertyOp22
 70
     1
102
RTVSPropertyOp23
 70
     1
102
RTVSPropertyOp24
 70
     1
102
RTVSPropertyOp25
 70
     1
102
RTVSPropertyOp26
 70
     1
102
RTVSPropertyOp27
 70
     1
102
RTVSPropertyOp28
 70
     1
102
RTVSPropertyOp29
 70
     1
102
RTVSPropertyOp30
 70
     1
102
RTVSPropertyOp31
 70
     1
102
RTVSPropertyOp32
 70
     1
102
RTVSPropertyOp33
 70
     1
102
RTVSPropertyOp34
 70
     1
102
RTVSPropertyOp35
 70
     1
102
RTVSPropertyOp36
 70
     1
102
RTVSPropertyOp37
 70
     1
102
RTVSPropertyOp38
 70
     1
102
RTVSPropertyOp39
 70
     1
102
RTVSPropertyOp40
 70
     1
102
RTVSPropertyOp41
 70
     1
102
RTVSPropertyOp42
 70
     1
102
RTVSPropertyOp43
 70
     1
102
RTVSPropertyOp44
 70
     1
102
RTVSPropertyOp45
 70
     1
102
RTVSPropertyOp46
 70
     1
102
RTVSPropertyOp47
 70
     1
102
RTVSPropertyOp48
 70
     1
102
RTVSPropertyOp49
 70
     1
102
RTVSPropertyOp50
 70
     1
102
RTVSPropertyOp51
 70
     0
102
RTVSPropertyOp52
 70
     0
102
RTVSPropertyOp53
 70
     1
102
RTVSPropertyOp54
 70
     1
102
RTVSPropertyOp55
 70
     1
102
RTVSPropertyOp56
 70
     1
102
RTVSPropertyOp57
 70
     1
102
RTVSPropertyOp58
 70
     1
102
RTVSPropertyOp59
 70
     1
102
RTVSPropertyOp60
 70
     1
102
RTVSPropertyOp61
 70
     1
102
RTVSPropertyOp62
 70
     1
  0
ENDSEC
  0
EOF
