  0
SECTION
  2
HEADER
  9
$ACADVER
  1
AC1015
  9
$ACADMAINTVER
 70
    20
  9
$DWGCODEPAGE
  3
ANSI_932
  9
$INSBASE
 10
0.0
 20
0.0
 30
0.0
  9
$EXTMIN
 10
10.0
 20
9.999999999999998
 30
0.0
  9
$EXTMAX
 10
537.398059
 20
389.5730879999999
 30
0.0
  9
$LIMMIN
 10
0.0
 20
0.0
  9
$LIMMAX
 10
633.6
 20
436.8
  9
$ORTHOMODE
 70
     1
  9
$REGENMODE
 70
     1
  9
$FILLMODE
 70
     1
  9
$QTEXTMODE
 70
     0
  9
$MIRRTEXT
 70
     1
  9
$LTSCALE
 40
20.0
  9
$ATTMODE
 70
     1
  9
$TEXTSIZE
 40
5.0
  9
$TRACEWID
 40
1.0
  9
$TEXTSTYLE
  7
STANDARD
  9
$CLAYER
  8
0
  9
$CELTYPE
  6
BYLAYER
  9
$CECOLOR
 62
   256
  9
$CELTSCALE
 40
1.0
  9
$DISPSILH
 70
     0
  9
$DIMSCALE
 40
1.0
  9
$DIMASZ
 40
2.5
  9
$DIMEXO
 40
1.0
  9
$DIMDLI
 40
10.0
  9
$DIMRND
 40
0.0
  9
$DIMDLE
 40
0.0
  9
$DIMEXE
 40
1.0
  9
$DIMTP
 40
0.0
  9
$DIMTM
 40
0.0
  9
$DIMTXT
 40
2.5
  9
$DIMCEN
 40
0.0
  9
$DIMTSZ
 40
0.0
  9
$DIMTOL
 70
     0
  9
$DIMLIM
 70
     0
  9
$DIMTIH
 70
     0
  9
$DIMTOH
 70
     0
  9
$DIMSE1
 70
     0
  9
$DIMSE2
 70
     0
  9
$DIMTAD
 70
     3
  9
$DIMZIN
 70
     8
  9
$DIMBLK
  1

  9
$DIMASO
 70
     1
  9
$DIMSHO
 70
     1
  9
$DIMPOST
  1

  9
$DIMAPOST
  1

  9
$DIMALT
 70
     0
  9
$DIMALTD
 70
     2
  9
$DIMALTF
 40
25.4
  9
$DIMLFAC
 40
1.0
  9
$DIMTOFL
 70
     1
  9
$DIMTVP
 40
0.0
  9
$DIMTIX
 70
     0
  9
$DIMSOXD
 70
     0
  9
$DIMSAH
 70
     1
  9
$DIMBLK1
  1
OPEN
  9
$DIMBLK2
  1
OPEN
  9
$DIMSTYLE
  2
STANDARD
  9
$DIMCLRD
 70
     0
  9
$DIMCLRE
 70
     0
  9
$DIMCLRT
 70
     0
  9
$DIMTFAC
 40
1.0
  9
$DIMGAP
 40
1.0
  9
$DIMJUST
 70
     0
  9
$DIMSD1
 70
     0
  9
$DIMSD2
 70
     0
  9
$DIMTOLJ
 70
     1
  9
$DIMTZIN
 70
     0
  9
$DIMALTZ
 70
     0
  9
$DIMALTTZ
 70
     0
  9
$DIMUPT
 70
     0
  9
$DIMDEC
 70
     4
  9
$DIMTDEC
 70
     4
  9
$DIMALTU
 70
     2
  9
$DIMALTTD
 70
     2
  9
$DIMTXSTY
  7
STANDARD
  9
$DIMAUNIT
 70
     0
  9
$DIMADEC
 70
     0
  9
$DIMALTRND
 40
0.0
  9
$DIMAZIN
 70
     0
  9
$DIMDSEP
 70
    46
  9
$DIMATFIT
 70
     3
  9
$DIMFRAC
 70
     0
  9
$DIMLDRBLK
  1
OPEN
  9
$DIMLUNIT
 70
     2
  9
$DIMLWD
 70
    -2
  9
$DIMLWE
 70
    -2
  9
$DIMTMOVE
 70
     0
  9
$LUNITS
 70
     2
  9
$LUPREC
 70
     4
  9
$SKETCHINC
 40
1.0
  9
$FILLETRAD
 40
0.0
  9
$AUNITS
 70
     0
  9
$AUPREC
 70
     2
  9
$MENU
  1
.
  9
$ELEVATION
 40
0.0
  9
$PELEVATION
 40
0.0
  9
$THICKNESS
 40
0.0
  9
$LIMCHECK
 70
     0
  9
$CHAMFERA
 40
10.0
  9
$CHAMFERB
 40
10.0
  9
$CHAMFERC
 40
0.0
  9
$CHAMFERD
 40
0.0
  9
$SKPOLY
 70
     0
  9
$TDCREATE
 40
2451368.501771065
  9
$TDUCREATE
 40
2451368.126771065
  9
$TDUPDATE
 40
2457192.642948947
  9
$TDUUPDATE
 40
2457192.267948947
  9
$TDINDWG
 40
0.0015775579
  9
$TDUSRTIMER
 40
0.0015768866
  9
$USRTIMER
 70
     1
  9
$ANGBASE
 50
0.0
  9
$ANGDIR
 70
     0
  9
$PDMODE
 70
     0
  9
$PDSIZE
 40
0.0
  9
$PLINEWID
 40
0.0
  9
$SPLFRAME
 70
     0
  9
$SPLINETYPE
 70
     6
  9
$SPLINESEGS
 70
     8
  9
$HANDSEED
  5
E271
  9
$SURFTAB1
 70
     6
  9
$SURFTAB2
 70
     6
  9
$SURFTYPE
 70
     6
  9
$SURFU
 70
     6
  9
$SURFV
 70
     6
  9
$UCSBASE
  2

  9
$UCSNAME
  2

  9
$UCSORG
 10
0.0
 20
0.0
 30
0.0
  9
$UCSXDIR
 10
1.0
 20
0.0
 30
0.0
  9
$UCSYDIR
 10
0.0
 20
1.0
 30
0.0
  9
$UCSORTHOREF
  2

  9
$UCSORTHOVIEW
 70
     0
  9
$UCSORGTOP
 10
0.0
 20
0.0
 30
0.0
  9
$UCSORGBOTTOM
 10
0.0
 20
0.0
 30
0.0
  9
$UCSORGLEFT
 10
0.0
 20
0.0
 30
0.0
  9
$UCSORGRIGHT
 10
0.0
 20
0.0
 30
0.0
  9
$UCSORGFRONT
 10
0.0
 20
0.0
 30
0.0
  9
$UCSORGBACK
 10
0.0
 20
0.0
 30
0.0
  9
$PUCSBASE
  2

  9
$PUCSNAME
  2

  9
$PUCSORG
 10
0.0
 20
0.0
 30
0.0
  9
$PUCSXDIR
 10
1.0
 20
0.0
 30
0.0
  9
$PUCSYDIR
 10
0.0
 20
1.0
 30
0.0
  9
$PUCSORTHOREF
  2

  9
$PUCSORTHOVIEW
 70
     0
  9
$PUCSORGTOP
 10
0.0
 20
0.0
 30
0.0
  9
$PUCSORGBOTTOM
 10
0.0
 20
0.0
 30
0.0
  9
$PUCSORGLEFT
 10
0.0
 20
0.0
 30
0.0
  9
$PUCSORGRIGHT
 10
0.0
 20
0.0
 30
0.0
  9
$PUCSORGFRONT
 10
0.0
 20
0.0
 30
0.0
  9
$PUCSORGBACK
 10
0.0
 20
0.0
 30
0.0
  9
$USERI1
 70
     0
  9
$USERI2
 70
     0
  9
$USERI3
 70
     0
  9
$USERI4
 70
     0
  9
$USERI5
 70
     0
  9
$USERR1
 40
0.0
  9
$USERR2
 40
0.0
  9
$USERR3
 40
0.0
  9
$USERR4
 40
0.0
  9
$USERR5
 40
0.0
  9
$WORLDVIEW
 70
     1
  9
$SHADEDGE
 70
     3
  9
$SHADEDIF
 70
    70
  9
$TILEMODE
 70
     1
  9
$MAXACTVP
 70
    16
  9
$PINSBASE
 10
0.0
 20
0.0
 30
0.0
  9
$PLIMCHECK
 70
     0
  9
$PEXTMIN
 10
1.000000000000000E+20
 20
1.000000000000000E+20
 30
1.000000000000000E+20
  9
$PEXTMAX
 10
-1.000000000000000E+20
 20
-1.000000000000000E+20
 30
-1.000000000000000E+20
  9
$PLIMMIN
 10
0.0
 20
0.0
  9
$PLIMMAX
 10
420.0
 20
297.0
  9
$UNITMODE
 70
     0
  9
$VISRETAIN
 70
     0
  9
$PLINEGEN
 70
     0
  9
$PSLTSCALE
 70
     0
  9
$TREEDEPTH
 70
  3020
  9
$CMLSTYLE
  2
STANDARD
  9
$CMLJUST
 70
     0
  9
$CMLSCALE
 40
1.0
  9
$PROXYGRAPHICS
 70
     1
  9
$MEASUREMENT
 70
     0
  9
$CELWEIGHT
370
    -1
  9
$ENDCAPS
280
     0
  9
$JOINSTYLE
280
     0
  9
$LWDISPLAY
290
     0
  9
$INSUNITS
 70
     0
  9
$HYPERLINKBASE
  1

  9
$STYLESHEET
  1

  9
$XEDIT
290
     1
  9
$CEPSNTYPE
380
     0
  9
$PSTYLEMODE
290
     1
  9
$FINGERPRINTGUID
  2
{19671C00-7CED-465B-8D88-6203AB85D40B}
  9
$VERSIONGUID
  2
{796F1AC7-0E64-4E8F-B319-673935942B38}
  9
$EXTNAMES
290
     1
  9
$PSVPSCALE
 40
0.0
  9
$OLESTARTUP
290
     0
  0
ENDSEC
  0
SECTION
  2
CLASSES
  0
CLASS
  1
ACDBDICTIONARYWDFLT
  2
AcDbDictionaryWithDefault
  3
ObjectDBX Classes
 90
        0
280
     0
281
     0
  0
CLASS
  1
ACDBPLACEHOLDER
  2
AcDbPlaceHolder
  3
ObjectDBX Classes
 90
        0
280
     0
281
     0
  0
CLASS
  1
LAYOUT
  2
AcDbLayout
  3
ObjectDBX Classes
 90
        0
280
     0
281
     0
  0
CLASS
  1
DICTIONARYVAR
  2
AcDbDictionaryVar
  3
ObjectDBX Classes
 90
        0
280
     0
281
     0
  0
CLASS
  1
MATERIAL
  2
AcDbMaterial
  3
ObjectDBX Classes
 90
     1153
280
     0
281
     0
  0
CLASS
  1
VISUALSTYLE
  2
AcDbVisualStyle
  3
ObjectDBX Classes
 90
     4095
280
     0
281
     0
  0
CLASS
  1
TABLESTYLE
  2
AcDbTableStyle
  3
ObjectDBX Classes
 90
     4095
280
     0
281
     0
  0
CLASS
  1
SCALE
  2
AcDbScale
  3
ObjectDBX Classes
 90
     1153
280
     0
281
     0
  0
CLASS
  1
MLEADERSTYLE
  2
AcDbMLeaderStyle
  3
ACDB_MLEADERSTYLE_CLASS
 90
     4095
280
     0
281
     0
  0
CLASS
  1
ACDBSECTIONVIEWSTYLE
  2
AcDbSectionViewStyle
  3
ObjectDBX Classes
 90
     1025
280
     0
281
     0
  0
CLASS
  1
ACDBDETAILVIEWSTYLE
  2
AcDbDetailViewStyle
  3
ObjectDBX Classes
 90
     1025
280
     0
281
     0
  0
CLASS
  1
CELLSTYLEMAP
  2
AcDbCellStyleMap
  3
ObjectDBX Classes
 90
     1152
280
     0
281
     0
  0
ENDSEC
  0
SECTION
  2
TABLES
  0
TABLE
  2
VPORT
  5
DEF5
330
0
100
AcDbSymbolTable
 70
     1
  0
VPORT
  5
E1BA
330
DEF5
100
AcDbSymbolTableRecord
100
AcDbViewportTableRecord
  2
*ACTIVE
 70
     0
 10
0.0
 20
0.0
 11
1.0
 21
1.0
 12
388.6812321009506
 22
199.7878794133056
 13
0.0
 23
0.0
 14
10.0
 24
10.0
 15
10.0
 25
10.0
 16
0.0
 26
0.0
 36
1.0
 17
0.0
 27
0.0
 37
0.0
 40
383.8529863331241
 41
1.899603698811096
 42
50.0
 43
0.0
 44
0.0
 50
0.0
 51
0.0
 71
     0
 72
   100
 73
     1
 74
     0
 75
     0
 76
     0
 77
     0
 78
     0
281
     0
 65
     1
110
0.0
120
0.0
130
0.0
111
1.0
121
0.0
131
0.0
112
0.0
122
1.0
132
0.0
 79
     0
146
0.0
1001
ACAD_NAV_VCDISPLAY
1070
     3
  0
ENDTAB
  0
TABLE
  2
LTYPE
  5
DEF2
330
0
100
AcDbSymbolTable
 70
     4
  0
LTYPE
  5
DF00
330
DEF2
100
AcDbSymbolTableRecord
100
AcDbLinetypeTableRecord
  2
BYBLOCK
 70
     0
  3

 72
    65
 73
     0
 40
0.0
  0
LTYPE
  5
DF01
330
DEF2
100
AcDbSymbolTableRecord
100
AcDbLinetypeTableRecord
  2
BYLAYER
 70
     0
  3

 72
    65
 73
     0
 40
0.0
  0
LTYPE
  5
DF02
330
DEF2
100
AcDbSymbolTableRecord
100
AcDbLinetypeTableRecord
  2
CONTINUOUS
 70
     0
  3
Solid line
 72
    65
 73
     0
 40
0.0
  0
LTYPE
  5
DF10
330
DEF2
100
AcDbSymbolTableRecord
100
AcDbLinetypeTableRecord
  2
DASHED
 70
     0
  3
__ __ __ __ __ __ __ __ __ __ __ __ __ __ __ __
 72
    65
 73
     2
 40
0.75
 49
0.5
 74
     0
 49
-0.25
 74
     0
  0
LTYPE
  5
DF11
330
DEF2
100
AcDbSymbolTableRecord
100
AcDbLinetypeTableRecord
  2
CENTER
 70
     0
  3
____ _ ____ _ ____ _ ____ _ ____ _ ____ _ ____ 
 72
    65
 73
     4
 40
2.0
 49
1.25
 74
     0
 49
-0.25
 74
     0
 49
0.25
 74
     0
 49
-0.25
 74
     0
  0
LTYPE
  5
DF12
330
DEF2
100
AcDbSymbolTableRecord
100
AcDbLinetypeTableRecord
  2
PHANTOM
 70
     0
  3
______  __  __  ______  __  __  ______  __  __ 
 72
    65
 73
     6
 40
2.5
 49
1.25
 74
     0
 49
-0.25
 74
     0
 49
0.25
 74
     0
 49
-0.25
 74
     0
 49
0.25
 74
     0
 49
-0.25
 74
     0
  0
ENDTAB
  0
TABLE
  2
LAYER
  5
DEEF
330
0
100
AcDbSymbolTable
 70
     8
  0
LAYER
  5
DEFD
102
{ACAD_XDICTIONARY
360
E215
102
}
330
DEEF
100
AcDbSymbolTableRecord
100
AcDbLayerTableRecord
  2
0
 70
     0
 62
     7
  6
CONTINUOUS
370
    -3
390
E1C3
  0
LAYER
  5
DF13
102
{ACAD_XDICTIONARY
360
E217
102
}
330
DEEF
100
AcDbSymbolTableRecord
100
AcDbLayerTableRecord
  2
4
 70
     0
 62
     1
  6
CENTER
370
    -3
390
E1C3
  0
LAYER
  5
DF14
102
{ACAD_XDICTIONARY
360
E219
102
}
330
DEEF
100
AcDbSymbolTableRecord
100
AcDbLayerTableRecord
  2
5
 70
     0
 62
     6
  6
PHANTOM
370
    -3
390
E1C3
  0
LAYER
  5
DF15
102
{ACAD_XDICTIONARY
360
E21B
102
}
330
DEEF
100
AcDbSymbolTableRecord
100
AcDbLayerTableRecord
  2
1
 70
     0
 62
     7
  6
CONTINUOUS
370
    -3
390
E1C3
  0
LAYER
  5
DF16
102
{ACAD_XDICTIONARY
360
E21D
102
}
330
DEEF
100
AcDbSymbolTableRecord
100
AcDbLayerTableRecord
  2
2
 70
     0
 62
     4
  6
CONTINUOUS
370
    -3
390
E1C3
  0
LAYER
  5
DF17
102
{ACAD_XDICTIONARY
360
E21F
102
}
330
DEEF
100
AcDbSymbolTableRecord
100
AcDbLayerTableRecord
  2
3
 70
     0
 62
     2
  6
DASHED
370
    -3
390
E1C3
  0
LAYER
  5
DF18
102
{ACAD_XDICTIONARY
360
E221
102
}
330
DEEF
100
AcDbSymbolTableRecord
100
AcDbLayerTableRecord
  2
6
 70
     0
 62
     5
  6
CONTINUOUS
370
    -3
390
E1C3
  0
LAYER
  5
DF19
102
{ACAD_XDICTIONARY
360
E223
102
}
330
DEEF
100
AcDbSymbolTableRecord
100
AcDbLayerTableRecord
  2
7
 70
     0
 62
     3
  6
CONTINUOUS
370
    -3
390
E1C3
  0
ENDTAB
  0
TABLE
  2
STYLE
  5
DEF0
330
0
100
AcDbSymbolTable
 70
     1
  0
STYLE
  5
DEFE
330
DEF0
100
AcDbSymbolTableRecord
100
AcDbTextStyleTableRecord
  2
STANDARD
 70
     0
 40
0.0
 41
1.0
 50
0.0
 71
     0
 42
5.0
  3
txt
  4

  0
ENDTAB
  0
TABLE
  2
VIEW
  5
DEF3
330
0
100
AcDbSymbolTable
 70
     0
  0
ENDTAB
  0
TABLE
  2
UCS
  5
DEF4
330
0
100
AcDbSymbolTable
 70
     0
  0
ENDTAB
  0
TABLE
  2
APPID
  5
DEF6
330
0
100
AcDbSymbolTable
 70
     3
  0
APPID
  5
DEFF
330
DEF6
100
AcDbSymbolTableRecord
100
AcDbRegAppTableRecord
  2
ACAD
 70
     0
  0
APPID
  5
E22F
330
DEF6
100
AcDbSymbolTableRecord
100
AcDbRegAppTableRecord
  2
ACAD_NAV_VCDISPLAY
 70
     0
  0
APPID
  5
E268
330
DEF6
100
AcDbSymbolTableRecord
100
AcDbRegAppTableRecord
  2
ACAD_MLEADERVER
 70
     0
  0
ENDTAB
  0
TABLE
  2
DIMSTYLE
  5
DEF7
330
0
100
AcDbSymbolTable
 70
     1
100
AcDbDimStyleTable
 71
     0
  0
DIMSTYLE
105
DF1B
330
DEF7
100
AcDbSymbolTableRecord
100
AcDbDimStyleTableRecord
  2
STANDARD
 70
     0
 41
2.5
 42
1.0
 43
10.0
 44
1.0
 73
     0
 74
     0
 77
     3
 78
     8
140
2.5
141
0.0
147
1.0
172
     1
173
     1
284
     8
285
     8
286
     8
340
DEFE
  0
ENDTAB
  0
TABLE
  2
BLOCK_RECORD
  5
DEEE
330
0
100
AcDbSymbolTable
 70
     1
  0
BLOCK_RECORD
  5
DF0B
102
{ACAD_XDICTIONARY
360
E1BD
102
}
330
DEEE
100
AcDbSymbolTableRecord
100
AcDbBlockTableRecord
  2
*MODEL_SPACE
340
E211
  0
BLOCK_RECORD
  5
DF07
102
{ACAD_XDICTIONARY
360
E1BB
102
}
330
DEEE
100
AcDbSymbolTableRecord
100
AcDbBlockTableRecord
  2
*PAPER_SPACE
340
E212
  0
BLOCK_RECORD
  5
DF23
330
DEEE
100
AcDbSymbolTableRecord
100
AcDbBlockTableRecord
  2
_OPEN
340
0
  0
ENDTAB
  0
ENDSEC
  0
SECTION
  2
BLOCKS
  0
BLOCK
  5
DF0C
330
DF0B
100
AcDbEntity
  8
0
100
AcDbBlockBegin
  2
*MODEL_SPACE
 70
     0
 10
0.0
 20
0.0
 30
0.0
  3
*MODEL_SPACE
  1

  0
ENDBLK
  5
DF0D
330
DF0B
100
AcDbEntity
  8
0
100
AcDbBlockEnd
  0
BLOCK
  5
DF08
330
DF07
100
AcDbEntity
 67
     1
  8
0
100
AcDbBlockBegin
  2
*PAPER_SPACE
 70
     0
 10
0.0
 20
0.0
 30
0.0
  3
*PAPER_SPACE
  1

  0
ENDBLK
  5
DF09
330
DF07
100
AcDbEntity
 67
     1
  8
0
100
AcDbBlockEnd
  0
BLOCK
  5
DF24
330
DF23
100
AcDbEntity
  8
0
100
AcDbBlockBegin
  2
_OPEN
 70
     0
 10
0.0
 20
0.0
 30
0.0
  3
_OPEN
  1

  0
LINE
  5
DF25
330
DF23
100
AcDbEntity
  8
0
  6
ByBlock
 62
     0
100
AcDbLine
 10
-1.0
 20
0.166667
 30
0.0
 11
0.0
 21
0.0
 31
0.0
  0
LINE
  5
DF26
330
DF23
100
AcDbEntity
  8
0
  6
ByBlock
 62
     0
100
AcDbLine
 10
0.0
 20
0.0
 30
0.0
 11
-1.0
 21
-0.166667
 31
0.0
  0
LINE
  5
DF27
330
DF23
100
AcDbEntity
  8
0
  6
ByBlock
 62
     0
100
AcDbLine
 10
0.0
 20
0.0
 30
0.0
 11
-1.0
 21
0.0
 31
0.0
  0
ENDBLK
  5
DF28
330
DF23
100
AcDbEntity
  8
0
100
AcDbBlockEnd
  0
ENDSEC
  0
SECTION
  2
ENTITIES
  0
TEXT
  5
DF29
330
DF0B
100
AcDbEntity
  8
7
  6
Continuous
100
AcDbText
 10
10.0
 20
18.0
 30
0.0
 40
3.0
  1
TYPE No.THA-429-1-F
100
AcDbText
  0
TEXT
  5
DF2A
330
DF0B
100
AcDbEntity
  8
7
  6
Continuous
100
AcDbText
 10
10.0
 20
26.0
 30
0.0
 40
3.0
  1
CODE No.13105
100
AcDbText
  0
TEXT
  5
DF2B
330
DF0B
100
AcDbEntity
  8
1
  6
Continuous
100
AcDbText
 10
10.0
 20
10.0
 30
0.0
 40
1.399999999999999
  1
LAYER
100
AcDbText
  0
TEXT
  5
DF2C
330
DF0B
100
AcDbEntity
  8
1
  6
Continuous
100
AcDbText
 10
17.97951099999998
 20
10.04873699999998
 30
0.0
 40
1.399999999999999
  1
1
100
AcDbText
  0
TEXT
  5
DF2D
330
DF0B
100
AcDbEntity
  8
7
  6
Continuous
100
AcDbText
 10
29.97951099999999
 20
10.04873699999998
 30
0.0
 40
1.399999999999999
  1
7
100
AcDbText
  0
TEXT
  5
DF2E
330
DF0B
100
AcDbEntity
  8
4
  6
CENTER
100
AcDbText
 10
23.97951099999999
 20
10.04873699999998
 30
0.0
 40
1.399999999999999
  1
4
100
AcDbText
  0
TEXT
  5
DF2F
330
DF0B
100
AcDbEntity
  8
3
  6
DASHED
100
AcDbText
 10
21.979511
 20
10.04873699999998
 30
0.0
 40
1.399999999999999
  1
3
100
AcDbText
  0
TEXT
  5
DF30
330
DF0B
100
AcDbEntity
  8
2
  6
Continuous
100
AcDbText
 10
19.97951099999999
 20
10.04873699999998
 30
0.0
 40
1.399999999999999
  1
2
100
AcDbText
  0
TEXT
  5
DF31
330
DF0B
100
AcDbEntity
  8
6
  6
Continuous
100
AcDbText
 10
27.979511
 20
10.04873699999998
 30
0.0
 40
1.399999999999999
  1
6
100
AcDbText
  0
TEXT
  5
DF32
330
DF0B
100
AcDbEntity
  8
5
  6
PHANTOM
100
AcDbText
 10
25.97951099999999
 20
10.04873699999998
 30
0.0
 40
1.399999999999999
  1
5
100
AcDbText
  0
LINE
  5
DF33
330
DF0B
100
AcDbEntity
  8
1
  6
Continuous
100
AcDbLine
 10
226.3313649999997
 20
53.112926
 30
0.0
 11
226.3313649999997
 21
52.808535
 31
0.0
  0
LINE
  5
DF34
330
DF0B
100
AcDbEntity
  8
1
  6
Continuous
100
AcDbLine
 10
226.3313649999997
 20
56.022429
 30
0.0
 11
226.3313649999997
 21
55.122907
 31
0.0
  0
LINE
  5
DF35
330
DF0B
100
AcDbEntity
  8
1
  6
Continuous
100
AcDbLine
 10
222.3313649999997
 20
53.51303000000001
 30
0.0
 11
222.3313649999997
 21
52.808535
 31
0.0
  0
LINE
  5
DF36
330
DF0B
100
AcDbEntity
  8
1
  6
Continuous
100
AcDbLine
 10
222.4152389999999
 20
56.022429
 30
0.0
 11
222.4152389999999
 21
55.514621
 31
0.0
  0
ARC
  5
DF37
330
DF0B
100
AcDbEntity
  8
1
  6
Continuous
100
AcDbCircle
 10
224.3313649999997
 20
57.408535
 30
0.0
 40
9.0
100
AcDbArc
 50
254.11915
 51
285.88085
  0
LINE
  5
DF38
330
DF0B
100
AcDbEntity
  8
1
  6
Continuous
100
AcDbLine
 10
220.831365
 20
51.00853499999999
 30
0.0
 11
220.9293009999999
 21
49.88912
 31
0.0
  0
LINE
  5
DF39
330
DF0B
100
AcDbEntity
  8
1
  6
Continuous
100
AcDbLine
 10
227.8313649999998
 20
51.00853499999999
 30
0.0
 11
227.733429
 21
49.88912
 31
0.0
  0
ARC
  5
DF3A
330
DF0B
100
AcDbEntity
  8
1
  6
Continuous
100
AcDbCircle
 10
226.4383759999998
 20
50.002423
 30
0.0
 40
1.3
100
AcDbArc
 50
285.88085
 51
355.0
  0
ARC
  5
DF3B
330
DF0B
100
AcDbEntity
  8
1
  6
Continuous
100
AcDbCircle
 10
222.224354
 20
50.002423
 30
0.0
 40
1.3
100
AcDbArc
 50
185.0
 51
254.11915
  0
LINE
  5
DF3C
330
DF0B
100
AcDbEntity
  8
1
  6
Continuous
100
AcDbLine
 10
229.3313649999999
 20
52.008535
 30
0.0
 11
219.3313649999999
 21
52.008535
 31
0.0
  0
LINE
  5
DF3D
330
DF0B
100
AcDbEntity
  8
1
  6
Continuous
100
AcDbLine
 10
228.1313649999999
 20
51.00853499999999
 30
0.0
 11
220.5313649999999
 21
51.00853499999999
 31
0.0
  0
LINE
  5
DF3E
330
DF0B
100
AcDbEntity
  8
1
  6
Continuous
100
AcDbLine
 10
228.1313649999999
 20
51.00853499999999
 30
0.0
 11
228.1313649999999
 21
52.008535
 31
0.0
  0
LINE
  5
DF3F
330
DF0B
100
AcDbEntity
  8
1
  6
Continuous
100
AcDbLine
 10
220.5313649999999
 20
51.00853499999999
 30
0.0
 11
220.5313649999999
 21
52.008535
 31
0.0
  0
LINE
  5
DF40
330
DF0B
100
AcDbEntity
  8
1
  6
Continuous
100
AcDbLine
 10
219.3313649999999
 20
52.008535
 30
0.0
 11
219.3313649999999
 21
52.808535
 31
0.0
  0
LINE
  5
DF41
330
DF0B
100
AcDbEntity
  8
1
  6
Continuous
100
AcDbLine
 10
229.3313649999999
 20
52.008535
 30
0.0
 11
229.3313649999999
 21
52.808535
 31
0.0
  0
LINE
  5
DF42
330
DF0B
100
AcDbEntity
  8
1
  6
Continuous
100
AcDbLine
 10
229.3313649999999
 20
52.808535
 30
0.0
 11
219.3313649999999
 21
52.808535
 31
0.0
  0
LINE
  5
DF43
330
DF0B
100
AcDbEntity
  8
1
  6
Continuous
100
AcDbLine
 10
221.8313649999998
 20
53.56304300000001
 30
0.0
 11
221.8313649999998
 21
52.808535
 31
0.0
  0
LINE
  5
DF44
330
DF0B
100
AcDbEntity
  8
1
  6
Continuous
100
AcDbLine
 10
221.8313649999998
 20
56.022429
 30
0.0
 11
221.8313649999998
 21
55.57302299999999
 31
0.0
  0
LINE
  5
DF45
330
DF0B
100
AcDbEntity
  8
1
  6
Continuous
100
AcDbLine
 10
59.522429
 20
163.114211
 30
0.0
 11
59.522429
 21
265.114211
 31
0.0
  0
LINE
  5
DF46
330
DF0B
100
AcDbEntity
  8
1
  6
Continuous
100
AcDbLine
 10
240.869453
 20
176.114211
 30
0.0
 11
240.869453
 21
252.1142109999999
 31
0.0
  0
LINE
  5
DF47
330
DF0B
100
AcDbEntity
  8
1
  6
Continuous
100
AcDbLine
 10
233.255669
 20
174.114211
 30
0.0
 11
238.8694529999999
 21
174.114211
 31
0.0
  0
LINE
  5
DF48
330
DF0B
100
AcDbEntity
  8
1
  6
Continuous
100
AcDbLine
 10
233.255669
 20
254.114211
 30
0.0
 11
238.8694529999999
 21
254.114211
 31
0.0
  0
ARC
  5
DF49
330
DF0B
100
AcDbEntity
  8
1
  6
Continuous
100
AcDbCircle
 10
238.8694529999999
 20
176.114211
 30
0.0
 40
2.0
100
AcDbArc
 50
270.0
 51
0.0
  0
ARC
  5
DF4A
330
DF0B
100
AcDbEntity
  8
1
  6
Continuous
100
AcDbCircle
 10
238.8694529999999
 20
252.1142109999999
 30
0.0
 40
2.0
100
AcDbArc
 50
0.0
 51
90.0
  0
LINE
  5
DF4B
330
DF0B
100
AcDbEntity
  8
1
  6
Continuous
100
AcDbLine
 10
151.8313649999998
 20
75.522429
 30
0.0
 11
234.8313649999997
 21
75.522429
 31
0.0
  0
ARC
  5
DF4C
330
DF0B
100
AcDbEntity
  8
1
  6
Continuous
100
AcDbCircle
 10
-273.6686349999998
 20
214.114211
 30
0.0
 40
475.4999999999998
100
AcDbArc
 50
355.2045969999999
 51
4.795403
  0
ARC
  5
DF4D
330
DF0B
100
AcDbEntity
  8
1
  6
Continuous
100
AcDbCircle
 10
197.177412
 20
253.6142109999999
 30
0.0
 40
3.0
100
AcDbArc
 50
4.795403
 51
90.0
  0
ARC
  5
DF4E
330
DF0B
100
AcDbEntity
  8
1
  6
Continuous
100
AcDbCircle
 10
197.177412
 20
174.614211
 30
0.0
 40
3.0
100
AcDbArc
 50
270.0
 51
355.2045969999999
  0
LINE
  5
DF4F
330
DF0B
100
AcDbEntity
  8
4
  6
CENTER
100
AcDbLine
 10
141.0224289999999
 20
214.114211
 30
0.0
 11
245.8694529999999
 21
214.114211
 31
0.0
  0
LINE
  5
DF50
330
DF0B
100
AcDbEntity
  8
1
  6
Continuous
100
AcDbLine
 10
161.3313649999998
 20
172.614211
 30
0.0
 11
161.3313649999998
 21
255.6142109999999
 31
0.0
  0
LINE
  5
DF51
330
DF0B
100
AcDbEntity
  8
1
  6
Continuous
100
AcDbLine
 10
162.3313649999998
 20
256.614211
 30
0.0
 11
197.177412
 21
256.614211
 31
0.0
  0
LINE
  5
DF52
330
DF0B
100
AcDbEntity
  8
1
  6
Continuous
100
AcDbLine
 10
162.3313649999998
 20
171.614211
 30
0.0
 11
197.177412
 21
171.614211
 31
0.0
  0
LINE
  5
DF53
330
DF0B
100
AcDbEntity
  8
1
  6
Continuous
100
AcDbLine
 10
163.9014449999999
 20
172.842067
 30
0.0
 11
163.9014449999999
 21
191.082639
 31
0.0
  0
LINE
  5
DF54
330
DF0B
100
AcDbEntity
  8
1
  6
Continuous
100
AcDbLine
 10
163.9014449999999
 20
195.047981
 30
0.0
 11
163.9014449999999
 21
211.5891169999999
 31
0.0
  0
LINE
  5
DF55
330
DF0B
100
AcDbEntity
  8
1
  6
Continuous
100
AcDbLine
 10
163.9014449999999
 20
216.8007069999999
 30
0.0
 11
163.9014449999999
 21
237.5337759999999
 31
0.0
  0
LINE
  5
DF56
330
DF0B
100
AcDbEntity
  8
1
  6
Continuous
100
AcDbLine
 10
163.9014449999999
 20
241.61242
 30
0.0
 11
163.9014449999999
 21
255.094573
 31
0.0
  0
ARC
  5
DF57
330
DF0B
100
AcDbEntity
  8
1
  6
Continuous
100
AcDbCircle
 10
162.3313649999998
 20
255.6142109999999
 30
0.0
 40
1.0
100
AcDbArc
 50
90.0
 51
180.0
  0
ARC
  5
DF58
330
DF0B
100
AcDbEntity
  8
1
  6
Continuous
100
AcDbCircle
 10
162.3313649999998
 20
172.614211
 30
0.0
 40
1.0
100
AcDbArc
 50
180.0
 51
270.0
  0
LINE
  5
DF59
330
DF0B
100
AcDbEntity
  8
4
  6
CENTER
100
AcDbLine
 10
172.8313649999997
 20
269.6979499999998
 30
0.0
 11
172.8313649999997
 21
158.530472
 31
0.0
  0
ARC
  5
DF5A
330
DF0B
100
AcDbEntity
  8
1
  6
Continuous
100
AcDbCircle
 10
193.3313649999998
 20
663.1142109999998
 30
0.0
 40
500.0
100
AcDbArc
 50
266.101988
 51
273.8980119999999
  0
ARC
  5
DF5B
330
DF0B
100
AcDbEntity
  8
1
  6
Continuous
100
AcDbCircle
 10
226.913822
 20
170.257012
 30
0.0
 40
6.0
100
AcDbArc
 50
273.8980119999999
 51
354.992968
  0
ARC
  5
DF5C
330
DF0B
100
AcDbEntity
  8
1
  6
Continuous
100
AcDbCircle
 10
-273.6686349999998
 20
214.114211
 30
0.0
 40
508.4999999999998
100
AcDbArc
 50
354.992968
 51
5.007031999999997
  0
ARC
  5
DF5D
330
DF0B
100
AcDbEntity
  8
1
  6
Continuous
100
AcDbCircle
 10
226.913822
 20
257.9714099999999
 30
0.0
 40
6.0
100
AcDbArc
 50
5.007031999999997
 51
86.101988
  0
ARC
  5
DF5E
330
DF0B
100
AcDbEntity
  8
1
  6
Continuous
100
AcDbCircle
 10
193.3313649999998
 20
-234.885789
 30
0.0
 40
500.0
100
AcDbArc
 50
86.101988
 51
93.89801199999999
  0
ARC
  5
DF5F
330
DF0B
100
AcDbEntity
  8
1
  6
Continuous
100
AcDbCircle
 10
159.748908
 20
257.9714099999999
 30
0.0
 40
6.0
100
AcDbArc
 50
93.89801199999999
 51
174.9929679999999
  0
ARC
  5
DF60
330
DF0B
100
AcDbEntity
  8
1
  6
Continuous
100
AcDbCircle
 10
660.331365
 20
214.114211
 30
0.0
 40
508.4999999999998
100
AcDbArc
 50
174.9929679999999
 51
185.007032
  0
ARC
  5
DF61
330
DF0B
100
AcDbEntity
  8
1
  6
Continuous
100
AcDbCircle
 10
159.748908
 20
170.257012
 30
0.0
 40
6.0
100
AcDbArc
 50
185.007032
 51
266.101988
  0
LINE
  5
DF62
330
DF0B
100
AcDbEntity
  8
1
  6
Continuous
100
AcDbLine
 10
161.3313649999998
 20
171.114211
 30
0.0
 11
221.7190919999999
 21
171.114211
 31
0.0
  0
ARC
  5
DF63
330
DF0B
100
AcDbEntity
  8
1
  6
Continuous
100
AcDbCircle
 10
221.7190919999999
 20
174.114211
 30
0.0
 40
3.0
100
AcDbArc
 50
270.0
 51
355.3836769999999
  0
ARC
  5
DF64
330
DF0B
100
AcDbEntity
  8
1
  6
Continuous
100
AcDbCircle
 10
-273.6686349999998
 20
214.114211
 30
0.0
 40
500.0
100
AcDbArc
 50
355.3836769999999
 51
4.616323
  0
ARC
  5
DF65
330
DF0B
100
AcDbEntity
  8
1
  6
Continuous
100
AcDbCircle
 10
221.7190919999999
 20
254.114211
 30
0.0
 40
3.0
100
AcDbArc
 50
4.616323
 51
90.0
  0
LINE
  5
DF66
330
DF0B
100
AcDbEntity
  8
1
  6
Continuous
100
AcDbLine
 10
161.3313649999998
 20
257.114211
 30
0.0
 11
221.7190919999999
 21
257.114211
 31
0.0
  0
ARC
  5
DF67
330
DF0B
100
AcDbEntity
  8
1
  6
Continuous
100
AcDbCircle
 10
161.3313649999998
 20
256.614211
 30
0.0
 40
0.5
100
AcDbArc
 50
90.0
 51
180.0
  0
LINE
  5
DF68
330
DF0B
100
AcDbEntity
  8
1
  6
Continuous
100
AcDbLine
 10
160.8313649999998
 20
171.614211
 30
0.0
 11
160.8313649999998
 21
256.614211
 31
0.0
  0
ARC
  5
DF69
330
DF0B
100
AcDbEntity
  8
1
  6
Continuous
100
AcDbCircle
 10
161.3313649999998
 20
171.614211
 30
0.0
 40
0.5
100
AcDbArc
 50
180.0
 51
270.0
  0
LINE
  5
DF6A
330
DF0B
100
AcDbEntity
  8
1
  6
Continuous
100
AcDbLine
 10
178.8313649999999
 20
171.114211
 30
0.0
 11
178.8313649999999
 21
171.614211
 31
0.0
  0
LINE
  5
DF6B
330
DF0B
100
AcDbEntity
  8
1
  6
Continuous
100
AcDbLine
 10
178.8313649999999
 20
256.614211
 30
0.0
 11
178.8313649999999
 21
257.114211
 31
0.0
  0
LINE
  5
DF6C
330
DF0B
100
AcDbEntity
  8
1
  6
Continuous
100
AcDbLine
 10
166.8313649999998
 20
171.114211
 30
0.0
 11
166.8313649999998
 21
171.614211
 31
0.0
  0
LINE
  5
DF6D
330
DF0B
100
AcDbEntity
  8
1
  6
Continuous
100
AcDbLine
 10
166.8313649999998
 20
256.614211
 30
0.0
 11
166.8313649999998
 21
257.114211
 31
0.0
  0
LINE
  5
DF6E
330
DF0B
100
AcDbEntity
  8
1
  6
Continuous
100
AcDbLine
 10
192.8313649999998
 20
171.114211
 30
0.0
 11
192.8313649999998
 21
171.614211
 31
0.0
  0
LINE
  5
DF6F
330
DF0B
100
AcDbEntity
  8
1
  6
Continuous
100
AcDbLine
 10
192.8313649999998
 20
257.114211
 30
0.0
 11
192.8313649999998
 21
256.614211
 31
0.0
  0
LINE
  5
DF70
330
DF0B
100
AcDbEntity
  8
1
  6
Continuous
100
AcDbLine
 10
158.8313649999998
 20
48.522429
 30
0.0
 11
219.3313649999999
 21
48.522429
 31
0.0
  0
LINE
  5
DF71
330
DF0B
100
AcDbEntity
  8
1
  6
Continuous
100
AcDbLine
 10
158.8313649999998
 20
50.52242899999999
 30
0.0
 11
219.3313649999999
 21
50.52242899999999
 31
0.0
  0
LINE
  5
DF72
330
DF0B
100
AcDbEntity
  8
1
  6
Continuous
100
AcDbLine
 10
219.3313649999999
 20
50.52242899999999
 30
0.0
 11
219.3313649999999
 21
48.522429
 31
0.0
  0
LINE
  5
DF73
330
DF0B
100
AcDbEntity
  8
1
  6
Continuous
100
AcDbLine
 10
195.734614
 20
53.022429
 30
0.0
 11
195.8313649999998
 21
53.022429
 31
0.0
  0
LINE
  5
DF74
330
DF0B
100
AcDbEntity
  8
1
  6
Continuous
100
AcDbLine
 10
183.8313649999999
 20
58.022429
 30
0.0
 11
194.423581
 21
58.022429
 31
0.0
  0
LINE
  5
DF75
330
DF0B
100
AcDbEntity
  8
1
  6
Continuous
100
AcDbLine
 10
158.8313649999998
 20
75.522429
 30
0.0
 11
158.8313649999998
 21
48.522429
 31
0.0
  0
LINE
  5
DF76
330
DF0B
100
AcDbEntity
  8
1
  6
Continuous
100
AcDbLine
 10
151.8313649999998
 20
79.59144000000001
 30
0.0
 11
151.8313649999998
 21
75.522429
 31
0.0
  0
LINE
  5
DF77
330
DF0B
100
AcDbEntity
  8
1
  6
Continuous
100
AcDbLine
 10
151.8313649999998
 20
77.522429
 30
0.0
 11
234.8313649999997
 21
77.522429
 31
0.0
  0
ARC
  5
DF78
330
DF0B
100
AcDbEntity
  8
1
  6
Continuous
100
AcDbCircle
 10
152.8313649999998
 20
79.59144000000001
 30
0.0
 40
1.0
100
AcDbArc
 50
94.04718499999999
 51
180.0
  0
ARC
  5
DF79
330
DF0B
100
AcDbEntity
  8
1
  6
Continuous
100
AcDbCircle
 10
193.3313649999998
 20
-492.8109039999998
 30
0.0
 40
574.833333
100
AcDbArc
 50
85.95281500000002
 51
94.04718499999999
  0
LINE
  5
DF7A
330
DF0B
100
AcDbEntity
  8
4
  6
CENTER
100
AcDbLine
 10
172.8313649999997
 20
79.522429
 30
0.0
 11
172.8313649999997
 21
68.522429
 31
0.0
  0
LINE
  5
DF7B
330
DF0B
100
AcDbEntity
  8
4
  6
CENTER
100
AcDbLine
 10
178.3313649999998
 20
74.022429
 30
0.0
 11
167.3313649999998
 21
74.022429
 31
0.0
  0
ARC
  5
DF7C
330
DF0B
100
AcDbEntity
  8
1
  6
Continuous
100
AcDbCircle
 10
211.3313649999998
 20
77.72242900000001
 30
0.0
 40
17.0
100
AcDbArc
 50
270.0
 51
352.5643979999999
  0
LINE
  5
DF7D
330
DF0B
100
AcDbEntity
  8
1
  6
Continuous
100
AcDbLine
 10
234.8313649999997
 20
79.59144000000001
 30
0.0
 11
234.8313649999997
 21
75.522429
 31
0.0
  0
ARC
  5
DF7E
330
DF0B
100
AcDbEntity
  8
1
  6
Continuous
100
AcDbCircle
 10
233.8313649999999
 20
79.59144000000001
 30
0.0
 40
1.0
100
AcDbArc
 50
0.0
 51
85.95281500000002
  0
LINE
  5
DF7F
330
DF0B
100
AcDbEntity
  8
1
  6
Continuous
100
AcDbLine
 10
158.8313649999998
 20
60.72242899999999
 30
0.0
 11
211.3313649999998
 21
60.72242899999999
 31
0.0
  0
LINE
  5
DF80
330
DF0B
100
AcDbEntity
  8
1
  6
Continuous
100
AcDbLine
 10
213.3313649999998
 20
56.022429
 30
0.0
 11
226.3313649999997
 21
56.022429
 31
0.0
  0
LINE
  5
DF81
330
DF0B
100
AcDbEntity
  8
1
  6
Continuous
100
AcDbLine
 10
218.3313649999998
 20
62.23049599999999
 30
0.0
 11
218.3313649999998
 21
50.52242899999999
 31
0.0
  0
LINE
  5
DF82
330
DF0B
100
AcDbEntity
  8
1
  6
Continuous
100
AcDbLine
 10
208.432385
 20
54.72242900000001
 30
0.0
 11
208.432385
 21
60.72242899999999
 31
0.0
  0
LINE
  5
DF83
330
DF0B
100
AcDbEntity
  8
1
  6
Continuous
100
AcDbLine
 10
205.730344
 20
54.72242900000001
 30
0.0
 11
208.432385
 21
54.72242900000001
 31
0.0
  0
LINE
  5
DF84
330
DF0B
100
AcDbEntity
  8
1
  6
Continuous
100
AcDbLine
 10
205.730344
 20
54.72242900000001
 30
0.0
 11
205.730344
 21
60.72242899999999
 31
0.0
  0
LINE
  5
DF85
330
DF0B
100
AcDbEntity
  8
1
  6
Continuous
100
AcDbLine
 10
205.8313649999997
 20
54.72242900000001
 30
0.0
 11
205.8313649999997
 21
53.022429
 31
0.0
  0
LINE
  5
DF86
330
DF0B
100
AcDbEntity
  8
1
  6
Continuous
100
AcDbLine
 10
183.8313649999999
 20
53.022429
 30
0.0
 11
205.8313649999997
 21
53.022429
 31
0.0
  0
LINE
  5
DF87
330
DF0B
100
AcDbEntity
  8
1
  6
Continuous
100
AcDbLine
 10
203.8313649999998
 20
53.022429
 30
0.0
 11
203.8313649999998
 21
50.52242899999999
 31
0.0
  0
LINE
  5
DF88
330
DF0B
100
AcDbEntity
  8
1
  6
Continuous
100
AcDbLine
 10
197.8313649999997
 20
53.022429
 30
0.0
 11
197.8313649999997
 21
50.52242899999999
 31
0.0
  0
LINE
  5
DF89
330
DF0B
100
AcDbEntity
  8
1
  6
Continuous
100
AcDbLine
 10
195.8313649999998
 20
57.275992
 30
0.0
 11
195.8313649999998
 21
53.022429
 31
0.0
  0
LINE
  5
DF8A
330
DF0B
100
AcDbEntity
  8
1
  6
Continuous
100
AcDbLine
 10
195.932385
 20
57.22242900000001
 30
0.0
 11
195.932385
 21
60.72242899999999
 31
0.0
  0
LINE
  5
DF8B
330
DF0B
100
AcDbEntity
  8
1
  6
Continuous
100
AcDbLine
 10
183.8313649999999
 20
58.522429
 30
0.0
 11
193.4805779999997
 21
58.522429
 31
0.0
  0
LINE
  5
DF8C
330
DF0B
100
AcDbEntity
  8
4
  6
CENTER
100
AcDbLine
 10
200.8313649999998
 20
54.652494
 30
0.0
 11
200.8313649999998
 21
45.862328
 31
0.0
  0
LINE
  5
DF8D
330
DF0B
100
AcDbEntity
  8
1
  6
Continuous
100
AcDbLine
 10
199.431365
 20
48.522429
 30
0.0
 11
202.231365
 21
48.522429
 31
0.0
  0
LINE
  5
DF8E
330
DF0B
100
AcDbEntity
  8
1
  6
Continuous
100
AcDbLine
 10
207.8313649999997
 20
54.72242900000001
 30
0.0
 11
207.8313649999997
 21
50.52242899999999
 31
0.0
  0
ARC
  5
DF8F
330
DF0B
100
AcDbEntity
  8
1
  6
Continuous
100
AcDbCircle
 10
172.8313649999997
 20
74.022429
 30
0.0
 40
2.5
100
AcDbArc
 50
143.130102
 51
36.869898
  0
LINE
  5
DF90
330
DF0B
100
AcDbEntity
  8
1
  6
Continuous
100
AcDbLine
 10
219.3313649999999
 20
50.52242899999999
 30
0.0
 11
220.8738939999999
 21
50.52242899999999
 31
0.0
  0
LINE
  5
DF91
330
DF0B
100
AcDbEntity
  8
1
  6
Continuous
100
AcDbLine
 10
160.3313649999997
 20
60.72242899999999
 30
0.0
 11
160.3313649999997
 21
50.52242899999999
 31
0.0
  0
LINE
  5
DF92
330
DF0B
100
AcDbEntity
  8
1
  6
Continuous
100
AcDbLine
 10
170.3313649999998
 20
60.72242899999999
 30
0.0
 11
170.3313649999998
 21
50.52242899999999
 31
0.0
  0
LINE
  5
DF93
330
DF0B
100
AcDbEntity
  8
1
  6
Continuous
100
AcDbLine
 10
208.331365
 20
54.72242900000001
 30
0.0
 11
208.331365
 21
50.52242899999999
 31
0.0
  0
LINE
  5
DF94
330
DF0B
100
AcDbEntity
  8
1
  6
Continuous
100
AcDbLine
 10
189.3313649999998
 20
60.72242899999999
 30
0.0
 11
195.932385
 21
57.22242900000001
 31
0.0
  0
LINE
  5
DF95
330
DF0B
100
AcDbEntity
  8
1
  6
Continuous
100
AcDbLine
 10
221.8313649999998
 20
53.56304300000001
 30
0.0
 11
221.8313649999998
 21
52.808535
 31
0.0
  0
LINE
  5
DF96
330
DF0B
100
AcDbEntity
  8
1
  6
Continuous
100
AcDbLine
 10
221.8313649999998
 20
56.022429
 30
0.0
 11
221.8313649999998
 21
55.57302299999999
 31
0.0
  0
LINE
  5
DF97
330
DF0B
100
AcDbEntity
  8
1
  6
Continuous
100
AcDbLine
 10
218.3313649999998
 20
53.913134
 30
0.0
 11
229.2767459999998
 21
52.818312
 31
0.0
  0
LINE
  5
DF98
330
DF0B
100
AcDbEntity
  8
1
  6
Continuous
100
AcDbLine
 10
218.5304229999999
 20
55.90320300000001
 30
0.0
 11
218.3313649999998
 21
53.913134
 31
0.0
  0
LINE
  5
DF99
330
DF0B
100
AcDbEntity
  8
1
  6
Continuous
100
AcDbLine
 10
218.5304229999999
 20
55.90320300000001
 30
0.0
 11
229.475804
 21
54.80838099999999
 31
0.0
  0
ARC
  5
DF9A
330
DF0B
100
AcDbEntity
  8
1
  6
Continuous
100
AcDbCircle
 10
229.475804
 20
54.80838099999999
 30
0.0
 40
2.0
100
AcDbArc
 50
264.287937
 51
354.287937
  0
LINE
  5
DF9B
330
DF0B
100
AcDbEntity
  8
1
  6
Continuous
100
AcDbLine
 10
229.475804
 20
54.80838099999999
 30
0.0
 11
231.217566
 21
72.22148699999998
 31
0.0
  0
LINE
  5
DF9C
330
DF0B
100
AcDbEntity
  8
1
  6
Continuous
100
AcDbLine
 10
231.465874
 20
54.60932299999999
 30
0.0
 11
233.207635
 21
72.022429
 31
0.0
  0
ARC
  5
DF9D
330
DF0B
100
AcDbEntity
  8
1
  6
Continuous
100
AcDbCircle
 10
233.207635
 20
72.022429
 30
0.0
 40
2.0
100
AcDbArc
 50
84.28793699999998
 51
174.2879369999999
  0
LINE
  5
DF9E
330
DF0B
100
AcDbEntity
  8
1
  6
Continuous
100
AcDbLine
 10
233.406694
 20
74.01249799999998
 30
0.0
 11
240.869453
 21
73.26602900000001
 31
0.0
  0
LINE
  5
DF9F
330
DF0B
100
AcDbEntity
  8
1
  6
Continuous
100
AcDbLine
 10
240.869453
 20
73.26602900000001
 30
0.0
 11
240.670395
 21
71.27596
 31
0.0
  0
LINE
  5
DFA0
330
DF0B
100
AcDbEntity
  8
1
  6
Continuous
100
AcDbLine
 10
233.207635
 20
72.022429
 30
0.0
 11
240.670395
 21
71.27596
 31
0.0
  0
LINE
  5
DFA1
330
DF0B
100
AcDbEntity
  8
4
  6
CENTER
100
AcDbLine
 10
24.340847
 20
214.114211
 30
0.0
 11
71.022429
 21
214.114211
 31
0.0
  0
LINE
  5
DFA2
330
DF0B
100
AcDbEntity
  8
1
  6
Continuous
100
AcDbLine
 10
66.022429
 20
164.114211
 30
0.0
 11
66.022429
 21
264.114211
 31
0.0
  0
LINE
  5
DFA3
330
DF0B
100
AcDbEntity
  8
1
  6
Continuous
100
AcDbLine
 10
61.522429
 20
163.114211
 30
0.0
 11
61.522429
 21
265.114211
 31
0.0
  0
LINE
  5
DFA4
330
DF0B
100
AcDbEntity
  8
1
  6
Continuous
100
AcDbLine
 10
65.022429
 20
265.114211
 30
0.0
 11
59.522429
 21
265.114211
 31
0.0
  0
LINE
  5
DFA5
330
DF0B
100
AcDbEntity
  8
1
  6
Continuous
100
AcDbLine
 10
65.022429
 20
163.114211
 30
0.0
 11
59.522429
 21
163.114211
 31
0.0
  0
LINE
  5
DFA6
330
DF0B
100
AcDbEntity
  8
1
  6
Continuous
100
AcDbLine
 10
52.72242900000001
 20
260.114211
 30
0.0
 11
59.522429
 21
260.114211
 31
0.0
  0
LINE
  5
DFA7
330
DF0B
100
AcDbEntity
  8
1
  6
Continuous
100
AcDbLine
 10
52.72242900000001
 20
168.114211
 30
0.0
 11
59.522429
 21
168.114211
 31
0.0
  0
ARC
  5
DFA8
330
DF0B
100
AcDbEntity
  8
1
  6
Continuous
100
AcDbCircle
 10
52.72242900000001
 20
252.1142109999999
 30
0.0
 40
8.0
100
AcDbArc
 50
90.0
 51
165.5224879999998
  0
ARC
  5
DFA9
330
DF0B
100
AcDbEntity
  8
1
  6
Continuous
100
AcDbCircle
 10
52.72242900000001
 20
176.114211
 30
0.0
 40
8.0
100
AcDbArc
 50
194.4775119999999
 51
270.0
  0
ARC
  5
DFAA
330
DF0B
100
AcDbEntity
  8
1
  6
Continuous
100
AcDbCircle
 10
65.022429
 20
264.114211
 30
0.0
 40
1.0
100
AcDbArc
 50
0.0
 51
90.0
  0
ARC
  5
DFAB
330
DF0B
100
AcDbEntity
  8
1
  6
Continuous
100
AcDbCircle
 10
65.022429
 20
164.114211
 30
0.0
 40
1.0
100
AcDbArc
 50
270.0
 51
0.0
  0
ARC
  5
DFAC
330
DF0B
100
AcDbEntity
  8
1
  6
Continuous
100
AcDbCircle
 10
172.8313649999997
 20
74.022429
 30
0.0
 40
2.549999999999998
100
AcDbArc
 50
143.968121
 51
36.03187899999999
  0
LINE
  5
DFAD
330
DF0B
100
AcDbEntity
  8
4
  6
CENTER
100
AcDbLine
 10
224.3313649999997
 20
59.15139100000001
 30
0.0
 11
224.3313649999997
 21
45.79499099999998
 31
0.0
  0
LINE
  5
DFAE
330
DF0B
100
AcDbEntity
  8
4
  6
CENTER
100
AcDbLine
 10
165.3313649999998
 20
53.522429
 30
0.0
 11
165.3313649999998
 21
45.52242899999998
 31
0.0
  0
LINE
  5
DFAF
330
DF0B
100
AcDbEntity
  8
4
  6
CENTER
100
AcDbLine
 10
213.3313649999998
 20
53.522429
 30
0.0
 11
213.3313649999998
 21
45.52242899999998
 31
0.0
  0
LINE
  5
DFB0
330
DF0B
100
AcDbEntity
  8
1
  6
Continuous
100
AcDbLine
 10
225.3313649999999
 20
51.00853499999999
 30
0.0
 11
224.3313649999997
 21
52.008535
 31
0.0
  0
LINE
  5
DFB1
330
DF0B
100
AcDbEntity
  8
1
  6
Continuous
100
AcDbLine
 10
224.3313649999997
 20
51.00853499999999
 30
0.0
 11
223.3313649999999
 21
52.008535
 31
0.0
  0
LINE
  5
DFB2
330
DF0B
100
AcDbEntity
  8
2
  6
Continuous
100
AcDbLine
 10
225.9523649999999
 20
56.022429
 30
0.0
 11
225.9523649999999
 21
55.16081599999999
 31
0.0
  0
LINE
  5
DFB3
330
DF0B
100
AcDbEntity
  8
2
  6
Continuous
100
AcDbLine
 10
222.7942389999999
 20
56.022429
 30
0.0
 11
222.7942389999999
 21
55.476711
 31
0.0
  0
LINE
  5
DFB4
330
DF0B
100
AcDbEntity
  8
2
  6
Continuous
100
AcDbLine
 10
225.9523649999999
 20
53.150836
 30
0.0
 11
225.9523649999999
 21
52.808535
 31
0.0
  0
LINE
  5
DFB5
330
DF0B
100
AcDbEntity
  8
2
  6
Continuous
100
AcDbLine
 10
222.710365
 20
53.47512
 30
0.0
 11
222.710365
 21
52.808535
 31
0.0
  0
LINE
  5
DFB6
330
DF0B
100
AcDbEntity
  8
1
  6
Continuous
100
AcDbLine
 10
228.3313649999997
 20
75.522429
 30
0.0
 11
228.3313649999997
 21
58.022429
 31
0.0
  0
ARC
  5
DFB7
330
DF0B
100
AcDbEntity
  8
1
  6
Continuous
100
AcDbCircle
 10
226.3313649999997
 20
58.022429
 30
0.0
 40
2.0
100
AcDbArc
 50
270.0
 51
0.0
  0
LINE
  5
DFB8
330
DF0B
100
AcDbEntity
  8
1
  6
Continuous
100
AcDbLine
 10
325.3694529999999
 20
163.114211
 30
0.0
 11
325.3694529999999
 21
265.114211
 31
0.0
  0
LINE
  5
DFB9
330
DF0B
100
AcDbEntity
  8
1
  6
Continuous
100
AcDbLine
 10
320.8694529999997
 20
164.114211
 30
0.0
 11
320.8694529999997
 21
264.114211
 31
0.0
  0
LINE
  5
DFBA
330
DF0B
100
AcDbEntity
  8
1
  6
Continuous
100
AcDbLine
 10
354.3694529999998
 20
259.114211
 30
0.0
 11
354.3694529999998
 21
240.542447
 31
0.0
  0
LINE
  5
DFBB
330
DF0B
100
AcDbEntity
  8
1
  6
Continuous
100
AcDbLine
 10
327.3694529999999
 20
163.114211
 30
0.0
 11
327.3694529999999
 21
265.114211
 31
0.0
  0
LINE
  5
DFBC
330
DF0B
100
AcDbEntity
  8
1
  6
Continuous
100
AcDbLine
 10
352.3694529999998
 20
169.114211
 30
0.0
 11
354.3694529999998
 21
169.114211
 31
0.0
  0
LINE
  5
DFBD
330
DF0B
100
AcDbEntity
  8
1
  6
Continuous
100
AcDbLine
 10
334.1694529999998
 20
168.114211
 30
0.0
 11
327.3694529999999
 21
168.114211
 31
0.0
  0
ARC
  5
DFBE
330
DF0B
100
AcDbEntity
  8
1
  6
Continuous
100
AcDbCircle
 10
321.8694529999999
 20
164.114211
 30
0.0
 40
1.0
100
AcDbArc
 50
180.0
 51
270.0
  0
LINE
  5
DFBF
330
DF0B
100
AcDbEntity
  8
1
  6
Continuous
100
AcDbLine
 10
321.8694529999999
 20
163.114211
 30
0.0
 11
327.3694529999999
 21
163.114211
 31
0.0
  0
LINE
  5
DFC0
330
DF0B
100
AcDbEntity
  8
4
  6
CENTER
100
AcDbLine
 10
362.551035
 20
214.114211
 30
0.0
 11
315.8694529999999
 21
214.114211
 31
0.0
  0
LINE
  5
DFC1
330
DF0B
100
AcDbEntity
  8
4
  6
CENTER
100
AcDbLine
 10
357.3694529999999
 20
184.114211
 30
0.0
 11
351.3694529999999
 21
184.114211
 31
0.0
  0
LINE
  5
DFC2
330
DF0B
100
AcDbEntity
  8
4
  6
CENTER
100
AcDbLine
 10
357.3694529999999
 20
196.614211
 30
0.0
 11
347.2167089999999
 21
196.614211
 31
0.0
  0
LINE
  5
DFC3
330
DF0B
100
AcDbEntity
  8
1
  6
Continuous
100
AcDbLine
 10
352.3694529999998
 20
259.114211
 30
0.0
 11
354.3694529999998
 21
259.114211
 31
0.0
  0
LINE
  5
DFC4
330
DF0B
100
AcDbEntity
  8
4
  6
CENTER
100
AcDbLine
 10
357.3694529999999
 20
244.1142109999999
 30
0.0
 11
351.3694529999999
 21
244.1142109999999
 31
0.0
  0
LINE
  5
DFC5
330
DF0B
100
AcDbEntity
  8
4
  6
CENTER
100
AcDbLine
 10
357.3694529999999
 20
231.6142109999999
 30
0.0
 11
347.2167089999999
 21
231.6142109999999
 31
0.0
  0
LINE
  5
DFC6
330
DF0B
100
AcDbEntity
  8
1
  6
Continuous
100
AcDbLine
 10
334.1694529999998
 20
260.114211
 30
0.0
 11
327.3694529999999
 21
260.114211
 31
0.0
  0
ARC
  5
DFC7
330
DF0B
100
AcDbEntity
  8
1
  6
Continuous
100
AcDbCircle
 10
334.1694529999998
 20
252.1142109999999
 30
0.0
 40
8.0
100
AcDbArc
 50
14.47751199999999
 51
90.0
  0
ARC
  5
DFC8
330
DF0B
100
AcDbEntity
  8
1
  6
Continuous
100
AcDbCircle
 10
321.8694529999999
 20
264.114211
 30
0.0
 40
1.0
100
AcDbArc
 50
90.0
 51
180.0
  0
LINE
  5
DFC9
330
DF0B
100
AcDbEntity
  8
1
  6
Continuous
100
AcDbLine
 10
321.8694529999999
 20
265.114211
 30
0.0
 11
327.3694529999999
 21
265.114211
 31
0.0
  0
LINE
  5
DFCA
330
DF0B
100
AcDbEntity
  8
4
  6
CENTER
100
AcDbLine
 10
537.398059
 20
214.114211
 30
0.0
 11
432.551035
 21
214.114211
 31
0.0
  0
LINE
  5
DFCB
330
DF0B
100
AcDbEntity
  8
1
  6
Continuous
100
AcDbLine
 10
458.0891229999998
 20
254.114211
 30
0.0
 11
439.5510349999996
 21
254.114211
 31
0.0
  0
LINE
  5
DFCC
330
DF0B
100
AcDbEntity
  8
1
  6
Continuous
100
AcDbLine
 10
458.0891229999998
 20
174.114211
 30
0.0
 11
439.5510349999996
 21
174.114211
 31
0.0
  0
ARC
  5
DFCD
330
DF0B
100
AcDbEntity
  8
1
  6
Continuous
100
AcDbCircle
 10
952.089123
 20
214.114211
 30
0.0
 40
508.4999999999998
100
AcDbArc
 50
174.9929679999999
 51
175.4882959999999
  0
LINE
  5
DFCE
330
DF0B
100
AcDbEntity
  8
4
  6
CENTER
100
AcDbLine
 10
505.5891229999998
 20
269.6979499999998
 30
0.0
 11
505.5891229999998
 21
158.530472
 31
0.0
  0
ARC
  5
DFCF
330
DF0B
100
AcDbEntity
  8
1
  6
Continuous
100
AcDbCircle
 10
485.089123
 20
663.1142109999998
 30
0.0
 40
500.0
100
AcDbArc
 50
266.101988
 51
273.8980119999999
  0
LINE
  5
DFD0
330
DF0B
100
AcDbEntity
  8
1
  6
Continuous
100
AcDbLine
 10
519.5891229999999
 20
169.114211
 30
0.0
 11
459.0891229999998
 21
169.114211
 31
0.0
  0
ARC
  5
DFD1
330
DF0B
100
AcDbEntity
  8
1
  6
Continuous
100
AcDbCircle
 10
518.6715799999998
 20
170.257012
 30
0.0
 40
6.0
100
AcDbArc
 50
273.8980119999999
 51
355.006257
  0
ARC
  5
DFD2
330
DF0B
100
AcDbEntity
  8
1
  6
Continuous
100
AcDbCircle
 10
451.506666
 20
170.257012
 30
0.0
 40
6.0
100
AcDbArc
 50
185.007032
 51
266.101988
  0
ARC
  5
DFD3
330
DF0B
100
AcDbEntity
  8
1
  6
Continuous
100
AcDbCircle
 10
485.089123
 20
-234.885789
 30
0.0
 40
500.0
100
AcDbArc
 50
86.101988
 51
93.89801199999999
  0
LINE
  5
DFD4
330
DF0B
100
AcDbEntity
  8
1
  6
Continuous
100
AcDbLine
 10
519.5891229999999
 20
259.114211
 30
0.0
 11
459.0891229999998
 21
259.114211
 31
0.0
  0
ARC
  5
DFD5
330
DF0B
100
AcDbEntity
  8
1
  6
Continuous
100
AcDbCircle
 10
518.6715799999998
 20
257.9714099999999
 30
0.0
 40
6.0
100
AcDbArc
 50
4.993743
 51
86.101988
  0
ARC
  5
DFD6
330
DF0B
100
AcDbEntity
  8
1
  6
Continuous
100
AcDbCircle
 10
451.506666
 20
257.9714099999999
 30
0.0
 40
6.0
100
AcDbArc
 50
93.89801199999999
 51
174.9929679999999
  0
LINE
  5
DFD7
330
DF0B
100
AcDbEntity
  8
1
  6
Continuous
100
AcDbLine
 10
437.5510349999998
 20
176.114211
 30
0.0
 11
437.5510349999998
 21
252.1142109999999
 31
0.0
  0
ARC
  5
DFD8
330
DF0B
100
AcDbEntity
  8
1
  6
Continuous
100
AcDbCircle
 10
439.5510349999996
 20
176.114211
 30
0.0
 40
2.0
100
AcDbArc
 50
180.0
 51
270.0
  0
ARC
  5
DFD9
330
DF0B
100
AcDbEntity
  8
1
  6
Continuous
100
AcDbCircle
 10
439.5510349999996
 20
252.1142109999999
 30
0.0
 40
2.0
100
AcDbArc
 50
90.0
 51
180.0
  0
LINE
  5
DFDA
330
DF0B
100
AcDbEntity
  8
1
  6
Continuous
100
AcDbLine
 10
352.3694529999998
 20
259.114211
 30
0.0
 11
352.3694529999998
 21
242.5716959999999
 31
0.0
  0
LINE
  5
DFDB
330
DF0B
100
AcDbEntity
  8
1
  6
Continuous
100
AcDbLine
 10
328.8694529999999
 20
254.114211
 30
0.0
 11
352.3694529999998
 21
254.114211
 31
0.0
  0
LINE
  5
DFDC
330
DF0B
100
AcDbEntity
  8
1
  6
Continuous
100
AcDbLine
 10
328.8694529999999
 20
174.114211
 30
0.0
 11
352.3694529999998
 21
174.114211
 31
0.0
  0
ARC
  5
DFDD
330
DF0B
100
AcDbEntity
  8
1
  6
Continuous
100
AcDbCircle
 10
334.1694529999998
 20
176.114211
 30
0.0
 40
8.0
100
AcDbArc
 50
270.0
 51
345.522488
  0
LINE
  5
DFDE
330
DF0B
100
AcDbEntity
  8
1
  6
Continuous
100
AcDbLine
 10
351.8835009999999
 20
240.1142109999999
 30
0.0
 11
350.8835009999998
 21
239.114211
 31
0.0
  0
LINE
  5
DFDF
330
DF0B
100
AcDbEntity
  8
1
  6
Continuous
100
AcDbLine
 10
351.8835009999999
 20
239.114211
 30
0.0
 11
350.8835009999998
 21
238.1142109999999
 31
0.0
  0
LINE
  5
DFE0
330
DF0B
100
AcDbEntity
  8
1
  6
Continuous
100
AcDbLine
 10
351.8835009999999
 20
242.9142109999999
 30
0.0
 11
350.8835009999998
 21
242.9142109999999
 31
0.0
  0
LINE
  5
DFE1
330
DF0B
100
AcDbEntity
  8
1
  6
Continuous
100
AcDbLine
 10
351.8835009999999
 20
235.3142109999998
 30
0.0
 11
350.8835009999998
 21
235.3142109999998
 31
0.0
  0
ARC
  5
DFE2
330
DF0B
100
AcDbEntity
  8
1
  6
Continuous
100
AcDbCircle
 10
352.889613
 20
237.0071999999999
 30
0.0
 40
1.3
100
AcDbArc
 50
275.0
 51
344.1191499999998
  0
LINE
  5
DFE3
330
DF0B
100
AcDbEntity
  8
1
  6
Continuous
100
AcDbLine
 10
351.8835009999999
 20
242.9142109999999
 30
0.0
 11
351.8835009999999
 21
235.3142109999998
 31
0.0
  0
LINE
  5
DFE4
330
DF0B
100
AcDbEntity
  8
1
  6
Continuous
100
AcDbLine
 10
351.8835009999999
 20
235.6142109999999
 30
0.0
 11
353.0029160000001
 21
235.712147
 31
0.0
  0
ARC
  5
DFE5
330
DF0B
100
AcDbEntity
  8
1
  6
Continuous
100
AcDbCircle
 10
352.889613
 20
241.221222
 30
0.0
 40
1.3
100
AcDbArc
 50
15.88085
 51
85.0
  0
LINE
  5
DFE6
330
DF0B
100
AcDbEntity
  8
1
  6
Continuous
100
AcDbLine
 10
351.8835009999999
 20
242.6142109999999
 30
0.0
 11
353.0029160000001
 21
242.516275
 31
0.0
  0
ARC
  5
DFE7
330
DF0B
100
AcDbEntity
  8
1
  6
Continuous
100
AcDbCircle
 10
345.483501
 20
239.114211
 30
0.0
 40
9.0
100
AcDbArc
 50
344.1191499999998
 51
15.88085
  0
LINE
  5
DFE8
330
DF0B
100
AcDbEntity
  8
1
  6
Continuous
100
AcDbLine
 10
350.0835009999998
 20
244.1142109999999
 30
0.0
 11
350.0835009999998
 21
234.1142109999999
 31
0.0
  0
LINE
  5
DFE9
330
DF0B
100
AcDbEntity
  8
1
  6
Continuous
100
AcDbLine
 10
350.8835009999998
 20
244.1142109999999
 30
0.0
 11
350.8835009999998
 21
234.1142109999999
 31
0.0
  0
LINE
  5
DFEA
330
DF0B
100
AcDbEntity
  8
1
  6
Continuous
100
AcDbLine
 10
350.8835009999998
 20
234.1142109999999
 30
0.0
 11
350.0835009999998
 21
234.1142109999999
 31
0.0
  0
LINE
  5
DFEB
330
DF0B
100
AcDbEntity
  8
1
  6
Continuous
100
AcDbLine
 10
350.8835009999998
 20
244.1142109999999
 30
0.0
 11
350.0835009999998
 21
244.1142109999999
 31
0.0
  0
LINE
  5
DFEC
330
DF0B
100
AcDbEntity
  8
1
  6
Continuous
100
AcDbLine
 10
329.625853
 20
174.114211
 30
0.0
 11
329.625853
 21
254.114211
 31
0.0
  0
LINE
  5
DFED
330
DF0B
100
AcDbEntity
  8
1
  6
Continuous
100
AcDbLine
 10
331.615922
 20
174.114211
 30
0.0
 11
331.615922
 21
254.114211
 31
0.0
  0
LINE
  5
DFEE
330
DF0B
100
AcDbEntity
  8
1
  6
Continuous
100
AcDbLine
 10
328.8694529999999
 20
174.114211
 30
0.0
 11
328.8694529999999
 21
254.114211
 31
0.0
  0
LINE
  5
DFEF
330
DF0B
100
AcDbEntity
  8
1
  6
Continuous
100
AcDbLine
 10
350.0835009999998
 20
174.114211
 30
0.0
 11
350.0835009999998
 21
254.114211
 31
0.0
  0
LINE
  5
DFF0
330
DF0B
100
AcDbEntity
  8
4
  6
CENTER
100
AcDbLine
 10
357.3694529999999
 20
239.114211
 30
0.0
 11
344.1941529999998
 21
239.114211
 31
0.0
  0
LINE
  5
DFF1
330
DF0B
100
AcDbEntity
  8
1
  6
Continuous
100
AcDbLine
 10
352.3694529999998
 20
235.6567259999999
 30
0.0
 11
352.3694529999998
 21
192.571696
 31
0.0
  0
LINE
  5
DFF2
330
DF0B
100
AcDbEntity
  8
1
  6
Continuous
100
AcDbLine
 10
354.3694529999998
 20
237.685975
 30
0.0
 11
354.3694529999998
 21
190.5424469999999
 31
0.0
  0
LINE
  5
DFF3
330
DF0B
100
AcDbEntity
  8
1
  6
Continuous
100
AcDbLine
 10
351.8835009999999
 20
189.114211
 30
0.0
 11
350.8835009999998
 21
188.114211
 31
0.0
  0
LINE
  5
DFF4
330
DF0B
100
AcDbEntity
  8
1
  6
Continuous
100
AcDbLine
 10
351.8835009999999
 20
190.114211
 30
0.0
 11
350.8835009999998
 21
189.114211
 31
0.0
  0
LINE
  5
DFF5
330
DF0B
100
AcDbEntity
  8
1
  6
Continuous
100
AcDbLine
 10
351.8835009999999
 20
185.314211
 30
0.0
 11
350.8835009999998
 21
185.314211
 31
0.0
  0
LINE
  5
DFF6
330
DF0B
100
AcDbEntity
  8
1
  6
Continuous
100
AcDbLine
 10
350.8835009999998
 20
184.114211
 30
0.0
 11
350.0835009999998
 21
184.114211
 31
0.0
  0
LINE
  5
DFF7
330
DF0B
100
AcDbEntity
  8
1
  6
Continuous
100
AcDbLine
 10
350.0835009999998
 20
194.114211
 30
0.0
 11
350.0835009999998
 21
184.114211
 31
0.0
  0
LINE
  5
DFF8
330
DF0B
100
AcDbEntity
  8
1
  6
Continuous
100
AcDbLine
 10
350.8835009999998
 20
194.114211
 30
0.0
 11
350.0835009999998
 21
194.114211
 31
0.0
  0
LINE
  5
DFF9
330
DF0B
100
AcDbEntity
  8
1
  6
Continuous
100
AcDbLine
 10
350.8835009999998
 20
194.114211
 30
0.0
 11
350.8835009999998
 21
184.114211
 31
0.0
  0
LINE
  5
DFFA
330
DF0B
100
AcDbEntity
  8
1
  6
Continuous
100
AcDbLine
 10
351.8835009999999
 20
192.614211
 30
0.0
 11
353.0029160000001
 21
192.516275
 31
0.0
  0
LINE
  5
DFFB
330
DF0B
100
AcDbEntity
  8
1
  6
Continuous
100
AcDbLine
 10
351.8835009999999
 20
192.9142109999999
 30
0.0
 11
350.8835009999998
 21
192.9142109999999
 31
0.0
  0
LINE
  5
DFFC
330
DF0B
100
AcDbEntity
  8
1
  6
Continuous
100
AcDbLine
 10
351.8835009999999
 20
192.9142109999999
 30
0.0
 11
351.8835009999999
 21
185.314211
 31
0.0
  0
ARC
  5
DFFD
330
DF0B
100
AcDbEntity
  8
1
  6
Continuous
100
AcDbCircle
 10
352.889613
 20
191.2212219999999
 30
0.0
 40
1.3
100
AcDbArc
 50
15.88085
 51
85.0
  0
ARC
  5
DFFE
330
DF0B
100
AcDbEntity
  8
1
  6
Continuous
100
AcDbCircle
 10
345.483501
 20
189.114211
 30
0.0
 40
9.0
100
AcDbArc
 50
344.1191499999998
 51
15.88085
  0
LINE
  5
DFFF
330
DF0B
100
AcDbEntity
  8
1
  6
Continuous
100
AcDbLine
 10
351.8835009999999
 20
185.614211
 30
0.0
 11
353.0029160000001
 21
185.7121469999999
 31
0.0
  0
ARC
  5
E000
330
DF0B
100
AcDbEntity
  8
1
  6
Continuous
100
AcDbCircle
 10
352.889613
 20
187.0072
 30
0.0
 40
1.3
100
AcDbArc
 50
275.0
 51
344.1191499999998
  0
LINE
  5
E001
330
DF0B
100
AcDbEntity
  8
1
  6
Continuous
100
AcDbLine
 10
352.3694529999998
 20
185.656726
 30
0.0
 11
352.3694529999998
 21
169.114211
 31
0.0
  0
LINE
  5
E002
330
DF0B
100
AcDbEntity
  8
1
  6
Continuous
100
AcDbLine
 10
354.3694529999998
 20
187.685975
 30
0.0
 11
354.3694529999998
 21
169.114211
 31
0.0
  0
LINE
  5
E003
330
DF0B
100
AcDbEntity
  8
1
  6
Continuous
100
AcDbLine
 10
352.3694529999998
 20
223.7142109999997
 30
0.0
 11
350.0835009999998
 21
223.7142109999997
 31
0.0
  0
LINE
  5
E004
330
DF0B
100
AcDbEntity
  8
1
  6
Continuous
100
AcDbLine
 10
352.3694529999998
 20
204.514211
 30
0.0
 11
350.0835009999998
 21
204.514211
 31
0.0
  0
LINE
  5
E005
330
DF0B
100
AcDbEntity
  8
1
  6
Continuous
100
AcDbLine
 10
352.3694529999998
 20
226.614211
 30
0.0
 11
350.0835009999998
 21
226.614211
 31
0.0
  0
LINE
  5
E006
330
DF0B
100
AcDbEntity
  8
1
  6
Continuous
100
AcDbLine
 10
352.3694529999998
 20
201.614211
 30
0.0
 11
350.0835009999998
 21
201.614211
 31
0.0
  0
LINE
  5
E007
330
DF0B
100
AcDbEntity
  8
1
  6
Continuous
100
AcDbLine
 10
459.0891229999998
 20
259.114211
 30
0.0
 11
459.0891229999998
 21
169.114211
 31
0.0
  0
LINE
  5
E008
330
DF0B
100
AcDbEntity
  8
4
  6
CENTER
100
AcDbLine
 10
462.0891229999998
 20
239.114211
 30
0.0
 11
446.0891229999998
 21
239.114211
 31
0.0
  0
ARC
  5
E009
330
DF0B
100
AcDbEntity
  8
1
  6
Continuous
100
AcDbCircle
 10
458.0891229999998
 20
252.1142109999999
 30
0.0
 40
2.0
100
AcDbArc
 50
60.0
 51
90.0
  0
ARC
  5
E00A
330
DF0B
100
AcDbEntity
  8
1
  6
Continuous
100
AcDbCircle
 10
458.0891229999998
 20
176.114211
 30
0.0
 40
2.0
100
AcDbArc
 50
270.0
 51
300.0
  0
LINE
  5
E00B
330
DF0B
100
AcDbEntity
  8
4
  6
CENTER
100
AcDbLine
 10
454.0891229999998
 20
231.114211
 30
0.0
 11
454.0891229999998
 21
247.1142109999999
 31
0.0
  0
ARC
  5
E00C
330
DF0B
100
AcDbEntity
  8
1
  6
Continuous
100
AcDbCircle
 10
952.089123
 20
214.114211
 30
0.0
 40
508.4999999999998
100
AcDbArc
 50
184.511704
 51
185.007032
  0
CIRCLE
  5
E00D
330
DF0B
100
AcDbEntity
  8
1
  6
Continuous
100
AcDbCircle
 10
454.0891229999998
 20
239.114211
 30
0.0
 40
3.799999999999998
  0
CIRCLE
  5
E00E
330
DF0B
100
AcDbEntity
  8
1
  6
Continuous
100
AcDbCircle
 10
454.0891229999998
 20
239.114211
 30
0.0
 40
5.0
  0
CIRCLE
  5
E00F
330
DF0B
100
AcDbEntity
  8
1
  6
Continuous
100
AcDbCircle
 10
454.0891229999998
 20
239.114211
 30
0.0
 40
3.5
  0
LINE
  5
E010
330
DF0B
100
AcDbEntity
  8
1
  6
Continuous
100
AcDbLine
 10
454.613503
 20
237.973648
 30
0.0
 11
455.247071
 21
237.3627079999999
 31
0.0
  0
LINE
  5
E011
330
DF0B
100
AcDbEntity
  8
1
  6
Continuous
100
AcDbLine
 10
454.6142099999998
 20
240.255481
 30
0.0
 11
455.246364
 21
240.866422
 31
0.0
  0
ARC
  5
E012
330
DF0B
100
AcDbEntity
  8
1
  6
Continuous
100
AcDbCircle
 10
454.088123
 20
239.114211
 30
0.0
 40
2.1
100
AcDbArc
 50
213.463
 51
236.5369999999999
  0
ARC
  5
E013
330
DF0B
100
AcDbEntity
  8
1
  6
Continuous
100
AcDbCircle
 10
454.088123
 20
239.114211
 30
0.0
 40
2.1
100
AcDbArc
 50
123.4629999999998
 51
146.537
  0
LINE
  5
E014
330
DF0B
100
AcDbEntity
  8
1
  6
Continuous
100
AcDbLine
 10
452.9475599999996
 20
238.5888309999999
 30
0.0
 11
452.3366199999999
 21
237.956677
 31
0.0
  0
LINE
  5
E015
330
DF0B
100
AcDbEntity
  8
1
  6
Continuous
100
AcDbLine
 10
452.9475599999996
 20
239.639591
 30
0.0
 11
452.3366199999999
 21
240.271745
 31
0.0
  0
LINE
  5
E016
330
DF0B
100
AcDbEntity
  8
1
  6
Continuous
100
AcDbLine
 10
454.0888299999998
 20
238.164567
 30
0.0
 11
454.613503
 21
237.973648
 31
0.0
  0
LINE
  5
E017
330
DF0B
100
AcDbEntity
  8
1
  6
Continuous
100
AcDbLine
 10
453.138479
 20
239.1149179999999
 30
0.0
 11
452.9475599999996
 21
238.5888309999999
 31
0.0
  0
LINE
  5
E018
330
DF0B
100
AcDbEntity
  8
1
  6
Continuous
100
AcDbLine
 10
453.5627429999998
 20
237.973648
 30
0.0
 11
452.9305889999998
 21
237.3627079999999
 31
0.0
  0
LINE
  5
E019
330
DF0B
100
AcDbEntity
  8
1
  6
Continuous
100
AcDbLine
 10
454.0888299999998
 20
238.164567
 30
0.0
 11
453.5627429999998
 21
237.973648
 31
0.0
  0
LINE
  5
E01A
330
DF0B
100
AcDbEntity
  8
1
  6
Continuous
100
AcDbLine
 10
454.088123
 20
240.064563
 30
0.0
 11
453.5634499999998
 21
240.255481
 31
0.0
  0
LINE
  5
E01B
330
DF0B
100
AcDbEntity
  8
1
  6
Continuous
100
AcDbLine
 10
453.5634499999998
 20
240.255481
 30
0.0
 11
452.9305889999998
 21
240.865714
 31
0.0
  0
LINE
  5
E01C
330
DF0B
100
AcDbEntity
  8
1
  6
Continuous
100
AcDbLine
 10
453.138479
 20
239.1149179999999
 30
0.0
 11
452.9475599999996
 21
239.639591
 31
0.0
  0
LINE
  5
E01D
330
DF0B
100
AcDbEntity
  8
1
  6
Continuous
100
AcDbLine
 10
454.088123
 20
240.064563
 30
0.0
 11
454.6142099999998
 21
240.255481
 31
0.0
  0
ARC
  5
E01E
330
DF0B
100
AcDbEntity
  8
1
  6
Continuous
100
AcDbCircle
 10
454.088123
 20
239.114211
 30
0.0
 40
2.1
100
AcDbArc
 50
303.4629999999999
 51
326.5369999999998
  0
ARC
  5
E01F
330
DF0B
100
AcDbEntity
  8
1
  6
Continuous
100
AcDbCircle
 10
454.088123
 20
239.114211
 30
0.0
 40
2.1
100
AcDbArc
 50
33.463
 51
56.537
  0
LINE
  5
E020
330
DF0B
100
AcDbEntity
  8
1
  6
Continuous
100
AcDbLine
 10
455.2293929999996
 20
238.589538
 30
0.0
 11
455.8403339999999
 21
237.95597
 31
0.0
  0
LINE
  5
E021
330
DF0B
100
AcDbEntity
  8
1
  6
Continuous
100
AcDbLine
 10
455.038475
 20
239.114211
 30
0.0
 11
455.2293929999996
 21
238.589538
 31
0.0
  0
LINE
  5
E022
330
DF0B
100
AcDbEntity
  8
1
  6
Continuous
100
AcDbLine
 10
455.2293929999996
 20
239.6402979999999
 30
0.0
 11
455.8403339999999
 21
240.272452
 31
0.0
  0
LINE
  5
E023
330
DF0B
100
AcDbEntity
  8
1
  6
Continuous
100
AcDbLine
 10
455.038475
 20
239.114211
 30
0.0
 11
455.2293929999996
 21
239.6402979999999
 31
0.0
  0
LINE
  5
E024
330
DF0B
100
AcDbEntity
  8
4
  6
CENTER
100
AcDbLine
 10
462.0891229999998
 20
189.114211
 30
0.0
 11
446.0891229999998
 21
189.114211
 31
0.0
  0
LINE
  5
E025
330
DF0B
100
AcDbEntity
  8
4
  6
CENTER
100
AcDbLine
 10
454.0891229999998
 20
181.114211
 30
0.0
 11
454.0891229999998
 21
197.114211
 31
0.0
  0
LINE
  5
E026
330
DF0B
100
AcDbEntity
  8
1
  6
Continuous
100
AcDbLine
 10
455.038475
 20
189.114211
 30
0.0
 11
455.2293929999996
 21
189.6402979999997
 31
0.0
  0
LINE
  5
E027
330
DF0B
100
AcDbEntity
  8
1
  6
Continuous
100
AcDbLine
 10
455.2293929999996
 20
189.6402979999997
 30
0.0
 11
455.8403339999999
 21
190.2724519999999
 31
0.0
  0
LINE
  5
E028
330
DF0B
100
AcDbEntity
  8
1
  6
Continuous
100
AcDbLine
 10
455.038475
 20
189.114211
 30
0.0
 11
455.2293929999996
 21
188.5895379999998
 31
0.0
  0
LINE
  5
E029
330
DF0B
100
AcDbEntity
  8
1
  6
Continuous
100
AcDbLine
 10
455.2293929999996
 20
188.5895379999998
 30
0.0
 11
455.8403339999999
 21
187.95597
 31
0.0
  0
ARC
  5
E02A
330
DF0B
100
AcDbEntity
  8
1
  6
Continuous
100
AcDbCircle
 10
454.088123
 20
189.114211
 30
0.0
 40
2.1
100
AcDbArc
 50
33.463
 51
56.537
  0
ARC
  5
E02B
330
DF0B
100
AcDbEntity
  8
1
  6
Continuous
100
AcDbCircle
 10
454.088123
 20
189.114211
 30
0.0
 40
2.1
100
AcDbArc
 50
303.4629999999999
 51
326.5369999999998
  0
LINE
  5
E02C
330
DF0B
100
AcDbEntity
  8
1
  6
Continuous
100
AcDbLine
 10
454.088123
 20
190.0645629999999
 30
0.0
 11
454.6142099999998
 21
190.2554809999998
 31
0.0
  0
LINE
  5
E02D
330
DF0B
100
AcDbEntity
  8
1
  6
Continuous
100
AcDbLine
 10
453.138479
 20
189.114918
 30
0.0
 11
452.9475599999996
 21
189.639591
 31
0.0
  0
LINE
  5
E02E
330
DF0B
100
AcDbEntity
  8
1
  6
Continuous
100
AcDbLine
 10
453.5634499999998
 20
190.2554809999998
 30
0.0
 11
452.9305889999998
 21
190.865714
 31
0.0
  0
LINE
  5
E02F
330
DF0B
100
AcDbEntity
  8
1
  6
Continuous
100
AcDbLine
 10
454.088123
 20
190.0645629999999
 30
0.0
 11
453.5634499999998
 21
190.2554809999998
 31
0.0
  0
LINE
  5
E030
330
DF0B
100
AcDbEntity
  8
1
  6
Continuous
100
AcDbLine
 10
454.0888299999998
 20
188.164567
 30
0.0
 11
453.5627429999998
 21
187.973648
 31
0.0
  0
LINE
  5
E031
330
DF0B
100
AcDbEntity
  8
1
  6
Continuous
100
AcDbLine
 10
453.5627429999998
 20
187.973648
 30
0.0
 11
452.9305889999998
 21
187.362708
 31
0.0
  0
LINE
  5
E032
330
DF0B
100
AcDbEntity
  8
1
  6
Continuous
100
AcDbLine
 10
453.138479
 20
189.114918
 30
0.0
 11
452.9475599999996
 21
188.588831
 31
0.0
  0
LINE
  5
E033
330
DF0B
100
AcDbEntity
  8
1
  6
Continuous
100
AcDbLine
 10
454.0888299999998
 20
188.164567
 30
0.0
 11
454.613503
 21
187.973648
 31
0.0
  0
LINE
  5
E034
330
DF0B
100
AcDbEntity
  8
1
  6
Continuous
100
AcDbLine
 10
452.9475599999996
 20
189.639591
 30
0.0
 11
452.3366199999999
 21
190.2717449999999
 31
0.0
  0
LINE
  5
E035
330
DF0B
100
AcDbEntity
  8
1
  6
Continuous
100
AcDbLine
 10
452.9475599999996
 20
188.588831
 30
0.0
 11
452.3366199999999
 21
187.956677
 31
0.0
  0
ARC
  5
E036
330
DF0B
100
AcDbEntity
  8
1
  6
Continuous
100
AcDbCircle
 10
454.088123
 20
189.114211
 30
0.0
 40
2.1
100
AcDbArc
 50
123.4629999999998
 51
146.537
  0
ARC
  5
E037
330
DF0B
100
AcDbEntity
  8
1
  6
Continuous
100
AcDbCircle
 10
454.088123
 20
189.114211
 30
0.0
 40
2.1
100
AcDbArc
 50
213.463
 51
236.5369999999999
  0
LINE
  5
E038
330
DF0B
100
AcDbEntity
  8
1
  6
Continuous
100
AcDbLine
 10
454.6142099999998
 20
190.2554809999998
 30
0.0
 11
455.246364
 21
190.866422
 31
0.0
  0
LINE
  5
E039
330
DF0B
100
AcDbEntity
  8
1
  6
Continuous
100
AcDbLine
 10
454.613503
 20
187.973648
 30
0.0
 11
455.247071
 21
187.362708
 31
0.0
  0
CIRCLE
  5
E03A
330
DF0B
100
AcDbEntity
  8
1
  6
Continuous
100
AcDbCircle
 10
454.0891229999998
 20
189.114211
 30
0.0
 40
3.5
  0
CIRCLE
  5
E03B
330
DF0B
100
AcDbEntity
  8
1
  6
Continuous
100
AcDbCircle
 10
454.0891229999998
 20
189.114211
 30
0.0
 40
5.0
  0
CIRCLE
  5
E03C
330
DF0B
100
AcDbEntity
  8
1
  6
Continuous
100
AcDbCircle
 10
454.0891229999998
 20
189.114211
 30
0.0
 40
3.799999999999998
  0
LINE
  5
E03D
330
DF0B
100
AcDbEntity
  8
4
  6
CENTER
100
AcDbLine
 10
482.989123
 20
231.6142109999999
 30
0.0
 11
458.0891229999998
 21
231.6142109999999
 31
0.0
  0
LINE
  5
E03E
330
DF0B
100
AcDbEntity
  8
4
  6
CENTER
100
AcDbLine
 10
465.089123
 20
224.614211
 30
0.0
 11
465.089123
 21
238.6142109999999
 31
0.0
  0
LINE
  5
E03F
330
DF0B
100
AcDbEntity
  8
4
  6
CENTER
100
AcDbLine
 10
477.589123
 20
226.2142109999998
 30
0.0
 11
477.589123
 21
237.0142109999999
 31
0.0
  0
CIRCLE
  5
E040
330
DF0B
100
AcDbEntity
  8
1
  6
Continuous
100
AcDbCircle
 10
477.589123
 20
231.6142109999999
 30
0.0
 40
2.399999999999999
  0
LINE
  5
E041
330
DF0B
100
AcDbEntity
  8
1
  6
Continuous
100
AcDbLine
 10
465.659051
 20
232.80215
 30
0.0
 11
466.355551
 21
233.4746089999999
 31
0.0
  0
CIRCLE
  5
E042
330
DF0B
100
AcDbEntity
  8
1
  6
Continuous
100
AcDbCircle
 10
465.089123
 20
231.6142109999999
 30
0.0
 40
4.0
  0
LINE
  5
E043
330
DF0B
100
AcDbEntity
  8
1
  6
Continuous
100
AcDbLine
 10
465.658344
 20
230.4269789999999
 30
0.0
 11
466.355551
 21
229.7538129999999
 31
0.0
  0
ARC
  5
E044
330
DF0B
100
AcDbEntity
  8
1
  6
Continuous
100
AcDbCircle
 10
465.089123
 20
231.6142109999999
 30
0.0
 40
2.25
100
AcDbArc
 50
124.2416999999998
 51
145.7579999999999
  0
LINE
  5
E045
330
DF0B
100
AcDbEntity
  8
1
  6
Continuous
100
AcDbLine
 10
463.9018909999998
 20
231.04499
 30
0.0
 11
463.2294319999998
 21
230.3484899999999
 31
0.0
  0
LINE
  5
E046
330
DF0B
100
AcDbEntity
  8
1
  6
Continuous
100
AcDbLine
 10
463.9018909999998
 20
232.1834319999999
 30
0.0
 11
463.2294319999998
 21
232.8799319999999
 31
0.0
  0
ARC
  5
E047
330
DF0B
100
AcDbEntity
  8
1
  6
Continuous
100
AcDbCircle
 10
465.089123
 20
231.6142109999999
 30
0.0
 40
2.25
100
AcDbArc
 50
214.2419999999999
 51
235.758
  0
LINE
  5
E048
330
DF0B
100
AcDbEntity
  8
1
  6
Continuous
100
AcDbLine
 10
465.089123
 20
230.634161
 30
0.0
 11
465.658344
 21
230.4269789999999
 31
0.0
  0
LINE
  5
E049
330
DF0B
100
AcDbEntity
  8
1
  6
Continuous
100
AcDbLine
 10
465.089123
 20
232.5942609999999
 30
0.0
 11
465.659051
 21
232.80215
 31
0.0
  0
LINE
  5
E04A
330
DF0B
100
AcDbEntity
  8
1
  6
Continuous
100
AcDbLine
 10
464.109073
 20
231.6142109999999
 30
0.0
 11
463.9018909999998
 21
231.04499
 31
0.0
  0
LINE
  5
E04B
330
DF0B
100
AcDbEntity
  8
1
  6
Continuous
100
AcDbLine
 10
464.109073
 20
231.6142109999999
 30
0.0
 11
463.9018909999998
 21
232.1834319999999
 31
0.0
  0
LINE
  5
E04C
330
DF0B
100
AcDbEntity
  8
1
  6
Continuous
100
AcDbLine
 10
464.5199019999998
 20
232.801443
 30
0.0
 11
463.8234019999998
 21
233.473902
 31
0.0
  0
LINE
  5
E04D
330
DF0B
100
AcDbEntity
  8
1
  6
Continuous
100
AcDbLine
 10
465.089123
 20
230.634161
 30
0.0
 11
464.5199019999998
 21
230.4269789999999
 31
0.0
  0
LINE
  5
E04E
330
DF0B
100
AcDbEntity
  8
1
  6
Continuous
100
AcDbLine
 10
465.089123
 20
232.5942609999999
 30
0.0
 11
464.5199019999998
 21
232.801443
 31
0.0
  0
LINE
  5
E04F
330
DF0B
100
AcDbEntity
  8
1
  6
Continuous
100
AcDbLine
 10
464.5199019999998
 20
230.4269789999999
 30
0.0
 11
463.8234019999998
 21
229.75452
 31
0.0
  0
LINE
  5
E050
330
DF0B
100
AcDbEntity
  8
1
  6
Continuous
100
AcDbLine
 10
466.276355
 20
231.04499
 30
0.0
 11
466.949521
 21
230.3477829999999
 31
0.0
  0
LINE
  5
E051
330
DF0B
100
AcDbEntity
  8
1
  6
Continuous
100
AcDbLine
 10
466.2770619999998
 20
232.1841389999999
 30
0.0
 11
466.949521
 21
232.880639
 31
0.0
  0
ARC
  5
E052
330
DF0B
100
AcDbEntity
  8
1
  6
Continuous
100
AcDbCircle
 10
465.089123
 20
231.6142109999999
 30
0.0
 40
2.25
100
AcDbArc
 50
34.24199999999999
 51
55.75829999999999
  0
LINE
  5
E053
330
DF0B
100
AcDbEntity
  8
1
  6
Continuous
100
AcDbLine
 10
466.0691729999999
 20
231.6142109999999
 30
0.0
 11
466.276355
 21
231.04499
 31
0.0
  0
LINE
  5
E054
330
DF0B
100
AcDbEntity
  8
1
  6
Continuous
100
AcDbLine
 10
466.0691729999999
 20
231.6142109999999
 30
0.0
 11
466.2770619999998
 21
232.1841389999999
 31
0.0
  0
ARC
  5
E055
330
DF0B
100
AcDbEntity
  8
1
  6
Continuous
100
AcDbCircle
 10
465.089123
 20
231.6142109999999
 30
0.0
 40
2.25
100
AcDbArc
 50
304.242
 51
325.7579999999999
  0
LINE
  5
E056
330
DF0B
100
AcDbEntity
  8
4
  6
CENTER
100
AcDbLine
 10
482.989123
 20
196.614211
 30
0.0
 11
458.0891229999998
 21
196.614211
 31
0.0
  0
CIRCLE
  5
E057
330
DF0B
100
AcDbEntity
  8
1
  6
Continuous
100
AcDbCircle
 10
477.589123
 20
196.614211
 30
0.0
 40
2.399999999999999
  0
LINE
  5
E058
330
DF0B
100
AcDbEntity
  8
4
  6
CENTER
100
AcDbLine
 10
465.089123
 20
189.614211
 30
0.0
 11
465.089123
 21
203.614211
 31
0.0
  0
ARC
  5
E059
330
DF0B
100
AcDbEntity
  8
1
  6
Continuous
100
AcDbCircle
 10
465.089123
 20
196.614211
 30
0.0
 40
2.25
100
AcDbArc
 50
304.242
 51
325.7579999999999
  0
LINE
  5
E05A
330
DF0B
100
AcDbEntity
  8
1
  6
Continuous
100
AcDbLine
 10
466.0691729999999
 20
196.614211
 30
0.0
 11
466.2770619999998
 21
197.1841389999999
 31
0.0
  0
LINE
  5
E05B
330
DF0B
100
AcDbEntity
  8
1
  6
Continuous
100
AcDbLine
 10
466.0691729999999
 20
196.614211
 30
0.0
 11
466.276355
 21
196.04499
 31
0.0
  0
ARC
  5
E05C
330
DF0B
100
AcDbEntity
  8
1
  6
Continuous
100
AcDbCircle
 10
465.089123
 20
196.614211
 30
0.0
 40
2.25
100
AcDbArc
 50
34.24199999999999
 51
55.75829999999999
  0
LINE
  5
E05D
330
DF0B
100
AcDbEntity
  8
1
  6
Continuous
100
AcDbLine
 10
466.2770619999998
 20
197.1841389999999
 30
0.0
 11
466.949521
 21
197.880639
 31
0.0
  0
LINE
  5
E05E
330
DF0B
100
AcDbEntity
  8
1
  6
Continuous
100
AcDbLine
 10
466.276355
 20
196.04499
 30
0.0
 11
466.949521
 21
195.3477829999999
 31
0.0
  0
LINE
  5
E05F
330
DF0B
100
AcDbEntity
  8
1
  6
Continuous
100
AcDbLine
 10
464.5199019999998
 20
195.4269789999999
 30
0.0
 11
463.8234019999998
 21
194.75452
 31
0.0
  0
LINE
  5
E060
330
DF0B
100
AcDbEntity
  8
1
  6
Continuous
100
AcDbLine
 10
465.089123
 20
197.5942609999999
 30
0.0
 11
464.5199019999998
 21
197.801443
 31
0.0
  0
LINE
  5
E061
330
DF0B
100
AcDbEntity
  8
1
  6
Continuous
100
AcDbLine
 10
465.089123
 20
195.634161
 30
0.0
 11
464.5199019999998
 21
195.4269789999999
 31
0.0
  0
LINE
  5
E062
330
DF0B
100
AcDbEntity
  8
1
  6
Continuous
100
AcDbLine
 10
464.5199019999998
 20
197.801443
 30
0.0
 11
463.8234019999998
 21
198.473902
 31
0.0
  0
LINE
  5
E063
330
DF0B
100
AcDbEntity
  8
1
  6
Continuous
100
AcDbLine
 10
464.109073
 20
196.614211
 30
0.0
 11
463.9018909999998
 21
197.183432
 31
0.0
  0
LINE
  5
E064
330
DF0B
100
AcDbEntity
  8
1
  6
Continuous
100
AcDbLine
 10
464.109073
 20
196.614211
 30
0.0
 11
463.9018909999998
 21
196.04499
 31
0.0
  0
LINE
  5
E065
330
DF0B
100
AcDbEntity
  8
1
  6
Continuous
100
AcDbLine
 10
465.089123
 20
197.5942609999999
 30
0.0
 11
465.659051
 21
197.80215
 31
0.0
  0
LINE
  5
E066
330
DF0B
100
AcDbEntity
  8
1
  6
Continuous
100
AcDbLine
 10
465.089123
 20
195.634161
 30
0.0
 11
465.658344
 21
195.4269789999999
 31
0.0
  0
ARC
  5
E067
330
DF0B
100
AcDbEntity
  8
1
  6
Continuous
100
AcDbCircle
 10
465.089123
 20
196.614211
 30
0.0
 40
2.25
100
AcDbArc
 50
214.2419999999999
 51
235.758
  0
LINE
  5
E068
330
DF0B
100
AcDbEntity
  8
1
  6
Continuous
100
AcDbLine
 10
463.9018909999998
 20
197.183432
 30
0.0
 11
463.2294319999998
 21
197.879932
 31
0.0
  0
LINE
  5
E069
330
DF0B
100
AcDbEntity
  8
1
  6
Continuous
100
AcDbLine
 10
463.9018909999998
 20
196.04499
 30
0.0
 11
463.2294319999998
 21
195.34849
 31
0.0
  0
ARC
  5
E06A
330
DF0B
100
AcDbEntity
  8
1
  6
Continuous
100
AcDbCircle
 10
465.089123
 20
196.614211
 30
0.0
 40
2.25
100
AcDbArc
 50
124.2416999999998
 51
145.7579999999999
  0
LINE
  5
E06B
330
DF0B
100
AcDbEntity
  8
1
  6
Continuous
100
AcDbLine
 10
465.658344
 20
195.4269789999999
 30
0.0
 11
466.355551
 21
194.7538129999998
 31
0.0
  0
CIRCLE
  5
E06C
330
DF0B
100
AcDbEntity
  8
1
  6
Continuous
100
AcDbCircle
 10
465.089123
 20
196.614211
 30
0.0
 40
4.0
  0
LINE
  5
E06D
330
DF0B
100
AcDbEntity
  8
1
  6
Continuous
100
AcDbLine
 10
465.659051
 20
197.80215
 30
0.0
 11
466.355551
 21
198.4746089999999
 31
0.0
  0
LINE
  5
E06E
330
DF0B
100
AcDbEntity
  8
4
  6
CENTER
100
AcDbLine
 10
477.589123
 20
191.2142109999997
 30
0.0
 11
477.589123
 21
202.014211
 31
0.0
  0
LINE
  5
E06F
330
DF0B
100
AcDbEntity
  8
4
  6
CENTER
100
AcDbLine
 10
513.0891230000002
 20
237.114211
 30
0.0
 11
513.0891230000002
 21
251.1142109999999
 31
0.0
  0
LINE
  5
E070
330
DF0B
100
AcDbEntity
  8
4
  6
CENTER
100
AcDbLine
 10
520.0891229999998
 20
244.1142109999999
 30
0.0
 11
506.089123
 21
244.1142109999999
 31
0.0
  0
LINE
  5
E071
330
DF0B
100
AcDbEntity
  8
4
  6
CENTER
100
AcDbLine
 10
520.0891229999998
 20
184.114211
 30
0.0
 11
506.089123
 21
184.114211
 31
0.0
  0
LINE
  5
E072
330
DF0B
100
AcDbEntity
  8
4
  6
CENTER
100
AcDbLine
 10
513.0891230000002
 20
177.114211
 30
0.0
 11
513.0891230000002
 21
191.114211
 31
0.0
  0
LINE
  5
E073
330
DF0B
100
AcDbEntity
  8
1
  6
Continuous
100
AcDbLine
 10
459.0891229999998
 20
223.7142109999997
 30
0.0
 11
456.589123
 21
223.7142109999997
 31
0.0
  0
LINE
  5
E074
330
DF0B
100
AcDbEntity
  8
1
  6
Continuous
100
AcDbLine
 10
459.0891229999998
 20
204.514211
 30
0.0
 11
456.589123
 21
204.514211
 31
0.0
  0
LINE
  5
E075
330
DF0B
100
AcDbEntity
  8
1
  6
Continuous
100
AcDbLine
 10
456.589123
 20
204.514211
 30
0.0
 11
456.589123
 21
223.7142109999997
 31
0.0
  0
LINE
  5
E076
330
DF0B
100
AcDbEntity
  8
1
  6
Continuous
100
AcDbLine
 10
455.0891229999998
 20
204.114211
 30
0.0
 11
455.0891229999998
 21
224.1142109999999
 31
0.0
  0
LINE
  5
E077
330
DF0B
100
AcDbEntity
  8
1
  6
Continuous
100
AcDbLine
 10
459.0891229999998
 20
224.1142109999999
 30
0.0
 11
455.0891229999998
 21
224.1142109999999
 31
0.0
  0
LINE
  5
E078
330
DF0B
100
AcDbEntity
  8
1
  6
Continuous
100
AcDbLine
 10
459.0891229999998
 20
204.114211
 30
0.0
 11
455.0891229999998
 21
204.114211
 31
0.0
  0
LINE
  5
E079
330
DF0B
100
AcDbEntity
  8
1
  6
Continuous
100
AcDbLine
 10
456.089123
 20
260.114211
 30
0.0
 11
516.5891229999998
 21
260.114211
 31
0.0
  0
ARC
  5
E07A
330
DF0B
100
AcDbEntity
  8
1
  6
Continuous
100
AcDbCircle
 10
516.5891229999998
 20
257.114211
 30
0.0
 40
3.0
100
AcDbArc
 50
41.810315
 51
90.0
  0
ARC
  5
E07B
330
DF0B
100
AcDbEntity
  8
1
  6
Continuous
100
AcDbCircle
 10
456.089123
 20
254.114211
 30
0.0
 40
6.0
100
AcDbArc
 50
90.0
 51
180.0
  0
ARC
  5
E07C
330
DF0B
100
AcDbEntity
  8
1
  6
Continuous
100
AcDbCircle
 10
516.5891229999998
 20
171.114211
 30
0.0
 40
3.0
100
AcDbArc
 50
270.0
 51
318.189685
  0
LINE
  5
E07D
330
DF0B
100
AcDbEntity
  8
1
  6
Continuous
100
AcDbLine
 10
456.089123
 20
168.114211
 30
0.0
 11
516.5891229999998
 21
168.114211
 31
0.0
  0
ARC
  5
E07E
330
DF0B
100
AcDbEntity
  8
1
  6
Continuous
100
AcDbCircle
 10
456.089123
 20
174.114211
 30
0.0
 40
6.0
100
AcDbArc
 50
180.0
 51
270.0
  0
LINE
  5
E07F
330
DF0B
100
AcDbEntity
  8
1
  6
Continuous
100
AcDbLine
 10
445.212853
 20
174.114211
 30
0.0
 11
445.212853
 21
254.114211
 31
0.0
  0
LINE
  5
E080
330
DF0B
100
AcDbEntity
  8
1
  6
Continuous
100
AcDbLine
 10
447.1536719999998
 20
174.114211
 30
0.0
 11
447.1536719999998
 21
254.114211
 31
0.0
  0
LINE
  5
E081
330
DF0B
100
AcDbEntity
  8
1
  6
Continuous
100
AcDbLine
 10
153.6829139999998
 20
72.022429
 30
0.0
 11
146.2193599999999
 21
71.28394
 31
0.0
  0
LINE
  5
E082
330
DF0B
100
AcDbEntity
  8
1
  6
Continuous
100
AcDbLine
 10
153.485983
 20
74.01271
 30
0.0
 11
146.022429
 21
73.27422099999998
 31
0.0
  0
LINE
  5
E083
330
DF0B
100
AcDbEntity
  8
1
  6
Continuous
100
AcDbLine
 10
146.022429
 20
73.27422099999998
 30
0.0
 11
146.2193599999999
 21
71.28394
 31
0.0
  0
LINE
  5
E084
330
DF0B
100
AcDbEntity
  8
1
  6
Continuous
100
AcDbLine
 10
156.144543
 20
47.143917
 30
0.0
 11
153.6829139999998
 21
72.022429
 31
0.0
  0
LINE
  5
E085
330
DF0B
100
AcDbEntity
  8
1
  6
Continuous
100
AcDbLine
 10
158.134824
 20
47.34084699999999
 30
0.0
 11
155.6731949999999
 21
72.21935899999998
 31
0.0
  0
LINE
  5
E086
330
DF0B
100
AcDbEntity
  8
4
  6
CENTER
100
AcDbLine
 10
163.8313649999998
 20
54.771891
 30
0.0
 11
163.8313649999998
 21
38.655334
 31
0.0
  0
LINE
  5
E087
330
DF0B
100
AcDbEntity
  8
1
  6
Continuous
100
AcDbLine
 10
168.8313649999997
 20
45.4
 30
0.0
 11
158.8313649999998
 21
45.4
 31
0.0
  0
LINE
  5
E088
330
DF0B
100
AcDbEntity
  8
1
  6
Continuous
100
AcDbLine
 10
167.6313649999999
 20
43.6
 30
0.0
 11
160.0313649999999
 21
43.6
 31
0.0
  0
LINE
  5
E089
330
DF0B
100
AcDbEntity
  8
1
  6
Continuous
100
AcDbLine
 10
168.8313649999997
 20
44.59999999999999
 30
0.0
 11
158.8313649999998
 21
44.59999999999999
 31
0.0
  0
ARC
  5
E08A
330
DF0B
100
AcDbEntity
  8
1
  6
Continuous
100
AcDbCircle
 10
163.8313649999998
 20
50.0
 30
0.0
 40
9.0
100
AcDbArc
 50
254.11915
 51
285.88085
  0
LINE
  5
E08B
330
DF0B
100
AcDbEntity
  8
1
  6
Continuous
100
AcDbLine
 10
170.07651
 20
48.522429
 30
0.0
 11
158.134824
 21
47.34084699999999
 31
0.0
  0
LINE
  5
E08C
330
DF0B
100
AcDbEntity
  8
1
  6
Continuous
100
AcDbLine
 10
170.2734399999999
 20
46.53214799999999
 30
0.0
 11
158.3317539999999
 21
45.35056599999999
 31
0.0
  0
LINE
  5
E08D
330
DF0B
100
AcDbEntity
  8
1
  6
Continuous
100
AcDbLine
 10
158.8313649999998
 20
44.59999999999999
 30
0.0
 11
158.8313649999998
 21
45.4
 31
0.0
  0
LINE
  5
E08E
330
DF0B
100
AcDbEntity
  8
1
  6
Continuous
100
AcDbLine
 10
160.0313649999999
 20
43.6
 30
0.0
 11
160.0313649999999
 21
44.59999999999999
 31
0.0
  0
ARC
  5
E08F
330
DF0B
100
AcDbEntity
  8
1
  6
Continuous
100
AcDbCircle
 10
161.724354
 20
42.59388799999999
 30
0.0
 40
1.3
100
AcDbArc
 50
185.0
 51
254.11915
  0
LINE
  5
E090
330
DF0B
100
AcDbEntity
  8
1
  6
Continuous
100
AcDbLine
 10
160.3313649999997
 20
43.6
 30
0.0
 11
160.429301
 21
42.48058499999999
 31
0.0
  0
LINE
  5
E091
330
DF0B
100
AcDbEntity
  8
1
  6
Continuous
100
AcDbLine
 10
161.8313649999998
 20
48.522429
 30
0.0
 11
161.8313649999998
 21
47.70660499999999
 31
0.0
  0
LINE
  5
E092
330
DF0B
100
AcDbEntity
  8
1
  6
Continuous
100
AcDbLine
 10
161.8313649999998
 20
45.69683799999999
 30
0.0
 11
161.8313649999998
 21
45.4
 31
0.0
  0
ARC
  5
E093
330
DF0B
100
AcDbEntity
  8
1
  6
Continuous
100
AcDbCircle
 10
158.134824
 20
47.34084699999999
 30
0.0
 40
2.0
100
AcDbArc
 50
185.6507949999999
 51
275.650795
  0
LINE
  5
E094
330
DF0B
100
AcDbEntity
  8
1
  6
Continuous
100
AcDbLine
 10
168.8313649999997
 20
44.59999999999999
 30
0.0
 11
168.8313649999997
 21
45.4
 31
0.0
  0
LINE
  5
E095
330
DF0B
100
AcDbEntity
  8
1
  6
Continuous
100
AcDbLine
 10
167.6313649999999
 20
43.6
 30
0.0
 11
167.6313649999999
 21
44.59999999999999
 31
0.0
  0
ARC
  5
E096
330
DF0B
100
AcDbEntity
  8
1
  6
Continuous
100
AcDbCircle
 10
165.938375
 20
42.59388799999999
 30
0.0
 40
1.3
100
AcDbArc
 50
285.88085
 51
355.0
  0
LINE
  5
E097
330
DF0B
100
AcDbEntity
  8
1
  6
Continuous
100
AcDbLine
 10
167.3313649999998
 20
43.6
 30
0.0
 11
167.233429
 21
42.48058499999999
 31
0.0
  0
LINE
  5
E098
330
DF0B
100
AcDbEntity
  8
1
  6
Continuous
100
AcDbLine
 10
165.8313649999998
 20
48.522429
 30
0.0
 11
165.8313649999998
 21
48.102389
 31
0.0
  0
LINE
  5
E099
330
DF0B
100
AcDbEntity
  8
1
  6
Continuous
100
AcDbLine
 10
165.8313649999998
 20
46.09262199999998
 30
0.0
 11
165.8313649999998
 21
45.4
 31
0.0
  0
LINE
  5
E09A
330
DF0B
100
AcDbEntity
  8
1
  6
Continuous
100
AcDbLine
 10
170.07651
 20
48.522429
 30
0.0
 11
170.2734399999999
 21
46.53214799999999
 31
0.0
  0
ARC
  5
E09B
330
DF0B
100
AcDbEntity
  8
1
  6
Continuous
100
AcDbCircle
 10
153.6829139999998
 20
72.022429
 30
0.0
 40
2.0
100
AcDbArc
 50
5.650794999999997
 51
95.65079500000001
  0
LINE
  5
E09C
330
DF0B
100
AcDbEntity
  8
1
  6
Continuous
100
AcDbLine
 10
146.022429
 20
176.114211
 30
0.0
 11
146.022429
 21
252.1142109999999
 31
0.0
  0
ARC
  5
E09D
330
DF0B
100
AcDbEntity
  8
1
  6
Continuous
100
AcDbCircle
 10
148.0224289999999
 20
176.114211
 30
0.0
 40
2.0
100
AcDbArc
 50
180.0
 51
270.0
  0
LINE
  5
E09E
330
DF0B
100
AcDbEntity
  8
1
  6
Continuous
100
AcDbLine
 10
153.407061
 20
174.114211
 30
0.0
 11
148.0224289999999
 21
174.114211
 31
0.0
  0
ARC
  5
E09F
330
DF0B
100
AcDbEntity
  8
1
  6
Continuous
100
AcDbCircle
 10
148.0224289999999
 20
252.1142109999999
 30
0.0
 40
2.0
100
AcDbArc
 50
90.0
 51
180.0
  0
LINE
  5
E0A0
330
DF0B
100
AcDbEntity
  8
1
  6
Continuous
100
AcDbLine
 10
153.407061
 20
254.114211
 30
0.0
 11
148.0224289999999
 21
254.114211
 31
0.0
  0
LINE
  5
E0A1
330
DF0B
100
AcDbEntity
  8
1
  6
Continuous
100
AcDbLine
 10
519.5891229999999
 20
259.114211
 30
0.0
 11
519.5891229999999
 21
254.114211
 31
0.0
  0
LINE
  5
E0A2
330
DF0B
100
AcDbEntity
  8
2
  6
Continuous
100
AcDbLine
 10
165.4523649999999
 20
48.522429
 30
0.0
 11
165.4523649999999
 21
48.064888
 31
0.0
  0
LINE
  5
E0A3
330
DF0B
100
AcDbEntity
  8
2
  6
Continuous
100
AcDbLine
 10
162.2103649999999
 20
45.734339
 30
0.0
 11
162.2103649999999
 21
45.4
 31
0.0
  0
LINE
  5
E0A4
330
DF0B
100
AcDbEntity
  8
1
  6
Continuous
100
AcDbLine
 10
163.8313649999998
 20
43.6
 30
0.0
 11
162.8313649999998
 21
44.59999999999999
 31
0.0
  0
LINE
  5
E0A5
330
DF0B
100
AcDbEntity
  8
1
  6
Continuous
100
AcDbLine
 10
164.8313649999998
 20
43.6
 30
0.0
 11
163.8313649999998
 21
44.59999999999999
 31
0.0
  0
LINE
  5
E0A6
330
DF0B
100
AcDbEntity
  8
2
  6
Continuous
100
AcDbLine
 10
165.4523649999999
 20
46.05512199999998
 30
0.0
 11
165.4523649999999
 21
45.4
 31
0.0
  0
LINE
  5
E0A7
330
DF0B
100
AcDbEntity
  8
2
  6
Continuous
100
AcDbLine
 10
162.2103649999999
 20
48.522429
 30
0.0
 11
162.2103649999999
 21
47.744105
 31
0.0
  0
LINE
  5
E0A8
330
DF0B
100
AcDbEntity
  8
1
  6
Continuous
100
AcDbLine
 10
58.022429
 20
254.114211
 30
0.0
 11
29.34084699999999
 21
254.114211
 31
0.0
  0
LINE
  5
E0A9
330
DF0B
100
AcDbEntity
  8
1
  6
Continuous
100
AcDbLine
 10
58.022429
 20
174.114211
 30
0.0
 11
29.34084699999999
 21
174.114211
 31
0.0
  0
LINE
  5
E0AA
330
DF0B
100
AcDbEntity
  8
1
  6
Continuous
100
AcDbLine
 10
57.274221
 20
174.114211
 30
0.0
 11
57.274221
 21
254.114211
 31
0.0
  0
LINE
  5
E0AB
330
DF0B
100
AcDbEntity
  8
1
  6
Continuous
100
AcDbLine
 10
55.28394
 20
174.114211
 30
0.0
 11
55.28394
 21
254.114211
 31
0.0
  0
LINE
  5
E0AC
330
DF0B
100
AcDbEntity
  8
1
  6
Continuous
100
AcDbLine
 10
58.022429
 20
174.114211
 30
0.0
 11
58.022429
 21
254.114211
 31
0.0
  0
LINE
  5
E0AD
330
DF0B
100
AcDbEntity
  8
1
  6
Continuous
100
AcDbLine
 10
29.34084699999999
 20
174.114211
 30
0.0
 11
29.34084699999999
 21
254.114211
 31
0.0
  0
LINE
  5
E0AE
330
DF0B
100
AcDbEntity
  8
1
  6
Continuous
100
AcDbLine
 10
32.52242899999998
 20
259.114211
 30
0.0
 11
32.52242899999998
 21
254.114211
 31
0.0
  0
LINE
  5
E0AF
330
DF0B
100
AcDbEntity
  8
1
  6
Continuous
100
AcDbLine
 10
34.52242899999999
 20
259.114211
 30
0.0
 11
34.52242899999999
 21
254.114211
 31
0.0
  0
LINE
  5
E0B0
330
DF0B
100
AcDbEntity
  8
1
  6
Continuous
100
AcDbLine
 10
32.52242899999998
 20
259.114211
 30
0.0
 11
34.52242899999999
 21
259.114211
 31
0.0
  0
LINE
  5
E0B1
330
DF0B
100
AcDbEntity
  8
1
  6
Continuous
100
AcDbLine
 10
32.52242899999998
 20
169.114211
 30
0.0
 11
34.52242899999999
 21
169.114211
 31
0.0
  0
LINE
  5
E0B2
330
DF0B
100
AcDbEntity
  8
1
  6
Continuous
100
AcDbLine
 10
34.52242899999999
 20
174.114211
 30
0.0
 11
34.52242899999999
 21
169.114211
 31
0.0
  0
LINE
  5
E0B3
330
DF0B
100
AcDbEntity
  8
1
  6
Continuous
100
AcDbLine
 10
32.52242899999998
 20
174.114211
 30
0.0
 11
32.52242899999998
 21
169.114211
 31
0.0
  0
ARC
  5
E0B4
330
DF0B
100
AcDbEntity
  8
1
  6
Continuous
100
AcDbCircle
 10
26.593888
 20
236.2212219999999
 30
0.0
 40
1.3
100
AcDbArc
 50
95.0
 51
164.1191499999998
  0
ARC
  5
E0B5
330
DF0B
100
AcDbEntity
  8
1
  6
Continuous
100
AcDbCircle
 10
34.0
 20
234.1142109999999
 30
0.0
 40
9.0
100
AcDbArc
 50
164.1191499999998
 51
195.88085
  0
LINE
  5
E0B6
330
DF0B
100
AcDbEntity
  8
1
  6
Continuous
100
AcDbLine
 10
27.6
 20
237.914211
 30
0.0
 11
28.6
 21
237.914211
 31
0.0
  0
LINE
  5
E0B7
330
DF0B
100
AcDbEntity
  8
1
  6
Continuous
100
AcDbLine
 10
28.6
 20
239.114211
 30
0.0
 11
29.34084699999999
 21
239.114211
 31
0.0
  0
LINE
  5
E0B8
330
DF0B
100
AcDbEntity
  8
1
  6
Continuous
100
AcDbLine
 10
27.6
 20
237.6142109999999
 30
0.0
 11
26.48058499999999
 21
237.516275
 31
0.0
  0
LINE
  5
E0B9
330
DF0B
100
AcDbEntity
  8
1
  6
Continuous
100
AcDbLine
 10
28.6
 20
229.114211
 30
0.0
 11
28.6
 21
239.114211
 31
0.0
  0
LINE
  5
E0BA
330
DF0B
100
AcDbEntity
  8
1
  6
Continuous
100
AcDbLine
 10
27.6
 20
230.314211
 30
0.0
 11
27.6
 21
237.914211
 31
0.0
  0
LINE
  5
E0BB
330
DF0B
100
AcDbEntity
  8
1
  6
Continuous
100
AcDbLine
 10
27.6
 20
234.1142109999999
 30
0.0
 11
28.6
 21
235.114211
 31
0.0
  0
LINE
  5
E0BC
330
DF0B
100
AcDbEntity
  8
1
  6
Continuous
100
AcDbLine
 10
27.6
 20
233.114211
 30
0.0
 11
28.6
 21
234.1142109999999
 31
0.0
  0
ARC
  5
E0BD
330
DF0B
100
AcDbEntity
  8
1
  6
Continuous
100
AcDbCircle
 10
26.593888
 20
232.007201
 30
0.0
 40
1.3
100
AcDbArc
 50
195.88085
 51
265.0
  0
LINE
  5
E0BE
330
DF0B
100
AcDbEntity
  8
1
  6
Continuous
100
AcDbLine
 10
27.6
 20
230.6142109999999
 30
0.0
 11
26.48058499999999
 21
230.7121469999999
 31
0.0
  0
LINE
  5
E0BF
330
DF0B
100
AcDbEntity
  8
1
  6
Continuous
100
AcDbLine
 10
27.6
 20
230.314211
 30
0.0
 11
28.6
 21
230.314211
 31
0.0
  0
LINE
  5
E0C0
330
DF0B
100
AcDbEntity
  8
1
  6
Continuous
100
AcDbLine
 10
28.6
 20
229.114211
 30
0.0
 11
29.34084699999999
 21
229.114211
 31
0.0
  0
ARC
  5
E0C1
330
DF0B
100
AcDbEntity
  8
1
  6
Continuous
100
AcDbCircle
 10
26.593888
 20
196.2212219999999
 30
0.0
 40
1.3
100
AcDbArc
 50
95.0
 51
164.1191499999998
  0
ARC
  5
E0C2
330
DF0B
100
AcDbEntity
  8
1
  6
Continuous
100
AcDbCircle
 10
26.593888
 20
192.007201
 30
0.0
 40
1.3
100
AcDbArc
 50
195.88085
 51
265.0
  0
ARC
  5
E0C3
330
DF0B
100
AcDbEntity
  8
1
  6
Continuous
100
AcDbCircle
 10
34.0
 20
194.114211
 30
0.0
 40
9.0
100
AcDbArc
 50
164.1191499999998
 51
195.88085
  0
LINE
  5
E0C4
330
DF0B
100
AcDbEntity
  8
1
  6
Continuous
100
AcDbLine
 10
28.6
 20
189.114211
 30
0.0
 11
29.34084699999999
 21
189.114211
 31
0.0
  0
LINE
  5
E0C5
330
DF0B
100
AcDbEntity
  8
1
  6
Continuous
100
AcDbLine
 10
28.6
 20
199.114211
 30
0.0
 11
29.34084699999999
 21
199.114211
 31
0.0
  0
LINE
  5
E0C6
330
DF0B
100
AcDbEntity
  8
1
  6
Continuous
100
AcDbLine
 10
27.6
 20
197.9142109999999
 30
0.0
 11
28.6
 21
197.9142109999999
 31
0.0
  0
LINE
  5
E0C7
330
DF0B
100
AcDbEntity
  8
1
  6
Continuous
100
AcDbLine
 10
27.6
 20
197.6142109999999
 30
0.0
 11
26.48058499999999
 21
197.516275
 31
0.0
  0
LINE
  5
E0C8
330
DF0B
100
AcDbEntity
  8
1
  6
Continuous
100
AcDbLine
 10
28.6
 20
189.114211
 30
0.0
 11
28.6
 21
199.114211
 31
0.0
  0
LINE
  5
E0C9
330
DF0B
100
AcDbEntity
  8
1
  6
Continuous
100
AcDbLine
 10
27.6
 20
190.314211
 30
0.0
 11
27.6
 21
197.9142109999999
 31
0.0
  0
LINE
  5
E0CA
330
DF0B
100
AcDbEntity
  8
1
  6
Continuous
100
AcDbLine
 10
27.6
 20
194.114211
 30
0.0
 11
28.6
 21
195.114211
 31
0.0
  0
LINE
  5
E0CB
330
DF0B
100
AcDbEntity
  8
1
  6
Continuous
100
AcDbLine
 10
27.6
 20
193.114211
 30
0.0
 11
28.6
 21
194.114211
 31
0.0
  0
LINE
  5
E0CC
330
DF0B
100
AcDbEntity
  8
1
  6
Continuous
100
AcDbLine
 10
27.6
 20
190.614211
 30
0.0
 11
26.48058499999999
 21
190.7121469999999
 31
0.0
  0
LINE
  5
E0CD
330
DF0B
100
AcDbEntity
  8
1
  6
Continuous
100
AcDbLine
 10
27.6
 20
190.314211
 30
0.0
 11
28.6
 21
190.314211
 31
0.0
  0
LINE
  5
E0CE
330
DF0B
100
AcDbEntity
  8
1
  6
Continuous
100
AcDbLine
 10
354.3694529999998
 20
174.114211
 30
0.0
 11
357.551035
 21
174.114211
 31
0.0
  0
LINE
  5
E0CF
330
DF0B
100
AcDbEntity
  8
1
  6
Continuous
100
AcDbLine
 10
354.3694529999998
 20
254.114211
 30
0.0
 11
357.551035
 21
254.114211
 31
0.0
  0
LINE
  5
E0D0
330
DF0B
100
AcDbEntity
  8
4
  6
CENTER
100
AcDbLine
 10
348.060838
 20
234.1142109999999
 30
0.0
 11
364.1773950000001
 21
234.1142109999999
 31
0.0
  0
ARC
  5
E0D1
330
DF0B
100
AcDbEntity
  8
1
  6
Continuous
100
AcDbCircle
 10
360.2388409999999
 20
236.2212219999999
 30
0.0
 40
1.3
100
AcDbArc
 50
15.88085
 51
85.0
  0
ARC
  5
E0D2
330
DF0B
100
AcDbEntity
  8
1
  6
Continuous
100
AcDbCircle
 10
360.2388409999999
 20
232.007201
 30
0.0
 40
1.3
100
AcDbArc
 50
275.0
 51
344.1191499999998
  0
ARC
  5
E0D3
330
DF0B
100
AcDbEntity
  8
1
  6
Continuous
100
AcDbCircle
 10
352.832729
 20
234.1142109999999
 30
0.0
 40
9.0
100
AcDbArc
 50
344.1191499999998
 51
15.88085
  0
LINE
  5
E0D4
330
DF0B
100
AcDbEntity
  8
1
  6
Continuous
100
AcDbLine
 10
358.232729
 20
229.114211
 30
0.0
 11
357.4918819999999
 21
229.114211
 31
0.0
  0
LINE
  5
E0D5
330
DF0B
100
AcDbEntity
  8
1
  6
Continuous
100
AcDbLine
 10
358.232729
 20
239.114211
 30
0.0
 11
357.4918819999999
 21
239.114211
 31
0.0
  0
LINE
  5
E0D6
330
DF0B
100
AcDbEntity
  8
1
  6
Continuous
100
AcDbLine
 10
359.232729
 20
237.914211
 30
0.0
 11
358.232729
 21
237.914211
 31
0.0
  0
LINE
  5
E0D7
330
DF0B
100
AcDbEntity
  8
1
  6
Continuous
100
AcDbLine
 10
359.232729
 20
237.6142109999999
 30
0.0
 11
360.352144
 21
237.516275
 31
0.0
  0
LINE
  5
E0D8
330
DF0B
100
AcDbEntity
  8
1
  6
Continuous
100
AcDbLine
 10
358.232729
 20
229.114211
 30
0.0
 11
358.232729
 21
239.114211
 31
0.0
  0
LINE
  5
E0D9
330
DF0B
100
AcDbEntity
  8
1
  6
Continuous
100
AcDbLine
 10
359.232729
 20
230.314211
 30
0.0
 11
359.232729
 21
237.914211
 31
0.0
  0
LINE
  5
E0DA
330
DF0B
100
AcDbEntity
  8
1
  6
Continuous
100
AcDbLine
 10
359.232729
 20
234.1142109999999
 30
0.0
 11
358.232729
 21
233.114211
 31
0.0
  0
LINE
  5
E0DB
330
DF0B
100
AcDbEntity
  8
1
  6
Continuous
100
AcDbLine
 10
359.232729
 20
235.114211
 30
0.0
 11
358.232729
 21
234.1142109999999
 31
0.0
  0
LINE
  5
E0DC
330
DF0B
100
AcDbEntity
  8
1
  6
Continuous
100
AcDbLine
 10
359.232729
 20
230.6142109999999
 30
0.0
 11
360.352144
 21
230.7121469999999
 31
0.0
  0
LINE
  5
E0DD
330
DF0B
100
AcDbEntity
  8
1
  6
Continuous
100
AcDbLine
 10
359.232729
 20
230.314211
 30
0.0
 11
358.232729
 21
230.314211
 31
0.0
  0
LINE
  5
E0DE
330
DF0B
100
AcDbEntity
  8
1
  6
Continuous
100
AcDbLine
 10
356.359734
 20
174.114211
 30
0.0
 11
356.359734
 21
254.114211
 31
0.0
  0
LINE
  5
E0DF
330
DF0B
100
AcDbEntity
  8
1
  6
Continuous
100
AcDbLine
 10
357.551035
 20
174.114211
 30
0.0
 11
357.551035
 21
189.114211
 31
0.0
  0
LINE
  5
E0E0
330
DF0B
100
AcDbEntity
  8
1
  6
Continuous
100
AcDbLine
 10
357.551035
 20
239.114211
 30
0.0
 11
357.551035
 21
254.114211
 31
0.0
  0
LINE
  5
E0E1
330
DF0B
100
AcDbEntity
  8
1
  6
Continuous
100
AcDbLine
 10
357.4918819999999
 20
239.114211
 30
0.0
 11
357.4918819999999
 21
229.114211
 31
0.0
  0
LINE
  5
E0E2
330
DF0B
100
AcDbEntity
  8
4
  6
CENTER
100
AcDbLine
 10
357.3694529999999
 20
189.114211
 30
0.0
 11
344.1941529999998
 21
189.114211
 31
0.0
  0
ARC
  5
E0E3
330
DF0B
100
AcDbEntity
  8
1
  6
Continuous
100
AcDbCircle
 10
360.2388409999999
 20
192.007201
 30
0.0
 40
1.3
100
AcDbArc
 50
275.0
 51
344.1191499999998
  0
ARC
  5
E0E4
330
DF0B
100
AcDbEntity
  8
1
  6
Continuous
100
AcDbCircle
 10
360.2388409999999
 20
196.2212219999999
 30
0.0
 40
1.3
100
AcDbArc
 50
15.88085
 51
85.0
  0
LINE
  5
E0E5
330
DF0B
100
AcDbEntity
  8
1
  6
Continuous
100
AcDbLine
 10
357.4918819999999
 20
199.114211
 30
0.0
 11
357.4918819999999
 21
189.114211
 31
0.0
  0
LINE
  5
E0E6
330
DF0B
100
AcDbEntity
  8
1
  6
Continuous
100
AcDbLine
 10
359.232729
 20
190.314211
 30
0.0
 11
358.232729
 21
190.314211
 31
0.0
  0
LINE
  5
E0E7
330
DF0B
100
AcDbEntity
  8
1
  6
Continuous
100
AcDbLine
 10
359.232729
 20
195.114211
 30
0.0
 11
358.232729
 21
194.114211
 31
0.0
  0
LINE
  5
E0E8
330
DF0B
100
AcDbEntity
  8
1
  6
Continuous
100
AcDbLine
 10
359.232729
 20
194.114211
 30
0.0
 11
358.232729
 21
193.114211
 31
0.0
  0
LINE
  5
E0E9
330
DF0B
100
AcDbEntity
  8
1
  6
Continuous
100
AcDbLine
 10
359.232729
 20
190.314211
 30
0.0
 11
359.232729
 21
197.9142109999999
 31
0.0
  0
LINE
  5
E0EA
330
DF0B
100
AcDbEntity
  8
1
  6
Continuous
100
AcDbLine
 10
358.232729
 20
189.114211
 30
0.0
 11
358.232729
 21
199.114211
 31
0.0
  0
LINE
  5
E0EB
330
DF0B
100
AcDbEntity
  8
1
  6
Continuous
100
AcDbLine
 10
359.232729
 20
197.9142109999999
 30
0.0
 11
358.232729
 21
197.9142109999999
 31
0.0
  0
LINE
  5
E0EC
330
DF0B
100
AcDbEntity
  8
1
  6
Continuous
100
AcDbLine
 10
358.232729
 20
199.114211
 30
0.0
 11
357.4918819999999
 21
199.114211
 31
0.0
  0
LINE
  5
E0ED
330
DF0B
100
AcDbEntity
  8
1
  6
Continuous
100
AcDbLine
 10
358.232729
 20
189.114211
 30
0.0
 11
357.4918819999999
 21
189.114211
 31
0.0
  0
LINE
  5
E0EE
330
DF0B
100
AcDbEntity
  8
1
  6
Continuous
100
AcDbLine
 10
359.232729
 20
190.614211
 30
0.0
 11
360.352144
 21
190.7121469999999
 31
0.0
  0
LINE
  5
E0EF
330
DF0B
100
AcDbEntity
  8
1
  6
Continuous
100
AcDbLine
 10
359.232729
 20
197.6142109999999
 30
0.0
 11
360.352144
 21
197.516275
 31
0.0
  0
ARC
  5
E0F0
330
DF0B
100
AcDbEntity
  8
1
  6
Continuous
100
AcDbCircle
 10
352.832729
 20
194.114211
 30
0.0
 40
9.0
100
AcDbArc
 50
344.1191499999998
 51
15.88085
  0
LINE
  5
E0F1
330
DF0B
100
AcDbEntity
  8
4
  6
CENTER
100
AcDbLine
 10
348.060838
 20
194.114211
 30
0.0
 11
364.1773950000001
 21
194.114211
 31
0.0
  0
LINE
  5
E0F2
330
DF0B
100
AcDbEntity
  8
1
  6
Continuous
100
AcDbLine
 10
357.551035
 20
199.114211
 30
0.0
 11
357.551035
 21
229.114211
 31
0.0
  0
LINE
  5
E0F3
330
DF0B
100
AcDbEntity
  8
4
  6
CENTER
100
AcDbLine
 10
38.831044
 20
194.114211
 30
0.0
 11
22.714487
 21
194.114211
 31
0.0
  0
LINE
  5
E0F4
330
DF0B
100
AcDbEntity
  8
4
  6
CENTER
100
AcDbLine
 10
29.52242899999999
 20
189.114211
 30
0.0
 11
42.69772899999997
 21
189.114211
 31
0.0
  0
LINE
  5
E0F5
330
DF0B
100
AcDbEntity
  8
4
  6
CENTER
100
AcDbLine
 10
29.52242899999999
 20
196.614211
 30
0.0
 11
39.675173
 21
196.614211
 31
0.0
  0
LINE
  5
E0F6
330
DF0B
100
AcDbEntity
  8
4
  6
CENTER
100
AcDbLine
 10
29.52242899999999
 20
184.114211
 30
0.0
 11
35.52242899999999
 21
184.114211
 31
0.0
  0
LINE
  5
E0F7
330
DF0B
100
AcDbEntity
  8
4
  6
CENTER
100
AcDbLine
 10
38.831044
 20
234.1142109999999
 30
0.0
 11
22.714487
 21
234.1142109999999
 31
0.0
  0
LINE
  5
E0F8
330
DF0B
100
AcDbEntity
  8
4
  6
CENTER
100
AcDbLine
 10
29.52242899999999
 20
239.114211
 30
0.0
 11
42.69772899999997
 21
239.114211
 31
0.0
  0
LINE
  5
E0F9
330
DF0B
100
AcDbEntity
  8
4
  6
CENTER
100
AcDbLine
 10
29.52242899999999
 20
244.1142109999999
 30
0.0
 11
35.52242899999999
 21
244.1142109999999
 31
0.0
  0
LINE
  5
E0FA
330
DF0B
100
AcDbEntity
  8
4
  6
CENTER
100
AcDbLine
 10
29.52242899999999
 20
231.6142109999999
 30
0.0
 11
39.675173
 21
231.6142109999999
 31
0.0
  0
LINE
  5
E0FB
330
DF0B
100
AcDbEntity
  8
1
  6
Continuous
100
AcDbLine
 10
532.3980589999997
 20
176.114211
 30
0.0
 11
532.3980589999997
 21
252.1142109999999
 31
0.0
  0
LINE
  5
E0FC
330
DF0B
100
AcDbEntity
  8
1
  6
Continuous
100
AcDbLine
 10
530.398059
 20
254.114211
 30
0.0
 11
510.1470479999998
 21
254.114211
 31
0.0
  0
LINE
  5
E0FD
330
DF0B
100
AcDbEntity
  8
1
  6
Continuous
100
AcDbLine
 10
530.398059
 20
174.114211
 30
0.0
 11
510.1470479999998
 21
174.114211
 31
0.0
  0
ARC
  5
E0FE
330
DF0B
100
AcDbEntity
  8
1
  6
Continuous
100
AcDbCircle
 10
530.398059
 20
252.1142109999999
 30
0.0
 40
2.0
100
AcDbArc
 50
0.0
 51
90.0
  0
ARC
  5
E0FF
330
DF0B
100
AcDbEntity
  8
1
  6
Continuous
100
AcDbCircle
 10
530.398059
 20
176.114211
 30
0.0
 40
2.0
100
AcDbArc
 50
270.0
 51
0.0
  0
ARC
  5
E100
330
DF0B
100
AcDbEntity
  8
1
  6
Continuous
100
AcDbCircle
 10
18.089123
 20
214.114211
 30
0.0
 40
508.4999999999998
100
AcDbArc
 50
354.992968
 51
355.488296
  0
ARC
  5
E101
330
DF0B
100
AcDbEntity
  8
1
  6
Continuous
100
AcDbCircle
 10
18.089123
 20
214.114211
 30
0.0
 40
508.4999999999998
100
AcDbArc
 50
4.511703999999999
 51
5.007031999999997
  0
LINE
  5
E102
330
DF0B
100
AcDbEntity
  8
1
  6
Continuous
100
AcDbLine
 10
508.147048
 20
176.114211
 30
0.0
 11
508.147048
 21
252.1142109999999
 31
0.0
  0
ARC
  5
E103
330
DF0B
100
AcDbEntity
  8
1
  6
Continuous
100
AcDbCircle
 10
510.1470479999998
 20
252.1142109999999
 30
0.0
 40
2.0
100
AcDbArc
 50
90.0
 51
180.0
  0
ARC
  5
E104
330
DF0B
100
AcDbEntity
  8
1
  6
Continuous
100
AcDbCircle
 10
510.1470479999998
 20
176.114211
 30
0.0
 40
2.0
100
AcDbArc
 50
180.0
 51
270.0
  0
LINE
  5
E105
330
DF0B
100
AcDbEntity
  8
1
  6
Continuous
100
AcDbLine
 10
519.5891229999999
 20
174.114211
 30
0.0
 11
519.5891229999999
 21
169.114211
 31
0.0
  0
LINE
  5
E106
330
DF0B
100
AcDbEntity
  8
1
  6
Continuous
100
AcDbLine
 10
524.7375739999998
 20
174.114211
 30
0.0
 11
524.7375739999998
 21
254.114211
 31
0.0
  0
LINE
  5
E107
330
DF0B
100
AcDbEntity
  8
1
  6
Continuous
100
AcDbLine
 10
522.079015
 20
174.114211
 30
0.0
 11
522.079015
 21
254.114211
 31
0.0
  0
ARC
  5
E108
330
DF0B
100
AcDbEntity
  8
1
  6
Continuous
100
AcDbCircle
 10
514.5881229999996
 20
194.114211
 30
0.0
 40
2.1
100
AcDbArc
 50
213.463
 51
236.5369999999999
  0
ARC
  5
E109
330
DF0B
100
AcDbEntity
  8
1
  6
Continuous
100
AcDbCircle
 10
514.5881229999996
 20
194.114211
 30
0.0
 40
2.1
100
AcDbArc
 50
123.4629999999998
 51
146.537
  0
LINE
  5
E10A
330
DF0B
100
AcDbEntity
  8
1
  6
Continuous
100
AcDbLine
 10
513.44756
 20
193.5888309999999
 30
0.0
 11
512.83662
 21
192.956677
 31
0.0
  0
LINE
  5
E10B
330
DF0B
100
AcDbEntity
  8
1
  6
Continuous
100
AcDbLine
 10
513.44756
 20
194.6395909999999
 30
0.0
 11
512.83662
 21
195.2717449999999
 31
0.0
  0
CIRCLE
  5
E10C
330
DF0B
100
AcDbEntity
  8
1
  6
Continuous
100
AcDbCircle
 10
514.5891230000001
 20
194.114211
 30
0.0
 40
3.799999999999998
  0
CIRCLE
  5
E10D
330
DF0B
100
AcDbEntity
  8
1
  6
Continuous
100
AcDbCircle
 10
514.5891230000001
 20
194.114211
 30
0.0
 40
3.5
  0
CIRCLE
  5
E10E
330
DF0B
100
AcDbEntity
  8
1
  6
Continuous
100
AcDbCircle
 10
514.5891230000001
 20
194.114211
 30
0.0
 40
5.0
  0
LINE
  5
E10F
330
DF0B
100
AcDbEntity
  8
1
  6
Continuous
100
AcDbLine
 10
515.113503
 20
192.973648
 30
0.0
 11
515.747071
 21
192.3627079999999
 31
0.0
  0
LINE
  5
E110
330
DF0B
100
AcDbEntity
  8
1
  6
Continuous
100
AcDbLine
 10
515.1142099999998
 20
195.255481
 30
0.0
 11
515.7463639999998
 21
195.866422
 31
0.0
  0
ARC
  5
E111
330
DF0B
100
AcDbEntity
  8
1
  6
Continuous
100
AcDbCircle
 10
514.5881229999996
 20
194.114211
 30
0.0
 40
2.1
100
AcDbArc
 50
303.4629999999999
 51
326.5369999999998
  0
ARC
  5
E112
330
DF0B
100
AcDbEntity
  8
1
  6
Continuous
100
AcDbCircle
 10
514.5881229999996
 20
194.114211
 30
0.0
 40
2.1
100
AcDbArc
 50
33.463
 51
56.537
  0
LINE
  5
E113
330
DF0B
100
AcDbEntity
  8
1
  6
Continuous
100
AcDbLine
 10
515.7293929999998
 20
193.5895379999998
 30
0.0
 11
516.340334
 21
192.95597
 31
0.0
  0
LINE
  5
E114
330
DF0B
100
AcDbEntity
  8
1
  6
Continuous
100
AcDbLine
 10
515.5384749999998
 20
194.114211
 30
0.0
 11
515.7293929999998
 21
193.5895379999998
 31
0.0
  0
LINE
  5
E115
330
DF0B
100
AcDbEntity
  8
1
  6
Continuous
100
AcDbLine
 10
515.7293929999998
 20
194.640298
 30
0.0
 11
516.340334
 21
195.2724519999999
 31
0.0
  0
LINE
  5
E116
330
DF0B
100
AcDbEntity
  8
1
  6
Continuous
100
AcDbLine
 10
515.5384749999998
 20
194.114211
 30
0.0
 11
515.7293929999998
 21
194.640298
 31
0.0
  0
LINE
  5
E117
330
DF0B
100
AcDbEntity
  8
1
  6
Continuous
100
AcDbLine
 10
513.638479
 20
194.114918
 30
0.0
 11
513.44756
 21
193.5888309999999
 31
0.0
  0
LINE
  5
E118
330
DF0B
100
AcDbEntity
  8
1
  6
Continuous
100
AcDbLine
 10
514.0627429999998
 20
192.973648
 30
0.0
 11
513.4305889999999
 21
192.3627079999999
 31
0.0
  0
LINE
  5
E119
330
DF0B
100
AcDbEntity
  8
1
  6
Continuous
100
AcDbLine
 10
514.58883
 20
193.164567
 30
0.0
 11
514.0627429999998
 21
192.973648
 31
0.0
  0
LINE
  5
E11A
330
DF0B
100
AcDbEntity
  8
1
  6
Continuous
100
AcDbLine
 10
514.5881229999996
 20
195.0645629999999
 30
0.0
 11
514.0634499999999
 21
195.255481
 31
0.0
  0
LINE
  5
E11B
330
DF0B
100
AcDbEntity
  8
1
  6
Continuous
100
AcDbLine
 10
514.0634499999999
 20
195.255481
 30
0.0
 11
513.4305889999999
 21
195.8657139999999
 31
0.0
  0
LINE
  5
E11C
330
DF0B
100
AcDbEntity
  8
1
  6
Continuous
100
AcDbLine
 10
513.638479
 20
194.114918
 30
0.0
 11
513.44756
 21
194.6395909999999
 31
0.0
  0
LINE
  5
E11D
330
DF0B
100
AcDbEntity
  8
1
  6
Continuous
100
AcDbLine
 10
514.58883
 20
193.164567
 30
0.0
 11
515.113503
 21
192.973648
 31
0.0
  0
LINE
  5
E11E
330
DF0B
100
AcDbEntity
  8
1
  6
Continuous
100
AcDbLine
 10
514.5881229999996
 20
195.0645629999999
 30
0.0
 11
515.1142099999998
 21
195.255481
 31
0.0
  0
LINE
  5
E11F
330
DF0B
100
AcDbEntity
  8
4
  6
CENTER
100
AcDbLine
 10
522.5891230000001
 20
194.114211
 30
0.0
 11
506.589123
 21
194.114211
 31
0.0
  0
LINE
  5
E120
330
DF0B
100
AcDbEntity
  8
4
  6
CENTER
100
AcDbLine
 10
514.5891230000001
 20
186.114211
 30
0.0
 11
514.5891230000001
 21
202.1142109999999
 31
0.0
  0
LINE
  5
E121
330
DF0B
100
AcDbEntity
  8
4
  6
CENTER
100
AcDbLine
 10
514.5891230000001
 20
226.1142109999999
 30
0.0
 11
514.5891230000001
 21
242.1142109999999
 31
0.0
  0
LINE
  5
E122
330
DF0B
100
AcDbEntity
  8
4
  6
CENTER
100
AcDbLine
 10
522.5891230000001
 20
234.1142109999999
 30
0.0
 11
506.589123
 21
234.1142109999999
 31
0.0
  0
LINE
  5
E123
330
DF0B
100
AcDbEntity
  8
1
  6
Continuous
100
AcDbLine
 10
514.5881229999996
 20
235.0645629999999
 30
0.0
 11
515.1142099999998
 21
235.2554809999999
 31
0.0
  0
LINE
  5
E124
330
DF0B
100
AcDbEntity
  8
1
  6
Continuous
100
AcDbLine
 10
514.58883
 20
233.1645669999999
 30
0.0
 11
515.113503
 21
232.973648
 31
0.0
  0
LINE
  5
E125
330
DF0B
100
AcDbEntity
  8
1
  6
Continuous
100
AcDbLine
 10
513.638479
 20
234.1149179999999
 30
0.0
 11
513.44756
 21
234.639591
 31
0.0
  0
LINE
  5
E126
330
DF0B
100
AcDbEntity
  8
1
  6
Continuous
100
AcDbLine
 10
514.0634499999999
 20
235.2554809999999
 30
0.0
 11
513.4305889999999
 21
235.865714
 31
0.0
  0
LINE
  5
E127
330
DF0B
100
AcDbEntity
  8
1
  6
Continuous
100
AcDbLine
 10
514.5881229999996
 20
235.0645629999999
 30
0.0
 11
514.0634499999999
 21
235.2554809999999
 31
0.0
  0
LINE
  5
E128
330
DF0B
100
AcDbEntity
  8
1
  6
Continuous
100
AcDbLine
 10
514.58883
 20
233.1645669999999
 30
0.0
 11
514.0627429999998
 21
232.973648
 31
0.0
  0
LINE
  5
E129
330
DF0B
100
AcDbEntity
  8
1
  6
Continuous
100
AcDbLine
 10
514.0627429999998
 20
232.973648
 30
0.0
 11
513.4305889999999
 21
232.362708
 31
0.0
  0
LINE
  5
E12A
330
DF0B
100
AcDbEntity
  8
1
  6
Continuous
100
AcDbLine
 10
513.638479
 20
234.1149179999999
 30
0.0
 11
513.44756
 21
233.588831
 31
0.0
  0
LINE
  5
E12B
330
DF0B
100
AcDbEntity
  8
1
  6
Continuous
100
AcDbLine
 10
515.5384749999998
 20
234.1142109999999
 30
0.0
 11
515.7293929999998
 21
234.640298
 31
0.0
  0
LINE
  5
E12C
330
DF0B
100
AcDbEntity
  8
1
  6
Continuous
100
AcDbLine
 10
515.7293929999998
 20
234.640298
 30
0.0
 11
516.340334
 21
235.2724519999999
 31
0.0
  0
LINE
  5
E12D
330
DF0B
100
AcDbEntity
  8
1
  6
Continuous
100
AcDbLine
 10
515.5384749999998
 20
234.1142109999999
 30
0.0
 11
515.7293929999998
 21
233.5895379999997
 31
0.0
  0
LINE
  5
E12E
330
DF0B
100
AcDbEntity
  8
1
  6
Continuous
100
AcDbLine
 10
515.7293929999998
 20
233.5895379999997
 30
0.0
 11
516.340334
 21
232.95597
 31
0.0
  0
ARC
  5
E12F
330
DF0B
100
AcDbEntity
  8
1
  6
Continuous
100
AcDbCircle
 10
514.5881229999996
 20
234.1142109999999
 30
0.0
 40
2.1
100
AcDbArc
 50
33.463
 51
56.537
  0
ARC
  5
E130
330
DF0B
100
AcDbEntity
  8
1
  6
Continuous
100
AcDbCircle
 10
514.5881229999996
 20
234.1142109999999
 30
0.0
 40
2.1
100
AcDbArc
 50
303.4629999999999
 51
326.5369999999998
  0
LINE
  5
E131
330
DF0B
100
AcDbEntity
  8
1
  6
Continuous
100
AcDbLine
 10
515.1142099999998
 20
235.2554809999999
 30
0.0
 11
515.7463639999998
 21
235.866422
 31
0.0
  0
LINE
  5
E132
330
DF0B
100
AcDbEntity
  8
1
  6
Continuous
100
AcDbLine
 10
515.113503
 20
232.973648
 30
0.0
 11
515.747071
 21
232.362708
 31
0.0
  0
CIRCLE
  5
E133
330
DF0B
100
AcDbEntity
  8
1
  6
Continuous
100
AcDbCircle
 10
514.5891230000001
 20
234.1142109999999
 30
0.0
 40
5.0
  0
CIRCLE
  5
E134
330
DF0B
100
AcDbEntity
  8
1
  6
Continuous
100
AcDbCircle
 10
514.5891230000001
 20
234.1142109999999
 30
0.0
 40
3.5
  0
CIRCLE
  5
E135
330
DF0B
100
AcDbEntity
  8
1
  6
Continuous
100
AcDbCircle
 10
514.5891230000001
 20
234.1142109999999
 30
0.0
 40
3.799999999999998
  0
LINE
  5
E136
330
DF0B
100
AcDbEntity
  8
1
  6
Continuous
100
AcDbLine
 10
513.44756
 20
234.639591
 30
0.0
 11
512.83662
 21
235.271745
 31
0.0
  0
LINE
  5
E137
330
DF0B
100
AcDbEntity
  8
1
  6
Continuous
100
AcDbLine
 10
513.44756
 20
233.588831
 30
0.0
 11
512.83662
 21
232.956677
 31
0.0
  0
ARC
  5
E138
330
DF0B
100
AcDbEntity
  8
1
  6
Continuous
100
AcDbCircle
 10
514.5881229999996
 20
234.1142109999999
 30
0.0
 40
2.1
100
AcDbArc
 50
123.4629999999998
 51
146.537
  0
ARC
  5
E139
330
DF0B
100
AcDbEntity
  8
1
  6
Continuous
100
AcDbCircle
 10
514.5881229999996
 20
234.1142109999999
 30
0.0
 40
2.1
100
AcDbArc
 50
213.463
 51
236.5369999999999
  0
LINE
  5
E13A
330
DF0B
100
AcDbEntity
  8
1
  6
Continuous
100
AcDbLine
 10
183.8313649999999
 20
58.522429
 30
0.0
 11
183.8313649999999
 21
50.52242899999999
 31
0.0
  0
LINE
  5
E13B
330
DF0B
100
AcDbEntity
  8
1
  6
Continuous
100
AcDbLine
 10
189.3313649999998
 20
367.5059929999999
 30
0.0
 11
195.932385
 21
371.0059929999999
 31
0.0
  0
LINE
  5
E13C
330
DF0B
100
AcDbEntity
  8
1
  6
Continuous
100
AcDbLine
 10
183.8313649999999
 20
369.7059929999999
 30
0.0
 11
193.4805779999997
 21
369.7059929999999
 31
0.0
  0
LINE
  5
E13D
330
DF0B
100
AcDbEntity
  8
1
  6
Continuous
100
AcDbLine
 10
183.8313649999999
 20
375.2059929999999
 30
0.0
 11
205.8313649999997
 21
375.2059929999999
 31
0.0
  0
LINE
  5
E13E
330
DF0B
100
AcDbEntity
  8
1
  6
Continuous
100
AcDbLine
 10
158.8313649999998
 20
367.5059929999999
 30
0.0
 11
211.3313649999998
 21
367.5059929999999
 31
0.0
  0
ARC
  5
E13F
330
DF0B
100
AcDbEntity
  8
1
  6
Continuous
100
AcDbCircle
 10
193.3313649999998
 20
921.039326
 30
0.0
 40
574.833333
100
AcDbArc
 50
265.9528149999998
 51
274.047185
  0
LINE
  5
E140
330
DF0B
100
AcDbEntity
  8
1
  6
Continuous
100
AcDbLine
 10
151.8313649999998
 20
350.705993
 30
0.0
 11
234.8313649999997
 21
350.705993
 31
0.0
  0
LINE
  5
E141
330
DF0B
100
AcDbEntity
  8
1
  6
Continuous
100
AcDbLine
 10
183.8313649999999
 20
370.2059929999998
 30
0.0
 11
194.423581
 21
370.2059929999998
 31
0.0
  0
LINE
  5
E142
330
DF0B
100
AcDbEntity
  8
1
  6
Continuous
100
AcDbLine
 10
158.8313649999998
 20
377.705993
 30
0.0
 11
219.3313649999999
 21
377.705993
 31
0.0
  0
LINE
  5
E143
330
DF0B
100
AcDbEntity
  8
1
  6
Continuous
100
AcDbLine
 10
158.8313649999998
 20
379.7059929999999
 30
0.0
 11
219.3313649999999
 21
379.7059929999999
 31
0.0
  0
LINE
  5
E144
330
DF0B
100
AcDbEntity
  8
1
  6
Continuous
100
AcDbLine
 10
151.8313649999998
 20
352.705993
 30
0.0
 11
234.8313649999997
 21
352.705993
 31
0.0
  0
LINE
  5
E145
330
DF0B
100
AcDbEntity
  8
1
  6
Continuous
100
AcDbLine
 10
162.8313649999998
 20
384.628422
 30
0.0
 11
163.8313649999998
 21
383.6284219999998
 31
0.0
  0
LINE
  5
E146
330
DF0B
100
AcDbEntity
  8
1
  6
Continuous
100
AcDbLine
 10
163.8313649999998
 20
384.628422
 30
0.0
 11
164.8313649999998
 21
383.6284219999998
 31
0.0
  0
LINE
  5
E147
330
DF0B
100
AcDbEntity
  8
1
  6
Continuous
100
AcDbLine
 10
167.6313649999999
 20
384.628422
 30
0.0
 11
167.6313649999999
 21
383.6284219999998
 31
0.0
  0
LINE
  5
E148
330
DF0B
100
AcDbEntity
  8
1
  6
Continuous
100
AcDbLine
 10
160.0313649999999
 20
384.628422
 30
0.0
 11
160.0313649999999
 21
383.6284219999998
 31
0.0
  0
LINE
  5
E149
330
DF0B
100
AcDbEntity
  8
4
  6
CENTER
100
AcDbLine
 10
163.8313649999998
 20
373.4565309999999
 30
0.0
 11
163.8313649999998
 21
389.5730879999999
 31
0.0
  0
LINE
  5
E14A
330
DF0B
100
AcDbEntity
  8
1
  6
Continuous
100
AcDbLine
 10
167.3313649999998
 20
384.628422
 30
0.0
 11
167.233429
 21
385.7478369999999
 31
0.0
  0
ARC
  5
E14B
330
DF0B
100
AcDbEntity
  8
1
  6
Continuous
100
AcDbCircle
 10
165.938375
 20
385.6345339999998
 30
0.0
 40
1.3
100
AcDbArc
 50
5.0
 51
74.11915
  0
LINE
  5
E14C
330
DF0B
100
AcDbEntity
  8
1
  6
Continuous
100
AcDbLine
 10
160.3313649999997
 20
384.628422
 30
0.0
 11
160.429301
 21
385.7478369999999
 31
0.0
  0
ARC
  5
E14D
330
DF0B
100
AcDbEntity
  8
1
  6
Continuous
100
AcDbCircle
 10
161.724354
 20
385.6345339999998
 30
0.0
 40
1.3
100
AcDbArc
 50
105.88085
 51
175.0
  0
ARC
  5
E14E
330
DF0B
100
AcDbEntity
  8
1
  6
Continuous
100
AcDbCircle
 10
163.8313649999998
 20
378.228422
 30
0.0
 40
9.0
100
AcDbArc
 50
74.11915
 51
105.88085
  0
LINE
  5
E14F
330
DF0B
100
AcDbEntity
  8
1
  6
Continuous
100
AcDbLine
 10
167.6313649999999
 20
384.628422
 30
0.0
 11
160.0313649999999
 21
384.628422
 31
0.0
  0
LINE
  5
E150
330
DF0B
100
AcDbEntity
  8
1
  6
Continuous
100
AcDbLine
 10
170.2734399999999
 20
381.696274
 30
0.0
 11
158.3317539999999
 21
382.8778559999999
 31
0.0
  0
LINE
  5
E151
330
DF0B
100
AcDbEntity
  8
1
  6
Continuous
100
AcDbLine
 10
170.07651
 20
379.7059929999999
 30
0.0
 11
158.134824
 21
380.887575
 31
0.0
  0
LINE
  5
E152
330
DF0B
100
AcDbEntity
  8
1
  6
Continuous
100
AcDbLine
 10
168.8313649999997
 20
383.6284219999998
 30
0.0
 11
158.8313649999998
 21
383.6284219999998
 31
0.0
  0
LINE
  5
E153
330
DF0B
100
AcDbEntity
  8
1
  6
Continuous
100
AcDbLine
 10
168.8313649999997
 20
382.828422
 30
0.0
 11
158.8313649999998
 21
382.828422
 31
0.0
  0
LINE
  5
E154
330
DF0B
100
AcDbEntity
  8
1
  6
Continuous
100
AcDbLine
 10
158.134824
 20
380.887575
 30
0.0
 11
155.6731949999999
 21
356.0090629999999
 31
0.0
  0
LINE
  5
E155
330
DF0B
100
AcDbEntity
  8
1
  6
Continuous
100
AcDbLine
 10
156.144543
 20
381.0845049999999
 30
0.0
 11
153.6829139999998
 21
356.2059929999999
 31
0.0
  0
LINE
  5
E156
330
DF0B
100
AcDbEntity
  8
1
  6
Continuous
100
AcDbLine
 10
158.8313649999998
 20
352.705993
 30
0.0
 11
158.8313649999998
 21
379.7059929999999
 31
0.0
  0
ARC
  5
E157
330
DF0B
100
AcDbEntity
  8
1
  6
Continuous
100
AcDbCircle
 10
158.134824
 20
380.887575
 30
0.0
 40
2.0
100
AcDbArc
 50
84.349205
 51
174.349205
  0
LINE
  5
E158
330
DF0B
100
AcDbEntity
  8
1
  6
Continuous
100
AcDbLine
 10
158.8313649999998
 20
383.6284219999998
 30
0.0
 11
158.8313649999998
 21
382.828422
 31
0.0
  0
ARC
  5
E159
330
DF0B
100
AcDbEntity
  8
1
  6
Continuous
100
AcDbCircle
 10
153.6829139999998
 20
356.2059929999999
 30
0.0
 40
2.0
100
AcDbArc
 50
264.3492049999999
 51
354.3492049999999
  0
LINE
  5
E15A
330
DF0B
100
AcDbEntity
  8
1
  6
Continuous
100
AcDbLine
 10
146.022429
 20
354.9542009999997
 30
0.0
 11
146.2193599999999
 21
356.944482
 31
0.0
  0
LINE
  5
E15B
330
DF0B
100
AcDbEntity
  8
1
  6
Continuous
100
AcDbLine
 10
153.485983
 20
354.215712
 30
0.0
 11
146.022429
 21
354.9542009999997
 31
0.0
  0
LINE
  5
E15C
330
DF0B
100
AcDbEntity
  8
1
  6
Continuous
100
AcDbLine
 10
153.6829139999998
 20
356.2059929999999
 30
0.0
 11
146.2193599999999
 21
356.944482
 31
0.0
  0
ARC
  5
E15D
330
DF0B
100
AcDbEntity
  8
1
  6
Continuous
100
AcDbCircle
 10
152.8313649999998
 20
348.636982
 30
0.0
 40
1.0
100
AcDbArc
 50
180.0
 51
265.9528149999998
  0
LINE
  5
E15E
330
DF0B
100
AcDbEntity
  8
1
  6
Continuous
100
AcDbLine
 10
151.8313649999998
 20
348.636982
 30
0.0
 11
151.8313649999998
 21
352.705993
 31
0.0
  0
LINE
  5
E15F
330
DF0B
100
AcDbEntity
  8
2
  6
Continuous
100
AcDbLine
 10
162.2103649999999
 20
379.7059929999999
 30
0.0
 11
162.2103649999999
 21
380.4843169999998
 31
0.0
  0
LINE
  5
E160
330
DF0B
100
AcDbEntity
  8
2
  6
Continuous
100
AcDbLine
 10
165.4523649999999
 20
382.1733
 30
0.0
 11
165.4523649999999
 21
382.828422
 31
0.0
  0
LINE
  5
E161
330
DF0B
100
AcDbEntity
  8
2
  6
Continuous
100
AcDbLine
 10
162.2103649999999
 20
382.494083
 30
0.0
 11
162.2103649999999
 21
382.828422
 31
0.0
  0
LINE
  5
E162
330
DF0B
100
AcDbEntity
  8
2
  6
Continuous
100
AcDbLine
 10
165.4523649999999
 20
379.7059929999999
 30
0.0
 11
165.4523649999999
 21
380.1635339999998
 31
0.0
  0
LINE
  5
E163
330
DF0B
100
AcDbEntity
  8
1
  6
Continuous
100
AcDbLine
 10
170.07651
 20
379.7059929999999
 30
0.0
 11
170.2734399999999
 21
381.696274
 31
0.0
  0
LINE
  5
E164
330
DF0B
100
AcDbEntity
  8
1
  6
Continuous
100
AcDbLine
 10
165.8313649999998
 20
382.1358
 30
0.0
 11
165.8313649999998
 21
382.828422
 31
0.0
  0
LINE
  5
E165
330
DF0B
100
AcDbEntity
  8
1
  6
Continuous
100
AcDbLine
 10
165.8313649999998
 20
379.7059929999999
 30
0.0
 11
165.8313649999998
 21
380.126033
 31
0.0
  0
LINE
  5
E166
330
DF0B
100
AcDbEntity
  8
1
  6
Continuous
100
AcDbLine
 10
168.8313649999997
 20
383.6284219999998
 30
0.0
 11
168.8313649999997
 21
382.828422
 31
0.0
  0
LINE
  5
E167
330
DF0B
100
AcDbEntity
  8
1
  6
Continuous
100
AcDbLine
 10
161.8313649999998
 20
382.531584
 30
0.0
 11
161.8313649999998
 21
382.828422
 31
0.0
  0
LINE
  5
E168
330
DF0B
100
AcDbEntity
  8
1
  6
Continuous
100
AcDbLine
 10
161.8313649999998
 20
379.7059929999999
 30
0.0
 11
161.8313649999998
 21
380.5218169999998
 31
0.0
  0
LINE
  5
E169
330
DF0B
100
AcDbEntity
  8
4
  6
CENTER
100
AcDbLine
 10
165.3313649999998
 20
374.7059929999999
 30
0.0
 11
165.3313649999998
 21
382.7059929999998
 31
0.0
  0
LINE
  5
E16A
330
DF0B
100
AcDbEntity
  8
1
  6
Continuous
100
AcDbLine
 10
170.3313649999998
 20
367.5059929999999
 30
0.0
 11
170.3313649999998
 21
377.705993
 31
0.0
  0
LINE
  5
E16B
330
DF0B
100
AcDbEntity
  8
1
  6
Continuous
100
AcDbLine
 10
160.3313649999997
 20
367.5059929999999
 30
0.0
 11
160.3313649999997
 21
377.705993
 31
0.0
  0
LINE
  5
E16C
330
DF0B
100
AcDbEntity
  8
1
  6
Continuous
100
AcDbLine
 10
183.8313649999999
 20
369.7059929999999
 30
0.0
 11
183.8313649999999
 21
377.705993
 31
0.0
  0
LINE
  5
E16D
330
DF0B
100
AcDbEntity
  8
4
  6
CENTER
100
AcDbLine
 10
178.3313649999998
 20
354.2059929999999
 30
0.0
 11
167.3313649999998
 21
354.2059929999999
 31
0.0
  0
ARC
  5
E16E
330
DF0B
100
AcDbEntity
  8
1
  6
Continuous
100
AcDbCircle
 10
172.8313649999997
 20
354.2059929999999
 30
0.0
 40
2.549999999999998
100
AcDbArc
 50
323.968121
 51
216.0318789999998
  0
ARC
  5
E16F
330
DF0B
100
AcDbEntity
  8
1
  6
Continuous
100
AcDbCircle
 10
172.8313649999997
 20
354.2059929999999
 30
0.0
 40
2.5
100
AcDbArc
 50
323.130102
 51
216.869898
  0
LINE
  5
E170
330
DF0B
100
AcDbEntity
  8
4
  6
CENTER
100
AcDbLine
 10
172.8313649999997
 20
348.705993
 30
0.0
 11
172.8313649999997
 21
359.7059929999999
 31
0.0
  0
LINE
  5
E171
330
DF0B
100
AcDbEntity
  8
1
  6
Continuous
100
AcDbLine
 10
224.3313649999997
 20
377.219887
 30
0.0
 11
225.3313649999999
 21
376.219887
 31
0.0
  0
LINE
  5
E172
330
DF0B
100
AcDbEntity
  8
1
  6
Continuous
100
AcDbLine
 10
218.5304229999999
 20
372.325219
 30
0.0
 11
229.475804
 21
373.420041
 31
0.0
  0
LINE
  5
E173
330
DF0B
100
AcDbEntity
  8
1
  6
Continuous
100
AcDbLine
 10
218.3313649999998
 20
374.315288
 30
0.0
 11
229.2767459999998
 21
375.4101099999999
 31
0.0
  0
LINE
  5
E174
330
DF0B
100
AcDbEntity
  8
1
  6
Continuous
100
AcDbLine
 10
213.3313649999998
 20
372.2059929999999
 30
0.0
 11
226.3313649999997
 21
372.2059929999999
 31
0.0
  0
ARC
  5
E175
330
DF0B
100
AcDbEntity
  8
1
  6
Continuous
100
AcDbCircle
 10
211.3313649999998
 20
350.5059929999999
 30
0.0
 40
17.0
100
AcDbArc
 50
7.435602
 51
90.0
  0
LINE
  5
E176
330
DF0B
100
AcDbEntity
  8
1
  6
Continuous
100
AcDbLine
 10
229.3313649999999
 20
375.419887
 30
0.0
 11
219.3313649999999
 21
375.419887
 31
0.0
  0
LINE
  5
E177
330
DF0B
100
AcDbEntity
  8
1
  6
Continuous
100
AcDbLine
 10
228.1313649999999
 20
377.219887
 30
0.0
 11
220.5313649999999
 21
377.219887
 31
0.0
  0
LINE
  5
E178
330
DF0B
100
AcDbEntity
  8
1
  6
Continuous
100
AcDbLine
 10
229.3313649999999
 20
376.219887
 30
0.0
 11
219.3313649999999
 21
376.219887
 31
0.0
  0
ARC
  5
E179
330
DF0B
100
AcDbEntity
  8
1
  6
Continuous
100
AcDbCircle
 10
224.3313649999997
 20
370.8198869999998
 30
0.0
 40
9.0
100
AcDbArc
 50
74.11915
 51
105.88085
  0
LINE
  5
E17A
330
DF0B
100
AcDbEntity
  8
1
  6
Continuous
100
AcDbLine
 10
205.730344
 20
373.5059929999999
 30
0.0
 11
208.432385
 21
373.5059929999999
 31
0.0
  0
LINE
  5
E17B
330
DF0B
100
AcDbEntity
  8
1
  6
Continuous
100
AcDbLine
 10
199.431365
 20
379.7059929999999
 30
0.0
 11
202.231365
 21
379.7059929999999
 31
0.0
  0
LINE
  5
E17C
330
DF0B
100
AcDbEntity
  8
4
  6
CENTER
100
AcDbLine
 10
200.8313649999998
 20
373.5759279999999
 30
0.0
 11
200.8313649999998
 21
382.3660939999999
 31
0.0
  0
LINE
  5
E17D
330
DF0B
100
AcDbEntity
  8
1
  6
Continuous
100
AcDbLine
 10
195.932385
 20
371.0059929999999
 30
0.0
 11
195.932385
 21
367.5059929999999
 31
0.0
  0
LINE
  5
E17E
330
DF0B
100
AcDbEntity
  8
1
  6
Continuous
100
AcDbLine
 10
195.8313649999998
 20
370.9524299999998
 30
0.0
 11
195.8313649999998
 21
375.2059929999999
 31
0.0
  0
LINE
  5
E17F
330
DF0B
100
AcDbEntity
  8
1
  6
Continuous
100
AcDbLine
 10
197.8313649999997
 20
375.2059929999999
 30
0.0
 11
197.8313649999997
 21
377.705993
 31
0.0
  0
LINE
  5
E180
330
DF0B
100
AcDbEntity
  8
1
  6
Continuous
100
AcDbLine
 10
203.8313649999998
 20
375.2059929999999
 30
0.0
 11
203.8313649999998
 21
377.705993
 31
0.0
  0
LINE
  5
E181
330
DF0B
100
AcDbEntity
  8
1
  6
Continuous
100
AcDbLine
 10
205.8313649999997
 20
373.5059929999999
 30
0.0
 11
205.8313649999997
 21
375.2059929999999
 31
0.0
  0
LINE
  5
E182
330
DF0B
100
AcDbEntity
  8
1
  6
Continuous
100
AcDbLine
 10
205.730344
 20
373.5059929999999
 30
0.0
 11
205.730344
 21
367.5059929999999
 31
0.0
  0
LINE
  5
E183
330
DF0B
100
AcDbEntity
  8
1
  6
Continuous
100
AcDbLine
 10
195.734614
 20
375.2059929999999
 30
0.0
 11
195.8313649999998
 21
375.2059929999999
 31
0.0
  0
LINE
  5
E184
330
DF0B
100
AcDbEntity
  8
2
  6
Continuous
100
AcDbLine
 10
222.710365
 20
374.753302
 30
0.0
 11
222.710365
 21
375.419887
 31
0.0
  0
LINE
  5
E185
330
DF0B
100
AcDbEntity
  8
2
  6
Continuous
100
AcDbLine
 10
222.7942389999999
 20
372.2059929999999
 30
0.0
 11
222.7942389999999
 21
372.7517109999998
 31
0.0
  0
LINE
  5
E186
330
DF0B
100
AcDbEntity
  8
4
  6
CENTER
100
AcDbLine
 10
213.3313649999998
 20
374.7059929999999
 30
0.0
 11
213.3313649999998
 21
382.7059929999998
 31
0.0
  0
LINE
  5
E187
330
DF0B
100
AcDbEntity
  8
1
  6
Continuous
100
AcDbLine
 10
218.5304229999999
 20
372.325219
 30
0.0
 11
218.3313649999998
 21
374.315288
 31
0.0
  0
LINE
  5
E188
330
DF0B
100
AcDbEntity
  8
1
  6
Continuous
100
AcDbLine
 10
221.8313649999998
 20
372.2059929999999
 30
0.0
 11
221.8313649999998
 21
372.6553989999999
 31
0.0
  0
LINE
  5
E189
330
DF0B
100
AcDbEntity
  8
1
  6
Continuous
100
AcDbLine
 10
221.8313649999998
 20
374.6653789999998
 30
0.0
 11
221.8313649999998
 21
375.419887
 31
0.0
  0
LINE
  5
E18A
330
DF0B
100
AcDbEntity
  8
1
  6
Continuous
100
AcDbLine
 10
208.331365
 20
373.5059929999999
 30
0.0
 11
208.331365
 21
377.705993
 31
0.0
  0
LINE
  5
E18B
330
DF0B
100
AcDbEntity
  8
1
  6
Continuous
100
AcDbLine
 10
219.3313649999999
 20
377.705993
 30
0.0
 11
220.8738939999999
 21
377.705993
 31
0.0
  0
LINE
  5
E18C
330
DF0B
100
AcDbEntity
  8
1
  6
Continuous
100
AcDbLine
 10
207.8313649999997
 20
373.5059929999999
 30
0.0
 11
207.8313649999997
 21
377.705993
 31
0.0
  0
LINE
  5
E18D
330
DF0B
100
AcDbEntity
  8
1
  6
Continuous
100
AcDbLine
 10
208.432385
 20
373.5059929999999
 30
0.0
 11
208.432385
 21
367.5059929999999
 31
0.0
  0
LINE
  5
E18E
330
DF0B
100
AcDbEntity
  8
1
  6
Continuous
100
AcDbLine
 10
218.3313649999998
 20
365.9979259999998
 30
0.0
 11
218.3313649999998
 21
377.705993
 31
0.0
  0
LINE
  5
E18F
330
DF0B
100
AcDbEntity
  8
1
  6
Continuous
100
AcDbLine
 10
219.3313649999999
 20
377.705993
 30
0.0
 11
219.3313649999999
 21
379.7059929999999
 31
0.0
  0
LINE
  5
E190
330
DF0B
100
AcDbEntity
  8
1
  6
Continuous
100
AcDbLine
 10
221.8313649999998
 20
372.2059929999999
 30
0.0
 11
221.8313649999998
 21
372.6553989999999
 31
0.0
  0
LINE
  5
E191
330
DF0B
100
AcDbEntity
  8
1
  6
Continuous
100
AcDbLine
 10
221.8313649999998
 20
374.6653789999998
 30
0.0
 11
221.8313649999998
 21
375.419887
 31
0.0
  0
LINE
  5
E192
330
DF0B
100
AcDbEntity
  8
1
  6
Continuous
100
AcDbLine
 10
219.3313649999999
 20
376.219887
 30
0.0
 11
219.3313649999999
 21
375.419887
 31
0.0
  0
LINE
  5
E193
330
DF0B
100
AcDbEntity
  8
1
  6
Continuous
100
AcDbLine
 10
220.5313649999999
 20
377.219887
 30
0.0
 11
220.5313649999999
 21
376.219887
 31
0.0
  0
ARC
  5
E194
330
DF0B
100
AcDbEntity
  8
1
  6
Continuous
100
AcDbCircle
 10
222.224354
 20
378.225999
 30
0.0
 40
1.3
100
AcDbArc
 50
105.88085
 51
175.0
  0
LINE
  5
E195
330
DF0B
100
AcDbEntity
  8
1
  6
Continuous
100
AcDbLine
 10
220.831365
 20
377.219887
 30
0.0
 11
220.9293009999999
 21
378.3393019999999
 31
0.0
  0
LINE
  5
E196
330
DF0B
100
AcDbEntity
  8
1
  6
Continuous
100
AcDbLine
 10
222.4152389999999
 20
372.2059929999999
 30
0.0
 11
222.4152389999999
 21
372.713801
 31
0.0
  0
LINE
  5
E197
330
DF0B
100
AcDbEntity
  8
1
  6
Continuous
100
AcDbLine
 10
222.3313649999997
 20
374.715392
 30
0.0
 11
222.3313649999997
 21
375.419887
 31
0.0
  0
LINE
  5
E198
330
DF0B
100
AcDbEntity
  8
1
  6
Continuous
100
AcDbLine
 10
228.3313649999997
 20
352.705993
 30
0.0
 11
228.3313649999997
 21
370.2059929999998
 31
0.0
  0
LINE
  5
E199
330
DF0B
100
AcDbEntity
  8
1
  6
Continuous
100
AcDbLine
 10
231.465874
 20
373.619099
 30
0.0
 11
233.207635
 21
356.2059929999999
 31
0.0
  0
LINE
  5
E19A
330
DF0B
100
AcDbEntity
  8
1
  6
Continuous
100
AcDbLine
 10
229.475804
 20
373.420041
 30
0.0
 11
231.217566
 21
356.006935
 31
0.0
  0
ARC
  5
E19B
330
DF0B
100
AcDbEntity
  8
1
  6
Continuous
100
AcDbCircle
 10
226.3313649999997
 20
370.2059929999998
 30
0.0
 40
2.0
100
AcDbArc
 50
0.0
 51
90.0
  0
LINE
  5
E19C
330
DF0B
100
AcDbEntity
  8
2
  6
Continuous
100
AcDbLine
 10
225.9523649999999
 20
375.077586
 30
0.0
 11
225.9523649999999
 21
375.419887
 31
0.0
  0
LINE
  5
E19D
330
DF0B
100
AcDbEntity
  8
2
  6
Continuous
100
AcDbLine
 10
225.9523649999999
 20
372.2059929999999
 30
0.0
 11
225.9523649999999
 21
373.067606
 31
0.0
  0
LINE
  5
E19E
330
DF0B
100
AcDbEntity
  8
1
  6
Continuous
100
AcDbLine
 10
223.3313649999999
 20
377.219887
 30
0.0
 11
224.3313649999997
 21
376.219887
 31
0.0
  0
LINE
  5
E19F
330
DF0B
100
AcDbEntity
  8
4
  6
CENTER
100
AcDbLine
 10
224.3313649999997
 20
369.0770309999999
 30
0.0
 11
224.3313649999997
 21
382.4334309999999
 31
0.0
  0
ARC
  5
E1A0
330
DF0B
100
AcDbEntity
  8
1
  6
Continuous
100
AcDbCircle
 10
229.475804
 20
373.420041
 30
0.0
 40
2.0
100
AcDbArc
 50
5.712062999999998
 51
95.712063
  0
LINE
  5
E1A1
330
DF0B
100
AcDbEntity
  8
1
  6
Continuous
100
AcDbLine
 10
229.3313649999999
 20
376.219887
 30
0.0
 11
229.3313649999999
 21
375.419887
 31
0.0
  0
LINE
  5
E1A2
330
DF0B
100
AcDbEntity
  8
1
  6
Continuous
100
AcDbLine
 10
228.1313649999999
 20
377.219887
 30
0.0
 11
228.1313649999999
 21
376.219887
 31
0.0
  0
ARC
  5
E1A3
330
DF0B
100
AcDbEntity
  8
1
  6
Continuous
100
AcDbCircle
 10
226.4383759999998
 20
378.225999
 30
0.0
 40
1.3
100
AcDbArc
 50
5.0
 51
74.11915
  0
LINE
  5
E1A4
330
DF0B
100
AcDbEntity
  8
1
  6
Continuous
100
AcDbLine
 10
227.8313649999998
 20
377.219887
 30
0.0
 11
227.733429
 21
378.3393019999999
 31
0.0
  0
LINE
  5
E1A5
330
DF0B
100
AcDbEntity
  8
1
  6
Continuous
100
AcDbLine
 10
226.3313649999997
 20
372.2059929999999
 30
0.0
 11
226.3313649999997
 21
373.1055149999999
 31
0.0
  0
LINE
  5
E1A6
330
DF0B
100
AcDbEntity
  8
1
  6
Continuous
100
AcDbLine
 10
226.3313649999997
 20
375.115496
 30
0.0
 11
226.3313649999997
 21
375.419887
 31
0.0
  0
LINE
  5
E1A7
330
DF0B
100
AcDbEntity
  8
1
  6
Continuous
100
AcDbLine
 10
233.207635
 20
356.2059929999999
 30
0.0
 11
240.670395
 21
356.9524620000001
 31
0.0
  0
LINE
  5
E1A8
330
DF0B
100
AcDbEntity
  8
1
  6
Continuous
100
AcDbLine
 10
233.406694
 20
354.2159239999999
 30
0.0
 11
240.869453
 21
354.962393
 31
0.0
  0
ARC
  5
E1A9
330
DF0B
100
AcDbEntity
  8
1
  6
Continuous
100
AcDbCircle
 10
233.207635
 20
356.2059929999999
 30
0.0
 40
2.0
100
AcDbArc
 50
185.712063
 51
275.712063
  0
ARC
  5
E1AA
330
DF0B
100
AcDbEntity
  8
1
  6
Continuous
100
AcDbCircle
 10
233.8313649999999
 20
348.636982
 30
0.0
 40
1.0
100
AcDbArc
 50
274.047185
 51
0.0
  0
LINE
  5
E1AB
330
DF0B
100
AcDbEntity
  8
1
  6
Continuous
100
AcDbLine
 10
234.8313649999997
 20
348.636982
 30
0.0
 11
234.8313649999997
 21
352.705993
 31
0.0
  0
LINE
  5
E1AC
330
DF0B
100
AcDbEntity
  8
1
  6
Continuous
100
AcDbLine
 10
240.869453
 20
354.962393
 30
0.0
 11
240.670395
 21
356.9524620000001
 31
0.0
  0
LINE
  5
E1AD
330
DF0B
100
AcDbEntity
  8
4
  6
CENTER
100
AcDbLine
 10
328.8694529999999
 20
163.114211
 30
0.0
 11
328.8694529999999
 21
265.114211
 31
0.0
  0
LINE
  5
E1AE
330
DF0B
100
AcDbEntity
  8
4
  6
CENTER
100
AcDbLine
 10
58.022429
 20
163.114211
 30
0.0
 11
58.022429
 21
265.114211
 31
0.0
  0
ENDSEC
  0
SECTION
  2
OBJECTS
  0
DICTIONARY
  5
DEF9
330
0
100
AcDbDictionary
281
     1
  3
ACAD_CIP_PREVIOUS_PRODUCT_INFO
350
E214
  3
ACAD_COLOR
350
E1F6
  3
ACAD_DETAILVIEWSTYLE
350
E20F
  3
ACAD_GROUP
350
DEFA
  3
ACAD_LAYOUT
350
DF06
  3
ACAD_MATERIAL
350
E1C4
  3
ACAD_MLEADERSTYLE
350
E20B
  3
ACAD_MLINESTYLE
350
DF03
  3
ACAD_PLOTSETTINGS
350
DF05
  3
ACAD_PLOTSTYLENAME
350
E1C2
  3
ACAD_SCALELIST
350
E1F9
  3
ACAD_SECTIONVIEWSTYLE
350
E20D
  3
ACAD_TABLESTYLE
350
E1F7
  3
ACAD_VISUALSTYLE
350
E1DD
  3
ACDB_RECOMPOSE_DATA
350
E232
  3
AcDbVariableDictionary
350
E225
  3
DWGPROPS
350
E233
  0
DICTIONARY
  5
E215
330
DEFD
100
AcDbDictionary
280
     1
281
     1
  3
ADSK_XREC_LAYER_RECONCILED
360
E216
  0
DICTIONARY
  5
E217
330
DF13
100
AcDbDictionary
280
     1
281
     1
  3
ADSK_XREC_LAYER_RECONCILED
360
E218
  0
DICTIONARY
  5
E219
330
DF14
100
AcDbDictionary
280
     1
281
     1
  3
ADSK_XREC_LAYER_RECONCILED
360
E21A
  0
DICTIONARY
  5
E21B
330
DF15
100
AcDbDictionary
280
     1
281
     1
  3
ADSK_XREC_LAYER_RECONCILED
360
E21C
  0
DICTIONARY
  5
E21D
330
DF16
100
AcDbDictionary
280
     1
281
     1
  3
ADSK_XREC_LAYER_RECONCILED
360
E21E
  0
DICTIONARY
  5
E21F
330
DF17
100
AcDbDictionary
280
     1
281
     1
  3
ADSK_XREC_LAYER_RECONCILED
360
E220
  0
DICTIONARY
  5
E221
330
DF18
100
AcDbDictionary
280
     1
281
     1
  3
ADSK_XREC_LAYER_RECONCILED
360
E222
  0
DICTIONARY
  5
E223
330
DF19
100
AcDbDictionary
280
     1
281
     1
  3
ADSK_XREC_LAYER_RECONCILED
360
E224
  0
DICTIONARY
  5
E1BD
330
DF0B
100
AcDbDictionary
281
     1
  3
ACAD_LAYOUTSELFREF
350
E1BE
  0
DICTIONARY
  5
E1BB
330
DF07
100
AcDbDictionary
281
     1
  3
ACAD_LAYOUTSELFREF
350
E1BC
  0
XRECORD
  5
E214
102
{ACAD_REACTORS
330
DEF9
102
}
330
DEF9
100
AcDbXrecord
280
     1
300
ACDLT
300
2014
300
ACDLT_F_S
  0
DICTIONARY
  5
E1F6
102
{ACAD_REACTORS
330
DEF9
102
}
330
DEF9
100
AcDbDictionary
281
     1
  0
DICTIONARY
  5
E20F
102
{ACAD_REACTORS
330
DEF9
102
}
330
DEF9
100
AcDbDictionary
281
     1
  3
Imperial24
350
E210
  0
DICTIONARY
  5
DEFA
102
{ACAD_REACTORS
330
DEF9
102
}
330
DEF9
100
AcDbDictionary
281
     1
  0
DICTIONARY
  5
DF06
102
{ACAD_REACTORS
330
DEF9
102
}
330
DEF9
100
AcDbDictionary
281
     1
  3
Model
350
E211
  3
レイアウト1
350
E212
  0
DICTIONARY
  5
E1C4
102
{ACAD_REACTORS
330
DEF9
102
}
330
DEF9
100
AcDbDictionary
281
     1
  3
ByBlock
350
E1CD
  3
ByLayer
350
E1C5
  3
Global
350
E1D5
  0
DICTIONARY
  5
E20B
102
{ACAD_REACTORS
330
DEF9
102
}
330
DEF9
100
AcDbDictionary
281
     1
  3
Standard
350
E20C
  0
DICTIONARY
  5
DF03
102
{ACAD_REACTORS
330
DEF9
102
}
330
DEF9
100
AcDbDictionary
281
     1
  3
STANDARD
350
DF04
  0
DICTIONARY
  5
DF05
102
{ACAD_REACTORS
330
DEF9
102
}
330
DEF9
100
AcDbDictionary
281
     1
  0
ACDBDICTIONARYWDFLT
  5
E1C2
102
{ACAD_REACTORS
330
DEF9
102
}
330
DEF9
100
AcDbDictionary
281
     1
  3
Normal
350
E1C3
100
AcDbDictionaryWithDefault
340
E1C3
  0
DICTIONARY
  5
E1F9
102
{ACAD_REACTORS
330
DEF9
102
}
330
DEF9
100
AcDbDictionary
281
     1
  3
A0
350
E1FA
  3
A1
350
E1FB
  3
A2
350
E1FC
  3
A3
350
E1FD
  3
A4
350
E1FE
  3
A5
350
E1FF
  3
A6
350
E200
  3
A7
350
E201
  3
A8
350
E202
  3
A9
350
E203
  3
B0
350
E204
  3
B1
350
E205
  3
B2
350
E206
  3
B3
350
E207
  3
B4
350
E208
  3
B5
350
E209
  3
B6
350
E20A
  0
DICTIONARY
  5
E20D
102
{ACAD_REACTORS
330
DEF9
102
}
330
DEF9
100
AcDbDictionary
281
     1
  3
Imperial24
350
E20E
  0
DICTIONARY
  5
E1F7
102
{ACAD_REACTORS
330
DEF9
102
}
330
DEF9
100
AcDbDictionary
281
     1
  3
Standard
350
E1F8
  0
DICTIONARY
  5
E1DD
102
{ACAD_REACTORS
330
DEF9
102
}
330
DEF9
100
AcDbDictionary
281
     1
  3
2dWireframe
350
E1E3
  3
Basic
350
E1E2
  3
Brighten
350
E1E9
  3
ColorChange
350
E1ED
  3
Conceptual
350
E1E6
  3
Dim
350
E1E8
  3
EdgeColorOff
350
E1F5
  3
Facepattern
350
E1EC
  3
Flat
350
E1DE
  3
FlatWithEdges
350
E1DF
  3
Gouraud
350
E1E0
  3
GouraudWithEdges
350
E1E1
  3
Hidden
350
E1E5
  3
JitterOff
350
E1F3
  3
Linepattern
350
E1EB
  3
OverhangOff
350
E1F4
  3
Realistic
350
E1E7
  3
Shaded
350
E1F2
  3
Shaded with edges
350
E1F1
  3
Shades of Gray
350
E1EE
  3
Sketchy
350
E1EF
  3
Thicken
350
E1EA
  3
Wireframe
350
E1E4
  3
X-Ray
350
E1F0
  0
XRECORD
  5
E232
102
{ACAD_REACTORS
330
DEF9
102
}
330
DEF9
100
AcDbXrecord
280
     1
 90
        1
330
E1F8
  0
DICTIONARY
  5
E225
102
{ACAD_REACTORS
330
DEF9
102
}
330
DEF9
100
AcDbDictionary
281
     1
  3
CANNOSCALE
350
E22A
  3
CMLEADERSTYLE
350
E227
  3
CTABLESTYLE
350
E226
  3
CVIEWDETAILSTYLE
350
E228
  3
CVIEWSECTIONSTYLE
350
E229
  3
DIMASSOC
350
E22D
  3
INDEXCTL
350
E22C
  3
SORTENTS
350
E22B
  3
XCLIPFRAME
350
E22E
  0
XRECORD
  5
E233
102
{ACAD_REACTORS
330
DEF9
102
}
330
DEF9
100
AcDbXrecord
280
     1
  1
DWGPROPS COOKIE
  2

  3

  4

  6

  7

  8
Yoshitsune
  9

300
=
301
=
302
=
303
=
304
=
305
=
306
=
307
=
308
=
309
=
 40
0.0015769097222222
 41
2451368.501771065
 42
2457192.642948947
  1

 90
        0
  0
XRECORD
  5
E216
102
{ACAD_REACTORS
330
E215
102
}
330
E215
100
AcDbXrecord
280
     1
290
     1
  0
XRECORD
  5
E218
102
{ACAD_REACTORS
330
E217
102
}
330
E217
100
AcDbXrecord
280
     1
290
     1
  0
XRECORD
  5
E21A
102
{ACAD_REACTORS
330
E219
102
}
330
E219
100
AcDbXrecord
280
     1
290
     1
  0
XRECORD
  5
E21C
102
{ACAD_REACTORS
330
E21B
102
}
330
E21B
100
AcDbXrecord
280
     1
290
     1
  0
XRECORD
  5
E21E
102
{ACAD_REACTORS
330
E21D
102
}
330
E21D
100
AcDbXrecord
280
     1
290
     1
  0
XRECORD
  5
E220
102
{ACAD_REACTORS
330
E21F
102
}
330
E21F
100
AcDbXrecord
280
     1
290
     1
  0
XRECORD
  5
E222
102
{ACAD_REACTORS
330
E221
102
}
330
E221
100
AcDbXrecord
280
     1
290
     1
  0
XRECORD
  5
E224
102
{ACAD_REACTORS
330
E223
102
}
330
E223
100
AcDbXrecord
280
     1
290
     1
  0
XRECORD
  5
E1BE
102
{ACAD_REACTORS
330
E1BD
102
}
330
E1BD
100
AcDbXrecord
280
     1
340
DF0B
  0
XRECORD
  5
E1BC
102
{ACAD_REACTORS
330
E1BB
102
}
330
E1BB
100
AcDbXrecord
280
     1
340
DF07
  0
ACDBDETAILVIEWSTYLE
  5
E210
102
{ACAD_XDICTIONARY
360
E26B
102
}
102
{ACAD_REACTORS
330
E20F
102
}
330
E20F
100
AcDbModelDocViewStyle
 70
     0
  3
Imperial24
290
     0
100
AcDbDetailViewStyle
 70
     0
 71
     0
 90
        3
 71
     1
340
DEFE
 40
0.24
340
0
 40
0.24
300

 40
0.36
280
     3
 71
     2
340
DF02
 90
       25
 71
     3
340
DEFE
 40
0.24
 90
        1
 40
0.75
 90
        1
300
%<\AcVar ViewType \f "%tc1">% %<\AcVar ViewDetailId>%\PSCALE %<\AcVar ViewScale \f "%sn">%
 71
     4
340
DF02
 90
       25
340
DF02
 90
       25
280
     0
  0
LAYOUT
  5
E211
102
{ACAD_XDICTIONARY
360
E26D
102
}
102
{ACAD_REACTORS
330
DF06
102
}
330
DF06
100
AcDbPlotSettings
  1

  2
Canon LBP9100C
  4

  6

 40
0.0
 41
0.0
 42
0.0
 43
0.0
 44
0.0
 45
0.0
 46
0.0
 47
0.0
 48
0.0
 49
0.0
140
0.0
141
0.0
142
1.0
143
1.0
 70
  1712
 72
     0
 73
     0
 74
     0
  7

 75
     0
147
1.0
148
0.0
149
0.0
100
AcDbLayout
  1
Model
 70
     1
 71
     0
 10
0.0
 20
0.0
 11
12.0
 21
9.0
 12
0.0
 22
0.0
 32
0.0
 14
0.0
 24
0.0
 34
0.0
 15
0.0
 25
0.0
 35
0.0
146
0.0
 13
0.0
 23
0.0
 33
0.0
 16
1.0
 26
0.0
 36
0.0
 17
0.0
 27
1.0
 37
0.0
 76
     0
330
DF0B
331
E1BA
  0
LAYOUT
  5
E212
102
{ACAD_XDICTIONARY
360
E26F
102
}
102
{ACAD_REACTORS
330
DF06
102
}
330
DF06
100
AcDbPlotSettings
  1

  2
Canon LBP9100C
  4

  6

 40
0.0
 41
0.0
 42
0.0
 43
0.0
 44
0.0
 45
0.0
 46
0.0
 47
0.0
 48
0.0
 49
0.0
140
0.0
141
0.0
142
1.0
143
1.0
 70
   688
 72
     0
 73
     0
 74
     5
  7

 75
    16
147
1.0
148
0.0
149
0.0
100
AcDbLayout
  1
レイアウト1
 70
     0
 71
     1
 10
0.0
 20
0.0
 11
420.0
 21
297.0
 12
0.0
 22
0.0
 32
0.0
 14
1.000000000000000E+20
 24
1.000000000000000E+20
 34
1.000000000000000E+20
 15
-1.000000000000000E+20
 25
-1.000000000000000E+20
 35
-1.000000000000000E+20
146
0.0
 13
0.0
 23
0.0
 33
0.0
 16
1.0
 26
0.0
 36
0.0
 17
0.0
 27
1.0
 37
0.0
 76
     0
330
DF07
  0
MATERIAL
  5
E1CD
102
{ACAD_XDICTIONARY
360
E1CE
102
}
102
{ACAD_REACTORS
330
E1C4
102
}
330
E1C4
100
AcDbMaterial
  1
ByBlock
 72
     0
 43
0.0208333333333333
 43
0.0
 43
0.0
 43
0.0
 43
0.0
 43
0.0208333333333333
 43
0.0
 43
0.0
 43
0.0
 43
0.0
 43
1.0
 43
0.0
 43
0.0
 43
0.0
 43
0.0
 43
1.0
 77
     0
 47
0.0208333333333333
 47
0.0
 47
0.0
 47
0.0
 47
0.0
 47
0.0208333333333333
 47
0.0
 47
0.0
 47
0.0
 47
0.0
 47
1.0
 47
0.0
 47
0.0
 47
0.0
 47
0.0
 47
1.0
171
     0
 49
0.0208333333333333
 49
0.0
 49
0.0
 49
0.0
 49
0.0
 49
0.0208333333333333
 49
0.0
 49
0.0
 49
0.0
 49
0.0
 49
1.0
 49
0.0
 49
0.0
 49
0.0
 49
0.0
 49
1.0
175
     0
142
0.0208333333333333
142
0.0
142
0.0
142
0.0
142
0.0
142
0.0208333333333333
142
0.0
142
0.0
142
0.0
142
0.0
142
1.0
142
0.0
142
0.0
142
0.0
142
0.0
142
1.0
179
     0
144
0.0208333333333333
144
0.0
144
0.0
144
0.0
144
0.0
144
0.0208333333333333
144
0.0
144
0.0
144
0.0
144
0.0
144
1.0
144
0.0
144
0.0
144
0.0
144
0.0
144
1.0
147
0.0208333333333333
147
0.0
147
0.0
147
0.0
147
0.0
147
0.0208333333333333
147
0.0
147
0.0
147
0.0
147
0.0
147
1.0
147
0.0
147
0.0
147
0.0
147
0.0
147
1.0
  0
MATERIAL
  5
E1C5
102
{ACAD_XDICTIONARY
360
E1C6
102
}
102
{ACAD_REACTORS
330
E1C4
102
}
330
E1C4
100
AcDbMaterial
  1
ByLayer
 72
     0
 43
0.0208333333333333
 43
0.0
 43
0.0
 43
0.0
 43
0.0
 43
0.0208333333333333
 43
0.0
 43
0.0
 43
0.0
 43
0.0
 43
1.0
 43
0.0
 43
0.0
 43
0.0
 43
0.0
 43
1.0
 77
     0
 47
0.0208333333333333
 47
0.0
 47
0.0
 47
0.0
 47
0.0
 47
0.0208333333333333
 47
0.0
 47
0.0
 47
0.0
 47
0.0
 47
1.0
 47
0.0
 47
0.0
 47
0.0
 47
0.0
 47
1.0
171
     0
 49
0.0208333333333333
 49
0.0
 49
0.0
 49
0.0
 49
0.0
 49
0.0208333333333333
 49
0.0
 49
0.0
 49
0.0
 49
0.0
 49
1.0
 49
0.0
 49
0.0
 49
0.0
 49
0.0
 49
1.0
175
     0
142
0.0208333333333333
142
0.0
142
0.0
142
0.0
142
0.0
142
0.0208333333333333
142
0.0
142
0.0
142
0.0
142
0.0
142
1.0
142
0.0
142
0.0
142
0.0
142
0.0
142
1.0
179
     0
144
0.0208333333333333
144
0.0
144
0.0
144
0.0
144
0.0
144
0.0208333333333333
144
0.0
144
0.0
144
0.0
144
0.0
144
1.0
144
0.0
144
0.0
144
0.0
144
0.0
144
1.0
147
0.0208333333333333
147
0.0
147
0.0
147
0.0
147
0.0
147
0.0208333333333333
147
0.0
147
0.0
147
0.0
147
0.0
147
1.0
147
0.0
147
0.0
147
0.0
147
0.0
147
1.0
  0
MATERIAL
  5
E1D5
102
{ACAD_XDICTIONARY
360
E1D6
102
}
102
{ACAD_REACTORS
330
E1C4
102
}
330
E1C4
100
AcDbMaterial
  1
Global
 72
     0
 43
0.0208333333333333
 43
0.0
 43
0.0
 43
0.0
 43
0.0
 43
0.0208333333333333
 43
0.0
 43
0.0
 43
0.0
 43
0.0
 43
1.0
 43
0.0
 43
0.0
 43
0.0
 43
0.0
 43
1.0
 77
     0
 47
0.0208333333333333
 47
0.0
 47
0.0
 47
0.0
 47
0.0
 47
0.0208333333333333
 47
0.0
 47
0.0
 47
0.0
 47
0.0
 47
1.0
 47
0.0
 47
0.0
 47
0.0
 47
0.0
 47
1.0
171
     0
 49
0.0208333333333333
 49
0.0
 49
0.0
 49
0.0
 49
0.0
 49
0.0208333333333333
 49
0.0
 49
0.0
 49
0.0
 49
0.0
 49
1.0
 49
0.0
 49
0.0
 49
0.0
 49
0.0
 49
1.0
175
     0
142
0.0208333333333333
142
0.0
142
0.0
142
0.0
142
0.0
142
0.0208333333333333
142
0.0
142
0.0
142
0.0
142
0.0
142
1.0
142
0.0
142
0.0
142
0.0
142
0.0
142
1.0
179
     0
144
0.0208333333333333
144
0.0
144
0.0
144
0.0
144
0.0
144
0.0208333333333333
144
0.0
144
0.0
144
0.0
144
0.0
144
1.0
144
0.0
144
0.0
144
0.0
144
0.0
144
1.0
147
0.0208333333333333
147
0.0
147
0.0
147
0.0
147
0.0
147
0.0208333333333333
147
0.0
147
0.0
147
0.0
147
0.0
147
1.0
147
0.0
147
0.0
147
0.0
147
0.0
147
1.0
  0
MLEADERSTYLE
  5
E20C
102
{ACAD_REACTORS
330
E20B
102
}
330
E20B
100
AcDbMLeaderStyle
170
     2
171
     1
172
     0
 90
        2
 40
0.0
 41
0.0
173
     1
 91
-1056964608
340
DF00
 92
       -2
290
     1
 42
0.09
291
     1
 43
0.36
  3
Standard
 44
0.18
300

342
DEFE
174
     1
178
     6
175
     1
176
     0
 93
-1056964608
 45
0.18
292
     0
297
     0
 46
0.18
 94
-1056964608
 47
1.0
 49
1.0
140
1.0
293
     1
141
0.0
294
     1
177
     0
142
1.0
295
     0
296
     0
143
0.125
1001
ACAD_MLEADERVER
1070
     2
  0
MLINESTYLE
  5
DF04
102
{ACAD_REACTORS
330
DF03
102
}
330
DF03
100
AcDbMlineStyle
  2
STANDARD
 70
     0
  3

 62
   256
 51
90.0
 52
90.0
 71
     2
 49
0.5
 62
   256
  6
BYLAYER
 49
-0.5
 62
   256
  6
BYLAYER
  0
ACDBPLACEHOLDER
  5
E1C3
102
{ACAD_REACTORS
330
E1C2
102
}
330
E1C2
  0
SCALE
  5
E1FA
102
{ACAD_REACTORS
330
E1F9
102
}
330
E1F9
100
AcDbScale
 70
     0
300
1:1
140
1.0
141
1.0
290
     1
  0
SCALE
  5
E1FB
102
{ACAD_REACTORS
330
E1F9
102
}
330
E1F9
100
AcDbScale
 70
     0
300
1/128" = 1'-0"
140
0.0078125
141
12.0
290
     0
  0
SCALE
  5
E1FC
102
{ACAD_REACTORS
330
E1F9
102
}
330
E1F9
100
AcDbScale
 70
     0
300
1/64" = 1'-0"
140
0.015625
141
12.0
290
     0
  0
SCALE
  5
E1FD
102
{ACAD_REACTORS
330
E1F9
102
}
330
E1F9
100
AcDbScale
 70
     0
300
1/32" = 1'-0"
140
0.03125
141
12.0
290
     0
  0
SCALE
  5
E1FE
102
{ACAD_REACTORS
330
E1F9
102
}
330
E1F9
100
AcDbScale
 70
     0
300
1/16" = 1'-0"
140
0.0625
141
12.0
290
     0
  0
SCALE
  5
E1FF
102
{ACAD_REACTORS
330
E1F9
102
}
330
E1F9
100
AcDbScale
 70
     0
300
3/32" = 1'-0"
140
0.09375
141
12.0
290
     0
  0
SCALE
  5
E200
102
{ACAD_REACTORS
330
E1F9
102
}
330
E1F9
100
AcDbScale
 70
     0
300
1/8" = 1'-0"
140
0.125
141
12.0
290
     0
  0
SCALE
  5
E201
102
{ACAD_REACTORS
330
E1F9
102
}
330
E1F9
100
AcDbScale
 70
     0
300
3/16" = 1'-0"
140
0.1875
141
12.0
290
     0
  0
SCALE
  5
E202
102
{ACAD_REACTORS
330
E1F9
102
}
330
E1F9
100
AcDbScale
 70
     0
300
1/4" = 1'-0"
140
0.25
141
12.0
290
     0
  0
SCALE
  5
E203
102
{ACAD_REACTORS
330
E1F9
102
}
330
E1F9
100
AcDbScale
 70
     0
300
3/8" = 1'-0"
140
0.375
141
12.0
290
     0
  0
SCALE
  5
E204
102
{ACAD_REACTORS
330
E1F9
102
}
330
E1F9
100
AcDbScale
 70
     0
300
1/2" = 1'-0"
140
0.5
141
12.0
290
     0
  0
SCALE
  5
E205
102
{ACAD_REACTORS
330
E1F9
102
}
330
E1F9
100
AcDbScale
 70
     0
300
3/4" = 1'-0"
140
0.75
141
12.0
290
     0
  0
SCALE
  5
E206
102
{ACAD_REACTORS
330
E1F9
102
}
330
E1F9
100
AcDbScale
 70
     0
300
1" = 1'-0"
140
1.0
141
12.0
290
     0
  0
SCALE
  5
E207
102
{ACAD_REACTORS
330
E1F9
102
}
330
E1F9
100
AcDbScale
 70
     0
300
1-1/2" = 1'-0"
140
1.5
141
12.0
290
     0
  0
SCALE
  5
E208
102
{ACAD_REACTORS
330
E1F9
102
}
330
E1F9
100
AcDbScale
 70
     0
300
3" = 1'-0"
140
3.0
141
12.0
290
     0
  0
SCALE
  5
E209
102
{ACAD_REACTORS
330
E1F9
102
}
330
E1F9
100
AcDbScale
 70
     0
300
6" = 1'-0"
140
6.0
141
12.0
290
     0
  0
SCALE
  5
E20A
102
{ACAD_REACTORS
330
E1F9
102
}
330
E1F9
100
AcDbScale
 70
     0
300
1'-0" = 1'-0"
140
12.0
141
12.0
290
     0
  0
ACDBSECTIONVIEWSTYLE
  5
E20E
102
{ACAD_XDICTIONARY
360
E269
102
}
102
{ACAD_REACTORS
330
E20D
102
}
330
E20D
100
AcDbModelDocViewStyle
 70
     0
  3
Imperial24
290
     0
100
AcDbSectionViewStyle
 70
     0
 71
     0
 90
       78
 71
     1
340
DEFE
 40
0.24
340
0
340
0
 40
0.24
300
I, O, Q, S, X, Z
 40
0.48
 90
        3
 40
0.18
 90
        1
 71
     2
340
DF02
 90
       25
340
DF02
 90
       50
 40
0.24
 40
0.0
 40
0.24
 71
     3
340
DEFE
 40
0.24
 90
        1
 40
0.75
 90
        1
300
%<\AcVar ViewType \f "%tc1">% %<\AcVar ViewSectionStartId>%-%<\AcVar ViewSectionEndId>%\PSCALE %<\AcVar ViewScale \f "%sn">%
 71
     4
300
ANSI31
 40
1.0
 90
        0
290
     0
290
     0
 90
        6
 40
0.0
 40
1.570796326794896
 40
0.2617993877991494
 40
1.308996938995747
 40
-0.2617993877991494
 40
1.832595714594046
  0
TABLESTYLE
  5
E1F8
102
{ACAD_XDICTIONARY
360
E230
102
}
102
{ACAD_REACTORS
330
E1F7
102
}
330
E1F7
100
AcDbTableStyle
  3
Standard
 70
     0
 71
     0
 40
0.06
 41
0.06
280
     0
281
     0
  7
STANDARD
140
0.18
170
     2
 62
     0
 63
     7
283
     0
274
    -2
284
     1
 64
     0
275
    -2
285
     1
 65
     0
276
    -2
286
     1
 66
     0
277
    -2
287
     1
 67
     0
278
    -2
288
     1
 68
     0
279
    -2
289
     1
 69
     0
  7
STANDARD
140
0.25
170
     5
 62
     0
 63
     7
283
     0
274
    -2
284
     1
 64
     0
275
    -2
285
     1
 65
     0
276
    -2
286
     1
 66
     0
277
    -2
287
     1
 67
     0
278
    -2
288
     1
 68
     0
279
    -2
289
     1
 69
     0
  7
STANDARD
140
0.18
170
     5
 62
     0
 63
     7
283
     0
274
    -2
284
     1
 64
     0
275
    -2
285
     1
 65
     0
276
    -2
286
     1
 66
     0
277
    -2
287
     1
 67
     0
278
    -2
288
     1
 68
     0
279
    -2
289
     1
 69
     0
  0
VISUALSTYLE
  5
E1E3
102
{ACAD_XDICTIONARY
360
E241
102
}
102
{ACAD_REACTORS
330
E1DD
102
}
330
E1DD
100
AcDbVisualStyle
  2
2dWireframe
 70
     4
 71
     0
 72
     2
 73
     0
 90
        0
 40
-0.6
 41
-30.0
 62
     5
 63
     7
 74
     1
 91
        4
 64
     7
 65
   257
 75
     1
175
     1
 42
1.0
 92
        0
 66
   257
 43
1.0
 76
     1
 77
     6
 78
     2
 67
     7
 79
     5
170
     0
171
     0
290
     0
174
     0
 93
        1
 44
0.0
173
     0
291
     0
 45
0.0
1001
ACAD
1000
AcDbSavedByObjectVersion
1070
     0
  0
VISUALSTYLE
  5
E1E2
102
{ACAD_XDICTIONARY
360
E23F
102
}
102
{ACAD_REACTORS
330
E1DD
102
}
330
E1DD
100
AcDbVisualStyle
  2
Basic
 70
     7
 71
     1
 72
     0
 73
     1
 90
        0
 40
-0.6
 41
-30.0
 62
     5
 63
     7
 74
     0
 91
        4
 64
     7
 65
   257
 75
     1
175
     1
 42
1.0
 92
        8
 66
     7
 43
1.0
 76
     1
 77
     6
 78
     2
 67
     7
 79
     5
170
     0
171
     0
290
     0
174
     0
 93
        1
 44
0.0
173
     0
291
     1
 45
0.0
1001
ACAD
1000
AcDbSavedByObjectVersion
1070
     0
  0
VISUALSTYLE
  5
E1E9
102
{ACAD_XDICTIONARY
360
E24D
102
}
102
{ACAD_REACTORS
330
E1DD
102
}
330
E1DD
100
AcDbVisualStyle
  2
Brighten
 70
    12
 71
     2
 72
     2
 73
     0
 90
        0
 40
-0.6
 41
-30.0
 62
     5
 63
     7
 74
     1
 91
        4
 64
     7
 65
   257
 75
     1
175
     1
 42
1.0
 92
        8
 66
     7
 43
1.0
 76
     1
 77
     6
 78
     2
 67
     7
 79
     5
170
     0
171
     0
290
     0
174
     0
 93
        1
 44
50.0
173
     0
291
     1
 45
0.0
1001
ACAD
1000
AcDbSavedByObjectVersion
1070
     0
  0
VISUALSTYLE
  5
E1ED
102
{ACAD_XDICTIONARY
360
E255
102
}
102
{ACAD_REACTORS
330
E1DD
102
}
330
E1DD
100
AcDbVisualStyle
  2
ColorChange
 70
    16
 71
     2
 72
     2
 73
     3
 90
        0
 40
-0.6
 41
-30.0
 62
     5
 63
     8
 74
     1
 91
        4
 64
     7
 65
   257
 75
     1
175
     1
 42
1.0
 92
        8
 66
     8
 43
1.0
 76
     1
 77
     6
 78
     2
 67
     7
 79
     5
170
     0
171
     0
290
     0
174
     0
 93
        1
 44
0.0
173
     0
291
     1
 45
0.0
1001
ACAD
1000
AcDbSavedByObjectVersion
1070
     0
  0
VISUALSTYLE
  5
E1E6
102
{ACAD_XDICTIONARY
360
E247
102
}
102
{ACAD_REACTORS
330
E1DD
102
}
330
E1DD
100
AcDbVisualStyle
  2
Conceptual
 70
     9
 71
     3
 72
     2
 73
     0
 90
        0
 40
-0.6
 41
-30.0
 62
     5
 63
     7
 74
     2
 91
        2
 64
     7
 65
   257
 75
     1
175
     1
 42
179.0
 92
        8
 66
     7
 43
1.0
 76
     1
 77
     6
 78
     2
 67
     7
 79
     3
170
     0
171
     0
290
     0
174
     0
 93
        1
 44
0.0
173
     0
291
     0
 45
0.0
1001
ACAD
1000
AcDbSavedByObjectVersion
1070
     0
  0
VISUALSTYLE
  5
E1E8
102
{ACAD_XDICTIONARY
360
E24B
102
}
102
{ACAD_REACTORS
330
E1DD
102
}
330
E1DD
100
AcDbVisualStyle
  2
Dim
 70
    11
 71
     2
 72
     2
 73
     0
 90
        0
 40
-0.6
 41
-30.0
 62
     5
 63
     7
 74
     1
 91
        4
 64
     7
 65
   257
 75
     1
175
     1
 42
1.0
 92
        8
 66
     7
 43
1.0
 76
     1
 77
     6
 78
     2
 67
     7
 79
     5
170
     0
171
     0
290
     0
174
     0
 93
        1
 44
-50.0
173
     0
291
     1
 45
0.0
1001
ACAD
1000
AcDbSavedByObjectVersion
1070
     0
  0
VISUALSTYLE
  5
E1F5
102
{ACAD_XDICTIONARY
360
E265
102
}
102
{ACAD_REACTORS
330
E1DD
102
}
330
E1DD
100
AcDbVisualStyle
  2
EdgeColorOff
 70
    22
 71
     2
 72
     2
 73
     0
 90
        0
 40
-0.6
 41
-30.0
 62
     5
 63
     7
 74
     1
 91
        4
 64
     7
 65
   257
 75
     1
175
     1
 42
1.0
 92
        8
 66
     7
 43
1.0
 76
     1
 77
     6
 78
     2
 67
     7
 79
     5
170
     0
171
     0
290
     0
174
     0
 93
        1
 44
0.0
173
     0
291
     1
 45
0.0
1001
ACAD
1000
AcDbSavedByObjectVersion
1070
     0
  0
VISUALSTYLE
  5
E1EC
102
{ACAD_XDICTIONARY
360
E253
102
}
102
{ACAD_REACTORS
330
E1DD
102
}
330
E1DD
100
AcDbVisualStyle
  2
Facepattern
 70
    15
 71
     2
 72
     2
 73
     0
 90
        0
 40
-0.6
 41
-30.0
 62
     5
 63
     7
 74
     1
 91
        4
 64
     7
 65
   257
 75
     1
175
     1
 42
1.0
 92
        8
 66
     7
 43
1.0
 76
     1
 77
     6
 78
     2
 67
     7
 79
     5
170
     0
171
     0
290
     0
174
     0
 93
        1
 44
0.0
173
     0
291
     1
 45
0.0
1001
ACAD
1000
AcDbSavedByObjectVersion
1070
     0
  0
VISUALSTYLE
  5
E1DE
102
{ACAD_XDICTIONARY
360
E237
102
}
102
{ACAD_REACTORS
330
E1DD
102
}
330
E1DD
100
AcDbVisualStyle
  2
Flat
 70
     0
 71
     2
 72
     1
 73
     1
 90
        2
 40
-0.6
 41
30.0
 62
     5
 63
     7
 74
     0
 91
        0
 64
     7
 65
   257
 75
     1
175
     1
 42
1.0
 92
        8
 66
     7
 43
1.0
 76
     1
 77
     6
 78
     2
 67
     7
 79
     5
170
     0
171
     0
290
     0
174
     0
 93
       13
 44
0.0
173
     0
291
     1
 45
0.0
1001
ACAD
1000
AcDbSavedByObjectVersion
1070
     0
  0
VISUALSTYLE
  5
E1DF
102
{ACAD_XDICTIONARY
360
E239
102
}
102
{ACAD_REACTORS
330
E1DD
102
}
330
E1DD
100
AcDbVisualStyle
  2
FlatWithEdges
 70
     1
 71
     2
 72
     1
 73
     1
 90
        2
 40
-0.6
 41
30.0
 62
     5
 63
     7
 74
     1
 91
        0
 64
     7
 65
   257
 75
     1
175
     1
 42
1.0
 92
        0
 66
   257
 43
1.0
 76
     1
 77
     6
 78
     2
 67
     7
 79
     5
170
     0
171
     0
290
     0
174
     0
 93
       13
 44
0.0
173
     0
291
     1
 45
0.0
1001
ACAD
1000
AcDbSavedByObjectVersion
1070
     0
  0
VISUALSTYLE
  5
E1E0
102
{ACAD_XDICTIONARY
360
E23B
102
}
102
{ACAD_REACTORS
330
E1DD
102
}
330
E1DD
100
AcDbVisualStyle
  2
Gouraud
 70
     2
 71
     2
 72
     2
 73
     1
 90
        2
 40
-0.6
 41
30.0
 62
     5
 63
     7
 74
     0
 91
        0
 64
     7
 65
   257
 75
     1
175
     1
 42
1.0
 92
        0
 66
     7
 43
1.0
 76
     1
 77
     6
 78
     2
 67
     7
 79
     5
170
     0
171
     0
290
     0
174
     0
 93
       13
 44
0.0
173
     0
291
     1
 45
0.0
1001
ACAD
1000
AcDbSavedByObjectVersion
1070
     0
  0
VISUALSTYLE
  5
E1E1
102
{ACAD_XDICTIONARY
360
E23D
102
}
102
{ACAD_REACTORS
330
E1DD
102
}
330
E1DD
100
AcDbVisualStyle
  2
GouraudWithEdges
 70
     3
 71
     2
 72
     2
 73
     1
 90
        2
 40
-0.6
 41
30.0
 62
     5
 63
     7
 74
     1
 91
        0
 64
     7
 65
   257
 75
     1
175
     1
 42
1.0
 92
        0
 66
   257
 43
1.0
 76
     1
 77
     6
 78
     2
 67
     7
 79
     5
170
     0
171
     0
290
     0
174
     0
 93
       13
 44
0.0
173
     0
291
     1
 45
0.0
1001
ACAD
1000
AcDbSavedByObjectVersion
1070
     0
  0
VISUALSTYLE
  5
E1E5
102
{ACAD_XDICTIONARY
360
E245
102
}
102
{ACAD_REACTORS
330
E1DD
102
}
330
E1DD
100
AcDbVisualStyle
  2
Hidden
 70
     6
 71
     1
 72
     2
 73
     2
 90
        0
 40
-0.6
 41
-30.0
 62
     5
 63
     7
 74
     2
 91
        2
 64
     7
 65
   257
 75
     2
175
     1
 42
40.0
 92
        0
 66
   257
 43
1.0
 76
     1
 77
     6
 78
     2
 67
     7
 79
     3
170
     0
171
     0
290
     0
174
     0
 93
        1
 44
0.0
173
     0
291
     0
 45
0.0
1001
ACAD
1000
AcDbSavedByObjectVersion
1070
     0
  0
VISUALSTYLE
  5
E1F3
102
{ACAD_XDICTIONARY
360
E261
102
}
102
{ACAD_REACTORS
330
E1DD
102
}
330
E1DD
100
AcDbVisualStyle
  2
JitterOff
 70
    20
 71
     2
 72
     2
 73
     0
 90
        0
 40
-0.6
 41
-30.0
 62
     5
 63
     7
 74
     1
 91
        4
 64
     7
 65
   257
 75
     1
175
     1
 42
1.0
 92
       10
 66
     7
 43
1.0
 76
     1
 77
     6
 78
     2
 67
     7
 79
     5
170
     0
171
     0
290
     0
174
     0
 93
        1
 44
0.0
173
     0
291
     1
 45
0.0
1001
ACAD
1000
AcDbSavedByObjectVersion
1070
     0
  0
VISUALSTYLE
  5
E1EB
102
{ACAD_XDICTIONARY
360
E251
102
}
102
{ACAD_REACTORS
330
E1DD
102
}
330
E1DD
100
AcDbVisualStyle
  2
Linepattern
 70
    14
 71
     2
 72
     2
 73
     0
 90
        0
 40
-0.6
 41
-30.0
 62
     5
 63
     7
 74
     1
 91
        4
 64
     7
 65
   257
 75
     7
175
     7
 42
1.0
 92
        8
 66
     7
 43
1.0
 76
     1
 77
     6
 78
     2
 67
     7
 79
     5
170
     0
171
     0
290
     0
174
     0
 93
        1
 44
0.0
173
     0
291
     1
 45
0.0
1001
ACAD
1000
AcDbSavedByObjectVersion
1070
     0
  0
VISUALSTYLE
  5
E1F4
102
{ACAD_XDICTIONARY
360
E263
102
}
102
{ACAD_REACTORS
330
E1DD
102
}
330
E1DD
100
AcDbVisualStyle
  2
OverhangOff
 70
    21
 71
     2
 72
     2
 73
     0
 90
        0
 40
-0.6
 41
-30.0
 62
     5
 63
     7
 74
     1
 91
        4
 64
     7
 65
   257
 75
     1
175
     1
 42
1.0
 92
        9
 66
     7
 43
1.0
 76
     1
 77
     6
 78
     2
 67
     7
 79
     5
170
     0
171
     0
290
     0
174
     0
 93
        1
 44
0.0
173
     0
291
     1
 45
0.0
1001
ACAD
1000
AcDbSavedByObjectVersion
1070
     0
  0
VISUALSTYLE
  5
E1E7
102
{ACAD_XDICTIONARY
360
E249
102
}
102
{ACAD_REACTORS
330
E1DD
102
}
330
E1DD
100
AcDbVisualStyle
  2
Realistic
 70
     8
 71
     2
 72
     3
 73
     0
 90
        2
 40
-0.6
 41
30.0
 62
     5
 63
     7
 74
     0
 91
        0
 64
     7
 65
   257
 75
     1
175
     1
 42
1.0
 92
        8
 66
   257
 43
1.0
 76
     1
 77
     6
 78
     2
 67
     7
 79
     3
170
     0
171
     0
290
     0
174
     0
 93
       13
 44
0.0
173
     0
291
     0
 45
0.0
1001
ACAD
1000
AcDbSavedByObjectVersion
1070
     0
  0
VISUALSTYLE
  5
E1F2
102
{ACAD_XDICTIONARY
360
E25F
102
}
102
{ACAD_REACTORS
330
E1DD
102
}
330
E1DD
100
AcDbVisualStyle
  2
Shaded
 70
    27
 71
     2
 72
     2
 73
     1
 90
        2
 40
-0.6
 41
30.0
 62
     5
 63
     7
 74
     0
 91
        4
 64
     7
 65
   257
 75
     1
175
     1
 42
1.0
 92
        8
 66
   257
 43
1.0
 76
     1
 77
     6
 78
     2
 67
     8
 79
     3
170
     0
171
     0
290
     0
174
     0
 93
        5
 44
0.0
173
     0
291
     0
 45
0.0
1001
ACAD
1000
AcDbSavedByObjectVersion
1070
     0
  0
VISUALSTYLE
  5
E1F1
102
{ACAD_XDICTIONARY
360
E25D
102
}
102
{ACAD_REACTORS
330
E1DD
102
}
330
E1DD
100
AcDbVisualStyle
  2
Shaded with edges
 70
    26
 71
     2
 72
     2
 73
     1
 90
        2
 40
-0.6
 41
30.0
 62
     5
 63
     7
 74
     1
 91
       10
 64
     7
 65
   257
 75
     2
175
     1
 42
1.0
 92
        8
 66
   257
 43
1.0
 76
     1
 77
     6
 78
     2
 67
     7
 79
     3
170
     0
171
     0
290
     0
174
     0
 93
        5
 44
0.0
173
     0
291
     0
 45
0.0
1001
ACAD
1000
AcDbSavedByObjectVersion
1070
     0
  0
VISUALSTYLE
  5
E1EE
102
{ACAD_XDICTIONARY
360
E257
102
}
102
{ACAD_REACTORS
330
E1DD
102
}
330
E1DD
100
AcDbVisualStyle
  2
Shades of Gray
 70
    23
 71
     2
 72
     2
 73
     3
 90
        0
 40
-0.6
 41
-30.0
 62
     5
 63
     7
 74
     2
 91
        2
 64
     7
 65
     7
 75
     1
175
     1
 42
40.0
 92
        8
 66
     7
 43
1.0
 76
     1
 77
     6
 78
     2
 67
     7
 79
     3
170
     0
171
     0
290
     0
174
     0
 93
        1
 44
0.0
173
     0
291
     0
 45
0.0
1001
ACAD
1000
AcDbSavedByObjectVersion
1070
     0
  0
VISUALSTYLE
  5
E1EF
102
{ACAD_XDICTIONARY
360
E259
102
}
102
{ACAD_REACTORS
330
E1DD
102
}
330
E1DD
100
AcDbVisualStyle
  2
Sketchy
 70
    24
 71
     1
 72
     2
 73
     2
 90
        0
 40
-0.6
 41
-30.0
 62
     5
 63
     7
 74
     2
 91
        2
 64
     7
 65
     7
 75
     1
175
     1
 42
40.0
 92
       11
 66
     7
 43
1.0
 76
     1
 77
     6
 78
     2
 67
     7
 79
     6
170
     0
171
     0
290
     0
174
     0
 93
        1
 44
0.0
173
     0
291
     0
 45
0.0
1001
ACAD
1000
AcDbSavedByObjectVersion
1070
     0
  0
VISUALSTYLE
  5
E1EA
102
{ACAD_XDICTIONARY
360
E24F
102
}
102
{ACAD_REACTORS
330
E1DD
102
}
330
E1DD
100
AcDbVisualStyle
  2
Thicken
 70
    13
 71
     2
 72
     2
 73
     0
 90
        0
 40
-0.6
 41
-30.0
 62
     5
 63
     7
 74
     1
 91
        4
 64
     7
 65
   257
 75
     1
175
     1
 42
1.0
 92
       12
 66
     7
 43
1.0
 76
     1
 77
     6
 78
     2
 67
     7
 79
     5
170
     0
171
     0
290
     0
174
     0
 93
        1
 44
0.0
173
     0
291
     1
 45
0.0
1001
ACAD
1000
AcDbSavedByObjectVersion
1070
     0
  0
VISUALSTYLE
  5
E1E4
102
{ACAD_XDICTIONARY
360
E243
102
}
102
{ACAD_REACTORS
330
E1DD
102
}
330
E1DD
100
AcDbVisualStyle
  2
Wireframe
 70
     5
 71
     0
 72
     2
 73
     0
 90
        0
 40
-0.6
 41
-30.0
 62
     5
 63
     7
 74
     1
 91
        4
 64
     7
 65
   257
 75
     1
175
     1
 42
1.0
 92
        0
 66
   257
 43
1.0
 76
     1
 77
     6
 78
     2
 67
     7
 79
     3
170
     0
171
     0
290
     0
174
     0
 93
        1
 44
0.0
173
     0
291
     0
 45
0.0
1001
ACAD
1000
AcDbSavedByObjectVersion
1070
     0
  0
VISUALSTYLE
  5
E1F0
102
{ACAD_XDICTIONARY
360
E25B
102
}
102
{ACAD_REACTORS
330
E1DD
102
}
330
E1DD
100
AcDbVisualStyle
  2
X-Ray
 70
    25
 71
     2
 72
     2
 73
     1
 90
        1
 40
0.5
 41
-30.0
 62
     5
 63
     7
 74
     1
 91
        0
 64
     7
 65
   257
 75
     1
175
     1
 42
1.0
 92
        8
 66
     7
 43
1.0
 76
     1
 77
     6
 78
     2
 67
     7
 79
     3
170
     0
171
     0
290
     0
174
     0
 93
       13
 44
0.0
173
     0
291
     0
 45
0.0
1001
ACAD
1000
AcDbSavedByObjectVersion
1070
     0
  0
DICTIONARYVAR
  5
E22A
102
{ACAD_REACTORS
330
E225
102
}
330
E225
100
DictionaryVariables
280
     0
  1
1:1
  0
DICTIONARYVAR
  5
E227
102
{ACAD_REACTORS
330
E225
102
}
330
E225
100
DictionaryVariables
280
     0
  1
STANDARD
  0
DICTIONARYVAR
  5
E226
102
{ACAD_REACTORS
330
E225
102
}
330
E225
100
DictionaryVariables
280
     0
  1
STANDARD
  0
DICTIONARYVAR
  5
E228
102
{ACAD_REACTORS
330
E225
102
}
330
E225
100
DictionaryVariables
280
     0
  1
Imperial24
  0
DICTIONARYVAR
  5
E229
102
{ACAD_REACTORS
330
E225
102
}
330
E225
100
DictionaryVariables
280
     0
  1
Imperial24
  0
DICTIONARYVAR
  5
E22D
102
{ACAD_REACTORS
330
E225
102
}
330
E225
100
DictionaryVariables
280
     0
  1
1
  0
DICTIONARYVAR
  5
E22C
102
{ACAD_REACTORS
330
E225
102
}
330
E225
100
DictionaryVariables
280
     0
  1
0
  0
DICTIONARYVAR
  5
E22B
102
{ACAD_REACTORS
330
E225
102
}
330
E225
100
DictionaryVariables
280
     0
  1
127
  0
DICTIONARYVAR
  5
E22E
102
{ACAD_REACTORS
330
E225
102
}
330
E225
100
DictionaryVariables
280
     0
  1
2
  0
DICTIONARY
  5
E26B
330
E210
100
AcDbDictionary
280
     1
281
     1
  3
ACAD_XREC_ROUNDTRIP
360
E26C
  0
DICTIONARY
  5
E26D
330
E211
100
AcDbDictionary
280
     1
281
     1
  3
ACAD_XREC_ROUNDTRIP
360
E26E
  0
DICTIONARY
  5
E26F
330
E212
100
AcDbDictionary
280
     1
281
     1
  3
ACAD_XREC_ROUNDTRIP
360
E270
  0
DICTIONARY
  5
E1CE
330
E1CD
100
AcDbDictionary
280
     1
281
     1
  3
ACAD_XREC_ROUNDTRIP
360
E235
  3
BUMPTILE
360
E1D0
  3
DIFFUSETILE
360
E1CF
  3
OPACITYTILE
360
E1D3
  3
REFLECTIONTILE
360
E1D2
  3
REFRACTIONTILE
360
E1D4
  3
SPECULARTILE
360
E1D1
  0
DICTIONARY
  5
E1C6
330
E1C5
100
AcDbDictionary
280
     1
281
     1
  3
ACAD_XREC_ROUNDTRIP
360
E234
  3
BUMPTILE
360
E1C8
  3
DIFFUSETILE
360
E1C7
  3
OPACITYTILE
360
E1CB
  3
REFLECTIONTILE
360
E1CA
  3
REFRACTIONTILE
360
E1CC
  3
SPECULARTILE
360
E1C9
  0
DICTIONARY
  5
E1D6
330
E1D5
100
AcDbDictionary
280
     1
281
     1
  3
ACAD_XREC_ROUNDTRIP
360
E236
  3
BUMPTILE
360
E1D8
  3
DIFFUSETILE
360
E1D7
  3
OPACITYTILE
360
E1DB
  3
REFLECTIONTILE
360
E1DA
  3
REFRACTIONTILE
360
E1DC
  3
SPECULARTILE
360
E1D9
  0
DICTIONARY
  5
E269
330
E20E
100
AcDbDictionary
280
     1
281
     1
  3
ACAD_XREC_ROUNDTRIP
360
E26A
  0
DICTIONARY
  5
E230
330
E1F8
100
AcDbDictionary
280
     1
281
     1
  3
ACAD_ROUNDTRIP_2008_TABLESTYLE_CELLSTYLEMAP
360
E231
  3
ACAD_XREC_ROUNDTRIP
360
E267
  0
DICTIONARY
  5
E241
330
E1E3
100
AcDbDictionary
280
     1
281
     1
  3
ACAD_XREC_ROUNDTRIP
360
E242
  0
DICTIONARY
  5
E23F
330
E1E2
100
AcDbDictionary
280
     1
281
     1
  3
ACAD_XREC_ROUNDTRIP
360
E240
  0
DICTIONARY
  5
E24D
330
E1E9
100
AcDbDictionary
280
     1
281
     1
  3
ACAD_XREC_ROUNDTRIP
360
E24E
  0
DICTIONARY
  5
E255
330
E1ED
100
AcDbDictionary
280
     1
281
     1
  3
ACAD_XREC_ROUNDTRIP
360
E256
  0
DICTIONARY
  5
E247
330
E1E6
100
AcDbDictionary
280
     1
281
     1
  3
ACAD_XREC_ROUNDTRIP
360
E248
  0
DICTIONARY
  5
E24B
330
E1E8
100
AcDbDictionary
280
     1
281
     1
  3
ACAD_XREC_ROUNDTRIP
360
E24C
  0
DICTIONARY
  5
E265
330
E1F5
100
AcDbDictionary
280
     1
281
     1
  3
ACAD_XREC_ROUNDTRIP
360
E266
  0
DICTIONARY
  5
E253
330
E1EC
100
AcDbDictionary
280
     1
281
     1
  3
ACAD_XREC_ROUNDTRIP
360
E254
  0
DICTIONARY
  5
E237
330
E1DE
100
AcDbDictionary
280
     1
281
     1
  3
ACAD_XREC_ROUNDTRIP
360
E238
  0
DICTIONARY
  5
E239
330
E1DF
100
AcDbDictionary
280
     1
281
     1
  3
ACAD_XREC_ROUNDTRIP
360
E23A
  0
DICTIONARY
  5
E23B
330
E1E0
100
AcDbDictionary
280
     1
281
     1
  3
ACAD_XREC_ROUNDTRIP
360
E23C
  0
DICTIONARY
  5
E23D
330
E1E1
100
AcDbDictionary
280
     1
281
     1
  3
ACAD_XREC_ROUNDTRIP
360
E23E
  0
DICTIONARY
  5
E245
330
E1E5
100
AcDbDictionary
280
     1
281
     1
  3
ACAD_XREC_ROUNDTRIP
360
E246
  0
DICTIONARY
  5
E261
330
E1F3
100
AcDbDictionary
280
     1
281
     1
  3
ACAD_XREC_ROUNDTRIP
360
E262
  0
DICTIONARY
  5
E251
330
E1EB
100
AcDbDictionary
280
     1
281
     1
  3
ACAD_XREC_ROUNDTRIP
360
E252
  0
DICTIONARY
  5
E263
330
E1F4
100
AcDbDictionary
280
     1
281
     1
  3
ACAD_XREC_ROUNDTRIP
360
E264
  0
DICTIONARY
  5
E249
330
E1E7
100
AcDbDictionary
280
     1
281
     1
  3
ACAD_XREC_ROUNDTRIP
360
E24A
  0
DICTIONARY
  5
E25F
330
E1F2
100
AcDbDictionary
280
     1
281
     1
  3
ACAD_XREC_ROUNDTRIP
360
E260
  0
DICTIONARY
  5
E25D
330
E1F1
100
AcDbDictionary
280
     1
281
     1
  3
ACAD_XREC_ROUNDTRIP
360
E25E
  0
DICTIONARY
  5
E257
330
E1EE
100
AcDbDictionary
280
     1
281
     1
  3
ACAD_XREC_ROUNDTRIP
360
E258
  0
DICTIONARY
  5
E259
330
E1EF
100
AcDbDictionary
280
     1
281
     1
  3
ACAD_XREC_ROUNDTRIP
360
E25A
  0
DICTIONARY
  5
E24F
330
E1EA
100
AcDbDictionary
280
     1
281
     1
  3
ACAD_XREC_ROUNDTRIP
360
E250
  0
DICTIONARY
  5
E243
330
E1E4
100
AcDbDictionary
280
     1
281
     1
  3
ACAD_XREC_ROUNDTRIP
360
E244
  0
DICTIONARY
  5
E25B
330
E1F0
100
AcDbDictionary
280
     1
281
     1
  3
ACAD_XREC_ROUNDTRIP
360
E25C
  0
XRECORD
  5
E26C
102
{ACAD_REACTORS
330
E26B
102
}
330
E26B
100
AcDbXrecord
280
     1
102
DISPLAYNAME
  1
Imperial24
102
FLAGS
 90
        0
  0
XRECORD
  5
E26E
102
{ACAD_REACTORS
330
E26D
102
}
330
E26D
100
AcDbXrecord
280
     1
102
SHADEPLOT
 70
     0
102
SHADEPLOTRESLEVEL
 70
     2
102
SHADEPLOTCUSTOMDPI
 70
   300
  0
XRECORD
  5
E270
102
{ACAD_REACTORS
330
E26F
102
}
330
E26F
100
AcDbXrecord
280
     1
102
SHADEPLOT
 70
     0
102
SHADEPLOTRESLEVEL
 70
     2
102
SHADEPLOTCUSTOMDPI
 70
   300
  0
XRECORD
  5
E235
102
{ACAD_REACTORS
330
E1CE
102
}
330
E1CE
100
AcDbXrecord
280
     1
102
MATERIAL
148
0.0
149
0.0
149
0.0
 93
        0
 94
      127
282
     0
 72
     0
 77
     0
171
     0
175
     0
179
     0
273
     0
  0
XRECORD
  5
E1D0
102
{ACAD_REACTORS
330
E1CE
102
}
330
E1CE
100
AcDbXrecord
280
     1
270
     1
271
     1
  0
XRECORD
  5
E1CF
102
{ACAD_REACTORS
330
E1CE
102
}
330
E1CE
100
AcDbXrecord
280
     1
270
     1
271
     1
  0
XRECORD
  5
E1D3
102
{ACAD_REACTORS
330
E1CE
102
}
330
E1CE
100
AcDbXrecord
280
     1
270
     1
271
     1
  0
XRECORD
  5
E1D2
102
{ACAD_REACTORS
330
E1CE
102
}
330
E1CE
100
AcDbXrecord
280
     1
270
     1
271
     1
  0
XRECORD
  5
E1D4
102
{ACAD_REACTORS
330
E1CE
102
}
330
E1CE
100
AcDbXrecord
280
     1
270
     1
271
     1
  0
XRECORD
  5
E1D1
102
{ACAD_REACTORS
330
E1CE
102
}
330
E1CE
100
AcDbXrecord
280
     1
270
     1
271
     1
  0
XRECORD
  5
E234
102
{ACAD_REACTORS
330
E1C6
102
}
330
E1C6
100
AcDbXrecord
280
     1
102
MATERIAL
148
0.0
149
0.0
149
0.0
 93
        0
 94
      127
282
     0
 72
     0
 77
     0
171
     0
175
     0
179
     0
273
     0
  0
XRECORD
  5
E1C8
102
{ACAD_REACTORS
330
E1C6
102
}
330
E1C6
100
AcDbXrecord
280
     1
270
     1
271
     1
  0
XRECORD
  5
E1C7
102
{ACAD_REACTORS
330
E1C6
102
}
330
E1C6
100
AcDbXrecord
280
     1
270
     1
271
     1
  0
XRECORD
  5
E1CB
102
{ACAD_REACTORS
330
E1C6
102
}
330
E1C6
100
AcDbXrecord
280
     1
270
     1
271
     1
  0
XRECORD
  5
E1CA
102
{ACAD_REACTORS
330
E1C6
102
}
330
E1C6
100
AcDbXrecord
280
     1
270
     1
271
     1
  0
XRECORD
  5
E1CC
102
{ACAD_REACTORS
330
E1C6
102
}
330
E1C6
100
AcDbXrecord
280
     1
270
     1
271
     1
  0
XRECORD
  5
E1C9
102
{ACAD_REACTORS
330
E1C6
102
}
330
E1C6
100
AcDbXrecord
280
     1
270
     1
271
     1
  0
XRECORD
  5
E236
102
{ACAD_REACTORS
330
E1D6
102
}
330
E1D6
100
AcDbXrecord
280
     1
102
MATERIAL
148
0.0
149
0.0
149
0.0
 93
        0
 94
      127
282
     0
 72
     0
 77
     0
171
     0
175
     0
179
     0
273
     0
  0
XRECORD
  5
E1D8
102
{ACAD_REACTORS
330
E1D6
102
}
330
E1D6
100
AcDbXrecord
280
     1
270
     1
271
     1
  0
XRECORD
  5
E1D7
102
{ACAD_REACTORS
330
E1D6
102
}
330
E1D6
100
AcDbXrecord
280
     1
270
     1
271
     1
  0
XRECORD
  5
E1DB
102
{ACAD_REACTORS
330
E1D6
102
}
330
E1D6
100
AcDbXrecord
280
     1
270
     1
271
     1
  0
XRECORD
  5
E1DA
102
{ACAD_REACTORS
330
E1D6
102
}
330
E1D6
100
AcDbXrecord
280
     1
270
     1
271
     1
  0
XRECORD
  5
E1DC
102
{ACAD_REACTORS
330
E1D6
102
}
330
E1D6
100
AcDbXrecord
280
     1
270
     1
271
     1
  0
XRECORD
  5
E1D9
102
{ACAD_REACTORS
330
E1D6
102
}
330
E1D6
100
AcDbXrecord
280
     1
270
     1
271
     1
  0
XRECORD
  5
E26A
102
{ACAD_REACTORS
330
E269
102
}
330
E269
100
AcDbXrecord
280
     1
102
DISPLAYNAME
  1
Imperial24
102
FLAGS
 90
        0
  0
CELLSTYLEMAP
  5
E231
102
{ACAD_REACTORS
330
E230
102
}
330
E230
100
AcDbCellStyleMap
 90
        3
300
CELLSTYLE
  1
TABLEFORMAT_BEGIN
 90
        5
170
     1
 91
        0
 92
    32768
 62
   257
 93
        1
300
CONTENTFORMAT
  1
CONTENTFORMAT_BEGIN
 90
        0
 91
        0
 92
      512
 93
        0
300

 40
0.0
140
1.0
 94
        5
 62
     0
340
DEFE
144
0.25
309
CONTENTFORMAT_END
171
     0
 94
        0
309
TABLEFORMAT_END
  1
CELLSTYLE_BEGIN
 90
        1
 91
        1
300
_TITLE
309
CELLSTYLE_END
300
CELLSTYLE
  1
TABLEFORMAT_BEGIN
 90
        5
170
     1
 91
        0
 92
        0
 62
   257
 93
        1
300
CONTENTFORMAT
  1
CONTENTFORMAT_BEGIN
 90
        0
 91
        0
 92
      512
 93
        0
300

 40
0.0
140
1.0
 94
        5
 62
     0
340
DEFE
144
0.18
309
CONTENTFORMAT_END
171
     0
 94
        0
309
TABLEFORMAT_END
  1
CELLSTYLE_BEGIN
 90
        2
 91
        1
300
_HEADER
309
CELLSTYLE_END
300
CELLSTYLE
  1
TABLEFORMAT_BEGIN
 90
        5
170
     1
 91
        0
 92
        0
 62
   257
 93
        1
300
CONTENTFORMAT
  1
CONTENTFORMAT_BEGIN
 90
        0
 91
        0
 92
      512
 93
        0
300

 40
0.0
140
1.0
 94
        2
 62
     0
340
DEFE
144
0.18
309
CONTENTFORMAT_END
171
     0
 94
        0
309
TABLEFORMAT_END
  1
CELLSTYLE_BEGIN
 90
        3
 91
        2
300
_DATA
309
CELLSTYLE_END
  0
XRECORD
  5
E267
102
{ACAD_REACTORS
330
E230
102
}
330
E230
100
AcDbXrecord
280
     1
102
ACAD_ROUNDTRIP_PRE2007_TABLESTYLE
 90
      512
 91
        0
  1

 92
      512
 93
        0
  2

 94
      512
 95
        0
  3

  0
XRECORD
  5
E242
102
{ACAD_REACTORS
330
E241
102
}
330
E241
100
AcDbXrecord
280
     1
102
RTVSPost2010Prop28
280
     1
102
RTVSPost2010PropOp28
 70
     1
102
RTVSPost2010Prop29
280
     1
102
RTVSPost2010PropOp29
 70
     1
102
RTVSPost2010Prop30
280
     0
102
RTVSPost2010PropOp30
 70
     1
102
RTVSPost2010Prop31
280
     0
102
RTVSPost2010PropOp31
 70
     1
102
RTVSPost2010Prop32
280
     0
102
RTVSPost2010PropOp32
 70
     1
102
RTVSPost2010Prop33
280
     0
102
RTVSPost2010PropOp33
 70
     1
102
RTVSPost2010Prop34
280
     0
102
RTVSPost2010PropOp34
 70
     1
102
RTVSPost2010Prop35
280
     0
102
RTVSPost2010PropOp35
 70
     1
102
RTVSPost2010Prop36
280
     0
102
RTVSPost2010PropOp36
 70
     1
102
RTVSPost2010Prop37
 90
       50
102
RTVSPost2010PropOp37
 70
     1
102
RTVSPost2010Prop38
140
0.0
102
RTVSPost2010PropOp38
 70
     1
102
RTVSPost2010Prop39
140
1.0
102
RTVSPost2010PropOp39
 70
     1
102
RTVSPost2010Prop40
 90
        0
102
RTVSPost2010PropOp40
 70
     1
102
RTVSPost2010Prop41ColorIndex
 90
       18
102
RTVSPost2010Prop41ColorRGB
 90
        0
102
RTVSPost2010PropOp41
 70
     1
102
RTVSPost2010Prop42
 90
       50
102
RTVSPost2010PropOp42
 70
     1
102
RTVSPost2010Prop43
 90
        3
102
RTVSPost2010PropOp43
 70
     1
102
RTVSPost2010Prop44ColorIndex
 90
        5
102
RTVSPost2010Prop44ColorRGB
 90
      255
102
RTVSPost2010PropOp44
 70
     1
102
RTVSPost2010Prop45
280
     0
102
RTVSPost2010PropOp45
 70
     1
102
RTVSPost2010Prop46
 90
       50
102
RTVSPost2010PropOp46
 70
     1
102
RTVSPost2010Prop47
 90
       50
102
RTVSPost2010PropOp47
 70
     1
102
RTVSPost2010Prop48
 90
       50
102
RTVSPost2010PropOp48
 70
     1
102
RTVSPost2010Prop49
280
     0
102
RTVSPost2010PropOp49
 70
     1
102
RTVSPost2010Prop50
 90
       50
102
RTVSPost2010PropOp50
 70
     1
102
RTVSPost2010Prop51ColorIndex
 90
      256
102
RTVSPost2010Prop51ColorRGB
 90
-16777216
102
RTVSPost2010PropOp51
 70
     0
102
RTVSPost2010Prop52
140
1.0
102
RTVSPost2010PropOp52
 70
     0
102
RTVSPost2010Prop53
 90
        2
102
RTVSPost2010PropOp53
 70
     1
102
RTVSPost2010Prop54
  1
strokes_ogs.tif
102
RTVSPost2010PropOp54
 70
     1
102
RTVSPost2010Prop55
280
     0
102
RTVSPost2010PropOp55
 70
     1
102
RTVSPost2010Prop56
140
1.0
102
RTVSPost2010PropOp56
 70
     1
102
RTVSPost2010Prop57
140
1.0
102
RTVSPost2010PropOp57
 70
     1
102
RTVSPropertyOp0
 70
     1
102
RTVSPropertyOp1
 70
     1
102
RTVSPropertyOp2
 70
     1
102
RTVSPropertyOp3
 70
     1
102
RTVSPropertyOp4
 70
     1
102
RTVSPropertyOp5
 70
     1
102
RTVSPropertyOp6
 70
     1
102
RTVSPropertyOp7
 70
     1
102
RTVSPropertyOp8
 70
     1
102
RTVSPropertyOp9
 70
     1
102
RTVSPropertyOp10
 70
     1
102
RTVSPropertyOp11
 70
     1
102
RTVSPropertyOp12
 70
     1
102
RTVSPropertyOp13
 70
     1
102
RTVSPropertyOp14
 70
     1
102
RTVSPropertyOp15
 70
     1
102
RTVSPropertyOp16
 70
     1
102
RTVSPropertyOp17
 70
     1
102
RTVSPropertyOp18
 70
     1
102
RTVSPropertyOp19
 70
     1
102
RTVSPropertyOp20
 70
     1
102
RTVSPropertyOp21
 70
     1
102
RTVSPropertyOp22
 70
     1
102
RTVSPropertyOp23
 70
     1
102
RTVSPropertyOp24
 70
     1
102
RTVSPropertyOp25
 70
     1
102
RTVSPropertyOp26
 70
     1
102
RTVSPropertyOp27
 70
     1
102
RTVSPropertyOp28
 70
     1
102
RTVSPropertyOp29
 70
     1
102
RTVSPropertyOp30
 70
     1
102
RTVSPropertyOp31
 70
     1
102
RTVSPropertyOp32
 70
     1
102
RTVSPropertyOp33
 70
     1
102
RTVSPropertyOp34
 70
     1
102
RTVSPropertyOp35
 70
     1
102
RTVSPropertyOp36
 70
     1
102
RTVSPropertyOp37
 70
     1
102
RTVSPropertyOp38
 70
     1
102
RTVSPropertyOp39
 70
     1
102
RTVSPropertyOp40
 70
     1
102
RTVSPropertyOp41
 70
     1
102
RTVSPropertyOp42
 70
     1
102
RTVSPropertyOp43
 70
     1
102
RTVSPropertyOp44
 70
     1
102
RTVSPropertyOp45
 70
     1
102
RTVSPropertyOp46
 70
     1
102
RTVSPropertyOp47
 70
     1
102
RTVSPropertyOp48
 70
     1
102
RTVSPropertyOp49
 70
     1
102
RTVSPropertyOp50
 70
     1
102
RTVSPropertyOp51
 70
     0
102
RTVSPropertyOp52
 70
     0
102
RTVSPropertyOp53
 70
     1
102
RTVSPropertyOp54
 70
     1
102
RTVSPropertyOp55
 70
     1
102
RTVSPropertyOp56
 70
     1
102
RTVSPropertyOp57
 70
     1
102
RTVSPropertyOp58
 70
     1
102
RTVSPropertyOp59
 70
     1
102
RTVSPropertyOp60
 70
     1
102
RTVSPropertyOp61
 70
     1
102
RTVSPropertyOp62
 70
     1
  0
XRECORD
  5
E240
102
{ACAD_REACTORS
330
E23F
102
}
330
E23F
100
AcDbXrecord
280
     1
102
RTVSPost2010Prop28
280
     0
102
RTVSPost2010PropOp28
 70
     1
102
RTVSPost2010Prop29
280
     1
102
RTVSPost2010PropOp29
 70
     1
102
RTVSPost2010Prop30
280
     1
102
RTVSPost2010PropOp30
 70
     1
102
RTVSPost2010Prop31
280
     0
102
RTVSPost2010PropOp31
 70
     1
102
RTVSPost2010Prop32
280
     0
102
RTVSPost2010PropOp32
 70
     1
102
RTVSPost2010Prop33
280
     0
102
RTVSPost2010PropOp33
 70
     1
102
RTVSPost2010Prop34
280
     0
102
RTVSPost2010PropOp34
 70
     1
102
RTVSPost2010Prop35
280
     0
102
RTVSPost2010PropOp35
 70
     1
102
RTVSPost2010Prop36
280
     0
102
RTVSPost2010PropOp36
 70
     1
102
RTVSPost2010Prop37
 90
       50
102
RTVSPost2010PropOp37
 70
     1
102
RTVSPost2010Prop38
140
0.0
102
RTVSPost2010PropOp38
 70
     1
102
RTVSPost2010Prop39
140
1.0
102
RTVSPost2010PropOp39
 70
     1
102
RTVSPost2010Prop40
 90
        0
102
RTVSPost2010PropOp40
 70
     1
102
RTVSPost2010Prop41ColorIndex
 90
       18
102
RTVSPost2010Prop41ColorRGB
 90
        0
102
RTVSPost2010PropOp41
 70
     1
102
RTVSPost2010Prop42
 90
       50
102
RTVSPost2010PropOp42
 70
     1
102
RTVSPost2010Prop43
 90
        3
102
RTVSPost2010PropOp43
 70
     1
102
RTVSPost2010Prop44ColorIndex
 90
        5
102
RTVSPost2010Prop44ColorRGB
 90
      255
102
RTVSPost2010PropOp44
 70
     1
102
RTVSPost2010Prop45
280
     0
102
RTVSPost2010PropOp45
 70
     1
102
RTVSPost2010Prop46
 90
       50
102
RTVSPost2010PropOp46
 70
     1
102
RTVSPost2010Prop47
 90
       50
102
RTVSPost2010PropOp47
 70
     1
102
RTVSPost2010Prop48
 90
       50
102
RTVSPost2010PropOp48
 70
     1
102
RTVSPost2010Prop49
280
     0
102
RTVSPost2010PropOp49
 70
     1
102
RTVSPost2010Prop50
 90
       50
102
RTVSPost2010PropOp50
 70
     1
102
RTVSPost2010Prop51ColorIndex
 90
      256
102
RTVSPost2010Prop51ColorRGB
 90
-16777216
102
RTVSPost2010PropOp51
 70
     0
102
RTVSPost2010Prop52
140
1.0
102
RTVSPost2010PropOp52
 70
     0
102
RTVSPost2010Prop53
 90
        2
102
RTVSPost2010PropOp53
 70
     1
102
RTVSPost2010Prop54
  1
strokes_ogs.tif
102
RTVSPost2010PropOp54
 70
     1
102
RTVSPost2010Prop55
280
     0
102
RTVSPost2010PropOp55
 70
     1
102
RTVSPost2010Prop56
140
1.0
102
RTVSPost2010PropOp56
 70
     1
102
RTVSPost2010Prop57
140
1.0
102
RTVSPost2010PropOp57
 70
     1
102
RTVSPropertyOp0
 70
     1
102
RTVSPropertyOp1
 70
     1
102
RTVSPropertyOp2
 70
     1
102
RTVSPropertyOp3
 70
     1
102
RTVSPropertyOp4
 70
     1
102
RTVSPropertyOp5
 70
     1
102
RTVSPropertyOp6
 70
     1
102
RTVSPropertyOp7
 70
     1
102
RTVSPropertyOp8
 70
     1
102
RTVSPropertyOp9
 70
     1
102
RTVSPropertyOp10
 70
     1
102
RTVSPropertyOp11
 70
     1
102
RTVSPropertyOp12
 70
     1
102
RTVSPropertyOp13
 70
     1
102
RTVSPropertyOp14
 70
     1
102
RTVSPropertyOp15
 70
     1
102
RTVSPropertyOp16
 70
     1
102
RTVSPropertyOp17
 70
     1
102
RTVSPropertyOp18
 70
     1
102
RTVSPropertyOp19
 70
     1
102
RTVSPropertyOp20
 70
     1
102
RTVSPropertyOp21
 70
     1
102
RTVSPropertyOp22
 70
     1
102
RTVSPropertyOp23
 70
     1
102
RTVSPropertyOp24
 70
     1
102
RTVSPropertyOp25
 70
     1
102
RTVSPropertyOp26
 70
     1
102
RTVSPropertyOp27
 70
     1
102
RTVSPropertyOp28
 70
     1
102
RTVSPropertyOp29
 70
     1
102
RTVSPropertyOp30
 70
     1
102
RTVSPropertyOp31
 70
     1
102
RTVSPropertyOp32
 70
     1
102
RTVSPropertyOp33
 70
     1
102
RTVSPropertyOp34
 70
     1
102
RTVSPropertyOp35
 70
     1
102
RTVSPropertyOp36
 70
     1
102
RTVSPropertyOp37
 70
     1
102
RTVSPropertyOp38
 70
     1
102
RTVSPropertyOp39
 70
     1
102
RTVSPropertyOp40
 70
     1
102
RTVSPropertyOp41
 70
     1
102
RTVSPropertyOp42
 70
     1
102
RTVSPropertyOp43
 70
     1
102
RTVSPropertyOp44
 70
     1
102
RTVSPropertyOp45
 70
     1
102
RTVSPropertyOp46
 70
     1
102
RTVSPropertyOp47
 70
     1
102
RTVSPropertyOp48
 70
     1
102
RTVSPropertyOp49
 70
     1
102
RTVSPropertyOp50
 70
     1
102
RTVSPropertyOp51
 70
     0
102
RTVSPropertyOp52
 70
     0
102
RTVSPropertyOp53
 70
     1
102
RTVSPropertyOp54
 70
     1
102
RTVSPropertyOp55
 70
     1
102
RTVSPropertyOp56
 70
     1
102
RTVSPropertyOp57
 70
     1
102
RTVSPropertyOp58
 70
     1
102
RTVSPropertyOp59
 70
     1
102
RTVSPropertyOp60
 70
     1
102
RTVSPropertyOp61
 70
     1
102
RTVSPropertyOp62
 70
     1
  0
XRECORD
  5
E24E
102
{ACAD_REACTORS
330
E24D
102
}
330
E24D
100
AcDbXrecord
280
     1
102
RTVSPost2010Prop28
280
     0
102
RTVSPost2010PropOp28
 70
     1
102
RTVSPost2010Prop29
280
     1
102
RTVSPost2010PropOp29
 70
     1
102
RTVSPost2010Prop30
280
     1
102
RTVSPost2010PropOp30
 70
     1
102
RTVSPost2010Prop31
280
     0
102
RTVSPost2010PropOp31
 70
     1
102
RTVSPost2010Prop32
280
     0
102
RTVSPost2010PropOp32
 70
     1
102
RTVSPost2010Prop33
280
     0
102
RTVSPost2010PropOp33
 70
     1
102
RTVSPost2010Prop34
280
     0
102
RTVSPost2010PropOp34
 70
     1
102
RTVSPost2010Prop35
280
     0
102
RTVSPost2010PropOp35
 70
     1
102
RTVSPost2010Prop36
280
     0
102
RTVSPost2010PropOp36
 70
     1
102
RTVSPost2010Prop37
 90
       50
102
RTVSPost2010PropOp37
 70
     1
102
RTVSPost2010Prop38
140
0.0
102
RTVSPost2010PropOp38
 70
     1
102
RTVSPost2010Prop39
140
1.0
102
RTVSPost2010PropOp39
 70
     1
102
RTVSPost2010Prop40
 90
        0
102
RTVSPost2010PropOp40
 70
     1
102
RTVSPost2010Prop41ColorIndex
 90
       18
102
RTVSPost2010Prop41ColorRGB
 90
        0
102
RTVSPost2010PropOp41
 70
     1
102
RTVSPost2010Prop42
 90
       50
102
RTVSPost2010PropOp42
 70
     1
102
RTVSPost2010Prop43
 90
        3
102
RTVSPost2010PropOp43
 70
     1
102
RTVSPost2010Prop44ColorIndex
 90
        5
102
RTVSPost2010Prop44ColorRGB
 90
      255
102
RTVSPost2010PropOp44
 70
     1
102
RTVSPost2010Prop45
280
     0
102
RTVSPost2010PropOp45
 70
     1
102
RTVSPost2010Prop46
 90
       50
102
RTVSPost2010PropOp46
 70
     1
102
RTVSPost2010Prop47
 90
       50
102
RTVSPost2010PropOp47
 70
     1
102
RTVSPost2010Prop48
 90
       50
102
RTVSPost2010PropOp48
 70
     1
102
RTVSPost2010Prop49
280
     0
102
RTVSPost2010PropOp49
 70
     1
102
RTVSPost2010Prop50
 90
       50
102
RTVSPost2010PropOp50
 70
     1
102
RTVSPost2010Prop51ColorIndex
 90
      256
102
RTVSPost2010Prop51ColorRGB
 90
-16777216
102
RTVSPost2010PropOp51
 70
     0
102
RTVSPost2010Prop52
140
1.0
102
RTVSPost2010PropOp52
 70
     0
102
RTVSPost2010Prop53
 90
        2
102
RTVSPost2010PropOp53
 70
     1
102
RTVSPost2010Prop54
  1
strokes_ogs.tif
102
RTVSPost2010PropOp54
 70
     1
102
RTVSPost2010Prop55
280
     0
102
RTVSPost2010PropOp55
 70
     1
102
RTVSPost2010Prop56
140
1.0
102
RTVSPost2010PropOp56
 70
     1
102
RTVSPost2010Prop57
140
1.0
102
RTVSPost2010PropOp57
 70
     1
102
RTVSPropertyOp0
 70
     1
102
RTVSPropertyOp1
 70
     1
102
RTVSPropertyOp2
 70
     1
102
RTVSPropertyOp3
 70
     1
102
RTVSPropertyOp4
 70
     1
102
RTVSPropertyOp5
 70
     1
102
RTVSPropertyOp6
 70
     1
102
RTVSPropertyOp7
 70
     1
102
RTVSPropertyOp8
 70
     1
102
RTVSPropertyOp9
 70
     1
102
RTVSPropertyOp10
 70
     1
102
RTVSPropertyOp11
 70
     1
102
RTVSPropertyOp12
 70
     1
102
RTVSPropertyOp13
 70
     1
102
RTVSPropertyOp14
 70
     1
102
RTVSPropertyOp15
 70
     1
102
RTVSPropertyOp16
 70
     1
102
RTVSPropertyOp17
 70
     1
102
RTVSPropertyOp18
 70
     1
102
RTVSPropertyOp19
 70
     1
102
RTVSPropertyOp20
 70
     1
102
RTVSPropertyOp21
 70
     1
102
RTVSPropertyOp22
 70
     1
102
RTVSPropertyOp23
 70
     1
102
RTVSPropertyOp24
 70
     1
102
RTVSPropertyOp25
 70
     1
102
RTVSPropertyOp26
 70
     1
102
RTVSPropertyOp27
 70
     1
102
RTVSPropertyOp28
 70
     1
102
RTVSPropertyOp29
 70
     1
102
RTVSPropertyOp30
 70
     1
102
RTVSPropertyOp31
 70
     1
102
RTVSPropertyOp32
 70
     1
102
RTVSPropertyOp33
 70
     1
102
RTVSPropertyOp34
 70
     1
102
RTVSPropertyOp35
 70
     1
102
RTVSPropertyOp36
 70
     1
102
RTVSPropertyOp37
 70
     1
102
RTVSPropertyOp38
 70
     1
102
RTVSPropertyOp39
 70
     1
102
RTVSPropertyOp40
 70
     1
102
RTVSPropertyOp41
 70
     1
102
RTVSPropertyOp42
 70
     1
102
RTVSPropertyOp43
 70
     1
102
RTVSPropertyOp44
 70
     1
102
RTVSPropertyOp45
 70
     1
102
RTVSPropertyOp46
 70
     1
102
RTVSPropertyOp47
 70
     1
102
RTVSPropertyOp48
 70
     1
102
RTVSPropertyOp49
 70
     1
102
RTVSPropertyOp50
 70
     1
102
RTVSPropertyOp51
 70
     0
102
RTVSPropertyOp52
 70
     0
102
RTVSPropertyOp53
 70
     1
102
RTVSPropertyOp54
 70
     1
102
RTVSPropertyOp55
 70
     1
102
RTVSPropertyOp56
 70
     1
102
RTVSPropertyOp57
 70
     1
102
RTVSPropertyOp58
 70
     1
102
RTVSPropertyOp59
 70
     1
102
RTVSPropertyOp60
 70
     1
102
RTVSPropertyOp61
 70
     1
102
RTVSPropertyOp62
 70
     1
  0
XRECORD
  5
E256
102
{ACAD_REACTORS
330
E255
102
}
330
E255
100
AcDbXrecord
280
     1
102
RTVSPost2010Prop28
280
     0
102
RTVSPost2010PropOp28
 70
     1
102
RTVSPost2010Prop29
280
     1
102
RTVSPost2010PropOp29
 70
     1
102
RTVSPost2010Prop30
280
     1
102
RTVSPost2010PropOp30
 70
     1
102
RTVSPost2010Prop31
280
     0
102
RTVSPost2010PropOp31
 70
     1
102
RTVSPost2010Prop32
280
     0
102
RTVSPost2010PropOp32
 70
     1
102
RTVSPost2010Prop33
280
     0
102
RTVSPost2010PropOp33
 70
     1
102
RTVSPost2010Prop34
280
     0
102
RTVSPost2010PropOp34
 70
     1
102
RTVSPost2010Prop35
280
     0
102
RTVSPost2010PropOp35
 70
     1
102
RTVSPost2010Prop36
280
     0
102
RTVSPost2010PropOp36
 70
     1
102
RTVSPost2010Prop37
 90
       50
102
RTVSPost2010PropOp37
 70
     1
102
RTVSPost2010Prop38
140
0.0
102
RTVSPost2010PropOp38
 70
     1
102
RTVSPost2010Prop39
140
1.0
102
RTVSPost2010PropOp39
 70
     1
102
RTVSPost2010Prop40
 90
        0
102
RTVSPost2010PropOp40
 70
     1
102
RTVSPost2010Prop41ColorIndex
 90
       18
102
RTVSPost2010Prop41ColorRGB
 90
        0
102
RTVSPost2010PropOp41
 70
     1
102
RTVSPost2010Prop42
 90
       50
102
RTVSPost2010PropOp42
 70
     1
102
RTVSPost2010Prop43
 90
        3
102
RTVSPost2010PropOp43
 70
     1
102
RTVSPost2010Prop44ColorIndex
 90
        5
102
RTVSPost2010Prop44ColorRGB
 90
      255
102
RTVSPost2010PropOp44
 70
     1
102
RTVSPost2010Prop45
280
     0
102
RTVSPost2010PropOp45
 70
     1
102
RTVSPost2010Prop46
 90
       50
102
RTVSPost2010PropOp46
 70
     1
102
RTVSPost2010Prop47
 90
       50
102
RTVSPost2010PropOp47
 70
     1
102
RTVSPost2010Prop48
 90
       50
102
RTVSPost2010PropOp48
 70
     1
102
RTVSPost2010Prop49
280
     0
102
RTVSPost2010PropOp49
 70
     1
102
RTVSPost2010Prop50
 90
       50
102
RTVSPost2010PropOp50
 70
     1
102
RTVSPost2010Prop51ColorIndex
 90
      256
102
RTVSPost2010Prop51ColorRGB
 90
-16777216
102
RTVSPost2010PropOp51
 70
     0
102
RTVSPost2010Prop52
140
1.0
102
RTVSPost2010PropOp52
 70
     0
102
RTVSPost2010Prop53
 90
        2
102
RTVSPost2010PropOp53
 70
     1
102
RTVSPost2010Prop54
  1
strokes_ogs.tif
102
RTVSPost2010PropOp54
 70
     1
102
RTVSPost2010Prop55
280
     0
102
RTVSPost2010PropOp55
 70
     1
102
RTVSPost2010Prop56
140
1.0
102
RTVSPost2010PropOp56
 70
     1
102
RTVSPost2010Prop57
140
1.0
102
RTVSPost2010PropOp57
 70
     1
102
RTVSPropertyOp0
 70
     1
102
RTVSPropertyOp1
 70
     1
102
RTVSPropertyOp2
 70
     1
102
RTVSPropertyOp3
 70
     1
102
RTVSPropertyOp4
 70
     1
102
RTVSPropertyOp5
 70
     1
102
RTVSPropertyOp6
 70
     1
102
RTVSPropertyOp7
 70
     1
102
RTVSPropertyOp8
 70
     1
102
RTVSPropertyOp9
 70
     1
102
RTVSPropertyOp10
 70
     1
102
RTVSPropertyOp11
 70
     1
102
RTVSPropertyOp12
 70
     1
102
RTVSPropertyOp13
 70
     1
102
RTVSPropertyOp14
 70
     1
102
RTVSPropertyOp15
 70
     1
102
RTVSPropertyOp16
 70
     1
102
RTVSPropertyOp17
 70
     1
102
RTVSPropertyOp18
 70
     1
102
RTVSPropertyOp19
 70
     1
102
RTVSPropertyOp20
 70
     1
102
RTVSPropertyOp21
 70
     1
102
RTVSPropertyOp22
 70
     1
102
RTVSPropertyOp23
 70
     1
102
RTVSPropertyOp24
 70
     1
102
RTVSPropertyOp25
 70
     1
102
RTVSPropertyOp26
 70
     1
102
RTVSPropertyOp27
 70
     1
102
RTVSPropertyOp28
 70
     1
102
RTVSPropertyOp29
 70
     1
102
RTVSPropertyOp30
 70
     1
102
RTVSPropertyOp31
 70
     1
102
RTVSPropertyOp32
 70
     1
102
RTVSPropertyOp33
 70
     1
102
RTVSPropertyOp34
 70
     1
102
RTVSPropertyOp35
 70
     1
102
RTVSPropertyOp36
 70
     1
102
RTVSPropertyOp37
 70
     1
102
RTVSPropertyOp38
 70
     1
102
RTVSPropertyOp39
 70
     1
102
RTVSPropertyOp40
 70
     1
102
RTVSPropertyOp41
 70
     1
102
RTVSPropertyOp42
 70
     1
102
RTVSPropertyOp43
 70
     1
102
RTVSPropertyOp44
 70
     1
102
RTVSPropertyOp45
 70
     1
102
RTVSPropertyOp46
 70
     1
102
RTVSPropertyOp47
 70
     1
102
RTVSPropertyOp48
 70
     1
102
RTVSPropertyOp49
 70
     1
102
RTVSPropertyOp50
 70
     1
102
RTVSPropertyOp51
 70
     0
102
RTVSPropertyOp52
 70
     0
102
RTVSPropertyOp53
 70
     1
102
RTVSPropertyOp54
 70
     1
102
RTVSPropertyOp55
 70
     1
102
RTVSPropertyOp56
 70
     1
102
RTVSPropertyOp57
 70
     1
102
RTVSPropertyOp58
 70
     1
102
RTVSPropertyOp59
 70
     1
102
RTVSPropertyOp60
 70
     1
102
RTVSPropertyOp61
 70
     1
102
RTVSPropertyOp62
 70
     1
  0
XRECORD
  5
E248
102
{ACAD_REACTORS
330
E247
102
}
330
E247
100
AcDbXrecord
280
     1
102
RTVSPost2010Prop28
280
     0
102
RTVSPost2010PropOp28
 70
     1
102
RTVSPost2010Prop29
280
     1
102
RTVSPost2010PropOp29
 70
     1
102
RTVSPost2010Prop30
280
     1
102
RTVSPost2010PropOp30
 70
     1
102
RTVSPost2010Prop31
280
     0
102
RTVSPost2010PropOp31
 70
     1
102
RTVSPost2010Prop32
280
     0
102
RTVSPost2010PropOp32
 70
     1
102
RTVSPost2010Prop33
280
     0
102
RTVSPost2010PropOp33
 70
     1
102
RTVSPost2010Prop34
280
     0
102
RTVSPost2010PropOp34
 70
     1
102
RTVSPost2010Prop35
280
     0
102
RTVSPost2010PropOp35
 70
     1
102
RTVSPost2010Prop36
280
     0
102
RTVSPost2010PropOp36
 70
     1
102
RTVSPost2010Prop37
 90
       50
102
RTVSPost2010PropOp37
 70
     1
102
RTVSPost2010Prop38
140
0.0
102
RTVSPost2010PropOp38
 70
     1
102
RTVSPost2010Prop39
140
1.0
102
RTVSPost2010PropOp39
 70
     1
102
RTVSPost2010Prop40
 90
        0
102
RTVSPost2010PropOp40
 70
     1
102
RTVSPost2010Prop41ColorIndex
 90
       18
102
RTVSPost2010Prop41ColorRGB
 90
        0
102
RTVSPost2010PropOp41
 70
     1
102
RTVSPost2010Prop42
 90
       50
102
RTVSPost2010PropOp42
 70
     1
102
RTVSPost2010Prop43
 90
        3
102
RTVSPost2010PropOp43
 70
     1
102
RTVSPost2010Prop44ColorIndex
 90
        5
102
RTVSPost2010Prop44ColorRGB
 90
      255
102
RTVSPost2010PropOp44
 70
     1
102
RTVSPost2010Prop45
280
     0
102
RTVSPost2010PropOp45
 70
     1
102
RTVSPost2010Prop46
 90
       50
102
RTVSPost2010PropOp46
 70
     1
102
RTVSPost2010Prop47
 90
       50
102
RTVSPost2010PropOp47
 70
     1
102
RTVSPost2010Prop48
 90
       50
102
RTVSPost2010PropOp48
 70
     1
102
RTVSPost2010Prop49
280
     0
102
RTVSPost2010PropOp49
 70
     1
102
RTVSPost2010Prop50
 90
       50
102
RTVSPost2010PropOp50
 70
     1
102
RTVSPost2010Prop51ColorIndex
 90
      256
102
RTVSPost2010Prop51ColorRGB
 90
-16777216
102
RTVSPost2010PropOp51
 70
     0
102
RTVSPost2010Prop52
140
1.0
102
RTVSPost2010PropOp52
 70
     0
102
RTVSPost2010Prop53
 90
        2
102
RTVSPost2010PropOp53
 70
     1
102
RTVSPost2010Prop54
  1
strokes_ogs.tif
102
RTVSPost2010PropOp54
 70
     1
102
RTVSPost2010Prop55
280
     0
102
RTVSPost2010PropOp55
 70
     1
102
RTVSPost2010Prop56
140
1.0
102
RTVSPost2010PropOp56
 70
     1
102
RTVSPost2010Prop57
140
1.0
102
RTVSPost2010PropOp57
 70
     1
102
RTVSPropertyOp0
 70
     1
102
RTVSPropertyOp1
 70
     1
102
RTVSPropertyOp2
 70
     1
102
RTVSPropertyOp3
 70
     1
102
RTVSPropertyOp4
 70
     1
102
RTVSPropertyOp5
 70
     1
102
RTVSPropertyOp6
 70
     1
102
RTVSPropertyOp7
 70
     1
102
RTVSPropertyOp8
 70
     1
102
RTVSPropertyOp9
 70
     1
102
RTVSPropertyOp10
 70
     1
102
RTVSPropertyOp11
 70
     1
102
RTVSPropertyOp12
 70
     1
102
RTVSPropertyOp13
 70
     1
102
RTVSPropertyOp14
 70
     1
102
RTVSPropertyOp15
 70
     1
102
RTVSPropertyOp16
 70
     1
102
RTVSPropertyOp17
 70
     1
102
RTVSPropertyOp18
 70
     1
102
RTVSPropertyOp19
 70
     1
102
RTVSPropertyOp20
 70
     1
102
RTVSPropertyOp21
 70
     1
102
RTVSPropertyOp22
 70
     1
102
RTVSPropertyOp23
 70
     1
102
RTVSPropertyOp24
 70
     1
102
RTVSPropertyOp25
 70
     1
102
RTVSPropertyOp26
 70
     1
102
RTVSPropertyOp27
 70
     1
102
RTVSPropertyOp28
 70
     1
102
RTVSPropertyOp29
 70
     1
102
RTVSPropertyOp30
 70
     1
102
RTVSPropertyOp31
 70
     1
102
RTVSPropertyOp32
 70
     1
102
RTVSPropertyOp33
 70
     1
102
RTVSPropertyOp34
 70
     1
102
RTVSPropertyOp35
 70
     1
102
RTVSPropertyOp36
 70
     1
102
RTVSPropertyOp37
 70
     1
102
RTVSPropertyOp38
 70
     1
102
RTVSPropertyOp39
 70
     1
102
RTVSPropertyOp40
 70
     1
102
RTVSPropertyOp41
 70
     1
102
RTVSPropertyOp42
 70
     1
102
RTVSPropertyOp43
 70
     1
102
RTVSPropertyOp44
 70
     1
102
RTVSPropertyOp45
 70
     1
102
RTVSPropertyOp46
 70
     1
102
RTVSPropertyOp47
 70
     1
102
RTVSPropertyOp48
 70
     1
102
RTVSPropertyOp49
 70
     1
102
RTVSPropertyOp50
 70
     1
102
RTVSPropertyOp51
 70
     0
102
RTVSPropertyOp52
 70
     0
102
RTVSPropertyOp53
 70
     1
102
RTVSPropertyOp54
 70
     1
102
RTVSPropertyOp55
 70
     1
102
RTVSPropertyOp56
 70
     1
102
RTVSPropertyOp57
 70
     1
102
RTVSPropertyOp58
 70
     1
102
RTVSPropertyOp59
 70
     1
102
RTVSPropertyOp60
 70
     1
102
RTVSPropertyOp61
 70
     1
102
RTVSPropertyOp62
 70
     1
  0
XRECORD
  5
E24C
102
{ACAD_REACTORS
330
E24B
102
}
330
E24B
100
AcDbXrecord
280
     1
102
RTVSPost2010Prop28
280
     0
102
RTVSPost2010PropOp28
 70
     1
102
RTVSPost2010Prop29
280
     1
102
RTVSPost2010PropOp29
 70
     1
102
RTVSPost2010Prop30
280
     1
102
RTVSPost2010PropOp30
 70
     1
102
RTVSPost2010Prop31
280
     0
102
RTVSPost2010PropOp31
 70
     1
102
RTVSPost2010Prop32
280
     0
102
RTVSPost2010PropOp32
 70
     1
102
RTVSPost2010Prop33
280
     0
102
RTVSPost2010PropOp33
 70
     1
102
RTVSPost2010Prop34
280
     0
102
RTVSPost2010PropOp34
 70
     1
102
RTVSPost2010Prop35
280
     0
102
RTVSPost2010PropOp35
 70
     1
102
RTVSPost2010Prop36
280
     0
102
RTVSPost2010PropOp36
 70
     1
102
RTVSPost2010Prop37
 90
       50
102
RTVSPost2010PropOp37
 70
     1
102
RTVSPost2010Prop38
140
0.0
102
RTVSPost2010PropOp38
 70
     1
102
RTVSPost2010Prop39
140
1.0
102
RTVSPost2010PropOp39
 70
     1
102
RTVSPost2010Prop40
 90
        0
102
RTVSPost2010PropOp40
 70
     1
102
RTVSPost2010Prop41ColorIndex
 90
       18
102
RTVSPost2010Prop41ColorRGB
 90
        0
102
RTVSPost2010PropOp41
 70
     1
102
RTVSPost2010Prop42
 90
       50
102
RTVSPost2010PropOp42
 70
     1
102
RTVSPost2010Prop43
 90
        3
102
RTVSPost2010PropOp43
 70
     1
102
RTVSPost2010Prop44ColorIndex
 90
        5
102
RTVSPost2010Prop44ColorRGB
 90
      255
102
RTVSPost2010PropOp44
 70
     1
102
RTVSPost2010Prop45
280
     0
102
RTVSPost2010PropOp45
 70
     1
102
RTVSPost2010Prop46
 90
       50
102
RTVSPost2010PropOp46
 70
     1
102
RTVSPost2010Prop47
 90
       50
102
RTVSPost2010PropOp47
 70
     1
102
RTVSPost2010Prop48
 90
       50
102
RTVSPost2010PropOp48
 70
     1
102
RTVSPost2010Prop49
280
     0
102
RTVSPost2010PropOp49
 70
     1
102
RTVSPost2010Prop50
 90
       50
102
RTVSPost2010PropOp50
 70
     1
102
RTVSPost2010Prop51ColorIndex
 90
      256
102
RTVSPost2010Prop51ColorRGB
 90
-16777216
102
RTVSPost2010PropOp51
 70
     0
102
RTVSPost2010Prop52
140
1.0
102
RTVSPost2010PropOp52
 70
     0
102
RTVSPost2010Prop53
 90
        2
102
RTVSPost2010PropOp53
 70
     1
102
RTVSPost2010Prop54
  1
strokes_ogs.tif
102
RTVSPost2010PropOp54
 70
     1
102
RTVSPost2010Prop55
280
     0
102
RTVSPost2010PropOp55
 70
     1
102
RTVSPost2010Prop56
140
1.0
102
RTVSPost2010PropOp56
 70
     1
102
RTVSPost2010Prop57
140
1.0
102
RTVSPost2010PropOp57
 70
     1
102
RTVSPropertyOp0
 70
     1
102
RTVSPropertyOp1
 70
     1
102
RTVSPropertyOp2
 70
     1
102
RTVSPropertyOp3
 70
     1
102
RTVSPropertyOp4
 70
     1
102
RTVSPropertyOp5
 70
     1
102
RTVSPropertyOp6
 70
     1
102
RTVSPropertyOp7
 70
     1
102
RTVSPropertyOp8
 70
     1
102
RTVSPropertyOp9
 70
     1
102
RTVSPropertyOp10
 70
     1
102
RTVSPropertyOp11
 70
     1
102
RTVSPropertyOp12
 70
     1
102
RTVSPropertyOp13
 70
     1
102
RTVSPropertyOp14
 70
     1
102
RTVSPropertyOp15
 70
     1
102
RTVSPropertyOp16
 70
     1
102
RTVSPropertyOp17
 70
     1
102
RTVSPropertyOp18
 70
     1
102
RTVSPropertyOp19
 70
     1
102
RTVSPropertyOp20
 70
     1
102
RTVSPropertyOp21
 70
     1
102
RTVSPropertyOp22
 70
     1
102
RTVSPropertyOp23
 70
     1
102
RTVSPropertyOp24
 70
     1
102
RTVSPropertyOp25
 70
     1
102
RTVSPropertyOp26
 70
     1
102
RTVSPropertyOp27
 70
     1
102
RTVSPropertyOp28
 70
     1
102
RTVSPropertyOp29
 70
     1
102
RTVSPropertyOp30
 70
     1
102
RTVSPropertyOp31
 70
     1
102
RTVSPropertyOp32
 70
     1
102
RTVSPropertyOp33
 70
     1
102
RTVSPropertyOp34
 70
     1
102
RTVSPropertyOp35
 70
     1
102
RTVSPropertyOp36
 70
     1
102
RTVSPropertyOp37
 70
     1
102
RTVSPropertyOp38
 70
     1
102
RTVSPropertyOp39
 70
     1
102
RTVSPropertyOp40
 70
     1
102
RTVSPropertyOp41
 70
     1
102
RTVSPropertyOp42
 70
     1
102
RTVSPropertyOp43
 70
     1
102
RTVSPropertyOp44
 70
     1
102
RTVSPropertyOp45
 70
     1
102
RTVSPropertyOp46
 70
     1
102
RTVSPropertyOp47
 70
     1
102
RTVSPropertyOp48
 70
     1
102
RTVSPropertyOp49
 70
     1
102
RTVSPropertyOp50
 70
     1
102
RTVSPropertyOp51
 70
     0
102
RTVSPropertyOp52
 70
     0
102
RTVSPropertyOp53
 70
     1
102
RTVSPropertyOp54
 70
     1
102
RTVSPropertyOp55
 70
     1
102
RTVSPropertyOp56
 70
     1
102
RTVSPropertyOp57
 70
     1
102
RTVSPropertyOp58
 70
     1
102
RTVSPropertyOp59
 70
     1
102
RTVSPropertyOp60
 70
     1
102
RTVSPropertyOp61
 70
     1
102
RTVSPropertyOp62
 70
     1
  0
XRECORD
  5
E266
102
{ACAD_REACTORS
330
E265
102
}
330
E265
100
AcDbXrecord
280
     1
102
RTVSPost2010Prop28
280
     0
102
RTVSPost2010PropOp28
 70
     1
102
RTVSPost2010Prop29
280
     1
102
RTVSPost2010PropOp29
 70
     1
102
RTVSPost2010Prop30
280
     1
102
RTVSPost2010PropOp30
 70
     1
102
RTVSPost2010Prop31
280
     0
102
RTVSPost2010PropOp31
 70
     1
102
RTVSPost2010Prop32
280
     0
102
RTVSPost2010PropOp32
 70
     1
102
RTVSPost2010Prop33
280
     0
102
RTVSPost2010PropOp33
 70
     1
102
RTVSPost2010Prop34
280
     0
102
RTVSPost2010PropOp34
 70
     1
102
RTVSPost2010Prop35
280
     0
102
RTVSPost2010PropOp35
 70
     1
102
RTVSPost2010Prop36
280
     0
102
RTVSPost2010PropOp36
 70
     1
102
RTVSPost2010Prop37
 90
       50
102
RTVSPost2010PropOp37
 70
     0
102
RTVSPost2010Prop38
140
0.0
102
RTVSPost2010PropOp38
 70
     0
102
RTVSPost2010Prop39
140
1.0
102
RTVSPost2010PropOp39
 70
     0
102
RTVSPost2010Prop40
 90
        0
102
RTVSPost2010PropOp40
 70
     0
102
RTVSPost2010Prop41ColorIndex
 90
       18
102
RTVSPost2010Prop41ColorRGB
 90
        0
102
RTVSPost2010PropOp41
 70
     0
102
RTVSPost2010Prop42
 90
       50
102
RTVSPost2010PropOp42
 70
     0
102
RTVSPost2010Prop43
 90
        3
102
RTVSPost2010PropOp43
 70
     0
102
RTVSPost2010Prop44ColorIndex
 90
        5
102
RTVSPost2010Prop44ColorRGB
 90
      255
102
RTVSPost2010PropOp44
 70
     0
102
RTVSPost2010Prop45
280
     0
102
RTVSPost2010PropOp45
 70
     1
102
RTVSPost2010Prop46
 90
       50
102
RTVSPost2010PropOp46
 70
     0
102
RTVSPost2010Prop47
 90
       50
102
RTVSPost2010PropOp47
 70
     0
102
RTVSPost2010Prop48
 90
       50
102
RTVSPost2010PropOp48
 70
     0
102
RTVSPost2010Prop49
280
     0
102
RTVSPost2010PropOp49
 70
     1
102
RTVSPost2010Prop50
 90
       50
102
RTVSPost2010PropOp50
 70
     0
102
RTVSPost2010Prop51ColorIndex
 90
      256
102
RTVSPost2010Prop51ColorRGB
 90
-16777216
102
RTVSPost2010PropOp51
 70
     0
102
RTVSPost2010Prop52
140
1.0
102
RTVSPost2010PropOp52
 70
     0
102
RTVSPost2010Prop53
 90
        2
102
RTVSPost2010PropOp53
 70
     0
102
RTVSPost2010Prop54
  1
strokes_ogs.tif
102
RTVSPost2010PropOp54
 70
     0
102
RTVSPost2010Prop55
280
     0
102
RTVSPost2010PropOp55
 70
     1
102
RTVSPost2010Prop56
140
1.0
102
RTVSPost2010PropOp56
 70
     0
102
RTVSPost2010Prop57
140
1.0
102
RTVSPost2010PropOp57
 70
     0
102
RTVSPropertyOp0
 70
     0
102
RTVSPropertyOp1
 70
     0
102
RTVSPropertyOp2
 70
     0
102
RTVSPropertyOp3
 70
     0
102
RTVSPropertyOp4
 70
     0
102
RTVSPropertyOp5
 70
     0
102
RTVSPropertyOp6
 70
     0
102
RTVSPropertyOp7
 70
     0
102
RTVSPropertyOp8
 70
     0
102
RTVSPropertyOp9
 70
     0
102
RTVSPropertyOp10
 70
     0
102
RTVSPropertyOp11
 70
     0
102
RTVSPropertyOp12
 70
     0
102
RTVSPropertyOp13
 70
     0
102
RTVSPropertyOp14
 70
     2
102
RTVSPropertyOp15
 70
     0
102
RTVSPropertyOp16
 70
     0
102
RTVSPropertyOp17
 70
     0
102
RTVSPropertyOp18
 70
     0
102
RTVSPropertyOp19
 70
     0
102
RTVSPropertyOp20
 70
     0
102
RTVSPropertyOp21
 70
     0
102
RTVSPropertyOp22
 70
     0
102
RTVSPropertyOp23
 70
     0
102
RTVSPropertyOp24
 70
     0
102
RTVSPropertyOp25
 70
     0
102
RTVSPropertyOp26
 70
     0
102
RTVSPropertyOp27
 70
     0
102
RTVSPropertyOp28
 70
     1
102
RTVSPropertyOp29
 70
     1
102
RTVSPropertyOp30
 70
     1
102
RTVSPropertyOp31
 70
     1
102
RTVSPropertyOp32
 70
     1
102
RTVSPropertyOp33
 70
     1
102
RTVSPropertyOp34
 70
     1
102
RTVSPropertyOp35
 70
     1
102
RTVSPropertyOp36
 70
     1
102
RTVSPropertyOp37
 70
     0
102
RTVSPropertyOp38
 70
     0
102
RTVSPropertyOp39
 70
     0
102
RTVSPropertyOp40
 70
     0
102
RTVSPropertyOp41
 70
     0
102
RTVSPropertyOp42
 70
     0
102
RTVSPropertyOp43
 70
     0
102
RTVSPropertyOp44
 70
     0
102
RTVSPropertyOp45
 70
     1
102
RTVSPropertyOp46
 70
     0
102
RTVSPropertyOp47
 70
     0
102
RTVSPropertyOp48
 70
     0
102
RTVSPropertyOp49
 70
     1
102
RTVSPropertyOp50
 70
     0
102
RTVSPropertyOp51
 70
     0
102
RTVSPropertyOp52
 70
     0
102
RTVSPropertyOp53
 70
     0
102
RTVSPropertyOp54
 70
     0
102
RTVSPropertyOp55
 70
     1
102
RTVSPropertyOp56
 70
     0
102
RTVSPropertyOp57
 70
     0
102
RTVSPropertyOp58
 70
     0
102
RTVSPropertyOp59
 70
     0
102
RTVSPropertyOp60
 70
     0
102
RTVSPropertyOp61
 70
     0
102
RTVSPropertyOp62
 70
     0
  0
XRECORD
  5
E254
102
{ACAD_REACTORS
330
E253
102
}
330
E253
100
AcDbXrecord
280
     1
102
RTVSPost2010Prop28
280
     0
102
RTVSPost2010PropOp28
 70
     1
102
RTVSPost2010Prop29
280
     1
102
RTVSPost2010PropOp29
 70
     1
102
RTVSPost2010Prop30
280
     1
102
RTVSPost2010PropOp30
 70
     1
102
RTVSPost2010Prop31
280
     0
102
RTVSPost2010PropOp31
 70
     1
102
RTVSPost2010Prop32
280
     0
102
RTVSPost2010PropOp32
 70
     1
102
RTVSPost2010Prop33
280
     0
102
RTVSPost2010PropOp33
 70
     1
102
RTVSPost2010Prop34
280
     0
102
RTVSPost2010PropOp34
 70
     1
102
RTVSPost2010Prop35
280
     0
102
RTVSPost2010PropOp35
 70
     1
102
RTVSPost2010Prop36
280
     0
102
RTVSPost2010PropOp36
 70
     1
102
RTVSPost2010Prop37
 90
       50
102
RTVSPost2010PropOp37
 70
     1
102
RTVSPost2010Prop38
140
0.0
102
RTVSPost2010PropOp38
 70
     1
102
RTVSPost2010Prop39
140
1.0
102
RTVSPost2010PropOp39
 70
     1
102
RTVSPost2010Prop40
 90
        0
102
RTVSPost2010PropOp40
 70
     1
102
RTVSPost2010Prop41ColorIndex
 90
       18
102
RTVSPost2010Prop41ColorRGB
 90
        0
102
RTVSPost2010PropOp41
 70
     1
102
RTVSPost2010Prop42
 90
       50
102
RTVSPost2010PropOp42
 70
     1
102
RTVSPost2010Prop43
 90
        3
102
RTVSPost2010PropOp43
 70
     1
102
RTVSPost2010Prop44ColorIndex
 90
        5
102
RTVSPost2010Prop44ColorRGB
 90
      255
102
RTVSPost2010PropOp44
 70
     1
102
RTVSPost2010Prop45
280
     0
102
RTVSPost2010PropOp45
 70
     1
102
RTVSPost2010Prop46
 90
       50
102
RTVSPost2010PropOp46
 70
     1
102
RTVSPost2010Prop47
 90
       50
102
RTVSPost2010PropOp47
 70
     1
102
RTVSPost2010Prop48
 90
       50
102
RTVSPost2010PropOp48
 70
     1
102
RTVSPost2010Prop49
280
     0
102
RTVSPost2010PropOp49
 70
     1
102
RTVSPost2010Prop50
 90
       50
102
RTVSPost2010PropOp50
 70
     1
102
RTVSPost2010Prop51ColorIndex
 90
      256
102
RTVSPost2010Prop51ColorRGB
 90
-16777216
102
RTVSPost2010PropOp51
 70
     0
102
RTVSPost2010Prop52
140
1.0
102
RTVSPost2010PropOp52
 70
     0
102
RTVSPost2010Prop53
 90
        2
102
RTVSPost2010PropOp53
 70
     1
102
RTVSPost2010Prop54
  1
strokes_ogs.tif
102
RTVSPost2010PropOp54
 70
     1
102
RTVSPost2010Prop55
280
     0
102
RTVSPost2010PropOp55
 70
     1
102
RTVSPost2010Prop56
140
1.0
102
RTVSPost2010PropOp56
 70
     1
102
RTVSPost2010Prop57
140
1.0
102
RTVSPost2010PropOp57
 70
     1
102
RTVSPropertyOp0
 70
     1
102
RTVSPropertyOp1
 70
     1
102
RTVSPropertyOp2
 70
     1
102
RTVSPropertyOp3
 70
     1
102
RTVSPropertyOp4
 70
     1
102
RTVSPropertyOp5
 70
     1
102
RTVSPropertyOp6
 70
     1
102
RTVSPropertyOp7
 70
     1
102
RTVSPropertyOp8
 70
     1
102
RTVSPropertyOp9
 70
     1
102
RTVSPropertyOp10
 70
     1
102
RTVSPropertyOp11
 70
     1
102
RTVSPropertyOp12
 70
     1
102
RTVSPropertyOp13
 70
     1
102
RTVSPropertyOp14
 70
     1
102
RTVSPropertyOp15
 70
     1
102
RTVSPropertyOp16
 70
     1
102
RTVSPropertyOp17
 70
     1
102
RTVSPropertyOp18
 70
     1
102
RTVSPropertyOp19
 70
     1
102
RTVSPropertyOp20
 70
     1
102
RTVSPropertyOp21
 70
     1
102
RTVSPropertyOp22
 70
     1
102
RTVSPropertyOp23
 70
     1
102
RTVSPropertyOp24
 70
     1
102
RTVSPropertyOp25
 70
     1
102
RTVSPropertyOp26
 70
     1
102
RTVSPropertyOp27
 70
     1
102
RTVSPropertyOp28
 70
     1
102
RTVSPropertyOp29
 70
     1
102
RTVSPropertyOp30
 70
     1
102
RTVSPropertyOp31
 70
     1
102
RTVSPropertyOp32
 70
     1
102
RTVSPropertyOp33
 70
     1
102
RTVSPropertyOp34
 70
     1
102
RTVSPropertyOp35
 70
     1
102
RTVSPropertyOp36
 70
     1
102
RTVSPropertyOp37
 70
     1
102
RTVSPropertyOp38
 70
     1
102
RTVSPropertyOp39
 70
     1
102
RTVSPropertyOp40
 70
     1
102
RTVSPropertyOp41
 70
     1
102
RTVSPropertyOp42
 70
     1
102
RTVSPropertyOp43
 70
     1
102
RTVSPropertyOp44
 70
     1
102
RTVSPropertyOp45
 70
     1
102
RTVSPropertyOp46
 70
     1
102
RTVSPropertyOp47
 70
     1
102
RTVSPropertyOp48
 70
     1
102
RTVSPropertyOp49
 70
     1
102
RTVSPropertyOp50
 70
     1
102
RTVSPropertyOp51
 70
     0
102
RTVSPropertyOp52
 70
     0
102
RTVSPropertyOp53
 70
     1
102
RTVSPropertyOp54
 70
     1
102
RTVSPropertyOp55
 70
     1
102
RTVSPropertyOp56
 70
     1
102
RTVSPropertyOp57
 70
     1
102
RTVSPropertyOp58
 70
     1
102
RTVSPropertyOp59
 70
     1
102
RTVSPropertyOp60
 70
     1
102
RTVSPropertyOp61
 70
     1
102
RTVSPropertyOp62
 70
     1
  0
XRECORD
  5
E238
102
{ACAD_REACTORS
330
E237
102
}
330
E237
100
AcDbXrecord
280
     1
102
RTVSPost2010Prop28
280
     0
102
RTVSPost2010PropOp28
 70
     1
102
RTVSPost2010Prop29
280
     1
102
RTVSPost2010PropOp29
 70
     1
102
RTVSPost2010Prop30
280
     1
102
RTVSPost2010PropOp30
 70
     1
102
RTVSPost2010Prop31
280
     0
102
RTVSPost2010PropOp31
 70
     1
102
RTVSPost2010Prop32
280
     0
102
RTVSPost2010PropOp32
 70
     1
102
RTVSPost2010Prop33
280
     0
102
RTVSPost2010PropOp33
 70
     1
102
RTVSPost2010Prop34
280
     0
102
RTVSPost2010PropOp34
 70
     1
102
RTVSPost2010Prop35
280
     0
102
RTVSPost2010PropOp35
 70
     1
102
RTVSPost2010Prop36
280
     0
102
RTVSPost2010PropOp36
 70
     1
102
RTVSPost2010Prop37
 90
       50
102
RTVSPost2010PropOp37
 70
     1
102
RTVSPost2010Prop38
140
0.0
102
RTVSPost2010PropOp38
 70
     1
102
RTVSPost2010Prop39
140
1.0
102
RTVSPost2010PropOp39
 70
     1
102
RTVSPost2010Prop40
 90
        0
102
RTVSPost2010PropOp40
 70
     1
102
RTVSPost2010Prop41ColorIndex
 90
       18
102
RTVSPost2010Prop41ColorRGB
 90
        0
102
RTVSPost2010PropOp41
 70
     1
102
RTVSPost2010Prop42
 90
       50
102
RTVSPost2010PropOp42
 70
     1
102
RTVSPost2010Prop43
 90
        3
102
RTVSPost2010PropOp43
 70
     1
102
RTVSPost2010Prop44ColorIndex
 90
        5
102
RTVSPost2010Prop44ColorRGB
 90
      255
102
RTVSPost2010PropOp44
 70
     1
102
RTVSPost2010Prop45
280
     0
102
RTVSPost2010PropOp45
 70
     1
102
RTVSPost2010Prop46
 90
       50
102
RTVSPost2010PropOp46
 70
     1
102
RTVSPost2010Prop47
 90
       50
102
RTVSPost2010PropOp47
 70
     1
102
RTVSPost2010Prop48
 90
       50
102
RTVSPost2010PropOp48
 70
     1
102
RTVSPost2010Prop49
280
     0
102
RTVSPost2010PropOp49
 70
     1
102
RTVSPost2010Prop50
 90
       50
102
RTVSPost2010PropOp50
 70
     1
102
RTVSPost2010Prop51ColorIndex
 90
      256
102
RTVSPost2010Prop51ColorRGB
 90
-16777216
102
RTVSPost2010PropOp51
 70
     0
102
RTVSPost2010Prop52
140
1.0
102
RTVSPost2010PropOp52
 70
     0
102
RTVSPost2010Prop53
 90
        2
102
RTVSPost2010PropOp53
 70
     1
102
RTVSPost2010Prop54
  1
strokes_ogs.tif
102
RTVSPost2010PropOp54
 70
     1
102
RTVSPost2010Prop55
280
     0
102
RTVSPost2010PropOp55
 70
     1
102
RTVSPost2010Prop56
140
1.0
102
RTVSPost2010PropOp56
 70
     1
102
RTVSPost2010Prop57
140
1.0
102
RTVSPost2010PropOp57
 70
     1
102
RTVSPropertyOp0
 70
     1
102
RTVSPropertyOp1
 70
     1
102
RTVSPropertyOp2
 70
     1
102
RTVSPropertyOp3
 70
     1
102
RTVSPropertyOp4
 70
     1
102
RTVSPropertyOp5
 70
     1
102
RTVSPropertyOp6
 70
     1
102
RTVSPropertyOp7
 70
     1
102
RTVSPropertyOp8
 70
     1
102
RTVSPropertyOp9
 70
     1
102
RTVSPropertyOp10
 70
     1
102
RTVSPropertyOp11
 70
     1
102
RTVSPropertyOp12
 70
     1
102
RTVSPropertyOp13
 70
     1
102
RTVSPropertyOp14
 70
     1
102
RTVSPropertyOp15
 70
     1
102
RTVSPropertyOp16
 70
     1
102
RTVSPropertyOp17
 70
     1
102
RTVSPropertyOp18
 70
     1
102
RTVSPropertyOp19
 70
     1
102
RTVSPropertyOp20
 70
     1
102
RTVSPropertyOp21
 70
     1
102
RTVSPropertyOp22
 70
     1
102
RTVSPropertyOp23
 70
     1
102
RTVSPropertyOp24
 70
     1
102
RTVSPropertyOp25
 70
     1
102
RTVSPropertyOp26
 70
     1
102
RTVSPropertyOp27
 70
     1
102
RTVSPropertyOp28
 70
     1
102
RTVSPropertyOp29
 70
     1
102
RTVSPropertyOp30
 70
     1
102
RTVSPropertyOp31
 70
     1
102
RTVSPropertyOp32
 70
     1
102
RTVSPropertyOp33
 70
     1
102
RTVSPropertyOp34
 70
     1
102
RTVSPropertyOp35
 70
     1
102
RTVSPropertyOp36
 70
     1
102
RTVSPropertyOp37
 70
     1
102
RTVSPropertyOp38
 70
     1
102
RTVSPropertyOp39
 70
     1
102
RTVSPropertyOp40
 70
     1
102
RTVSPropertyOp41
 70
     1
102
RTVSPropertyOp42
 70
     1
102
RTVSPropertyOp43
 70
     1
102
RTVSPropertyOp44
 70
     1
102
RTVSPropertyOp45
 70
     1
102
RTVSPropertyOp46
 70
     1
102
RTVSPropertyOp47
 70
     1
102
RTVSPropertyOp48
 70
     1
102
RTVSPropertyOp49
 70
     1
102
RTVSPropertyOp50
 70
     1
102
RTVSPropertyOp51
 70
     0
102
RTVSPropertyOp52
 70
     0
102
RTVSPropertyOp53
 70
     1
102
RTVSPropertyOp54
 70
     1
102
RTVSPropertyOp55
 70
     1
102
RTVSPropertyOp56
 70
     1
102
RTVSPropertyOp57
 70
     1
102
RTVSPropertyOp58
 70
     1
102
RTVSPropertyOp59
 70
     1
102
RTVSPropertyOp60
 70
     1
102
RTVSPropertyOp61
 70
     1
102
RTVSPropertyOp62
 70
     1
  0
XRECORD
  5
E23A
102
{ACAD_REACTORS
330
E239
102
}
330
E239
100
AcDbXrecord
280
     1
102
RTVSPost2010Prop28
280
     0
102
RTVSPost2010PropOp28
 70
     1
102
RTVSPost2010Prop29
280
     1
102
RTVSPost2010PropOp29
 70
     1
102
RTVSPost2010Prop30
280
     1
102
RTVSPost2010PropOp30
 70
     1
102
RTVSPost2010Prop31
280
     0
102
RTVSPost2010PropOp31
 70
     1
102
RTVSPost2010Prop32
280
     0
102
RTVSPost2010PropOp32
 70
     1
102
RTVSPost2010Prop33
280
     0
102
RTVSPost2010PropOp33
 70
     1
102
RTVSPost2010Prop34
280
     0
102
RTVSPost2010PropOp34
 70
     1
102
RTVSPost2010Prop35
280
     0
102
RTVSPost2010PropOp35
 70
     1
102
RTVSPost2010Prop36
280
     0
102
RTVSPost2010PropOp36
 70
     1
102
RTVSPost2010Prop37
 90
       50
102
RTVSPost2010PropOp37
 70
     1
102
RTVSPost2010Prop38
140
0.0
102
RTVSPost2010PropOp38
 70
     1
102
RTVSPost2010Prop39
140
1.0
102
RTVSPost2010PropOp39
 70
     1
102
RTVSPost2010Prop40
 90
        0
102
RTVSPost2010PropOp40
 70
     1
102
RTVSPost2010Prop41ColorIndex
 90
       18
102
RTVSPost2010Prop41ColorRGB
 90
        0
102
RTVSPost2010PropOp41
 70
     1
102
RTVSPost2010Prop42
 90
       50
102
RTVSPost2010PropOp42
 70
     1
102
RTVSPost2010Prop43
 90
        3
102
RTVSPost2010PropOp43
 70
     1
102
RTVSPost2010Prop44ColorIndex
 90
        5
102
RTVSPost2010Prop44ColorRGB
 90
      255
102
RTVSPost2010PropOp44
 70
     1
102
RTVSPost2010Prop45
280
     0
102
RTVSPost2010PropOp45
 70
     1
102
RTVSPost2010Prop46
 90
       50
102
RTVSPost2010PropOp46
 70
     1
102
RTVSPost2010Prop47
 90
       50
102
RTVSPost2010PropOp47
 70
     1
102
RTVSPost2010Prop48
 90
       50
102
RTVSPost2010PropOp48
 70
     1
102
RTVSPost2010Prop49
280
     0
102
RTVSPost2010PropOp49
 70
     1
102
RTVSPost2010Prop50
 90
       50
102
RTVSPost2010PropOp50
 70
     1
102
RTVSPost2010Prop51ColorIndex
 90
      256
102
RTVSPost2010Prop51ColorRGB
 90
-16777216
102
RTVSPost2010PropOp51
 70
     0
102
RTVSPost2010Prop52
140
1.0
102
RTVSPost2010PropOp52
 70
     0
102
RTVSPost2010Prop53
 90
        2
102
RTVSPost2010PropOp53
 70
     1
102
RTVSPost2010Prop54
  1
strokes_ogs.tif
102
RTVSPost2010PropOp54
 70
     1
102
RTVSPost2010Prop55
280
     0
102
RTVSPost2010PropOp55
 70
     1
102
RTVSPost2010Prop56
140
1.0
102
RTVSPost2010PropOp56
 70
     1
102
RTVSPost2010Prop57
140
1.0
102
RTVSPost2010PropOp57
 70
     1
102
RTVSPropertyOp0
 70
     1
102
RTVSPropertyOp1
 70
     1
102
RTVSPropertyOp2
 70
     1
102
RTVSPropertyOp3
 70
     1
102
RTVSPropertyOp4
 70
     1
102
RTVSPropertyOp5
 70
     1
102
RTVSPropertyOp6
 70
     1
102
RTVSPropertyOp7
 70
     1
102
RTVSPropertyOp8
 70
     1
102
RTVSPropertyOp9
 70
     1
102
RTVSPropertyOp10
 70
     1
102
RTVSPropertyOp11
 70
     1
102
RTVSPropertyOp12
 70
     1
102
RTVSPropertyOp13
 70
     1
102
RTVSPropertyOp14
 70
     1
102
RTVSPropertyOp15
 70
     1
102
RTVSPropertyOp16
 70
     1
102
RTVSPropertyOp17
 70
     1
102
RTVSPropertyOp18
 70
     1
102
RTVSPropertyOp19
 70
     1
102
RTVSPropertyOp20
 70
     1
102
RTVSPropertyOp21
 70
     1
102
RTVSPropertyOp22
 70
     1
102
RTVSPropertyOp23
 70
     1
102
RTVSPropertyOp24
 70
     1
102
RTVSPropertyOp25
 70
     1
102
RTVSPropertyOp26
 70
     1
102
RTVSPropertyOp27
 70
     1
102
RTVSPropertyOp28
 70
     1
102
RTVSPropertyOp29
 70
     1
102
RTVSPropertyOp30
 70
     1
102
RTVSPropertyOp31
 70
     1
102
RTVSPropertyOp32
 70
     1
102
RTVSPropertyOp33
 70
     1
102
RTVSPropertyOp34
 70
     1
102
RTVSPropertyOp35
 70
     1
102
RTVSPropertyOp36
 70
     1
102
RTVSPropertyOp37
 70
     1
102
RTVSPropertyOp38
 70
     1
102
RTVSPropertyOp39
 70
     1
102
RTVSPropertyOp40
 70
     1
102
RTVSPropertyOp41
 70
     1
102
RTVSPropertyOp42
 70
     1
102
RTVSPropertyOp43
 70
     1
102
RTVSPropertyOp44
 70
     1
102
RTVSPropertyOp45
 70
     1
102
RTVSPropertyOp46
 70
     1
102
RTVSPropertyOp47
 70
     1
102
RTVSPropertyOp48
 70
     1
102
RTVSPropertyOp49
 70
     1
102
RTVSPropertyOp50
 70
     1
102
RTVSPropertyOp51
 70
     0
102
RTVSPropertyOp52
 70
     0
102
RTVSPropertyOp53
 70
     1
102
RTVSPropertyOp54
 70
     1
102
RTVSPropertyOp55
 70
     1
102
RTVSPropertyOp56
 70
     1
102
RTVSPropertyOp57
 70
     1
102
RTVSPropertyOp58
 70
     1
102
RTVSPropertyOp59
 70
     1
102
RTVSPropertyOp60
 70
     1
102
RTVSPropertyOp61
 70
     1
102
RTVSPropertyOp62
 70
     1
  0
XRECORD
  5
E23C
102
{ACAD_REACTORS
330
E23B
102
}
330
E23B
100
AcDbXrecord
280
     1
102
RTVSPost2010Prop28
280
     0
102
RTVSPost2010PropOp28
 70
     1
102
RTVSPost2010Prop29
280
     1
102
RTVSPost2010PropOp29
 70
     1
102
RTVSPost2010Prop30
280
     1
102
RTVSPost2010PropOp30
 70
     1
102
RTVSPost2010Prop31
280
     0
102
RTVSPost2010PropOp31
 70
     1
102
RTVSPost2010Prop32
280
     0
102
RTVSPost2010PropOp32
 70
     1
102
RTVSPost2010Prop33
280
     0
102
RTVSPost2010PropOp33
 70
     1
102
RTVSPost2010Prop34
280
     0
102
RTVSPost2010PropOp34
 70
     1
102
RTVSPost2010Prop35
280
     0
102
RTVSPost2010PropOp35
 70
     1
102
RTVSPost2010Prop36
280
     0
102
RTVSPost2010PropOp36
 70
     1
102
RTVSPost2010Prop37
 90
       50
102
RTVSPost2010PropOp37
 70
     1
102
RTVSPost2010Prop38
140
0.0
102
RTVSPost2010PropOp38
 70
     1
102
RTVSPost2010Prop39
140
1.0
102
RTVSPost2010PropOp39
 70
     1
102
RTVSPost2010Prop40
 90
        0
102
RTVSPost2010PropOp40
 70
     1
102
RTVSPost2010Prop41ColorIndex
 90
       18
102
RTVSPost2010Prop41ColorRGB
 90
        0
102
RTVSPost2010PropOp41
 70
     1
102
RTVSPost2010Prop42
 90
       50
102
RTVSPost2010PropOp42
 70
     1
102
RTVSPost2010Prop43
 90
        3
102
RTVSPost2010PropOp43
 70
     1
102
RTVSPost2010Prop44ColorIndex
 90
        5
102
RTVSPost2010Prop44ColorRGB
 90
      255
102
RTVSPost2010PropOp44
 70
     1
102
RTVSPost2010Prop45
280
     0
102
RTVSPost2010PropOp45
 70
     1
102
RTVSPost2010Prop46
 90
       50
102
RTVSPost2010PropOp46
 70
     1
102
RTVSPost2010Prop47
 90
       50
102
RTVSPost2010PropOp47
 70
     1
102
RTVSPost2010Prop48
 90
       50
102
RTVSPost2010PropOp48
 70
     1
102
RTVSPost2010Prop49
280
     0
102
RTVSPost2010PropOp49
 70
     1
102
RTVSPost2010Prop50
 90
       50
102
RTVSPost2010PropOp50
 70
     1
102
RTVSPost2010Prop51ColorIndex
 90
      256
102
RTVSPost2010Prop51ColorRGB
 90
-16777216
102
RTVSPost2010PropOp51
 70
     0
102
RTVSPost2010Prop52
140
1.0
102
RTVSPost2010PropOp52
 70
     0
102
RTVSPost2010Prop53
 90
        2
102
RTVSPost2010PropOp53
 70
     1
102
RTVSPost2010Prop54
  1
strokes_ogs.tif
102
RTVSPost2010PropOp54
 70
     1
102
RTVSPost2010Prop55
280
     0
102
RTVSPost2010PropOp55
 70
     1
102
RTVSPost2010Prop56
140
1.0
102
RTVSPost2010PropOp56
 70
     1
102
RTVSPost2010Prop57
140
1.0
102
RTVSPost2010PropOp57
 70
     1
102
RTVSPropertyOp0
 70
     1
102
RTVSPropertyOp1
 70
     1
102
RTVSPropertyOp2
 70
     1
102
RTVSPropertyOp3
 70
     1
102
RTVSPropertyOp4
 70
     1
102
RTVSPropertyOp5
 70
     1
102
RTVSPropertyOp6
 70
     1
102
RTVSPropertyOp7
 70
     1
102
RTVSPropertyOp8
 70
     1
102
RTVSPropertyOp9
 70
     1
102
RTVSPropertyOp10
 70
     1
102
RTVSPropertyOp11
 70
     1
102
RTVSPropertyOp12
 70
     1
102
RTVSPropertyOp13
 70
     1
102
RTVSPropertyOp14
 70
     1
102
RTVSPropertyOp15
 70
     1
102
RTVSPropertyOp16
 70
     1
102
RTVSPropertyOp17
 70
     1
102
RTVSPropertyOp18
 70
     1
102
RTVSPropertyOp19
 70
     1
102
RTVSPropertyOp20
 70
     1
102
RTVSPropertyOp21
 70
     1
102
RTVSPropertyOp22
 70
     1
102
RTVSPropertyOp23
 70
     1
102
RTVSPropertyOp24
 70
     1
102
RTVSPropertyOp25
 70
     1
102
RTVSPropertyOp26
 70
     1
102
RTVSPropertyOp27
 70
     1
102
RTVSPropertyOp28
 70
     1
102
RTVSPropertyOp29
 70
     1
102
RTVSPropertyOp30
 70
     1
102
RTVSPropertyOp31
 70
     1
102
RTVSPropertyOp32
 70
     1
102
RTVSPropertyOp33
 70
     1
102
RTVSPropertyOp34
 70
     1
102
RTVSPropertyOp35
 70
     1
102
RTVSPropertyOp36
 70
     1
102
RTVSPropertyOp37
 70
     1
102
RTVSPropertyOp38
 70
     1
102
RTVSPropertyOp39
 70
     1
102
RTVSPropertyOp40
 70
     1
102
RTVSPropertyOp41
 70
     1
102
RTVSPropertyOp42
 70
     1
102
RTVSPropertyOp43
 70
     1
102
RTVSPropertyOp44
 70
     1
102
RTVSPropertyOp45
 70
     1
102
RTVSPropertyOp46
 70
     1
102
RTVSPropertyOp47
 70
     1
102
RTVSPropertyOp48
 70
     1
102
RTVSPropertyOp49
 70
     1
102
RTVSPropertyOp50
 70
     1
102
RTVSPropertyOp51
 70
     0
102
RTVSPropertyOp52
 70
     0
102
RTVSPropertyOp53
 70
     1
102
RTVSPropertyOp54
 70
     1
102
RTVSPropertyOp55
 70
     1
102
RTVSPropertyOp56
 70
     1
102
RTVSPropertyOp57
 70
     1
102
RTVSPropertyOp58
 70
     1
102
RTVSPropertyOp59
 70
     1
102
RTVSPropertyOp60
 70
     1
102
RTVSPropertyOp61
 70
     1
102
RTVSPropertyOp62
 70
     1
  0
XRECORD
  5
E23E
102
{ACAD_REACTORS
330
E23D
102
}
330
E23D
100
AcDbXrecord
280
     1
102
RTVSPost2010Prop28
280
     0
102
RTVSPost2010PropOp28
 70
     1
102
RTVSPost2010Prop29
280
     1
102
RTVSPost2010PropOp29
 70
     1
102
RTVSPost2010Prop30
280
     1
102
RTVSPost2010PropOp30
 70
     1
102
RTVSPost2010Prop31
280
     0
102
RTVSPost2010PropOp31
 70
     1
102
RTVSPost2010Prop32
280
     0
102
RTVSPost2010PropOp32
 70
     1
102
RTVSPost2010Prop33
280
     0
102
RTVSPost2010PropOp33
 70
     1
102
RTVSPost2010Prop34
280
     0
102
RTVSPost2010PropOp34
 70
     1
102
RTVSPost2010Prop35
280
     0
102
RTVSPost2010PropOp35
 70
     1
102
RTVSPost2010Prop36
280
     0
102
RTVSPost2010PropOp36
 70
     1
102
RTVSPost2010Prop37
 90
       50
102
RTVSPost2010PropOp37
 70
     1
102
RTVSPost2010Prop38
140
0.0
102
RTVSPost2010PropOp38
 70
     1
102
RTVSPost2010Prop39
140
1.0
102
RTVSPost2010PropOp39
 70
     1
102
RTVSPost2010Prop40
 90
        0
102
RTVSPost2010PropOp40
 70
     1
102
RTVSPost2010Prop41ColorIndex
 90
       18
102
RTVSPost2010Prop41ColorRGB
 90
        0
102
RTVSPost2010PropOp41
 70
     1
102
RTVSPost2010Prop42
 90
       50
102
RTVSPost2010PropOp42
 70
     1
102
RTVSPost2010Prop43
 90
        3
102
RTVSPost2010PropOp43
 70
     1
102
RTVSPost2010Prop44ColorIndex
 90
        5
102
RTVSPost2010Prop44ColorRGB
 90
      255
102
RTVSPost2010PropOp44
 70
     1
102
RTVSPost2010Prop45
280
     0
102
RTVSPost2010PropOp45
 70
     1
102
RTVSPost2010Prop46
 90
       50
102
RTVSPost2010PropOp46
 70
     1
102
RTVSPost2010Prop47
 90
       50
102
RTVSPost2010PropOp47
 70
     1
102
RTVSPost2010Prop48
 90
       50
102
RTVSPost2010PropOp48
 70
     1
102
RTVSPost2010Prop49
280
     0
102
RTVSPost2010PropOp49
 70
     1
102
RTVSPost2010Prop50
 90
       50
102
RTVSPost2010PropOp50
 70
     1
102
RTVSPost2010Prop51ColorIndex
 90
      256
102
RTVSPost2010Prop51ColorRGB
 90
-16777216
102
RTVSPost2010PropOp51
 70
     0
102
RTVSPost2010Prop52
140
1.0
102
RTVSPost2010PropOp52
 70
     0
102
RTVSPost2010Prop53
 90
        2
102
RTVSPost2010PropOp53
 70
     1
102
RTVSPost2010Prop54
  1
strokes_ogs.tif
102
RTVSPost2010PropOp54
 70
     1
102
RTVSPost2010Prop55
280
     0
102
RTVSPost2010PropOp55
 70
     1
102
RTVSPost2010Prop56
140
1.0
102
RTVSPost2010PropOp56
 70
     1
102
RTVSPost2010Prop57
140
1.0
102
RTVSPost2010PropOp57
 70
     1
102
RTVSPropertyOp0
 70
     1
102
RTVSPropertyOp1
 70
     1
102
RTVSPropertyOp2
 70
     1
102
RTVSPropertyOp3
 70
     1
102
RTVSPropertyOp4
 70
     1
102
RTVSPropertyOp5
 70
     1
102
RTVSPropertyOp6
 70
     1
102
RTVSPropertyOp7
 70
     1
102
RTVSPropertyOp8
 70
     1
102
RTVSPropertyOp9
 70
     1
102
RTVSPropertyOp10
 70
     1
102
RTVSPropertyOp11
 70
     1
102
RTVSPropertyOp12
 70
     1
102
RTVSPropertyOp13
 70
     1
102
RTVSPropertyOp14
 70
     1
102
RTVSPropertyOp15
 70
     1
102
RTVSPropertyOp16
 70
     1
102
RTVSPropertyOp17
 70
     1
102
RTVSPropertyOp18
 70
     1
102
RTVSPropertyOp19
 70
     1
102
RTVSPropertyOp20
 70
     1
102
RTVSPropertyOp21
 70
     1
102
RTVSPropertyOp22
 70
     1
102
RTVSPropertyOp23
 70
     1
102
RTVSPropertyOp24
 70
     1
102
RTVSPropertyOp25
 70
     1
102
RTVSPropertyOp26
 70
     1
102
RTVSPropertyOp27
 70
     1
102
RTVSPropertyOp28
 70
     1
102
RTVSPropertyOp29
 70
     1
102
RTVSPropertyOp30
 70
     1
102
RTVSPropertyOp31
 70
     1
102
RTVSPropertyOp32
 70
     1
102
RTVSPropertyOp33
 70
     1
102
RTVSPropertyOp34
 70
     1
102
RTVSPropertyOp35
 70
     1
102
RTVSPropertyOp36
 70
     1
102
RTVSPropertyOp37
 70
     1
102
RTVSPropertyOp38
 70
     1
102
RTVSPropertyOp39
 70
     1
102
RTVSPropertyOp40
 70
     1
102
RTVSPropertyOp41
 70
     1
102
RTVSPropertyOp42
 70
     1
102
RTVSPropertyOp43
 70
     1
102
RTVSPropertyOp44
 70
     1
102
RTVSPropertyOp45
 70
     1
102
RTVSPropertyOp46
 70
     1
102
RTVSPropertyOp47
 70
     1
102
RTVSPropertyOp48
 70
     1
102
RTVSPropertyOp49
 70
     1
102
RTVSPropertyOp50
 70
     1
102
RTVSPropertyOp51
 70
     0
102
RTVSPropertyOp52
 70
     0
102
RTVSPropertyOp53
 70
     1
102
RTVSPropertyOp54
 70
     1
102
RTVSPropertyOp55
 70
     1
102
RTVSPropertyOp56
 70
     1
102
RTVSPropertyOp57
 70
     1
102
RTVSPropertyOp58
 70
     1
102
RTVSPropertyOp59
 70
     1
102
RTVSPropertyOp60
 70
     1
102
RTVSPropertyOp61
 70
     1
102
RTVSPropertyOp62
 70
     1
  0
XRECORD
  5
E246
102
{ACAD_REACTORS
330
E245
102
}
330
E245
100
AcDbXrecord
280
     1
102
RTVSPost2010Prop28
280
     0
102
RTVSPost2010PropOp28
 70
     1
102
RTVSPost2010Prop29
280
     1
102
RTVSPost2010PropOp29
 70
     1
102
RTVSPost2010Prop30
280
     1
102
RTVSPost2010PropOp30
 70
     1
102
RTVSPost2010Prop31
280
     0
102
RTVSPost2010PropOp31
 70
     1
102
RTVSPost2010Prop32
280
     0
102
RTVSPost2010PropOp32
 70
     1
102
RTVSPost2010Prop33
280
     0
102
RTVSPost2010PropOp33
 70
     1
102
RTVSPost2010Prop34
280
     0
102
RTVSPost2010PropOp34
 70
     1
102
RTVSPost2010Prop35
280
     0
102
RTVSPost2010PropOp35
 70
     1
102
RTVSPost2010Prop36
280
     0
102
RTVSPost2010PropOp36
 70
     1
102
RTVSPost2010Prop37
 90
       50
102
RTVSPost2010PropOp37
 70
     1
102
RTVSPost2010Prop38
140
0.0
102
RTVSPost2010PropOp38
 70
     1
102
RTVSPost2010Prop39
140
1.0
102
RTVSPost2010PropOp39
 70
     1
102
RTVSPost2010Prop40
 90
        0
102
RTVSPost2010PropOp40
 70
     1
102
RTVSPost2010Prop41ColorIndex
 90
       18
102
RTVSPost2010Prop41ColorRGB
 90
        0
102
RTVSPost2010PropOp41
 70
     1
102
RTVSPost2010Prop42
 90
       50
102
RTVSPost2010PropOp42
 70
     1
102
RTVSPost2010Prop43
 90
        3
102
RTVSPost2010PropOp43
 70
     1
102
RTVSPost2010Prop44ColorIndex
 90
        5
102
RTVSPost2010Prop44ColorRGB
 90
      255
102
RTVSPost2010PropOp44
 70
     1
102
RTVSPost2010Prop45
280
     0
102
RTVSPost2010PropOp45
 70
     1
102
RTVSPost2010Prop46
 90
       50
102
RTVSPost2010PropOp46
 70
     1
102
RTVSPost2010Prop47
 90
       50
102
RTVSPost2010PropOp47
 70
     1
102
RTVSPost2010Prop48
 90
       50
102
RTVSPost2010PropOp48
 70
     1
102
RTVSPost2010Prop49
280
     0
102
RTVSPost2010PropOp49
 70
     1
102
RTVSPost2010Prop50
 90
       50
102
RTVSPost2010PropOp50
 70
     1
102
RTVSPost2010Prop51ColorIndex
 90
      256
102
RTVSPost2010Prop51ColorRGB
 90
-16777216
102
RTVSPost2010PropOp51
 70
     0
102
RTVSPost2010Prop52
140
1.0
102
RTVSPost2010PropOp52
 70
     0
102
RTVSPost2010Prop53
 90
        2
102
RTVSPost2010PropOp53
 70
     1
102
RTVSPost2010Prop54
  1
strokes_ogs.tif
102
RTVSPost2010PropOp54
 70
     1
102
RTVSPost2010Prop55
280
     0
102
RTVSPost2010PropOp55
 70
     1
102
RTVSPost2010Prop56
140
1.0
102
RTVSPost2010PropOp56
 70
     1
102
RTVSPost2010Prop57
140
1.0
102
RTVSPost2010PropOp57
 70
     1
102
RTVSPropertyOp0
 70
     1
102
RTVSPropertyOp1
 70
     1
102
RTVSPropertyOp2
 70
     1
102
RTVSPropertyOp3
 70
     1
102
RTVSPropertyOp4
 70
     1
102
RTVSPropertyOp5
 70
     1
102
RTVSPropertyOp6
 70
     1
102
RTVSPropertyOp7
 70
     1
102
RTVSPropertyOp8
 70
     1
102
RTVSPropertyOp9
 70
     1
102
RTVSPropertyOp10
 70
     1
102
RTVSPropertyOp11
 70
     1
102
RTVSPropertyOp12
 70
     1
102
RTVSPropertyOp13
 70
     1
102
RTVSPropertyOp14
 70
     1
102
RTVSPropertyOp15
 70
     1
102
RTVSPropertyOp16
 70
     1
102
RTVSPropertyOp17
 70
     1
102
RTVSPropertyOp18
 70
     1
102
RTVSPropertyOp19
 70
     1
102
RTVSPropertyOp20
 70
     1
102
RTVSPropertyOp21
 70
     1
102
RTVSPropertyOp22
 70
     1
102
RTVSPropertyOp23
 70
     1
102
RTVSPropertyOp24
 70
     1
102
RTVSPropertyOp25
 70
     1
102
RTVSPropertyOp26
 70
     1
102
RTVSPropertyOp27
 70
     1
102
RTVSPropertyOp28
 70
     1
102
RTVSPropertyOp29
 70
     1
102
RTVSPropertyOp30
 70
     1
102
RTVSPropertyOp31
 70
     1
102
RTVSPropertyOp32
 70
     1
102
RTVSPropertyOp33
 70
     1
102
RTVSPropertyOp34
 70
     1
102
RTVSPropertyOp35
 70
     1
102
RTVSPropertyOp36
 70
     1
102
RTVSPropertyOp37
 70
     1
102
RTVSPropertyOp38
 70
     1
102
RTVSPropertyOp39
 70
     1
102
RTVSPropertyOp40
 70
     1
102
RTVSPropertyOp41
 70
     1
102
RTVSPropertyOp42
 70
     1
102
RTVSPropertyOp43
 70
     1
102
RTVSPropertyOp44
 70
     1
102
RTVSPropertyOp45
 70
     1
102
RTVSPropertyOp46
 70
     1
102
RTVSPropertyOp47
 70
     1
102
RTVSPropertyOp48
 70
     1
102
RTVSPropertyOp49
 70
     1
102
RTVSPropertyOp50
 70
     1
102
RTVSPropertyOp51
 70
     0
102
RTVSPropertyOp52
 70
     0
102
RTVSPropertyOp53
 70
     1
102
RTVSPropertyOp54
 70
     1
102
RTVSPropertyOp55
 70
     1
102
RTVSPropertyOp56
 70
     1
102
RTVSPropertyOp57
 70
     1
102
RTVSPropertyOp58
 70
     1
102
RTVSPropertyOp59
 70
     1
102
RTVSPropertyOp60
 70
     1
102
RTVSPropertyOp61
 70
     1
102
RTVSPropertyOp62
 70
     1
  0
XRECORD
  5
E262
102
{ACAD_REACTORS
330
E261
102
}
330
E261
100
AcDbXrecord
280
     1
102
RTVSPost2010Prop28
280
     0
102
RTVSPost2010PropOp28
 70
     1
102
RTVSPost2010Prop29
280
     1
102
RTVSPost2010PropOp29
 70
     1
102
RTVSPost2010Prop30
280
     1
102
RTVSPost2010PropOp30
 70
     1
102
RTVSPost2010Prop31
280
     0
102
RTVSPost2010PropOp31
 70
     1
102
RTVSPost2010Prop32
280
     0
102
RTVSPost2010PropOp32
 70
     1
102
RTVSPost2010Prop33
280
     0
102
RTVSPost2010PropOp33
 70
     1
102
RTVSPost2010Prop34
280
     0
102
RTVSPost2010PropOp34
 70
     1
102
RTVSPost2010Prop35
280
     0
102
RTVSPost2010PropOp35
 70
     1
102
RTVSPost2010Prop36
280
     0
102
RTVSPost2010PropOp36
 70
     1
102
RTVSPost2010Prop37
 90
       50
102
RTVSPost2010PropOp37
 70
     0
102
RTVSPost2010Prop38
140
0.0
102
RTVSPost2010PropOp38
 70
     0
102
RTVSPost2010Prop39
140
1.0
102
RTVSPost2010PropOp39
 70
     0
102
RTVSPost2010Prop40
 90
        0
102
RTVSPost2010PropOp40
 70
     0
102
RTVSPost2010Prop41ColorIndex
 90
       18
102
RTVSPost2010Prop41ColorRGB
 90
        0
102
RTVSPost2010PropOp41
 70
     0
102
RTVSPost2010Prop42
 90
       50
102
RTVSPost2010PropOp42
 70
     0
102
RTVSPost2010Prop43
 90
        3
102
RTVSPost2010PropOp43
 70
     0
102
RTVSPost2010Prop44ColorIndex
 90
        5
102
RTVSPost2010Prop44ColorRGB
 90
      255
102
RTVSPost2010PropOp44
 70
     0
102
RTVSPost2010Prop45
280
     0
102
RTVSPost2010PropOp45
 70
     1
102
RTVSPost2010Prop46
 90
       50
102
RTVSPost2010PropOp46
 70
     0
102
RTVSPost2010Prop47
 90
       50
102
RTVSPost2010PropOp47
 70
     0
102
RTVSPost2010Prop48
 90
       50
102
RTVSPost2010PropOp48
 70
     0
102
RTVSPost2010Prop49
280
     0
102
RTVSPost2010PropOp49
 70
     1
102
RTVSPost2010Prop50
 90
       50
102
RTVSPost2010PropOp50
 70
     0
102
RTVSPost2010Prop51ColorIndex
 90
      256
102
RTVSPost2010Prop51ColorRGB
 90
-16777216
102
RTVSPost2010PropOp51
 70
     0
102
RTVSPost2010Prop52
140
1.0
102
RTVSPost2010PropOp52
 70
     0
102
RTVSPost2010Prop53
 90
        2
102
RTVSPost2010PropOp53
 70
     0
102
RTVSPost2010Prop54
  1
strokes_ogs.tif
102
RTVSPost2010PropOp54
 70
     0
102
RTVSPost2010Prop55
280
     0
102
RTVSPost2010PropOp55
 70
     1
102
RTVSPost2010Prop56
140
1.0
102
RTVSPost2010PropOp56
 70
     0
102
RTVSPost2010Prop57
140
1.0
102
RTVSPost2010PropOp57
 70
     0
102
RTVSPropertyOp0
 70
     0
102
RTVSPropertyOp1
 70
     0
102
RTVSPropertyOp2
 70
     0
102
RTVSPropertyOp3
 70
     0
102
RTVSPropertyOp4
 70
     0
102
RTVSPropertyOp5
 70
     0
102
RTVSPropertyOp6
 70
     0
102
RTVSPropertyOp7
 70
     0
102
RTVSPropertyOp8
 70
     0
102
RTVSPropertyOp9
 70
     0
102
RTVSPropertyOp10
 70
     0
102
RTVSPropertyOp11
 70
     0
102
RTVSPropertyOp12
 70
     0
102
RTVSPropertyOp13
 70
     0
102
RTVSPropertyOp14
 70
     2
102
RTVSPropertyOp15
 70
     0
102
RTVSPropertyOp16
 70
     0
102
RTVSPropertyOp17
 70
     0
102
RTVSPropertyOp18
 70
     0
102
RTVSPropertyOp19
 70
     0
102
RTVSPropertyOp20
 70
     0
102
RTVSPropertyOp21
 70
     0
102
RTVSPropertyOp22
 70
     0
102
RTVSPropertyOp23
 70
     0
102
RTVSPropertyOp24
 70
     0
102
RTVSPropertyOp25
 70
     0
102
RTVSPropertyOp26
 70
     0
102
RTVSPropertyOp27
 70
     0
102
RTVSPropertyOp28
 70
     1
102
RTVSPropertyOp29
 70
     1
102
RTVSPropertyOp30
 70
     1
102
RTVSPropertyOp31
 70
     1
102
RTVSPropertyOp32
 70
     1
102
RTVSPropertyOp33
 70
     1
102
RTVSPropertyOp34
 70
     1
102
RTVSPropertyOp35
 70
     1
102
RTVSPropertyOp36
 70
     1
102
RTVSPropertyOp37
 70
     0
102
RTVSPropertyOp38
 70
     0
102
RTVSPropertyOp39
 70
     0
102
RTVSPropertyOp40
 70
     0
102
RTVSPropertyOp41
 70
     0
102
RTVSPropertyOp42
 70
     0
102
RTVSPropertyOp43
 70
     0
102
RTVSPropertyOp44
 70
     0
102
RTVSPropertyOp45
 70
     1
102
RTVSPropertyOp46
 70
     0
102
RTVSPropertyOp47
 70
     0
102
RTVSPropertyOp48
 70
     0
102
RTVSPropertyOp49
 70
     1
102
RTVSPropertyOp50
 70
     0
102
RTVSPropertyOp51
 70
     0
102
RTVSPropertyOp52
 70
     0
102
RTVSPropertyOp53
 70
     0
102
RTVSPropertyOp54
 70
     0
102
RTVSPropertyOp55
 70
     1
102
RTVSPropertyOp56
 70
     0
102
RTVSPropertyOp57
 70
     0
102
RTVSPropertyOp58
 70
     0
102
RTVSPropertyOp59
 70
     0
102
RTVSPropertyOp60
 70
     0
102
RTVSPropertyOp61
 70
     0
102
RTVSPropertyOp62
 70
     0
  0
XRECORD
  5
E252
102
{ACAD_REACTORS
330
E251
102
}
330
E251
100
AcDbXrecord
280
     1
102
RTVSPost2010Prop28
280
     0
102
RTVSPost2010PropOp28
 70
     1
102
RTVSPost2010Prop29
280
     1
102
RTVSPost2010PropOp29
 70
     1
102
RTVSPost2010Prop30
280
     1
102
RTVSPost2010PropOp30
 70
     1
102
RTVSPost2010Prop31
280
     0
102
RTVSPost2010PropOp31
 70
     1
102
RTVSPost2010Prop32
280
     0
102
RTVSPost2010PropOp32
 70
     1
102
RTVSPost2010Prop33
280
     0
102
RTVSPost2010PropOp33
 70
     1
102
RTVSPost2010Prop34
280
     0
102
RTVSPost2010PropOp34
 70
     1
102
RTVSPost2010Prop35
280
     0
102
RTVSPost2010PropOp35
 70
     1
102
RTVSPost2010Prop36
280
     0
102
RTVSPost2010PropOp36
 70
     1
102
RTVSPost2010Prop37
 90
       50
102
RTVSPost2010PropOp37
 70
     1
102
RTVSPost2010Prop38
140
0.0
102
RTVSPost2010PropOp38
 70
     1
102
RTVSPost2010Prop39
140
1.0
102
RTVSPost2010PropOp39
 70
     1
102
RTVSPost2010Prop40
 90
        0
102
RTVSPost2010PropOp40
 70
     1
102
RTVSPost2010Prop41ColorIndex
 90
       18
102
RTVSPost2010Prop41ColorRGB
 90
        0
102
RTVSPost2010PropOp41
 70
     1
102
RTVSPost2010Prop42
 90
       50
102
RTVSPost2010PropOp42
 70
     1
102
RTVSPost2010Prop43
 90
        3
102
RTVSPost2010PropOp43
 70
     1
102
RTVSPost2010Prop44ColorIndex
 90
        5
102
RTVSPost2010Prop44ColorRGB
 90
      255
102
RTVSPost2010PropOp44
 70
     1
102
RTVSPost2010Prop45
280
     0
102
RTVSPost2010PropOp45
 70
     1
102
RTVSPost2010Prop46
 90
       50
102
RTVSPost2010PropOp46
 70
     1
102
RTVSPost2010Prop47
 90
       50
102
RTVSPost2010PropOp47
 70
     1
102
RTVSPost2010Prop48
 90
       50
102
RTVSPost2010PropOp48
 70
     1
102
RTVSPost2010Prop49
280
     0
102
RTVSPost2010PropOp49
 70
     1
102
RTVSPost2010Prop50
 90
       50
102
RTVSPost2010PropOp50
 70
     1
102
RTVSPost2010Prop51ColorIndex
 90
      256
102
RTVSPost2010Prop51ColorRGB
 90
-16777216
102
RTVSPost2010PropOp51
 70
     0
102
RTVSPost2010Prop52
140
1.0
102
RTVSPost2010PropOp52
 70
     0
102
RTVSPost2010Prop53
 90
        2
102
RTVSPost2010PropOp53
 70
     1
102
RTVSPost2010Prop54
  1
strokes_ogs.tif
102
RTVSPost2010PropOp54
 70
     1
102
RTVSPost2010Prop55
280
     0
102
RTVSPost2010PropOp55
 70
     1
102
RTVSPost2010Prop56
140
1.0
102
RTVSPost2010PropOp56
 70
     1
102
RTVSPost2010Prop57
140
1.0
102
RTVSPost2010PropOp57
 70
     1
102
RTVSPropertyOp0
 70
     1
102
RTVSPropertyOp1
 70
     1
102
RTVSPropertyOp2
 70
     1
102
RTVSPropertyOp3
 70
     1
102
RTVSPropertyOp4
 70
     1
102
RTVSPropertyOp5
 70
     1
102
RTVSPropertyOp6
 70
     1
102
RTVSPropertyOp7
 70
     1
102
RTVSPropertyOp8
 70
     1
102
RTVSPropertyOp9
 70
     1
102
RTVSPropertyOp10
 70
     1
102
RTVSPropertyOp11
 70
     1
102
RTVSPropertyOp12
 70
     1
102
RTVSPropertyOp13
 70
     1
102
RTVSPropertyOp14
 70
     1
102
RTVSPropertyOp15
 70
     1
102
RTVSPropertyOp16
 70
     1
102
RTVSPropertyOp17
 70
     1
102
RTVSPropertyOp18
 70
     1
102
RTVSPropertyOp19
 70
     1
102
RTVSPropertyOp20
 70
     1
102
RTVSPropertyOp21
 70
     1
102
RTVSPropertyOp22
 70
     1
102
RTVSPropertyOp23
 70
     1
102
RTVSPropertyOp24
 70
     1
102
RTVSPropertyOp25
 70
     1
102
RTVSPropertyOp26
 70
     1
102
RTVSPropertyOp27
 70
     1
102
RTVSPropertyOp28
 70
     1
102
RTVSPropertyOp29
 70
     1
102
RTVSPropertyOp30
 70
     1
102
RTVSPropertyOp31
 70
     1
102
RTVSPropertyOp32
 70
     1
102
RTVSPropertyOp33
 70
     1
102
RTVSPropertyOp34
 70
     1
102
RTVSPropertyOp35
 70
     1
102
RTVSPropertyOp36
 70
     1
102
RTVSPropertyOp37
 70
     1
102
RTVSPropertyOp38
 70
     1
102
RTVSPropertyOp39
 70
     1
102
RTVSPropertyOp40
 70
     1
102
RTVSPropertyOp41
 70
     1
102
RTVSPropertyOp42
 70
     1
102
RTVSPropertyOp43
 70
     1
102
RTVSPropertyOp44
 70
     1
102
RTVSPropertyOp45
 70
     1
102
RTVSPropertyOp46
 70
     1
102
RTVSPropertyOp47
 70
     1
102
RTVSPropertyOp48
 70
     1
102
RTVSPropertyOp49
 70
     1
102
RTVSPropertyOp50
 70
     1
102
RTVSPropertyOp51
 70
     0
102
RTVSPropertyOp52
 70
     0
102
RTVSPropertyOp53
 70
     1
102
RTVSPropertyOp54
 70
     1
102
RTVSPropertyOp55
 70
     1
102
RTVSPropertyOp56
 70
     1
102
RTVSPropertyOp57
 70
     1
102
RTVSPropertyOp58
 70
     1
102
RTVSPropertyOp59
 70
     1
102
RTVSPropertyOp60
 70
     1
102
RTVSPropertyOp61
 70
     1
102
RTVSPropertyOp62
 70
     1
  0
XRECORD
  5
E264
102
{ACAD_REACTORS
330
E263
102
}
330
E263
100
AcDbXrecord
280
     1
102
RTVSPost2010Prop28
280
     0
102
RTVSPost2010PropOp28
 70
     1
102
RTVSPost2010Prop29
280
     1
102
RTVSPost2010PropOp29
 70
     1
102
RTVSPost2010Prop30
280
     1
102
RTVSPost2010PropOp30
 70
     1
102
RTVSPost2010Prop31
280
     0
102
RTVSPost2010PropOp31
 70
     1
102
RTVSPost2010Prop32
280
     0
102
RTVSPost2010PropOp32
 70
     1
102
RTVSPost2010Prop33
280
     0
102
RTVSPost2010PropOp33
 70
     1
102
RTVSPost2010Prop34
280
     0
102
RTVSPost2010PropOp34
 70
     1
102
RTVSPost2010Prop35
280
     0
102
RTVSPost2010PropOp35
 70
     1
102
RTVSPost2010Prop36
280
     0
102
RTVSPost2010PropOp36
 70
     1
102
RTVSPost2010Prop37
 90
       50
102
RTVSPost2010PropOp37
 70
     0
102
RTVSPost2010Prop38
140
0.0
102
RTVSPost2010PropOp38
 70
     0
102
RTVSPost2010Prop39
140
1.0
102
RTVSPost2010PropOp39
 70
     0
102
RTVSPost2010Prop40
 90
        0
102
RTVSPost2010PropOp40
 70
     0
102
RTVSPost2010Prop41ColorIndex
 90
       18
102
RTVSPost2010Prop41ColorRGB
 90
        0
102
RTVSPost2010PropOp41
 70
     0
102
RTVSPost2010Prop42
 90
       50
102
RTVSPost2010PropOp42
 70
     0
102
RTVSPost2010Prop43
 90
        3
102
RTVSPost2010PropOp43
 70
     0
102
RTVSPost2010Prop44ColorIndex
 90
        5
102
RTVSPost2010Prop44ColorRGB
 90
      255
102
RTVSPost2010PropOp44
 70
     0
102
RTVSPost2010Prop45
280
     0
102
RTVSPost2010PropOp45
 70
     1
102
RTVSPost2010Prop46
 90
       50
102
RTVSPost2010PropOp46
 70
     0
102
RTVSPost2010Prop47
 90
       50
102
RTVSPost2010PropOp47
 70
     0
102
RTVSPost2010Prop48
 90
       50
102
RTVSPost2010PropOp48
 70
     0
102
RTVSPost2010Prop49
280
     0
102
RTVSPost2010PropOp49
 70
     1
102
RTVSPost2010Prop50
 90
       50
102
RTVSPost2010PropOp50
 70
     0
102
RTVSPost2010Prop51ColorIndex
 90
      256
102
RTVSPost2010Prop51ColorRGB
 90
-16777216
102
RTVSPost2010PropOp51
 70
     0
102
RTVSPost2010Prop52
140
1.0
102
RTVSPost2010PropOp52
 70
     0
102
RTVSPost2010Prop53
 90
        2
102
RTVSPost2010PropOp53
 70
     0
102
RTVSPost2010Prop54
  1
strokes_ogs.tif
102
RTVSPost2010PropOp54
 70
     0
102
RTVSPost2010Prop55
280
     0
102
RTVSPost2010PropOp55
 70
     1
102
RTVSPost2010Prop56
140
1.0
102
RTVSPost2010PropOp56
 70
     0
102
RTVSPost2010Prop57
140
1.0
102
RTVSPost2010PropOp57
 70
     0
102
RTVSPropertyOp0
 70
     0
102
RTVSPropertyOp1
 70
     0
102
RTVSPropertyOp2
 70
     0
102
RTVSPropertyOp3
 70
     0
102
RTVSPropertyOp4
 70
     0
102
RTVSPropertyOp5
 70
     0
102
RTVSPropertyOp6
 70
     0
102
RTVSPropertyOp7
 70
     0
102
RTVSPropertyOp8
 70
     0
102
RTVSPropertyOp9
 70
     0
102
RTVSPropertyOp10
 70
     0
102
RTVSPropertyOp11
 70
     0
102
RTVSPropertyOp12
 70
     0
102
RTVSPropertyOp13
 70
     0
102
RTVSPropertyOp14
 70
     2
102
RTVSPropertyOp15
 70
     0
102
RTVSPropertyOp16
 70
     0
102
RTVSPropertyOp17
 70
     0
102
RTVSPropertyOp18
 70
     0
102
RTVSPropertyOp19
 70
     0
102
RTVSPropertyOp20
 70
     0
102
RTVSPropertyOp21
 70
     0
102
RTVSPropertyOp22
 70
     0
102
RTVSPropertyOp23
 70
     0
102
RTVSPropertyOp24
 70
     0
102
RTVSPropertyOp25
 70
     0
102
RTVSPropertyOp26
 70
     0
102
RTVSPropertyOp27
 70
     0
102
RTVSPropertyOp28
 70
     1
102
RTVSPropertyOp29
 70
     1
102
RTVSPropertyOp30
 70
     1
102
RTVSPropertyOp31
 70
     1
102
RTVSPropertyOp32
 70
     1
102
RTVSPropertyOp33
 70
     1
102
RTVSPropertyOp34
 70
     1
102
RTVSPropertyOp35
 70
     1
102
RTVSPropertyOp36
 70
     1
102
RTVSPropertyOp37
 70
     0
102
RTVSPropertyOp38
 70
     0
102
RTVSPropertyOp39
 70
     0
102
RTVSPropertyOp40
 70
     0
102
RTVSPropertyOp41
 70
     0
102
RTVSPropertyOp42
 70
     0
102
RTVSPropertyOp43
 70
     0
102
RTVSPropertyOp44
 70
     0
102
RTVSPropertyOp45
 70
     1
102
RTVSPropertyOp46
 70
     0
102
RTVSPropertyOp47
 70
     0
102
RTVSPropertyOp48
 70
     0
102
RTVSPropertyOp49
 70
     1
102
RTVSPropertyOp50
 70
     0
102
RTVSPropertyOp51
 70
     0
102
RTVSPropertyOp52
 70
     0
102
RTVSPropertyOp53
 70
     0
102
RTVSPropertyOp54
 70
     0
102
RTVSPropertyOp55
 70
     1
102
RTVSPropertyOp56
 70
     0
102
RTVSPropertyOp57
 70
     0
102
RTVSPropertyOp58
 70
     0
102
RTVSPropertyOp59
 70
     0
102
RTVSPropertyOp60
 70
     0
102
RTVSPropertyOp61
 70
     0
102
RTVSPropertyOp62
 70
     0
  0
XRECORD
  5
E24A
102
{ACAD_REACTORS
330
E249
102
}
330
E249
100
AcDbXrecord
280
     1
102
RTVSPost2010Prop28
280
     0
102
RTVSPost2010PropOp28
 70
     1
102
RTVSPost2010Prop29
280
     1
102
RTVSPost2010PropOp29
 70
     1
102
RTVSPost2010Prop30
280
     1
102
RTVSPost2010PropOp30
 70
     1
102
RTVSPost2010Prop31
280
     0
102
RTVSPost2010PropOp31
 70
     1
102
RTVSPost2010Prop32
280
     0
102
RTVSPost2010PropOp32
 70
     1
102
RTVSPost2010Prop33
280
     0
102
RTVSPost2010PropOp33
 70
     1
102
RTVSPost2010Prop34
280
     0
102
RTVSPost2010PropOp34
 70
     1
102
RTVSPost2010Prop35
280
     0
102
RTVSPost2010PropOp35
 70
     1
102
RTVSPost2010Prop36
280
     0
102
RTVSPost2010PropOp36
 70
     1
102
RTVSPost2010Prop37
 90
       50
102
RTVSPost2010PropOp37
 70
     1
102
RTVSPost2010Prop38
140
0.0
102
RTVSPost2010PropOp38
 70
     1
102
RTVSPost2010Prop39
140
1.0
102
RTVSPost2010PropOp39
 70
     1
102
RTVSPost2010Prop40
 90
        0
102
RTVSPost2010PropOp40
 70
     1
102
RTVSPost2010Prop41ColorIndex
 90
       18
102
RTVSPost2010Prop41ColorRGB
 90
        0
102
RTVSPost2010PropOp41
 70
     1
102
RTVSPost2010Prop42
 90
       50
102
RTVSPost2010PropOp42
 70
     1
102
RTVSPost2010Prop43
 90
        3
102
RTVSPost2010PropOp43
 70
     1
102
RTVSPost2010Prop44ColorIndex
 90
        5
102
RTVSPost2010Prop44ColorRGB
 90
      255
102
RTVSPost2010PropOp44
 70
     1
102
RTVSPost2010Prop45
280
     0
102
RTVSPost2010PropOp45
 70
     1
102
RTVSPost2010Prop46
 90
       50
102
RTVSPost2010PropOp46
 70
     1
102
RTVSPost2010Prop47
 90
       50
102
RTVSPost2010PropOp47
 70
     1
102
RTVSPost2010Prop48
 90
       50
102
RTVSPost2010PropOp48
 70
     1
102
RTVSPost2010Prop49
280
     0
102
RTVSPost2010PropOp49
 70
     1
102
RTVSPost2010Prop50
 90
       50
102
RTVSPost2010PropOp50
 70
     1
102
RTVSPost2010Prop51ColorIndex
 90
      256
102
RTVSPost2010Prop51ColorRGB
 90
-16777216
102
RTVSPost2010PropOp51
 70
     0
102
RTVSPost2010Prop52
140
1.0
102
RTVSPost2010PropOp52
 70
     0
102
RTVSPost2010Prop53
 90
        2
102
RTVSPost2010PropOp53
 70
     1
102
RTVSPost2010Prop54
  1
strokes_ogs.tif
102
RTVSPost2010PropOp54
 70
     1
102
RTVSPost2010Prop55
280
     0
102
RTVSPost2010PropOp55
 70
     1
102
RTVSPost2010Prop56
140
1.0
102
RTVSPost2010PropOp56
 70
     1
102
RTVSPost2010Prop57
140
1.0
102
RTVSPost2010PropOp57
 70
     1
102
RTVSPropertyOp0
 70
     1
102
RTVSPropertyOp1
 70
     1
102
RTVSPropertyOp2
 70
     1
102
RTVSPropertyOp3
 70
     1
102
RTVSPropertyOp4
 70
     1
102
RTVSPropertyOp5
 70
     1
102
RTVSPropertyOp6
 70
     1
102
RTVSPropertyOp7
 70
     1
102
RTVSPropertyOp8
 70
     1
102
RTVSPropertyOp9
 70
     1
102
RTVSPropertyOp10
 70
     1
102
RTVSPropertyOp11
 70
     1
102
RTVSPropertyOp12
 70
     1
102
RTVSPropertyOp13
 70
     1
102
RTVSPropertyOp14
 70
     1
102
RTVSPropertyOp15
 70
     1
102
RTVSPropertyOp16
 70
     1
102
RTVSPropertyOp17
 70
     1
102
RTVSPropertyOp18
 70
     1
102
RTVSPropertyOp19
 70
     1
102
RTVSPropertyOp20
 70
     1
102
RTVSPropertyOp21
 70
     1
102
RTVSPropertyOp22
 70
     1
102
RTVSPropertyOp23
 70
     1
102
RTVSPropertyOp24
 70
     1
102
RTVSPropertyOp25
 70
     1
102
RTVSPropertyOp26
 70
     1
102
RTVSPropertyOp27
 70
     1
102
RTVSPropertyOp28
 70
     1
102
RTVSPropertyOp29
 70
     1
102
RTVSPropertyOp30
 70
     1
102
RTVSPropertyOp31
 70
     1
102
RTVSPropertyOp32
 70
     1
102
RTVSPropertyOp33
 70
     1
102
RTVSPropertyOp34
 70
     1
102
RTVSPropertyOp35
 70
     1
102
RTVSPropertyOp36
 70
     1
102
RTVSPropertyOp37
 70
     1
102
RTVSPropertyOp38
 70
     1
102
RTVSPropertyOp39
 70
     1
102
RTVSPropertyOp40
 70
     1
102
RTVSPropertyOp41
 70
     1
102
RTVSPropertyOp42
 70
     1
102
RTVSPropertyOp43
 70
     1
102
RTVSPropertyOp44
 70
     1
102
RTVSPropertyOp45
 70
     1
102
RTVSPropertyOp46
 70
     1
102
RTVSPropertyOp47
 70
     1
102
RTVSPropertyOp48
 70
     1
102
RTVSPropertyOp49
 70
     1
102
RTVSPropertyOp50
 70
     1
102
RTVSPropertyOp51
 70
     0
102
RTVSPropertyOp52
 70
     0
102
RTVSPropertyOp53
 70
     1
102
RTVSPropertyOp54
 70
     1
102
RTVSPropertyOp55
 70
     1
102
RTVSPropertyOp56
 70
     1
102
RTVSPropertyOp57
 70
     1
102
RTVSPropertyOp58
 70
     1
102
RTVSPropertyOp59
 70
     1
102
RTVSPropertyOp60
 70
     1
102
RTVSPropertyOp61
 70
     1
102
RTVSPropertyOp62
 70
     1
  0
XRECORD
  5
E260
102
{ACAD_REACTORS
330
E25F
102
}
330
E25F
100
AcDbXrecord
280
     1
102
RTVSPost2010Prop28
280
     0
102
RTVSPost2010PropOp28
 70
     1
102
RTVSPost2010Prop29
280
     1
102
RTVSPost2010PropOp29
 70
     1
102
RTVSPost2010Prop30
280
     1
102
RTVSPost2010PropOp30
 70
     1
102
RTVSPost2010Prop31
280
     0
102
RTVSPost2010PropOp31
 70
     1
102
RTVSPost2010Prop32
280
     0
102
RTVSPost2010PropOp32
 70
     1
102
RTVSPost2010Prop33
280
     0
102
RTVSPost2010PropOp33
 70
     1
102
RTVSPost2010Prop34
280
     0
102
RTVSPost2010PropOp34
 70
     1
102
RTVSPost2010Prop35
280
     0
102
RTVSPost2010PropOp35
 70
     1
102
RTVSPost2010Prop36
280
     0
102
RTVSPost2010PropOp36
 70
     1
102
RTVSPost2010Prop37
 90
       50
102
RTVSPost2010PropOp37
 70
     1
102
RTVSPost2010Prop38
140
0.0
102
RTVSPost2010PropOp38
 70
     1
102
RTVSPost2010Prop39
140
1.0
102
RTVSPost2010PropOp39
 70
     1
102
RTVSPost2010Prop40
 90
        0
102
RTVSPost2010PropOp40
 70
     1
102
RTVSPost2010Prop41ColorIndex
 90
       18
102
RTVSPost2010Prop41ColorRGB
 90
        0
102
RTVSPost2010PropOp41
 70
     1
102
RTVSPost2010Prop42
 90
       50
102
RTVSPost2010PropOp42
 70
     1
102
RTVSPost2010Prop43
 90
        3
102
RTVSPost2010PropOp43
 70
     1
102
RTVSPost2010Prop44ColorIndex
 90
        5
102
RTVSPost2010Prop44ColorRGB
 90
      255
102
RTVSPost2010PropOp44
 70
     1
102
RTVSPost2010Prop45
280
     0
102
RTVSPost2010PropOp45
 70
     1
102
RTVSPost2010Prop46
 90
       50
102
RTVSPost2010PropOp46
 70
     1
102
RTVSPost2010Prop47
 90
       50
102
RTVSPost2010PropOp47
 70
     1
102
RTVSPost2010Prop48
 90
       50
102
RTVSPost2010PropOp48
 70
     1
102
RTVSPost2010Prop49
280
     0
102
RTVSPost2010PropOp49
 70
     1
102
RTVSPost2010Prop50
 90
       50
102
RTVSPost2010PropOp50
 70
     1
102
RTVSPost2010Prop51ColorIndex
 90
      256
102
RTVSPost2010Prop51ColorRGB
 90
-16777216
102
RTVSPost2010PropOp51
 70
     0
102
RTVSPost2010Prop52
140
1.0
102
RTVSPost2010PropOp52
 70
     0
102
RTVSPost2010Prop53
 90
        2
102
RTVSPost2010PropOp53
 70
     1
102
RTVSPost2010Prop54
  1
strokes_ogs.tif
102
RTVSPost2010PropOp54
 70
     1
102
RTVSPost2010Prop55
280
     0
102
RTVSPost2010PropOp55
 70
     1
102
RTVSPost2010Prop56
140
1.0
102
RTVSPost2010PropOp56
 70
     1
102
RTVSPost2010Prop57
140
1.0
102
RTVSPost2010PropOp57
 70
     1
102
RTVSPropertyOp0
 70
     1
102
RTVSPropertyOp1
 70
     1
102
RTVSPropertyOp2
 70
     1
102
RTVSPropertyOp3
 70
     1
102
RTVSPropertyOp4
 70
     1
102
RTVSPropertyOp5
 70
     1
102
RTVSPropertyOp6
 70
     1
102
RTVSPropertyOp7
 70
     1
102
RTVSPropertyOp8
 70
     1
102
RTVSPropertyOp9
 70
     1
102
RTVSPropertyOp10
 70
     1
102
RTVSPropertyOp11
 70
     1
102
RTVSPropertyOp12
 70
     1
102
RTVSPropertyOp13
 70
     1
102
RTVSPropertyOp14
 70
     1
102
RTVSPropertyOp15
 70
     1
102
RTVSPropertyOp16
 70
     1
102
RTVSPropertyOp17
 70
     1
102
RTVSPropertyOp18
 70
     1
102
RTVSPropertyOp19
 70
     1
102
RTVSPropertyOp20
 70
     1
102
RTVSPropertyOp21
 70
     1
102
RTVSPropertyOp22
 70
     1
102
RTVSPropertyOp23
 70
     1
102
RTVSPropertyOp24
 70
     1
102
RTVSPropertyOp25
 70
     1
102
RTVSPropertyOp26
 70
     1
102
RTVSPropertyOp27
 70
     1
102
RTVSPropertyOp28
 70
     1
102
RTVSPropertyOp29
 70
     1
102
RTVSPropertyOp30
 70
     1
102
RTVSPropertyOp31
 70
     1
102
RTVSPropertyOp32
 70
     1
102
RTVSPropertyOp33
 70
     1
102
RTVSPropertyOp34
 70
     1
102
RTVSPropertyOp35
 70
     1
102
RTVSPropertyOp36
 70
     1
102
RTVSPropertyOp37
 70
     1
102
RTVSPropertyOp38
 70
     1
102
RTVSPropertyOp39
 70
     1
102
RTVSPropertyOp40
 70
     1
102
RTVSPropertyOp41
 70
     1
102
RTVSPropertyOp42
 70
     1
102
RTVSPropertyOp43
 70
     1
102
RTVSPropertyOp44
 70
     1
102
RTVSPropertyOp45
 70
     1
102
RTVSPropertyOp46
 70
     1
102
RTVSPropertyOp47
 70
     1
102
RTVSPropertyOp48
 70
     1
102
RTVSPropertyOp49
 70
     1
102
RTVSPropertyOp50
 70
     1
102
RTVSPropertyOp51
 70
     0
102
RTVSPropertyOp52
 70
     0
102
RTVSPropertyOp53
 70
     1
102
RTVSPropertyOp54
 70
     1
102
RTVSPropertyOp55
 70
     1
102
RTVSPropertyOp56
 70
     1
102
RTVSPropertyOp57
 70
     1
102
RTVSPropertyOp58
 70
     1
102
RTVSPropertyOp59
 70
     1
102
RTVSPropertyOp60
 70
     1
102
RTVSPropertyOp61
 70
     1
102
RTVSPropertyOp62
 70
     1
  0
XRECORD
  5
E25E
102
{ACAD_REACTORS
330
E25D
102
}
330
E25D
100
AcDbXrecord
280
     1
102
RTVSPost2010Prop28
280
     0
102
RTVSPost2010PropOp28
 70
     1
102
RTVSPost2010Prop29
280
     1
102
RTVSPost2010PropOp29
 70
     1
102
RTVSPost2010Prop30
280
     1
102
RTVSPost2010PropOp30
 70
     1
102
RTVSPost2010Prop31
280
     0
102
RTVSPost2010PropOp31
 70
     1
102
RTVSPost2010Prop32
280
     0
102
RTVSPost2010PropOp32
 70
     1
102
RTVSPost2010Prop33
280
     0
102
RTVSPost2010PropOp33
 70
     1
102
RTVSPost2010Prop34
280
     0
102
RTVSPost2010PropOp34
 70
     1
102
RTVSPost2010Prop35
280
     0
102
RTVSPost2010PropOp35
 70
     1
102
RTVSPost2010Prop36
280
     0
102
RTVSPost2010PropOp36
 70
     1
102
RTVSPost2010Prop37
 90
       50
102
RTVSPost2010PropOp37
 70
     1
102
RTVSPost2010Prop38
140
0.0
102
RTVSPost2010PropOp38
 70
     1
102
RTVSPost2010Prop39
140
1.0
102
RTVSPost2010PropOp39
 70
     1
102
RTVSPost2010Prop40
 90
        0
102
RTVSPost2010PropOp40
 70
     1
102
RTVSPost2010Prop41ColorIndex
 90
       18
102
RTVSPost2010Prop41ColorRGB
 90
        0
102
RTVSPost2010PropOp41
 70
     1
102
RTVSPost2010Prop42
 90
       50
102
RTVSPost2010PropOp42
 70
     1
102
RTVSPost2010Prop43
 90
        3
102
RTVSPost2010PropOp43
 70
     1
102
RTVSPost2010Prop44ColorIndex
 90
        5
102
RTVSPost2010Prop44ColorRGB
 90
      255
102
RTVSPost2010PropOp44
 70
     1
102
RTVSPost2010Prop45
280
     0
102
RTVSPost2010PropOp45
 70
     1
102
RTVSPost2010Prop46
 90
       50
102
RTVSPost2010PropOp46
 70
     1
102
RTVSPost2010Prop47
 90
       50
102
RTVSPost2010PropOp47
 70
     1
102
RTVSPost2010Prop48
 90
       50
102
RTVSPost2010PropOp48
 70
     1
102
RTVSPost2010Prop49
280
     0
102
RTVSPost2010PropOp49
 70
     1
102
RTVSPost2010Prop50
 90
       50
102
RTVSPost2010PropOp50
 70
     1
102
RTVSPost2010Prop51ColorIndex
 90
      256
102
RTVSPost2010Prop51ColorRGB
 90
-16777216
102
RTVSPost2010PropOp51
 70
     0
102
RTVSPost2010Prop52
140
1.0
102
RTVSPost2010PropOp52
 70
     0
102
RTVSPost2010Prop53
 90
        2
102
RTVSPost2010PropOp53
 70
     1
102
RTVSPost2010Prop54
  1
strokes_ogs.tif
102
RTVSPost2010PropOp54
 70
     1
102
RTVSPost2010Prop55
280
     0
102
RTVSPost2010PropOp55
 70
     1
102
RTVSPost2010Prop56
140
1.0
102
RTVSPost2010PropOp56
 70
     1
102
RTVSPost2010Prop57
140
1.0
102
RTVSPost2010PropOp57
 70
     1
102
RTVSPropertyOp0
 70
     1
102
RTVSPropertyOp1
 70
     1
102
RTVSPropertyOp2
 70
     1
102
RTVSPropertyOp3
 70
     1
102
RTVSPropertyOp4
 70
     1
102
RTVSPropertyOp5
 70
     1
102
RTVSPropertyOp6
 70
     1
102
RTVSPropertyOp7
 70
     1
102
RTVSPropertyOp8
 70
     1
102
RTVSPropertyOp9
 70
     1
102
RTVSPropertyOp10
 70
     1
102
RTVSPropertyOp11
 70
     1
102
RTVSPropertyOp12
 70
     1
102
RTVSPropertyOp13
 70
     1
102
RTVSPropertyOp14
 70
     1
102
RTVSPropertyOp15
 70
     1
102
RTVSPropertyOp16
 70
     1
102
RTVSPropertyOp17
 70
     1
102
RTVSPropertyOp18
 70
     1
102
RTVSPropertyOp19
 70
     1
102
RTVSPropertyOp20
 70
     1
102
RTVSPropertyOp21
 70
     1
102
RTVSPropertyOp22
 70
     1
102
RTVSPropertyOp23
 70
     1
102
RTVSPropertyOp24
 70
     1
102
RTVSPropertyOp25
 70
     1
102
RTVSPropertyOp26
 70
     1
102
RTVSPropertyOp27
 70
     1
102
RTVSPropertyOp28
 70
     1
102
RTVSPropertyOp29
 70
     1
102
RTVSPropertyOp30
 70
     1
102
RTVSPropertyOp31
 70
     1
102
RTVSPropertyOp32
 70
     1
102
RTVSPropertyOp33
 70
     1
102
RTVSPropertyOp34
 70
     1
102
RTVSPropertyOp35
 70
     1
102
RTVSPropertyOp36
 70
     1
102
RTVSPropertyOp37
 70
     1
102
RTVSPropertyOp38
 70
     1
102
RTVSPropertyOp39
 70
     1
102
RTVSPropertyOp40
 70
     1
102
RTVSPropertyOp41
 70
     1
102
RTVSPropertyOp42
 70
     1
102
RTVSPropertyOp43
 70
     1
102
RTVSPropertyOp44
 70
     1
102
RTVSPropertyOp45
 70
     1
102
RTVSPropertyOp46
 70
     1
102
RTVSPropertyOp47
 70
     1
102
RTVSPropertyOp48
 70
     1
102
RTVSPropertyOp49
 70
     1
102
RTVSPropertyOp50
 70
     1
102
RTVSPropertyOp51
 70
     0
102
RTVSPropertyOp52
 70
     0
102
RTVSPropertyOp53
 70
     1
102
RTVSPropertyOp54
 70
     1
102
RTVSPropertyOp55
 70
     1
102
RTVSPropertyOp56
 70
     1
102
RTVSPropertyOp57
 70
     1
102
RTVSPropertyOp58
 70
     1
102
RTVSPropertyOp59
 70
     1
102
RTVSPropertyOp60
 70
     1
102
RTVSPropertyOp61
 70
     1
102
RTVSPropertyOp62
 70
     1
  0
XRECORD
  5
E258
102
{ACAD_REACTORS
330
E257
102
}
330
E257
100
AcDbXrecord
280
     1
102
RTVSPost2010Prop28
280
     0
102
RTVSPost2010PropOp28
 70
     1
102
RTVSPost2010Prop29
280
     1
102
RTVSPost2010PropOp29
 70
     1
102
RTVSPost2010Prop30
280
     1
102
RTVSPost2010PropOp30
 70
     1
102
RTVSPost2010Prop31
280
     0
102
RTVSPost2010PropOp31
 70
     1
102
RTVSPost2010Prop32
280
     0
102
RTVSPost2010PropOp32
 70
     1
102
RTVSPost2010Prop33
280
     0
102
RTVSPost2010PropOp33
 70
     1
102
RTVSPost2010Prop34
280
     0
102
RTVSPost2010PropOp34
 70
     1
102
RTVSPost2010Prop35
280
     0
102
RTVSPost2010PropOp35
 70
     1
102
RTVSPost2010Prop36
280
     0
102
RTVSPost2010PropOp36
 70
     1
102
RTVSPost2010Prop37
 90
       50
102
RTVSPost2010PropOp37
 70
     1
102
RTVSPost2010Prop38
140
0.0
102
RTVSPost2010PropOp38
 70
     1
102
RTVSPost2010Prop39
140
1.0
102
RTVSPost2010PropOp39
 70
     1
102
RTVSPost2010Prop40
 90
        0
102
RTVSPost2010PropOp40
 70
     1
102
RTVSPost2010Prop41ColorIndex
 90
       18
102
RTVSPost2010Prop41ColorRGB
 90
        0
102
RTVSPost2010PropOp41
 70
     1
102
RTVSPost2010Prop42
 90
       50
102
RTVSPost2010PropOp42
 70
     1
102
RTVSPost2010Prop43
 90
        3
102
RTVSPost2010PropOp43
 70
     1
102
RTVSPost2010Prop44ColorIndex
 90
        5
102
RTVSPost2010Prop44ColorRGB
 90
      255
102
RTVSPost2010PropOp44
 70
     1
102
RTVSPost2010Prop45
280
     0
102
RTVSPost2010PropOp45
 70
     1
102
RTVSPost2010Prop46
 90
       50
102
RTVSPost2010PropOp46
 70
     1
102
RTVSPost2010Prop47
 90
       50
102
RTVSPost2010PropOp47
 70
     1
102
RTVSPost2010Prop48
 90
       50
102
RTVSPost2010PropOp48
 70
     1
102
RTVSPost2010Prop49
280
     0
102
RTVSPost2010PropOp49
 70
     1
102
RTVSPost2010Prop50
 90
       50
102
RTVSPost2010PropOp50
 70
     1
102
RTVSPost2010Prop51ColorIndex
 90
      256
102
RTVSPost2010Prop51ColorRGB
 90
-16777216
102
RTVSPost2010PropOp51
 70
     0
102
RTVSPost2010Prop52
140
1.0
102
RTVSPost2010PropOp52
 70
     0
102
RTVSPost2010Prop53
 90
        2
102
RTVSPost2010PropOp53
 70
     1
102
RTVSPost2010Prop54
  1
strokes_ogs.tif
102
RTVSPost2010PropOp54
 70
     1
102
RTVSPost2010Prop55
280
     0
102
RTVSPost2010PropOp55
 70
     1
102
RTVSPost2010Prop56
140
1.0
102
RTVSPost2010PropOp56
 70
     1
102
RTVSPost2010Prop57
140
1.0
102
RTVSPost2010PropOp57
 70
     1
102
RTVSPropertyOp0
 70
     1
102
RTVSPropertyOp1
 70
     1
102
RTVSPropertyOp2
 70
     1
102
RTVSPropertyOp3
 70
     1
102
RTVSPropertyOp4
 70
     1
102
RTVSPropertyOp5
 70
     1
102
RTVSPropertyOp6
 70
     1
102
RTVSPropertyOp7
 70
     1
102
RTVSPropertyOp8
 70
     1
102
RTVSPropertyOp9
 70
     1
102
RTVSPropertyOp10
 70
     1
102
RTVSPropertyOp11
 70
     1
102
RTVSPropertyOp12
 70
     1
102
RTVSPropertyOp13
 70
     1
102
RTVSPropertyOp14
 70
     1
102
RTVSPropertyOp15
 70
     1
102
RTVSPropertyOp16
 70
     1
102
RTVSPropertyOp17
 70
     1
102
RTVSPropertyOp18
 70
     1
102
RTVSPropertyOp19
 70
     1
102
RTVSPropertyOp20
 70
     1
102
RTVSPropertyOp21
 70
     1
102
RTVSPropertyOp22
 70
     1
102
RTVSPropertyOp23
 70
     1
102
RTVSPropertyOp24
 70
     1
102
RTVSPropertyOp25
 70
     1
102
RTVSPropertyOp26
 70
     1
102
RTVSPropertyOp27
 70
     1
102
RTVSPropertyOp28
 70
     1
102
RTVSPropertyOp29
 70
     1
102
RTVSPropertyOp30
 70
     1
102
RTVSPropertyOp31
 70
     1
102
RTVSPropertyOp32
 70
     1
102
RTVSPropertyOp33
 70
     1
102
RTVSPropertyOp34
 70
     1
102
RTVSPropertyOp35
 70
     1
102
RTVSPropertyOp36
 70
     1
102
RTVSPropertyOp37
 70
     1
102
RTVSPropertyOp38
 70
     1
102
RTVSPropertyOp39
 70
     1
102
RTVSPropertyOp40
 70
     1
102
RTVSPropertyOp41
 70
     1
102
RTVSPropertyOp42
 70
     1
102
RTVSPropertyOp43
 70
     1
102
RTVSPropertyOp44
 70
     1
102
RTVSPropertyOp45
 70
     1
102
RTVSPropertyOp46
 70
     1
102
RTVSPropertyOp47
 70
     1
102
RTVSPropertyOp48
 70
     1
102
RTVSPropertyOp49
 70
     1
102
RTVSPropertyOp50
 70
     1
102
RTVSPropertyOp51
 70
     0
102
RTVSPropertyOp52
 70
     0
102
RTVSPropertyOp53
 70
     1
102
RTVSPropertyOp54
 70
     1
102
RTVSPropertyOp55
 70
     1
102
RTVSPropertyOp56
 70
     1
102
RTVSPropertyOp57
 70
     1
102
RTVSPropertyOp58
 70
     1
102
RTVSPropertyOp59
 70
     1
102
RTVSPropertyOp60
 70
     1
102
RTVSPropertyOp61
 70
     1
102
RTVSPropertyOp62
 70
     1
  0
XRECORD
  5
E25A
102
{ACAD_REACTORS
330
E259
102
}
330
E259
100
AcDbXrecord
280
     1
102
RTVSPost2010Prop28
280
     0
102
RTVSPost2010PropOp28
 70
     1
102
RTVSPost2010Prop29
280
     1
102
RTVSPost2010PropOp29
 70
     1
102
RTVSPost2010Prop30
280
     1
102
RTVSPost2010PropOp30
 70
     1
102
RTVSPost2010Prop31
280
     0
102
RTVSPost2010PropOp31
 70
     1
102
RTVSPost2010Prop32
280
     0
102
RTVSPost2010PropOp32
 70
     1
102
RTVSPost2010Prop33
280
     0
102
RTVSPost2010PropOp33
 70
     1
102
RTVSPost2010Prop34
280
     0
102
RTVSPost2010PropOp34
 70
     1
102
RTVSPost2010Prop35
280
     0
102
RTVSPost2010PropOp35
 70
     1
102
RTVSPost2010Prop36
280
     0
102
RTVSPost2010PropOp36
 70
     1
102
RTVSPost2010Prop37
 90
       50
102
RTVSPost2010PropOp37
 70
     1
102
RTVSPost2010Prop38
140
0.0
102
RTVSPost2010PropOp38
 70
     1
102
RTVSPost2010Prop39
140
1.0
102
RTVSPost2010PropOp39
 70
     1
102
RTVSPost2010Prop40
 90
        0
102
RTVSPost2010PropOp40
 70
     1
102
RTVSPost2010Prop41ColorIndex
 90
       18
102
RTVSPost2010Prop41ColorRGB
 90
        0
102
RTVSPost2010PropOp41
 70
     1
102
RTVSPost2010Prop42
 90
       50
102
RTVSPost2010PropOp42
 70
     1
102
RTVSPost2010Prop43
 90
        3
102
RTVSPost2010PropOp43
 70
     1
102
RTVSPost2010Prop44ColorIndex
 90
        5
102
RTVSPost2010Prop44ColorRGB
 90
      255
102
RTVSPost2010PropOp44
 70
     1
102
RTVSPost2010Prop45
280
     0
102
RTVSPost2010PropOp45
 70
     1
102
RTVSPost2010Prop46
 90
       50
102
RTVSPost2010PropOp46
 70
     1
102
RTVSPost2010Prop47
 90
       50
102
RTVSPost2010PropOp47
 70
     1
102
RTVSPost2010Prop48
 90
       50
102
RTVSPost2010PropOp48
 70
     1
102
RTVSPost2010Prop49
280
     0
102
RTVSPost2010PropOp49
 70
     1
102
RTVSPost2010Prop50
 90
       50
102
RTVSPost2010PropOp50
 70
     1
102
RTVSPost2010Prop51ColorIndex
 90
      256
102
RTVSPost2010Prop51ColorRGB
 90
-16777216
102
RTVSPost2010PropOp51
 70
     0
102
RTVSPost2010Prop52
140
1.0
102
RTVSPost2010PropOp52
 70
     0
102
RTVSPost2010Prop53
 90
        2
102
RTVSPost2010PropOp53
 70
     1
102
RTVSPost2010Prop54
  1
strokes_ogs.tif
102
RTVSPost2010PropOp54
 70
     1
102
RTVSPost2010Prop55
280
     0
102
RTVSPost2010PropOp55
 70
     1
102
RTVSPost2010Prop56
140
1.0
102
RTVSPost2010PropOp56
 70
     1
102
RTVSPost2010Prop57
140
1.0
102
RTVSPost2010PropOp57
 70
     1
102
RTVSPropertyOp0
 70
     1
102
RTVSPropertyOp1
 70
     1
102
RTVSPropertyOp2
 70
     1
102
RTVSPropertyOp3
 70
     1
102
RTVSPropertyOp4
 70
     1
102
RTVSPropertyOp5
 70
     1
102
RTVSPropertyOp6
 70
     1
102
RTVSPropertyOp7
 70
     1
102
RTVSPropertyOp8
 70
     1
102
RTVSPropertyOp9
 70
     1
102
RTVSPropertyOp10
 70
     1
102
RTVSPropertyOp11
 70
     1
102
RTVSPropertyOp12
 70
     1
102
RTVSPropertyOp13
 70
     1
102
RTVSPropertyOp14
 70
     1
102
RTVSPropertyOp15
 70
     1
102
RTVSPropertyOp16
 70
     1
102
RTVSPropertyOp17
 70
     1
102
RTVSPropertyOp18
 70
     1
102
RTVSPropertyOp19
 70
     1
102
RTVSPropertyOp20
 70
     1
102
RTVSPropertyOp21
 70
     1
102
RTVSPropertyOp22
 70
     1
102
RTVSPropertyOp23
 70
     1
102
RTVSPropertyOp24
 70
     1
102
RTVSPropertyOp25
 70
     1
102
RTVSPropertyOp26
 70
     1
102
RTVSPropertyOp27
 70
     1
102
RTVSPropertyOp28
 70
     1
102
RTVSPropertyOp29
 70
     1
102
RTVSPropertyOp30
 70
     1
102
RTVSPropertyOp31
 70
     1
102
RTVSPropertyOp32
 70
     1
102
RTVSPropertyOp33
 70
     1
102
RTVSPropertyOp34
 70
     1
102
RTVSPropertyOp35
 70
     1
102
RTVSPropertyOp36
 70
     1
102
RTVSPropertyOp37
 70
     1
102
RTVSPropertyOp38
 70
     1
102
RTVSPropertyOp39
 70
     1
102
RTVSPropertyOp40
 70
     1
102
RTVSPropertyOp41
 70
     1
102
RTVSPropertyOp42
 70
     1
102
RTVSPropertyOp43
 70
     1
102
RTVSPropertyOp44
 70
     1
102
RTVSPropertyOp45
 70
     1
102
RTVSPropertyOp46
 70
     1
102
RTVSPropertyOp47
 70
     1
102
RTVSPropertyOp48
 70
     1
102
RTVSPropertyOp49
 70
     1
102
RTVSPropertyOp50
 70
     1
102
RTVSPropertyOp51
 70
     0
102
RTVSPropertyOp52
 70
     0
102
RTVSPropertyOp53
 70
     1
102
RTVSPropertyOp54
 70
     1
102
RTVSPropertyOp55
 70
     1
102
RTVSPropertyOp56
 70
     1
102
RTVSPropertyOp57
 70
     1
102
RTVSPropertyOp58
 70
     1
102
RTVSPropertyOp59
 70
     1
102
RTVSPropertyOp60
 70
     1
102
RTVSPropertyOp61
 70
     1
102
RTVSPropertyOp62
 70
     1
  0
XRECORD
  5
E250
102
{ACAD_REACTORS
330
E24F
102
}
330
E24F
100
AcDbXrecord
280
     1
102
RTVSPost2010Prop28
280
     0
102
RTVSPost2010PropOp28
 70
     1
102
RTVSPost2010Prop29
280
     1
102
RTVSPost2010PropOp29
 70
     1
102
RTVSPost2010Prop30
280
     1
102
RTVSPost2010PropOp30
 70
     1
102
RTVSPost2010Prop31
280
     0
102
RTVSPost2010PropOp31
 70
     1
102
RTVSPost2010Prop32
280
     0
102
RTVSPost2010PropOp32
 70
     1
102
RTVSPost2010Prop33
280
     0
102
RTVSPost2010PropOp33
 70
     1
102
RTVSPost2010Prop34
280
     0
102
RTVSPost2010PropOp34
 70
     1
102
RTVSPost2010Prop35
280
     0
102
RTVSPost2010PropOp35
 70
     1
102
RTVSPost2010Prop36
280
     0
102
RTVSPost2010PropOp36
 70
     1
102
RTVSPost2010Prop37
 90
       50
102
RTVSPost2010PropOp37
 70
     1
102
RTVSPost2010Prop38
140
0.0
102
RTVSPost2010PropOp38
 70
     1
102
RTVSPost2010Prop39
140
1.0
102
RTVSPost2010PropOp39
 70
     1
102
RTVSPost2010Prop40
 90
        0
102
RTVSPost2010PropOp40
 70
     1
102
RTVSPost2010Prop41ColorIndex
 90
       18
102
RTVSPost2010Prop41ColorRGB
 90
        0
102
RTVSPost2010PropOp41
 70
     1
102
RTVSPost2010Prop42
 90
       50
102
RTVSPost2010PropOp42
 70
     1
102
RTVSPost2010Prop43
 90
        3
102
RTVSPost2010PropOp43
 70
     1
102
RTVSPost2010Prop44ColorIndex
 90
        5
102
RTVSPost2010Prop44ColorRGB
 90
      255
102
RTVSPost2010PropOp44
 70
     1
102
RTVSPost2010Prop45
280
     0
102
RTVSPost2010PropOp45
 70
     1
102
RTVSPost2010Prop46
 90
       50
102
RTVSPost2010PropOp46
 70
     1
102
RTVSPost2010Prop47
 90
       50
102
RTVSPost2010PropOp47
 70
     1
102
RTVSPost2010Prop48
 90
       50
102
RTVSPost2010PropOp48
 70
     1
102
RTVSPost2010Prop49
280
     0
102
RTVSPost2010PropOp49
 70
     1
102
RTVSPost2010Prop50
 90
       50
102
RTVSPost2010PropOp50
 70
     1
102
RTVSPost2010Prop51ColorIndex
 90
      256
102
RTVSPost2010Prop51ColorRGB
 90
-16777216
102
RTVSPost2010PropOp51
 70
     0
102
RTVSPost2010Prop52
140
1.0
102
RTVSPost2010PropOp52
 70
     0
102
RTVSPost2010Prop53
 90
        2
102
RTVSPost2010PropOp53
 70
     1
102
RTVSPost2010Prop54
  1
strokes_ogs.tif
102
RTVSPost2010PropOp54
 70
     1
102
RTVSPost2010Prop55
280
     0
102
RTVSPost2010PropOp55
 70
     1
102
RTVSPost2010Prop56
140
1.0
102
RTVSPost2010PropOp56
 70
     1
102
RTVSPost2010Prop57
140
1.0
102
RTVSPost2010PropOp57
 70
     1
102
RTVSPropertyOp0
 70
     1
102
RTVSPropertyOp1
 70
     1
102
RTVSPropertyOp2
 70
     1
102
RTVSPropertyOp3
 70
     1
102
RTVSPropertyOp4
 70
     1
102
RTVSPropertyOp5
 70
     1
102
RTVSPropertyOp6
 70
     1
102
RTVSPropertyOp7
 70
     1
102
RTVSPropertyOp8
 70
     1
102
RTVSPropertyOp9
 70
     1
102
RTVSPropertyOp10
 70
     1
102
RTVSPropertyOp11
 70
     1
102
RTVSPropertyOp12
 70
     1
102
RTVSPropertyOp13
 70
     1
102
RTVSPropertyOp14
 70
     1
102
RTVSPropertyOp15
 70
     1
102
RTVSPropertyOp16
 70
     1
102
RTVSPropertyOp17
 70
     1
102
RTVSPropertyOp18
 70
     1
102
RTVSPropertyOp19
 70
     1
102
RTVSPropertyOp20
 70
     1
102
RTVSPropertyOp21
 70
     1
102
RTVSPropertyOp22
 70
     1
102
RTVSPropertyOp23
 70
     1
102
RTVSPropertyOp24
 70
     1
102
RTVSPropertyOp25
 70
     1
102
RTVSPropertyOp26
 70
     1
102
RTVSPropertyOp27
 70
     1
102
RTVSPropertyOp28
 70
     1
102
RTVSPropertyOp29
 70
     1
102
RTVSPropertyOp30
 70
     1
102
RTVSPropertyOp31
 70
     1
102
RTVSPropertyOp32
 70
     1
102
RTVSPropertyOp33
 70
     1
102
RTVSPropertyOp34
 70
     1
102
RTVSPropertyOp35
 70
     1
102
RTVSPropertyOp36
 70
     1
102
RTVSPropertyOp37
 70
     1
102
RTVSPropertyOp38
 70
     1
102
RTVSPropertyOp39
 70
     1
102
RTVSPropertyOp40
 70
     1
102
RTVSPropertyOp41
 70
     1
102
RTVSPropertyOp42
 70
     1
102
RTVSPropertyOp43
 70
     1
102
RTVSPropertyOp44
 70
     1
102
RTVSPropertyOp45
 70
     1
102
RTVSPropertyOp46
 70
     1
102
RTVSPropertyOp47
 70
     1
102
RTVSPropertyOp48
 70
     1
102
RTVSPropertyOp49
 70
     1
102
RTVSPropertyOp50
 70
     1
102
RTVSPropertyOp51
 70
     0
102
RTVSPropertyOp52
 70
     0
102
RTVSPropertyOp53
 70
     1
102
RTVSPropertyOp54
 70
     1
102
RTVSPropertyOp55
 70
     1
102
RTVSPropertyOp56
 70
     1
102
RTVSPropertyOp57
 70
     1
102
RTVSPropertyOp58
 70
     1
102
RTVSPropertyOp59
 70
     1
102
RTVSPropertyOp60
 70
     1
102
RTVSPropertyOp61
 70
     1
102
RTVSPropertyOp62
 70
     1
  0
XRECORD
  5
E244
102
{ACAD_REACTORS
330
E243
102
}
330
E243
100
AcDbXrecord
280
     1
102
RTVSPost2010Prop28
280
     0
102
RTVSPost2010PropOp28
 70
     1
102
RTVSPost2010Prop29
280
     1
102
RTVSPost2010PropOp29
 70
     1
102
RTVSPost2010Prop30
280
     1
102
RTVSPost2010PropOp30
 70
     1
102
RTVSPost2010Prop31
280
     0
102
RTVSPost2010PropOp31
 70
     1
102
RTVSPost2010Prop32
280
     0
102
RTVSPost2010PropOp32
 70
     1
102
RTVSPost2010Prop33
280
     0
102
RTVSPost2010PropOp33
 70
     1
102
RTVSPost2010Prop34
280
     0
102
RTVSPost2010PropOp34
 70
     1
102
RTVSPost2010Prop35
280
     0
102
RTVSPost2010PropOp35
 70
     1
102
RTVSPost2010Prop36
280
     0
102
RTVSPost2010PropOp36
 70
     1
102
RTVSPost2010Prop37
 90
       50
102
RTVSPost2010PropOp37
 70
     1
102
RTVSPost2010Prop38
140
0.0
102
RTVSPost2010PropOp38
 70
     1
102
RTVSPost2010Prop39
140
1.0
102
RTVSPost2010PropOp39
 70
     1
102
RTVSPost2010Prop40
 90
        0
102
RTVSPost2010PropOp40
 70
     1
102
RTVSPost2010Prop41ColorIndex
 90
       18
102
RTVSPost2010Prop41ColorRGB
 90
        0
102
RTVSPost2010PropOp41
 70
     1
102
RTVSPost2010Prop42
 90
       50
102
RTVSPost2010PropOp42
 70
     1
102
RTVSPost2010Prop43
 90
        3
102
RTVSPost2010PropOp43
 70
     1
102
RTVSPost2010Prop44ColorIndex
 90
        5
102
RTVSPost2010Prop44ColorRGB
 90
      255
102
RTVSPost2010PropOp44
 70
     1
102
RTVSPost2010Prop45
280
     0
102
RTVSPost2010PropOp45
 70
     1
102
RTVSPost2010Prop46
 90
       50
102
RTVSPost2010PropOp46
 70
     1
102
RTVSPost2010Prop47
 90
       50
102
RTVSPost2010PropOp47
 70
     1
102
RTVSPost2010Prop48
 90
       50
102
RTVSPost2010PropOp48
 70
     1
102
RTVSPost2010Prop49
280
     0
102
RTVSPost2010PropOp49
 70
     1
102
RTVSPost2010Prop50
 90
       50
102
RTVSPost2010PropOp50
 70
     1
102
RTVSPost2010Prop51ColorIndex
 90
      256
102
RTVSPost2010Prop51ColorRGB
 90
-16777216
102
RTVSPost2010PropOp51
 70
     0
102
RTVSPost2010Prop52
140
1.0
102
RTVSPost2010PropOp52
 70
     0
102
RTVSPost2010Prop53
 90
        2
102
RTVSPost2010PropOp53
 70
     1
102
RTVSPost2010Prop54
  1
strokes_ogs.tif
102
RTVSPost2010PropOp54
 70
     1
102
RTVSPost2010Prop55
280
     0
102
RTVSPost2010PropOp55
 70
     1
102
RTVSPost2010Prop56
140
1.0
102
RTVSPost2010PropOp56
 70
     1
102
RTVSPost2010Prop57
140
1.0
102
RTVSPost2010PropOp57
 70
     1
102
RTVSPropertyOp0
 70
     1
102
RTVSPropertyOp1
 70
     1
102
RTVSPropertyOp2
 70
     1
102
RTVSPropertyOp3
 70
     1
102
RTVSPropertyOp4
 70
     1
102
RTVSPropertyOp5
 70
     1
102
RTVSPropertyOp6
 70
     1
102
RTVSPropertyOp7
 70
     1
102
RTVSPropertyOp8
 70
     1
102
RTVSPropertyOp9
 70
     1
102
RTVSPropertyOp10
 70
     1
102
RTVSPropertyOp11
 70
     1
102
RTVSPropertyOp12
 70
     1
102
RTVSPropertyOp13
 70
     1
102
RTVSPropertyOp14
 70
     1
102
RTVSPropertyOp15
 70
     1
102
RTVSPropertyOp16
 70
     1
102
RTVSPropertyOp17
 70
     1
102
RTVSPropertyOp18
 70
     1
102
RTVSPropertyOp19
 70
     1
102
RTVSPropertyOp20
 70
     1
102
RTVSPropertyOp21
 70
     1
102
RTVSPropertyOp22
 70
     1
102
RTVSPropertyOp23
 70
     1
102
RTVSPropertyOp24
 70
     1
102
RTVSPropertyOp25
 70
     1
102
RTVSPropertyOp26
 70
     1
102
RTVSPropertyOp27
 70
     1
102
RTVSPropertyOp28
 70
     1
102
RTVSPropertyOp29
 70
     1
102
RTVSPropertyOp30
 70
     1
102
RTVSPropertyOp31
 70
     1
102
RTVSPropertyOp32
 70
     1
102
RTVSPropertyOp33
 70
     1
102
RTVSPropertyOp34
 70
     1
102
RTVSPropertyOp35
 70
     1
102
RTVSPropertyOp36
 70
     1
102
RTVSPropertyOp37
 70
     1
102
RTVSPropertyOp38
 70
     1
102
RTVSPropertyOp39
 70
     1
102
RTVSPropertyOp40
 70
     1
102
RTVSPropertyOp41
 70
     1
102
RTVSPropertyOp42
 70
     1
102
RTVSPropertyOp43
 70
     1
102
RTVSPropertyOp44
 70
     1
102
RTVSPropertyOp45
 70
     1
102
RTVSPropertyOp46
 70
     1
102
RTVSPropertyOp47
 70
     1
102
RTVSPropertyOp48
 70
     1
102
RTVSPropertyOp49
 70
     1
102
RTVSPropertyOp50
 70
     1
102
RTVSPropertyOp51
 70
     0
102
RTVSPropertyOp52
 70
     0
102
RTVSPropertyOp53
 70
     1
102
RTVSPropertyOp54
 70
     1
102
RTVSPropertyOp55
 70
     1
102
RTVSPropertyOp56
 70
     1
102
RTVSPropertyOp57
 70
     1
102
RTVSPropertyOp58
 70
     1
102
RTVSPropertyOp59
 70
     1
102
RTVSPropertyOp60
 70
     1
102
RTVSPropertyOp61
 70
     1
102
RTVSPropertyOp62
 70
     1
  0
XRECORD
  5
E25C
102
{ACAD_REACTORS
330
E25B
102
}
330
E25B
100
AcDbXrecord
280
     1
102
RTVSPost2010Prop28
280
     0
102
RTVSPost2010PropOp28
 70
     1
102
RTVSPost2010Prop29
280
     1
102
RTVSPost2010PropOp29
 70
     1
102
RTVSPost2010Prop30
280
     1
102
RTVSPost2010PropOp30
 70
     1
102
RTVSPost2010Prop31
280
     0
102
RTVSPost2010PropOp31
 70
     1
102
RTVSPost2010Prop32
280
     0
102
RTVSPost2010PropOp32
 70
     1
102
RTVSPost2010Prop33
280
     0
102
RTVSPost2010PropOp33
 70
     1
102
RTVSPost2010Prop34
280
     0
102
RTVSPost2010PropOp34
 70
     1
102
RTVSPost2010Prop35
280
     0
102
RTVSPost2010PropOp35
 70
     1
102
RTVSPost2010Prop36
280
     0
102
RTVSPost2010PropOp36
 70
     1
102
RTVSPost2010Prop37
 90
       50
102
RTVSPost2010PropOp37
 70
     1
102
RTVSPost2010Prop38
140
0.0
102
RTVSPost2010PropOp38
 70
     1
102
RTVSPost2010Prop39
140
1.0
102
RTVSPost2010PropOp39
 70
     1
102
RTVSPost2010Prop40
 90
        0
102
RTVSPost2010PropOp40
 70
     1
102
RTVSPost2010Prop41ColorIndex
 90
       18
102
RTVSPost2010Prop41ColorRGB
 90
        0
102
RTVSPost2010PropOp41
 70
     1
102
RTVSPost2010Prop42
 90
       50
102
RTVSPost2010PropOp42
 70
     1
102
RTVSPost2010Prop43
 90
        3
102
RTVSPost2010PropOp43
 70
     1
102
RTVSPost2010Prop44ColorIndex
 90
        5
102
RTVSPost2010Prop44ColorRGB
 90
      255
102
RTVSPost2010PropOp44
 70
     1
102
RTVSPost2010Prop45
280
     0
102
RTVSPost2010PropOp45
 70
     1
102
RTVSPost2010Prop46
 90
       50
102
RTVSPost2010PropOp46
 70
     1
102
RTVSPost2010Prop47
 90
       50
102
RTVSPost2010PropOp47
 70
     1
102
RTVSPost2010Prop48
 90
       50
102
RTVSPost2010PropOp48
 70
     1
102
RTVSPost2010Prop49
280
     0
102
RTVSPost2010PropOp49
 70
     1
102
RTVSPost2010Prop50
 90
       50
102
RTVSPost2010PropOp50
 70
     1
102
RTVSPost2010Prop51ColorIndex
 90
      256
102
RTVSPost2010Prop51ColorRGB
 90
-16777216
102
RTVSPost2010PropOp51
 70
     0
102
RTVSPost2010Prop52
140
1.0
102
RTVSPost2010PropOp52
 70
     0
102
RTVSPost2010Prop53
 90
        2
102
RTVSPost2010PropOp53
 70
     1
102
RTVSPost2010Prop54
  1
strokes_ogs.tif
102
RTVSPost2010PropOp54
 70
     1
102
RTVSPost2010Prop55
280
     0
102
RTVSPost2010PropOp55
 70
     1
102
RTVSPost2010Prop56
140
1.0
102
RTVSPost2010PropOp56
 70
     1
102
RTVSPost2010Prop57
140
1.0
102
RTVSPost2010PropOp57
 70
     1
102
RTVSPropertyOp0
 70
     1
102
RTVSPropertyOp1
 70
     1
102
RTVSPropertyOp2
 70
     1
102
RTVSPropertyOp3
 70
     1
102
RTVSPropertyOp4
 70
     1
102
RTVSPropertyOp5
 70
     1
102
RTVSPropertyOp6
 70
     1
102
RTVSPropertyOp7
 70
     1
102
RTVSPropertyOp8
 70
     1
102
RTVSPropertyOp9
 70
     1
102
RTVSPropertyOp10
 70
     1
102
RTVSPropertyOp11
 70
     1
102
RTVSPropertyOp12
 70
     1
102
RTVSPropertyOp13
 70
     1
102
RTVSPropertyOp14
 70
     1
102
RTVSPropertyOp15
 70
     1
102
RTVSPropertyOp16
 70
     1
102
RTVSPropertyOp17
 70
     1
102
RTVSPropertyOp18
 70
     1
102
RTVSPropertyOp19
 70
     1
102
RTVSPropertyOp20
 70
     1
102
RTVSPropertyOp21
 70
     1
102
RTVSPropertyOp22
 70
     1
102
RTVSPropertyOp23
 70
     1
102
RTVSPropertyOp24
 70
     1
102
RTVSPropertyOp25
 70
     1
102
RTVSPropertyOp26
 70
     1
102
RTVSPropertyOp27
 70
     1
102
RTVSPropertyOp28
 70
     1
102
RTVSPropertyOp29
 70
     1
102
RTVSPropertyOp30
 70
     1
102
RTVSPropertyOp31
 70
     1
102
RTVSPropertyOp32
 70
     1
102
RTVSPropertyOp33
 70
     1
102
RTVSPropertyOp34
 70
     1
102
RTVSPropertyOp35
 70
     1
102
RTVSPropertyOp36
 70
     1
102
RTVSPropertyOp37
 70
     1
102
RTVSPropertyOp38
 70
     1
102
RTVSPropertyOp39
 70
     1
102
RTVSPropertyOp40
 70
     1
102
RTVSPropertyOp41
 70
     1
102
RTVSPropertyOp42
 70
     1
102
RTVSPropertyOp43
 70
     1
102
RTVSPropertyOp44
 70
     1
102
RTVSPropertyOp45
 70
     1
102
RTVSPropertyOp46
 70
     1
102
RTVSPropertyOp47
 70
     1
102
RTVSPropertyOp48
 70
     1
102
RTVSPropertyOp49
 70
     1
102
RTVSPropertyOp50
 70
     1
102
RTVSPropertyOp51
 70
     0
102
RTVSPropertyOp52
 70
     0
102
RTVSPropertyOp53
 70
     1
102
RTVSPropertyOp54
 70
     1
102
RTVSPropertyOp55
 70
     1
102
RTVSPropertyOp56
 70
     1
102
RTVSPropertyOp57
 70
     1
102
RTVSPropertyOp58
 70
     1
102
RTVSPropertyOp59
 70
     1
102
RTVSPropertyOp60
 70
     1
102
RTVSPropertyOp61
 70
     1
102
RTVSPropertyOp62
 70
     1
  0
ENDSEC
  0
EOF
