  0
SECTION
  2
HEADER
  9
$ACADVER
  1
AC1015
  9
$ACADMAINTVER
 70
    20
  9
$DWGCODEPAGE
  3
ANSI_932
  9
$INSBASE
 10
0.0
 20
0.0
 30
0.0
  9
$EXTMIN
 10
9.9999975266385
 20
10.0
 30
0.0
  9
$EXTMAX
 10
672.7722427543783
 20
448.2290199364745
 30
0.0
  9
$LIMMIN
 10
0.0000015376081137
 20
-0.0000001931532552
  9
$LIMMAX
 10
712.000001537608
 20
490.8484846553313
  9
$ORTHOMODE
 70
     1
  9
$REGENMODE
 70
     1
  9
$FILLMODE
 70
     1
  9
$QTEXTMODE
 70
     0
  9
$MIRRTEXT
 70
     1
  9
$LTSCALE
 40
1.0
  9
$ATTMODE
 70
     1
  9
$TEXTSIZE
 40
2.5
  9
$TRACEWID
 40
1.0
  9
$TEXTSTYLE
  7
STANDARD
  9
$CLAYER
  8
0
  9
$CELTYPE
  6
BYLAYER
  9
$CECOLOR
 62
   256
  9
$CELTSCALE
 40
1.0
  9
$DISPSILH
 70
     0
  9
$DIMSCALE
 40
1.0
  9
$DIMASZ
 40
3.0
  9
$DIMEXO
 40
1.0
  9
$DIMDLI
 40
10.0
  9
$DIMRND
 40
0.0
  9
$DIMDLE
 40
0.0
  9
$DIMEXE
 40
1.0
  9
$DIMTP
 40
0.0
  9
$DIMTM
 40
0.0
  9
$DIMTXT
 40
3.2
  9
$DIMCEN
 40
0.0
  9
$DIMTSZ
 40
0.0
  9
$DIMTOL
 70
     0
  9
$DIMLIM
 70
     0
  9
$DIMTIH
 70
     0
  9
$DIMTOH
 70
     0
  9
$DIMSE1
 70
     0
  9
$DIMSE2
 70
     0
  9
$DIMTAD
 70
     3
  9
$DIMZIN
 70
     8
  9
$DIMBLK
  1

  9
$DIMASO
 70
     1
  9
$DIMSHO
 70
     1
  9
$DIMPOST
  1

  9
$DIMAPOST
  1

  9
$DIMALT
 70
     0
  9
$DIMALTD
 70
     2
  9
$DIMALTF
 40
25.4
  9
$DIMLFAC
 40
1.0
  9
$DIMTOFL
 70
     1
  9
$DIMTVP
 40
0.0
  9
$DIMTIX
 70
     0
  9
$DIMSOXD
 70
     0
  9
$DIMSAH
 70
     1
  9
$DIMBLK1
  1
OPEN
  9
$DIMBLK2
  1
OPEN
  9
$DIMSTYLE
  2
STANDARD
  9
$DIMCLRD
 70
     0
  9
$DIMCLRE
 70
     0
  9
$DIMCLRT
 70
     0
  9
$DIMTFAC
 40
1.0
  9
$DIMGAP
 40
1.0
  9
$DIMJUST
 70
     0
  9
$DIMSD1
 70
     0
  9
$DIMSD2
 70
     0
  9
$DIMTOLJ
 70
     1
  9
$DIMTZIN
 70
     0
  9
$DIMALTZ
 70
     0
  9
$DIMALTTZ
 70
     0
  9
$DIMUPT
 70
     0
  9
$DIMDEC
 70
     4
  9
$DIMTDEC
 70
     4
  9
$DIMALTU
 70
     2
  9
$DIMALTTD
 70
     2
  9
$DIMTXSTY
  7
STANDARD
  9
$DIMAUNIT
 70
     0
  9
$DIMADEC
 70
     0
  9
$DIMALTRND
 40
0.0
  9
$DIMAZIN
 70
     0
  9
$DIMDSEP
 70
    46
  9
$DIMATFIT
 70
     3
  9
$DIMFRAC
 70
     0
  9
$DIMLDRBLK
  1
OPEN
  9
$DIMLUNIT
 70
     2
  9
$DIMLWD
 70
    -2
  9
$DIMLWE
 70
    -2
  9
$DIMTMOVE
 70
     0
  9
$LUNITS
 70
     2
  9
$LUPREC
 70
     4
  9
$SKETCHINC
 40
1.0
  9
$FILLETRAD
 40
10.0
  9
$AUNITS
 70
     0
  9
$AUPREC
 70
     0
  9
$MENU
  1
.
  9
$ELEVATION
 40
0.0
  9
$PELEVATION
 40
0.0
  9
$THICKNESS
 40
0.0
  9
$LIMCHECK
 70
     0
  9
$CHAMFERA
 40
10.0
  9
$CHAMFERB
 40
10.0
  9
$CHAMFERC
 40
0.0
  9
$CHAMFERD
 40
0.0
  9
$SKPOLY
 70
     0
  9
$TDCREATE
 40
2452269.371933947
  9
$TDUCREATE
 40
2452268.996933947
  9
$TDUPDATE
 40
2457192.643102188
  9
$TDUUPDATE
 40
2457192.268102188
  9
$TDINDWG
 40
0.1182501852
  9
$TDUSRTIMER
 40
0.1182498843
  9
$USRTIMER
 70
     1
  9
$ANGBASE
 50
0.0
  9
$ANGDIR
 70
     0
  9
$PDMODE
 70
     0
  9
$PDSIZE
 40
0.0
  9
$PLINEWID
 40
0.0
  9
$SPLFRAME
 70
     0
  9
$SPLINETYPE
 70
     6
  9
$SPLINESEGS
 70
     8
  9
$HANDSEED
  5
1BBE
  9
$SURFTAB1
 70
     6
  9
$SURFTAB2
 70
     6
  9
$SURFTYPE
 70
     6
  9
$SURFU
 70
     6
  9
$SURFV
 70
     6
  9
$UCSBASE
  2

  9
$UCSNAME
  2

  9
$UCSORG
 10
0.0
 20
0.0
 30
0.0
  9
$UCSXDIR
 10
1.0
 20
0.0
 30
0.0
  9
$UCSYDIR
 10
0.0
 20
1.0
 30
0.0
  9
$UCSORTHOREF
  2

  9
$UCSORTHOVIEW
 70
     0
  9
$UCSORGTOP
 10
0.0
 20
0.0
 30
0.0
  9
$UCSORGBOTTOM
 10
0.0
 20
0.0
 30
0.0
  9
$UCSORGLEFT
 10
0.0
 20
0.0
 30
0.0
  9
$UCSORGRIGHT
 10
0.0
 20
0.0
 30
0.0
  9
$UCSORGFRONT
 10
0.0
 20
0.0
 30
0.0
  9
$UCSORGBACK
 10
0.0
 20
0.0
 30
0.0
  9
$PUCSBASE
  2

  9
$PUCSNAME
  2

  9
$PUCSORG
 10
0.0
 20
0.0
 30
0.0
  9
$PUCSXDIR
 10
1.0
 20
0.0
 30
0.0
  9
$PUCSYDIR
 10
0.0
 20
1.0
 30
0.0
  9
$PUCSORTHOREF
  2

  9
$PUCSORTHOVIEW
 70
     0
  9
$PUCSORGTOP
 10
0.0
 20
0.0
 30
0.0
  9
$PUCSORGBOTTOM
 10
0.0
 20
0.0
 30
0.0
  9
$PUCSORGLEFT
 10
0.0
 20
0.0
 30
0.0
  9
$PUCSORGRIGHT
 10
0.0
 20
0.0
 30
0.0
  9
$PUCSORGFRONT
 10
0.0
 20
0.0
 30
0.0
  9
$PUCSORGBACK
 10
0.0
 20
0.0
 30
0.0
  9
$USERI1
 70
     0
  9
$USERI2
 70
     0
  9
$USERI3
 70
     0
  9
$USERI4
 70
     0
  9
$USERI5
 70
     0
  9
$USERR1
 40
0.0
  9
$USERR2
 40
0.0
  9
$USERR3
 40
0.0
  9
$USERR4
 40
0.0
  9
$USERR5
 40
0.0
  9
$WORLDVIEW
 70
     1
  9
$SHADEDGE
 70
     3
  9
$SHADEDIF
 70
    70
  9
$TILEMODE
 70
     1
  9
$MAXACTVP
 70
    48
  9
$PINSBASE
 10
0.0
 20
0.0
 30
0.0
  9
$PLIMCHECK
 70
     0
  9
$PEXTMIN
 10
1.000000000000000E+20
 20
1.000000000000000E+20
 30
1.000000000000000E+20
  9
$PEXTMAX
 10
-1.000000000000000E+20
 20
-1.000000000000000E+20
 30
-1.000000000000000E+20
  9
$PLIMMIN
 10
0.0
 20
0.0
  9
$PLIMMAX
 10
420.0
 20
297.0
  9
$UNITMODE
 70
     0
  9
$VISRETAIN
 70
     1
  9
$PLINEGEN
 70
     0
  9
$PSLTSCALE
 70
     1
  9
$TREEDEPTH
 70
  3020
  9
$CMLSTYLE
  2
STANDARD
  9
$CMLJUST
 70
     0
  9
$CMLSCALE
 40
1.0
  9
$PROXYGRAPHICS
 70
     1
  9
$MEASUREMENT
 70
     0
  9
$CELWEIGHT
370
    -1
  9
$ENDCAPS
280
     0
  9
$JOINSTYLE
280
     0
  9
$LWDISPLAY
290
     0
  9
$INSUNITS
 70
     0
  9
$HYPERLINKBASE
  1

  9
$STYLESHEET
  1

  9
$XEDIT
290
     1
  9
$CEPSNTYPE
380
     0
  9
$PSTYLEMODE
290
     1
  9
$FINGERPRINTGUID
  2
{E37BF0F3-F550-4DF4-86E0-CA3167546348}
  9
$VERSIONGUID
  2
{41B1A030-5CBF-491B-96A9-8FA07A58C72B}
  9
$EXTNAMES
290
     1
  9
$PSVPSCALE
 40
0.0
  9
$OLESTARTUP
290
     0
  0
ENDSEC
  0
SECTION
  2
CLASSES
  0
CLASS
  1
ACDBDICTIONARYWDFLT
  2
AcDbDictionaryWithDefault
  3
ObjectDBX Classes
 90
        0
280
     0
281
     0
  0
CLASS
  1
ACDBPLACEHOLDER
  2
AcDbPlaceHolder
  3
ObjectDBX Classes
 90
        0
280
     0
281
     0
  0
CLASS
  1
LAYOUT
  2
AcDbLayout
  3
ObjectDBX Classes
 90
        0
280
     0
281
     0
  0
CLASS
  1
DICTIONARYVAR
  2
AcDbDictionaryVar
  3
ObjectDBX Classes
 90
        0
280
     0
281
     0
  0
CLASS
  1
MATERIAL
  2
AcDbMaterial
  3
ObjectDBX Classes
 90
     1153
280
     0
281
     0
  0
CLASS
  1
VISUALSTYLE
  2
AcDbVisualStyle
  3
ObjectDBX Classes
 90
     4095
280
     0
281
     0
  0
CLASS
  1
TABLESTYLE
  2
AcDbTableStyle
  3
ObjectDBX Classes
 90
     4095
280
     0
281
     0
  0
CLASS
  1
SCALE
  2
AcDbScale
  3
ObjectDBX Classes
 90
     1153
280
     0
281
     0
  0
CLASS
  1
MLEADERSTYLE
  2
AcDbMLeaderStyle
  3
ACDB_MLEADERSTYLE_CLASS
 90
     4095
280
     0
281
     0
  0
CLASS
  1
ACDBSECTIONVIEWSTYLE
  2
AcDbSectionViewStyle
  3
ObjectDBX Classes
 90
     1025
280
     0
281
     0
  0
CLASS
  1
ACDBDETAILVIEWSTYLE
  2
AcDbDetailViewStyle
  3
ObjectDBX Classes
 90
     1025
280
     0
281
     0
  0
CLASS
  1
CELLSTYLEMAP
  2
AcDbCellStyleMap
  3
ObjectDBX Classes
 90
     1152
280
     0
281
     0
  0
ENDSEC
  0
SECTION
  2
TABLES
  0
TABLE
  2
VPORT
  5
17ED
330
0
100
AcDbSymbolTable
 70
     1
  0
VPORT
  5
1B08
330
17ED
100
AcDbSymbolTableRecord
100
AcDbViewportTableRecord
  2
*ACTIVE
 70
     0
 10
0.0
 20
0.0
 11
1.0
 21
1.0
 12
474.1295084548982
 22
229.1153051262257
 13
0.0
 23
0.0
 14
10.0
 24
10.0
 15
10.0
 25
10.0
 16
0.0
 26
0.0
 36
1.0
 17
0.0
 27
0.0
 37
0.0
 40
443.164641133385
 41
1.899603698811096
 42
50.0
 43
0.0
 44
0.0
 50
0.0
 51
0.0
 71
     0
 72
   100
 73
     1
 74
     0
 75
     0
 76
     0
 77
     0
 78
     0
281
     0
 65
     1
110
0.0
120
0.0
130
0.0
111
1.0
121
0.0
131
0.0
112
0.0
122
1.0
132
0.0
 79
     0
146
0.0
1001
ACAD_NAV_VCDISPLAY
1070
     3
  0
ENDTAB
  0
TABLE
  2
LTYPE
  5
17EA
330
0
100
AcDbSymbolTable
 70
     4
  0
LTYPE
  5
17F8
330
17EA
100
AcDbSymbolTableRecord
100
AcDbLinetypeTableRecord
  2
BYBLOCK
 70
     0
  3

 72
    65
 73
     0
 40
0.0
  0
LTYPE
  5
17F9
330
17EA
100
AcDbSymbolTableRecord
100
AcDbLinetypeTableRecord
  2
BYLAYER
 70
     0
  3

 72
    65
 73
     0
 40
0.0
  0
LTYPE
  5
17FA
330
17EA
100
AcDbSymbolTableRecord
100
AcDbLinetypeTableRecord
  2
CONTINUOUS
 70
     0
  3
Solid line
 72
    65
 73
     0
 40
0.0
  0
LTYPE
  5
1808
330
17EA
100
AcDbSymbolTableRecord
100
AcDbLinetypeTableRecord
  2
DASHED
 70
     0
  3
Dashed __ __ __ __ __ __ __ __ __ __ __ __ __ _
 72
    65
 73
     2
 40
19.04999999999997
 49
12.7
 74
     0
 49
-6.349999999999997
 74
     0
  0
LTYPE
  5
1809
330
17EA
100
AcDbSymbolTableRecord
100
AcDbLinetypeTableRecord
  2
CENTER
 70
     0
  3
Center ____ _ ____ _ ____ _ ____ _ ____ _ ____
 72
    65
 73
     4
 40
50.8
 49
31.75
 74
     0
 49
-6.349999999999997
 74
     0
 49
6.349999999999997
 74
     0
 49
-6.349999999999997
 74
     0
  0
LTYPE
  5
180A
330
17EA
100
AcDbSymbolTableRecord
100
AcDbLinetypeTableRecord
  2
PHANTOM
 70
     0
  3
Phantom ______  __  __  ______  __  __  ______
 72
    65
 73
     6
 40
63.5
 49
31.75
 74
     0
 49
-6.349999999999997
 74
     0
 49
6.349999999999997
 74
     0
 49
-6.349999999999997
 74
     0
 49
6.349999999999997
 74
     0
 49
-6.349999999999997
 74
     0
  0
ENDTAB
  0
TABLE
  2
LAYER
  5
17E7
330
0
100
AcDbSymbolTable
 70
     8
  0
LAYER
  5
17F5
102
{ACAD_XDICTIONARY
360
1B62
102
}
330
17E7
100
AcDbSymbolTableRecord
100
AcDbLayerTableRecord
  2
0
 70
     0
 62
     7
  6
CONTINUOUS
370
    -3
390
1B11
  0
LAYER
  5
180B
102
{ACAD_XDICTIONARY
360
1B64
102
}
330
17E7
100
AcDbSymbolTableRecord
100
AcDbLayerTableRecord
  2
4
 70
     0
 62
     1
  6
CENTER
370
    -3
390
1B11
  0
LAYER
  5
180C
102
{ACAD_XDICTIONARY
360
1B66
102
}
330
17E7
100
AcDbSymbolTableRecord
100
AcDbLayerTableRecord
  2
5
 70
     0
 62
     6
  6
PHANTOM
370
    -3
390
1B11
  0
LAYER
  5
180D
102
{ACAD_XDICTIONARY
360
1B68
102
}
330
17E7
100
AcDbSymbolTableRecord
100
AcDbLayerTableRecord
  2
1
 70
     0
 62
     7
  6
CONTINUOUS
370
    -3
390
1B11
  0
LAYER
  5
180E
102
{ACAD_XDICTIONARY
360
1B6A
102
}
330
17E7
100
AcDbSymbolTableRecord
100
AcDbLayerTableRecord
  2
2
 70
     0
 62
     4
  6
CONTINUOUS
370
    -3
390
1B11
  0
LAYER
  5
180F
102
{ACAD_XDICTIONARY
360
1B6C
102
}
330
17E7
100
AcDbSymbolTableRecord
100
AcDbLayerTableRecord
  2
3
 70
     0
 62
     2
  6
DASHED
370
    -3
390
1B11
  0
LAYER
  5
1810
102
{ACAD_XDICTIONARY
360
1B6E
102
}
330
17E7
100
AcDbSymbolTableRecord
100
AcDbLayerTableRecord
  2
6
 70
     0
 62
     5
  6
CONTINUOUS
370
    -3
390
1B11
  0
LAYER
  5
1811
102
{ACAD_XDICTIONARY
360
1B70
102
}
330
17E7
100
AcDbSymbolTableRecord
100
AcDbLayerTableRecord
  2
7
 70
     0
 62
     3
  6
CONTINUOUS
370
    -3
390
1B11
  0
ENDTAB
  0
TABLE
  2
STYLE
  5
17E8
330
0
100
AcDbSymbolTable
 70
     1
  0
STYLE
  5
17F6
330
17E8
100
AcDbSymbolTableRecord
100
AcDbTextStyleTableRecord
  2
STANDARD
 70
     0
 40
0.0
 41
1.0
 50
0.0
 71
     0
 42
2.5
  3
simplex.shx
  4

  0
ENDTAB
  0
TABLE
  2
VIEW
  5
17EB
330
0
100
AcDbSymbolTable
 70
     0
  0
ENDTAB
  0
TABLE
  2
UCS
  5
17EC
330
0
100
AcDbSymbolTable
 70
     0
  0
ENDTAB
  0
TABLE
  2
APPID
  5
17EE
330
0
100
AcDbSymbolTable
 70
     7
  0
APPID
  5
17F7
330
17EE
100
AcDbSymbolTableRecord
100
AcDbRegAppTableRecord
  2
ACAD
 70
     0
  0
APPID
  5
1812
330
17EE
100
AcDbSymbolTableRecord
100
AcDbRegAppTableRecord
  2
CONTENTTABDATA
 70
     0
  0
APPID
  5
1813
330
17EE
100
AcDbSymbolTableRecord
100
AcDbRegAppTableRecord
  2
CONTENTCURRENTTAB
 70
     0
  0
APPID
  5
1814
330
17EE
100
AcDbSymbolTableRecord
100
AcDbRegAppTableRecord
  2
CONTENTBLOCKICON
 70
     0
  0
APPID
  5
1815
330
17EE
100
AcDbSymbolTableRecord
100
AcDbRegAppTableRecord
  2
CONTENTBLOCKDESCRIPTION
 70
     0
  0
APPID
  5
1B7C
330
17EE
100
AcDbSymbolTableRecord
100
AcDbRegAppTableRecord
  2
ACAD_NAV_VCDISPLAY
 70
     0
  0
APPID
  5
1BB5
330
17EE
100
AcDbSymbolTableRecord
100
AcDbRegAppTableRecord
  2
ACAD_MLEADERVER
 70
     0
  0
ENDTAB
  0
TABLE
  2
DIMSTYLE
  5
17EF
330
0
100
AcDbSymbolTable
 70
     1
100
AcDbDimStyleTable
 71
     0
  0
DIMSTYLE
105
1816
330
17EF
100
AcDbSymbolTableRecord
100
AcDbDimStyleTableRecord
  2
STANDARD
 70
     0
 41
3.0
 42
1.0
 43
10.0
 44
1.0
 73
     0
 74
     0
 77
     3
 78
     8
140
3.2
141
0.0
147
1.0
172
     1
173
     1
284
     8
285
     8
286
     8
340
17F6
  0
ENDTAB
  0
TABLE
  2
BLOCK_RECORD
  5
17E6
330
0
100
AcDbSymbolTable
 70
     1
  0
BLOCK_RECORD
  5
1803
102
{ACAD_XDICTIONARY
360
1B0B
102
}
330
17E6
100
AcDbSymbolTableRecord
100
AcDbBlockTableRecord
  2
*MODEL_SPACE
340
1B5F
  0
BLOCK_RECORD
  5
17FF
102
{ACAD_XDICTIONARY
360
1B09
102
}
330
17E6
100
AcDbSymbolTableRecord
100
AcDbBlockTableRecord
  2
*PAPER_SPACE
340
1B60
  0
BLOCK_RECORD
  5
181E
330
17E6
100
AcDbSymbolTableRecord
100
AcDbBlockTableRecord
  2
_OPEN
340
0
  0
ENDTAB
  0
ENDSEC
  0
SECTION
  2
BLOCKS
  0
BLOCK
  5
1804
330
1803
100
AcDbEntity
  8
0
100
AcDbBlockBegin
  2
*MODEL_SPACE
 70
     0
 10
0.0
 20
0.0
 30
0.0
  3
*MODEL_SPACE
  1

  0
ENDBLK
  5
1805
330
1803
100
AcDbEntity
  8
0
100
AcDbBlockEnd
  0
BLOCK
  5
1800
330
17FF
100
AcDbEntity
 67
     1
  8
0
100
AcDbBlockBegin
  2
*PAPER_SPACE
 70
     0
 10
0.0
 20
0.0
 30
0.0
  3
*PAPER_SPACE
  1

  0
ENDBLK
  5
1801
330
17FF
100
AcDbEntity
 67
     1
  8
0
100
AcDbBlockEnd
  0
BLOCK
  5
181F
330
181E
100
AcDbEntity
  8
0
100
AcDbBlockBegin
  2
_OPEN
 70
     0
 10
0.0
 20
0.0
 30
0.0
  3
_OPEN
  1

  0
LINE
  5
1820
330
181E
100
AcDbEntity
  8
0
  6
ByBlock
 62
     0
100
AcDbLine
 10
-1.0
 20
0.1666666666666666
 30
0.0
 11
0.0
 21
0.0
 31
0.0
  0
LINE
  5
1821
330
181E
100
AcDbEntity
  8
0
  6
ByBlock
 62
     0
100
AcDbLine
 10
0.0
 20
0.0
 30
0.0
 11
-1.0
 21
-0.1666666666666666
 31
0.0
  0
LINE
  5
1822
330
181E
100
AcDbEntity
  8
0
  6
ByBlock
 62
     0
100
AcDbLine
 10
0.0
 20
0.0
 30
0.0
 11
-1.0
 21
0.0
 31
0.0
  0
ENDBLK
  5
1823
330
181E
100
AcDbEntity
  8
0
100
AcDbBlockEnd
  0
ENDSEC
  0
SECTION
  2
ENTITIES
  0
TEXT
  5
1824
330
1803
100
AcDbEntity
  8
4
  6
CENTER
100
AcDbText
 10
23.97950852663849
 20
10.0
 30
0.0
 40
1.399999999999999
  1
4
100
AcDbText
  0
TEXT
  5
1825
330
1803
100
AcDbEntity
  8
7
  6
Continuous
100
AcDbText
 10
9.999997526638502
 20
26.00000076076889
 30
0.0
 40
3.0
  1
CODE No.13174
100
AcDbText
  0
TEXT
  5
1826
330
1803
100
AcDbEntity
  8
7
  6
Continuous
100
AcDbText
 10
9.999997526638502
 20
18.00000076076889
 30
0.0
 40
3.0
  1
TYPE No.THA-433-1P
100
AcDbText
  0
TEXT
  5
1827
330
1803
100
AcDbEntity
  8
1
  6
Continuous
100
AcDbText
 10
9.999997526638502
 20
10.00000076076889
 30
0.0
 40
1.399999999999999
  1
LAYER
100
AcDbText
  0
TEXT
  5
1828
330
1803
100
AcDbEntity
  8
2
  6
Continuous
100
AcDbText
 10
19.9795085266385
 20
10.0
 30
0.0
 40
1.399999999999999
  1
2
100
AcDbText
  0
TEXT
  5
1829
330
1803
100
AcDbEntity
  8
3
  6
DASHED
100
AcDbText
 10
21.97950852663848
 20
10.0
 30
0.0
 40
1.399999999999999
  1
3
100
AcDbText
  0
TEXT
  5
182A
330
1803
100
AcDbEntity
  8
1
  6
Continuous
100
AcDbText
 10
17.9795085266385
 20
10.0
 30
0.0
 40
1.399999999999999
  1
1
100
AcDbText
  0
TEXT
  5
182B
330
1803
100
AcDbEntity
  8
5
  6
PHANTOM
100
AcDbText
 10
25.97950852663849
 20
10.0
 30
0.0
 40
1.399999999999999
  1
5
100
AcDbText
  0
TEXT
  5
182C
330
1803
100
AcDbEntity
  8
6
  6
Continuous
100
AcDbText
 10
27.97950852663849
 20
10.0
 30
0.0
 40
1.399999999999999
  1
6
100
AcDbText
  0
TEXT
  5
182D
330
1803
100
AcDbEntity
  8
7
  6
Continuous
100
AcDbText
 10
29.9795085266385
 20
10.0
 30
0.0
 40
1.399999999999999
  1
7
100
AcDbText
  0
LINE
  5
182E
330
1803
100
AcDbEntity
  8
4
  6
CENTER
100
AcDbLine
 10
159.3177216625294
 20
246.4802036005615
 30
0.0
 11
295.8930767793146
 21
246.4802036005615
 31
0.0
  0
LINE
  5
182F
330
1803
100
AcDbEntity
  8
1
  6
Continuous
100
AcDbLine
 10
205.602537247246
 20
299.4802036002447
 30
0.0
 11
243.2095818101644
 21
299.4802036001265
 31
0.0
  0
LINE
  5
1830
330
1803
100
AcDbEntity
  8
1
  6
Continuous
100
AcDbLine
 10
205.6025372471158
 20
193.4802036008368
 30
0.0
 11
243.2095818101488
 21
193.4802036008368
 31
0.0
  0
LINE
  5
1831
330
1803
100
AcDbEntity
  8
1
  6
Continuous
100
AcDbLine
 10
202.3157592546348
 20
300.4802036002548
 30
0.0
 11
270.3709510998367
 21
300.4802036000417
 31
0.0
  0
LINE
  5
1832
330
1803
100
AcDbEntity
  8
1
  6
Continuous
100
AcDbLine
 10
202.3157592546314
 20
192.4802036008368
 30
0.0
 11
270.3709510998168
 21
192.4802036008368
 31
0.0
  0
ARC
  5
1833
330
1803
100
AcDbEntity
  8
1
  6
Continuous
100
AcDbCircle
 10
239.8157592526704
 20
-438.5197963998628
 30
0.0
 40
750.0
100
AcDbArc
 50
87.0016937064304
 51
92.99830629328987
  0
ARC
  5
1834
330
1803
100
AcDbEntity
  8
1
  6
Continuous
100
AcDbCircle
 10
239.8157592548181
 20
931.4802036008368
 30
0.0
 40
750.0
100
AcDbArc
 50
267.0016937065444
 51
272.9983062934039
  0
LINE
  5
1835
330
1803
100
AcDbEntity
  8
1
  6
Continuous
100
AcDbLine
 10
58.68248866974943
 20
239.2802036005416
 30
0.0
 11
70.88248866978459
 21
239.2802036005416
 31
0.0
  0
LINE
  5
1836
330
1803
100
AcDbEntity
  8
1
  6
Continuous
100
AcDbLine
 10
58.68248866974943
 20
253.6802036005417
 30
0.0
 11
70.88248866978459
 21
253.6802036005417
 31
0.0
  0
LINE
  5
1837
330
1803
100
AcDbEntity
  8
1
  6
Continuous
100
AcDbLine
 10
72.68248866974214
 20
197.9802036005388
 30
0.0
 11
58.68248866992383
 21
197.9802036005741
 31
0.0
  0
LINE
  5
1838
330
1803
100
AcDbEntity
  8
1
  6
Continuous
100
AcDbLine
 10
72.68248866974545
 20
294.9802036001268
 30
0.0
 11
58.68248866992349
 21
294.9802036001083
 31
0.0
  0
LINE
  5
1839
330
1803
100
AcDbEntity
  8
4
  6
CENTER
100
AcDbLine
 10
72.6824886697494
 20
279.9802036003217
 30
0.0
 11
64.68248866974943
 21
279.9802036003217
 31
0.0
  0
LINE
  5
183A
330
1803
100
AcDbEntity
  8
4
  6
CENTER
100
AcDbLine
 10
72.6824886697494
 20
212.980203600322
 30
0.0
 11
64.68248866974943
 21
212.980203600322
 31
0.0
  0
LINE
  5
183B
330
1803
100
AcDbEntity
  8
4
  6
CENTER
100
AcDbLine
 10
98.9567764358361
 20
246.4802036005417
 30
0.0
 11
50.26149538338859
 21
246.4802036005417
 31
0.0
  0
LINE
  5
183C
330
1803
100
AcDbEntity
  8
4
  6
CENTER
100
AcDbLine
 10
56.3818443746535
 20
224.324559229581
 30
0.0
 11
72.93646151866574
 21
224.324559229581
 31
0.0
  0
LINE
  5
183D
330
1803
100
AcDbEntity
  8
4
  6
CENTER
100
AcDbLine
 10
56.3818443746535
 20
268.6358479714852
 30
0.0
 11
72.93646151866574
 21
268.6358479714852
 31
0.0
  0
LINE
  5
183E
330
1803
100
AcDbEntity
  8
1
  6
Continuous
100
AcDbLine
 10
82.68248866975467
 20
303.4802036001784
 30
0.0
 11
63.68248866975477
 21
303.4802036001767
 31
0.0
  0
LINE
  5
183F
330
1803
100
AcDbEntity
  8
1
  6
Continuous
100
AcDbLine
 10
70.88248866975459
 20
253.5802036005331
 30
0.0
 11
60.68248866975364
 21
253.5802036005331
 31
0.0
  0
LINE
  5
1840
330
1803
100
AcDbEntity
  8
1
  6
Continuous
100
AcDbLine
 10
70.88248866975459
 20
239.3802036005331
 30
0.0
 11
60.68248866975364
 21
239.3802036005331
 31
0.0
  0
LINE
  5
1841
330
1803
100
AcDbEntity
  8
1
  6
Continuous
100
AcDbLine
 10
82.68248866975467
 20
189.4802036008875
 30
0.0
 11
63.68248866975465
 21
189.4802036008897
 31
0.0
  0
LINE
  5
1842
330
1803
100
AcDbEntity
  8
1
  6
Continuous
100
AcDbLine
 10
69.68248866978445
 20
253.4802036005415
 30
0.0
 11
61.68248866978444
 21
253.4802036005415
 31
0.0
  0
LINE
  5
1843
330
1803
100
AcDbEntity
  8
1
  6
Continuous
100
AcDbLine
 10
69.68248866978445
 20
239.4802036005417
 30
0.0
 11
61.68248866978444
 21
239.4802036005417
 31
0.0
  0
LINE
  5
1844
330
1803
100
AcDbEntity
  8
1
  6
Continuous
100
AcDbLine
 10
60.68248866978445
 20
239.2802036005416
 30
0.0
 11
60.68248866978445
 21
253.6802036005417
 31
0.0
  0
LINE
  5
1845
330
1803
100
AcDbEntity
  8
1
  6
Continuous
100
AcDbLine
 10
58.68248866974943
 20
294.9802036001083
 30
0.0
 11
58.68248866974943
 21
197.9802036005741
 31
0.0
  0
LINE
  5
1846
330
1803
100
AcDbEntity
  8
1
  6
Continuous
100
AcDbLine
 10
63.68248866975465
 20
189.4802036009068
 30
0.0
 11
63.68248866975465
 21
197.9802036009457
 31
0.0
  0
LINE
  5
1847
330
1803
100
AcDbEntity
  8
1
  6
Continuous
100
AcDbLine
 10
58.18248866975466
 20
226.7245592295811
 30
0.0
 11
58.18248866975466
 21
221.9245592295811
 31
0.0
  0
LINE
  5
1848
330
1803
100
AcDbEntity
  8
1
  6
Continuous
100
AcDbLine
 10
58.18248866975466
 20
221.9245592295811
 30
0.0
 11
57.68248866975465
 21
222.4245592295811
 31
0.0
  0
LINE
  5
1849
330
1803
100
AcDbEntity
  8
1
  6
Continuous
100
AcDbLine
 10
58.18248866975466
 20
226.7245592295811
 30
0.0
 11
57.68248866975465
 21
226.2245592295812
 31
0.0
  0
LINE
  5
184A
330
1803
100
AcDbEntity
  8
1
  6
Continuous
100
AcDbLine
 10
58.18248866975466
 20
221.9245592295811
 30
0.0
 11
58.68248866974943
 21
221.9245592295811
 31
0.0
  0
LINE
  5
184B
330
1803
100
AcDbEntity
  8
1
  6
Continuous
100
AcDbLine
 10
58.18248866975466
 20
226.7245592295811
 30
0.0
 11
58.68248866974943
 21
226.7245592295811
 31
0.0
  0
LINE
  5
184C
330
1803
100
AcDbEntity
  8
1
  6
Continuous
100
AcDbLine
 10
57.68248866975465
 20
226.2245592295812
 30
0.0
 11
57.68248866975465
 21
222.4245592295811
 31
0.0
  0
ARC
  5
184D
330
1803
100
AcDbEntity
  8
1
  6
Continuous
100
AcDbCircle
 10
61.68248866978444
 20
240.4802036005416
 30
0.0
 40
1.0
100
AcDbArc
 50
180.0
 51
270.0
  0
ARC
  5
184E
330
1803
100
AcDbEntity
  8
1
  6
Continuous
100
AcDbCircle
 10
61.68248866978444
 20
252.4802036005417
 30
0.0
 40
1.0
100
AcDbArc
 50
90.0
 51
180.0
  0
LINE
  5
184F
330
1803
100
AcDbEntity
  8
1
  6
Continuous
100
AcDbLine
 10
58.18248866975466
 20
271.0358479714849
 30
0.0
 11
58.18248866975466
 21
266.2358479714848
 31
0.0
  0
LINE
  5
1850
330
1803
100
AcDbEntity
  8
1
  6
Continuous
100
AcDbLine
 10
57.68248866975465
 20
270.5358479714849
 30
0.0
 11
57.68248866975465
 21
266.7358479714848
 31
0.0
  0
LINE
  5
1851
330
1803
100
AcDbEntity
  8
1
  6
Continuous
100
AcDbLine
 10
58.18248866975466
 20
266.2358479714851
 30
0.0
 11
57.68248866975477
 21
266.7358479714851
 31
0.0
  0
LINE
  5
1852
330
1803
100
AcDbEntity
  8
1
  6
Continuous
100
AcDbLine
 10
58.18248866975466
 20
266.2358479714848
 30
0.0
 11
58.68248866974943
 21
266.2358479714848
 31
0.0
  0
LINE
  5
1853
330
1803
100
AcDbEntity
  8
1
  6
Continuous
100
AcDbLine
 10
58.18248866975442
 20
271.0358479714849
 30
0.0
 11
57.68248866975444
 21
270.5358479714849
 31
0.0
  0
LINE
  5
1854
330
1803
100
AcDbEntity
  8
1
  6
Continuous
100
AcDbLine
 10
58.18248866975466
 20
271.0358479714849
 30
0.0
 11
58.68248866974943
 21
271.0358479714849
 31
0.0
  0
LINE
  5
1855
330
1803
100
AcDbEntity
  8
1
  6
Continuous
100
AcDbLine
 10
63.68248866975465
 20
303.4802036001764
 30
0.0
 11
63.68248866975465
 21
294.9802036001377
 31
0.0
  0
LINE
  5
1856
330
1803
100
AcDbEntity
  8
1
  6
Continuous
100
AcDbLine
 10
82.68248866975467
 20
181.4802036008829
 30
0.0
 11
82.68248866975467
 21
311.4802036001834
 31
0.0
  0
LINE
  5
1857
330
1803
100
AcDbEntity
  8
4
  6
CENTER
100
AcDbLine
 10
79.98248866980635
 20
311.7464193647991
 30
0.0
 11
79.98248866980635
 21
185.7130878333078
 31
0.0
  0
LINE
  5
1858
330
1803
100
AcDbEntity
  8
1
  6
Continuous
100
AcDbLine
 10
83.68248866975466
 20
181.4802036008829
 30
0.0
 11
83.68248866975466
 21
311.4802036001834
 31
0.0
  0
ARC
  5
1859
330
1803
100
AcDbEntity
  8
1
  6
Continuous
100
AcDbCircle
 10
90.3824886697547
 20
307.680203600188
 30
0.0
 40
3.799999999999998
100
AcDbArc
 50
0.0
 51
90.0
  0
ARC
  5
185A
330
1803
100
AcDbEntity
  8
1
  6
Continuous
100
AcDbCircle
 10
200.9520773244202
 20
303.4630970868943
 30
0.0
 40
7.0
100
AcDbArc
 50
92.99830629328987
 51
176.710298256586
  0
LINE
  5
185B
330
1803
100
AcDbEntity
  8
1
  6
Continuous
100
AcDbLine
 10
70.88248866978459
 20
239.2802036005416
 30
0.0
 11
70.88248866978459
 21
253.6802036005417
 31
0.0
  0
LINE
  5
185C
330
1803
100
AcDbEntity
  8
1
  6
Continuous
100
AcDbLine
 10
75.6824886697494
 20
291.9802036001268
 30
0.0
 11
75.6824886697494
 21
200.9802036005388
 31
0.0
  0
LINE
  5
185D
330
1803
100
AcDbEntity
  8
1
  6
Continuous
100
AcDbLine
 10
91.5642451613594
 20
194.4802036008159
 30
0.0
 11
91.56424516131027
 21
298.4802036002662
 31
0.0
  0
LINE
  5
185E
330
1803
100
AcDbEntity
  8
1
  6
Continuous
100
AcDbLine
 10
94.18248866987676
 20
194.4802036008168
 30
0.0
 11
94.18248866982752
 21
298.4802036002672
 31
0.0
  0
LINE
  5
185F
330
1803
100
AcDbEntity
  8
1
  6
Continuous
100
AcDbLine
 10
90.14808362015944
 20
192.480203600533
 30
0.0
 11
90.14808362015944
 21
300.480203600533
 31
0.0
  0
LINE
  5
1860
330
1803
100
AcDbEntity
  8
1
  6
Continuous
100
AcDbLine
 10
70.88248866975459
 20
239.3802036005331
 30
0.0
 11
70.88248866975459
 21
253.5802036005331
 31
0.0
  0
LINE
  5
1861
330
1803
100
AcDbEntity
  8
1
  6
Continuous
100
AcDbLine
 10
70.68248866978445
 20
240.4802036005416
 30
0.0
 11
70.68248866978445
 21
252.4802036005417
 31
0.0
  0
LINE
  5
1862
330
1803
100
AcDbEntity
  8
4
  6
CENTER
100
AcDbLine
 10
68.68248866974943
 20
216.980203600322
 30
0.0
 11
68.68248866974943
 21
208.980203600322
 31
0.0
  0
LINE
  5
1863
330
1803
100
AcDbEntity
  8
1
  6
Continuous
100
AcDbLine
 10
83.68248866975473
 20
181.4802036008829
 30
0.0
 11
90.38248866975479
 21
181.4802036008825
 31
0.0
  0
ARC
  5
1864
330
1803
100
AcDbEntity
  8
1
  6
Continuous
100
AcDbCircle
 10
75.88248866975459
 20
194.4802036008884
 30
0.0
 40
5.0
100
AcDbArc
 50
180.0
 51
270.0
  0
LINE
  5
1865
330
1803
100
AcDbEntity
  8
1
  6
Continuous
100
AcDbLine
 10
82.68248866975467
 20
181.4802036008829
 30
0.0
 11
83.68248866975473
 21
181.4802036008829
 31
0.0
  0
LINE
  5
1866
330
1803
100
AcDbEntity
  8
1
  6
Continuous
100
AcDbLine
 10
70.88248866975459
 20
194.4802036008884
 30
0.0
 11
70.88248866975459
 21
197.9802036005434
 31
0.0
  0
ARC
  5
1867
330
1803
100
AcDbEntity
  8
1
  6
Continuous
100
AcDbCircle
 10
72.6824886697494
 20
200.9802036005388
 30
0.0
 40
3.0
100
AcDbArc
 50
270.0
 51
0.0
  0
ARC
  5
1868
330
1803
100
AcDbEntity
  8
1
  6
Continuous
100
AcDbCircle
 10
93.18248866987676
 20
194.4802036008164
 30
0.0
 40
1.0
100
AcDbArc
 50
270.0
 51
0.0
  0
LINE
  5
1869
330
1803
100
AcDbEntity
  8
1
  6
Continuous
100
AcDbLine
 10
94.18248866975464
 20
185.2802036008825
 30
0.0
 11
94.18248866975464
 21
191.980203600533
 31
0.0
  0
ARC
  5
186A
330
1803
100
AcDbEntity
  8
1
  6
Continuous
100
AcDbCircle
 10
90.3824886697547
 20
185.2802036008825
 30
0.0
 40
3.799999999999998
100
AcDbArc
 50
270.0
 51
0.0
  0
LINE
  5
186B
330
1803
100
AcDbEntity
  8
1
  6
Continuous
100
AcDbLine
 10
93.18248866987676
 20
193.4802036008164
 30
0.0
 11
90.14808362015944
 21
193.4802036008164
 31
0.0
  0
ARC
  5
186C
330
1803
100
AcDbEntity
  8
1
  6
Continuous
100
AcDbCircle
 10
93.68248866975466
 20
191.980203600533
 30
0.0
 40
0.5
100
AcDbArc
 50
0.0
 51
90.0
  0
LINE
  5
186D
330
1803
100
AcDbEntity
  8
1
  6
Continuous
100
AcDbLine
 10
93.68248866975466
 20
192.480203600533
 30
0.0
 11
90.14808362015944
 21
192.480203600533
 31
0.0
  0
CIRCLE
  5
186E
330
1803
100
AcDbEntity
  8
1
  6
Continuous
100
AcDbCircle
 10
68.68248866974943
 20
212.980203600322
 30
0.0
 40
2.066999999999999
  0
CIRCLE
  5
186F
330
1803
100
AcDbEntity
  8
2
  6
Continuous
100
AcDbCircle
 10
68.68248866974943
 20
212.980203600322
 30
0.0
 40
2.5
  0
LINE
  5
1870
330
1803
100
AcDbEntity
  8
1
  6
Continuous
100
AcDbLine
 10
69.08248866975464
 20
239.3802036005331
 30
0.0
 11
69.08248866975464
 21
239.4802036005417
 31
0.0
  0
ARC
  5
1871
330
1803
100
AcDbEntity
  8
1
  6
Continuous
100
AcDbCircle
 10
69.68248866978445
 20
240.4802036005416
 30
0.0
 40
1.0
100
AcDbArc
 50
270.0
 51
0.0
  0
LINE
  5
1872
330
1803
100
AcDbEntity
  8
1
  6
Continuous
100
AcDbLine
 10
69.08248866975464
 20
253.4802036005415
 30
0.0
 11
69.08248866975464
 21
253.5802036005331
 31
0.0
  0
ARC
  5
1873
330
1803
100
AcDbEntity
  8
1
  6
Continuous
100
AcDbCircle
 10
69.68248866978445
 20
252.4802036005417
 30
0.0
 40
1.0
100
AcDbArc
 50
0.0
 51
90.0
  0
ARC
  5
1874
330
1803
100
AcDbEntity
  8
1
  6
Continuous
100
AcDbCircle
 10
72.6824886697494
 20
291.9802036001268
 30
0.0
 40
3.0
100
AcDbArc
 50
0.0
 51
90.0
  0
CIRCLE
  5
1875
330
1803
100
AcDbEntity
  8
1
  6
Continuous
100
AcDbCircle
 10
68.68248866974943
 20
279.9802036003217
 30
0.0
 40
2.066999999999999
  0
LINE
  5
1876
330
1803
100
AcDbEntity
  8
4
  6
CENTER
100
AcDbLine
 10
68.68248866974943
 20
283.9802036003217
 30
0.0
 11
68.68248866974943
 21
275.9802036003217
 31
0.0
  0
CIRCLE
  5
1877
330
1803
100
AcDbEntity
  8
2
  6
Continuous
100
AcDbCircle
 10
68.68248866974943
 20
279.9802036003217
 30
0.0
 40
2.5
  0
ARC
  5
1878
330
1803
100
AcDbEntity
  8
1
  6
Continuous
100
AcDbCircle
 10
75.88248866975459
 20
298.4802036001779
 30
0.0
 40
5.0
100
AcDbArc
 50
90.0
 51
180.0
  0
LINE
  5
1879
330
1803
100
AcDbEntity
  8
1
  6
Continuous
100
AcDbLine
 10
70.88248866975459
 20
294.9802036001242
 30
0.0
 11
70.88248866975459
 21
298.4802036001779
 31
0.0
  0
ARC
  5
187A
330
1803
100
AcDbEntity
  8
1
  6
Continuous
100
AcDbCircle
 10
93.68248866975466
 20
300.9802036005329
 30
0.0
 40
0.5
100
AcDbArc
 50
270.0
 51
0.0
  0
ARC
  5
187B
330
1803
100
AcDbEntity
  8
1
  6
Continuous
100
AcDbCircle
 10
93.18248866982763
 20
298.4802036002668
 30
0.0
 40
1.0
100
AcDbArc
 50
0.0
 51
90.0
  0
LINE
  5
187C
330
1803
100
AcDbEntity
  8
1
  6
Continuous
100
AcDbLine
 10
93.18248866982763
 20
299.4802036002667
 30
0.0
 11
90.14808362015944
 21
299.4802036002667
 31
0.0
  0
LINE
  5
187D
330
1803
100
AcDbEntity
  8
1
  6
Continuous
100
AcDbLine
 10
93.68248866975466
 20
300.480203600533
 30
0.0
 11
90.14808362015944
 21
300.480203600533
 31
0.0
  0
LINE
  5
187E
330
1803
100
AcDbEntity
  8
1
  6
Continuous
100
AcDbLine
 10
94.18248866975464
 20
300.9802036005329
 30
0.0
 11
94.18248866975464
 21
307.680203600188
 31
0.0
  0
LINE
  5
187F
330
1803
100
AcDbEntity
  8
1
  6
Continuous
100
AcDbLine
 10
163.8157592546533
 20
240.4802036004265
 30
0.0
 11
163.8157592546533
 21
252.4802036004264
 31
0.0
  0
LINE
  5
1880
330
1803
100
AcDbEntity
  8
1
  6
Continuous
100
AcDbLine
 10
178.3157592546313
 20
197.9802036009714
 30
0.0
 11
178.3157592546313
 21
294.9802036000495
 31
0.0
  0
LINE
  5
1881
330
1803
100
AcDbEntity
  8
1
  6
Continuous
100
AcDbLine
 10
208.7642298326477
 20
195.300583899857
 30
0.0
 11
208.7642298325687
 21
297.4802036002543
 31
0.0
  0
LINE
  5
1882
330
1803
100
AcDbEntity
  8
1
  6
Continuous
100
AcDbLine
 10
203.6025372471168
 20
195.4802036008371
 30
0.0
 11
203.6025372472388
 21
297.4802036002488
 31
0.0
  0
LINE
  5
1883
330
1803
100
AcDbEntity
  8
1
  6
Continuous
100
AcDbLine
 10
201.3157592546316
 20
193.4802036008368
 30
0.0
 11
201.3157592546316
 21
299.4802036002549
 31
0.0
  0
ARC
  5
1884
330
1803
100
AcDbEntity
  8
1
  6
Continuous
100
AcDbCircle
 10
1192.315759254479
 20
246.4802036005614
 30
0.0
 40
1000.0
100
AcDbArc
 50
176.710298256586
 51
183.2897017434158
  0
LINE
  5
1885
330
1803
100
AcDbEntity
  8
1
  6
Continuous
100
AcDbLine
 10
180.3157592546313
 20
197.9802036009714
 30
0.0
 11
180.3157592546313
 21
294.9802036000495
 31
0.0
  0
LINE
  5
1886
330
1803
100
AcDbEntity
  8
1
  6
Continuous
100
AcDbLine
 10
180.3157592546313
 20
239.4802036004264
 30
0.0
 11
192.3402595546131
 21
239.4802036004264
 31
0.0
  0
LINE
  5
1887
330
1803
100
AcDbEntity
  8
1
  6
Continuous
100
AcDbLine
 10
178.3157592546326
 20
197.9802036009714
 30
0.0
 11
193.4925767041151
 21
197.9802036009714
 31
0.0
  0
LINE
  5
1888
330
1803
100
AcDbEntity
  8
4
  6
CENTER
100
AcDbLine
 10
185.3158816517907
 20
212.9802036004273
 30
0.0
 11
175.2833837236719
 21
212.9802036004428
 31
0.0
  0
LINE
  5
1889
330
1803
100
AcDbEntity
  8
1
  6
Continuous
100
AcDbLine
 10
182.3157592544772
 20
216.5802036001545
 30
0.0
 11
182.3157592544772
 21
209.3802036001545
 31
0.0
  0
ARC
  5
188A
330
1803
100
AcDbEntity
  8
1
  6
Continuous
100
AcDbCircle
 10
181.3157592544772
 20
208.3802036001547
 30
0.0
 40
1.0
100
AcDbArc
 50
90.0
 51
180.0
  0
LINE
  5
188B
330
1803
100
AcDbEntity
  8
1
  6
Continuous
100
AcDbLine
 10
181.3157592544772
 20
209.3802036001545
 30
0.0
 11
182.3157592544772
 21
209.3802036001545
 31
0.0
  0
ARC
  5
188C
330
1803
100
AcDbEntity
  8
1
  6
Continuous
100
AcDbCircle
 10
181.3157592544772
 20
217.5802036001545
 30
0.0
 40
1.0
100
AcDbArc
 50
180.0
 51
270.0
  0
LINE
  5
188D
330
1803
100
AcDbEntity
  8
1
  6
Continuous
100
AcDbLine
 10
181.3157592544772
 20
216.5802036001545
 30
0.0
 11
182.3157592544772
 21
216.5802036001545
 31
0.0
  0
LINE
  5
188E
330
1803
100
AcDbEntity
  8
1
  6
Continuous
100
AcDbLine
 10
164.8157592546533
 20
239.4802036004264
 30
0.0
 11
178.3157592546313
 21
239.4802036004264
 31
0.0
  0
ARC
  5
188F
330
1803
100
AcDbEntity
  8
1
  6
Continuous
100
AcDbCircle
 10
164.8157592546533
 20
240.4802036004265
 30
0.0
 40
1.0
100
AcDbArc
 50
180.0
 51
270.0
  0
ARC
  5
1890
330
1803
100
AcDbEntity
  8
1
  6
Continuous
100
AcDbCircle
 10
205.6025372471158
 20
195.4802036008349
 30
0.0
 40
2.0
100
AcDbArc
 50
180.0
 51
270.0
  0
ARC
  5
1891
330
1803
100
AcDbEntity
  8
1
  6
Continuous
100
AcDbCircle
 10
200.9520773244223
 20
189.4973101141924
 30
0.0
 40
7.0
100
AcDbArc
 50
183.2897017434158
 51
267.0016937065444
  0
ARC
  5
1892
330
1803
100
AcDbEntity
  8
1
  6
Continuous
100
AcDbCircle
 10
202.3157592546314
 20
193.4802036008368
 30
0.0
 40
1.0
100
AcDbArc
 50
180.0
 51
270.0
  0
LINE
  5
1893
330
1803
100
AcDbEntity
  8
4
  6
CENTER
100
AcDbLine
 10
214.3157592544677
 20
200.2240314504563
 30
0.0
 11
214.3157592544677
 21
187.4703969176854
 31
0.0
  0
LINE
  5
1894
330
1803
100
AcDbEntity
  8
1
  6
Continuous
100
AcDbLine
 10
210.3157592544623
 20
192.4802036008368
 30
0.0
 11
210.3157592544623
 21
193.4802036008368
 31
0.0
  0
LINE
  5
1895
330
1803
100
AcDbEntity
  8
1
  6
Continuous
100
AcDbLine
 10
217.7798608695833
 20
192.4802036008368
 30
0.0
 11
217.7798608695833
 21
193.4802036008368
 31
0.0
  0
LINE
  5
1896
330
1803
100
AcDbEntity
  8
1
  6
Continuous
100
AcDbLine
 10
180.3157592546313
 20
253.4802036004267
 30
0.0
 11
192.3402595546114
 21
253.4802036004267
 31
0.0
  0
LINE
  5
1897
330
1803
100
AcDbEntity
  8
1
  6
Continuous
100
AcDbLine
 10
178.3157592546324
 20
294.9802036000495
 30
0.0
 11
193.4925767041118
 21
294.9802036000809
 31
0.0
  0
LINE
  5
1898
330
1803
100
AcDbEntity
  8
4
  6
CENTER
100
AcDbLine
 10
185.3158816517907
 20
279.9802035999419
 30
0.0
 11
175.2833837236719
 21
279.9802035999419
 31
0.0
  0
ARC
  5
1899
330
1803
100
AcDbEntity
  8
1
  6
Continuous
100
AcDbCircle
 10
181.3157592544772
 20
275.3802036001545
 30
0.0
 40
1.0
100
AcDbArc
 50
90.0
 51
180.0
  0
LINE
  5
189A
330
1803
100
AcDbEntity
  8
1
  6
Continuous
100
AcDbLine
 10
164.8157592546533
 20
253.4802036004267
 30
0.0
 11
178.3157592546313
 21
253.4802036004267
 31
0.0
  0
ARC
  5
189B
330
1803
100
AcDbEntity
  8
1
  6
Continuous
100
AcDbCircle
 10
164.8157592546533
 20
252.4802036004264
 30
0.0
 40
1.0
100
AcDbArc
 50
90.0
 51
180.0
  0
ARC
  5
189C
330
1803
100
AcDbEntity
  8
1
  6
Continuous
100
AcDbCircle
 10
181.3157592544772
 20
284.5802036001545
 30
0.0
 40
1.0
100
AcDbArc
 50
180.0
 51
270.0
  0
LINE
  5
189D
330
1803
100
AcDbEntity
  8
1
  6
Continuous
100
AcDbLine
 10
182.3157592544772
 20
283.5802036001545
 30
0.0
 11
182.3157592544772
 21
276.3802036001545
 31
0.0
  0
LINE
  5
189E
330
1803
100
AcDbEntity
  8
1
  6
Continuous
100
AcDbLine
 10
181.3157592544772
 20
276.3802036001545
 30
0.0
 11
182.3157592544772
 21
276.3802036001545
 31
0.0
  0
LINE
  5
189F
330
1803
100
AcDbEntity
  8
1
  6
Continuous
100
AcDbLine
 10
181.3157592544772
 20
283.5802036001545
 30
0.0
 11
182.3157592544772
 21
283.5802036001545
 31
0.0
  0
ARC
  5
18A0
330
1803
100
AcDbEntity
  8
1
  6
Continuous
100
AcDbCircle
 10
202.3157592546314
 20
299.4802036002549
 30
0.0
 40
1.0
100
AcDbArc
 50
90.0
 51
180.0
  0
ARC
  5
18A1
330
1803
100
AcDbEntity
  8
1
  6
Continuous
100
AcDbCircle
 10
205.60253724724
 20
297.4802036002465
 30
0.0
 40
2.0
100
AcDbArc
 50
90.0
 51
180.0
  0
LINE
  5
18A2
330
1803
100
AcDbEntity
  8
4
  6
CENTER
100
AcDbLine
 10
214.3157592546315
 20
306.0756068118058
 30
0.0
 11
214.3157592546315
 21
294.3130521620308
 31
0.0
  0
LINE
  5
18A3
330
1803
100
AcDbEntity
  8
1
  6
Continuous
100
AcDbLine
 10
210.3157592546315
 20
300.4802036002302
 30
0.0
 11
210.3157592546283
 21
299.4802036002297
 31
0.0
  0
LINE
  5
18A4
330
1803
100
AcDbEntity
  8
1
  6
Continuous
100
AcDbLine
 10
217.77986086936
 20
299.4802036002063
 30
0.0
 11
217.7798608693576
 21
300.4802036004072
 31
0.0
  0
LINE
  5
18A5
330
1803
100
AcDbEntity
  8
1
  6
Continuous
100
AcDbLine
 10
83.68248866975466
 20
311.4802036001843
 30
0.0
 11
90.38248866975141
 21
311.48020360019
 31
0.0
  0
LINE
  5
18A6
330
1803
100
AcDbEntity
  8
1
  6
Continuous
100
AcDbLine
 10
82.68248866975467
 20
311.4802036001834
 30
0.0
 11
83.68248866975466
 21
311.4802036001834
 31
0.0
  0
ARC
  5
18A7
330
1803
100
AcDbEntity
  8
1
  6
Continuous
100
AcDbCircle
 10
278.6794411845431
 20
303.4630970867044
 30
0.0
 40
7.0
100
AcDbArc
 50
3.28970174341147
 51
87.00169370643036
  0
LINE
  5
18A8
330
1803
100
AcDbEntity
  8
1
  6
Continuous
100
AcDbLine
 10
289.8157592546315
 20
284.4802036005589
 30
0.0
 11
289.8157592546315
 21
208.4802036005616
 31
0.0
  0
ARC
  5
18A9
330
1803
100
AcDbEntity
  8
1
  6
Continuous
100
AcDbCircle
 10
-712.6842407456572
 20
246.4802036004128
 30
0.0
 40
964.0000000001627
100
AcDbArc
 50
357.2449092905462
 51
2.755090709461923
  0
ARC
  5
18AA
330
1803
100
AcDbEntity
  8
1
  6
Continuous
100
AcDbCircle
 10
-712.6842407455195
 20
246.4802036004128
 30
0.0
 40
991.1780886679157
100
AcDbArc
 50
357.2627654587618
 51
2.73723454124117
  0
ARC
  5
18AB
330
1803
100
AcDbEntity
  8
1
  6
Continuous
100
AcDbCircle
 10
-712.6842407455195
 20
246.4802036004128
 30
0.0
 40
1000.0
100
AcDbArc
 50
356.7102982565907
 51
3.289701743411582
  0
ARC
  5
18AC
330
1803
100
AcDbEntity
  8
1
  6
Continuous
100
AcDbCircle
 10
270.3709510998168
 20
199.4802036008368
 30
0.0
 40
7.0
100
AcDbArc
 50
270.0
 51
357.2627654587615
  0
ARC
  5
18AD
330
1803
100
AcDbEntity
  8
1
  6
Continuous
100
AcDbCircle
 10
243.2095818101488
 20
200.4802036008368
 30
0.0
 40
7.0
100
AcDbArc
 50
270.0
 51
357.2449092905467
  0
LINE
  5
18AE
330
1803
100
AcDbEntity
  8
1
  6
Continuous
100
AcDbLine
 10
241.3157592544623
 20
192.4802036008368
 30
0.0
 11
241.3157592544623
 21
193.4802036008368
 31
0.0
  0
ARC
  5
18AF
330
1803
100
AcDbEntity
  8
1
  6
Continuous
100
AcDbCircle
 10
278.6794411845451
 20
189.4973101141575
 30
0.0
 40
7.0
100
AcDbArc
 50
272.998306293404
 51
356.7102982565907
  0
ARC
  5
18B0
330
1803
100
AcDbEntity
  8
1
  6
Continuous
100
AcDbCircle
 10
287.8157592546314
 20
208.4802036005616
 30
0.0
 40
2.0
100
AcDbArc
 50
270.0
 51
0.0
  0
LINE
  5
18B1
330
1803
100
AcDbEntity
  8
1
  6
Continuous
100
AcDbLine
 10
287.8157592546314
 20
206.4802036005616
 30
0.0
 11
286.5154389982298
 21
206.4802036005616
 31
0.0
  0
ARC
  5
18B2
330
1803
100
AcDbEntity
  8
1
  6
Continuous
100
AcDbCircle
 10
270.3709510998144
 20
293.4802036000417
 30
0.0
 40
7.0
100
AcDbArc
 50
2.737234541241264
 51
90.0
  0
LINE
  5
18B3
330
1803
100
AcDbEntity
  8
1
  6
Continuous
100
AcDbLine
 10
241.3157592546316
 20
300.4802036001328
 30
0.0
 11
241.3157592546284
 21
299.4802036001327
 31
0.0
  0
ARC
  5
18B4
330
1803
100
AcDbEntity
  8
1
  6
Continuous
100
AcDbCircle
 10
243.2095818101423
 20
292.4802036001267
 30
0.0
 40
7.0
100
AcDbArc
 50
2.755090709461883
 51
90.0
  0
ARC
  5
18B5
330
1803
100
AcDbEntity
  8
1
  6
Continuous
100
AcDbCircle
 10
287.8157592546314
 20
284.4802036005589
 30
0.0
 40
2.0
100
AcDbArc
 50
0.0
 51
90.0
  0
LINE
  5
18B6
330
1803
100
AcDbEntity
  8
1
  6
Continuous
100
AcDbLine
 10
287.8157592546283
 20
286.4802036005588
 30
0.0
 11
286.515438998218
 21
286.4802036005571
 31
0.0
  0
ARC
  5
18B7
330
1803
100
AcDbEntity
  8
5
  6
PHANTOM
100
AcDbCircle
 10
362.3740454314959
 20
-23.29465588597135
 30
0.0
 40
186.0208333333295
100
AcDbArc
 50
134.5469613290172
 51
135.4671185562343
  0
LINE
  5
18B8
330
1803
100
AcDbEntity
  8
5
  6
PHANTOM
100
AcDbLine
 10
229.6276402490164
 20
112.7505893355047
 30
0.0
 11
231.8522900061571
 21
110.7309506111852
 31
0.0
  0
LINE
  5
18B9
330
1803
100
AcDbEntity
  8
1
  6
Continuous
100
AcDbLine
 10
251.3157592541955
 20
57.37834544492773
 30
0.0
 11
180.3157592546184
 21
57.37834544492852
 31
0.0
  0
LINE
  5
18BA
330
1803
100
AcDbEntity
  8
4
  6
CENTER
100
AcDbLine
 10
285.2335106477275
 20
62.3783454449531
 30
0.0
 11
196.5197743245026
 21
62.37834544495374
 31
0.0
  0
LINE
  5
18BB
330
1803
100
AcDbEntity
  8
1
  6
Continuous
100
AcDbLine
 10
180.3157592546184
 20
57.37834544492852
 30
0.0
 11
278.8157592545416
 21
57.37834544492788
 31
0.0
  0
LINE
  5
18BC
330
1803
100
AcDbEntity
  8
1
  6
Continuous
100
AcDbLine
 10
180.3157592546184
 20
55.37834544492851
 30
0.0
 11
278.8157592545469
 21
55.37834544492787
 31
0.0
  0
ARC
  5
18BD
330
1803
100
AcDbEntity
  8
1
  6
Continuous
100
AcDbCircle
 10
239.815759254466
 20
-100.1424878884332
 30
0.0
 40
191.0208333333295
100
AcDbArc
 50
76.07130274108206
 51
103.9286972589172
  0
LINE
  5
18BE
330
1803
100
AcDbEntity
  8
1
  6
Continuous
100
AcDbLine
 10
199.3157592544672
 20
57.37834544489621
 30
0.0
 11
235.3157592546604
 21
57.37834544489597
 31
0.0
  0
LINE
  5
18BF
330
1803
100
AcDbEntity
  8
1
  6
Continuous
100
AcDbLine
 10
218.5498473224213
 20
64.17834544489618
 30
0.0
 11
232.7498473224334
 21
64.17834544489608
 31
0.0
  0
LINE
  5
18C0
330
1803
100
AcDbEntity
  8
1
  6
Continuous
100
AcDbLine
 10
192.3157592544671
 20
80.37834544489632
 30
0.0
 11
287.315759254467
 21
80.37834544489578
 31
0.0
  0
LINE
  5
18C1
330
1803
100
AcDbEntity
  8
1
  6
Continuous
100
AcDbLine
 10
192.3157592544674
 20
79.37834544489634
 30
0.0
 11
287.3157592544671
 21
79.3783454448958
 31
0.0
  0
ARC
  5
18C2
330
1803
100
AcDbEntity
  8
1
  6
Continuous
100
AcDbCircle
 10
180.3157592546184
 20
57.37834544492844
 30
0.0
 40
2.0
100
AcDbArc
 50
179.9999999999994
 51
269.9999999999996
  0
LINE
  5
18C3
330
1803
100
AcDbEntity
  8
4
  6
CENTER
100
AcDbLine
 10
208.3157592544671
 20
52.73165884049834
 30
0.0
 11
208.3157592544671
 21
70.36111689626233
 31
0.0
  0
LINE
  5
18C4
330
1803
100
AcDbEntity
  8
1
  6
Continuous
100
AcDbLine
 10
199.3157592544672
 20
67.37834544492826
 30
0.0
 11
182.3157592546186
 21
67.37834544492847
 31
0.0
  0
LINE
  5
18C5
330
1803
100
AcDbEntity
  8
1
  6
Continuous
100
AcDbLine
 10
178.3157592546185
 20
67.3783454449285
 30
0.0
 11
164.8157592546185
 21
67.37834544492866
 31
0.0
  0
LINE
  5
18C6
330
1803
100
AcDbEntity
  8
1
  6
Continuous
100
AcDbLine
 10
178.3157592546185
 20
57.37834544492852
 30
0.0
 11
172.4015456921756
 21
57.3783454449286
 31
0.0
  0
LINE
  5
18C7
330
1803
100
AcDbEntity
  8
4
  6
CENTER
100
AcDbLine
 10
185.6284902330571
 20
65.37834544509576
 30
0.0
 11
172.6493286413955
 21
65.37834544509582
 31
0.0
  0
ARC
  5
18C8
330
1803
100
AcDbEntity
  8
1
  6
Continuous
100
AcDbCircle
 10
185.3862404051026
 20
78.74181199912067
 30
0.0
 40
25.0
100
AcDbArc
 50
211.0071100287997
 51
238.7088054832601
  0
ARC
  5
18C9
330
1803
100
AcDbEntity
  8
1
  6
Continuous
100
AcDbCircle
 10
164.8157592546185
 20
66.3783454448904
 30
0.0
 40
1.0
100
AcDbArc
 50
89.99999999999939
 51
211.0071100287995
  0
LINE
  5
18CA
330
1803
100
AcDbEntity
  8
1
  6
Continuous
100
AcDbLine
 10
182.3157592546186
 20
68.97834544492845
 30
0.0
 11
182.3157592546184
 21
61.77834544492852
 31
0.0
  0
LINE
  5
18CB
330
1803
100
AcDbEntity
  8
1
  6
Continuous
100
AcDbLine
 10
180.3157592546187
 20
72.37834544492845
 30
0.0
 11
180.3157592546184
 21
57.37834544492855
 31
0.0
  0
LINE
  5
18CC
330
1803
100
AcDbEntity
  8
1
  6
Continuous
100
AcDbLine
 10
178.3157592546185
 20
72.37834544492841
 30
0.0
 11
178.3157592546185
 21
57.37834544492852
 31
0.0
  0
ARC
  5
18CD
330
1803
100
AcDbEntity
  8
5
  6
PHANTOM
100
AcDbCircle
 10
197.3862404051027
 20
78.74181199912058
 30
0.0
 40
25.0
100
AcDbArc
 50
211.0071100287997
 51
238.7088054832601
  0
ARC
  5
18CE
330
1803
100
AcDbEntity
  8
1
  6
Continuous
100
AcDbCircle
 10
181.3157592546184
 20
60.77834544492842
 30
0.0
 40
1.0
100
AcDbArc
 50
89.99999999999969
 51
179.9999999999994
  0
LINE
  5
18CF
330
1803
100
AcDbEntity
  8
1
  6
Continuous
100
AcDbLine
 10
181.3157592546184
 20
61.77834544492852
 30
0.0
 11
182.3157592546184
 21
61.77834544492852
 31
0.0
  0
LINE
  5
18D0
330
1803
100
AcDbEntity
  8
1
  6
Continuous
100
AcDbLine
 10
178.3157592546184
 20
72.37834544492848
 30
0.0
 11
180.3157592546184
 21
72.37834544492848
 31
0.0
  0
ARC
  5
18D1
330
1803
100
AcDbEntity
  8
5
  6
PHANTOM
100
AcDbCircle
 10
176.8157592546185
 20
66.37834544489026
 30
0.0
 40
1.0
100
AcDbArc
 50
89.99999999999939
 51
211.0071100287995
  0
ARC
  5
18D2
330
1803
100
AcDbEntity
  8
1
  6
Continuous
100
AcDbCircle
 10
181.3157592546184
 20
69.97834544492835
 30
0.0
 40
1.0
100
AcDbArc
 50
179.9999999999994
 51
269.9999999999996
  0
LINE
  5
18D3
330
1803
100
AcDbEntity
  8
1
  6
Continuous
100
AcDbLine
 10
181.3157592546184
 20
68.97834544492845
 30
0.0
 11
182.3157592546186
 21
68.97834544492845
 31
0.0
  0
ARC
  5
18D4
330
1803
100
AcDbEntity
  8
5
  6
PHANTOM
100
AcDbCircle
 10
362.3740454303372
 20
-23.29465588753503
 30
0.0
 40
191.0208333333295
100
AcDbArc
 50
134.597825416179
 51
144.3388358288015
  0
ARC
  5
18D5
330
1803
100
AcDbEntity
  8
5
  6
PHANTOM
100
AcDbCircle
 10
362.3740454314959
 20
-23.29465588597135
 30
0.0
 40
188.7208333333293
100
AcDbArc
 50
136.0864984597656
 51
143.6359956741021
  0
LINE
  5
18D6
330
1803
100
AcDbEntity
  8
1
  6
Continuous
100
AcDbLine
 10
199.3157592544672
 20
67.57834544489627
 30
0.0
 11
216.549847322434
 21
67.57834544489617
 31
0.0
  0
LINE
  5
18D7
330
1803
100
AcDbEntity
  8
1
  6
Continuous
100
AcDbLine
 10
199.315759254467
 20
57.37834544489626
 30
0.0
 11
199.3157592544672
 21
79.37834544489634
 31
0.0
  0
LINE
  5
18D8
330
1803
100
AcDbEntity
  8
1
  6
Continuous
100
AcDbLine
 10
203.3157592544672
 20
57.37834544489619
 30
0.0
 11
203.3157592544672
 21
67.57834544489624
 31
0.0
  0
LINE
  5
18D9
330
1803
100
AcDbEntity
  8
1
  6
Continuous
100
AcDbLine
 10
192.3157592544671
 20
79.37834544489627
 30
0.0
 11
192.3157592544671
 21
83.32038419751873
 31
0.0
  0
ARC
  5
18DA
330
1803
100
AcDbEntity
  8
1
  6
Continuous
100
AcDbCircle
 10
194.3157592544672
 20
83.32038419751887
 30
0.0
 40
2.0
100
AcDbArc
 50
103.9286972589172
 51
179.9999999999994
  0
LINE
  5
18DB
330
1803
100
AcDbEntity
  8
4
  6
CENTER
100
AcDbLine
 10
214.3157592544675
 20
80.72834544489618
 30
0.0
 11
214.3157592544674
 21
72.62834544489627
 31
0.0
  0
LINE
  5
18DC
330
1803
100
AcDbEntity
  8
1
  6
Continuous
100
AcDbLine
 10
216.5498473224319
 20
57.3783454448961
 30
0.0
 11
216.5498473224348
 21
72.57834544490153
 31
0.0
  0
LINE
  5
18DD
330
1803
100
AcDbEntity
  8
1
  6
Continuous
100
AcDbLine
 10
213.3157592544672
 20
57.37834544489615
 30
0.0
 11
213.3157592544672
 21
67.5783454448962
 31
0.0
  0
LINE
  5
18DE
330
1803
100
AcDbEntity
  8
1
  6
Continuous
100
AcDbLine
 10
216.5498473224325
 20
60.37834544489609
 30
0.0
 11
218.5498473224205
 21
60.37834544489609
 31
0.0
  0
LINE
  5
18DF
330
1803
100
AcDbEntity
  8
1
  6
Continuous
100
AcDbLine
 10
218.5498473224198
 20
57.37834544489608
 30
0.0
 11
218.5498473224213
 21
64.17834544489614
 31
0.0
  0
LINE
  5
18E0
330
1803
100
AcDbEntity
  8
4
  6
CENTER
100
AcDbLine
 10
218.3657592544674
 20
76.67834544489618
 30
0.0
 11
210.2657592544673
 21
76.67834544489626
 31
0.0
  0
CIRCLE
  5
18E1
330
1803
100
AcDbEntity
  8
1
  6
Continuous
100
AcDbCircle
 10
214.3157592544674
 20
76.67834544489618
 30
0.0
 40
2.549999999999998
  0
ARC
  5
18E2
330
1803
100
AcDbEntity
  8
5
  6
PHANTOM
100
AcDbCircle
 10
219.4022754660674
 20
93.67054945438779
 30
0.0
 40
4.0
100
AcDbArc
 50
140.7134012309654
 51
227.7654402588534
  0
LINE
  5
18E3
330
1803
100
AcDbEntity
  8
5
  6
PHANTOM
100
AcDbLine
 10
217.9145636097898
 20
89.61866829663327
 30
0.0
 11
216.4911905280084
 21
90.91087143372977
 31
0.0
  0
ARC
  5
18E4
330
1803
100
AcDbEntity
  8
5
  6
PHANTOM
100
AcDbCircle
 10
227.1422671758794
 20
106.9031836398189
 30
0.0
 40
1.0
100
AcDbArc
 50
47.76544025885335
 51
136.086498459767
  0
ARC
  5
18E5
330
1803
100
AcDbEntity
  8
5
  6
PHANTOM
100
AcDbCircle
 10
228.9554723888012
 20
112.0101905458699
 30
0.0
 40
1.0
100
AcDbArc
 50
47.76544025955486
 51
134.5978254167574
  0
ARC
  5
18E6
330
1803
100
AcDbEntity
  8
5
  6
PHANTOM
100
AcDbCircle
 10
229.0566021073281
 20
107.8665098842378
 30
0.0
 40
1.0
100
AcDbArc
 50
227.7654402595548
 51
315.4671185562331
  0
LINE
  5
18E7
330
1803
100
AcDbEntity
  8
5
  6
PHANTOM
100
AcDbLine
 10
227.8144350360947
 20
107.6435824294539
 30
0.0
 11
228.3844342471124
 21
107.126111094603
 31
0.0
  0
LINE
  5
18E8
330
1803
100
AcDbEntity
  8
4
  6
CENTER
100
AcDbLine
 10
274.3157592545284
 20
62.65096904619311
 30
0.0
 11
274.3157592545542
 21
44.73138726464862
 31
0.0
  0
LINE
  5
18E9
330
1803
100
AcDbEntity
  8
1
  6
Continuous
100
AcDbLine
 10
282.315759254563
 20
52.87834544495989
 30
0.0
 11
282.3157592544681
 21
74.37834544495981
 31
0.0
  0
LINE
  5
18EA
330
1803
100
AcDbEntity
  8
1
  6
Continuous
100
AcDbLine
 10
280.315759254563
 20
52.87834544495118
 30
0.0
 11
280.315759254468
 21
74.37834544495093
 31
0.0
  0
LINE
  5
18EB
330
1803
100
AcDbEntity
  8
4
  6
CENTER
100
AcDbLine
 10
241.315759254354
 20
55.79727920978744
 30
0.0
 11
241.315759254354
 21
68.45477043119109
 31
0.0
  0
LINE
  5
18EC
330
1803
100
AcDbEntity
  8
1
  6
Continuous
100
AcDbLine
 10
278.8157592545416
 20
57.37834544492777
 30
0.0
 11
278.8157592545469
 21
55.37834544492483
 31
0.0
  0
LINE
  5
18ED
330
1803
100
AcDbEntity
  8
4
  6
CENTER
100
AcDbLine
 10
268.3157592544672
 20
54.33796191646784
 30
0.0
 11
268.3157592544672
 21
70.36111689626193
 31
0.0
  0
LINE
  5
18EE
330
1803
100
AcDbEntity
  8
4
  6
CENTER
100
AcDbLine
 10
248.3157592541955
 20
52.20019667628013
 30
0.0
 11
248.3157592541955
 21
70.36111689626206
 31
0.0
  0
LINE
  5
18EF
330
1803
100
AcDbEntity
  8
1
  6
Continuous
100
AcDbLine
 10
278.1157592545474
 20
49.07834544492764
 30
0.0
 11
270.5157592545472
 21
49.07834544492764
 31
0.0
  0
LINE
  5
18F0
330
1803
100
AcDbEntity
  8
1
  6
Continuous
100
AcDbLine
 10
279.3157592545465
 20
50.07834544492766
 30
0.0
 11
269.3157592545464
 21
50.07834544492766
 31
0.0
  0
LINE
  5
18F1
330
1803
100
AcDbEntity
  8
1
  6
Continuous
100
AcDbLine
 10
268.3157592545633
 20
52.87834544490134
 30
0.0
 11
280.315759254563
 21
52.87834544495435
 31
0.0
  0
LINE
  5
18F2
330
1803
100
AcDbEntity
  8
1
  6
Continuous
100
AcDbLine
 10
268.3157592545721
 20
50.87834544490122
 30
0.0
 11
280.3157592545716
 21
50.87834544495426
 31
0.0
  0
LINE
  5
18F3
330
1803
100
AcDbEntity
  8
1
  6
Continuous
100
AcDbLine
 10
245.9157592541955
 20
54.8783454448959
 30
0.0
 11
250.7157592541954
 21
54.87834544489588
 31
0.0
  0
LINE
  5
18F4
330
1803
100
AcDbEntity
  8
1
  6
Continuous
100
AcDbLine
 10
246.4157592541955
 20
54.37834544489589
 30
0.0
 11
250.2157592541955
 21
54.37834544489589
 31
0.0
  0
LINE
  5
18F5
330
1803
100
AcDbEntity
  8
1
  6
Continuous
100
AcDbLine
 10
245.9157592541952
 20
54.87834544489601
 30
0.0
 11
246.4157592541952
 21
54.37834544489597
 31
0.0
  0
LINE
  5
18F6
330
1803
100
AcDbEntity
  8
1
  6
Continuous
100
AcDbLine
 10
245.9157592541955
 20
54.8783454448959
 30
0.0
 11
245.9157592541955
 21
55.3783454449281
 31
0.0
  0
LINE
  5
18F7
330
1803
100
AcDbEntity
  8
1
  6
Continuous
100
AcDbLine
 10
250.7157592541954
 20
54.87834544489594
 30
0.0
 11
250.2157592541955
 21
54.37834544489589
 31
0.0
  0
LINE
  5
18F8
330
1803
100
AcDbEntity
  8
1
  6
Continuous
100
AcDbLine
 10
250.7157592541956
 20
54.87834544489588
 30
0.0
 11
250.7157592541956
 21
55.37834544492806
 31
0.0
  0
LINE
  5
18F9
330
1803
100
AcDbEntity
  8
1
  6
Continuous
100
AcDbLine
 10
277.8157592545475
 20
49.07834544492768
 30
0.0
 11
277.717823115661
 21
47.95893025512675
 31
0.0
  0
LINE
  5
18FA
330
1803
100
AcDbEntity
  8
1
  6
Continuous
100
AcDbLine
 10
270.8157592545473
 20
49.07834544492768
 30
0.0
 11
270.9136953934366
 21
47.95893025509339
 31
0.0
  0
ARC
  5
18FB
330
1803
100
AcDbEntity
  8
1
  6
Continuous
100
AcDbCircle
 10
274.3157592545474
 20
55.47834544492769
 30
0.0
 40
9.0
100
AcDbArc
 50
254.1191499917202
 51
285.8808500082797
  0
ARC
  5
18FC
330
1803
100
AcDbEntity
  8
1
  6
Continuous
100
AcDbCircle
 10
272.2087485009613
 20
48.07223272070497
 30
0.0
 40
1.3
100
AcDbArc
 50
185.0
 51
254.1191499917202
  0
ARC
  5
18FD
330
1803
100
AcDbEntity
  8
1
  6
Continuous
100
AcDbCircle
 10
276.4227700081302
 20
48.07223272071889
 30
0.0
 40
1.3
100
AcDbArc
 50
285.8808500082797
 51
355.0
  0
LINE
  5
18FE
330
1803
100
AcDbEntity
  8
1
  6
Continuous
100
AcDbLine
 10
269.3157592545466
 20
50.07834544492768
 30
0.0
 11
269.3157592545475
 21
50.87834544492776
 31
0.0
  0
LINE
  5
18FF
330
1803
100
AcDbEntity
  8
1
  6
Continuous
100
AcDbLine
 10
270.5157592545472
 20
49.07834544492764
 30
0.0
 11
270.5157592545472
 21
50.07834544492766
 31
0.0
  0
LINE
  5
1900
330
1803
100
AcDbEntity
  8
1
  6
Continuous
100
AcDbLine
 10
268.3157592545628
 20
52.8783454449012
 30
0.0
 11
268.3157592545644
 21
50.87834544490253
 31
0.0
  0
LINE
  5
1901
330
1803
100
AcDbEntity
  8
2
  6
Continuous
100
AcDbLine
 10
275.8157592544482
 20
55.37834544492792
 30
0.0
 11
275.8157592544482
 21
52.87818896422954
 31
0.0
  0
LINE
  5
1902
330
1803
100
AcDbEntity
  8
2
  6
Continuous
100
AcDbLine
 10
272.8157592544482
 20
55.37834544492793
 30
0.0
 11
272.8157592544482
 21
52.87818700344871
 31
0.0
  0
LINE
  5
1903
330
1803
100
AcDbEntity
  8
1
  6
Continuous
100
AcDbLine
 10
272.3157592544481
 20
55.37834544492794
 30
0.0
 11
272.3157592544481
 21
52.87818667665193
 31
0.0
  0
LINE
  5
1904
330
1803
100
AcDbEntity
  8
1
  6
Continuous
100
AcDbLine
 10
276.3157592544482
 20
55.3783454449279
 30
0.0
 11
276.3157592544482
 21
52.87818929102631
 31
0.0
  0
LINE
  5
1905
330
1803
100
AcDbEntity
  8
1
  6
Continuous
100
AcDbLine
 10
279.3157592545465
 20
50.07834544492768
 30
0.0
 11
279.3157592545475
 21
50.87834544492776
 31
0.0
  0
LINE
  5
1906
330
1803
100
AcDbEntity
  8
1
  6
Continuous
100
AcDbLine
 10
278.1157592545474
 20
49.07834544492764
 30
0.0
 11
278.1157592545474
 21
50.07834544492766
 31
0.0
  0
ARC
  5
1907
330
1803
100
AcDbEntity
  8
1
  6
Continuous
100
AcDbCircle
 10
280.315759254563
 20
52.87834544495114
 30
0.0
 40
2.0
100
AcDbArc
 50
270.0000000002531
 51
0.0000000002532374
  0
LINE
  5
1908
330
1803
100
AcDbEntity
  8
1
  6
Continuous
100
AcDbLine
 10
279.0478100619941
 20
79.37834544489565
 30
0.0
 11
277.6733991360524
 21
74.24897403887813
 31
0.0
  0
ARC
  5
1909
330
1803
100
AcDbEntity
  8
1
  6
Continuous
100
AcDbCircle
 10
268.9800666994595
 20
76.57834544483222
 30
0.0
 40
9.0
100
AcDbArc
 50
269.9999999999996
 51
344.999999999794
  0
LINE
  5
190A
330
1803
100
AcDbEntity
  8
1
  6
Continuous
100
AcDbLine
 10
261.3157592544589
 20
57.37834544489579
 30
0.0
 11
279.315759254421
 21
57.37834544489571
 31
0.0
  0
LINE
  5
190B
330
1803
100
AcDbEntity
  8
1
  6
Continuous
100
AcDbLine
 10
255.4554234171777
 20
65.07834544489579
 30
0.0
 11
253.2948919640908
 21
57.83542095455578
 31
0.0
  0
LINE
  5
190C
330
1803
100
AcDbEntity
  8
1
  6
Continuous
100
AcDbLine
 10
253.3157592541955
 20
65.07834544489593
 30
0.0
 11
261.31575925444
 21
65.07834544489589
 31
0.0
  0
LINE
  5
190D
330
1803
100
AcDbEntity
  8
1
  6
Continuous
100
AcDbLine
 10
234.7498473224311
 20
67.57834544489606
 30
0.0
 11
268.9800666994595
 21
67.57834544489583
 31
0.0
  0
LINE
  5
190E
330
1803
100
AcDbEntity
  8
1
  6
Continuous
100
AcDbLine
 10
235.3157592546649
 20
64.87834544468036
 30
0.0
 11
243.3157592541954
 21
64.87834544468026
 31
0.0
  0
LINE
  5
190F
330
1803
100
AcDbEntity
  8
1
  6
Continuous
100
AcDbLine
 10
235.3157592546618
 20
59.87834544468039
 30
0.0
 11
251.315759254354
 21
59.87834544468022
 31
0.0
  0
LINE
  5
1910
330
1803
100
AcDbEntity
  8
1
  6
Continuous
100
AcDbLine
 10
235.3157592546653
 20
65.07834544489606
 30
0.0
 11
243.3157592541955
 21
65.078345444896
 31
0.0
  0
LINE
  5
1911
330
1803
100
AcDbEntity
  8
1
  6
Continuous
100
AcDbLine
 10
235.3157592546604
 20
57.37834544489584
 30
0.0
 11
235.3157592546654
 21
65.07834544489604
 31
0.0
  0
LINE
  5
1912
330
1803
100
AcDbEntity
  8
1
  6
Continuous
100
AcDbLine
 10
234.7498473224337
 20
57.37834544489602
 30
0.0
 11
234.7498473224296
 21
72.57834544490153
 31
0.0
  0
LINE
  5
1913
330
1803
100
AcDbEntity
  8
1
  6
Continuous
100
AcDbLine
 10
232.7498473224326
 20
60.37834544489601
 30
0.0
 11
234.7498473224331
 21
60.37834544489597
 31
0.0
  0
LINE
  5
1914
330
1803
100
AcDbEntity
  8
1
  6
Continuous
100
AcDbLine
 10
232.749847322432
 20
57.37834544489604
 30
0.0
 11
232.7498473224335
 21
64.17834544489597
 31
0.0
  0
LINE
  5
1915
330
1803
100
AcDbEntity
  8
1
  6
Continuous
100
AcDbLine
 10
253.3157592541956
 20
61.40372682184096
 30
0.0
 11
254.4118812866421
 21
65.07834544489587
 31
0.0
  0
LINE
  5
1916
330
1803
100
AcDbEntity
  8
1
  6
Continuous
100
AcDbLine
 10
253.3157592541955
 20
59.87834544489587
 30
0.0
 11
253.3157592541955
 21
67.57834544489593
 31
0.0
  0
LINE
  5
1917
330
1803
100
AcDbEntity
  8
1
  6
Continuous
100
AcDbLine
 10
243.3157592541955
 20
59.87834544489593
 30
0.0
 11
243.3157592541955
 21
67.578345444896
 31
0.0
  0
LINE
  5
1918
330
1803
100
AcDbEntity
  8
1
  6
Continuous
100
AcDbLine
 10
245.3157592541955
 20
57.3783454448959
 30
0.0
 11
251.3157592541955
 21
57.37834544489588
 31
0.0
  0
LINE
  5
1919
330
1803
100
AcDbEntity
  8
1
  6
Continuous
100
AcDbLine
 10
243.3157592541955
 20
59.87834544489593
 30
0.0
 11
253.3157592541955
 21
59.87834544489587
 31
0.0
  0
LINE
  5
191A
330
1803
100
AcDbEntity
  8
1
  6
Continuous
100
AcDbLine
 10
245.3157592541955
 20
57.3783454448959
 30
0.0
 11
245.3157592541955
 21
59.8783454448959
 31
0.0
  0
LINE
  5
191B
330
1803
100
AcDbEntity
  8
1
  6
Continuous
100
AcDbLine
 10
252.3366172852458
 20
58.12126993546157
 30
0.0
 11
252.8162139619861
 21
59.7290606993889
 31
0.0
  0
LINE
  5
191C
330
1803
100
AcDbEntity
  8
1
  6
Continuous
100
AcDbLine
 10
252.315754624668
 20
57.9783454450086
 30
0.0
 11
252.315754624668
 21
59.87834544489587
 31
0.0
  0
ARC
  5
191D
330
1803
100
AcDbEntity
  8
1
  6
Continuous
100
AcDbCircle
 10
252.815754624668
 20
57.97834544500857
 30
0.0
 40
0.5
100
AcDbArc
 50
163.3903970688795
 51
343.3903970688766
  0
ARC
  5
191E
330
1803
100
AcDbEntity
  8
1
  6
Continuous
100
AcDbCircle
 10
251.815754624668
 20
57.97834544500862
 30
0.0
 40
0.5
100
AcDbArc
 50
179.9999999999992
 51
359.9999999999992
  0
ARC
  5
191F
330
1803
100
AcDbEntity
  8
1
  6
Continuous
100
AcDbCircle
 10
252.3157592543543
 20
59.87834544492582
 30
0.0
 40
0.5
100
AcDbArc
 50
269.9999999999992
 51
359.9999999999992
  0
LINE
  5
1920
330
1803
100
AcDbEntity
  8
1
  6
Continuous
100
AcDbLine
 10
251.315759254354
 20
58.37834544492768
 30
0.0
 11
251.315759254354
 21
59.87834544489587
 31
0.0
  0
LINE
  5
1921
330
1803
100
AcDbEntity
  8
1
  6
Continuous
100
AcDbLine
 10
251.3157592541955
 20
57.37834544489588
 30
0.0
 11
251.3157592541955
 21
59.87834544489588
 31
0.0
  0
LINE
  5
1922
330
1803
100
AcDbEntity
  8
1
  6
Continuous
100
AcDbLine
 10
256.8300446499404
 20
60.46184446812174
 30
0.0
 11
256.1836595699961
 21
65.07834544489583
 31
0.0
  0
LINE
  5
1923
330
1803
100
AcDbEntity
  8
1
  6
Continuous
100
AcDbLine
 10
259.1216530512705
 20
65.07834544489583
 30
0.0
 11
257.1553786670404
 21
57.84715129155705
 31
0.0
  0
LINE
  5
1924
330
1803
100
AcDbEntity
  8
1
  6
Continuous
100
AcDbLine
 10
256.190416296582
 20
58.10953959845973
 30
0.0
 11
258.0853432109968
 21
65.07834544489587
 31
0.0
  0
LINE
  5
1925
330
1803
100
AcDbEntity
  8
1
  6
Continuous
100
AcDbLine
 10
261.3157592544589
 20
57.37834544489584
 30
0.0
 11
261.31575925444
 21
65.078345444896
 31
0.0
  0
LINE
  5
1926
330
1803
100
AcDbEntity
  8
1
  6
Continuous
100
AcDbLine
 10
263.3157592544672
 20
57.37834544489579
 30
0.0
 11
263.3157592544672
 21
67.57834544489587
 31
0.0
  0
LINE
  5
1927
330
1803
100
AcDbEntity
  8
1
  6
Continuous
100
AcDbLine
 10
255.2638344087501
 20
64.43606610235801
 30
0.0
 11
256.1777277122891
 21
57.90901363880529
 31
0.0
  0
ARC
  5
1928
330
1803
100
AcDbEntity
  8
1
  6
Continuous
100
AcDbCircle
 10
256.6728974818108
 20
57.9783454450085
 30
0.0
 40
0.5
100
AcDbArc
 50
164.7881768560814
 51
344.7881768560848
  0
LINE
  5
1929
330
1803
100
AcDbEntity
  8
1
  6
Continuous
100
AcDbLine
 10
273.315759254467
 20
57.37834544489574
 30
0.0
 11
273.315759254467
 21
68.69153556577143
 31
0.0
  0
LINE
  5
192A
330
1803
100
AcDbEntity
  8
1
  6
Continuous
100
AcDbLine
 10
276.8157592552812
 20
57.37834544492924
 30
0.0
 11
276.8157592552812
 21
57.97834544492928
 31
0.0
  0
LINE
  5
192B
330
1803
100
AcDbEntity
  8
1
  6
Continuous
100
AcDbLine
 10
273.315759254467
 20
57.97834544492928
 30
0.0
 11
276.8157592552812
 21
57.97834544492928
 31
0.0
  0
ARC
  5
192C
330
1803
100
AcDbEntity
  8
5
  6
PHANTOM
100
AcDbCircle
 10
231.1801221459419
 20
109.9905518215501
 30
0.0
 40
1.0
100
AcDbArc
 50
314.5469613290182
 51
47.76544025955494
  0
LINE
  5
192D
330
1803
100
AcDbEntity
  8
1
  6
Continuous
100
AcDbLine
 10
279.315759254421
 20
79.3783454448958
 30
0.0
 11
279.315759254421
 21
57.37834544492773
 31
0.0
  0
LINE
  5
192E
330
1803
100
AcDbEntity
  8
1
  6
Continuous
100
AcDbLine
 10
282.3157592544678
 20
74.37834544495974
 30
0.0
 11
289.8157592544679
 21
74.37834544499286
 31
0.0
  0
LINE
  5
192F
330
1803
100
AcDbEntity
  8
1
  6
Continuous
100
AcDbLine
 10
282.3157592544593
 20
76.37834544495987
 30
0.0
 11
289.8157592544592
 21
76.37834544499304
 31
0.0
  0
LINE
  5
1930
330
1803
100
AcDbEntity
  8
1
  6
Continuous
100
AcDbLine
 10
287.315759254467
 20
79.37834544489565
 30
0.0
 11
287.3157592544671
 21
83.32038419751816
 31
0.0
  0
ARC
  5
1931
330
1803
100
AcDbEntity
  8
1
  6
Continuous
100
AcDbCircle
 10
282.315759254468
 20
74.37834544495993
 30
0.0
 40
2.0
100
AcDbArc
 50
90.0000000002532
 51
180.0000000002529
  0
ARC
  5
1932
330
1803
100
AcDbEntity
  8
1
  6
Continuous
100
AcDbCircle
 10
285.3157592544672
 20
83.32038419751816
 30
0.0
 40
2.0
100
AcDbArc
 50
359.9999999999997
 51
76.07130274108212
  0
LINE
  5
1933
330
1803
100
AcDbEntity
  8
1
  6
Continuous
100
AcDbLine
 10
289.8157592544586
 20
76.37834544499293
 30
0.0
 11
289.8157592544674
 21
74.37834544499293
 31
0.0
  0
LINE
  5
1934
330
1803
100
AcDbEntity
  8
1
  6
Continuous
100
AcDbLine
 10
274.315759254548
 20
49.07834544492764
 30
0.0
 11
273.315759254548
 21
50.07834544492766
 31
0.0
  0
LINE
  5
1935
330
1803
100
AcDbEntity
  8
1
  6
Continuous
100
AcDbLine
 10
275.3157592545463
 20
49.07834544492764
 30
0.0
 11
274.3157592545463
 21
50.07834544492766
 31
0.0
  0
LINE
  5
1936
330
1803
100
AcDbEntity
  8
1
  6
Continuous
100
AcDbLine
 10
620.8674448036167
 20
287.1402360290708
 30
0.0
 11
620.0373369072721
 21
287.1257464418428
 31
0.0
  0
LINE
  5
1937
330
1803
100
AcDbEntity
  8
1
  6
Continuous
100
AcDbLine
 10
620.8674448036157
 20
285.8202599133972
 30
0.0
 11
620.0373369072721
 21
285.8347495006252
 31
0.0
  0
CIRCLE
  5
1938
330
1803
100
AcDbEntity
  8
1
  6
Continuous
100
AcDbCircle
 10
622.1927560601149
 20
286.4802479712336
 30
0.0
 40
4.0
  0
LINE
  5
1939
330
1803
100
AcDbEntity
  8
1
  6
Continuous
100
AcDbLine
 10
620.8674448036167
 20
207.1402360290709
 30
0.0
 11
620.0373369072721
 21
207.1257464418428
 31
0.0
  0
LINE
  5
193A
330
1803
100
AcDbEntity
  8
1
  6
Continuous
100
AcDbLine
 10
620.8674448036157
 20
205.8202599133971
 30
0.0
 11
620.0373369072721
 21
205.834749500625
 31
0.0
  0
CIRCLE
  5
193B
330
1803
100
AcDbEntity
  8
1
  6
Continuous
100
AcDbCircle
 10
622.1927560601149
 20
206.4802479712338
 30
0.0
 40
4.0
  0
LINE
  5
193C
330
1803
100
AcDbEntity
  8
1
  6
Continuous
100
AcDbLine
 10
628.1927560601149
 20
303.4802479708843
 30
0.0
 11
561.3653781570327
 21
303.4802479708843
 31
0.0
  0
ARC
  5
193D
330
1803
100
AcDbEntity
  8
1
  6
Continuous
100
AcDbCircle
 10
590.6927560599283
 20
-438.5197520291158
 30
0.0
 40
750.0
100
AcDbArc
 50
87.00169370654448
 51
92.99830629340387
  0
LINE
  5
193E
330
1803
100
AcDbEntity
  8
1
  6
Continuous
100
AcDbLine
 10
628.1927560601054
 20
189.4802479714661
 30
0.0
 11
561.3653781570071
 21
189.4802479716755
 31
0.0
  0
ARC
  5
193F
330
1803
100
AcDbEntity
  8
1
  6
Continuous
100
AcDbCircle
 10
590.692756062076
 20
931.4802479715833
 30
0.0
 40
750.0
100
AcDbArc
 50
267.0016937064302
 51
272.9983062932896
  0
LINE
  5
1940
330
1803
100
AcDbEntity
  8
4
  6
CENTER
100
AcDbLine
 10
615.6927560601148
 20
206.480247971234
 30
0.0
 11
628.6927560601148
 21
206.480247971234
 31
0.0
  0
LINE
  5
1941
330
1803
100
AcDbEntity
  8
4
  6
CENTER
100
AcDbLine
 10
615.6927560601149
 20
286.480247971234
 30
0.0
 11
628.6927560601148
 21
286.480247971234
 31
0.0
  0
LINE
  5
1942
330
1803
100
AcDbEntity
  8
4
  6
CENTER
100
AcDbLine
 10
672.7722427543783
 20
246.4802036005953
 30
0.0
 11
532.7267952963024
 21
246.4802036005615
 31
0.0
  0
LINE
  5
1943
330
1803
100
AcDbEntity
  8
1
  6
Continuous
100
AcDbLine
 10
652.1927560601482
 20
294.9802036004496
 30
0.0
 11
554.6927560601536
 21
294.9802036005582
 31
0.0
  0
LINE
  5
1944
330
1803
100
AcDbEntity
  8
1
  6
Continuous
100
AcDbLine
 10
652.1927560601477
 20
197.9802036004499
 30
0.0
 11
554.692756060148
 21
197.9802036004181
 31
0.0
  0
CIRCLE
  5
1945
330
1803
100
AcDbEntity
  8
1
  6
Continuous
100
AcDbCircle
 10
622.1927560598992
 20
286.4802036004468
 30
0.0
 40
4.299999999999998
  0
CIRCLE
  5
1946
330
1803
100
AcDbEntity
  8
1
  6
Continuous
100
AcDbCircle
 10
622.1927560598992
 20
206.4802036006796
 30
0.0
 40
4.299999999999998
  0
ARC
  5
1947
330
1803
100
AcDbEntity
  8
1
  6
Continuous
100
AcDbCircle
 10
-361.8072439397337
 20
246.4802479711597
 30
0.0
 40
1000.0
100
AcDbArc
 50
356.710298256586
 51
357.2200615704347
  0
ARC
  5
1948
330
1803
100
AcDbEntity
  8
1
  6
Continuous
100
AcDbCircle
 10
628.1927560601149
 20
192.4802479714658
 30
0.0
 40
3.0
100
AcDbArc
 50
270.0
 51
0.0
  0
LINE
  5
1949
330
1803
100
AcDbEntity
  8
1
  6
Continuous
100
AcDbLine
 10
652.1927560601477
 20
253.4802036005856
 30
0.0
 11
652.1927560601477
 21
294.9802036004486
 31
0.0
  0
LINE
  5
194A
330
1803
100
AcDbEntity
  8
1
  6
Continuous
100
AcDbLine
 10
622.8527441179519
 20
287.8055592277323
 30
0.0
 11
622.8382545307237
 21
288.6356671240768
 31
0.0
  0
LINE
  5
194B
330
1803
100
AcDbEntity
  8
1
  6
Continuous
100
AcDbLine
 10
621.5327680022782
 20
287.8055592277332
 30
0.0
 11
621.5472575895062
 21
288.6356671240771
 31
0.0
  0
LINE
  5
194C
330
1803
100
AcDbEntity
  8
4
  6
CENTER
100
AcDbLine
 10
622.1927560601149
 20
279.980247971234
 30
0.0
 11
622.1927560601149
 21
292.980247971234
 31
0.0
  0
ARC
  5
194D
330
1803
100
AcDbEntity
  8
1
  6
Continuous
100
AcDbCircle
 10
629.5564379903241
 20
303.4631414575283
 30
0.0
 40
7.0
100
AcDbArc
 50
3.289701743415898
 51
87.00169370654448
  0
ARC
  5
194E
330
1803
100
AcDbEntity
  8
1
  6
Continuous
100
AcDbCircle
 10
-361.8072439397337
 20
246.4802479711597
 30
0.0
 40
1000.0
100
AcDbArc
 50
2.77993333906649
 51
3.289701743415978
  0
LINE
  5
194F
330
1803
100
AcDbEntity
  8
1
  6
Continuous
100
AcDbLine
 10
631.1927560601149
 20
300.4802479708843
 30
0.0
 11
631.1927560601149
 21
294.9802036004762
 31
0.0
  0
ARC
  5
1950
330
1803
100
AcDbEntity
  8
1
  6
Continuous
100
AcDbCircle
 10
628.1927560601149
 20
300.4802479708842
 30
0.0
 40
3.0
100
AcDbArc
 50
0.0
 51
90.0
  0
ARC
  5
1951
330
1803
100
AcDbEntity
  8
1
  6
Continuous
100
AcDbCircle
 10
622.1927560601149
 20
286.4802479712336
 30
0.0
 40
2.25
100
AcDbArc
 50
73.32825096400779
 51
106.6717490359734
  0
LINE
  5
1952
330
1803
100
AcDbEntity
  8
4
  6
CENTER
100
AcDbLine
 10
655.8666490145911
 20
279.9802036007786
 30
0.0
 11
644.6190814823133
 21
279.9802036007786
 31
0.0
  0
ARC
  5
1953
330
1803
100
AcDbEntity
  8
1
  6
Continuous
100
AcDbCircle
 10
622.1927560601149
 20
286.4802479712336
 30
0.0
 40
2.25
100
AcDbArc
 50
343.3282509640185
 51
16.67174903597646
  0
ARC
  5
1954
330
1803
100
AcDbEntity
  8
1
  6
Continuous
100
AcDbCircle
 10
622.1927560601149
 20
286.4802479712336
 30
0.0
 40
2.25
100
AcDbArc
 50
253.3282509640145
 51
286.6717490359852
  0
LINE
  5
1955
330
1803
100
AcDbEntity
  8
1
  6
Continuous
100
AcDbLine
 10
623.5180673166138
 20
287.1402360290707
 30
0.0
 11
624.3481752129578
 21
287.1257464418425
 31
0.0
  0
LINE
  5
1956
330
1803
100
AcDbEntity
  8
1
  6
Continuous
100
AcDbLine
 10
623.0577088934618
 20
287.3452008045811
 30
0.0
 11
623.5180673166138
 21
287.1402360290707
 31
0.0
  0
LINE
  5
1957
330
1803
100
AcDbEntity
  8
1
  6
Continuous
100
AcDbLine
 10
623.0577088934618
 20
287.3452008045811
 30
0.0
 11
622.8527441179519
 21
287.8055592277323
 31
0.0
  0
LINE
  5
1958
330
1803
100
AcDbEntity
  8
1
  6
Continuous
100
AcDbLine
 10
621.3278032267675
 20
287.3452008045811
 30
0.0
 11
621.5327680022782
 21
287.805559227733
 31
0.0
  0
LINE
  5
1959
330
1803
100
AcDbEntity
  8
1
  6
Continuous
100
AcDbLine
 10
621.3278032267676
 20
287.3452008045814
 30
0.0
 11
620.8674448036165
 21
287.1402360290708
 31
0.0
  0
LINE
  5
195A
330
1803
100
AcDbEntity
  8
1
  6
Continuous
100
AcDbLine
 10
621.3278032267676
 20
285.6152951378866
 30
0.0
 11
620.8674448036157
 21
285.8202599133974
 31
0.0
  0
LINE
  5
195B
330
1803
100
AcDbEntity
  8
1
  6
Continuous
100
AcDbLine
 10
621.3278032267675
 20
285.6152951378866
 30
0.0
 11
621.5327680022777
 21
285.1549367147352
 31
0.0
  0
LINE
  5
195C
330
1803
100
AcDbEntity
  8
1
  6
Continuous
100
AcDbLine
 10
621.5327680022777
 20
285.1549367147352
 30
0.0
 11
621.5472575895061
 21
284.3248288183911
 31
0.0
  0
LINE
  5
195D
330
1803
100
AcDbEntity
  8
1
  6
Continuous
100
AcDbLine
 10
623.5180673166138
 20
285.8202599133972
 30
0.0
 11
624.3481752129578
 21
285.8347495006252
 31
0.0
  0
LINE
  5
195E
330
1803
100
AcDbEntity
  8
1
  6
Continuous
100
AcDbLine
 10
622.8527441179519
 20
285.1549367147356
 30
0.0
 11
622.8382545307237
 21
284.3248288183911
 31
0.0
  0
LINE
  5
195F
330
1803
100
AcDbEntity
  8
1
  6
Continuous
100
AcDbLine
 10
623.0577088934621
 20
285.6152951378869
 30
0.0
 11
623.5180673166138
 21
285.8202599133972
 31
0.0
  0
LINE
  5
1960
330
1803
100
AcDbEntity
  8
1
  6
Continuous
100
AcDbLine
 10
623.0577088934618
 20
285.6152951378866
 30
0.0
 11
622.8527441179517
 21
285.1549367147356
 31
0.0
  0
LINE
  5
1961
330
1803
100
AcDbEntity
  8
1
  6
Continuous
100
AcDbLine
 10
652.1927560601477
 20
197.9802036004486
 30
0.0
 11
652.1927560601477
 21
239.4802036005855
 31
0.0
  0
LINE
  5
1962
330
1803
100
AcDbEntity
  8
1
  6
Continuous
100
AcDbLine
 10
665.6927677138269
 20
239.4802036005855
 30
0.0
 11
650.192756060148
 21
239.4802036005855
 31
0.0
  0
LINE
  5
1963
330
1803
100
AcDbEntity
  8
1
  6
Continuous
100
AcDbLine
 10
665.6927677138269
 20
253.4802036005856
 30
0.0
 11
650.192756060148
 21
253.4802036005856
 31
0.0
  0
LINE
  5
1964
330
1803
100
AcDbEntity
  8
1
  6
Continuous
100
AcDbLine
 10
658.1069812762696
 20
240.4802036005035
 30
0.0
 11
658.1069812762696
 21
252.4802036005035
 31
0.0
  0
LINE
  5
1965
330
1803
100
AcDbEntity
  8
1
  6
Continuous
100
AcDbLine
 10
666.6927677138269
 20
252.4802036005035
 30
0.0
 11
666.6927677138269
 21
240.4802036005035
 31
0.0
  0
ARC
  5
1966
330
1803
100
AcDbEntity
  8
1
  6
Continuous
100
AcDbCircle
 10
665.6927677138269
 20
252.4802036005035
 30
0.0
 40
1.0
100
AcDbArc
 50
0.0
 51
90.0
  0
ARC
  5
1967
330
1803
100
AcDbEntity
  8
1
  6
Continuous
100
AcDbCircle
 10
665.6927677138269
 20
240.4802036005035
 30
0.0
 40
1.0
100
AcDbArc
 50
270.0
 51
0.0
  0
LINE
  5
1968
330
1803
100
AcDbEntity
  8
1
  6
Continuous
100
AcDbLine
 10
650.192756060148
 20
239.2802036005917
 30
0.0
 11
650.192756060148
 21
253.6802036005919
 31
0.0
  0
LINE
  5
1969
330
1803
100
AcDbEntity
  8
1
  6
Continuous
100
AcDbLine
 10
652.1927560601477
 20
253.6802036005924
 30
0.0
 11
650.192756060148
 21
253.6802036005918
 31
0.0
  0
LINE
  5
196A
330
1803
100
AcDbEntity
  8
1
  6
Continuous
100
AcDbLine
 10
652.1927560601477
 20
239.2802036005925
 30
0.0
 11
650.192756060148
 21
239.2802036005917
 31
0.0
  0
LINE
  5
196B
330
1803
100
AcDbEntity
  8
4
  6
CENTER
100
AcDbLine
 10
644.6190814823133
 20
212.980203600444
 30
0.0
 11
655.8666490145911
 21
212.9802036004527
 31
0.0
  0
ARC
  5
196C
330
1803
100
AcDbEntity
  8
1
  6
Continuous
100
AcDbCircle
 10
622.1927560601149
 20
206.4802479712338
 30
0.0
 40
2.25
100
AcDbArc
 50
343.3282509640185
 51
16.67174903597646
  0
LINE
  5
196D
330
1803
100
AcDbEntity
  8
4
  6
CENTER
100
AcDbLine
 10
622.1927560601145
 20
199.980247971234
 30
0.0
 11
622.1927560601145
 21
212.980247971234
 31
0.0
  0
ARC
  5
196E
330
1803
100
AcDbEntity
  8
1
  6
Continuous
100
AcDbCircle
 10
622.1927560601149
 20
206.4802479712338
 30
0.0
 40
2.25
100
AcDbArc
 50
73.32825096400779
 51
106.6717490359734
  0
LINE
  5
196F
330
1803
100
AcDbEntity
  8
1
  6
Continuous
100
AcDbLine
 10
623.5180673166138
 20
207.1402360290707
 30
0.0
 11
624.3481752129578
 21
207.1257464418425
 31
0.0
  0
LINE
  5
1970
330
1803
100
AcDbEntity
  8
1
  6
Continuous
100
AcDbLine
 10
623.0577088934618
 20
207.3452008045811
 30
0.0
 11
623.5180673166138
 21
207.1402360290704
 31
0.0
  0
LINE
  5
1971
330
1803
100
AcDbEntity
  8
1
  6
Continuous
100
AcDbLine
 10
623.0577088934621
 20
207.3452008045811
 30
0.0
 11
622.8527441179519
 21
207.8055592277322
 31
0.0
  0
LINE
  5
1972
330
1803
100
AcDbEntity
  8
1
  6
Continuous
100
AcDbLine
 10
622.8527441179519
 20
207.8055592277322
 30
0.0
 11
622.8382545307237
 21
208.6356671240765
 31
0.0
  0
LINE
  5
1973
330
1803
100
AcDbEntity
  8
1
  6
Continuous
100
AcDbLine
 10
621.5327680022782
 20
207.8055592277331
 30
0.0
 11
621.5472575895062
 21
208.6356671240769
 31
0.0
  0
LINE
  5
1974
330
1803
100
AcDbEntity
  8
1
  6
Continuous
100
AcDbLine
 10
621.3278032267675
 20
207.3452008045811
 30
0.0
 11
621.5327680022782
 21
207.8055592277331
 31
0.0
  0
LINE
  5
1975
330
1803
100
AcDbEntity
  8
1
  6
Continuous
100
AcDbLine
 10
621.3278032267676
 20
207.3452008045812
 30
0.0
 11
620.8674448036165
 21
207.1402360290711
 31
0.0
  0
LINE
  5
1976
330
1803
100
AcDbEntity
  8
1
  6
Continuous
100
AcDbLine
 10
631.1927560601148
 20
197.9802036004428
 30
0.0
 11
631.1927560601148
 21
192.4802479714658
 31
0.0
  0
ARC
  5
1977
330
1803
100
AcDbEntity
  8
1
  6
Continuous
100
AcDbCircle
 10
622.1927560601149
 20
206.4802479712338
 30
0.0
 40
2.25
100
AcDbArc
 50
253.3282509640145
 51
286.6717490359852
  0
LINE
  5
1978
330
1803
100
AcDbEntity
  8
1
  6
Continuous
100
AcDbLine
 10
621.3278032267676
 20
205.6152951378868
 30
0.0
 11
620.8674448036157
 21
205.8202599133972
 31
0.0
  0
LINE
  5
1979
330
1803
100
AcDbEntity
  8
1
  6
Continuous
100
AcDbLine
 10
621.3278032267676
 20
205.6152951378868
 30
0.0
 11
621.5327680022777
 21
205.1549367147354
 31
0.0
  0
LINE
  5
197A
330
1803
100
AcDbEntity
  8
1
  6
Continuous
100
AcDbLine
 10
621.5327680022777
 20
205.1549367147354
 30
0.0
 11
621.5472575895061
 21
204.3248288183909
 31
0.0
  0
LINE
  5
197B
330
1803
100
AcDbEntity
  8
1
  6
Continuous
100
AcDbLine
 10
623.5180673166135
 20
205.8202599133971
 30
0.0
 11
624.3481752129578
 21
205.8347495006251
 31
0.0
  0
LINE
  5
197C
330
1803
100
AcDbEntity
  8
1
  6
Continuous
100
AcDbLine
 10
622.8527441179519
 20
205.1549367147356
 30
0.0
 11
622.8382545307237
 21
204.324828818391
 31
0.0
  0
LINE
  5
197D
330
1803
100
AcDbEntity
  8
1
  6
Continuous
100
AcDbLine
 10
623.0577088934621
 20
205.6152951378868
 30
0.0
 11
623.5180673166138
 21
205.8202599133971
 31
0.0
  0
LINE
  5
197E
330
1803
100
AcDbEntity
  8
1
  6
Continuous
100
AcDbLine
 10
623.0577088934618
 20
205.6152951378868
 30
0.0
 11
622.8527441179519
 21
205.1549367147354
 31
0.0
  0
ARC
  5
197F
330
1803
100
AcDbEntity
  8
1
  6
Continuous
100
AcDbCircle
 10
629.5564379903265
 20
189.4973544848267
 30
0.0
 40
7.0
100
AcDbArc
 50
272.9983062932896
 51
356.7102982565862
  0
ARC
  5
1980
330
1803
100
AcDbEntity
  8
1
  6
Continuous
100
AcDbCircle
 10
1543.192756060266
 20
246.480247971308
 30
0.0
 40
1000.0
100
AcDbArc
 50
182.2924453202484
 51
183.2897017434115
  0
LINE
  5
1981
330
1803
100
AcDbEntity
  8
1
  6
Continuous
100
AcDbLine
 10
595.7586679921612
 20
197.9802036004315
 30
0.0
 11
595.7586679921579
 21
189.4802479715845
 31
0.0
  0
LINE
  5
1982
330
1803
100
AcDbEntity
  8
1
  6
Continuous
100
AcDbLine
 10
597.7586679921612
 20
197.980203600432
 30
0.0
 11
597.7586679921579
 21
189.4802479715836
 31
0.0
  0
LINE
  5
1983
330
1803
100
AcDbEntity
  8
1
  6
Continuous
100
AcDbLine
 10
611.9586679921613
 20
197.9802036004364
 30
0.0
 11
611.9586679921576
 21
189.4802479715836
 31
0.0
  0
LINE
  5
1984
330
1803
100
AcDbEntity
  8
1
  6
Continuous
100
AcDbLine
 10
613.9586679921612
 20
197.9802036004372
 30
0.0
 11
613.9586679921579
 21
189.4802479715828
 31
0.0
  0
ARC
  5
1985
330
1803
100
AcDbEntity
  8
1
  6
Continuous
100
AcDbCircle
 10
561.3653781570357
 20
198.4802479716756
 30
0.0
 40
9.0
100
AcDbArc
 50
182.7988723399301
 51
270.0
  0
LINE
  5
1986
330
1803
100
AcDbEntity
  8
1
  6
Continuous
100
AcDbLine
 10
548.1927560598543
 20
206.4802036005651
 30
0.0
 11
548.1927560598543
 21
286.4802036005651
 31
0.0
  0
LINE
  5
1987
330
1803
100
AcDbEntity
  8
1
  6
Continuous
100
AcDbLine
 10
562.1927560598614
 20
208.4802036005632
 30
0.0
 11
562.1927560598614
 21
284.480203600563
 31
0.0
  0
LINE
  5
1988
330
1803
100
AcDbEntity
  8
1
  6
Continuous
100
AcDbLine
 10
540.6927560598545
 20
208.4802036005632
 30
0.0
 11
540.6927560598545
 21
284.480203600563
 31
0.0
  0
LINE
  5
1989
330
1803
100
AcDbEntity
  8
1
  6
Continuous
100
AcDbLine
 10
595.7586679921612
 20
294.9802479708239
 30
0.0
 11
597.7586679921612
 21
294.9802479708257
 31
0.0
  0
LINE
  5
198A
330
1803
100
AcDbEntity
  8
1
  6
Continuous
100
AcDbLine
 10
613.9586679921612
 20
294.9802036004948
 30
0.0
 11
613.9586679921579
 21
303.4802479708848
 31
0.0
  0
LINE
  5
198B
330
1803
100
AcDbEntity
  8
1
  6
Continuous
100
AcDbLine
 10
611.9586679921613
 20
294.9802036004968
 30
0.0
 11
611.9586679921576
 21
303.480247970884
 31
0.0
  0
LINE
  5
198C
330
1803
100
AcDbEntity
  8
1
  6
Continuous
100
AcDbLine
 10
611.9586679921613
 20
294.9802479708369
 30
0.0
 11
613.9586679921612
 21
294.9802479708385
 31
0.0
  0
LINE
  5
198D
330
1803
100
AcDbEntity
  8
1
  6
Continuous
100
AcDbLine
 10
597.7586679921612
 20
294.9802036005122
 30
0.0
 11
597.7586679921579
 21
303.4802479708843
 31
0.0
  0
LINE
  5
198E
330
1803
100
AcDbEntity
  8
1
  6
Continuous
100
AcDbLine
 10
595.7586679921612
 20
294.9802036005142
 30
0.0
 11
595.7586679921579
 21
303.4802479708835
 31
0.0
  0
ARC
  5
198F
330
1803
100
AcDbEntity
  8
1
  6
Continuous
100
AcDbCircle
 10
622.1927560601149
 20
286.4802479712336
 30
0.0
 40
2.25
100
AcDbArc
 50
163.328250964004
 51
196.671749035975
  0
LINE
  5
1990
330
1803
100
AcDbEntity
  8
4
  6
CENTER
100
AcDbLine
 10
582.1927560603865
 20
264.3858036002823
 30
0.0
 11
582.1927560603865
 21
272.8858036002823
 31
0.0
  0
LINE
  5
1991
330
1803
100
AcDbEntity
  8
4
  6
CENTER
100
AcDbLine
 10
577.9427560603867
 20
268.6358036002823
 30
0.0
 11
586.4427560603867
 21
268.6358036002823
 31
0.0
  0
CIRCLE
  5
1992
330
1803
100
AcDbEntity
  8
1
  6
Continuous
100
AcDbCircle
 10
582.1927560603865
 20
268.6358923421857
 30
0.0
 40
2.399999999999999
  0
CIRCLE
  5
1993
330
1803
100
AcDbEntity
  8
1
  6
Continuous
100
AcDbCircle
 10
582.1927560603865
 20
268.6358923421857
 30
0.0
 40
3.0
  0
CIRCLE
  5
1994
330
1803
100
AcDbEntity
  8
1
  6
Continuous
100
AcDbCircle
 10
582.1927560603865
 20
268.6358036002823
 30
0.0
 40
2.5
  0
LINE
  5
1995
330
1803
100
AcDbEntity
  8
1
  6
Continuous
100
AcDbLine
 10
562.8527441179516
 20
287.8055592277323
 30
0.0
 11
562.8382545307236
 21
288.6356671240768
 31
0.0
  0
LINE
  5
1996
330
1803
100
AcDbEntity
  8
1
  6
Continuous
100
AcDbLine
 10
561.5327680022783
 20
287.8055592277332
 30
0.0
 11
561.5472575895063
 21
288.6356671240771
 31
0.0
  0
ARC
  5
1997
330
1803
100
AcDbEntity
  8
1
  6
Continuous
100
AcDbCircle
 10
562.1927560601148
 20
286.4802479712336
 30
0.0
 40
4.0
100
AcDbArc
 50
270.0
 51
180.0
  0
ARC
  5
1998
330
1803
100
AcDbEntity
  8
1
  6
Continuous
100
AcDbCircle
 10
1543.192756060266
 20
246.480247971308
 30
0.0
 40
1000.0
100
AcDbArc
 50
176.7102982565905
 51
177.7075597683366
  0
LINE
  5
1999
330
1803
100
AcDbEntity
  8
4
  6
CENTER
100
AcDbLine
 10
562.1927560601148
 20
279.980247971234
 30
0.0
 11
562.1927560601148
 21
292.980247971234
 31
0.0
  0
LINE
  5
199A
330
1803
100
AcDbEntity
  8
1
  6
Continuous
100
AcDbLine
 10
551.6927560601478
 20
286.4802036005631
 30
0.0
 11
551.6927560601478
 21
291.9802036005583
 31
0.0
  0
ARC
  5
199B
330
1803
100
AcDbEntity
  8
1
  6
Continuous
100
AcDbCircle
 10
562.1927560598614
 20
286.4802036004468
 30
0.0
 40
4.299999999999998
100
AcDbArc
 50
270.0
 51
180.0
  0
ARC
  5
199C
330
1803
100
AcDbEntity
  8
1
  6
Continuous
100
AcDbCircle
 10
561.3653781570327
 20
294.4802479708842
 30
0.0
 40
9.0
100
AcDbArc
 50
90.0
 51
177.201127660073
  0
ARC
  5
199D
330
1803
100
AcDbEntity
  8
1
  6
Continuous
100
AcDbCircle
 10
551.8290741302013
 20
303.4631414575635
 30
0.0
 40
7.0
100
AcDbArc
 50
92.99830629340403
 51
176.7102982565907
  0
ARC
  5
199E
330
1803
100
AcDbEntity
  8
1
  6
Continuous
100
AcDbCircle
 10
562.1927560601148
 20
286.4802479712336
 30
0.0
 40
2.25
100
AcDbArc
 50
73.32825096400779
 51
106.6717490359734
  0
ARC
  5
199F
330
1803
100
AcDbEntity
  8
1
  6
Continuous
100
AcDbCircle
 10
1543.192756060266
 20
246.480247971308
 30
0.0
 40
992.0000000001511
100
AcDbArc
 50
177.201127660073
 51
177.2647321404391
  0
ARC
  5
19A0
330
1803
100
AcDbEntity
  8
1
  6
Continuous
100
AcDbCircle
 10
554.692756060148
 20
291.9802036005583
 30
0.0
 40
3.0
100
AcDbArc
 50
90.0
 51
180.0
  0
LINE
  5
19A1
330
1803
100
AcDbEntity
  8
1
  6
Continuous
100
AcDbLine
 10
560.1927560598616
 20
286.4802036005631
 30
0.0
 11
542.6927560598548
 21
286.4802036005631
 31
0.0
  0
LINE
  5
19A2
330
1803
100
AcDbEntity
  8
4
  6
CENTER
100
AcDbLine
 10
549.6927560598614
 20
276.4802036005634
 30
0.0
 11
562.6927560598613
 21
276.4802036005634
 31
0.0
  0
CIRCLE
  5
19A3
330
1803
100
AcDbEntity
  8
1
  6
Continuous
100
AcDbCircle
 10
556.1927560598616
 20
276.4802036005634
 30
0.0
 40
5.0
  0
LINE
  5
19A4
330
1803
100
AcDbEntity
  8
4
  6
CENTER
100
AcDbLine
 10
556.1927560598616
 20
269.9802036005634
 30
0.0
 11
556.1927560598616
 21
282.9802036005634
 31
0.0
  0
ARC
  5
19A5
330
1803
100
AcDbEntity
  8
1
  6
Continuous
100
AcDbCircle
 10
562.1927560601148
 20
286.4802479712336
 30
0.0
 40
2.25
100
AcDbArc
 50
270.0
 51
286.6717490359852
  0
LINE
  5
19A6
330
1803
100
AcDbEntity
  8
4
  6
CENTER
100
AcDbLine
 10
555.6927560601149
 20
286.480247971234
 30
0.0
 11
568.6927560601149
 21
286.480247971234
 31
0.0
  0
ARC
  5
19A7
330
1803
100
AcDbEntity
  8
1
  6
Continuous
100
AcDbCircle
 10
562.1927560601148
 20
286.4802479712336
 30
0.0
 40
2.25
100
AcDbArc
 50
343.3282509640185
 51
16.67174903597646
  0
LINE
  5
19A8
330
1803
100
AcDbEntity
  8
1
  6
Continuous
100
AcDbLine
 10
563.5180673166138
 20
287.1402360290705
 30
0.0
 11
564.3481752129578
 21
287.1257464418425
 31
0.0
  0
LINE
  5
19A9
330
1803
100
AcDbEntity
  8
1
  6
Continuous
100
AcDbLine
 10
563.0577088934622
 20
287.3452008045811
 30
0.0
 11
563.5180673166138
 21
287.1402360290705
 31
0.0
  0
LINE
  5
19AA
330
1803
100
AcDbEntity
  8
1
  6
Continuous
100
AcDbLine
 10
563.0577088934622
 20
287.3452008045811
 30
0.0
 11
562.8527441179519
 21
287.8055592277323
 31
0.0
  0
LINE
  5
19AB
330
1803
100
AcDbEntity
  8
1
  6
Continuous
100
AcDbLine
 10
563.5180673166136
 20
285.8202599133972
 30
0.0
 11
564.3481752129578
 21
285.8347495006252
 31
0.0
  0
LINE
  5
19AC
330
1803
100
AcDbEntity
  8
1
  6
Continuous
100
AcDbLine
 10
562.8527441179519
 20
285.1549367147356
 30
0.0
 11
562.8382545307236
 21
284.3248288183911
 31
0.0
  0
LINE
  5
19AD
330
1803
100
AcDbEntity
  8
1
  6
Continuous
100
AcDbLine
 10
563.0577088934622
 20
285.6152951378866
 30
0.0
 11
563.5180673166138
 21
285.8202599133972
 31
0.0
  0
LINE
  5
19AE
330
1803
100
AcDbEntity
  8
1
  6
Continuous
100
AcDbLine
 10
563.0577088934622
 20
285.6152951378866
 30
0.0
 11
562.8527441179519
 21
285.1549367147356
 31
0.0
  0
CIRCLE
  5
19AF
330
1803
100
AcDbEntity
  8
1
  6
Continuous
100
AcDbCircle
 10
556.1927560598616
 20
276.4802036005634
 30
0.0
 40
3.799999999999998
  0
CIRCLE
  5
19B0
330
1803
100
AcDbEntity
  8
1
  6
Continuous
100
AcDbCircle
 10
556.1927560598616
 20
276.4802036005634
 30
0.0
 40
3.5
  0
ARC
  5
19B1
330
1803
100
AcDbEntity
  8
1
  6
Continuous
100
AcDbCircle
 10
560.1927560598616
 20
284.480203600563
 30
0.0
 40
2.0
100
AcDbArc
 50
0.0
 51
90.0
  0
ARC
  5
19B2
330
1803
100
AcDbEntity
  8
1
  6
Continuous
100
AcDbCircle
 10
562.1927560601148
 20
286.4802479712336
 30
0.0
 40
2.25
100
AcDbArc
 50
163.328250964004
 51
180.0
  0
LINE
  5
19B3
330
1803
100
AcDbEntity
  8
1
  6
Continuous
100
AcDbLine
 10
561.3278032267676
 20
287.3452008045811
 30
0.0
 11
561.5327680022783
 21
287.805559227733
 31
0.0
  0
LINE
  5
19B4
330
1803
100
AcDbEntity
  8
1
  6
Continuous
100
AcDbLine
 10
561.3278032267676
 20
287.3452008045814
 30
0.0
 11
560.8674448036165
 21
287.1402360290708
 31
0.0
  0
LINE
  5
19B5
330
1803
100
AcDbEntity
  8
1
  6
Continuous
100
AcDbLine
 10
560.8674448036165
 20
287.1402360290708
 30
0.0
 11
560.037336907272
 21
287.1257464418428
 31
0.0
  0
LINE
  5
19B6
330
1803
100
AcDbEntity
  8
1
  6
Continuous
100
AcDbLine
 10
557.0000453709856
 20
277.2874929116873
 30
0.0
 11
556.8087449138427
 21
277.7171607732952
 31
0.0
  0
LINE
  5
19B7
330
1803
100
AcDbEntity
  8
1
  6
Continuous
100
AcDbLine
 10
557.0000453709856
 20
275.6729142894394
 30
0.0
 11
556.8087449138428
 21
275.2432464278316
 31
0.0
  0
ARC
  5
19B8
330
1803
100
AcDbEntity
  8
1
  6
Continuous
100
AcDbCircle
 10
556.1927560598616
 20
276.4802036005634
 30
0.0
 40
2.1
100
AcDbArc
 50
343.3282509640185
 51
16.67174903597646
  0
LINE
  5
19B9
330
1803
100
AcDbEntity
  8
1
  6
Continuous
100
AcDbLine
 10
557.4297132325939
 20
277.0961924545442
 30
0.0
 11
558.2044806025151
 21
277.0826688397983
 31
0.0
  0
LINE
  5
19BA
330
1803
100
AcDbEntity
  8
1
  6
Continuous
100
AcDbLine
 10
557.0000453709856
 20
277.2874929116873
 30
0.0
 11
557.4297132325939
 21
277.0961924545442
 31
0.0
  0
LINE
  5
19BB
330
1803
100
AcDbEntity
  8
1
  6
Continuous
100
AcDbLine
 10
557.4297132325939
 20
275.8642147465826
 30
0.0
 11
558.2044806025151
 21
275.8777383613286
 31
0.0
  0
LINE
  5
19BC
330
1803
100
AcDbEntity
  8
1
  6
Continuous
100
AcDbLine
 10
557.0000453709856
 20
275.6729142894394
 30
0.0
 11
557.4297132325939
 21
275.8642147465826
 31
0.0
  0
ARC
  5
19BD
330
1803
100
AcDbEntity
  8
1
  6
Continuous
100
AcDbCircle
 10
556.1927560598616
 20
276.4802036005634
 30
0.0
 40
2.1
100
AcDbArc
 50
253.3282509640145
 51
286.6717490359852
  0
ARC
  5
19BE
330
1803
100
AcDbEntity
  8
1
  6
Continuous
100
AcDbCircle
 10
556.1927560598616
 20
276.4802036005634
 30
0.0
 40
2.1
100
AcDbArc
 50
73.32825096400779
 51
106.6717490359734
  0
ARC
  5
19BF
330
1803
100
AcDbEntity
  8
1
  6
Continuous
100
AcDbCircle
 10
556.1927560598616
 20
276.4802036005634
 30
0.0
 40
2.1
100
AcDbArc
 50
163.328250964004
 51
196.671749035975
  0
LINE
  5
19C0
330
1803
100
AcDbEntity
  8
1
  6
Continuous
100
AcDbLine
 10
556.8087449138428
 20
277.7171607732952
 30
0.0
 11
556.7952212990965
 21
278.4919281432168
 31
0.0
  0
LINE
  5
19C1
330
1803
100
AcDbEntity
  8
1
  6
Continuous
100
AcDbLine
 10
555.5767672058808
 20
277.7171607732958
 30
0.0
 11
555.5902908206269
 21
278.4919281432168
 31
0.0
  0
LINE
  5
19C2
330
1803
100
AcDbEntity
  8
1
  6
Continuous
100
AcDbLine
 10
555.3854667487374
 20
277.2874929116873
 30
0.0
 11
555.5767672058808
 21
277.7171607732958
 31
0.0
  0
LINE
  5
19C3
330
1803
100
AcDbEntity
  8
1
  6
Continuous
100
AcDbLine
 10
555.3854667487374
 20
277.2874929116873
 30
0.0
 11
554.9557988871296
 21
277.0961924545445
 31
0.0
  0
LINE
  5
19C4
330
1803
100
AcDbEntity
  8
1
  6
Continuous
100
AcDbLine
 10
554.9557988871296
 20
277.0961924545445
 30
0.0
 11
554.1810315172077
 21
277.0826688397983
 31
0.0
  0
LINE
  5
19C5
330
1803
100
AcDbEntity
  8
1
  6
Continuous
100
AcDbLine
 10
554.9557988871289
 20
275.8642147465826
 30
0.0
 11
554.1810315172082
 21
275.8777383613286
 31
0.0
  0
LINE
  5
19C6
330
1803
100
AcDbEntity
  8
1
  6
Continuous
100
AcDbLine
 10
555.3854667487374
 20
275.672914289439
 30
0.0
 11
554.9557988871289
 21
275.8642147465826
 31
0.0
  0
LINE
  5
19C7
330
1803
100
AcDbEntity
  8
1
  6
Continuous
100
AcDbLine
 10
555.3854667487374
 20
275.672914289439
 30
0.0
 11
555.5767672058799
 21
275.2432464278314
 31
0.0
  0
LINE
  5
19C8
330
1803
100
AcDbEntity
  8
1
  6
Continuous
100
AcDbLine
 10
555.5767672058799
 20
275.2432464278316
 30
0.0
 11
555.5902908206262
 21
274.46847905791
 31
0.0
  0
LINE
  5
19C9
330
1803
100
AcDbEntity
  8
1
  6
Continuous
100
AcDbLine
 10
556.8087449138428
 20
275.2432464278316
 30
0.0
 11
556.7952212990965
 21
274.46847905791
 31
0.0
  0
ARC
  5
19CA
330
1803
100
AcDbEntity
  8
1
  6
Continuous
100
AcDbCircle
 10
542.6927560598548
 20
284.480203600563
 30
0.0
 40
2.0
100
AcDbArc
 50
90.0
 51
180.0
  0
CIRCLE
  5
19CB
330
1803
100
AcDbEntity
  8
1
  6
Continuous
100
AcDbCircle
 10
582.1927560603865
 20
224.3246036002819
 30
0.0
 40
2.399999999999999
  0
CIRCLE
  5
19CC
330
1803
100
AcDbEntity
  8
1
  6
Continuous
100
AcDbCircle
 10
582.1927560603865
 20
224.3246036002819
 30
0.0
 40
3.0
  0
CIRCLE
  5
19CD
330
1803
100
AcDbEntity
  8
1
  6
Continuous
100
AcDbCircle
 10
582.1927560603865
 20
224.3246036002819
 30
0.0
 40
2.5
  0
LINE
  5
19CE
330
1803
100
AcDbEntity
  8
4
  6
CENTER
100
AcDbLine
 10
582.1927560603865
 20
220.0746036002819
 30
0.0
 11
582.1927560603865
 21
228.5746036002819
 31
0.0
  0
LINE
  5
19CF
330
1803
100
AcDbEntity
  8
1
  6
Continuous
100
AcDbLine
 10
609.6927560598253
 20
243.4802036005736
 30
0.0
 11
593.6927560598253
 21
243.4802036005736
 31
0.0
  0
LINE
  5
19D0
330
1803
100
AcDbEntity
  8
1
  6
Continuous
100
AcDbLine
 10
609.6927560598253
 20
249.4802036005736
 30
0.0
 11
593.6927560598253
 21
249.4802036005736
 31
0.0
  0
CIRCLE
  5
19D1
330
1803
100
AcDbEntity
  8
1
  6
Continuous
100
AcDbCircle
 10
607.9677677140636
 20
246.4802036005858
 30
0.0
 40
2.1
  0
CIRCLE
  5
19D2
330
1803
100
AcDbEntity
  8
1
  6
Continuous
100
AcDbCircle
 10
607.9677677140636
 20
246.4802036005858
 30
0.0
 40
2.0
  0
CIRCLE
  5
19D3
330
1803
100
AcDbEntity
  8
1
  6
Continuous
100
AcDbCircle
 10
607.9677677140636
 20
246.4802036005858
 30
0.0
 40
1.620999999999999
  0
ARC
  5
19D4
330
1803
100
AcDbEntity
  8
1
  6
Continuous
100
AcDbCircle
 10
609.6927560598253
 20
246.4802036005734
 30
0.0
 40
3.0
100
AcDbArc
 50
270.0
 51
90.0
  0
LINE
  5
19D5
330
1803
100
AcDbEntity
  8
4
  6
CENTER
100
AcDbLine
 10
607.9677677140636
 20
242.6976777932064
 30
0.0
 11
607.9677677140636
 21
250.3478242055087
 31
0.0
  0
ARC
  5
19D6
330
1803
100
AcDbEntity
  8
1
  6
Continuous
100
AcDbCircle
 10
593.6927560598253
 20
246.480203600569
 30
0.0
 40
3.0
100
AcDbArc
 50
90.0
 51
270.0
  0
LINE
  5
19D7
330
1803
100
AcDbEntity
  8
4
  6
CENTER
100
AcDbLine
 10
577.9427560603862
 20
224.3246036002819
 30
0.0
 11
586.4427560603862
 21
224.3246036002819
 31
0.0
  0
LINE
  5
19D8
330
1803
100
AcDbEntity
  8
1
  6
Continuous
100
AcDbLine
 10
595.7586679921615
 20
197.9802479716436
 30
0.0
 11
597.7586679921614
 21
197.9802479716421
 31
0.0
  0
ARC
  5
19D9
330
1803
100
AcDbEntity
  8
1
  6
Continuous
100
AcDbCircle
 10
622.1927560601149
 20
206.4802479712338
 30
0.0
 40
2.25
100
AcDbArc
 50
163.328250964004
 51
196.671749035975
  0
LINE
  5
19DA
330
1803
100
AcDbEntity
  8
1
  6
Continuous
100
AcDbLine
 10
611.9586679921613
 20
197.980247971631
 30
0.0
 11
613.9586679921612
 21
197.9802479716294
 31
0.0
  0
LINE
  5
19DB
330
1803
100
AcDbEntity
  8
4
  6
CENTER
100
AcDbLine
 10
556.1927560598616
 20
209.9802036005633
 30
0.0
 11
556.1927560598616
 21
222.9802036005636
 31
0.0
  0
LINE
  5
19DC
330
1803
100
AcDbEntity
  8
1
  6
Continuous
100
AcDbLine
 10
560.1927560598616
 20
206.4802036005632
 30
0.0
 11
542.6927560598548
 21
206.4802036005632
 31
0.0
  0
LINE
  5
19DD
330
1803
100
AcDbEntity
  8
4
  6
CENTER
100
AcDbLine
 10
549.6927560598614
 20
216.4802036005635
 30
0.0
 11
562.6927560598613
 21
216.4802036005635
 31
0.0
  0
ARC
  5
19DE
330
1803
100
AcDbEntity
  8
1
  6
Continuous
100
AcDbCircle
 10
560.1927560598616
 20
208.4802036005632
 30
0.0
 40
2.0
100
AcDbArc
 50
270.0
 51
0.0
  0
ARC
  5
19DF
330
1803
100
AcDbEntity
  8
1
  6
Continuous
100
AcDbCircle
 10
562.1927560601148
 20
206.480247971234
 30
0.0
 40
2.25
100
AcDbArc
 50
343.3282509640185
 51
16.67174903597646
  0
ARC
  5
19E0
330
1803
100
AcDbEntity
  8
1
  6
Continuous
100
AcDbCircle
 10
562.1927560601148
 20
206.480247971234
 30
0.0
 40
2.25
100
AcDbArc
 50
180.0
 51
196.671749035975
  0
ARC
  5
19E1
330
1803
100
AcDbEntity
  8
1
  6
Continuous
100
AcDbCircle
 10
562.1927560601148
 20
206.480247971234
 30
0.0
 40
4.0
100
AcDbArc
 50
180.0
 51
90.0
  0
LINE
  5
19E2
330
1803
100
AcDbEntity
  8
4
  6
CENTER
100
AcDbLine
 10
562.1927560601148
 20
199.980247971234
 30
0.0
 11
562.1927560601148
 21
212.980247971234
 31
0.0
  0
LINE
  5
19E3
330
1803
100
AcDbEntity
  8
1
  6
Continuous
100
AcDbLine
 10
551.6927560601478
 20
200.9802036004181
 30
0.0
 11
551.6927560601478
 21
206.4802036005632
 31
0.0
  0
ARC
  5
19E4
330
1803
100
AcDbEntity
  8
1
  6
Continuous
100
AcDbCircle
 10
562.1927560598614
 20
206.4802036006796
 30
0.0
 40
4.299999999999998
100
AcDbArc
 50
180.0
 51
90.0
  0
ARC
  5
19E5
330
1803
100
AcDbEntity
  8
1
  6
Continuous
100
AcDbCircle
 10
562.1927560601148
 20
206.480247971234
 30
0.0
 40
2.25
100
AcDbArc
 50
73.32825096400779
 51
90.0
  0
LINE
  5
19E6
330
1803
100
AcDbEntity
  8
4
  6
CENTER
100
AcDbLine
 10
555.6927560601149
 20
206.480247971234
 30
0.0
 11
568.6927560601149
 21
206.480247971234
 31
0.0
  0
LINE
  5
19E7
330
1803
100
AcDbEntity
  8
1
  6
Continuous
100
AcDbLine
 10
563.5180673166138
 20
207.1402360290707
 30
0.0
 11
564.3481752129578
 21
207.1257464418425
 31
0.0
  0
LINE
  5
19E8
330
1803
100
AcDbEntity
  8
1
  6
Continuous
100
AcDbLine
 10
563.0577088934622
 20
207.3452008045811
 30
0.0
 11
563.5180673166138
 21
207.1402360290704
 31
0.0
  0
LINE
  5
19E9
330
1803
100
AcDbEntity
  8
1
  6
Continuous
100
AcDbLine
 10
563.0577088934618
 20
207.3452008045811
 30
0.0
 11
562.8527441179516
 21
207.8055592277322
 31
0.0
  0
LINE
  5
19EA
330
1803
100
AcDbEntity
  8
1
  6
Continuous
100
AcDbLine
 10
562.8527441179518
 20
207.8055592277322
 30
0.0
 11
562.8382545307236
 21
208.6356671240765
 31
0.0
  0
CIRCLE
  5
19EB
330
1803
100
AcDbEntity
  8
1
  6
Continuous
100
AcDbCircle
 10
556.1927560598616
 20
216.4802036005635
 30
0.0
 40
5.0
  0
CIRCLE
  5
19EC
330
1803
100
AcDbEntity
  8
1
  6
Continuous
100
AcDbCircle
 10
556.1927560598616
 20
216.4802036005635
 30
0.0
 40
3.799999999999998
  0
CIRCLE
  5
19ED
330
1803
100
AcDbEntity
  8
1
  6
Continuous
100
AcDbCircle
 10
556.1927560598616
 20
216.4802036005635
 30
0.0
 40
3.5
  0
LINE
  5
19EE
330
1803
100
AcDbEntity
  8
1
  6
Continuous
100
AcDbLine
 10
557.0000453709857
 20
217.2874929116876
 30
0.0
 11
556.8087449138427
 21
217.7171607732951
 31
0.0
  0
LINE
  5
19EF
330
1803
100
AcDbEntity
  8
1
  6
Continuous
100
AcDbLine
 10
557.0000453709856
 20
215.6729142894393
 30
0.0
 11
556.8087449138428
 21
215.2432464278316
 31
0.0
  0
ARC
  5
19F0
330
1803
100
AcDbEntity
  8
1
  6
Continuous
100
AcDbCircle
 10
556.1927560598616
 20
216.4802036005635
 30
0.0
 40
2.1
100
AcDbArc
 50
343.3282509640185
 51
16.67174903597646
  0
LINE
  5
19F1
330
1803
100
AcDbEntity
  8
1
  6
Continuous
100
AcDbLine
 10
557.4297132325939
 20
217.0961924545444
 30
0.0
 11
558.2044806025152
 21
217.0826688397982
 31
0.0
  0
LINE
  5
19F2
330
1803
100
AcDbEntity
  8
1
  6
Continuous
100
AcDbLine
 10
557.0000453709856
 20
217.2874929116876
 30
0.0
 11
557.4297132325939
 21
217.0961924545444
 31
0.0
  0
LINE
  5
19F3
330
1803
100
AcDbEntity
  8
1
  6
Continuous
100
AcDbLine
 10
557.4297132325939
 20
215.8642147465826
 30
0.0
 11
558.2044806025151
 21
215.8777383613288
 31
0.0
  0
LINE
  5
19F4
330
1803
100
AcDbEntity
  8
1
  6
Continuous
100
AcDbLine
 10
557.0000453709853
 20
215.6729142894393
 30
0.0
 11
557.4297132325938
 21
215.8642147465826
 31
0.0
  0
ARC
  5
19F5
330
1803
100
AcDbEntity
  8
1
  6
Continuous
100
AcDbCircle
 10
556.1927560598616
 20
216.4802036005635
 30
0.0
 40
2.1
100
AcDbArc
 50
253.3282509640145
 51
286.6717490359852
  0
ARC
  5
19F6
330
1803
100
AcDbEntity
  8
1
  6
Continuous
100
AcDbCircle
 10
556.1927560598616
 20
216.4802036005635
 30
0.0
 40
2.1
100
AcDbArc
 50
73.32825096400779
 51
106.6717490359734
  0
ARC
  5
19F7
330
1803
100
AcDbEntity
  8
1
  6
Continuous
100
AcDbCircle
 10
556.1927560598616
 20
216.4802036005635
 30
0.0
 40
2.1
100
AcDbArc
 50
163.328250964004
 51
196.671749035975
  0
LINE
  5
19F8
330
1803
100
AcDbEntity
  8
1
  6
Continuous
100
AcDbLine
 10
556.8087449138427
 20
217.7171607732951
 30
0.0
 11
556.7952212990964
 21
218.4919281432168
 31
0.0
  0
LINE
  5
19F9
330
1803
100
AcDbEntity
  8
1
  6
Continuous
100
AcDbLine
 10
555.5767672058808
 20
217.7171607732958
 30
0.0
 11
555.5902908206269
 21
218.4919281432168
 31
0.0
  0
LINE
  5
19FA
330
1803
100
AcDbEntity
  8
1
  6
Continuous
100
AcDbLine
 10
555.3854667487374
 20
217.2874929116876
 30
0.0
 11
555.5767672058808
 21
217.7171607732958
 31
0.0
  0
LINE
  5
19FB
330
1803
100
AcDbEntity
  8
1
  6
Continuous
100
AcDbLine
 10
555.3854667487374
 20
217.2874929116876
 30
0.0
 11
554.9557988871296
 21
217.0961924545448
 31
0.0
  0
LINE
  5
19FC
330
1803
100
AcDbEntity
  8
1
  6
Continuous
100
AcDbLine
 10
554.9557988871296
 20
217.0961924545444
 30
0.0
 11
554.1810315172077
 21
217.0826688397982
 31
0.0
  0
LINE
  5
19FD
330
1803
100
AcDbEntity
  8
1
  6
Continuous
100
AcDbLine
 10
554.9557988871289
 20
215.8642147465827
 30
0.0
 11
554.1810315172082
 21
215.8777383613288
 31
0.0
  0
LINE
  5
19FE
330
1803
100
AcDbEntity
  8
1
  6
Continuous
100
AcDbLine
 10
555.3854667487374
 20
215.6729142894393
 30
0.0
 11
554.9557988871289
 21
215.8642147465827
 31
0.0
  0
LINE
  5
19FF
330
1803
100
AcDbEntity
  8
1
  6
Continuous
100
AcDbLine
 10
555.3854667487374
 20
215.6729142894393
 30
0.0
 11
555.5767672058805
 21
215.2432464278316
 31
0.0
  0
LINE
  5
1A00
330
1803
100
AcDbEntity
  8
1
  6
Continuous
100
AcDbLine
 10
555.5767672058799
 20
215.2432464278316
 30
0.0
 11
555.5902908206267
 21
214.4684790579101
 31
0.0
  0
LINE
  5
1A01
330
1803
100
AcDbEntity
  8
1
  6
Continuous
100
AcDbLine
 10
556.8087449138428
 20
215.2432464278316
 30
0.0
 11
556.7952212990965
 21
214.4684790579101
 31
0.0
  0
ARC
  5
1A02
330
1803
100
AcDbEntity
  8
1
  6
Continuous
100
AcDbCircle
 10
562.1927560601148
 20
206.480247971234
 30
0.0
 40
2.25
100
AcDbArc
 50
253.3282509640145
 51
286.6717490359852
  0
LINE
  5
1A03
330
1803
100
AcDbEntity
  8
1
  6
Continuous
100
AcDbLine
 10
563.5180673166136
 20
205.8202599133971
 30
0.0
 11
564.3481752129575
 21
205.8347495006251
 31
0.0
  0
LINE
  5
1A04
330
1803
100
AcDbEntity
  8
1
  6
Continuous
100
AcDbLine
 10
562.8527441179518
 20
205.1549367147356
 30
0.0
 11
562.8382545307236
 21
204.324828818391
 31
0.0
  0
LINE
  5
1A05
330
1803
100
AcDbEntity
  8
1
  6
Continuous
100
AcDbLine
 10
563.0577088934622
 20
205.6152951378868
 30
0.0
 11
563.5180673166138
 21
205.8202599133971
 31
0.0
  0
LINE
  5
1A06
330
1803
100
AcDbEntity
  8
1
  6
Continuous
100
AcDbLine
 10
563.0577088934622
 20
205.6152951378865
 30
0.0
 11
562.8527441179518
 21
205.1549367147356
 31
0.0
  0
ARC
  5
1A07
330
1803
100
AcDbEntity
  8
1
  6
Continuous
100
AcDbCircle
 10
554.692756060148
 20
200.9802036004181
 30
0.0
 40
3.0
100
AcDbArc
 50
180.0
 51
270.0
  0
LINE
  5
1A08
330
1803
100
AcDbEntity
  8
1
  6
Continuous
100
AcDbLine
 10
560.8674448036158
 20
205.8202599133971
 30
0.0
 11
560.037336907272
 21
205.8347495006251
 31
0.0
  0
LINE
  5
1A09
330
1803
100
AcDbEntity
  8
1
  6
Continuous
100
AcDbLine
 10
561.3278032267676
 20
205.6152951378868
 30
0.0
 11
560.8674448036158
 21
205.8202599133972
 31
0.0
  0
LINE
  5
1A0A
330
1803
100
AcDbEntity
  8
1
  6
Continuous
100
AcDbLine
 10
561.3278032267676
 20
205.6152951378868
 30
0.0
 11
561.532768002278
 21
205.1549367147354
 31
0.0
  0
LINE
  5
1A0B
330
1803
100
AcDbEntity
  8
1
  6
Continuous
100
AcDbLine
 10
561.532768002278
 20
205.1549367147354
 30
0.0
 11
561.547257589506
 21
204.3248288183909
 31
0.0
  0
ARC
  5
1A0C
330
1803
100
AcDbEntity
  8
1
  6
Continuous
100
AcDbCircle
 10
1543.192756060266
 20
246.480247971308
 30
0.0
 40
992.0000000001511
100
AcDbArc
 50
182.7352733274619
 51
182.7988723399301
  0
ARC
  5
1A0D
330
1803
100
AcDbEntity
  8
1
  6
Continuous
100
AcDbCircle
 10
542.6927560598548
 20
208.4802036005632
 30
0.0
 40
2.0
100
AcDbArc
 50
180.0
 51
270.0
  0
ARC
  5
1A0E
330
1803
100
AcDbEntity
  8
1
  6
Continuous
100
AcDbCircle
 10
551.8290741302031
 20
189.4973544850165
 30
0.0
 40
7.0
100
AcDbArc
 50
183.2897017434113
 51
267.0016937064302
  0
LINE
  5
1A0F
330
1803
100
AcDbEntity
  8
1
  6
Continuous
100
AcDbLine
 10
389.4834348888429
 20
192.480203600533
 30
0.0
 11
389.4834348888429
 21
300.480203600533
 31
0.0
  0
LINE
  5
1A10
330
1803
100
AcDbEntity
  8
1
  6
Continuous
100
AcDbLine
 10
385.4490298391256
 20
194.4802036008168
 30
0.0
 11
385.4490298391747
 21
298.4802036002672
 31
0.0
  0
LINE
  5
1A11
330
1803
100
AcDbEntity
  8
1
  6
Continuous
100
AcDbLine
 10
395.9490298392476
 20
181.4802036008829
 30
0.0
 11
395.9490298392476
 21
311.4802036001834
 31
0.0
  0
LINE
  5
1A12
330
1803
100
AcDbEntity
  8
4
  6
CENTER
100
AcDbLine
 10
399.6490298391961
 20
311.7464193647991
 30
0.0
 11
399.6490298391961
 21
185.7130878333078
 31
0.0
  0
LINE
  5
1A13
330
1803
100
AcDbEntity
  8
1
  6
Continuous
100
AcDbLine
 10
396.9490298392475
 20
181.4802036008829
 30
0.0
 11
396.9490298392475
 21
311.4802036001834
 31
0.0
  0
LINE
  5
1A14
330
1803
100
AcDbEntity
  8
1
  6
Continuous
100
AcDbLine
 10
420.9490298392528
 20
294.9802036001083
 30
0.0
 11
420.9490298392528
 21
286.4802036005588
 31
0.0
  0
LINE
  5
1A15
330
1803
100
AcDbEntity
  8
1
  6
Continuous
100
AcDbLine
 10
396.9490298392475
 20
189.4802036008875
 30
0.0
 11
415.9490298392474
 21
189.4802036008897
 31
0.0
  0
LINE
  5
1A16
330
1803
100
AcDbEntity
  8
1
  6
Continuous
100
AcDbLine
 10
415.9490298392474
 20
197.9802036005614
 30
0.0
 11
420.9490298390785
 21
197.9802036005741
 31
0.0
  0
LINE
  5
1A17
330
1803
100
AcDbEntity
  8
1
  6
Continuous
100
AcDbLine
 10
415.9490298392474
 20
189.4802036009068
 30
0.0
 11
415.9490298392474
 21
206.4802036005616
 31
0.0
  0
LINE
  5
1A18
330
1803
100
AcDbEntity
  8
4
  6
CENTER
100
AcDbLine
 10
423.2496741343489
 20
224.324559229581
 30
0.0
 11
406.6950569903367
 21
224.324559229581
 31
0.0
  0
LINE
  5
1A19
330
1803
100
AcDbEntity
  8
4
  6
CENTER
100
AcDbLine
 10
406.9490298392527
 20
212.980203600322
 30
0.0
 11
414.9490298392526
 21
212.980203600322
 31
0.0
  0
LINE
  5
1A1A
330
1803
100
AcDbEntity
  8
4
  6
CENTER
100
AcDbLine
 10
410.9490298392527
 20
216.980203600322
 30
0.0
 11
410.9490298392527
 21
208.980203600322
 31
0.0
  0
LINE
  5
1A1B
330
1803
100
AcDbEntity
  8
1
  6
Continuous
100
AcDbLine
 10
385.4490298392476
 20
185.2802036008825
 30
0.0
 11
385.4490298392476
 21
191.980203600533
 31
0.0
  0
LINE
  5
1A1C
330
1803
100
AcDbEntity
  8
1
  6
Continuous
100
AcDbLine
 10
395.9490298392476
 20
181.4802036008829
 30
0.0
 11
389.2490298392477
 21
181.4802036008825
 31
0.0
  0
LINE
  5
1A1D
330
1803
100
AcDbEntity
  8
1
  6
Continuous
100
AcDbLine
 10
396.9490298392475
 20
181.4802036008829
 30
0.0
 11
395.9490298392476
 21
181.4802036008829
 31
0.0
  0
ARC
  5
1A1E
330
1803
100
AcDbEntity
  8
1
  6
Continuous
100
AcDbCircle
 10
389.2490298392477
 20
185.2802036008825
 30
0.0
 40
3.799999999999998
100
AcDbArc
 50
180.0
 51
270.0
  0
LINE
  5
1A1F
330
1803
100
AcDbEntity
  8
1
  6
Continuous
100
AcDbLine
 10
385.9490298392476
 20
192.480203600533
 30
0.0
 11
389.4834348888429
 21
192.480203600533
 31
0.0
  0
LINE
  5
1A20
330
1803
100
AcDbEntity
  8
1
  6
Continuous
100
AcDbLine
 10
386.4490298391256
 20
193.4802036008164
 30
0.0
 11
389.4834348888429
 21
193.4802036008164
 31
0.0
  0
ARC
  5
1A21
330
1803
100
AcDbEntity
  8
1
  6
Continuous
100
AcDbCircle
 10
385.9490298392476
 20
191.980203600533
 30
0.0
 40
0.5
100
AcDbArc
 50
90.0
 51
180.0
  0
ARC
  5
1A22
330
1803
100
AcDbEntity
  8
1
  6
Continuous
100
AcDbCircle
 10
386.4490298391256
 20
194.4802036008164
 30
0.0
 40
1.0
100
AcDbArc
 50
180.0
 51
270.0
  0
LINE
  5
1A23
330
1803
100
AcDbEntity
  8
1
  6
Continuous
100
AcDbLine
 10
396.9490298392475
 20
303.4802036001784
 30
0.0
 11
415.9490298392474
 21
303.4802036001767
 31
0.0
  0
LINE
  5
1A24
330
1803
100
AcDbEntity
  8
4
  6
CENTER
100
AcDbLine
 10
380.6747420731662
 20
246.4802036005417
 30
0.0
 11
431.4611168335188
 21
246.4802036005417
 31
0.0
  0
LINE
  5
1A25
330
1803
100
AcDbEntity
  8
4
  6
CENTER
100
AcDbLine
 10
423.2496741343489
 20
268.6358479714852
 30
0.0
 11
406.6950569903367
 21
268.6358479714852
 31
0.0
  0
LINE
  5
1A26
330
1803
100
AcDbEntity
  8
4
  6
CENTER
100
AcDbLine
 10
406.9490298392527
 20
279.9802036003217
 30
0.0
 11
414.9490298392526
 21
279.9802036003217
 31
0.0
  0
LINE
  5
1A27
330
1803
100
AcDbEntity
  8
4
  6
CENTER
100
AcDbLine
 10
410.9490298392527
 20
283.9802036003217
 30
0.0
 11
410.9490298392527
 21
275.9802036003217
 31
0.0
  0
LINE
  5
1A28
330
1803
100
AcDbEntity
  8
1
  6
Continuous
100
AcDbLine
 10
415.9490298392474
 20
294.9802036001148
 30
0.0
 11
420.9490298390788
 21
294.9802036001083
 31
0.0
  0
LINE
  5
1A29
330
1803
100
AcDbEntity
  8
1
  6
Continuous
100
AcDbLine
 10
415.9490298392474
 20
303.4802036001764
 30
0.0
 11
415.9490298392474
 21
286.4802036005588
 31
0.0
  0
LINE
  5
1A2A
330
1803
100
AcDbEntity
  8
1
  6
Continuous
100
AcDbLine
 10
385.4490298392476
 20
300.9802036005329
 30
0.0
 11
385.4490298392476
 21
307.680203600188
 31
0.0
  0
LINE
  5
1A2B
330
1803
100
AcDbEntity
  8
1
  6
Continuous
100
AcDbLine
 10
385.9490298392476
 20
300.480203600533
 30
0.0
 11
389.4834348888429
 21
300.480203600533
 31
0.0
  0
LINE
  5
1A2C
330
1803
100
AcDbEntity
  8
1
  6
Continuous
100
AcDbLine
 10
386.4490298391747
 20
299.4802036002667
 30
0.0
 11
389.4834348888429
 21
299.4802036002667
 31
0.0
  0
ARC
  5
1A2D
330
1803
100
AcDbEntity
  8
1
  6
Continuous
100
AcDbCircle
 10
386.4490298391747
 20
298.4802036002668
 30
0.0
 40
1.0
100
AcDbArc
 50
90.0
 51
180.0
  0
ARC
  5
1A2E
330
1803
100
AcDbEntity
  8
1
  6
Continuous
100
AcDbCircle
 10
385.9490298392476
 20
300.9802036005329
 30
0.0
 40
0.5
100
AcDbArc
 50
180.0
 51
270.0
  0
LINE
  5
1A2F
330
1803
100
AcDbEntity
  8
1
  6
Continuous
100
AcDbLine
 10
395.9490298392476
 20
311.4802036001843
 30
0.0
 11
389.2490298392506
 21
311.48020360019
 31
0.0
  0
LINE
  5
1A30
330
1803
100
AcDbEntity
  8
1
  6
Continuous
100
AcDbLine
 10
396.9490298392475
 20
311.4802036001834
 30
0.0
 11
395.9490298392476
 21
311.4802036001834
 31
0.0
  0
ARC
  5
1A31
330
1803
100
AcDbEntity
  8
1
  6
Continuous
100
AcDbCircle
 10
389.2490298392477
 20
307.680203600188
 30
0.0
 40
3.799999999999998
100
AcDbArc
 50
90.0
 51
180.0
  0
LINE
  5
1A32
330
1803
100
AcDbEntity
  8
1
  6
Continuous
100
AcDbLine
 10
399.9490298388989
 20
286.4802036005588
 30
0.0
 11
425.4490298388957
 21
286.4802036005588
 31
0.0
  0
LINE
  5
1A33
330
1803
100
AcDbEntity
  8
1
  6
Continuous
100
AcDbLine
 10
425.4490298392491
 20
206.4802036005616
 30
0.0
 11
399.9490298392525
 21
206.4802036005616
 31
0.0
  0
LINE
  5
1A34
330
1803
100
AcDbEntity
  8
1
  6
Continuous
100
AcDbLine
 10
401.9490298392526
 20
206.4802036005616
 30
0.0
 11
401.9490298388991
 21
286.4802036005588
 31
0.0
  0
LINE
  5
1A35
330
1803
100
AcDbEntity
  8
1
  6
Continuous
100
AcDbLine
 10
399.9490298392525
 20
206.4802036005616
 30
0.0
 11
399.9490298388989
 21
286.4802036005588
 31
0.0
  0
LINE
  5
1A36
330
1803
100
AcDbEntity
  8
1
  6
Continuous
100
AcDbLine
 10
425.4490298392491
 20
206.4802036005616
 30
0.0
 11
425.4490298388957
 21
286.4802036005588
 31
0.0
  0
LINE
  5
1A37
330
1803
100
AcDbEntity
  8
1
  6
Continuous
100
AcDbLine
 10
420.9490298392528
 20
206.4802036005616
 30
0.0
 11
420.9490298392528
 21
197.9802036005741
 31
0.0
  0
LINE
  5
1A38
330
1803
100
AcDbEntity
  8
1
  6
Continuous
100
AcDbLine
 10
418.949029839253
 20
206.4802036005616
 30
0.0
 11
418.9490298392526
 21
197.9802036005741
 31
0.0
  0
LINE
  5
1A39
330
1803
100
AcDbEntity
  8
1
  6
Continuous
100
AcDbLine
 10
418.9490298392526
 20
294.9802036001083
 30
0.0
 11
418.949029839253
 21
286.4802036005588
 31
0.0
  0
ARC
  5
1A3A
330
1803
100
AcDbEntity
  8
1
  6
Continuous
100
AcDbCircle
 10
420.8490298388957
 20
276.480203600561
 30
0.0
 40
9.0
100
AcDbArc
 50
344.1191499917203
 51
15.8808500082797
  0
LINE
  5
1A3B
330
1803
100
AcDbEntity
  8
1
  6
Continuous
100
AcDbLine
 10
427.2490298388957
 20
280.2802036005611
 30
0.0
 11
427.2490298388957
 21
272.680203600561
 31
0.0
  0
LINE
  5
1A3C
330
1803
100
AcDbEntity
  8
1
  6
Continuous
100
AcDbLine
 10
427.2490298388957
 20
277.4802036005601
 30
0.0
 11
426.2490298388956
 21
276.4802036005601
 31
0.0
  0
LINE
  5
1A3D
330
1803
100
AcDbEntity
  8
1
  6
Continuous
100
AcDbLine
 10
426.2490298388956
 20
281.48020360056
 30
0.0
 11
426.2490298388956
 21
271.4802036005601
 31
0.0
  0
ARC
  5
1A3E
330
1803
100
AcDbEntity
  8
1
  6
Continuous
100
AcDbCircle
 10
428.2551425631182
 20
274.3731928469748
 30
0.0
 40
1.3
100
AcDbArc
 50
275.0
 51
344.1191499917203
  0
LINE
  5
1A3F
330
1803
100
AcDbEntity
  8
1
  6
Continuous
100
AcDbLine
 10
427.2490298388957
 20
272.980203600561
 30
0.0
 11
428.36844502873
 21
273.0781397394501
 31
0.0
  0
LINE
  5
1A40
330
1803
100
AcDbEntity
  8
1
  6
Continuous
100
AcDbLine
 10
426.2490298388956
 20
271.4802036005603
 30
0.0
 11
425.4490298388957
 21
271.4802036005611
 31
0.0
  0
LINE
  5
1A41
330
1803
100
AcDbEntity
  8
1
  6
Continuous
100
AcDbLine
 10
427.2490298388957
 20
272.680203600561
 30
0.0
 11
426.2490298388956
 21
272.680203600561
 31
0.0
  0
LINE
  5
1A42
330
1803
100
AcDbEntity
  8
1
  6
Continuous
100
AcDbLine
 10
427.2490298388957
 20
276.4802036005615
 30
0.0
 11
426.2490298388956
 21
275.4802036005616
 31
0.0
  0
LINE
  5
1A43
330
1803
100
AcDbEntity
  8
1
  6
Continuous
100
AcDbLine
 10
426.2490298388956
 20
281.48020360056
 30
0.0
 11
425.4490298388957
 21
281.4802036005612
 31
0.0
  0
ARC
  5
1A44
330
1803
100
AcDbEntity
  8
1
  6
Continuous
100
AcDbCircle
 10
428.2551425631043
 20
278.5872143541439
 30
0.0
 40
1.3
100
AcDbArc
 50
15.8808500082797
 51
85.00000000000001
  0
LINE
  5
1A45
330
1803
100
AcDbEntity
  8
1
  6
Continuous
100
AcDbLine
 10
427.2490298388957
 20
279.9802036005611
 30
0.0
 11
428.3684450286965
 21
279.8822674616749
 31
0.0
  0
LINE
  5
1A46
330
1803
100
AcDbEntity
  8
1
  6
Continuous
100
AcDbLine
 10
427.2490298388957
 20
280.2802036005611
 30
0.0
 11
426.2490298388956
 21
280.2802036005611
 31
0.0
  0
LINE
  5
1A47
330
1803
100
AcDbEntity
  8
4
  6
CENTER
100
AcDbLine
 10
421.9773106805712
 20
276.4802036005419
 30
0.0
 11
431.5959880191748
 21
276.4802036005679
 31
0.0
  0
LINE
  5
1A48
330
1803
100
AcDbEntity
  8
1
  6
Continuous
100
AcDbLine
 10
426.2490298392051
 20
221.4802036005703
 30
0.0
 11
426.2490298392051
 21
211.4802036005701
 31
0.0
  0
LINE
  5
1A49
330
1803
100
AcDbEntity
  8
1
  6
Continuous
100
AcDbLine
 10
426.2490298392051
 20
211.4802036005704
 30
0.0
 11
425.4490298392046
 21
211.4802036005714
 31
0.0
  0
LINE
  5
1A4A
330
1803
100
AcDbEntity
  8
4
  6
CENTER
100
AcDbLine
 10
421.9773106808808
 20
216.4802036005523
 30
0.0
 11
431.595988019484
 21
216.480203600578
 31
0.0
  0
ARC
  5
1A4B
330
1803
100
AcDbEntity
  8
1
  6
Continuous
100
AcDbCircle
 10
420.849029839205
 20
216.4802036005711
 30
0.0
 40
9.0
100
AcDbArc
 50
344.1191499917203
 51
15.8808500082797
  0
LINE
  5
1A4C
330
1803
100
AcDbEntity
  8
1
  6
Continuous
100
AcDbLine
 10
427.2490298392049
 20
220.2802036005713
 30
0.0
 11
427.2490298392049
 21
212.6802036005713
 31
0.0
  0
LINE
  5
1A4D
330
1803
100
AcDbEntity
  8
1
  6
Continuous
100
AcDbLine
 10
427.2490298392049
 20
217.4802036005704
 30
0.0
 11
426.2490298392051
 21
216.4802036005704
 31
0.0
  0
ARC
  5
1A4E
330
1803
100
AcDbEntity
  8
1
  6
Continuous
100
AcDbCircle
 10
428.2551425634276
 20
214.3731928469851
 30
0.0
 40
1.3
100
AcDbArc
 50
275.0
 51
344.1191499917203
  0
LINE
  5
1A4F
330
1803
100
AcDbEntity
  8
1
  6
Continuous
100
AcDbLine
 10
427.2490298392049
 20
212.9802036005711
 30
0.0
 11
428.3684450290391
 21
213.0781397394605
 31
0.0
  0
LINE
  5
1A50
330
1803
100
AcDbEntity
  8
1
  6
Continuous
100
AcDbLine
 10
427.2490298392049
 20
212.6802036005713
 30
0.0
 11
426.2490298392051
 21
212.6802036005713
 31
0.0
  0
LINE
  5
1A51
330
1803
100
AcDbEntity
  8
1
  6
Continuous
100
AcDbLine
 10
427.2490298392049
 20
216.4802036005719
 30
0.0
 11
426.2490298392051
 21
215.4802036005718
 31
0.0
  0
LINE
  5
1A52
330
1803
100
AcDbEntity
  8
1
  6
Continuous
100
AcDbLine
 10
426.2490298392051
 20
221.4802036005703
 30
0.0
 11
425.4490298392046
 21
221.4802036005715
 31
0.0
  0
ARC
  5
1A53
330
1803
100
AcDbEntity
  8
1
  6
Continuous
100
AcDbCircle
 10
428.2551425634137
 20
218.5872143541542
 30
0.0
 40
1.3
100
AcDbArc
 50
15.8808500082797
 51
85.00000000000001
  0
LINE
  5
1A54
330
1803
100
AcDbEntity
  8
1
  6
Continuous
100
AcDbLine
 10
427.2490298392049
 20
219.9802036005714
 30
0.0
 11
428.3684450290059
 21
219.8822674616851
 31
0.0
  0
LINE
  5
1A55
330
1803
100
AcDbEntity
  8
1
  6
Continuous
100
AcDbLine
 10
427.2490298392049
 20
220.2802036005713
 30
0.0
 11
426.2490298392051
 21
220.2802036005713
 31
0.0
  0
LINE
  5
1A56
330
1803
100
AcDbEntity
  8
1
  6
Continuous
100
AcDbLine
 10
53.38248867010658
 20
281.48020360056
 30
0.0
 11
53.38248867010658
 21
271.4802036005601
 31
0.0
  0
LINE
  5
1A57
330
1803
100
AcDbEntity
  8
1
  6
Continuous
100
AcDbLine
 10
53.38248867010658
 20
271.4802036005603
 30
0.0
 11
54.18248867010674
 21
271.4802036005611
 31
0.0
  0
LINE
  5
1A58
330
1803
100
AcDbEntity
  8
1
  6
Continuous
100
AcDbLine
 10
53.38248867010658
 20
281.48020360056
 30
0.0
 11
54.18248867010674
 21
281.4802036005612
 31
0.0
  0
LINE
  5
1A59
330
1803
100
AcDbEntity
  8
1
  6
Continuous
100
AcDbLine
 10
52.38248867010657
 20
280.2802036005611
 30
0.0
 11
52.38248867010657
 21
272.680203600561
 31
0.0
  0
LINE
  5
1A5A
330
1803
100
AcDbEntity
  8
1
  6
Continuous
100
AcDbLine
 10
52.38248867010657
 20
275.4802036005334
 30
0.0
 11
53.38248867010658
 21
276.4802036005334
 31
0.0
  0
LINE
  5
1A5B
330
1803
100
AcDbEntity
  8
1
  6
Continuous
100
AcDbLine
 10
52.38248867010657
 20
272.680203600561
 30
0.0
 11
53.38248867010658
 21
272.680203600561
 31
0.0
  0
LINE
  5
1A5C
330
1803
100
AcDbEntity
  8
1
  6
Continuous
100
AcDbLine
 10
52.38248867010657
 20
276.4802036005319
 30
0.0
 11
53.38248867010658
 21
277.4802036005319
 31
0.0
  0
LINE
  5
1A5D
330
1803
100
AcDbEntity
  8
1
  6
Continuous
100
AcDbLine
 10
52.38248867010657
 20
280.2802036005611
 30
0.0
 11
53.38248867010658
 21
280.2802036005611
 31
0.0
  0
ARC
  5
1A5E
330
1803
100
AcDbEntity
  8
1
  6
Continuous
100
AcDbCircle
 10
58.78248867010666
 20
276.480203600561
 30
0.0
 40
9.0
100
AcDbArc
 50
164.1191499917201
 51
195.8808500082796
  0
ARC
  5
1A5F
330
1803
100
AcDbEntity
  8
1
  6
Continuous
100
AcDbCircle
 10
51.37637594588387
 20
274.3731928469748
 30
0.0
 40
1.3
100
AcDbArc
 50
195.8808500082796
 51
265.0
  0
ARC
  5
1A60
330
1803
100
AcDbEntity
  8
1
  6
Continuous
100
AcDbCircle
 10
51.37637594589786
 20
278.5872143541439
 30
0.0
 40
1.3
100
AcDbArc
 50
94.99999999999998
 51
164.1191499917201
  0
LINE
  5
1A61
330
1803
100
AcDbEntity
  8
1
  6
Continuous
100
AcDbLine
 10
52.38248867010657
 20
272.980203600561
 30
0.0
 11
51.26307348027239
 21
273.0781397394501
 31
0.0
  0
LINE
  5
1A62
330
1803
100
AcDbEntity
  8
1
  6
Continuous
100
AcDbLine
 10
52.38248867010657
 20
279.9802036005611
 30
0.0
 11
51.26307348030559
 21
279.8822674616749
 31
0.0
  0
LINE
  5
1A63
330
1803
100
AcDbEntity
  8
4
  6
CENTER
100
AcDbLine
 10
61.06841552602101
 20
276.4802036005419
 30
0.0
 11
48.03553048982758
 21
276.4802036005679
 31
0.0
  0
LINE
  5
1A64
330
1803
100
AcDbEntity
  8
1
  6
Continuous
100
AcDbLine
 10
53.38248866979736
 20
221.4802036005703
 30
0.0
 11
54.18248866979729
 21
221.4802036005715
 31
0.0
  0
LINE
  5
1A65
330
1803
100
AcDbEntity
  8
1
  6
Continuous
100
AcDbLine
 10
53.38248866979736
 20
211.4802036005704
 30
0.0
 11
54.18248866979729
 21
211.4802036005714
 31
0.0
  0
LINE
  5
1A66
330
1803
100
AcDbEntity
  8
4
  6
CENTER
100
AcDbLine
 10
61.18686024023464
 20
216.4802036005523
 30
0.0
 11
48.03553048951823
 21
216.480203600578
 31
0.0
  0
LINE
  5
1A67
330
1803
100
AcDbEntity
  8
1
  6
Continuous
100
AcDbLine
 10
53.38248866979736
 20
221.4802036005703
 30
0.0
 11
53.38248866979736
 21
211.4802036005701
 31
0.0
  0
LINE
  5
1A68
330
1803
100
AcDbEntity
  8
1
  6
Continuous
100
AcDbLine
 10
52.38248866979734
 20
220.2802036005713
 30
0.0
 11
52.38248866979734
 21
212.6802036005713
 31
0.0
  0
ARC
  5
1A69
330
1803
100
AcDbEntity
  8
1
  6
Continuous
100
AcDbCircle
 10
58.78248866979731
 20
216.4802036005711
 30
0.0
 40
9.0
100
AcDbArc
 50
164.1191499917201
 51
195.8808500082796
  0
LINE
  5
1A6A
330
1803
100
AcDbEntity
  8
1
  6
Continuous
100
AcDbLine
 10
52.38248866979734
 20
215.4802036005341
 30
0.0
 11
53.38248866979736
 21
216.480203600534
 31
0.0
  0
LINE
  5
1A6B
330
1803
100
AcDbEntity
  8
1
  6
Continuous
100
AcDbLine
 10
52.38248866979734
 20
212.6802036005713
 30
0.0
 11
53.38248866979736
 21
212.6802036005713
 31
0.0
  0
LINE
  5
1A6C
330
1803
100
AcDbEntity
  8
1
  6
Continuous
100
AcDbLine
 10
52.38248866979734
 20
216.4802036005327
 30
0.0
 11
53.38248866979736
 21
217.4802036005325
 31
0.0
  0
ARC
  5
1A6D
330
1803
100
AcDbEntity
  8
1
  6
Continuous
100
AcDbCircle
 10
51.37637594557464
 20
214.3731928469851
 30
0.0
 40
1.3
100
AcDbArc
 50
195.8808500082796
 51
265.0
  0
LINE
  5
1A6E
330
1803
100
AcDbEntity
  8
1
  6
Continuous
100
AcDbLine
 10
52.38248866979734
 20
212.9802036005711
 30
0.0
 11
51.26307347996294
 21
213.0781397394605
 31
0.0
  0
LINE
  5
1A6F
330
1803
100
AcDbEntity
  8
1
  6
Continuous
100
AcDbLine
 10
52.38248866979734
 20
220.2802036005713
 30
0.0
 11
53.38248866979736
 21
220.2802036005713
 31
0.0
  0
ARC
  5
1A70
330
1803
100
AcDbEntity
  8
1
  6
Continuous
100
AcDbCircle
 10
51.37637594558849
 20
218.5872143541542
 30
0.0
 40
1.3
100
AcDbArc
 50
94.99999999999998
 51
164.1191499917201
  0
LINE
  5
1A71
330
1803
100
AcDbEntity
  8
1
  6
Continuous
100
AcDbLine
 10
52.38248866979734
 20
219.9802036005714
 30
0.0
 11
51.26307347999635
 21
219.8822674616851
 31
0.0
  0
LINE
  5
1A72
330
1803
100
AcDbEntity
  8
1
  6
Continuous
100
AcDbLine
 10
54.18248866975307
 20
206.4802036005616
 30
0.0
 11
54.18248867010664
 21
286.4802036005588
 31
0.0
  0
LINE
  5
1A73
330
1803
100
AcDbEntity
  8
1
  6
Continuous
100
AcDbLine
 10
54.18248866975307
 20
206.4802036005616
 30
0.0
 11
58.68248866974955
 21
206.4802036005616
 31
0.0
  0
LINE
  5
1A74
330
1803
100
AcDbEntity
  8
1
  6
Continuous
100
AcDbLine
 10
58.68248866974955
 20
286.4802036005588
 30
0.0
 11
54.18248867010664
 21
286.4802036005588
 31
0.0
  0
LINE
  5
1A75
330
1803
100
AcDbEntity
  8
1
  6
Continuous
100
AcDbLine
 10
56.18248866975307
 20
206.4802036005616
 30
0.0
 11
56.18248867010663
 21
286.4802036005588
 31
0.0
  0
LINE
  5
1A76
330
1803
100
AcDbEntity
  8
1
  6
Continuous
100
AcDbLine
 10
58.6824886697974
 20
218.4802036006504
 30
0.0
 11
56.18232990152137
 21
218.4802036006504
 31
0.0
  0
LINE
  5
1A77
330
1803
100
AcDbEntity
  8
2
  6
Continuous
100
AcDbLine
 10
58.6824886697973
 20
217.9802036006504
 30
0.0
 11
56.18233022831816
 21
217.9802036006504
 31
0.0
  0
LINE
  5
1A78
330
1803
100
AcDbEntity
  8
1
  6
Continuous
100
AcDbLine
 10
58.6824886697973
 20
214.4802036006504
 30
0.0
 11
56.18233251589572
 21
214.4802036006504
 31
0.0
  0
LINE
  5
1A79
330
1803
100
AcDbEntity
  8
2
  6
Continuous
100
AcDbLine
 10
58.6824886697973
 20
214.9802036006504
 30
0.0
 11
56.18233218909903
 21
214.9802036006504
 31
0.0
  0
LINE
  5
1A7A
330
1803
100
AcDbEntity
  8
2
  6
Continuous
100
AcDbLine
 10
58.6824886697973
 20
277.9802036006399
 30
0.0
 11
56.18233022831816
 21
277.9802036006399
 31
0.0
  0
LINE
  5
1A7B
330
1803
100
AcDbEntity
  8
1
  6
Continuous
100
AcDbLine
 10
58.6824886697974
 20
278.48020360064
 30
0.0
 11
56.18232990152137
 21
278.48020360064
 31
0.0
  0
LINE
  5
1A7C
330
1803
100
AcDbEntity
  8
2
  6
Continuous
100
AcDbLine
 10
58.6824886697973
 20
274.9802036006399
 30
0.0
 11
56.18233218909903
 21
274.9802036006399
 31
0.0
  0
LINE
  5
1A7D
330
1803
100
AcDbEntity
  8
1
  6
Continuous
100
AcDbLine
 10
58.6824886697973
 20
274.48020360064
 30
0.0
 11
56.18233251589572
 21
274.48020360064
 31
0.0
  0
LINE
  5
1A7E
330
1803
100
AcDbEntity
  8
1
  6
Continuous
100
AcDbLine
 10
279.315759254421
 20
413.5820617562273
 30
0.0
 11
279.315759254421
 21
435.5820617561954
 31
0.0
  0
LINE
  5
1A7F
330
1803
100
AcDbEntity
  8
1
  6
Continuous
100
AcDbLine
 10
273.315759254467
 20
435.5820617562275
 30
0.0
 11
273.315759254467
 21
424.2688716353517
 31
0.0
  0
LINE
  5
1A80
330
1803
100
AcDbEntity
  8
1
  6
Continuous
100
AcDbLine
 10
234.7498473224337
 20
435.5820617562272
 30
0.0
 11
234.7498473224295
 21
420.3820617562214
 31
0.0
  0
ARC
  5
1A81
330
1803
100
AcDbEntity
  8
1
  6
Continuous
100
AcDbCircle
 10
268.9800666994595
 20
416.3820617562909
 30
0.0
 40
9.0
100
AcDbArc
 50
15.00000000020599
 51
90.00000000000046
  0
LINE
  5
1A82
330
1803
100
AcDbEntity
  8
4
  6
CENTER
100
AcDbLine
 10
248.3157592541955
 20
440.7602105248431
 30
0.0
 11
248.3157592541955
 21
422.5992903048609
 31
0.0
  0
LINE
  5
1A83
330
1803
100
AcDbEntity
  8
4
  6
CENTER
100
AcDbLine
 10
268.3157592544672
 20
438.6224452846554
 30
0.0
 11
268.3157592544672
 21
422.5992903048609
 31
0.0
  0
LINE
  5
1A84
330
1803
100
AcDbEntity
  8
4
  6
CENTER
100
AcDbLine
 10
241.315759254354
 20
437.1631279913357
 30
0.0
 11
241.315759254354
 21
424.505636769932
 31
0.0
  0
LINE
  5
1A85
330
1803
100
AcDbEntity
  8
1
  6
Continuous
100
AcDbLine
 10
280.315759254563
 20
440.0820617561721
 30
0.0
 11
280.315759254468
 21
418.5820617561723
 31
0.0
  0
LINE
  5
1A86
330
1803
100
AcDbEntity
  8
1
  6
Continuous
100
AcDbLine
 10
282.315759254563
 20
440.0820617561634
 30
0.0
 11
282.315759254468
 21
418.5820617561634
 31
0.0
  0
LINE
  5
1A87
330
1803
100
AcDbEntity
  8
1
  6
Continuous
100
AcDbLine
 10
216.549847322432
 20
435.5820617562272
 30
0.0
 11
216.5498473224348
 21
420.3820617562214
 31
0.0
  0
LINE
  5
1A88
330
1803
100
AcDbEntity
  8
1
  6
Continuous
100
AcDbLine
 10
199.3157592544671
 20
435.5820617562271
 30
0.0
 11
199.3157592544672
 21
413.5820617562266
 31
0.0
  0
LINE
  5
1A89
330
1803
100
AcDbEntity
  8
1
  6
Continuous
100
AcDbLine
 10
178.3157592546185
 20
420.5820617561948
 30
0.0
 11
178.3157592546185
 21
435.5820617561946
 31
0.0
  0
LINE
  5
1A8A
330
1803
100
AcDbEntity
  8
1
  6
Continuous
100
AcDbLine
 10
180.3157592546187
 20
420.5820617561948
 30
0.0
 11
180.3157592546184
 21
435.5820617561946
 31
0.0
  0
LINE
  5
1A8B
330
1803
100
AcDbEntity
  8
1
  6
Continuous
100
AcDbLine
 10
182.3157592546186
 20
423.9820617561949
 30
0.0
 11
182.3157592546184
 21
431.1820617561948
 31
0.0
  0
LINE
  5
1A8C
330
1803
100
AcDbEntity
  8
4
  6
CENTER
100
AcDbLine
 10
208.3157592544671
 20
440.2287483606248
 30
0.0
 11
208.3157592544671
 21
422.5992903048608
 31
0.0
  0
LINE
  5
1A8D
330
1803
100
AcDbEntity
  8
1
  6
Continuous
100
AcDbLine
 10
234.7498473224311
 20
425.3820617562271
 30
0.0
 11
268.9800666994595
 21
425.3820617562273
 31
0.0
  0
LINE
  5
1A8E
330
1803
100
AcDbEntity
  8
1
  6
Continuous
100
AcDbLine
 10
261.3157592544589
 20
435.5820617562275
 30
0.0
 11
279.315759254421
 21
435.5820617562276
 31
0.0
  0
LINE
  5
1A8F
330
1803
100
AcDbEntity
  8
1
  6
Continuous
100
AcDbLine
 10
180.3157592546184
 20
437.5820617561948
 30
0.0
 11
278.8157592545469
 21
437.5820617561954
 31
0.0
  0
LINE
  5
1A90
330
1803
100
AcDbEntity
  8
1
  6
Continuous
100
AcDbLine
 10
180.3157592546184
 20
435.5820617561946
 30
0.0
 11
278.8157592545416
 21
435.5820617561954
 31
0.0
  0
LINE
  5
1A91
330
1803
100
AcDbEntity
  8
4
  6
CENTER
100
AcDbLine
 10
285.2335106477275
 20
430.58206175617
 30
0.0
 11
196.5197743245026
 21
430.5820617561695
 31
0.0
  0
LINE
  5
1A92
330
1803
100
AcDbEntity
  8
1
  6
Continuous
100
AcDbLine
 10
199.3157592544672
 20
425.3820617562269
 30
0.0
 11
216.549847322434
 21
425.3820617562271
 31
0.0
  0
LINE
  5
1A93
330
1803
100
AcDbEntity
  8
1
  6
Continuous
100
AcDbLine
 10
199.3157592544672
 20
435.5820617562271
 30
0.0
 11
235.3157592546604
 21
435.5820617562272
 31
0.0
  0
LINE
  5
1A94
330
1803
100
AcDbEntity
  8
1
  6
Continuous
100
AcDbLine
 10
251.3157592541955
 20
435.5820617561954
 30
0.0
 11
180.3157592546184
 21
435.5820617561946
 31
0.0
  0
LINE
  5
1A95
330
1803
100
AcDbEntity
  8
4
  6
CENTER
100
AcDbLine
 10
185.6284902330571
 20
427.5820617560273
 30
0.0
 11
172.6493286413956
 21
427.5820617560273
 31
0.0
  0
LINE
  5
1A96
330
1803
100
AcDbEntity
  8
1
  6
Continuous
100
AcDbLine
 10
178.3157592546185
 20
435.5820617561946
 30
0.0
 11
172.4015456921756
 21
435.5820617561945
 31
0.0
  0
LINE
  5
1A97
330
1803
100
AcDbEntity
  8
1
  6
Continuous
100
AcDbLine
 10
178.3157592546185
 20
425.5820617561948
 30
0.0
 11
164.8157592546185
 21
425.5820617561945
 31
0.0
  0
ARC
  5
1A98
330
1803
100
AcDbEntity
  8
1
  6
Continuous
100
AcDbCircle
 10
185.3862404051026
 20
414.2185952020025
 30
0.0
 40
25.0
100
AcDbArc
 50
121.2911945167399
 51
148.9928899712
  0
ARC
  5
1A99
330
1803
100
AcDbEntity
  8
1
  6
Continuous
100
AcDbCircle
 10
164.8157592546185
 20
426.5820617562328
 30
0.0
 40
1.0
100
AcDbArc
 50
148.9928899712004
 51
270.0000000000006
  0
LINE
  5
1A9A
330
1803
100
AcDbEntity
  8
1
  6
Continuous
100
AcDbLine
 10
199.3157592544671
 20
425.5820617561948
 30
0.0
 11
182.3157592546186
 21
425.5820617561948
 31
0.0
  0
ARC
  5
1A9B
330
1803
100
AcDbEntity
  8
5
  6
PHANTOM
100
AcDbCircle
 10
197.3862404051027
 20
414.2185952020025
 30
0.0
 40
25.0
100
AcDbArc
 50
121.2911945167399
 51
148.9928899712
  0
ARC
  5
1A9C
330
1803
100
AcDbEntity
  8
1
  6
Continuous
100
AcDbCircle
 10
180.3157592546184
 20
435.5820617561948
 30
0.0
 40
2.0
100
AcDbArc
 50
90.00000000000046
 51
180.0000000000004
  0
ARC
  5
1A9D
330
1803
100
AcDbEntity
  8
5
  6
PHANTOM
100
AcDbCircle
 10
176.8157592546185
 20
426.5820617562328
 30
0.0
 40
1.0
100
AcDbArc
 50
148.9928899712004
 51
270.0000000000006
  0
LINE
  5
1A9E
330
1803
100
AcDbEntity
  8
1
  6
Continuous
100
AcDbLine
 10
181.3157592546184
 20
431.1820617561948
 30
0.0
 11
182.3157592546184
 21
431.1820617561948
 31
0.0
  0
ARC
  5
1A9F
330
1803
100
AcDbEntity
  8
1
  6
Continuous
100
AcDbCircle
 10
181.3157592546184
 20
432.1820617561948
 30
0.0
 40
1.0
100
AcDbArc
 50
180.0000000000004
 51
270.0000000000002
  0
LINE
  5
1AA0
330
1803
100
AcDbEntity
  8
1
  6
Continuous
100
AcDbLine
 10
203.3157592544672
 20
435.5820617562271
 30
0.0
 11
203.3157592544672
 21
425.3820617562269
 31
0.0
  0
LINE
  5
1AA1
330
1803
100
AcDbEntity
  8
1
  6
Continuous
100
AcDbLine
 10
235.3157592546653
 20
427.8820617562272
 30
0.0
 11
243.3157592541955
 21
427.8820617562272
 31
0.0
  0
LINE
  5
1AA2
330
1803
100
AcDbEntity
  8
1
  6
Continuous
100
AcDbLine
 10
235.3157592546618
 20
433.0820617564429
 30
0.0
 11
251.315759254354
 21
433.0820617564431
 31
0.0
  0
LINE
  5
1AA3
330
1803
100
AcDbEntity
  8
1
  6
Continuous
100
AcDbLine
 10
235.3157592546649
 20
428.0820617564429
 30
0.0
 11
243.3157592541954
 21
428.082061756443
 31
0.0
  0
LINE
  5
1AA4
330
1803
100
AcDbEntity
  8
1
  6
Continuous
100
AcDbLine
 10
218.5498473224213
 20
428.7820617562271
 30
0.0
 11
232.7498473224334
 21
428.7820617562271
 31
0.0
  0
LINE
  5
1AA5
330
1803
100
AcDbEntity
  8
1
  6
Continuous
100
AcDbLine
 10
218.5498473224198
 20
435.5820617562272
 30
0.0
 11
218.5498473224213
 21
428.7820617562271
 31
0.0
  0
LINE
  5
1AA6
330
1803
100
AcDbEntity
  8
1
  6
Continuous
100
AcDbLine
 10
213.3157592544672
 20
435.5820617562272
 30
0.0
 11
213.3157592544672
 21
425.3820617562271
 31
0.0
  0
LINE
  5
1AA7
330
1803
100
AcDbEntity
  8
1
  6
Continuous
100
AcDbLine
 10
216.5498473224325
 20
432.582061756227
 30
0.0
 11
218.5498473224205
 21
432.582061756227
 31
0.0
  0
LINE
  5
1AA8
330
1803
100
AcDbEntity
  8
1
  6
Continuous
100
AcDbLine
 10
232.749847322432
 20
435.5820617562272
 30
0.0
 11
232.7498473224335
 21
428.7820617562273
 31
0.0
  0
LINE
  5
1AA9
330
1803
100
AcDbEntity
  8
1
  6
Continuous
100
AcDbLine
 10
235.3157592546604
 20
435.5820617562272
 30
0.0
 11
235.3157592546654
 21
427.8820617562272
 31
0.0
  0
LINE
  5
1AAA
330
1803
100
AcDbEntity
  8
1
  6
Continuous
100
AcDbLine
 10
232.7498473224326
 20
432.582061756227
 30
0.0
 11
234.7498473224332
 21
432.582061756227
 31
0.0
  0
ARC
  5
1AAB
330
1803
100
AcDbEntity
  8
1
  6
Continuous
100
AcDbCircle
 10
252.3157592543543
 20
433.0820617561975
 30
0.0
 40
0.5
100
AcDbArc
 50
0.0000000000006756
 51
90.00000000000067
  0
ARC
  5
1AAC
330
1803
100
AcDbEntity
  8
1
  6
Continuous
100
AcDbCircle
 10
252.815754624668
 20
434.9820617561146
 30
0.0
 40
0.5
100
AcDbArc
 50
16.6096029311234
 51
196.6096029311204
  0
LINE
  5
1AAD
330
1803
100
AcDbEntity
  8
1
  6
Continuous
100
AcDbLine
 10
252.3366172852458
 20
434.8391372656617
 30
0.0
 11
252.8162139619861
 21
433.2313465017342
 31
0.0
  0
LINE
  5
1AAE
330
1803
100
AcDbEntity
  8
1
  6
Continuous
100
AcDbLine
 10
243.3157592541955
 20
433.0820617562273
 30
0.0
 11
253.3157592541955
 21
433.0820617562273
 31
0.0
  0
LINE
  5
1AAF
330
1803
100
AcDbEntity
  8
1
  6
Continuous
100
AcDbLine
 10
251.3157592541955
 20
435.5820617562272
 30
0.0
 11
251.3157592541955
 21
433.0820617562273
 31
0.0
  0
ARC
  5
1AB0
330
1803
100
AcDbEntity
  8
1
  6
Continuous
100
AcDbCircle
 10
251.815754624668
 20
434.9820617561146
 30
0.0
 40
0.5
100
AcDbArc
 50
0.0000000000006756
 51
180.0000000000006
  0
LINE
  5
1AB1
330
1803
100
AcDbEntity
  8
1
  6
Continuous
100
AcDbLine
 10
245.3157592541955
 20
435.5820617562272
 30
0.0
 11
245.3157592541955
 21
433.0820617562273
 31
0.0
  0
LINE
  5
1AB2
330
1803
100
AcDbEntity
  8
1
  6
Continuous
100
AcDbLine
 10
245.3157592541955
 20
435.5820617562272
 30
0.0
 11
251.3157592541955
 21
435.5820617562272
 31
0.0
  0
LINE
  5
1AB3
330
1803
100
AcDbEntity
  8
1
  6
Continuous
100
AcDbLine
 10
250.7157592541956
 20
438.0820617562273
 30
0.0
 11
250.7157592541956
 21
437.5820617561952
 31
0.0
  0
LINE
  5
1AB4
330
1803
100
AcDbEntity
  8
1
  6
Continuous
100
AcDbLine
 10
250.7157592541954
 20
438.0820617562273
 30
0.0
 11
250.2157592541955
 21
438.5820617562273
 31
0.0
  0
LINE
  5
1AB5
330
1803
100
AcDbEntity
  8
1
  6
Continuous
100
AcDbLine
 10
245.9157592541955
 20
438.0820617562273
 30
0.0
 11
245.9157592541955
 21
437.5820617561952
 31
0.0
  0
LINE
  5
1AB6
330
1803
100
AcDbEntity
  8
1
  6
Continuous
100
AcDbLine
 10
245.9157592541952
 20
438.0820617562273
 30
0.0
 11
246.4157592541952
 21
438.5820617562273
 31
0.0
  0
LINE
  5
1AB7
330
1803
100
AcDbEntity
  8
1
  6
Continuous
100
AcDbLine
 10
246.4157592541955
 20
438.5820617562273
 30
0.0
 11
250.2157592541955
 21
438.5820617562273
 31
0.0
  0
LINE
  5
1AB8
330
1803
100
AcDbEntity
  8
1
  6
Continuous
100
AcDbLine
 10
245.9157592541955
 20
438.0820617562273
 30
0.0
 11
250.7157592541954
 21
438.0820617562273
 31
0.0
  0
LINE
  5
1AB9
330
1803
100
AcDbEntity
  8
1
  6
Continuous
100
AcDbLine
 10
243.3157592541955
 20
433.0820617562273
 30
0.0
 11
243.3157592541955
 21
425.3820617562273
 31
0.0
  0
LINE
  5
1ABA
330
1803
100
AcDbEntity
  8
1
  6
Continuous
100
AcDbLine
 10
251.315759254354
 20
434.5820617561956
 30
0.0
 11
251.315759254354
 21
433.0820617562273
 31
0.0
  0
LINE
  5
1ABB
330
1803
100
AcDbEntity
  8
1
  6
Continuous
100
AcDbLine
 10
252.315754624668
 20
434.9820617561146
 30
0.0
 11
252.315754624668
 21
433.0820617562273
 31
0.0
  0
ARC
  5
1ABC
330
1803
100
AcDbEntity
  8
1
  6
Continuous
100
AcDbCircle
 10
256.6728974818111
 20
434.9820617561148
 30
0.0
 40
0.5
100
AcDbArc
 50
15.21182314391498
 51
195.2118231439184
  0
LINE
  5
1ABD
330
1803
100
AcDbEntity
  8
1
  6
Continuous
100
AcDbLine
 10
263.3157592544672
 20
435.5820617562275
 30
0.0
 11
263.3157592544672
 21
425.3820617562273
 31
0.0
  0
LINE
  5
1ABE
330
1803
100
AcDbEntity
  8
1
  6
Continuous
100
AcDbLine
 10
261.3157592544589
 20
435.5820617562272
 30
0.0
 11
261.31575925444
 21
427.8820617562272
 31
0.0
  0
LINE
  5
1ABF
330
1803
100
AcDbEntity
  8
1
  6
Continuous
100
AcDbLine
 10
253.3157592541955
 20
427.8820617562273
 30
0.0
 11
261.31575925444
 21
427.8820617562273
 31
0.0
  0
LINE
  5
1AC0
330
1803
100
AcDbEntity
  8
1
  6
Continuous
100
AcDbLine
 10
255.2638344087502
 20
428.5243410987653
 30
0.0
 11
256.1777277122891
 21
435.051393562318
 31
0.0
  0
LINE
  5
1AC1
330
1803
100
AcDbEntity
  8
1
  6
Continuous
100
AcDbLine
 10
256.190416296582
 20
434.8508676026636
 30
0.0
 11
258.0853432109968
 21
427.8820617562273
 31
0.0
  0
LINE
  5
1AC2
330
1803
100
AcDbEntity
  8
1
  6
Continuous
100
AcDbLine
 10
259.1216530512705
 20
427.8820617562273
 30
0.0
 11
257.1553786670404
 21
435.1132559095659
 31
0.0
  0
LINE
  5
1AC3
330
1803
100
AcDbEntity
  8
1
  6
Continuous
100
AcDbLine
 10
256.8300446499404
 20
432.4985627330015
 30
0.0
 11
256.183659569996
 21
427.8820617562273
 31
0.0
  0
LINE
  5
1AC4
330
1803
100
AcDbEntity
  8
1
  6
Continuous
100
AcDbLine
 10
253.3157592541955
 20
433.0820617562273
 30
0.0
 11
253.3157592541955
 21
425.3820617562273
 31
0.0
  0
LINE
  5
1AC5
330
1803
100
AcDbEntity
  8
1
  6
Continuous
100
AcDbLine
 10
253.3157592541956
 20
431.5566803792822
 30
0.0
 11
254.4118812866421
 21
427.8820617562273
 31
0.0
  0
LINE
  5
1AC6
330
1803
100
AcDbEntity
  8
1
  6
Continuous
100
AcDbLine
 10
255.4554234171777
 20
427.8820617562273
 30
0.0
 11
253.2948919640908
 21
435.1249862465675
 31
0.0
  0
ARC
  5
1AC7
330
1803
100
AcDbEntity
  8
1
  6
Continuous
100
AcDbCircle
 10
276.4227700081304
 20
444.8881744804043
 30
0.0
 40
1.3
100
AcDbArc
 50
5.000000000000006
 51
74.11914999172029
  0
ARC
  5
1AC8
330
1803
100
AcDbEntity
  8
1
  6
Continuous
100
AcDbCircle
 10
272.2087485009613
 20
444.8881744804183
 30
0.0
 40
1.3
100
AcDbArc
 50
105.8808500082796
 51
175.0
  0
LINE
  5
1AC9
330
1803
100
AcDbEntity
  8
4
  6
CENTER
100
AcDbLine
 10
274.3157592545284
 20
430.3094381549303
 30
0.0
 11
274.3157592545542
 21
448.2290199364745
 31
0.0
  0
ARC
  5
1ACA
330
1803
100
AcDbEntity
  8
1
  6
Continuous
100
AcDbCircle
 10
274.3157592545474
 20
437.4820617561954
 30
0.0
 40
9.0
100
AcDbArc
 50
74.11914999172029
 51
105.8808500082796
  0
LINE
  5
1ACB
330
1803
100
AcDbEntity
  8
1
  6
Continuous
100
AcDbLine
 10
276.8157592552812
 20
435.5820617561938
 30
0.0
 11
276.8157592552812
 21
434.982061756194
 31
0.0
  0
LINE
  5
1ACC
330
1803
100
AcDbEntity
  8
1
  6
Continuous
100
AcDbLine
 10
268.3157592545721
 20
442.082061756222
 30
0.0
 11
280.3157592545716
 21
442.0820617561687
 31
0.0
  0
LINE
  5
1ACD
330
1803
100
AcDbEntity
  8
1
  6
Continuous
100
AcDbLine
 10
268.3157592545633
 20
440.0820617562216
 30
0.0
 11
280.315759254563
 21
440.0820617561689
 31
0.0
  0
LINE
  5
1ACE
330
1803
100
AcDbEntity
  8
1
  6
Continuous
100
AcDbLine
 10
279.3157592545465
 20
442.8820617561956
 30
0.0
 11
269.3157592545464
 21
442.8820617561956
 31
0.0
  0
LINE
  5
1ACF
330
1803
100
AcDbEntity
  8
1
  6
Continuous
100
AcDbLine
 10
278.1157592545474
 20
443.8820617561956
 30
0.0
 11
270.5157592545472
 21
443.8820617561956
 31
0.0
  0
LINE
  5
1AD0
330
1803
100
AcDbEntity
  8
1
  6
Continuous
100
AcDbLine
 10
273.3157592545568
 20
443.8820617561956
 30
0.0
 11
274.3157592545567
 21
442.8820617561956
 31
0.0
  0
LINE
  5
1AD1
330
1803
100
AcDbEntity
  8
1
  6
Continuous
100
AcDbLine
 10
274.315759254555
 20
443.8820617561956
 30
0.0
 11
275.3157592545552
 21
442.8820617561956
 31
0.0
  0
LINE
  5
1AD2
330
1803
100
AcDbEntity
  8
1
  6
Continuous
100
AcDbLine
 10
272.3157592544481
 20
437.5820617561952
 30
0.0
 11
272.3157592544481
 21
440.0822205244714
 31
0.0
  0
LINE
  5
1AD3
330
1803
100
AcDbEntity
  8
2
  6
Continuous
100
AcDbLine
 10
272.8157592544482
 20
437.5820617561952
 30
0.0
 11
272.8157592544482
 21
440.0822201976746
 31
0.0
  0
LINE
  5
1AD4
330
1803
100
AcDbEntity
  8
1
  6
Continuous
100
AcDbLine
 10
268.3157592545628
 20
440.082061756222
 30
0.0
 11
268.3157592545644
 21
442.0820617562204
 31
0.0
  0
LINE
  5
1AD5
330
1803
100
AcDbEntity
  8
1
  6
Continuous
100
AcDbLine
 10
270.5157592545472
 20
443.8820617561956
 30
0.0
 11
270.5157592545472
 21
442.8820617561956
 31
0.0
  0
LINE
  5
1AD6
330
1803
100
AcDbEntity
  8
1
  6
Continuous
100
AcDbLine
 10
269.3157592545466
 20
442.8820617561956
 30
0.0
 11
269.3157592545475
 21
442.0820617561956
 31
0.0
  0
LINE
  5
1AD7
330
1803
100
AcDbEntity
  8
1
  6
Continuous
100
AcDbLine
 10
270.8157592545473
 20
443.8820617561956
 30
0.0
 11
270.9136953934367
 21
445.00147694603
 31
0.0
  0
ARC
  5
1AD8
330
1803
100
AcDbEntity
  8
1
  6
Continuous
100
AcDbCircle
 10
280.315759254563
 20
440.0820617561721
 30
0.0
 40
2.0
100
AcDbArc
 50
359.9999999997467
 51
89.99999999974683
  0
LINE
  5
1AD9
330
1803
100
AcDbEntity
  8
1
  6
Continuous
100
AcDbLine
 10
278.1157592545474
 20
443.8820617561956
 30
0.0
 11
278.1157592545474
 21
442.8820617561956
 31
0.0
  0
LINE
  5
1ADA
330
1803
100
AcDbEntity
  8
1
  6
Continuous
100
AcDbLine
 10
279.3157592545465
 20
442.8820617561956
 30
0.0
 11
279.3157592545475
 21
442.0820617561956
 31
0.0
  0
LINE
  5
1ADB
330
1803
100
AcDbEntity
  8
1
  6
Continuous
100
AcDbLine
 10
276.3157592544482
 20
437.5820617561954
 30
0.0
 11
276.3157592544482
 21
440.0822179100969
 31
0.0
  0
LINE
  5
1ADC
330
1803
100
AcDbEntity
  8
2
  6
Continuous
100
AcDbLine
 10
275.8157592544482
 20
437.5820617561954
 30
0.0
 11
275.8157592544482
 21
440.0822182368937
 31
0.0
  0
LINE
  5
1ADD
330
1803
100
AcDbEntity
  8
1
  6
Continuous
100
AcDbLine
 10
277.8157592545475
 20
443.8820617561956
 30
0.0
 11
277.7178231156613
 21
445.0014769459965
 31
0.0
  0
LINE
  5
1ADE
330
1803
100
AcDbEntity
  8
1
  6
Continuous
100
AcDbLine
 10
278.8157592545416
 20
435.5820617561954
 30
0.0
 11
278.8157592545469
 21
437.5820617561983
 31
0.0
  0
LINE
  5
1ADF
330
1803
100
AcDbEntity
  8
1
  6
Continuous
100
AcDbLine
 10
273.315759254467
 20
434.982061756194
 30
0.0
 11
276.8157592552812
 21
434.982061756194
 31
0.0
  0
LINE
  5
1AE0
330
1803
100
AcDbEntity
  8
1
  6
Continuous
100
AcDbLine
 10
192.3157592544671
 20
413.5820617562266
 30
0.0
 11
287.3157592544671
 21
413.5820617562273
 31
0.0
  0
LINE
  5
1AE1
330
1803
100
AcDbEntity
  8
1
  6
Continuous
100
AcDbLine
 10
192.3157592544671
 20
412.5820617562268
 30
0.0
 11
287.315759254467
 21
412.5820617562275
 31
0.0
  0
ARC
  5
1AE2
330
1803
100
AcDbEntity
  8
1
  6
Continuous
100
AcDbCircle
 10
239.815759254466
 20
593.1028950895567
 30
0.0
 40
191.0208333333295
100
AcDbArc
 50
256.0713027410827
 51
283.9286972589176
  0
LINE
  5
1AE3
330
1803
100
AcDbEntity
  8
1
  6
Continuous
100
AcDbLine
 10
181.3157592546184
 20
423.9820617561949
 30
0.0
 11
182.3157592546186
 21
423.9820617561949
 31
0.0
  0
ARC
  5
1AE4
330
1803
100
AcDbEntity
  8
1
  6
Continuous
100
AcDbCircle
 10
181.3157592546184
 20
422.9820617561948
 30
0.0
 40
1.0
100
AcDbArc
 50
90.00000000000046
 51
180.0000000000004
  0
LINE
  5
1AE5
330
1803
100
AcDbEntity
  8
1
  6
Continuous
100
AcDbLine
 10
178.3157592546184
 20
420.5820617561948
 30
0.0
 11
180.3157592546184
 21
420.5820617561948
 31
0.0
  0
ARC
  5
1AE6
330
1803
100
AcDbEntity
  8
1
  6
Continuous
100
AcDbCircle
 10
194.3157592544672
 20
409.6400230036041
 30
0.0
 40
2.0
100
AcDbArc
 50
180.0000000000004
 51
256.0713027410827
  0
LINE
  5
1AE7
330
1803
100
AcDbEntity
  8
1
  6
Continuous
100
AcDbLine
 10
192.3157592544671
 20
413.582061756227
 30
0.0
 11
192.3157592544671
 21
409.6400230036042
 31
0.0
  0
ARC
  5
1AE8
330
1803
100
AcDbEntity
  8
5
  6
PHANTOM
100
AcDbCircle
 10
362.3740454303372
 20
516.2550630886583
 30
0.0
 40
191.0208333333295
100
AcDbArc
 50
215.6611641711984
 51
225.4021745838207
  0
LINE
  5
1AE9
330
1803
100
AcDbEntity
  8
5
  6
PHANTOM
100
AcDbLine
 10
229.6276402490164
 20
380.2098178656184
 30
0.0
 11
231.8522900061569
 21
382.2294565899379
 31
0.0
  0
LINE
  5
1AEA
330
1803
100
AcDbEntity
  8
5
  6
PHANTOM
100
AcDbLine
 10
217.9145636097898
 20
403.34173890449
 30
0.0
 11
216.4911905280084
 21
402.0495357673935
 31
0.0
  0
ARC
  5
1AEB
330
1803
100
AcDbEntity
  8
5
  6
PHANTOM
100
AcDbCircle
 10
362.3740454314959
 20
516.2550630870945
 30
0.0
 40
188.7208333333293
100
AcDbArc
 50
216.3640043258976
 51
223.9135015402343
  0
CIRCLE
  5
1AEC
330
1803
100
AcDbEntity
  8
1
  6
Continuous
100
AcDbCircle
 10
214.3157592544671
 20
416.2820617562271
 30
0.0
 40
2.549999999999998
  0
LINE
  5
1AED
330
1803
100
AcDbEntity
  8
4
  6
CENTER
100
AcDbLine
 10
214.3157592544675
 20
412.2320617562269
 30
0.0
 11
214.3157592544671
 21
420.332061756227
 31
0.0
  0
LINE
  5
1AEE
330
1803
100
AcDbEntity
  8
4
  6
CENTER
100
AcDbLine
 10
218.3657592544673
 20
416.2820617562271
 30
0.0
 11
210.2657592544674
 21
416.2820617562267
 31
0.0
  0
ARC
  5
1AEF
330
1803
100
AcDbEntity
  8
5
  6
PHANTOM
100
AcDbCircle
 10
219.4022754660674
 20
399.2898577467353
 30
0.0
 40
4.0
100
AcDbArc
 50
132.2345597411465
 51
219.2865987690346
  0
ARC
  5
1AF0
330
1803
100
AcDbEntity
  8
5
  6
PHANTOM
100
AcDbCircle
 10
229.0566021073281
 20
385.0938973168851
 30
0.0
 40
1.0
100
AcDbArc
 50
44.5328814437668
 51
132.234559740445
  0
LINE
  5
1AF1
330
1803
100
AcDbEntity
  8
5
  6
PHANTOM
100
AcDbLine
 10
227.8144350360947
 20
385.3168247716693
 30
0.0
 11
228.3844342471124
 21
385.8342961065202
 31
0.0
  0
ARC
  5
1AF2
330
1803
100
AcDbEntity
  8
5
  6
PHANTOM
100
AcDbCircle
 10
227.1422671758794
 20
386.0572235613041
 30
0.0
 40
1.0
100
AcDbArc
 50
223.913501540233
 51
312.2345597411466
  0
ARC
  5
1AF3
330
1803
100
AcDbEntity
  8
5
  6
PHANTOM
100
AcDbCircle
 10
231.1801221459419
 20
382.969855379573
 30
0.0
 40
1.0
100
AcDbArc
 50
312.2345597404448
 51
45.45303867098172
  0
ARC
  5
1AF4
330
1803
100
AcDbEntity
  8
5
  6
PHANTOM
100
AcDbCircle
 10
362.3740454314959
 20
516.2550630870945
 30
0.0
 40
186.0208333333295
100
AcDbArc
 50
224.5328814437657
 51
225.4530386709827
  0
ARC
  5
1AF5
330
1803
100
AcDbEntity
  8
5
  6
PHANTOM
100
AcDbCircle
 10
228.9554723888012
 20
380.9502166552531
 30
0.0
 40
1.0
100
AcDbArc
 50
225.4021745832424
 51
312.2345597404449
  0
LINE
  5
1AF6
330
1803
100
AcDbEntity
  8
1
  6
Continuous
100
AcDbLine
 10
282.3157592544593
 20
416.5820617561632
 30
0.0
 11
289.8157592544592
 21
416.5820617561299
 31
0.0
  0
LINE
  5
1AF7
330
1803
100
AcDbEntity
  8
1
  6
Continuous
100
AcDbLine
 10
282.3157592544678
 20
418.5820617561636
 30
0.0
 11
289.8157592544677
 21
418.5820617561303
 31
0.0
  0
LINE
  5
1AF8
330
1803
100
AcDbEntity
  8
1
  6
Continuous
100
AcDbLine
 10
279.0478100619941
 20
413.5820617562276
 30
0.0
 11
277.6733991360527
 21
418.7114331622451
 31
0.0
  0
ARC
  5
1AF9
330
1803
100
AcDbEntity
  8
1
  6
Continuous
100
AcDbCircle
 10
282.315759254468
 20
418.5820617561634
 30
0.0
 40
2.0
100
AcDbArc
 50
179.9999999997468
 51
269.9999999997467
  0
LINE
  5
1AFA
330
1803
100
AcDbEntity
  8
1
  6
Continuous
100
AcDbLine
 10
289.8157592544587
 20
416.5820617561303
 30
0.0
 11
289.8157592544671
 21
418.5820617561303
 31
0.0
  0
ARC
  5
1AFB
330
1803
100
AcDbEntity
  8
1
  6
Continuous
100
AcDbCircle
 10
285.3157592544672
 20
409.6400230036051
 30
0.0
 40
2.0
100
AcDbArc
 50
283.9286972589176
 51
0.0000000000002685
  0
LINE
  5
1AFC
330
1803
100
AcDbEntity
  8
1
  6
Continuous
100
AcDbLine
 10
287.315759254467
 20
413.5820617562276
 30
0.0
 11
287.3157592544671
 21
409.6400230036051
 31
0.0
  0
ENDSEC
  0
SECTION
  2
OBJECTS
  0
DICTIONARY
  5
17F1
330
0
100
AcDbDictionary
281
     1
  3
ACAD_CIP_PREVIOUS_PRODUCT_INFO
350
1B61
  3
ACAD_COLOR
350
1B44
  3
ACAD_DETAILVIEWSTYLE
350
1B5D
  3
ACAD_GROUP
350
17F2
  3
ACAD_LAYOUT
350
17FE
  3
ACAD_MATERIAL
350
1B12
  3
ACAD_MLEADERSTYLE
350
1B59
  3
ACAD_MLINESTYLE
350
17FB
  3
ACAD_PLOTSETTINGS
350
17FD
  3
ACAD_PLOTSTYLENAME
350
1B10
  3
ACAD_SCALELIST
350
1B47
  3
ACAD_SECTIONVIEWSTYLE
350
1B5B
  3
ACAD_TABLESTYLE
350
1B45
  3
ACAD_VISUALSTYLE
350
1B2B
  3
ACDB_RECOMPOSE_DATA
350
1B7F
  3
AcDbVariableDictionary
350
1B72
  3
DWGPROPS
350
1B80
  0
DICTIONARY
  5
1B62
330
17F5
100
AcDbDictionary
280
     1
281
     1
  3
ADSK_XREC_LAYER_RECONCILED
360
1B63
  0
DICTIONARY
  5
1B64
330
180B
100
AcDbDictionary
280
     1
281
     1
  3
ADSK_XREC_LAYER_RECONCILED
360
1B65
  0
DICTIONARY
  5
1B66
330
180C
100
AcDbDictionary
280
     1
281
     1
  3
ADSK_XREC_LAYER_RECONCILED
360
1B67
  0
DICTIONARY
  5
1B68
330
180D
100
AcDbDictionary
280
     1
281
     1
  3
ADSK_XREC_LAYER_RECONCILED
360
1B69
  0
DICTIONARY
  5
1B6A
330
180E
100
AcDbDictionary
280
     1
281
     1
  3
ADSK_XREC_LAYER_RECONCILED
360
1B6B
  0
DICTIONARY
  5
1B6C
330
180F
100
AcDbDictionary
280
     1
281
     1
  3
ADSK_XREC_LAYER_RECONCILED
360
1B6D
  0
DICTIONARY
  5
1B6E
330
1810
100
AcDbDictionary
280
     1
281
     1
  3
ADSK_XREC_LAYER_RECONCILED
360
1B6F
  0
DICTIONARY
  5
1B70
330
1811
100
AcDbDictionary
280
     1
281
     1
  3
ADSK_XREC_LAYER_RECONCILED
360
1B71
  0
DICTIONARY
  5
1B0B
330
1803
100
AcDbDictionary
281
     1
  3
ACAD_LAYOUTSELFREF
350
1B0C
  0
DICTIONARY
  5
1B09
330
17FF
100
AcDbDictionary
281
     1
  3
ACAD_LAYOUTSELFREF
350
1B0A
  0
XRECORD
  5
1B61
102
{ACAD_REACTORS
330
17F1
102
}
330
17F1
100
AcDbXrecord
280
     1
300
ACDLT
300
2014
300
ACDLT_F_S
  0
DICTIONARY
  5
1B44
102
{ACAD_REACTORS
330
17F1
102
}
330
17F1
100
AcDbDictionary
281
     1
  0
DICTIONARY
  5
1B5D
102
{ACAD_REACTORS
330
17F1
102
}
330
17F1
100
AcDbDictionary
281
     1
  3
Imperial24
350
1B5E
  0
DICTIONARY
  5
17F2
102
{ACAD_REACTORS
330
17F1
102
}
330
17F1
100
AcDbDictionary
281
     1
  0
DICTIONARY
  5
17FE
102
{ACAD_REACTORS
330
17F1
102
}
330
17F1
100
AcDbDictionary
281
     1
  3
Model
350
1B5F
  3
レイアウト1
350
1B60
  0
DICTIONARY
  5
1B12
102
{ACAD_REACTORS
330
17F1
102
}
330
17F1
100
AcDbDictionary
281
     1
  3
ByBlock
350
1B1B
  3
ByLayer
350
1B13
  3
Global
350
1B23
  0
DICTIONARY
  5
1B59
102
{ACAD_REACTORS
330
17F1
102
}
330
17F1
100
AcDbDictionary
281
     1
  3
Standard
350
1B5A
  0
DICTIONARY
  5
17FB
102
{ACAD_REACTORS
330
17F1
102
}
330
17F1
100
AcDbDictionary
281
     1
  3
STANDARD
350
17FC
  0
DICTIONARY
  5
17FD
102
{ACAD_REACTORS
330
17F1
102
}
330
17F1
100
AcDbDictionary
281
     1
  0
ACDBDICTIONARYWDFLT
  5
1B10
102
{ACAD_REACTORS
330
17F1
102
}
330
17F1
100
AcDbDictionary
281
     1
  3
Normal
350
1B11
100
AcDbDictionaryWithDefault
340
1B11
  0
DICTIONARY
  5
1B47
102
{ACAD_REACTORS
330
17F1
102
}
330
17F1
100
AcDbDictionary
281
     1
  3
A0
350
1B48
  3
A1
350
1B49
  3
A2
350
1B4A
  3
A3
350
1B4B
  3
A4
350
1B4C
  3
A5
350
1B4D
  3
A6
350
1B4E
  3
A7
350
1B4F
  3
A8
350
1B50
  3
A9
350
1B51
  3
B0
350
1B52
  3
B1
350
1B53
  3
B2
350
1B54
  3
B3
350
1B55
  3
B4
350
1B56
  3
B5
350
1B57
  3
B6
350
1B58
  0
DICTIONARY
  5
1B5B
102
{ACAD_REACTORS
330
17F1
102
}
330
17F1
100
AcDbDictionary
281
     1
  3
Imperial24
350
1B5C
  0
DICTIONARY
  5
1B45
102
{ACAD_REACTORS
330
17F1
102
}
330
17F1
100
AcDbDictionary
281
     1
  3
Standard
350
1B46
  0
DICTIONARY
  5
1B2B
102
{ACAD_REACTORS
330
17F1
102
}
330
17F1
100
AcDbDictionary
281
     1
  3
2dWireframe
350
1B31
  3
Basic
350
1B30
  3
Brighten
350
1B37
  3
ColorChange
350
1B3B
  3
Conceptual
350
1B34
  3
Dim
350
1B36
  3
EdgeColorOff
350
1B43
  3
Facepattern
350
1B3A
  3
Flat
350
1B2C
  3
FlatWithEdges
350
1B2D
  3
Gouraud
350
1B2E
  3
GouraudWithEdges
350
1B2F
  3
Hidden
350
1B33
  3
JitterOff
350
1B41
  3
Linepattern
350
1B39
  3
OverhangOff
350
1B42
  3
Realistic
350
1B35
  3
Shaded
350
1B40
  3
Shaded with edges
350
1B3F
  3
Shades of Gray
350
1B3C
  3
Sketchy
350
1B3D
  3
Thicken
350
1B38
  3
Wireframe
350
1B32
  3
X-Ray
350
1B3E
  0
XRECORD
  5
1B7F
102
{ACAD_REACTORS
330
17F1
102
}
330
17F1
100
AcDbXrecord
280
     1
 90
        1
330
1B46
  0
DICTIONARY
  5
1B72
102
{ACAD_REACTORS
330
17F1
102
}
330
17F1
100
AcDbDictionary
281
     1
  3
CANNOSCALE
350
1B77
  3
CMLEADERSTYLE
350
1B74
  3
CTABLESTYLE
350
1B73
  3
CVIEWDETAILSTYLE
350
1B75
  3
CVIEWSECTIONSTYLE
350
1B76
  3
DIMASSOC
350
1B7A
  3
INDEXCTL
350
1B79
  3
SORTENTS
350
1B78
  3
XCLIPFRAME
350
1B7B
  0
XRECORD
  5
1B80
102
{ACAD_REACTORS
330
17F1
102
}
330
17F1
100
AcDbXrecord
280
     1
  1
DWGPROPS COOKIE
  2

  3

  4

  6

  7

  8
Yoshitsune
  9

300
=
301
=
302
=
303
=
304
=
305
=
306
=
307
=
308
=
309
=
 40
0.1182495833333333
 41
2452269.371933947
 42
2457192.643102188
  1

 90
        0
  0
XRECORD
  5
1B63
102
{ACAD_REACTORS
330
1B62
102
}
330
1B62
100
AcDbXrecord
280
     1
290
     1
  0
XRECORD
  5
1B65
102
{ACAD_REACTORS
330
1B64
102
}
330
1B64
100
AcDbXrecord
280
     1
290
     1
  0
XRECORD
  5
1B67
102
{ACAD_REACTORS
330
1B66
102
}
330
1B66
100
AcDbXrecord
280
     1
290
     1
  0
XRECORD
  5
1B69
102
{ACAD_REACTORS
330
1B68
102
}
330
1B68
100
AcDbXrecord
280
     1
290
     1
  0
XRECORD
  5
1B6B
102
{ACAD_REACTORS
330
1B6A
102
}
330
1B6A
100
AcDbXrecord
280
     1
290
     1
  0
XRECORD
  5
1B6D
102
{ACAD_REACTORS
330
1B6C
102
}
330
1B6C
100
AcDbXrecord
280
     1
290
     1
  0
XRECORD
  5
1B6F
102
{ACAD_REACTORS
330
1B6E
102
}
330
1B6E
100
AcDbXrecord
280
     1
290
     1
  0
XRECORD
  5
1B71
102
{ACAD_REACTORS
330
1B70
102
}
330
1B70
100
AcDbXrecord
280
     1
290
     1
  0
XRECORD
  5
1B0C
102
{ACAD_REACTORS
330
1B0B
102
}
330
1B0B
100
AcDbXrecord
280
     1
340
1803
  0
XRECORD
  5
1B0A
102
{ACAD_REACTORS
330
1B09
102
}
330
1B09
100
AcDbXrecord
280
     1
340
17FF
  0
ACDBDETAILVIEWSTYLE
  5
1B5E
102
{ACAD_XDICTIONARY
360
1BB8
102
}
102
{ACAD_REACTORS
330
1B5D
102
}
330
1B5D
100
AcDbModelDocViewStyle
 70
     0
  3
Imperial24
290
     0
100
AcDbDetailViewStyle
 70
     0
 71
     0
 90
        3
 71
     1
340
17F6
 40
0.24
340
0
 40
0.24
300

 40
0.36
280
     3
 71
     2
340
17FA
 90
       25
 71
     3
340
17F6
 40
0.24
 90
        1
 40
0.75
 90
        1
300
%<\AcVar ViewType \f "%tc1">% %<\AcVar ViewDetailId>%\PSCALE %<\AcVar ViewScale \f "%sn">%
 71
     4
340
17FA
 90
       25
340
17FA
 90
       25
280
     0
  0
LAYOUT
  5
1B5F
102
{ACAD_XDICTIONARY
360
1BBA
102
}
102
{ACAD_REACTORS
330
17FE
102
}
330
17FE
100
AcDbPlotSettings
  1

  2
Canon LBP9100C
  4

  6

 40
0.0
 41
0.0
 42
0.0
 43
0.0
 44
0.0
 45
0.0
 46
0.0
 47
0.0
 48
0.0
 49
0.0
140
0.0
141
0.0
142
1.0
143
1.0
 70
  1712
 72
     0
 73
     0
 74
     0
  7

 75
     0
147
1.0
148
0.0
149
0.0
100
AcDbLayout
  1
Model
 70
     1
 71
     0
 10
0.0
 20
0.0
 11
12.0
 21
9.0
 12
0.0
 22
0.0
 32
0.0
 14
0.0
 24
0.0
 34
0.0
 15
0.0
 25
0.0
 35
0.0
146
0.0
 13
0.0
 23
0.0
 33
0.0
 16
1.0
 26
0.0
 36
0.0
 17
0.0
 27
1.0
 37
0.0
 76
     0
330
1803
331
1B08
  0
LAYOUT
  5
1B60
102
{ACAD_XDICTIONARY
360
1BBC
102
}
102
{ACAD_REACTORS
330
17FE
102
}
330
17FE
100
AcDbPlotSettings
  1

  2
Canon LBP9100C
  4

  6

 40
0.0
 41
0.0
 42
0.0
 43
0.0
 44
0.0
 45
0.0
 46
0.0
 47
0.0
 48
0.0
 49
0.0
140
0.0
141
0.0
142
1.0
143
1.0
 70
   688
 72
     0
 73
     0
 74
     5
  7

 75
    16
147
1.0
148
0.0
149
0.0
100
AcDbLayout
  1
レイアウト1
 70
     1
 71
     1
 10
0.0
 20
0.0
 11
420.0
 21
297.0
 12
0.0
 22
0.0
 32
0.0
 14
1.000000000000000E+20
 24
1.000000000000000E+20
 34
1.000000000000000E+20
 15
-1.000000000000000E+20
 25
-1.000000000000000E+20
 35
-1.000000000000000E+20
146
0.0
 13
0.0
 23
0.0
 33
0.0
 16
1.0
 26
0.0
 36
0.0
 17
0.0
 27
1.0
 37
0.0
 76
     0
330
17FF
  0
MATERIAL
  5
1B1B
102
{ACAD_XDICTIONARY
360
1B1C
102
}
102
{ACAD_REACTORS
330
1B12
102
}
330
1B12
100
AcDbMaterial
  1
ByBlock
 72
     0
 43
0.0208333333333333
 43
0.0
 43
0.0
 43
0.0
 43
0.0
 43
0.0208333333333333
 43
0.0
 43
0.0
 43
0.0
 43
0.0
 43
1.0
 43
0.0
 43
0.0
 43
0.0
 43
0.0
 43
1.0
 77
     0
 47
0.0208333333333333
 47
0.0
 47
0.0
 47
0.0
 47
0.0
 47
0.0208333333333333
 47
0.0
 47
0.0
 47
0.0
 47
0.0
 47
1.0
 47
0.0
 47
0.0
 47
0.0
 47
0.0
 47
1.0
171
     0
 49
0.0208333333333333
 49
0.0
 49
0.0
 49
0.0
 49
0.0
 49
0.0208333333333333
 49
0.0
 49
0.0
 49
0.0
 49
0.0
 49
1.0
 49
0.0
 49
0.0
 49
0.0
 49
0.0
 49
1.0
175
     0
142
0.0208333333333333
142
0.0
142
0.0
142
0.0
142
0.0
142
0.0208333333333333
142
0.0
142
0.0
142
0.0
142
0.0
142
1.0
142
0.0
142
0.0
142
0.0
142
0.0
142
1.0
179
     0
144
0.0208333333333333
144
0.0
144
0.0
144
0.0
144
0.0
144
0.0208333333333333
144
0.0
144
0.0
144
0.0
144
0.0
144
1.0
144
0.0
144
0.0
144
0.0
144
0.0
144
1.0
147
0.0208333333333333
147
0.0
147
0.0
147
0.0
147
0.0
147
0.0208333333333333
147
0.0
147
0.0
147
0.0
147
0.0
147
1.0
147
0.0
147
0.0
147
0.0
147
0.0
147
1.0
  0
MATERIAL
  5
1B13
102
{ACAD_XDICTIONARY
360
1B14
102
}
102
{ACAD_REACTORS
330
1B12
102
}
330
1B12
100
AcDbMaterial
  1
ByLayer
 72
     0
 43
0.0208333333333333
 43
0.0
 43
0.0
 43
0.0
 43
0.0
 43
0.0208333333333333
 43
0.0
 43
0.0
 43
0.0
 43
0.0
 43
1.0
 43
0.0
 43
0.0
 43
0.0
 43
0.0
 43
1.0
 77
     0
 47
0.0208333333333333
 47
0.0
 47
0.0
 47
0.0
 47
0.0
 47
0.0208333333333333
 47
0.0
 47
0.0
 47
0.0
 47
0.0
 47
1.0
 47
0.0
 47
0.0
 47
0.0
 47
0.0
 47
1.0
171
     0
 49
0.0208333333333333
 49
0.0
 49
0.0
 49
0.0
 49
0.0
 49
0.0208333333333333
 49
0.0
 49
0.0
 49
0.0
 49
0.0
 49
1.0
 49
0.0
 49
0.0
 49
0.0
 49
0.0
 49
1.0
175
     0
142
0.0208333333333333
142
0.0
142
0.0
142
0.0
142
0.0
142
0.0208333333333333
142
0.0
142
0.0
142
0.0
142
0.0
142
1.0
142
0.0
142
0.0
142
0.0
142
0.0
142
1.0
179
     0
144
0.0208333333333333
144
0.0
144
0.0
144
0.0
144
0.0
144
0.0208333333333333
144
0.0
144
0.0
144
0.0
144
0.0
144
1.0
144
0.0
144
0.0
144
0.0
144
0.0
144
1.0
147
0.0208333333333333
147
0.0
147
0.0
147
0.0
147
0.0
147
0.0208333333333333
147
0.0
147
0.0
147
0.0
147
0.0
147
1.0
147
0.0
147
0.0
147
0.0
147
0.0
147
1.0
  0
MATERIAL
  5
1B23
102
{ACAD_XDICTIONARY
360
1B24
102
}
102
{ACAD_REACTORS
330
1B12
102
}
330
1B12
100
AcDbMaterial
  1
Global
 72
     0
 43
0.0208333333333333
 43
0.0
 43
0.0
 43
0.0
 43
0.0
 43
0.0208333333333333
 43
0.0
 43
0.0
 43
0.0
 43
0.0
 43
1.0
 43
0.0
 43
0.0
 43
0.0
 43
0.0
 43
1.0
 77
     0
 47
0.0208333333333333
 47
0.0
 47
0.0
 47
0.0
 47
0.0
 47
0.0208333333333333
 47
0.0
 47
0.0
 47
0.0
 47
0.0
 47
1.0
 47
0.0
 47
0.0
 47
0.0
 47
0.0
 47
1.0
171
     0
 49
0.0208333333333333
 49
0.0
 49
0.0
 49
0.0
 49
0.0
 49
0.0208333333333333
 49
0.0
 49
0.0
 49
0.0
 49
0.0
 49
1.0
 49
0.0
 49
0.0
 49
0.0
 49
0.0
 49
1.0
175
     0
142
0.0208333333333333
142
0.0
142
0.0
142
0.0
142
0.0
142
0.0208333333333333
142
0.0
142
0.0
142
0.0
142
0.0
142
1.0
142
0.0
142
0.0
142
0.0
142
0.0
142
1.0
179
     0
144
0.0208333333333333
144
0.0
144
0.0
144
0.0
144
0.0
144
0.0208333333333333
144
0.0
144
0.0
144
0.0
144
0.0
144
1.0
144
0.0
144
0.0
144
0.0
144
0.0
144
1.0
147
0.0208333333333333
147
0.0
147
0.0
147
0.0
147
0.0
147
0.0208333333333333
147
0.0
147
0.0
147
0.0
147
0.0
147
1.0
147
0.0
147
0.0
147
0.0
147
0.0
147
1.0
  0
MLEADERSTYLE
  5
1B5A
102
{ACAD_REACTORS
330
1B59
102
}
330
1B59
100
AcDbMLeaderStyle
170
     2
171
     1
172
     0
 90
        2
 40
0.0
 41
0.0
173
     1
 91
-1056964608
340
17F8
 92
       -2
290
     1
 42
0.09
291
     1
 43
0.36
  3
Standard
 44
0.18
300

342
17F6
174
     1
178
     6
175
     1
176
     0
 93
-1056964608
 45
0.18
292
     0
297
     0
 46
0.18
 94
-1056964608
 47
1.0
 49
1.0
140
1.0
293
     1
141
0.0
294
     1
177
     0
142
1.0
295
     0
296
     0
143
0.125
1001
ACAD_MLEADERVER
1070
     2
  0
MLINESTYLE
  5
17FC
102
{ACAD_REACTORS
330
17FB
102
}
330
17FB
100
AcDbMlineStyle
  2
STANDARD
 70
     0
  3

 62
   256
 51
90.0
 52
90.0
 71
     2
 49
0.5
 62
   256
  6
BYLAYER
 49
-0.5
 62
   256
  6
BYLAYER
  0
ACDBPLACEHOLDER
  5
1B11
102
{ACAD_REACTORS
330
1B10
102
}
330
1B10
  0
SCALE
  5
1B48
102
{ACAD_REACTORS
330
1B47
102
}
330
1B47
100
AcDbScale
 70
     0
300
1:1
140
1.0
141
1.0
290
     1
  0
SCALE
  5
1B49
102
{ACAD_REACTORS
330
1B47
102
}
330
1B47
100
AcDbScale
 70
     0
300
1/128" = 1'-0"
140
0.0078125
141
12.0
290
     0
  0
SCALE
  5
1B4A
102
{ACAD_REACTORS
330
1B47
102
}
330
1B47
100
AcDbScale
 70
     0
300
1/64" = 1'-0"
140
0.015625
141
12.0
290
     0
  0
SCALE
  5
1B4B
102
{ACAD_REACTORS
330
1B47
102
}
330
1B47
100
AcDbScale
 70
     0
300
1/32" = 1'-0"
140
0.03125
141
12.0
290
     0
  0
SCALE
  5
1B4C
102
{ACAD_REACTORS
330
1B47
102
}
330
1B47
100
AcDbScale
 70
     0
300
1/16" = 1'-0"
140
0.0625
141
12.0
290
     0
  0
SCALE
  5
1B4D
102
{ACAD_REACTORS
330
1B47
102
}
330
1B47
100
AcDbScale
 70
     0
300
3/32" = 1'-0"
140
0.09375
141
12.0
290
     0
  0
SCALE
  5
1B4E
102
{ACAD_REACTORS
330
1B47
102
}
330
1B47
100
AcDbScale
 70
     0
300
1/8" = 1'-0"
140
0.125
141
12.0
290
     0
  0
SCALE
  5
1B4F
102
{ACAD_REACTORS
330
1B47
102
}
330
1B47
100
AcDbScale
 70
     0
300
3/16" = 1'-0"
140
0.1875
141
12.0
290
     0
  0
SCALE
  5
1B50
102
{ACAD_REACTORS
330
1B47
102
}
330
1B47
100
AcDbScale
 70
     0
300
1/4" = 1'-0"
140
0.25
141
12.0
290
     0
  0
SCALE
  5
1B51
102
{ACAD_REACTORS
330
1B47
102
}
330
1B47
100
AcDbScale
 70
     0
300
3/8" = 1'-0"
140
0.375
141
12.0
290
     0
  0
SCALE
  5
1B52
102
{ACAD_REACTORS
330
1B47
102
}
330
1B47
100
AcDbScale
 70
     0
300
1/2" = 1'-0"
140
0.5
141
12.0
290
     0
  0
SCALE
  5
1B53
102
{ACAD_REACTORS
330
1B47
102
}
330
1B47
100
AcDbScale
 70
     0
300
3/4" = 1'-0"
140
0.75
141
12.0
290
     0
  0
SCALE
  5
1B54
102
{ACAD_REACTORS
330
1B47
102
}
330
1B47
100
AcDbScale
 70
     0
300
1" = 1'-0"
140
1.0
141
12.0
290
     0
  0
SCALE
  5
1B55
102
{ACAD_REACTORS
330
1B47
102
}
330
1B47
100
AcDbScale
 70
     0
300
1-1/2" = 1'-0"
140
1.5
141
12.0
290
     0
  0
SCALE
  5
1B56
102
{ACAD_REACTORS
330
1B47
102
}
330
1B47
100
AcDbScale
 70
     0
300
3" = 1'-0"
140
3.0
141
12.0
290
     0
  0
SCALE
  5
1B57
102
{ACAD_REACTORS
330
1B47
102
}
330
1B47
100
AcDbScale
 70
     0
300
6" = 1'-0"
140
6.0
141
12.0
290
     0
  0
SCALE
  5
1B58
102
{ACAD_REACTORS
330
1B47
102
}
330
1B47
100
AcDbScale
 70
     0
300
1'-0" = 1'-0"
140
12.0
141
12.0
290
     0
  0
ACDBSECTIONVIEWSTYLE
  5
1B5C
102
{ACAD_XDICTIONARY
360
1BB6
102
}
102
{ACAD_REACTORS
330
1B5B
102
}
330
1B5B
100
AcDbModelDocViewStyle
 70
     0
  3
Imperial24
290
     0
100
AcDbSectionViewStyle
 70
     0
 71
     0
 90
       78
 71
     1
340
17F6
 40
0.24
340
0
340
0
 40
0.24
300
I, O, Q, S, X, Z
 40
0.48
 90
        3
 40
0.18
 90
        1
 71
     2
340
17FA
 90
       25
340
17FA
 90
       50
 40
0.24
 40
0.0
 40
0.24
 71
     3
340
17F6
 40
0.24
 90
        1
 40
0.75
 90
        1
300
%<\AcVar ViewType \f "%tc1">% %<\AcVar ViewSectionStartId>%-%<\AcVar ViewSectionEndId>%\PSCALE %<\AcVar ViewScale \f "%sn">%
 71
     4
300
ANSI31
 40
1.0
 90
        0
290
     0
290
     0
 90
        6
 40
0.0
 40
1.570796326794896
 40
0.2617993877991494
 40
1.308996938995747
 40
-0.2617993877991494
 40
1.832595714594046
  0
TABLESTYLE
  5
1B46
102
{ACAD_XDICTIONARY
360
1B7D
102
}
102
{ACAD_REACTORS
330
1B45
102
}
330
1B45
100
AcDbTableStyle
  3
Standard
 70
     0
 71
     0
 40
0.06
 41
0.06
280
     0
281
     0
  7
STANDARD
140
0.18
170
     2
 62
     0
 63
     7
283
     0
274
    -2
284
     1
 64
     0
275
    -2
285
     1
 65
     0
276
    -2
286
     1
 66
     0
277
    -2
287
     1
 67
     0
278
    -2
288
     1
 68
     0
279
    -2
289
     1
 69
     0
  7
STANDARD
140
0.25
170
     5
 62
     0
 63
     7
283
     0
274
    -2
284
     1
 64
     0
275
    -2
285
     1
 65
     0
276
    -2
286
     1
 66
     0
277
    -2
287
     1
 67
     0
278
    -2
288
     1
 68
     0
279
    -2
289
     1
 69
     0
  7
STANDARD
140
0.18
170
     5
 62
     0
 63
     7
283
     0
274
    -2
284
     1
 64
     0
275
    -2
285
     1
 65
     0
276
    -2
286
     1
 66
     0
277
    -2
287
     1
 67
     0
278
    -2
288
     1
 68
     0
279
    -2
289
     1
 69
     0
  0
VISUALSTYLE
  5
1B31
102
{ACAD_XDICTIONARY
360
1B8E
102
}
102
{ACAD_REACTORS
330
1B2B
102
}
330
1B2B
100
AcDbVisualStyle
  2
2dWireframe
 70
     4
 71
     0
 72
     2
 73
     0
 90
        0
 40
-0.6
 41
-30.0
 62
     5
 63
     7
 74
     1
 91
        4
 64
     7
 65
   257
 75
     1
175
     1
 42
1.0
 92
        0
 66
   257
 43
1.0
 76
     1
 77
     6
 78
     2
 67
     7
 79
     5
170
     0
171
     0
290
     0
174
     0
 93
        1
 44
0.0
173
     0
291
     0
 45
0.0
1001
ACAD
1000
AcDbSavedByObjectVersion
1070
     0
  0
VISUALSTYLE
  5
1B30
102
{ACAD_XDICTIONARY
360
1B8C
102
}
102
{ACAD_REACTORS
330
1B2B
102
}
330
1B2B
100
AcDbVisualStyle
  2
Basic
 70
     7
 71
     1
 72
     0
 73
     1
 90
        0
 40
-0.6
 41
-30.0
 62
     5
 63
     7
 74
     0
 91
        4
 64
     7
 65
   257
 75
     1
175
     1
 42
1.0
 92
        8
 66
     7
 43
1.0
 76
     1
 77
     6
 78
     2
 67
     7
 79
     5
170
     0
171
     0
290
     0
174
     0
 93
        1
 44
0.0
173
     0
291
     1
 45
0.0
1001
ACAD
1000
AcDbSavedByObjectVersion
1070
     0
  0
VISUALSTYLE
  5
1B37
102
{ACAD_XDICTIONARY
360
1B9A
102
}
102
{ACAD_REACTORS
330
1B2B
102
}
330
1B2B
100
AcDbVisualStyle
  2
Brighten
 70
    12
 71
     2
 72
     2
 73
     0
 90
        0
 40
-0.6
 41
-30.0
 62
     5
 63
     7
 74
     1
 91
        4
 64
     7
 65
   257
 75
     1
175
     1
 42
1.0
 92
        8
 66
     7
 43
1.0
 76
     1
 77
     6
 78
     2
 67
     7
 79
     5
170
     0
171
     0
290
     0
174
     0
 93
        1
 44
50.0
173
     0
291
     1
 45
0.0
1001
ACAD
1000
AcDbSavedByObjectVersion
1070
     0
  0
VISUALSTYLE
  5
1B3B
102
{ACAD_XDICTIONARY
360
1BA2
102
}
102
{ACAD_REACTORS
330
1B2B
102
}
330
1B2B
100
AcDbVisualStyle
  2
ColorChange
 70
    16
 71
     2
 72
     2
 73
     3
 90
        0
 40
-0.6
 41
-30.0
 62
     5
 63
     8
 74
     1
 91
        4
 64
     7
 65
   257
 75
     1
175
     1
 42
1.0
 92
        8
 66
     8
 43
1.0
 76
     1
 77
     6
 78
     2
 67
     7
 79
     5
170
     0
171
     0
290
     0
174
     0
 93
        1
 44
0.0
173
     0
291
     1
 45
0.0
1001
ACAD
1000
AcDbSavedByObjectVersion
1070
     0
  0
VISUALSTYLE
  5
1B34
102
{ACAD_XDICTIONARY
360
1B94
102
}
102
{ACAD_REACTORS
330
1B2B
102
}
330
1B2B
100
AcDbVisualStyle
  2
Conceptual
 70
     9
 71
     3
 72
     2
 73
     0
 90
        0
 40
-0.6
 41
-30.0
 62
     5
 63
     7
 74
     2
 91
        2
 64
     7
 65
   257
 75
     1
175
     1
 42
179.0
 92
        8
 66
     7
 43
1.0
 76
     1
 77
     6
 78
     2
 67
     7
 79
     3
170
     0
171
     0
290
     0
174
     0
 93
        1
 44
0.0
173
     0
291
     0
 45
0.0
1001
ACAD
1000
AcDbSavedByObjectVersion
1070
     0
  0
VISUALSTYLE
  5
1B36
102
{ACAD_XDICTIONARY
360
1B98
102
}
102
{ACAD_REACTORS
330
1B2B
102
}
330
1B2B
100
AcDbVisualStyle
  2
Dim
 70
    11
 71
     2
 72
     2
 73
     0
 90
        0
 40
-0.6
 41
-30.0
 62
     5
 63
     7
 74
     1
 91
        4
 64
     7
 65
   257
 75
     1
175
     1
 42
1.0
 92
        8
 66
     7
 43
1.0
 76
     1
 77
     6
 78
     2
 67
     7
 79
     5
170
     0
171
     0
290
     0
174
     0
 93
        1
 44
-50.0
173
     0
291
     1
 45
0.0
1001
ACAD
1000
AcDbSavedByObjectVersion
1070
     0
  0
VISUALSTYLE
  5
1B43
102
{ACAD_XDICTIONARY
360
1BB2
102
}
102
{ACAD_REACTORS
330
1B2B
102
}
330
1B2B
100
AcDbVisualStyle
  2
EdgeColorOff
 70
    22
 71
     2
 72
     2
 73
     0
 90
        0
 40
-0.6
 41
-30.0
 62
     5
 63
     7
 74
     1
 91
        4
 64
     7
 65
   257
 75
     1
175
     1
 42
1.0
 92
        8
 66
     7
 43
1.0
 76
     1
 77
     6
 78
     2
 67
     7
 79
     5
170
     0
171
     0
290
     0
174
     0
 93
        1
 44
0.0
173
     0
291
     1
 45
0.0
1001
ACAD
1000
AcDbSavedByObjectVersion
1070
     0
  0
VISUALSTYLE
  5
1B3A
102
{ACAD_XDICTIONARY
360
1BA0
102
}
102
{ACAD_REACTORS
330
1B2B
102
}
330
1B2B
100
AcDbVisualStyle
  2
Facepattern
 70
    15
 71
     2
 72
     2
 73
     0
 90
        0
 40
-0.6
 41
-30.0
 62
     5
 63
     7
 74
     1
 91
        4
 64
     7
 65
   257
 75
     1
175
     1
 42
1.0
 92
        8
 66
     7
 43
1.0
 76
     1
 77
     6
 78
     2
 67
     7
 79
     5
170
     0
171
     0
290
     0
174
     0
 93
        1
 44
0.0
173
     0
291
     1
 45
0.0
1001
ACAD
1000
AcDbSavedByObjectVersion
1070
     0
  0
VISUALSTYLE
  5
1B2C
102
{ACAD_XDICTIONARY
360
1B84
102
}
102
{ACAD_REACTORS
330
1B2B
102
}
330
1B2B
100
AcDbVisualStyle
  2
Flat
 70
     0
 71
     2
 72
     1
 73
     1
 90
        2
 40
-0.6
 41
30.0
 62
     5
 63
     7
 74
     0
 91
        0
 64
     7
 65
   257
 75
     1
175
     1
 42
1.0
 92
        8
 66
     7
 43
1.0
 76
     1
 77
     6
 78
     2
 67
     7
 79
     5
170
     0
171
     0
290
     0
174
     0
 93
       13
 44
0.0
173
     0
291
     1
 45
0.0
1001
ACAD
1000
AcDbSavedByObjectVersion
1070
     0
  0
VISUALSTYLE
  5
1B2D
102
{ACAD_XDICTIONARY
360
1B86
102
}
102
{ACAD_REACTORS
330
1B2B
102
}
330
1B2B
100
AcDbVisualStyle
  2
FlatWithEdges
 70
     1
 71
     2
 72
     1
 73
     1
 90
        2
 40
-0.6
 41
30.0
 62
     5
 63
     7
 74
     1
 91
        0
 64
     7
 65
   257
 75
     1
175
     1
 42
1.0
 92
        0
 66
   257
 43
1.0
 76
     1
 77
     6
 78
     2
 67
     7
 79
     5
170
     0
171
     0
290
     0
174
     0
 93
       13
 44
0.0
173
     0
291
     1
 45
0.0
1001
ACAD
1000
AcDbSavedByObjectVersion
1070
     0
  0
VISUALSTYLE
  5
1B2E
102
{ACAD_XDICTIONARY
360
1B88
102
}
102
{ACAD_REACTORS
330
1B2B
102
}
330
1B2B
100
AcDbVisualStyle
  2
Gouraud
 70
     2
 71
     2
 72
     2
 73
     1
 90
        2
 40
-0.6
 41
30.0
 62
     5
 63
     7
 74
     0
 91
        0
 64
     7
 65
   257
 75
     1
175
     1
 42
1.0
 92
        0
 66
     7
 43
1.0
 76
     1
 77
     6
 78
     2
 67
     7
 79
     5
170
     0
171
     0
290
     0
174
     0
 93
       13
 44
0.0
173
     0
291
     1
 45
0.0
1001
ACAD
1000
AcDbSavedByObjectVersion
1070
     0
  0
VISUALSTYLE
  5
1B2F
102
{ACAD_XDICTIONARY
360
1B8A
102
}
102
{ACAD_REACTORS
330
1B2B
102
}
330
1B2B
100
AcDbVisualStyle
  2
GouraudWithEdges
 70
     3
 71
     2
 72
     2
 73
     1
 90
        2
 40
-0.6
 41
30.0
 62
     5
 63
     7
 74
     1
 91
        0
 64
     7
 65
   257
 75
     1
175
     1
 42
1.0
 92
        0
 66
   257
 43
1.0
 76
     1
 77
     6
 78
     2
 67
     7
 79
     5
170
     0
171
     0
290
     0
174
     0
 93
       13
 44
0.0
173
     0
291
     1
 45
0.0
1001
ACAD
1000
AcDbSavedByObjectVersion
1070
     0
  0
VISUALSTYLE
  5
1B33
102
{ACAD_XDICTIONARY
360
1B92
102
}
102
{ACAD_REACTORS
330
1B2B
102
}
330
1B2B
100
AcDbVisualStyle
  2
Hidden
 70
     6
 71
     1
 72
     2
 73
     2
 90
        0
 40
-0.6
 41
-30.0
 62
     5
 63
     7
 74
     2
 91
        2
 64
     7
 65
   257
 75
     2
175
     1
 42
40.0
 92
        0
 66
   257
 43
1.0
 76
     1
 77
     6
 78
     2
 67
     7
 79
     3
170
     0
171
     0
290
     0
174
     0
 93
        1
 44
0.0
173
     0
291
     0
 45
0.0
1001
ACAD
1000
AcDbSavedByObjectVersion
1070
     0
  0
VISUALSTYLE
  5
1B41
102
{ACAD_XDICTIONARY
360
1BAE
102
}
102
{ACAD_REACTORS
330
1B2B
102
}
330
1B2B
100
AcDbVisualStyle
  2
JitterOff
 70
    20
 71
     2
 72
     2
 73
     0
 90
        0
 40
-0.6
 41
-30.0
 62
     5
 63
     7
 74
     1
 91
        4
 64
     7
 65
   257
 75
     1
175
     1
 42
1.0
 92
       10
 66
     7
 43
1.0
 76
     1
 77
     6
 78
     2
 67
     7
 79
     5
170
     0
171
     0
290
     0
174
     0
 93
        1
 44
0.0
173
     0
291
     1
 45
0.0
1001
ACAD
1000
AcDbSavedByObjectVersion
1070
     0
  0
VISUALSTYLE
  5
1B39
102
{ACAD_XDICTIONARY
360
1B9E
102
}
102
{ACAD_REACTORS
330
1B2B
102
}
330
1B2B
100
AcDbVisualStyle
  2
Linepattern
 70
    14
 71
     2
 72
     2
 73
     0
 90
        0
 40
-0.6
 41
-30.0
 62
     5
 63
     7
 74
     1
 91
        4
 64
     7
 65
   257
 75
     7
175
     7
 42
1.0
 92
        8
 66
     7
 43
1.0
 76
     1
 77
     6
 78
     2
 67
     7
 79
     5
170
     0
171
     0
290
     0
174
     0
 93
        1
 44
0.0
173
     0
291
     1
 45
0.0
1001
ACAD
1000
AcDbSavedByObjectVersion
1070
     0
  0
VISUALSTYLE
  5
1B42
102
{ACAD_XDICTIONARY
360
1BB0
102
}
102
{ACAD_REACTORS
330
1B2B
102
}
330
1B2B
100
AcDbVisualStyle
  2
OverhangOff
 70
    21
 71
     2
 72
     2
 73
     0
 90
        0
 40
-0.6
 41
-30.0
 62
     5
 63
     7
 74
     1
 91
        4
 64
     7
 65
   257
 75
     1
175
     1
 42
1.0
 92
        9
 66
     7
 43
1.0
 76
     1
 77
     6
 78
     2
 67
     7
 79
     5
170
     0
171
     0
290
     0
174
     0
 93
        1
 44
0.0
173
     0
291
     1
 45
0.0
1001
ACAD
1000
AcDbSavedByObjectVersion
1070
     0
  0
VISUALSTYLE
  5
1B35
102
{ACAD_XDICTIONARY
360
1B96
102
}
102
{ACAD_REACTORS
330
1B2B
102
}
330
1B2B
100
AcDbVisualStyle
  2
Realistic
 70
     8
 71
     2
 72
     3
 73
     0
 90
        2
 40
-0.6
 41
30.0
 62
     5
 63
     7
 74
     0
 91
        0
 64
     7
 65
   257
 75
     1
175
     1
 42
1.0
 92
        8
 66
   257
 43
1.0
 76
     1
 77
     6
 78
     2
 67
     7
 79
     3
170
     0
171
     0
290
     0
174
     0
 93
       13
 44
0.0
173
     0
291
     0
 45
0.0
1001
ACAD
1000
AcDbSavedByObjectVersion
1070
     0
  0
VISUALSTYLE
  5
1B40
102
{ACAD_XDICTIONARY
360
1BAC
102
}
102
{ACAD_REACTORS
330
1B2B
102
}
330
1B2B
100
AcDbVisualStyle
  2
Shaded
 70
    27
 71
     2
 72
     2
 73
     1
 90
        2
 40
-0.6
 41
30.0
 62
     5
 63
     7
 74
     0
 91
        4
 64
     7
 65
   257
 75
     1
175
     1
 42
1.0
 92
        8
 66
   257
 43
1.0
 76
     1
 77
     6
 78
     2
 67
     8
 79
     3
170
     0
171
     0
290
     0
174
     0
 93
        5
 44
0.0
173
     0
291
     0
 45
0.0
1001
ACAD
1000
AcDbSavedByObjectVersion
1070
     0
  0
VISUALSTYLE
  5
1B3F
102
{ACAD_XDICTIONARY
360
1BAA
102
}
102
{ACAD_REACTORS
330
1B2B
102
}
330
1B2B
100
AcDbVisualStyle
  2
Shaded with edges
 70
    26
 71
     2
 72
     2
 73
     1
 90
        2
 40
-0.6
 41
30.0
 62
     5
 63
     7
 74
     1
 91
       10
 64
     7
 65
   257
 75
     2
175
     1
 42
1.0
 92
        8
 66
   257
 43
1.0
 76
     1
 77
     6
 78
     2
 67
     7
 79
     3
170
     0
171
     0
290
     0
174
     0
 93
        5
 44
0.0
173
     0
291
     0
 45
0.0
1001
ACAD
1000
AcDbSavedByObjectVersion
1070
     0
  0
VISUALSTYLE
  5
1B3C
102
{ACAD_XDICTIONARY
360
1BA4
102
}
102
{ACAD_REACTORS
330
1B2B
102
}
330
1B2B
100
AcDbVisualStyle
  2
Shades of Gray
 70
    23
 71
     2
 72
     2
 73
     3
 90
        0
 40
-0.6
 41
-30.0
 62
     5
 63
     7
 74
     2
 91
        2
 64
     7
 65
     7
 75
     1
175
     1
 42
40.0
 92
        8
 66
     7
 43
1.0
 76
     1
 77
     6
 78
     2
 67
     7
 79
     3
170
     0
171
     0
290
     0
174
     0
 93
        1
 44
0.0
173
     0
291
     0
 45
0.0
1001
ACAD
1000
AcDbSavedByObjectVersion
1070
     0
  0
VISUALSTYLE
  5
1B3D
102
{ACAD_XDICTIONARY
360
1BA6
102
}
102
{ACAD_REACTORS
330
1B2B
102
}
330
1B2B
100
AcDbVisualStyle
  2
Sketchy
 70
    24
 71
     1
 72
     2
 73
     2
 90
        0
 40
-0.6
 41
-30.0
 62
     5
 63
     7
 74
     2
 91
        2
 64
     7
 65
     7
 75
     1
175
     1
 42
40.0
 92
       11
 66
     7
 43
1.0
 76
     1
 77
     6
 78
     2
 67
     7
 79
     6
170
     0
171
     0
290
     0
174
     0
 93
        1
 44
0.0
173
     0
291
     0
 45
0.0
1001
ACAD
1000
AcDbSavedByObjectVersion
1070
     0
  0
VISUALSTYLE
  5
1B38
102
{ACAD_XDICTIONARY
360
1B9C
102
}
102
{ACAD_REACTORS
330
1B2B
102
}
330
1B2B
100
AcDbVisualStyle
  2
Thicken
 70
    13
 71
     2
 72
     2
 73
     0
 90
        0
 40
-0.6
 41
-30.0
 62
     5
 63
     7
 74
     1
 91
        4
 64
     7
 65
   257
 75
     1
175
     1
 42
1.0
 92
       12
 66
     7
 43
1.0
 76
     1
 77
     6
 78
     2
 67
     7
 79
     5
170
     0
171
     0
290
     0
174
     0
 93
        1
 44
0.0
173
     0
291
     1
 45
0.0
1001
ACAD
1000
AcDbSavedByObjectVersion
1070
     0
  0
VISUALSTYLE
  5
1B32
102
{ACAD_XDICTIONARY
360
1B90
102
}
102
{ACAD_REACTORS
330
1B2B
102
}
330
1B2B
100
AcDbVisualStyle
  2
Wireframe
 70
     5
 71
     0
 72
     2
 73
     0
 90
        0
 40
-0.6
 41
-30.0
 62
     5
 63
     7
 74
     1
 91
        4
 64
     7
 65
   257
 75
     1
175
     1
 42
1.0
 92
        0
 66
   257
 43
1.0
 76
     1
 77
     6
 78
     2
 67
     7
 79
     3
170
     0
171
     0
290
     0
174
     0
 93
        1
 44
0.0
173
     0
291
     0
 45
0.0
1001
ACAD
1000
AcDbSavedByObjectVersion
1070
     0
  0
VISUALSTYLE
  5
1B3E
102
{ACAD_XDICTIONARY
360
1BA8
102
}
102
{ACAD_REACTORS
330
1B2B
102
}
330
1B2B
100
AcDbVisualStyle
  2
X-Ray
 70
    25
 71
     2
 72
     2
 73
     1
 90
        1
 40
0.5
 41
-30.0
 62
     5
 63
     7
 74
     1
 91
        0
 64
     7
 65
   257
 75
     1
175
     1
 42
1.0
 92
        8
 66
     7
 43
1.0
 76
     1
 77
     6
 78
     2
 67
     7
 79
     3
170
     0
171
     0
290
     0
174
     0
 93
       13
 44
0.0
173
     0
291
     0
 45
0.0
1001
ACAD
1000
AcDbSavedByObjectVersion
1070
     0
  0
DICTIONARYVAR
  5
1B77
102
{ACAD_REACTORS
330
1B72
102
}
330
1B72
100
DictionaryVariables
280
     0
  1
1:1
  0
DICTIONARYVAR
  5
1B74
102
{ACAD_REACTORS
330
1B72
102
}
330
1B72
100
DictionaryVariables
280
     0
  1
STANDARD
  0
DICTIONARYVAR
  5
1B73
102
{ACAD_REACTORS
330
1B72
102
}
330
1B72
100
DictionaryVariables
280
     0
  1
STANDARD
  0
DICTIONARYVAR
  5
1B75
102
{ACAD_REACTORS
330
1B72
102
}
330
1B72
100
DictionaryVariables
280
     0
  1
Imperial24
  0
DICTIONARYVAR
  5
1B76
102
{ACAD_REACTORS
330
1B72
102
}
330
1B72
100
DictionaryVariables
280
     0
  1
Imperial24
  0
DICTIONARYVAR
  5
1B7A
102
{ACAD_REACTORS
330
1B72
102
}
330
1B72
100
DictionaryVariables
280
     0
  1
1
  0
DICTIONARYVAR
  5
1B79
102
{ACAD_REACTORS
330
1B72
102
}
330
1B72
100
DictionaryVariables
280
     0
  1
0
  0
DICTIONARYVAR
  5
1B78
102
{ACAD_REACTORS
330
1B72
102
}
330
1B72
100
DictionaryVariables
280
     0
  1
127
  0
DICTIONARYVAR
  5
1B7B
102
{ACAD_REACTORS
330
1B72
102
}
330
1B72
100
DictionaryVariables
280
     0
  1
2
  0
DICTIONARY
  5
1BB8
330
1B5E
100
AcDbDictionary
280
     1
281
     1
  3
ACAD_XREC_ROUNDTRIP
360
1BB9
  0
DICTIONARY
  5
1BBA
330
1B5F
100
AcDbDictionary
280
     1
281
     1
  3
ACAD_XREC_ROUNDTRIP
360
1BBB
  0
DICTIONARY
  5
1BBC
330
1B60
100
AcDbDictionary
280
     1
281
     1
  3
ACAD_XREC_ROUNDTRIP
360
1BBD
  0
DICTIONARY
  5
1B1C
330
1B1B
100
AcDbDictionary
280
     1
281
     1
  3
ACAD_XREC_ROUNDTRIP
360
1B82
  3
BUMPTILE
360
1B1E
  3
DIFFUSETILE
360
1B1D
  3
OPACITYTILE
360
1B21
  3
REFLECTIONTILE
360
1B20
  3
REFRACTIONTILE
360
1B22
  3
SPECULARTILE
360
1B1F
  0
DICTIONARY
  5
1B14
330
1B13
100
AcDbDictionary
280
     1
281
     1
  3
ACAD_XREC_ROUNDTRIP
360
1B81
  3
BUMPTILE
360
1B16
  3
DIFFUSETILE
360
1B15
  3
OPACITYTILE
360
1B19
  3
REFLECTIONTILE
360
1B18
  3
REFRACTIONTILE
360
1B1A
  3
SPECULARTILE
360
1B17
  0
DICTIONARY
  5
1B24
330
1B23
100
AcDbDictionary
280
     1
281
     1
  3
ACAD_XREC_ROUNDTRIP
360
1B83
  3
BUMPTILE
360
1B26
  3
DIFFUSETILE
360
1B25
  3
OPACITYTILE
360
1B29
  3
REFLECTIONTILE
360
1B28
  3
REFRACTIONTILE
360
1B2A
  3
SPECULARTILE
360
1B27
  0
DICTIONARY
  5
1BB6
330
1B5C
100
AcDbDictionary
280
     1
281
     1
  3
ACAD_XREC_ROUNDTRIP
360
1BB7
  0
DICTIONARY
  5
1B7D
330
1B46
100
AcDbDictionary
280
     1
281
     1
  3
ACAD_ROUNDTRIP_2008_TABLESTYLE_CELLSTYLEMAP
360
1B7E
  3
ACAD_XREC_ROUNDTRIP
360
1BB4
  0
DICTIONARY
  5
1B8E
330
1B31
100
AcDbDictionary
280
     1
281
     1
  3
ACAD_XREC_ROUNDTRIP
360
1B8F
  0
DICTIONARY
  5
1B8C
330
1B30
100
AcDbDictionary
280
     1
281
     1
  3
ACAD_XREC_ROUNDTRIP
360
1B8D
  0
DICTIONARY
  5
1B9A
330
1B37
100
AcDbDictionary
280
     1
281
     1
  3
ACAD_XREC_ROUNDTRIP
360
1B9B
  0
DICTIONARY
  5
1BA2
330
1B3B
100
AcDbDictionary
280
     1
281
     1
  3
ACAD_XREC_ROUNDTRIP
360
1BA3
  0
DICTIONARY
  5
1B94
330
1B34
100
AcDbDictionary
280
     1
281
     1
  3
ACAD_XREC_ROUNDTRIP
360
1B95
  0
DICTIONARY
  5
1B98
330
1B36
100
AcDbDictionary
280
     1
281
     1
  3
ACAD_XREC_ROUNDTRIP
360
1B99
  0
DICTIONARY
  5
1BB2
330
1B43
100
AcDbDictionary
280
     1
281
     1
  3
ACAD_XREC_ROUNDTRIP
360
1BB3
  0
DICTIONARY
  5
1BA0
330
1B3A
100
AcDbDictionary
280
     1
281
     1
  3
ACAD_XREC_ROUNDTRIP
360
1BA1
  0
DICTIONARY
  5
1B84
330
1B2C
100
AcDbDictionary
280
     1
281
     1
  3
ACAD_XREC_ROUNDTRIP
360
1B85
  0
DICTIONARY
  5
1B86
330
1B2D
100
AcDbDictionary
280
     1
281
     1
  3
ACAD_XREC_ROUNDTRIP
360
1B87
  0
DICTIONARY
  5
1B88
330
1B2E
100
AcDbDictionary
280
     1
281
     1
  3
ACAD_XREC_ROUNDTRIP
360
1B89
  0
DICTIONARY
  5
1B8A
330
1B2F
100
AcDbDictionary
280
     1
281
     1
  3
ACAD_XREC_ROUNDTRIP
360
1B8B
  0
DICTIONARY
  5
1B92
330
1B33
100
AcDbDictionary
280
     1
281
     1
  3
ACAD_XREC_ROUNDTRIP
360
1B93
  0
DICTIONARY
  5
1BAE
330
1B41
100
AcDbDictionary
280
     1
281
     1
  3
ACAD_XREC_ROUNDTRIP
360
1BAF
  0
DICTIONARY
  5
1B9E
330
1B39
100
AcDbDictionary
280
     1
281
     1
  3
ACAD_XREC_ROUNDTRIP
360
1B9F
  0
DICTIONARY
  5
1BB0
330
1B42
100
AcDbDictionary
280
     1
281
     1
  3
ACAD_XREC_ROUNDTRIP
360
1BB1
  0
DICTIONARY
  5
1B96
330
1B35
100
AcDbDictionary
280
     1
281
     1
  3
ACAD_XREC_ROUNDTRIP
360
1B97
  0
DICTIONARY
  5
1BAC
330
1B40
100
AcDbDictionary
280
     1
281
     1
  3
ACAD_XREC_ROUNDTRIP
360
1BAD
  0
DICTIONARY
  5
1BAA
330
1B3F
100
AcDbDictionary
280
     1
281
     1
  3
ACAD_XREC_ROUNDTRIP
360
1BAB
  0
DICTIONARY
  5
1BA4
330
1B3C
100
AcDbDictionary
280
     1
281
     1
  3
ACAD_XREC_ROUNDTRIP
360
1BA5
  0
DICTIONARY
  5
1BA6
330
1B3D
100
AcDbDictionary
280
     1
281
     1
  3
ACAD_XREC_ROUNDTRIP
360
1BA7
  0
DICTIONARY
  5
1B9C
330
1B38
100
AcDbDictionary
280
     1
281
     1
  3
ACAD_XREC_ROUNDTRIP
360
1B9D
  0
DICTIONARY
  5
1B90
330
1B32
100
AcDbDictionary
280
     1
281
     1
  3
ACAD_XREC_ROUNDTRIP
360
1B91
  0
DICTIONARY
  5
1BA8
330
1B3E
100
AcDbDictionary
280
     1
281
     1
  3
ACAD_XREC_ROUNDTRIP
360
1BA9
  0
XRECORD
  5
1BB9
102
{ACAD_REACTORS
330
1BB8
102
}
330
1BB8
100
AcDbXrecord
280
     1
102
DISPLAYNAME
  1
Imperial24
102
FLAGS
 90
        0
  0
XRECORD
  5
1BBB
102
{ACAD_REACTORS
330
1BBA
102
}
330
1BBA
100
AcDbXrecord
280
     1
102
SHADEPLOT
 70
     0
102
SHADEPLOTRESLEVEL
 70
     2
102
SHADEPLOTCUSTOMDPI
 70
   300
  0
XRECORD
  5
1BBD
102
{ACAD_REACTORS
330
1BBC
102
}
330
1BBC
100
AcDbXrecord
280
     1
102
SHADEPLOT
 70
     0
102
SHADEPLOTRESLEVEL
 70
     2
102
SHADEPLOTCUSTOMDPI
 70
   300
  0
XRECORD
  5
1B82
102
{ACAD_REACTORS
330
1B1C
102
}
330
1B1C
100
AcDbXrecord
280
     1
102
MATERIAL
148
0.0
149
0.0
149
0.0
 93
        0
 94
      127
282
     0
 72
     0
 77
     0
171
     0
175
     0
179
     0
273
     0
  0
XRECORD
  5
1B1E
102
{ACAD_REACTORS
330
1B1C
102
}
330
1B1C
100
AcDbXrecord
280
     1
270
     1
271
     1
  0
XRECORD
  5
1B1D
102
{ACAD_REACTORS
330
1B1C
102
}
330
1B1C
100
AcDbXrecord
280
     1
270
     1
271
     1
  0
XRECORD
  5
1B21
102
{ACAD_REACTORS
330
1B1C
102
}
330
1B1C
100
AcDbXrecord
280
     1
270
     1
271
     1
  0
XRECORD
  5
1B20
102
{ACAD_REACTORS
330
1B1C
102
}
330
1B1C
100
AcDbXrecord
280
     1
270
     1
271
     1
  0
XRECORD
  5
1B22
102
{ACAD_REACTORS
330
1B1C
102
}
330
1B1C
100
AcDbXrecord
280
     1
270
     1
271
     1
  0
XRECORD
  5
1B1F
102
{ACAD_REACTORS
330
1B1C
102
}
330
1B1C
100
AcDbXrecord
280
     1
270
     1
271
     1
  0
XRECORD
  5
1B81
102
{ACAD_REACTORS
330
1B14
102
}
330
1B14
100
AcDbXrecord
280
     1
102
MATERIAL
148
0.0
149
0.0
149
0.0
 93
        0
 94
      127
282
     0
 72
     0
 77
     0
171
     0
175
     0
179
     0
273
     0
  0
XRECORD
  5
1B16
102
{ACAD_REACTORS
330
1B14
102
}
330
1B14
100
AcDbXrecord
280
     1
270
     1
271
     1
  0
XRECORD
  5
1B15
102
{ACAD_REACTORS
330
1B14
102
}
330
1B14
100
AcDbXrecord
280
     1
270
     1
271
     1
  0
XRECORD
  5
1B19
102
{ACAD_REACTORS
330
1B14
102
}
330
1B14
100
AcDbXrecord
280
     1
270
     1
271
     1
  0
XRECORD
  5
1B18
102
{ACAD_REACTORS
330
1B14
102
}
330
1B14
100
AcDbXrecord
280
     1
270
     1
271
     1
  0
XRECORD
  5
1B1A
102
{ACAD_REACTORS
330
1B14
102
}
330
1B14
100
AcDbXrecord
280
     1
270
     1
271
     1
  0
XRECORD
  5
1B17
102
{ACAD_REACTORS
330
1B14
102
}
330
1B14
100
AcDbXrecord
280
     1
270
     1
271
     1
  0
XRECORD
  5
1B83
102
{ACAD_REACTORS
330
1B24
102
}
330
1B24
100
AcDbXrecord
280
     1
102
MATERIAL
148
0.0
149
0.0
149
0.0
 93
        0
 94
      127
282
     0
 72
     0
 77
     0
171
     0
175
     0
179
     0
273
     0
  0
XRECORD
  5
1B26
102
{ACAD_REACTORS
330
1B24
102
}
330
1B24
100
AcDbXrecord
280
     1
270
     1
271
     1
  0
XRECORD
  5
1B25
102
{ACAD_REACTORS
330
1B24
102
}
330
1B24
100
AcDbXrecord
280
     1
270
     1
271
     1
  0
XRECORD
  5
1B29
102
{ACAD_REACTORS
330
1B24
102
}
330
1B24
100
AcDbXrecord
280
     1
270
     1
271
     1
  0
XRECORD
  5
1B28
102
{ACAD_REACTORS
330
1B24
102
}
330
1B24
100
AcDbXrecord
280
     1
270
     1
271
     1
  0
XRECORD
  5
1B2A
102
{ACAD_REACTORS
330
1B24
102
}
330
1B24
100
AcDbXrecord
280
     1
270
     1
271
     1
  0
XRECORD
  5
1B27
102
{ACAD_REACTORS
330
1B24
102
}
330
1B24
100
AcDbXrecord
280
     1
270
     1
271
     1
  0
XRECORD
  5
1BB7
102
{ACAD_REACTORS
330
1BB6
102
}
330
1BB6
100
AcDbXrecord
280
     1
102
DISPLAYNAME
  1
Imperial24
102
FLAGS
 90
        0
  0
CELLSTYLEMAP
  5
1B7E
102
{ACAD_REACTORS
330
1B7D
102
}
330
1B7D
100
AcDbCellStyleMap
 90
        3
300
CELLSTYLE
  1
TABLEFORMAT_BEGIN
 90
        5
170
     1
 91
        0
 92
    32768
 62
   257
 93
        1
300
CONTENTFORMAT
  1
CONTENTFORMAT_BEGIN
 90
        0
 91
        0
 92
      512
 93
        0
300

 40
0.0
140
1.0
 94
        5
 62
     0
340
17F6
144
0.25
309
CONTENTFORMAT_END
171
     0
 94
        0
309
TABLEFORMAT_END
  1
CELLSTYLE_BEGIN
 90
        1
 91
        1
300
_TITLE
309
CELLSTYLE_END
300
CELLSTYLE
  1
TABLEFORMAT_BEGIN
 90
        5
170
     1
 91
        0
 92
        0
 62
   257
 93
        1
300
CONTENTFORMAT
  1
CONTENTFORMAT_BEGIN
 90
        0
 91
        0
 92
      512
 93
        0
300

 40
0.0
140
1.0
 94
        5
 62
     0
340
17F6
144
0.18
309
CONTENTFORMAT_END
171
     0
 94
        0
309
TABLEFORMAT_END
  1
CELLSTYLE_BEGIN
 90
        2
 91
        1
300
_HEADER
309
CELLSTYLE_END
300
CELLSTYLE
  1
TABLEFORMAT_BEGIN
 90
        5
170
     1
 91
        0
 92
        0
 62
   257
 93
        1
300
CONTENTFORMAT
  1
CONTENTFORMAT_BEGIN
 90
        0
 91
        0
 92
      512
 93
        0
300

 40
0.0
140
1.0
 94
        2
 62
     0
340
17F6
144
0.18
309
CONTENTFORMAT_END
171
     0
 94
        0
309
TABLEFORMAT_END
  1
CELLSTYLE_BEGIN
 90
        3
 91
        2
300
_DATA
309
CELLSTYLE_END
  0
XRECORD
  5
1BB4
102
{ACAD_REACTORS
330
1B7D
102
}
330
1B7D
100
AcDbXrecord
280
     1
102
ACAD_ROUNDTRIP_PRE2007_TABLESTYLE
 90
      512
 91
        0
  1

 92
      512
 93
        0
  2

 94
      512
 95
        0
  3

  0
XRECORD
  5
1B8F
102
{ACAD_REACTORS
330
1B8E
102
}
330
1B8E
100
AcDbXrecord
280
     1
102
RTVSPost2010Prop28
280
     1
102
RTVSPost2010PropOp28
 70
     1
102
RTVSPost2010Prop29
280
     1
102
RTVSPost2010PropOp29
 70
     1
102
RTVSPost2010Prop30
280
     0
102
RTVSPost2010PropOp30
 70
     1
102
RTVSPost2010Prop31
280
     0
102
RTVSPost2010PropOp31
 70
     1
102
RTVSPost2010Prop32
280
     0
102
RTVSPost2010PropOp32
 70
     1
102
RTVSPost2010Prop33
280
     0
102
RTVSPost2010PropOp33
 70
     1
102
RTVSPost2010Prop34
280
     0
102
RTVSPost2010PropOp34
 70
     1
102
RTVSPost2010Prop35
280
     0
102
RTVSPost2010PropOp35
 70
     1
102
RTVSPost2010Prop36
280
     0
102
RTVSPost2010PropOp36
 70
     1
102
RTVSPost2010Prop37
 90
       50
102
RTVSPost2010PropOp37
 70
     1
102
RTVSPost2010Prop38
140
0.0
102
RTVSPost2010PropOp38
 70
     1
102
RTVSPost2010Prop39
140
1.0
102
RTVSPost2010PropOp39
 70
     1
102
RTVSPost2010Prop40
 90
        0
102
RTVSPost2010PropOp40
 70
     1
102
RTVSPost2010Prop41ColorIndex
 90
       18
102
RTVSPost2010Prop41ColorRGB
 90
        0
102
RTVSPost2010PropOp41
 70
     1
102
RTVSPost2010Prop42
 90
       50
102
RTVSPost2010PropOp42
 70
     1
102
RTVSPost2010Prop43
 90
        3
102
RTVSPost2010PropOp43
 70
     1
102
RTVSPost2010Prop44ColorIndex
 90
        5
102
RTVSPost2010Prop44ColorRGB
 90
      255
102
RTVSPost2010PropOp44
 70
     1
102
RTVSPost2010Prop45
280
     0
102
RTVSPost2010PropOp45
 70
     1
102
RTVSPost2010Prop46
 90
       50
102
RTVSPost2010PropOp46
 70
     1
102
RTVSPost2010Prop47
 90
       50
102
RTVSPost2010PropOp47
 70
     1
102
RTVSPost2010Prop48
 90
       50
102
RTVSPost2010PropOp48
 70
     1
102
RTVSPost2010Prop49
280
     0
102
RTVSPost2010PropOp49
 70
     1
102
RTVSPost2010Prop50
 90
       50
102
RTVSPost2010PropOp50
 70
     1
102
RTVSPost2010Prop51ColorIndex
 90
      256
102
RTVSPost2010Prop51ColorRGB
 90
-16777216
102
RTVSPost2010PropOp51
 70
     0
102
RTVSPost2010Prop52
140
1.0
102
RTVSPost2010PropOp52
 70
     0
102
RTVSPost2010Prop53
 90
        2
102
RTVSPost2010PropOp53
 70
     1
102
RTVSPost2010Prop54
  1
strokes_ogs.tif
102
RTVSPost2010PropOp54
 70
     1
102
RTVSPost2010Prop55
280
     0
102
RTVSPost2010PropOp55
 70
     1
102
RTVSPost2010Prop56
140
1.0
102
RTVSPost2010PropOp56
 70
     1
102
RTVSPost2010Prop57
140
1.0
102
RTVSPost2010PropOp57
 70
     1
102
RTVSPropertyOp0
 70
     1
102
RTVSPropertyOp1
 70
     1
102
RTVSPropertyOp2
 70
     1
102
RTVSPropertyOp3
 70
     1
102
RTVSPropertyOp4
 70
     1
102
RTVSPropertyOp5
 70
     1
102
RTVSPropertyOp6
 70
     1
102
RTVSPropertyOp7
 70
     1
102
RTVSPropertyOp8
 70
     1
102
RTVSPropertyOp9
 70
     1
102
RTVSPropertyOp10
 70
     1
102
RTVSPropertyOp11
 70
     1
102
RTVSPropertyOp12
 70
     1
102
RTVSPropertyOp13
 70
     1
102
RTVSPropertyOp14
 70
     1
102
RTVSPropertyOp15
 70
     1
102
RTVSPropertyOp16
 70
     1
102
RTVSPropertyOp17
 70
     1
102
RTVSPropertyOp18
 70
     1
102
RTVSPropertyOp19
 70
     1
102
RTVSPropertyOp20
 70
     1
102
RTVSPropertyOp21
 70
     1
102
RTVSPropertyOp22
 70
     1
102
RTVSPropertyOp23
 70
     1
102
RTVSPropertyOp24
 70
     1
102
RTVSPropertyOp25
 70
     1
102
RTVSPropertyOp26
 70
     1
102
RTVSPropertyOp27
 70
     1
102
RTVSPropertyOp28
 70
     1
102
RTVSPropertyOp29
 70
     1
102
RTVSPropertyOp30
 70
     1
102
RTVSPropertyOp31
 70
     1
102
RTVSPropertyOp32
 70
     1
102
RTVSPropertyOp33
 70
     1
102
RTVSPropertyOp34
 70
     1
102
RTVSPropertyOp35
 70
     1
102
RTVSPropertyOp36
 70
     1
102
RTVSPropertyOp37
 70
     1
102
RTVSPropertyOp38
 70
     1
102
RTVSPropertyOp39
 70
     1
102
RTVSPropertyOp40
 70
     1
102
RTVSPropertyOp41
 70
     1
102
RTVSPropertyOp42
 70
     1
102
RTVSPropertyOp43
 70
     1
102
RTVSPropertyOp44
 70
     1
102
RTVSPropertyOp45
 70
     1
102
RTVSPropertyOp46
 70
     1
102
RTVSPropertyOp47
 70
     1
102
RTVSPropertyOp48
 70
     1
102
RTVSPropertyOp49
 70
     1
102
RTVSPropertyOp50
 70
     1
102
RTVSPropertyOp51
 70
     0
102
RTVSPropertyOp52
 70
     0
102
RTVSPropertyOp53
 70
     1
102
RTVSPropertyOp54
 70
     1
102
RTVSPropertyOp55
 70
     1
102
RTVSPropertyOp56
 70
     1
102
RTVSPropertyOp57
 70
     1
102
RTVSPropertyOp58
 70
     1
102
RTVSPropertyOp59
 70
     1
102
RTVSPropertyOp60
 70
     1
102
RTVSPropertyOp61
 70
     1
102
RTVSPropertyOp62
 70
     1
  0
XRECORD
  5
1B8D
102
{ACAD_REACTORS
330
1B8C
102
}
330
1B8C
100
AcDbXrecord
280
     1
102
RTVSPost2010Prop28
280
     0
102
RTVSPost2010PropOp28
 70
     1
102
RTVSPost2010Prop29
280
     1
102
RTVSPost2010PropOp29
 70
     1
102
RTVSPost2010Prop30
280
     1
102
RTVSPost2010PropOp30
 70
     1
102
RTVSPost2010Prop31
280
     0
102
RTVSPost2010PropOp31
 70
     1
102
RTVSPost2010Prop32
280
     0
102
RTVSPost2010PropOp32
 70
     1
102
RTVSPost2010Prop33
280
     0
102
RTVSPost2010PropOp33
 70
     1
102
RTVSPost2010Prop34
280
     0
102
RTVSPost2010PropOp34
 70
     1
102
RTVSPost2010Prop35
280
     0
102
RTVSPost2010PropOp35
 70
     1
102
RTVSPost2010Prop36
280
     0
102
RTVSPost2010PropOp36
 70
     1
102
RTVSPost2010Prop37
 90
       50
102
RTVSPost2010PropOp37
 70
     1
102
RTVSPost2010Prop38
140
0.0
102
RTVSPost2010PropOp38
 70
     1
102
RTVSPost2010Prop39
140
1.0
102
RTVSPost2010PropOp39
 70
     1
102
RTVSPost2010Prop40
 90
        0
102
RTVSPost2010PropOp40
 70
     1
102
RTVSPost2010Prop41ColorIndex
 90
       18
102
RTVSPost2010Prop41ColorRGB
 90
        0
102
RTVSPost2010PropOp41
 70
     1
102
RTVSPost2010Prop42
 90
       50
102
RTVSPost2010PropOp42
 70
     1
102
RTVSPost2010Prop43
 90
        3
102
RTVSPost2010PropOp43
 70
     1
102
RTVSPost2010Prop44ColorIndex
 90
        5
102
RTVSPost2010Prop44ColorRGB
 90
      255
102
RTVSPost2010PropOp44
 70
     1
102
RTVSPost2010Prop45
280
     0
102
RTVSPost2010PropOp45
 70
     1
102
RTVSPost2010Prop46
 90
       50
102
RTVSPost2010PropOp46
 70
     1
102
RTVSPost2010Prop47
 90
       50
102
RTVSPost2010PropOp47
 70
     1
102
RTVSPost2010Prop48
 90
       50
102
RTVSPost2010PropOp48
 70
     1
102
RTVSPost2010Prop49
280
     0
102
RTVSPost2010PropOp49
 70
     1
102
RTVSPost2010Prop50
 90
       50
102
RTVSPost2010PropOp50
 70
     1
102
RTVSPost2010Prop51ColorIndex
 90
      256
102
RTVSPost2010Prop51ColorRGB
 90
-16777216
102
RTVSPost2010PropOp51
 70
     0
102
RTVSPost2010Prop52
140
1.0
102
RTVSPost2010PropOp52
 70
     0
102
RTVSPost2010Prop53
 90
        2
102
RTVSPost2010PropOp53
 70
     1
102
RTVSPost2010Prop54
  1
strokes_ogs.tif
102
RTVSPost2010PropOp54
 70
     1
102
RTVSPost2010Prop55
280
     0
102
RTVSPost2010PropOp55
 70
     1
102
RTVSPost2010Prop56
140
1.0
102
RTVSPost2010PropOp56
 70
     1
102
RTVSPost2010Prop57
140
1.0
102
RTVSPost2010PropOp57
 70
     1
102
RTVSPropertyOp0
 70
     1
102
RTVSPropertyOp1
 70
     1
102
RTVSPropertyOp2
 70
     1
102
RTVSPropertyOp3
 70
     1
102
RTVSPropertyOp4
 70
     1
102
RTVSPropertyOp5
 70
     1
102
RTVSPropertyOp6
 70
     1
102
RTVSPropertyOp7
 70
     1
102
RTVSPropertyOp8
 70
     1
102
RTVSPropertyOp9
 70
     1
102
RTVSPropertyOp10
 70
     1
102
RTVSPropertyOp11
 70
     1
102
RTVSPropertyOp12
 70
     1
102
RTVSPropertyOp13
 70
     1
102
RTVSPropertyOp14
 70
     1
102
RTVSPropertyOp15
 70
     1
102
RTVSPropertyOp16
 70
     1
102
RTVSPropertyOp17
 70
     1
102
RTVSPropertyOp18
 70
     1
102
RTVSPropertyOp19
 70
     1
102
RTVSPropertyOp20
 70
     1
102
RTVSPropertyOp21
 70
     1
102
RTVSPropertyOp22
 70
     1
102
RTVSPropertyOp23
 70
     1
102
RTVSPropertyOp24
 70
     1
102
RTVSPropertyOp25
 70
     1
102
RTVSPropertyOp26
 70
     1
102
RTVSPropertyOp27
 70
     1
102
RTVSPropertyOp28
 70
     1
102
RTVSPropertyOp29
 70
     1
102
RTVSPropertyOp30
 70
     1
102
RTVSPropertyOp31
 70
     1
102
RTVSPropertyOp32
 70
     1
102
RTVSPropertyOp33
 70
     1
102
RTVSPropertyOp34
 70
     1
102
RTVSPropertyOp35
 70
     1
102
RTVSPropertyOp36
 70
     1
102
RTVSPropertyOp37
 70
     1
102
RTVSPropertyOp38
 70
     1
102
RTVSPropertyOp39
 70
     1
102
RTVSPropertyOp40
 70
     1
102
RTVSPropertyOp41
 70
     1
102
RTVSPropertyOp42
 70
     1
102
RTVSPropertyOp43
 70
     1
102
RTVSPropertyOp44
 70
     1
102
RTVSPropertyOp45
 70
     1
102
RTVSPropertyOp46
 70
     1
102
RTVSPropertyOp47
 70
     1
102
RTVSPropertyOp48
 70
     1
102
RTVSPropertyOp49
 70
     1
102
RTVSPropertyOp50
 70
     1
102
RTVSPropertyOp51
 70
     0
102
RTVSPropertyOp52
 70
     0
102
RTVSPropertyOp53
 70
     1
102
RTVSPropertyOp54
 70
     1
102
RTVSPropertyOp55
 70
     1
102
RTVSPropertyOp56
 70
     1
102
RTVSPropertyOp57
 70
     1
102
RTVSPropertyOp58
 70
     1
102
RTVSPropertyOp59
 70
     1
102
RTVSPropertyOp60
 70
     1
102
RTVSPropertyOp61
 70
     1
102
RTVSPropertyOp62
 70
     1
  0
XRECORD
  5
1B9B
102
{ACAD_REACTORS
330
1B9A
102
}
330
1B9A
100
AcDbXrecord
280
     1
102
RTVSPost2010Prop28
280
     0
102
RTVSPost2010PropOp28
 70
     1
102
RTVSPost2010Prop29
280
     1
102
RTVSPost2010PropOp29
 70
     1
102
RTVSPost2010Prop30
280
     1
102
RTVSPost2010PropOp30
 70
     1
102
RTVSPost2010Prop31
280
     0
102
RTVSPost2010PropOp31
 70
     1
102
RTVSPost2010Prop32
280
     0
102
RTVSPost2010PropOp32
 70
     1
102
RTVSPost2010Prop33
280
     0
102
RTVSPost2010PropOp33
 70
     1
102
RTVSPost2010Prop34
280
     0
102
RTVSPost2010PropOp34
 70
     1
102
RTVSPost2010Prop35
280
     0
102
RTVSPost2010PropOp35
 70
     1
102
RTVSPost2010Prop36
280
     0
102
RTVSPost2010PropOp36
 70
     1
102
RTVSPost2010Prop37
 90
       50
102
RTVSPost2010PropOp37
 70
     1
102
RTVSPost2010Prop38
140
0.0
102
RTVSPost2010PropOp38
 70
     1
102
RTVSPost2010Prop39
140
1.0
102
RTVSPost2010PropOp39
 70
     1
102
RTVSPost2010Prop40
 90
        0
102
RTVSPost2010PropOp40
 70
     1
102
RTVSPost2010Prop41ColorIndex
 90
       18
102
RTVSPost2010Prop41ColorRGB
 90
        0
102
RTVSPost2010PropOp41
 70
     1
102
RTVSPost2010Prop42
 90
       50
102
RTVSPost2010PropOp42
 70
     1
102
RTVSPost2010Prop43
 90
        3
102
RTVSPost2010PropOp43
 70
     1
102
RTVSPost2010Prop44ColorIndex
 90
        5
102
RTVSPost2010Prop44ColorRGB
 90
      255
102
RTVSPost2010PropOp44
 70
     1
102
RTVSPost2010Prop45
280
     0
102
RTVSPost2010PropOp45
 70
     1
102
RTVSPost2010Prop46
 90
       50
102
RTVSPost2010PropOp46
 70
     1
102
RTVSPost2010Prop47
 90
       50
102
RTVSPost2010PropOp47
 70
     1
102
RTVSPost2010Prop48
 90
       50
102
RTVSPost2010PropOp48
 70
     1
102
RTVSPost2010Prop49
280
     0
102
RTVSPost2010PropOp49
 70
     1
102
RTVSPost2010Prop50
 90
       50
102
RTVSPost2010PropOp50
 70
     1
102
RTVSPost2010Prop51ColorIndex
 90
      256
102
RTVSPost2010Prop51ColorRGB
 90
-16777216
102
RTVSPost2010PropOp51
 70
     0
102
RTVSPost2010Prop52
140
1.0
102
RTVSPost2010PropOp52
 70
     0
102
RTVSPost2010Prop53
 90
        2
102
RTVSPost2010PropOp53
 70
     1
102
RTVSPost2010Prop54
  1
strokes_ogs.tif
102
RTVSPost2010PropOp54
 70
     1
102
RTVSPost2010Prop55
280
     0
102
RTVSPost2010PropOp55
 70
     1
102
RTVSPost2010Prop56
140
1.0
102
RTVSPost2010PropOp56
 70
     1
102
RTVSPost2010Prop57
140
1.0
102
RTVSPost2010PropOp57
 70
     1
102
RTVSPropertyOp0
 70
     1
102
RTVSPropertyOp1
 70
     1
102
RTVSPropertyOp2
 70
     1
102
RTVSPropertyOp3
 70
     1
102
RTVSPropertyOp4
 70
     1
102
RTVSPropertyOp5
 70
     1
102
RTVSPropertyOp6
 70
     1
102
RTVSPropertyOp7
 70
     1
102
RTVSPropertyOp8
 70
     1
102
RTVSPropertyOp9
 70
     1
102
RTVSPropertyOp10
 70
     1
102
RTVSPropertyOp11
 70
     1
102
RTVSPropertyOp12
 70
     1
102
RTVSPropertyOp13
 70
     1
102
RTVSPropertyOp14
 70
     1
102
RTVSPropertyOp15
 70
     1
102
RTVSPropertyOp16
 70
     1
102
RTVSPropertyOp17
 70
     1
102
RTVSPropertyOp18
 70
     1
102
RTVSPropertyOp19
 70
     1
102
RTVSPropertyOp20
 70
     1
102
RTVSPropertyOp21
 70
     1
102
RTVSPropertyOp22
 70
     1
102
RTVSPropertyOp23
 70
     1
102
RTVSPropertyOp24
 70
     1
102
RTVSPropertyOp25
 70
     1
102
RTVSPropertyOp26
 70
     1
102
RTVSPropertyOp27
 70
     1
102
RTVSPropertyOp28
 70
     1
102
RTVSPropertyOp29
 70
     1
102
RTVSPropertyOp30
 70
     1
102
RTVSPropertyOp31
 70
     1
102
RTVSPropertyOp32
 70
     1
102
RTVSPropertyOp33
 70
     1
102
RTVSPropertyOp34
 70
     1
102
RTVSPropertyOp35
 70
     1
102
RTVSPropertyOp36
 70
     1
102
RTVSPropertyOp37
 70
     1
102
RTVSPropertyOp38
 70
     1
102
RTVSPropertyOp39
 70
     1
102
RTVSPropertyOp40
 70
     1
102
RTVSPropertyOp41
 70
     1
102
RTVSPropertyOp42
 70
     1
102
RTVSPropertyOp43
 70
     1
102
RTVSPropertyOp44
 70
     1
102
RTVSPropertyOp45
 70
     1
102
RTVSPropertyOp46
 70
     1
102
RTVSPropertyOp47
 70
     1
102
RTVSPropertyOp48
 70
     1
102
RTVSPropertyOp49
 70
     1
102
RTVSPropertyOp50
 70
     1
102
RTVSPropertyOp51
 70
     0
102
RTVSPropertyOp52
 70
     0
102
RTVSPropertyOp53
 70
     1
102
RTVSPropertyOp54
 70
     1
102
RTVSPropertyOp55
 70
     1
102
RTVSPropertyOp56
 70
     1
102
RTVSPropertyOp57
 70
     1
102
RTVSPropertyOp58
 70
     1
102
RTVSPropertyOp59
 70
     1
102
RTVSPropertyOp60
 70
     1
102
RTVSPropertyOp61
 70
     1
102
RTVSPropertyOp62
 70
     1
  0
XRECORD
  5
1BA3
102
{ACAD_REACTORS
330
1BA2
102
}
330
1BA2
100
AcDbXrecord
280
     1
102
RTVSPost2010Prop28
280
     0
102
RTVSPost2010PropOp28
 70
     1
102
RTVSPost2010Prop29
280
     1
102
RTVSPost2010PropOp29
 70
     1
102
RTVSPost2010Prop30
280
     1
102
RTVSPost2010PropOp30
 70
     1
102
RTVSPost2010Prop31
280
     0
102
RTVSPost2010PropOp31
 70
     1
102
RTVSPost2010Prop32
280
     0
102
RTVSPost2010PropOp32
 70
     1
102
RTVSPost2010Prop33
280
     0
102
RTVSPost2010PropOp33
 70
     1
102
RTVSPost2010Prop34
280
     0
102
RTVSPost2010PropOp34
 70
     1
102
RTVSPost2010Prop35
280
     0
102
RTVSPost2010PropOp35
 70
     1
102
RTVSPost2010Prop36
280
     0
102
RTVSPost2010PropOp36
 70
     1
102
RTVSPost2010Prop37
 90
       50
102
RTVSPost2010PropOp37
 70
     1
102
RTVSPost2010Prop38
140
0.0
102
RTVSPost2010PropOp38
 70
     1
102
RTVSPost2010Prop39
140
1.0
102
RTVSPost2010PropOp39
 70
     1
102
RTVSPost2010Prop40
 90
        0
102
RTVSPost2010PropOp40
 70
     1
102
RTVSPost2010Prop41ColorIndex
 90
       18
102
RTVSPost2010Prop41ColorRGB
 90
        0
102
RTVSPost2010PropOp41
 70
     1
102
RTVSPost2010Prop42
 90
       50
102
RTVSPost2010PropOp42
 70
     1
102
RTVSPost2010Prop43
 90
        3
102
RTVSPost2010PropOp43
 70
     1
102
RTVSPost2010Prop44ColorIndex
 90
        5
102
RTVSPost2010Prop44ColorRGB
 90
      255
102
RTVSPost2010PropOp44
 70
     1
102
RTVSPost2010Prop45
280
     0
102
RTVSPost2010PropOp45
 70
     1
102
RTVSPost2010Prop46
 90
       50
102
RTVSPost2010PropOp46
 70
     1
102
RTVSPost2010Prop47
 90
       50
102
RTVSPost2010PropOp47
 70
     1
102
RTVSPost2010Prop48
 90
       50
102
RTVSPost2010PropOp48
 70
     1
102
RTVSPost2010Prop49
280
     0
102
RTVSPost2010PropOp49
 70
     1
102
RTVSPost2010Prop50
 90
       50
102
RTVSPost2010PropOp50
 70
     1
102
RTVSPost2010Prop51ColorIndex
 90
      256
102
RTVSPost2010Prop51ColorRGB
 90
-16777216
102
RTVSPost2010PropOp51
 70
     0
102
RTVSPost2010Prop52
140
1.0
102
RTVSPost2010PropOp52
 70
     0
102
RTVSPost2010Prop53
 90
        2
102
RTVSPost2010PropOp53
 70
     1
102
RTVSPost2010Prop54
  1
strokes_ogs.tif
102
RTVSPost2010PropOp54
 70
     1
102
RTVSPost2010Prop55
280
     0
102
RTVSPost2010PropOp55
 70
     1
102
RTVSPost2010Prop56
140
1.0
102
RTVSPost2010PropOp56
 70
     1
102
RTVSPost2010Prop57
140
1.0
102
RTVSPost2010PropOp57
 70
     1
102
RTVSPropertyOp0
 70
     1
102
RTVSPropertyOp1
 70
     1
102
RTVSPropertyOp2
 70
     1
102
RTVSPropertyOp3
 70
     1
102
RTVSPropertyOp4
 70
     1
102
RTVSPropertyOp5
 70
     1
102
RTVSPropertyOp6
 70
     1
102
RTVSPropertyOp7
 70
     1
102
RTVSPropertyOp8
 70
     1
102
RTVSPropertyOp9
 70
     1
102
RTVSPropertyOp10
 70
     1
102
RTVSPropertyOp11
 70
     1
102
RTVSPropertyOp12
 70
     1
102
RTVSPropertyOp13
 70
     1
102
RTVSPropertyOp14
 70
     1
102
RTVSPropertyOp15
 70
     1
102
RTVSPropertyOp16
 70
     1
102
RTVSPropertyOp17
 70
     1
102
RTVSPropertyOp18
 70
     1
102
RTVSPropertyOp19
 70
     1
102
RTVSPropertyOp20
 70
     1
102
RTVSPropertyOp21
 70
     1
102
RTVSPropertyOp22
 70
     1
102
RTVSPropertyOp23
 70
     1
102
RTVSPropertyOp24
 70
     1
102
RTVSPropertyOp25
 70
     1
102
RTVSPropertyOp26
 70
     1
102
RTVSPropertyOp27
 70
     1
102
RTVSPropertyOp28
 70
     1
102
RTVSPropertyOp29
 70
     1
102
RTVSPropertyOp30
 70
     1
102
RTVSPropertyOp31
 70
     1
102
RTVSPropertyOp32
 70
     1
102
RTVSPropertyOp33
 70
     1
102
RTVSPropertyOp34
 70
     1
102
RTVSPropertyOp35
 70
     1
102
RTVSPropertyOp36
 70
     1
102
RTVSPropertyOp37
 70
     1
102
RTVSPropertyOp38
 70
     1
102
RTVSPropertyOp39
 70
     1
102
RTVSPropertyOp40
 70
     1
102
RTVSPropertyOp41
 70
     1
102
RTVSPropertyOp42
 70
     1
102
RTVSPropertyOp43
 70
     1
102
RTVSPropertyOp44
 70
     1
102
RTVSPropertyOp45
 70
     1
102
RTVSPropertyOp46
 70
     1
102
RTVSPropertyOp47
 70
     1
102
RTVSPropertyOp48
 70
     1
102
RTVSPropertyOp49
 70
     1
102
RTVSPropertyOp50
 70
     1
102
RTVSPropertyOp51
 70
     0
102
RTVSPropertyOp52
 70
     0
102
RTVSPropertyOp53
 70
     1
102
RTVSPropertyOp54
 70
     1
102
RTVSPropertyOp55
 70
     1
102
RTVSPropertyOp56
 70
     1
102
RTVSPropertyOp57
 70
     1
102
RTVSPropertyOp58
 70
     1
102
RTVSPropertyOp59
 70
     1
102
RTVSPropertyOp60
 70
     1
102
RTVSPropertyOp61
 70
     1
102
RTVSPropertyOp62
 70
     1
  0
XRECORD
  5
1B95
102
{ACAD_REACTORS
330
1B94
102
}
330
1B94
100
AcDbXrecord
280
     1
102
RTVSPost2010Prop28
280
     0
102
RTVSPost2010PropOp28
 70
     1
102
RTVSPost2010Prop29
280
     1
102
RTVSPost2010PropOp29
 70
     1
102
RTVSPost2010Prop30
280
     1
102
RTVSPost2010PropOp30
 70
     1
102
RTVSPost2010Prop31
280
     0
102
RTVSPost2010PropOp31
 70
     1
102
RTVSPost2010Prop32
280
     0
102
RTVSPost2010PropOp32
 70
     1
102
RTVSPost2010Prop33
280
     0
102
RTVSPost2010PropOp33
 70
     1
102
RTVSPost2010Prop34
280
     0
102
RTVSPost2010PropOp34
 70
     1
102
RTVSPost2010Prop35
280
     0
102
RTVSPost2010PropOp35
 70
     1
102
RTVSPost2010Prop36
280
     0
102
RTVSPost2010PropOp36
 70
     1
102
RTVSPost2010Prop37
 90
       50
102
RTVSPost2010PropOp37
 70
     1
102
RTVSPost2010Prop38
140
0.0
102
RTVSPost2010PropOp38
 70
     1
102
RTVSPost2010Prop39
140
1.0
102
RTVSPost2010PropOp39
 70
     1
102
RTVSPost2010Prop40
 90
        0
102
RTVSPost2010PropOp40
 70
     1
102
RTVSPost2010Prop41ColorIndex
 90
       18
102
RTVSPost2010Prop41ColorRGB
 90
        0
102
RTVSPost2010PropOp41
 70
     1
102
RTVSPost2010Prop42
 90
       50
102
RTVSPost2010PropOp42
 70
     1
102
RTVSPost2010Prop43
 90
        3
102
RTVSPost2010PropOp43
 70
     1
102
RTVSPost2010Prop44ColorIndex
 90
        5
102
RTVSPost2010Prop44ColorRGB
 90
      255
102
RTVSPost2010PropOp44
 70
     1
102
RTVSPost2010Prop45
280
     0
102
RTVSPost2010PropOp45
 70
     1
102
RTVSPost2010Prop46
 90
       50
102
RTVSPost2010PropOp46
 70
     1
102
RTVSPost2010Prop47
 90
       50
102
RTVSPost2010PropOp47
 70
     1
102
RTVSPost2010Prop48
 90
       50
102
RTVSPost2010PropOp48
 70
     1
102
RTVSPost2010Prop49
280
     0
102
RTVSPost2010PropOp49
 70
     1
102
RTVSPost2010Prop50
 90
       50
102
RTVSPost2010PropOp50
 70
     1
102
RTVSPost2010Prop51ColorIndex
 90
      256
102
RTVSPost2010Prop51ColorRGB
 90
-16777216
102
RTVSPost2010PropOp51
 70
     0
102
RTVSPost2010Prop52
140
1.0
102
RTVSPost2010PropOp52
 70
     0
102
RTVSPost2010Prop53
 90
        2
102
RTVSPost2010PropOp53
 70
     1
102
RTVSPost2010Prop54
  1
strokes_ogs.tif
102
RTVSPost2010PropOp54
 70
     1
102
RTVSPost2010Prop55
280
     0
102
RTVSPost2010PropOp55
 70
     1
102
RTVSPost2010Prop56
140
1.0
102
RTVSPost2010PropOp56
 70
     1
102
RTVSPost2010Prop57
140
1.0
102
RTVSPost2010PropOp57
 70
     1
102
RTVSPropertyOp0
 70
     1
102
RTVSPropertyOp1
 70
     1
102
RTVSPropertyOp2
 70
     1
102
RTVSPropertyOp3
 70
     1
102
RTVSPropertyOp4
 70
     1
102
RTVSPropertyOp5
 70
     1
102
RTVSPropertyOp6
 70
     1
102
RTVSPropertyOp7
 70
     1
102
RTVSPropertyOp8
 70
     1
102
RTVSPropertyOp9
 70
     1
102
RTVSPropertyOp10
 70
     1
102
RTVSPropertyOp11
 70
     1
102
RTVSPropertyOp12
 70
     1
102
RTVSPropertyOp13
 70
     1
102
RTVSPropertyOp14
 70
     1
102
RTVSPropertyOp15
 70
     1
102
RTVSPropertyOp16
 70
     1
102
RTVSPropertyOp17
 70
     1
102
RTVSPropertyOp18
 70
     1
102
RTVSPropertyOp19
 70
     1
102
RTVSPropertyOp20
 70
     1
102
RTVSPropertyOp21
 70
     1
102
RTVSPropertyOp22
 70
     1
102
RTVSPropertyOp23
 70
     1
102
RTVSPropertyOp24
 70
     1
102
RTVSPropertyOp25
 70
     1
102
RTVSPropertyOp26
 70
     1
102
RTVSPropertyOp27
 70
     1
102
RTVSPropertyOp28
 70
     1
102
RTVSPropertyOp29
 70
     1
102
RTVSPropertyOp30
 70
     1
102
RTVSPropertyOp31
 70
     1
102
RTVSPropertyOp32
 70
     1
102
RTVSPropertyOp33
 70
     1
102
RTVSPropertyOp34
 70
     1
102
RTVSPropertyOp35
 70
     1
102
RTVSPropertyOp36
 70
     1
102
RTVSPropertyOp37
 70
     1
102
RTVSPropertyOp38
 70
     1
102
RTVSPropertyOp39
 70
     1
102
RTVSPropertyOp40
 70
     1
102
RTVSPropertyOp41
 70
     1
102
RTVSPropertyOp42
 70
     1
102
RTVSPropertyOp43
 70
     1
102
RTVSPropertyOp44
 70
     1
102
RTVSPropertyOp45
 70
     1
102
RTVSPropertyOp46
 70
     1
102
RTVSPropertyOp47
 70
     1
102
RTVSPropertyOp48
 70
     1
102
RTVSPropertyOp49
 70
     1
102
RTVSPropertyOp50
 70
     1
102
RTVSPropertyOp51
 70
     0
102
RTVSPropertyOp52
 70
     0
102
RTVSPropertyOp53
 70
     1
102
RTVSPropertyOp54
 70
     1
102
RTVSPropertyOp55
 70
     1
102
RTVSPropertyOp56
 70
     1
102
RTVSPropertyOp57
 70
     1
102
RTVSPropertyOp58
 70
     1
102
RTVSPropertyOp59
 70
     1
102
RTVSPropertyOp60
 70
     1
102
RTVSPropertyOp61
 70
     1
102
RTVSPropertyOp62
 70
     1
  0
XRECORD
  5
1B99
102
{ACAD_REACTORS
330
1B98
102
}
330
1B98
100
AcDbXrecord
280
     1
102
RTVSPost2010Prop28
280
     0
102
RTVSPost2010PropOp28
 70
     1
102
RTVSPost2010Prop29
280
     1
102
RTVSPost2010PropOp29
 70
     1
102
RTVSPost2010Prop30
280
     1
102
RTVSPost2010PropOp30
 70
     1
102
RTVSPost2010Prop31
280
     0
102
RTVSPost2010PropOp31
 70
     1
102
RTVSPost2010Prop32
280
     0
102
RTVSPost2010PropOp32
 70
     1
102
RTVSPost2010Prop33
280
     0
102
RTVSPost2010PropOp33
 70
     1
102
RTVSPost2010Prop34
280
     0
102
RTVSPost2010PropOp34
 70
     1
102
RTVSPost2010Prop35
280
     0
102
RTVSPost2010PropOp35
 70
     1
102
RTVSPost2010Prop36
280
     0
102
RTVSPost2010PropOp36
 70
     1
102
RTVSPost2010Prop37
 90
       50
102
RTVSPost2010PropOp37
 70
     1
102
RTVSPost2010Prop38
140
0.0
102
RTVSPost2010PropOp38
 70
     1
102
RTVSPost2010Prop39
140
1.0
102
RTVSPost2010PropOp39
 70
     1
102
RTVSPost2010Prop40
 90
        0
102
RTVSPost2010PropOp40
 70
     1
102
RTVSPost2010Prop41ColorIndex
 90
       18
102
RTVSPost2010Prop41ColorRGB
 90
        0
102
RTVSPost2010PropOp41
 70
     1
102
RTVSPost2010Prop42
 90
       50
102
RTVSPost2010PropOp42
 70
     1
102
RTVSPost2010Prop43
 90
        3
102
RTVSPost2010PropOp43
 70
     1
102
RTVSPost2010Prop44ColorIndex
 90
        5
102
RTVSPost2010Prop44ColorRGB
 90
      255
102
RTVSPost2010PropOp44
 70
     1
102
RTVSPost2010Prop45
280
     0
102
RTVSPost2010PropOp45
 70
     1
102
RTVSPost2010Prop46
 90
       50
102
RTVSPost2010PropOp46
 70
     1
102
RTVSPost2010Prop47
 90
       50
102
RTVSPost2010PropOp47
 70
     1
102
RTVSPost2010Prop48
 90
       50
102
RTVSPost2010PropOp48
 70
     1
102
RTVSPost2010Prop49
280
     0
102
RTVSPost2010PropOp49
 70
     1
102
RTVSPost2010Prop50
 90
       50
102
RTVSPost2010PropOp50
 70
     1
102
RTVSPost2010Prop51ColorIndex
 90
      256
102
RTVSPost2010Prop51ColorRGB
 90
-16777216
102
RTVSPost2010PropOp51
 70
     0
102
RTVSPost2010Prop52
140
1.0
102
RTVSPost2010PropOp52
 70
     0
102
RTVSPost2010Prop53
 90
        2
102
RTVSPost2010PropOp53
 70
     1
102
RTVSPost2010Prop54
  1
strokes_ogs.tif
102
RTVSPost2010PropOp54
 70
     1
102
RTVSPost2010Prop55
280
     0
102
RTVSPost2010PropOp55
 70
     1
102
RTVSPost2010Prop56
140
1.0
102
RTVSPost2010PropOp56
 70
     1
102
RTVSPost2010Prop57
140
1.0
102
RTVSPost2010PropOp57
 70
     1
102
RTVSPropertyOp0
 70
     1
102
RTVSPropertyOp1
 70
     1
102
RTVSPropertyOp2
 70
     1
102
RTVSPropertyOp3
 70
     1
102
RTVSPropertyOp4
 70
     1
102
RTVSPropertyOp5
 70
     1
102
RTVSPropertyOp6
 70
     1
102
RTVSPropertyOp7
 70
     1
102
RTVSPropertyOp8
 70
     1
102
RTVSPropertyOp9
 70
     1
102
RTVSPropertyOp10
 70
     1
102
RTVSPropertyOp11
 70
     1
102
RTVSPropertyOp12
 70
     1
102
RTVSPropertyOp13
 70
     1
102
RTVSPropertyOp14
 70
     1
102
RTVSPropertyOp15
 70
     1
102
RTVSPropertyOp16
 70
     1
102
RTVSPropertyOp17
 70
     1
102
RTVSPropertyOp18
 70
     1
102
RTVSPropertyOp19
 70
     1
102
RTVSPropertyOp20
 70
     1
102
RTVSPropertyOp21
 70
     1
102
RTVSPropertyOp22
 70
     1
102
RTVSPropertyOp23
 70
     1
102
RTVSPropertyOp24
 70
     1
102
RTVSPropertyOp25
 70
     1
102
RTVSPropertyOp26
 70
     1
102
RTVSPropertyOp27
 70
     1
102
RTVSPropertyOp28
 70
     1
102
RTVSPropertyOp29
 70
     1
102
RTVSPropertyOp30
 70
     1
102
RTVSPropertyOp31
 70
     1
102
RTVSPropertyOp32
 70
     1
102
RTVSPropertyOp33
 70
     1
102
RTVSPropertyOp34
 70
     1
102
RTVSPropertyOp35
 70
     1
102
RTVSPropertyOp36
 70
     1
102
RTVSPropertyOp37
 70
     1
102
RTVSPropertyOp38
 70
     1
102
RTVSPropertyOp39
 70
     1
102
RTVSPropertyOp40
 70
     1
102
RTVSPropertyOp41
 70
     1
102
RTVSPropertyOp42
 70
     1
102
RTVSPropertyOp43
 70
     1
102
RTVSPropertyOp44
 70
     1
102
RTVSPropertyOp45
 70
     1
102
RTVSPropertyOp46
 70
     1
102
RTVSPropertyOp47
 70
     1
102
RTVSPropertyOp48
 70
     1
102
RTVSPropertyOp49
 70
     1
102
RTVSPropertyOp50
 70
     1
102
RTVSPropertyOp51
 70
     0
102
RTVSPropertyOp52
 70
     0
102
RTVSPropertyOp53
 70
     1
102
RTVSPropertyOp54
 70
     1
102
RTVSPropertyOp55
 70
     1
102
RTVSPropertyOp56
 70
     1
102
RTVSPropertyOp57
 70
     1
102
RTVSPropertyOp58
 70
     1
102
RTVSPropertyOp59
 70
     1
102
RTVSPropertyOp60
 70
     1
102
RTVSPropertyOp61
 70
     1
102
RTVSPropertyOp62
 70
     1
  0
XRECORD
  5
1BB3
102
{ACAD_REACTORS
330
1BB2
102
}
330
1BB2
100
AcDbXrecord
280
     1
102
RTVSPost2010Prop28
280
     0
102
RTVSPost2010PropOp28
 70
     1
102
RTVSPost2010Prop29
280
     1
102
RTVSPost2010PropOp29
 70
     1
102
RTVSPost2010Prop30
280
     1
102
RTVSPost2010PropOp30
 70
     1
102
RTVSPost2010Prop31
280
     0
102
RTVSPost2010PropOp31
 70
     1
102
RTVSPost2010Prop32
280
     0
102
RTVSPost2010PropOp32
 70
     1
102
RTVSPost2010Prop33
280
     0
102
RTVSPost2010PropOp33
 70
     1
102
RTVSPost2010Prop34
280
     0
102
RTVSPost2010PropOp34
 70
     1
102
RTVSPost2010Prop35
280
     0
102
RTVSPost2010PropOp35
 70
     1
102
RTVSPost2010Prop36
280
     0
102
RTVSPost2010PropOp36
 70
     1
102
RTVSPost2010Prop37
 90
       50
102
RTVSPost2010PropOp37
 70
     0
102
RTVSPost2010Prop38
140
0.0
102
RTVSPost2010PropOp38
 70
     0
102
RTVSPost2010Prop39
140
1.0
102
RTVSPost2010PropOp39
 70
     0
102
RTVSPost2010Prop40
 90
        0
102
RTVSPost2010PropOp40
 70
     0
102
RTVSPost2010Prop41ColorIndex
 90
       18
102
RTVSPost2010Prop41ColorRGB
 90
        0
102
RTVSPost2010PropOp41
 70
     0
102
RTVSPost2010Prop42
 90
       50
102
RTVSPost2010PropOp42
 70
     0
102
RTVSPost2010Prop43
 90
        3
102
RTVSPost2010PropOp43
 70
     0
102
RTVSPost2010Prop44ColorIndex
 90
        5
102
RTVSPost2010Prop44ColorRGB
 90
      255
102
RTVSPost2010PropOp44
 70
     0
102
RTVSPost2010Prop45
280
     0
102
RTVSPost2010PropOp45
 70
     1
102
RTVSPost2010Prop46
 90
       50
102
RTVSPost2010PropOp46
 70
     0
102
RTVSPost2010Prop47
 90
       50
102
RTVSPost2010PropOp47
 70
     0
102
RTVSPost2010Prop48
 90
       50
102
RTVSPost2010PropOp48
 70
     0
102
RTVSPost2010Prop49
280
     0
102
RTVSPost2010PropOp49
 70
     1
102
RTVSPost2010Prop50
 90
       50
102
RTVSPost2010PropOp50
 70
     0
102
RTVSPost2010Prop51ColorIndex
 90
      256
102
RTVSPost2010Prop51ColorRGB
 90
-16777216
102
RTVSPost2010PropOp51
 70
     0
102
RTVSPost2010Prop52
140
1.0
102
RTVSPost2010PropOp52
 70
     0
102
RTVSPost2010Prop53
 90
        2
102
RTVSPost2010PropOp53
 70
     0
102
RTVSPost2010Prop54
  1
strokes_ogs.tif
102
RTVSPost2010PropOp54
 70
     0
102
RTVSPost2010Prop55
280
     0
102
RTVSPost2010PropOp55
 70
     1
102
RTVSPost2010Prop56
140
1.0
102
RTVSPost2010PropOp56
 70
     0
102
RTVSPost2010Prop57
140
1.0
102
RTVSPost2010PropOp57
 70
     0
102
RTVSPropertyOp0
 70
     0
102
RTVSPropertyOp1
 70
     0
102
RTVSPropertyOp2
 70
     0
102
RTVSPropertyOp3
 70
     0
102
RTVSPropertyOp4
 70
     0
102
RTVSPropertyOp5
 70
     0
102
RTVSPropertyOp6
 70
     0
102
RTVSPropertyOp7
 70
     0
102
RTVSPropertyOp8
 70
     0
102
RTVSPropertyOp9
 70
     0
102
RTVSPropertyOp10
 70
     0
102
RTVSPropertyOp11
 70
     0
102
RTVSPropertyOp12
 70
     0
102
RTVSPropertyOp13
 70
     0
102
RTVSPropertyOp14
 70
     2
102
RTVSPropertyOp15
 70
     0
102
RTVSPropertyOp16
 70
     0
102
RTVSPropertyOp17
 70
     0
102
RTVSPropertyOp18
 70
     0
102
RTVSPropertyOp19
 70
     0
102
RTVSPropertyOp20
 70
     0
102
RTVSPropertyOp21
 70
     0
102
RTVSPropertyOp22
 70
     0
102
RTVSPropertyOp23
 70
     0
102
RTVSPropertyOp24
 70
     0
102
RTVSPropertyOp25
 70
     0
102
RTVSPropertyOp26
 70
     0
102
RTVSPropertyOp27
 70
     0
102
RTVSPropertyOp28
 70
     1
102
RTVSPropertyOp29
 70
     1
102
RTVSPropertyOp30
 70
     1
102
RTVSPropertyOp31
 70
     1
102
RTVSPropertyOp32
 70
     1
102
RTVSPropertyOp33
 70
     1
102
RTVSPropertyOp34
 70
     1
102
RTVSPropertyOp35
 70
     1
102
RTVSPropertyOp36
 70
     1
102
RTVSPropertyOp37
 70
     0
102
RTVSPropertyOp38
 70
     0
102
RTVSPropertyOp39
 70
     0
102
RTVSPropertyOp40
 70
     0
102
RTVSPropertyOp41
 70
     0
102
RTVSPropertyOp42
 70
     0
102
RTVSPropertyOp43
 70
     0
102
RTVSPropertyOp44
 70
     0
102
RTVSPropertyOp45
 70
     1
102
RTVSPropertyOp46
 70
     0
102
RTVSPropertyOp47
 70
     0
102
RTVSPropertyOp48
 70
     0
102
RTVSPropertyOp49
 70
     1
102
RTVSPropertyOp50
 70
     0
102
RTVSPropertyOp51
 70
     0
102
RTVSPropertyOp52
 70
     0
102
RTVSPropertyOp53
 70
     0
102
RTVSPropertyOp54
 70
     0
102
RTVSPropertyOp55
 70
     1
102
RTVSPropertyOp56
 70
     0
102
RTVSPropertyOp57
 70
     0
102
RTVSPropertyOp58
 70
     0
102
RTVSPropertyOp59
 70
     0
102
RTVSPropertyOp60
 70
     0
102
RTVSPropertyOp61
 70
     0
102
RTVSPropertyOp62
 70
     0
  0
XRECORD
  5
1BA1
102
{ACAD_REACTORS
330
1BA0
102
}
330
1BA0
100
AcDbXrecord
280
     1
102
RTVSPost2010Prop28
280
     0
102
RTVSPost2010PropOp28
 70
     1
102
RTVSPost2010Prop29
280
     1
102
RTVSPost2010PropOp29
 70
     1
102
RTVSPost2010Prop30
280
     1
102
RTVSPost2010PropOp30
 70
     1
102
RTVSPost2010Prop31
280
     0
102
RTVSPost2010PropOp31
 70
     1
102
RTVSPost2010Prop32
280
     0
102
RTVSPost2010PropOp32
 70
     1
102
RTVSPost2010Prop33
280
     0
102
RTVSPost2010PropOp33
 70
     1
102
RTVSPost2010Prop34
280
     0
102
RTVSPost2010PropOp34
 70
     1
102
RTVSPost2010Prop35
280
     0
102
RTVSPost2010PropOp35
 70
     1
102
RTVSPost2010Prop36
280
     0
102
RTVSPost2010PropOp36
 70
     1
102
RTVSPost2010Prop37
 90
       50
102
RTVSPost2010PropOp37
 70
     1
102
RTVSPost2010Prop38
140
0.0
102
RTVSPost2010PropOp38
 70
     1
102
RTVSPost2010Prop39
140
1.0
102
RTVSPost2010PropOp39
 70
     1
102
RTVSPost2010Prop40
 90
        0
102
RTVSPost2010PropOp40
 70
     1
102
RTVSPost2010Prop41ColorIndex
 90
       18
102
RTVSPost2010Prop41ColorRGB
 90
        0
102
RTVSPost2010PropOp41
 70
     1
102
RTVSPost2010Prop42
 90
       50
102
RTVSPost2010PropOp42
 70
     1
102
RTVSPost2010Prop43
 90
        3
102
RTVSPost2010PropOp43
 70
     1
102
RTVSPost2010Prop44ColorIndex
 90
        5
102
RTVSPost2010Prop44ColorRGB
 90
      255
102
RTVSPost2010PropOp44
 70
     1
102
RTVSPost2010Prop45
280
     0
102
RTVSPost2010PropOp45
 70
     1
102
RTVSPost2010Prop46
 90
       50
102
RTVSPost2010PropOp46
 70
     1
102
RTVSPost2010Prop47
 90
       50
102
RTVSPost2010PropOp47
 70
     1
102
RTVSPost2010Prop48
 90
       50
102
RTVSPost2010PropOp48
 70
     1
102
RTVSPost2010Prop49
280
     0
102
RTVSPost2010PropOp49
 70
     1
102
RTVSPost2010Prop50
 90
       50
102
RTVSPost2010PropOp50
 70
     1
102
RTVSPost2010Prop51ColorIndex
 90
      256
102
RTVSPost2010Prop51ColorRGB
 90
-16777216
102
RTVSPost2010PropOp51
 70
     0
102
RTVSPost2010Prop52
140
1.0
102
RTVSPost2010PropOp52
 70
     0
102
RTVSPost2010Prop53
 90
        2
102
RTVSPost2010PropOp53
 70
     1
102
RTVSPost2010Prop54
  1
strokes_ogs.tif
102
RTVSPost2010PropOp54
 70
     1
102
RTVSPost2010Prop55
280
     0
102
RTVSPost2010PropOp55
 70
     1
102
RTVSPost2010Prop56
140
1.0
102
RTVSPost2010PropOp56
 70
     1
102
RTVSPost2010Prop57
140
1.0
102
RTVSPost2010PropOp57
 70
     1
102
RTVSPropertyOp0
 70
     1
102
RTVSPropertyOp1
 70
     1
102
RTVSPropertyOp2
 70
     1
102
RTVSPropertyOp3
 70
     1
102
RTVSPropertyOp4
 70
     1
102
RTVSPropertyOp5
 70
     1
102
RTVSPropertyOp6
 70
     1
102
RTVSPropertyOp7
 70
     1
102
RTVSPropertyOp8
 70
     1
102
RTVSPropertyOp9
 70
     1
102
RTVSPropertyOp10
 70
     1
102
RTVSPropertyOp11
 70
     1
102
RTVSPropertyOp12
 70
     1
102
RTVSPropertyOp13
 70
     1
102
RTVSPropertyOp14
 70
     1
102
RTVSPropertyOp15
 70
     1
102
RTVSPropertyOp16
 70
     1
102
RTVSPropertyOp17
 70
     1
102
RTVSPropertyOp18
 70
     1
102
RTVSPropertyOp19
 70
     1
102
RTVSPropertyOp20
 70
     1
102
RTVSPropertyOp21
 70
     1
102
RTVSPropertyOp22
 70
     1
102
RTVSPropertyOp23
 70
     1
102
RTVSPropertyOp24
 70
     1
102
RTVSPropertyOp25
 70
     1
102
RTVSPropertyOp26
 70
     1
102
RTVSPropertyOp27
 70
     1
102
RTVSPropertyOp28
 70
     1
102
RTVSPropertyOp29
 70
     1
102
RTVSPropertyOp30
 70
     1
102
RTVSPropertyOp31
 70
     1
102
RTVSPropertyOp32
 70
     1
102
RTVSPropertyOp33
 70
     1
102
RTVSPropertyOp34
 70
     1
102
RTVSPropertyOp35
 70
     1
102
RTVSPropertyOp36
 70
     1
102
RTVSPropertyOp37
 70
     1
102
RTVSPropertyOp38
 70
     1
102
RTVSPropertyOp39
 70
     1
102
RTVSPropertyOp40
 70
     1
102
RTVSPropertyOp41
 70
     1
102
RTVSPropertyOp42
 70
     1
102
RTVSPropertyOp43
 70
     1
102
RTVSPropertyOp44
 70
     1
102
RTVSPropertyOp45
 70
     1
102
RTVSPropertyOp46
 70
     1
102
RTVSPropertyOp47
 70
     1
102
RTVSPropertyOp48
 70
     1
102
RTVSPropertyOp49
 70
     1
102
RTVSPropertyOp50
 70
     1
102
RTVSPropertyOp51
 70
     0
102
RTVSPropertyOp52
 70
     0
102
RTVSPropertyOp53
 70
     1
102
RTVSPropertyOp54
 70
     1
102
RTVSPropertyOp55
 70
     1
102
RTVSPropertyOp56
 70
     1
102
RTVSPropertyOp57
 70
     1
102
RTVSPropertyOp58
 70
     1
102
RTVSPropertyOp59
 70
     1
102
RTVSPropertyOp60
 70
     1
102
RTVSPropertyOp61
 70
     1
102
RTVSPropertyOp62
 70
     1
  0
XRECORD
  5
1B85
102
{ACAD_REACTORS
330
1B84
102
}
330
1B84
100
AcDbXrecord
280
     1
102
RTVSPost2010Prop28
280
     0
102
RTVSPost2010PropOp28
 70
     1
102
RTVSPost2010Prop29
280
     1
102
RTVSPost2010PropOp29
 70
     1
102
RTVSPost2010Prop30
280
     1
102
RTVSPost2010PropOp30
 70
     1
102
RTVSPost2010Prop31
280
     0
102
RTVSPost2010PropOp31
 70
     1
102
RTVSPost2010Prop32
280
     0
102
RTVSPost2010PropOp32
 70
     1
102
RTVSPost2010Prop33
280
     0
102
RTVSPost2010PropOp33
 70
     1
102
RTVSPost2010Prop34
280
     0
102
RTVSPost2010PropOp34
 70
     1
102
RTVSPost2010Prop35
280
     0
102
RTVSPost2010PropOp35
 70
     1
102
RTVSPost2010Prop36
280
     0
102
RTVSPost2010PropOp36
 70
     1
102
RTVSPost2010Prop37
 90
       50
102
RTVSPost2010PropOp37
 70
     1
102
RTVSPost2010Prop38
140
0.0
102
RTVSPost2010PropOp38
 70
     1
102
RTVSPost2010Prop39
140
1.0
102
RTVSPost2010PropOp39
 70
     1
102
RTVSPost2010Prop40
 90
        0
102
RTVSPost2010PropOp40
 70
     1
102
RTVSPost2010Prop41ColorIndex
 90
       18
102
RTVSPost2010Prop41ColorRGB
 90
        0
102
RTVSPost2010PropOp41
 70
     1
102
RTVSPost2010Prop42
 90
       50
102
RTVSPost2010PropOp42
 70
     1
102
RTVSPost2010Prop43
 90
        3
102
RTVSPost2010PropOp43
 70
     1
102
RTVSPost2010Prop44ColorIndex
 90
        5
102
RTVSPost2010Prop44ColorRGB
 90
      255
102
RTVSPost2010PropOp44
 70
     1
102
RTVSPost2010Prop45
280
     0
102
RTVSPost2010PropOp45
 70
     1
102
RTVSPost2010Prop46
 90
       50
102
RTVSPost2010PropOp46
 70
     1
102
RTVSPost2010Prop47
 90
       50
102
RTVSPost2010PropOp47
 70
     1
102
RTVSPost2010Prop48
 90
       50
102
RTVSPost2010PropOp48
 70
     1
102
RTVSPost2010Prop49
280
     0
102
RTVSPost2010PropOp49
 70
     1
102
RTVSPost2010Prop50
 90
       50
102
RTVSPost2010PropOp50
 70
     1
102
RTVSPost2010Prop51ColorIndex
 90
      256
102
RTVSPost2010Prop51ColorRGB
 90
-16777216
102
RTVSPost2010PropOp51
 70
     0
102
RTVSPost2010Prop52
140
1.0
102
RTVSPost2010PropOp52
 70
     0
102
RTVSPost2010Prop53
 90
        2
102
RTVSPost2010PropOp53
 70
     1
102
RTVSPost2010Prop54
  1
strokes_ogs.tif
102
RTVSPost2010PropOp54
 70
     1
102
RTVSPost2010Prop55
280
     0
102
RTVSPost2010PropOp55
 70
     1
102
RTVSPost2010Prop56
140
1.0
102
RTVSPost2010PropOp56
 70
     1
102
RTVSPost2010Prop57
140
1.0
102
RTVSPost2010PropOp57
 70
     1
102
RTVSPropertyOp0
 70
     1
102
RTVSPropertyOp1
 70
     1
102
RTVSPropertyOp2
 70
     1
102
RTVSPropertyOp3
 70
     1
102
RTVSPropertyOp4
 70
     1
102
RTVSPropertyOp5
 70
     1
102
RTVSPropertyOp6
 70
     1
102
RTVSPropertyOp7
 70
     1
102
RTVSPropertyOp8
 70
     1
102
RTVSPropertyOp9
 70
     1
102
RTVSPropertyOp10
 70
     1
102
RTVSPropertyOp11
 70
     1
102
RTVSPropertyOp12
 70
     1
102
RTVSPropertyOp13
 70
     1
102
RTVSPropertyOp14
 70
     1
102
RTVSPropertyOp15
 70
     1
102
RTVSPropertyOp16
 70
     1
102
RTVSPropertyOp17
 70
     1
102
RTVSPropertyOp18
 70
     1
102
RTVSPropertyOp19
 70
     1
102
RTVSPropertyOp20
 70
     1
102
RTVSPropertyOp21
 70
     1
102
RTVSPropertyOp22
 70
     1
102
RTVSPropertyOp23
 70
     1
102
RTVSPropertyOp24
 70
     1
102
RTVSPropertyOp25
 70
     1
102
RTVSPropertyOp26
 70
     1
102
RTVSPropertyOp27
 70
     1
102
RTVSPropertyOp28
 70
     1
102
RTVSPropertyOp29
 70
     1
102
RTVSPropertyOp30
 70
     1
102
RTVSPropertyOp31
 70
     1
102
RTVSPropertyOp32
 70
     1
102
RTVSPropertyOp33
 70
     1
102
RTVSPropertyOp34
 70
     1
102
RTVSPropertyOp35
 70
     1
102
RTVSPropertyOp36
 70
     1
102
RTVSPropertyOp37
 70
     1
102
RTVSPropertyOp38
 70
     1
102
RTVSPropertyOp39
 70
     1
102
RTVSPropertyOp40
 70
     1
102
RTVSPropertyOp41
 70
     1
102
RTVSPropertyOp42
 70
     1
102
RTVSPropertyOp43
 70
     1
102
RTVSPropertyOp44
 70
     1
102
RTVSPropertyOp45
 70
     1
102
RTVSPropertyOp46
 70
     1
102
RTVSPropertyOp47
 70
     1
102
RTVSPropertyOp48
 70
     1
102
RTVSPropertyOp49
 70
     1
102
RTVSPropertyOp50
 70
     1
102
RTVSPropertyOp51
 70
     0
102
RTVSPropertyOp52
 70
     0
102
RTVSPropertyOp53
 70
     1
102
RTVSPropertyOp54
 70
     1
102
RTVSPropertyOp55
 70
     1
102
RTVSPropertyOp56
 70
     1
102
RTVSPropertyOp57
 70
     1
102
RTVSPropertyOp58
 70
     1
102
RTVSPropertyOp59
 70
     1
102
RTVSPropertyOp60
 70
     1
102
RTVSPropertyOp61
 70
     1
102
RTVSPropertyOp62
 70
     1
  0
XRECORD
  5
1B87
102
{ACAD_REACTORS
330
1B86
102
}
330
1B86
100
AcDbXrecord
280
     1
102
RTVSPost2010Prop28
280
     0
102
RTVSPost2010PropOp28
 70
     1
102
RTVSPost2010Prop29
280
     1
102
RTVSPost2010PropOp29
 70
     1
102
RTVSPost2010Prop30
280
     1
102
RTVSPost2010PropOp30
 70
     1
102
RTVSPost2010Prop31
280
     0
102
RTVSPost2010PropOp31
 70
     1
102
RTVSPost2010Prop32
280
     0
102
RTVSPost2010PropOp32
 70
     1
102
RTVSPost2010Prop33
280
     0
102
RTVSPost2010PropOp33
 70
     1
102
RTVSPost2010Prop34
280
     0
102
RTVSPost2010PropOp34
 70
     1
102
RTVSPost2010Prop35
280
     0
102
RTVSPost2010PropOp35
 70
     1
102
RTVSPost2010Prop36
280
     0
102
RTVSPost2010PropOp36
 70
     1
102
RTVSPost2010Prop37
 90
       50
102
RTVSPost2010PropOp37
 70
     1
102
RTVSPost2010Prop38
140
0.0
102
RTVSPost2010PropOp38
 70
     1
102
RTVSPost2010Prop39
140
1.0
102
RTVSPost2010PropOp39
 70
     1
102
RTVSPost2010Prop40
 90
        0
102
RTVSPost2010PropOp40
 70
     1
102
RTVSPost2010Prop41ColorIndex
 90
       18
102
RTVSPost2010Prop41ColorRGB
 90
        0
102
RTVSPost2010PropOp41
 70
     1
102
RTVSPost2010Prop42
 90
       50
102
RTVSPost2010PropOp42
 70
     1
102
RTVSPost2010Prop43
 90
        3
102
RTVSPost2010PropOp43
 70
     1
102
RTVSPost2010Prop44ColorIndex
 90
        5
102
RTVSPost2010Prop44ColorRGB
 90
      255
102
RTVSPost2010PropOp44
 70
     1
102
RTVSPost2010Prop45
280
     0
102
RTVSPost2010PropOp45
 70
     1
102
RTVSPost2010Prop46
 90
       50
102
RTVSPost2010PropOp46
 70
     1
102
RTVSPost2010Prop47
 90
       50
102
RTVSPost2010PropOp47
 70
     1
102
RTVSPost2010Prop48
 90
       50
102
RTVSPost2010PropOp48
 70
     1
102
RTVSPost2010Prop49
280
     0
102
RTVSPost2010PropOp49
 70
     1
102
RTVSPost2010Prop50
 90
       50
102
RTVSPost2010PropOp50
 70
     1
102
RTVSPost2010Prop51ColorIndex
 90
      256
102
RTVSPost2010Prop51ColorRGB
 90
-16777216
102
RTVSPost2010PropOp51
 70
     0
102
RTVSPost2010Prop52
140
1.0
102
RTVSPost2010PropOp52
 70
     0
102
RTVSPost2010Prop53
 90
        2
102
RTVSPost2010PropOp53
 70
     1
102
RTVSPost2010Prop54
  1
strokes_ogs.tif
102
RTVSPost2010PropOp54
 70
     1
102
RTVSPost2010Prop55
280
     0
102
RTVSPost2010PropOp55
 70
     1
102
RTVSPost2010Prop56
140
1.0
102
RTVSPost2010PropOp56
 70
     1
102
RTVSPost2010Prop57
140
1.0
102
RTVSPost2010PropOp57
 70
     1
102
RTVSPropertyOp0
 70
     1
102
RTVSPropertyOp1
 70
     1
102
RTVSPropertyOp2
 70
     1
102
RTVSPropertyOp3
 70
     1
102
RTVSPropertyOp4
 70
     1
102
RTVSPropertyOp5
 70
     1
102
RTVSPropertyOp6
 70
     1
102
RTVSPropertyOp7
 70
     1
102
RTVSPropertyOp8
 70
     1
102
RTVSPropertyOp9
 70
     1
102
RTVSPropertyOp10
 70
     1
102
RTVSPropertyOp11
 70
     1
102
RTVSPropertyOp12
 70
     1
102
RTVSPropertyOp13
 70
     1
102
RTVSPropertyOp14
 70
     1
102
RTVSPropertyOp15
 70
     1
102
RTVSPropertyOp16
 70
     1
102
RTVSPropertyOp17
 70
     1
102
RTVSPropertyOp18
 70
     1
102
RTVSPropertyOp19
 70
     1
102
RTVSPropertyOp20
 70
     1
102
RTVSPropertyOp21
 70
     1
102
RTVSPropertyOp22
 70
     1
102
RTVSPropertyOp23
 70
     1
102
RTVSPropertyOp24
 70
     1
102
RTVSPropertyOp25
 70
     1
102
RTVSPropertyOp26
 70
     1
102
RTVSPropertyOp27
 70
     1
102
RTVSPropertyOp28
 70
     1
102
RTVSPropertyOp29
 70
     1
102
RTVSPropertyOp30
 70
     1
102
RTVSPropertyOp31
 70
     1
102
RTVSPropertyOp32
 70
     1
102
RTVSPropertyOp33
 70
     1
102
RTVSPropertyOp34
 70
     1
102
RTVSPropertyOp35
 70
     1
102
RTVSPropertyOp36
 70
     1
102
RTVSPropertyOp37
 70
     1
102
RTVSPropertyOp38
 70
     1
102
RTVSPropertyOp39
 70
     1
102
RTVSPropertyOp40
 70
     1
102
RTVSPropertyOp41
 70
     1
102
RTVSPropertyOp42
 70
     1
102
RTVSPropertyOp43
 70
     1
102
RTVSPropertyOp44
 70
     1
102
RTVSPropertyOp45
 70
     1
102
RTVSPropertyOp46
 70
     1
102
RTVSPropertyOp47
 70
     1
102
RTVSPropertyOp48
 70
     1
102
RTVSPropertyOp49
 70
     1
102
RTVSPropertyOp50
 70
     1
102
RTVSPropertyOp51
 70
     0
102
RTVSPropertyOp52
 70
     0
102
RTVSPropertyOp53
 70
     1
102
RTVSPropertyOp54
 70
     1
102
RTVSPropertyOp55
 70
     1
102
RTVSPropertyOp56
 70
     1
102
RTVSPropertyOp57
 70
     1
102
RTVSPropertyOp58
 70
     1
102
RTVSPropertyOp59
 70
     1
102
RTVSPropertyOp60
 70
     1
102
RTVSPropertyOp61
 70
     1
102
RTVSPropertyOp62
 70
     1
  0
XRECORD
  5
1B89
102
{ACAD_REACTORS
330
1B88
102
}
330
1B88
100
AcDbXrecord
280
     1
102
RTVSPost2010Prop28
280
     0
102
RTVSPost2010PropOp28
 70
     1
102
RTVSPost2010Prop29
280
     1
102
RTVSPost2010PropOp29
 70
     1
102
RTVSPost2010Prop30
280
     1
102
RTVSPost2010PropOp30
 70
     1
102
RTVSPost2010Prop31
280
     0
102
RTVSPost2010PropOp31
 70
     1
102
RTVSPost2010Prop32
280
     0
102
RTVSPost2010PropOp32
 70
     1
102
RTVSPost2010Prop33
280
     0
102
RTVSPost2010PropOp33
 70
     1
102
RTVSPost2010Prop34
280
     0
102
RTVSPost2010PropOp34
 70
     1
102
RTVSPost2010Prop35
280
     0
102
RTVSPost2010PropOp35
 70
     1
102
RTVSPost2010Prop36
280
     0
102
RTVSPost2010PropOp36
 70
     1
102
RTVSPost2010Prop37
 90
       50
102
RTVSPost2010PropOp37
 70
     1
102
RTVSPost2010Prop38
140
0.0
102
RTVSPost2010PropOp38
 70
     1
102
RTVSPost2010Prop39
140
1.0
102
RTVSPost2010PropOp39
 70
     1
102
RTVSPost2010Prop40
 90
        0
102
RTVSPost2010PropOp40
 70
     1
102
RTVSPost2010Prop41ColorIndex
 90
       18
102
RTVSPost2010Prop41ColorRGB
 90
        0
102
RTVSPost2010PropOp41
 70
     1
102
RTVSPost2010Prop42
 90
       50
102
RTVSPost2010PropOp42
 70
     1
102
RTVSPost2010Prop43
 90
        3
102
RTVSPost2010PropOp43
 70
     1
102
RTVSPost2010Prop44ColorIndex
 90
        5
102
RTVSPost2010Prop44ColorRGB
 90
      255
102
RTVSPost2010PropOp44
 70
     1
102
RTVSPost2010Prop45
280
     0
102
RTVSPost2010PropOp45
 70
     1
102
RTVSPost2010Prop46
 90
       50
102
RTVSPost2010PropOp46
 70
     1
102
RTVSPost2010Prop47
 90
       50
102
RTVSPost2010PropOp47
 70
     1
102
RTVSPost2010Prop48
 90
       50
102
RTVSPost2010PropOp48
 70
     1
102
RTVSPost2010Prop49
280
     0
102
RTVSPost2010PropOp49
 70
     1
102
RTVSPost2010Prop50
 90
       50
102
RTVSPost2010PropOp50
 70
     1
102
RTVSPost2010Prop51ColorIndex
 90
      256
102
RTVSPost2010Prop51ColorRGB
 90
-16777216
102
RTVSPost2010PropOp51
 70
     0
102
RTVSPost2010Prop52
140
1.0
102
RTVSPost2010PropOp52
 70
     0
102
RTVSPost2010Prop53
 90
        2
102
RTVSPost2010PropOp53
 70
     1
102
RTVSPost2010Prop54
  1
strokes_ogs.tif
102
RTVSPost2010PropOp54
 70
     1
102
RTVSPost2010Prop55
280
     0
102
RTVSPost2010PropOp55
 70
     1
102
RTVSPost2010Prop56
140
1.0
102
RTVSPost2010PropOp56
 70
     1
102
RTVSPost2010Prop57
140
1.0
102
RTVSPost2010PropOp57
 70
     1
102
RTVSPropertyOp0
 70
     1
102
RTVSPropertyOp1
 70
     1
102
RTVSPropertyOp2
 70
     1
102
RTVSPropertyOp3
 70
     1
102
RTVSPropertyOp4
 70
     1
102
RTVSPropertyOp5
 70
     1
102
RTVSPropertyOp6
 70
     1
102
RTVSPropertyOp7
 70
     1
102
RTVSPropertyOp8
 70
     1
102
RTVSPropertyOp9
 70
     1
102
RTVSPropertyOp10
 70
     1
102
RTVSPropertyOp11
 70
     1
102
RTVSPropertyOp12
 70
     1
102
RTVSPropertyOp13
 70
     1
102
RTVSPropertyOp14
 70
     1
102
RTVSPropertyOp15
 70
     1
102
RTVSPropertyOp16
 70
     1
102
RTVSPropertyOp17
 70
     1
102
RTVSPropertyOp18
 70
     1
102
RTVSPropertyOp19
 70
     1
102
RTVSPropertyOp20
 70
     1
102
RTVSPropertyOp21
 70
     1
102
RTVSPropertyOp22
 70
     1
102
RTVSPropertyOp23
 70
     1
102
RTVSPropertyOp24
 70
     1
102
RTVSPropertyOp25
 70
     1
102
RTVSPropertyOp26
 70
     1
102
RTVSPropertyOp27
 70
     1
102
RTVSPropertyOp28
 70
     1
102
RTVSPropertyOp29
 70
     1
102
RTVSPropertyOp30
 70
     1
102
RTVSPropertyOp31
 70
     1
102
RTVSPropertyOp32
 70
     1
102
RTVSPropertyOp33
 70
     1
102
RTVSPropertyOp34
 70
     1
102
RTVSPropertyOp35
 70
     1
102
RTVSPropertyOp36
 70
     1
102
RTVSPropertyOp37
 70
     1
102
RTVSPropertyOp38
 70
     1
102
RTVSPropertyOp39
 70
     1
102
RTVSPropertyOp40
 70
     1
102
RTVSPropertyOp41
 70
     1
102
RTVSPropertyOp42
 70
     1
102
RTVSPropertyOp43
 70
     1
102
RTVSPropertyOp44
 70
     1
102
RTVSPropertyOp45
 70
     1
102
RTVSPropertyOp46
 70
     1
102
RTVSPropertyOp47
 70
     1
102
RTVSPropertyOp48
 70
     1
102
RTVSPropertyOp49
 70
     1
102
RTVSPropertyOp50
 70
     1
102
RTVSPropertyOp51
 70
     0
102
RTVSPropertyOp52
 70
     0
102
RTVSPropertyOp53
 70
     1
102
RTVSPropertyOp54
 70
     1
102
RTVSPropertyOp55
 70
     1
102
RTVSPropertyOp56
 70
     1
102
RTVSPropertyOp57
 70
     1
102
RTVSPropertyOp58
 70
     1
102
RTVSPropertyOp59
 70
     1
102
RTVSPropertyOp60
 70
     1
102
RTVSPropertyOp61
 70
     1
102
RTVSPropertyOp62
 70
     1
  0
XRECORD
  5
1B8B
102
{ACAD_REACTORS
330
1B8A
102
}
330
1B8A
100
AcDbXrecord
280
     1
102
RTVSPost2010Prop28
280
     0
102
RTVSPost2010PropOp28
 70
     1
102
RTVSPost2010Prop29
280
     1
102
RTVSPost2010PropOp29
 70
     1
102
RTVSPost2010Prop30
280
     1
102
RTVSPost2010PropOp30
 70
     1
102
RTVSPost2010Prop31
280
     0
102
RTVSPost2010PropOp31
 70
     1
102
RTVSPost2010Prop32
280
     0
102
RTVSPost2010PropOp32
 70
     1
102
RTVSPost2010Prop33
280
     0
102
RTVSPost2010PropOp33
 70
     1
102
RTVSPost2010Prop34
280
     0
102
RTVSPost2010PropOp34
 70
     1
102
RTVSPost2010Prop35
280
     0
102
RTVSPost2010PropOp35
 70
     1
102
RTVSPost2010Prop36
280
     0
102
RTVSPost2010PropOp36
 70
     1
102
RTVSPost2010Prop37
 90
       50
102
RTVSPost2010PropOp37
 70
     1
102
RTVSPost2010Prop38
140
0.0
102
RTVSPost2010PropOp38
 70
     1
102
RTVSPost2010Prop39
140
1.0
102
RTVSPost2010PropOp39
 70
     1
102
RTVSPost2010Prop40
 90
        0
102
RTVSPost2010PropOp40
 70
     1
102
RTVSPost2010Prop41ColorIndex
 90
       18
102
RTVSPost2010Prop41ColorRGB
 90
        0
102
RTVSPost2010PropOp41
 70
     1
102
RTVSPost2010Prop42
 90
       50
102
RTVSPost2010PropOp42
 70
     1
102
RTVSPost2010Prop43
 90
        3
102
RTVSPost2010PropOp43
 70
     1
102
RTVSPost2010Prop44ColorIndex
 90
        5
102
RTVSPost2010Prop44ColorRGB
 90
      255
102
RTVSPost2010PropOp44
 70
     1
102
RTVSPost2010Prop45
280
     0
102
RTVSPost2010PropOp45
 70
     1
102
RTVSPost2010Prop46
 90
       50
102
RTVSPost2010PropOp46
 70
     1
102
RTVSPost2010Prop47
 90
       50
102
RTVSPost2010PropOp47
 70
     1
102
RTVSPost2010Prop48
 90
       50
102
RTVSPost2010PropOp48
 70
     1
102
RTVSPost2010Prop49
280
     0
102
RTVSPost2010PropOp49
 70
     1
102
RTVSPost2010Prop50
 90
       50
102
RTVSPost2010PropOp50
 70
     1
102
RTVSPost2010Prop51ColorIndex
 90
      256
102
RTVSPost2010Prop51ColorRGB
 90
-16777216
102
RTVSPost2010PropOp51
 70
     0
102
RTVSPost2010Prop52
140
1.0
102
RTVSPost2010PropOp52
 70
     0
102
RTVSPost2010Prop53
 90
        2
102
RTVSPost2010PropOp53
 70
     1
102
RTVSPost2010Prop54
  1
strokes_ogs.tif
102
RTVSPost2010PropOp54
 70
     1
102
RTVSPost2010Prop55
280
     0
102
RTVSPost2010PropOp55
 70
     1
102
RTVSPost2010Prop56
140
1.0
102
RTVSPost2010PropOp56
 70
     1
102
RTVSPost2010Prop57
140
1.0
102
RTVSPost2010PropOp57
 70
     1
102
RTVSPropertyOp0
 70
     1
102
RTVSPropertyOp1
 70
     1
102
RTVSPropertyOp2
 70
     1
102
RTVSPropertyOp3
 70
     1
102
RTVSPropertyOp4
 70
     1
102
RTVSPropertyOp5
 70
     1
102
RTVSPropertyOp6
 70
     1
102
RTVSPropertyOp7
 70
     1
102
RTVSPropertyOp8
 70
     1
102
RTVSPropertyOp9
 70
     1
102
RTVSPropertyOp10
 70
     1
102
RTVSPropertyOp11
 70
     1
102
RTVSPropertyOp12
 70
     1
102
RTVSPropertyOp13
 70
     1
102
RTVSPropertyOp14
 70
     1
102
RTVSPropertyOp15
 70
     1
102
RTVSPropertyOp16
 70
     1
102
RTVSPropertyOp17
 70
     1
102
RTVSPropertyOp18
 70
     1
102
RTVSPropertyOp19
 70
     1
102
RTVSPropertyOp20
 70
     1
102
RTVSPropertyOp21
 70
     1
102
RTVSPropertyOp22
 70
     1
102
RTVSPropertyOp23
 70
     1
102
RTVSPropertyOp24
 70
     1
102
RTVSPropertyOp25
 70
     1
102
RTVSPropertyOp26
 70
     1
102
RTVSPropertyOp27
 70
     1
102
RTVSPropertyOp28
 70
     1
102
RTVSPropertyOp29
 70
     1
102
RTVSPropertyOp30
 70
     1
102
RTVSPropertyOp31
 70
     1
102
RTVSPropertyOp32
 70
     1
102
RTVSPropertyOp33
 70
     1
102
RTVSPropertyOp34
 70
     1
102
RTVSPropertyOp35
 70
     1
102
RTVSPropertyOp36
 70
     1
102
RTVSPropertyOp37
 70
     1
102
RTVSPropertyOp38
 70
     1
102
RTVSPropertyOp39
 70
     1
102
RTVSPropertyOp40
 70
     1
102
RTVSPropertyOp41
 70
     1
102
RTVSPropertyOp42
 70
     1
102
RTVSPropertyOp43
 70
     1
102
RTVSPropertyOp44
 70
     1
102
RTVSPropertyOp45
 70
     1
102
RTVSPropertyOp46
 70
     1
102
RTVSPropertyOp47
 70
     1
102
RTVSPropertyOp48
 70
     1
102
RTVSPropertyOp49
 70
     1
102
RTVSPropertyOp50
 70
     1
102
RTVSPropertyOp51
 70
     0
102
RTVSPropertyOp52
 70
     0
102
RTVSPropertyOp53
 70
     1
102
RTVSPropertyOp54
 70
     1
102
RTVSPropertyOp55
 70
     1
102
RTVSPropertyOp56
 70
     1
102
RTVSPropertyOp57
 70
     1
102
RTVSPropertyOp58
 70
     1
102
RTVSPropertyOp59
 70
     1
102
RTVSPropertyOp60
 70
     1
102
RTVSPropertyOp61
 70
     1
102
RTVSPropertyOp62
 70
     1
  0
XRECORD
  5
1B93
102
{ACAD_REACTORS
330
1B92
102
}
330
1B92
100
AcDbXrecord
280
     1
102
RTVSPost2010Prop28
280
     0
102
RTVSPost2010PropOp28
 70
     1
102
RTVSPost2010Prop29
280
     1
102
RTVSPost2010PropOp29
 70
     1
102
RTVSPost2010Prop30
280
     1
102
RTVSPost2010PropOp30
 70
     1
102
RTVSPost2010Prop31
280
     0
102
RTVSPost2010PropOp31
 70
     1
102
RTVSPost2010Prop32
280
     0
102
RTVSPost2010PropOp32
 70
     1
102
RTVSPost2010Prop33
280
     0
102
RTVSPost2010PropOp33
 70
     1
102
RTVSPost2010Prop34
280
     0
102
RTVSPost2010PropOp34
 70
     1
102
RTVSPost2010Prop35
280
     0
102
RTVSPost2010PropOp35
 70
     1
102
RTVSPost2010Prop36
280
     0
102
RTVSPost2010PropOp36
 70
     1
102
RTVSPost2010Prop37
 90
       50
102
RTVSPost2010PropOp37
 70
     1
102
RTVSPost2010Prop38
140
0.0
102
RTVSPost2010PropOp38
 70
     1
102
RTVSPost2010Prop39
140
1.0
102
RTVSPost2010PropOp39
 70
     1
102
RTVSPost2010Prop40
 90
        0
102
RTVSPost2010PropOp40
 70
     1
102
RTVSPost2010Prop41ColorIndex
 90
       18
102
RTVSPost2010Prop41ColorRGB
 90
        0
102
RTVSPost2010PropOp41
 70
     1
102
RTVSPost2010Prop42
 90
       50
102
RTVSPost2010PropOp42
 70
     1
102
RTVSPost2010Prop43
 90
        3
102
RTVSPost2010PropOp43
 70
     1
102
RTVSPost2010Prop44ColorIndex
 90
        5
102
RTVSPost2010Prop44ColorRGB
 90
      255
102
RTVSPost2010PropOp44
 70
     1
102
RTVSPost2010Prop45
280
     0
102
RTVSPost2010PropOp45
 70
     1
102
RTVSPost2010Prop46
 90
       50
102
RTVSPost2010PropOp46
 70
     1
102
RTVSPost2010Prop47
 90
       50
102
RTVSPost2010PropOp47
 70
     1
102
RTVSPost2010Prop48
 90
       50
102
RTVSPost2010PropOp48
 70
     1
102
RTVSPost2010Prop49
280
     0
102
RTVSPost2010PropOp49
 70
     1
102
RTVSPost2010Prop50
 90
       50
102
RTVSPost2010PropOp50
 70
     1
102
RTVSPost2010Prop51ColorIndex
 90
      256
102
RTVSPost2010Prop51ColorRGB
 90
-16777216
102
RTVSPost2010PropOp51
 70
     0
102
RTVSPost2010Prop52
140
1.0
102
RTVSPost2010PropOp52
 70
     0
102
RTVSPost2010Prop53
 90
        2
102
RTVSPost2010PropOp53
 70
     1
102
RTVSPost2010Prop54
  1
strokes_ogs.tif
102
RTVSPost2010PropOp54
 70
     1
102
RTVSPost2010Prop55
280
     0
102
RTVSPost2010PropOp55
 70
     1
102
RTVSPost2010Prop56
140
1.0
102
RTVSPost2010PropOp56
 70
     1
102
RTVSPost2010Prop57
140
1.0
102
RTVSPost2010PropOp57
 70
     1
102
RTVSPropertyOp0
 70
     1
102
RTVSPropertyOp1
 70
     1
102
RTVSPropertyOp2
 70
     1
102
RTVSPropertyOp3
 70
     1
102
RTVSPropertyOp4
 70
     1
102
RTVSPropertyOp5
 70
     1
102
RTVSPropertyOp6
 70
     1
102
RTVSPropertyOp7
 70
     1
102
RTVSPropertyOp8
 70
     1
102
RTVSPropertyOp9
 70
     1
102
RTVSPropertyOp10
 70
     1
102
RTVSPropertyOp11
 70
     1
102
RTVSPropertyOp12
 70
     1
102
RTVSPropertyOp13
 70
     1
102
RTVSPropertyOp14
 70
     1
102
RTVSPropertyOp15
 70
     1
102
RTVSPropertyOp16
 70
     1
102
RTVSPropertyOp17
 70
     1
102
RTVSPropertyOp18
 70
     1
102
RTVSPropertyOp19
 70
     1
102
RTVSPropertyOp20
 70
     1
102
RTVSPropertyOp21
 70
     1
102
RTVSPropertyOp22
 70
     1
102
RTVSPropertyOp23
 70
     1
102
RTVSPropertyOp24
 70
     1
102
RTVSPropertyOp25
 70
     1
102
RTVSPropertyOp26
 70
     1
102
RTVSPropertyOp27
 70
     1
102
RTVSPropertyOp28
 70
     1
102
RTVSPropertyOp29
 70
     1
102
RTVSPropertyOp30
 70
     1
102
RTVSPropertyOp31
 70
     1
102
RTVSPropertyOp32
 70
     1
102
RTVSPropertyOp33
 70
     1
102
RTVSPropertyOp34
 70
     1
102
RTVSPropertyOp35
 70
     1
102
RTVSPropertyOp36
 70
     1
102
RTVSPropertyOp37
 70
     1
102
RTVSPropertyOp38
 70
     1
102
RTVSPropertyOp39
 70
     1
102
RTVSPropertyOp40
 70
     1
102
RTVSPropertyOp41
 70
     1
102
RTVSPropertyOp42
 70
     1
102
RTVSPropertyOp43
 70
     1
102
RTVSPropertyOp44
 70
     1
102
RTVSPropertyOp45
 70
     1
102
RTVSPropertyOp46
 70
     1
102
RTVSPropertyOp47
 70
     1
102
RTVSPropertyOp48
 70
     1
102
RTVSPropertyOp49
 70
     1
102
RTVSPropertyOp50
 70
     1
102
RTVSPropertyOp51
 70
     0
102
RTVSPropertyOp52
 70
     0
102
RTVSPropertyOp53
 70
     1
102
RTVSPropertyOp54
 70
     1
102
RTVSPropertyOp55
 70
     1
102
RTVSPropertyOp56
 70
     1
102
RTVSPropertyOp57
 70
     1
102
RTVSPropertyOp58
 70
     1
102
RTVSPropertyOp59
 70
     1
102
RTVSPropertyOp60
 70
     1
102
RTVSPropertyOp61
 70
     1
102
RTVSPropertyOp62
 70
     1
  0
XRECORD
  5
1BAF
102
{ACAD_REACTORS
330
1BAE
102
}
330
1BAE
100
AcDbXrecord
280
     1
102
RTVSPost2010Prop28
280
     0
102
RTVSPost2010PropOp28
 70
     1
102
RTVSPost2010Prop29
280
     1
102
RTVSPost2010PropOp29
 70
     1
102
RTVSPost2010Prop30
280
     1
102
RTVSPost2010PropOp30
 70
     1
102
RTVSPost2010Prop31
280
     0
102
RTVSPost2010PropOp31
 70
     1
102
RTVSPost2010Prop32
280
     0
102
RTVSPost2010PropOp32
 70
     1
102
RTVSPost2010Prop33
280
     0
102
RTVSPost2010PropOp33
 70
     1
102
RTVSPost2010Prop34
280
     0
102
RTVSPost2010PropOp34
 70
     1
102
RTVSPost2010Prop35
280
     0
102
RTVSPost2010PropOp35
 70
     1
102
RTVSPost2010Prop36
280
     0
102
RTVSPost2010PropOp36
 70
     1
102
RTVSPost2010Prop37
 90
       50
102
RTVSPost2010PropOp37
 70
     0
102
RTVSPost2010Prop38
140
0.0
102
RTVSPost2010PropOp38
 70
     0
102
RTVSPost2010Prop39
140
1.0
102
RTVSPost2010PropOp39
 70
     0
102
RTVSPost2010Prop40
 90
        0
102
RTVSPost2010PropOp40
 70
     0
102
RTVSPost2010Prop41ColorIndex
 90
       18
102
RTVSPost2010Prop41ColorRGB
 90
        0
102
RTVSPost2010PropOp41
 70
     0
102
RTVSPost2010Prop42
 90
       50
102
RTVSPost2010PropOp42
 70
     0
102
RTVSPost2010Prop43
 90
        3
102
RTVSPost2010PropOp43
 70
     0
102
RTVSPost2010Prop44ColorIndex
 90
        5
102
RTVSPost2010Prop44ColorRGB
 90
      255
102
RTVSPost2010PropOp44
 70
     0
102
RTVSPost2010Prop45
280
     0
102
RTVSPost2010PropOp45
 70
     1
102
RTVSPost2010Prop46
 90
       50
102
RTVSPost2010PropOp46
 70
     0
102
RTVSPost2010Prop47
 90
       50
102
RTVSPost2010PropOp47
 70
     0
102
RTVSPost2010Prop48
 90
       50
102
RTVSPost2010PropOp48
 70
     0
102
RTVSPost2010Prop49
280
     0
102
RTVSPost2010PropOp49
 70
     1
102
RTVSPost2010Prop50
 90
       50
102
RTVSPost2010PropOp50
 70
     0
102
RTVSPost2010Prop51ColorIndex
 90
      256
102
RTVSPost2010Prop51ColorRGB
 90
-16777216
102
RTVSPost2010PropOp51
 70
     0
102
RTVSPost2010Prop52
140
1.0
102
RTVSPost2010PropOp52
 70
     0
102
RTVSPost2010Prop53
 90
        2
102
RTVSPost2010PropOp53
 70
     0
102
RTVSPost2010Prop54
  1
strokes_ogs.tif
102
RTVSPost2010PropOp54
 70
     0
102
RTVSPost2010Prop55
280
     0
102
RTVSPost2010PropOp55
 70
     1
102
RTVSPost2010Prop56
140
1.0
102
RTVSPost2010PropOp56
 70
     0
102
RTVSPost2010Prop57
140
1.0
102
RTVSPost2010PropOp57
 70
     0
102
RTVSPropertyOp0
 70
     0
102
RTVSPropertyOp1
 70
     0
102
RTVSPropertyOp2
 70
     0
102
RTVSPropertyOp3
 70
     0
102
RTVSPropertyOp4
 70
     0
102
RTVSPropertyOp5
 70
     0
102
RTVSPropertyOp6
 70
     0
102
RTVSPropertyOp7
 70
     0
102
RTVSPropertyOp8
 70
     0
102
RTVSPropertyOp9
 70
     0
102
RTVSPropertyOp10
 70
     0
102
RTVSPropertyOp11
 70
     0
102
RTVSPropertyOp12
 70
     0
102
RTVSPropertyOp13
 70
     0
102
RTVSPropertyOp14
 70
     2
102
RTVSPropertyOp15
 70
     0
102
RTVSPropertyOp16
 70
     0
102
RTVSPropertyOp17
 70
     0
102
RTVSPropertyOp18
 70
     0
102
RTVSPropertyOp19
 70
     0
102
RTVSPropertyOp20
 70
     0
102
RTVSPropertyOp21
 70
     0
102
RTVSPropertyOp22
 70
     0
102
RTVSPropertyOp23
 70
     0
102
RTVSPropertyOp24
 70
     0
102
RTVSPropertyOp25
 70
     0
102
RTVSPropertyOp26
 70
     0
102
RTVSPropertyOp27
 70
     0
102
RTVSPropertyOp28
 70
     1
102
RTVSPropertyOp29
 70
     1
102
RTVSPropertyOp30
 70
     1
102
RTVSPropertyOp31
 70
     1
102
RTVSPropertyOp32
 70
     1
102
RTVSPropertyOp33
 70
     1
102
RTVSPropertyOp34
 70
     1
102
RTVSPropertyOp35
 70
     1
102
RTVSPropertyOp36
 70
     1
102
RTVSPropertyOp37
 70
     0
102
RTVSPropertyOp38
 70
     0
102
RTVSPropertyOp39
 70
     0
102
RTVSPropertyOp40
 70
     0
102
RTVSPropertyOp41
 70
     0
102
RTVSPropertyOp42
 70
     0
102
RTVSPropertyOp43
 70
     0
102
RTVSPropertyOp44
 70
     0
102
RTVSPropertyOp45
 70
     1
102
RTVSPropertyOp46
 70
     0
102
RTVSPropertyOp47
 70
     0
102
RTVSPropertyOp48
 70
     0
102
RTVSPropertyOp49
 70
     1
102
RTVSPropertyOp50
 70
     0
102
RTVSPropertyOp51
 70
     0
102
RTVSPropertyOp52
 70
     0
102
RTVSPropertyOp53
 70
     0
102
RTVSPropertyOp54
 70
     0
102
RTVSPropertyOp55
 70
     1
102
RTVSPropertyOp56
 70
     0
102
RTVSPropertyOp57
 70
     0
102
RTVSPropertyOp58
 70
     0
102
RTVSPropertyOp59
 70
     0
102
RTVSPropertyOp60
 70
     0
102
RTVSPropertyOp61
 70
     0
102
RTVSPropertyOp62
 70
     0
  0
XRECORD
  5
1B9F
102
{ACAD_REACTORS
330
1B9E
102
}
330
1B9E
100
AcDbXrecord
280
     1
102
RTVSPost2010Prop28
280
     0
102
RTVSPost2010PropOp28
 70
     1
102
RTVSPost2010Prop29
280
     1
102
RTVSPost2010PropOp29
 70
     1
102
RTVSPost2010Prop30
280
     1
102
RTVSPost2010PropOp30
 70
     1
102
RTVSPost2010Prop31
280
     0
102
RTVSPost2010PropOp31
 70
     1
102
RTVSPost2010Prop32
280
     0
102
RTVSPost2010PropOp32
 70
     1
102
RTVSPost2010Prop33
280
     0
102
RTVSPost2010PropOp33
 70
     1
102
RTVSPost2010Prop34
280
     0
102
RTVSPost2010PropOp34
 70
     1
102
RTVSPost2010Prop35
280
     0
102
RTVSPost2010PropOp35
 70
     1
102
RTVSPost2010Prop36
280
     0
102
RTVSPost2010PropOp36
 70
     1
102
RTVSPost2010Prop37
 90
       50
102
RTVSPost2010PropOp37
 70
     1
102
RTVSPost2010Prop38
140
0.0
102
RTVSPost2010PropOp38
 70
     1
102
RTVSPost2010Prop39
140
1.0
102
RTVSPost2010PropOp39
 70
     1
102
RTVSPost2010Prop40
 90
        0
102
RTVSPost2010PropOp40
 70
     1
102
RTVSPost2010Prop41ColorIndex
 90
       18
102
RTVSPost2010Prop41ColorRGB
 90
        0
102
RTVSPost2010PropOp41
 70
     1
102
RTVSPost2010Prop42
 90
       50
102
RTVSPost2010PropOp42
 70
     1
102
RTVSPost2010Prop43
 90
        3
102
RTVSPost2010PropOp43
 70
     1
102
RTVSPost2010Prop44ColorIndex
 90
        5
102
RTVSPost2010Prop44ColorRGB
 90
      255
102
RTVSPost2010PropOp44
 70
     1
102
RTVSPost2010Prop45
280
     0
102
RTVSPost2010PropOp45
 70
     1
102
RTVSPost2010Prop46
 90
       50
102
RTVSPost2010PropOp46
 70
     1
102
RTVSPost2010Prop47
 90
       50
102
RTVSPost2010PropOp47
 70
     1
102
RTVSPost2010Prop48
 90
       50
102
RTVSPost2010PropOp48
 70
     1
102
RTVSPost2010Prop49
280
     0
102
RTVSPost2010PropOp49
 70
     1
102
RTVSPost2010Prop50
 90
       50
102
RTVSPost2010PropOp50
 70
     1
102
RTVSPost2010Prop51ColorIndex
 90
      256
102
RTVSPost2010Prop51ColorRGB
 90
-16777216
102
RTVSPost2010PropOp51
 70
     0
102
RTVSPost2010Prop52
140
1.0
102
RTVSPost2010PropOp52
 70
     0
102
RTVSPost2010Prop53
 90
        2
102
RTVSPost2010PropOp53
 70
     1
102
RTVSPost2010Prop54
  1
strokes_ogs.tif
102
RTVSPost2010PropOp54
 70
     1
102
RTVSPost2010Prop55
280
     0
102
RTVSPost2010PropOp55
 70
     1
102
RTVSPost2010Prop56
140
1.0
102
RTVSPost2010PropOp56
 70
     1
102
RTVSPost2010Prop57
140
1.0
102
RTVSPost2010PropOp57
 70
     1
102
RTVSPropertyOp0
 70
     1
102
RTVSPropertyOp1
 70
     1
102
RTVSPropertyOp2
 70
     1
102
RTVSPropertyOp3
 70
     1
102
RTVSPropertyOp4
 70
     1
102
RTVSPropertyOp5
 70
     1
102
RTVSPropertyOp6
 70
     1
102
RTVSPropertyOp7
 70
     1
102
RTVSPropertyOp8
 70
     1
102
RTVSPropertyOp9
 70
     1
102
RTVSPropertyOp10
 70
     1
102
RTVSPropertyOp11
 70
     1
102
RTVSPropertyOp12
 70
     1
102
RTVSPropertyOp13
 70
     1
102
RTVSPropertyOp14
 70
     1
102
RTVSPropertyOp15
 70
     1
102
RTVSPropertyOp16
 70
     1
102
RTVSPropertyOp17
 70
     1
102
RTVSPropertyOp18
 70
     1
102
RTVSPropertyOp19
 70
     1
102
RTVSPropertyOp20
 70
     1
102
RTVSPropertyOp21
 70
     1
102
RTVSPropertyOp22
 70
     1
102
RTVSPropertyOp23
 70
     1
102
RTVSPropertyOp24
 70
     1
102
RTVSPropertyOp25
 70
     1
102
RTVSPropertyOp26
 70
     1
102
RTVSPropertyOp27
 70
     1
102
RTVSPropertyOp28
 70
     1
102
RTVSPropertyOp29
 70
     1
102
RTVSPropertyOp30
 70
     1
102
RTVSPropertyOp31
 70
     1
102
RTVSPropertyOp32
 70
     1
102
RTVSPropertyOp33
 70
     1
102
RTVSPropertyOp34
 70
     1
102
RTVSPropertyOp35
 70
     1
102
RTVSPropertyOp36
 70
     1
102
RTVSPropertyOp37
 70
     1
102
RTVSPropertyOp38
 70
     1
102
RTVSPropertyOp39
 70
     1
102
RTVSPropertyOp40
 70
     1
102
RTVSPropertyOp41
 70
     1
102
RTVSPropertyOp42
 70
     1
102
RTVSPropertyOp43
 70
     1
102
RTVSPropertyOp44
 70
     1
102
RTVSPropertyOp45
 70
     1
102
RTVSPropertyOp46
 70
     1
102
RTVSPropertyOp47
 70
     1
102
RTVSPropertyOp48
 70
     1
102
RTVSPropertyOp49
 70
     1
102
RTVSPropertyOp50
 70
     1
102
RTVSPropertyOp51
 70
     0
102
RTVSPropertyOp52
 70
     0
102
RTVSPropertyOp53
 70
     1
102
RTVSPropertyOp54
 70
     1
102
RTVSPropertyOp55
 70
     1
102
RTVSPropertyOp56
 70
     1
102
RTVSPropertyOp57
 70
     1
102
RTVSPropertyOp58
 70
     1
102
RTVSPropertyOp59
 70
     1
102
RTVSPropertyOp60
 70
     1
102
RTVSPropertyOp61
 70
     1
102
RTVSPropertyOp62
 70
     1
  0
XRECORD
  5
1BB1
102
{ACAD_REACTORS
330
1BB0
102
}
330
1BB0
100
AcDbXrecord
280
     1
102
RTVSPost2010Prop28
280
     0
102
RTVSPost2010PropOp28
 70
     1
102
RTVSPost2010Prop29
280
     1
102
RTVSPost2010PropOp29
 70
     1
102
RTVSPost2010Prop30
280
     1
102
RTVSPost2010PropOp30
 70
     1
102
RTVSPost2010Prop31
280
     0
102
RTVSPost2010PropOp31
 70
     1
102
RTVSPost2010Prop32
280
     0
102
RTVSPost2010PropOp32
 70
     1
102
RTVSPost2010Prop33
280
     0
102
RTVSPost2010PropOp33
 70
     1
102
RTVSPost2010Prop34
280
     0
102
RTVSPost2010PropOp34
 70
     1
102
RTVSPost2010Prop35
280
     0
102
RTVSPost2010PropOp35
 70
     1
102
RTVSPost2010Prop36
280
     0
102
RTVSPost2010PropOp36
 70
     1
102
RTVSPost2010Prop37
 90
       50
102
RTVSPost2010PropOp37
 70
     0
102
RTVSPost2010Prop38
140
0.0
102
RTVSPost2010PropOp38
 70
     0
102
RTVSPost2010Prop39
140
1.0
102
RTVSPost2010PropOp39
 70
     0
102
RTVSPost2010Prop40
 90
        0
102
RTVSPost2010PropOp40
 70
     0
102
RTVSPost2010Prop41ColorIndex
 90
       18
102
RTVSPost2010Prop41ColorRGB
 90
        0
102
RTVSPost2010PropOp41
 70
     0
102
RTVSPost2010Prop42
 90
       50
102
RTVSPost2010PropOp42
 70
     0
102
RTVSPost2010Prop43
 90
        3
102
RTVSPost2010PropOp43
 70
     0
102
RTVSPost2010Prop44ColorIndex
 90
        5
102
RTVSPost2010Prop44ColorRGB
 90
      255
102
RTVSPost2010PropOp44
 70
     0
102
RTVSPost2010Prop45
280
     0
102
RTVSPost2010PropOp45
 70
     1
102
RTVSPost2010Prop46
 90
       50
102
RTVSPost2010PropOp46
 70
     0
102
RTVSPost2010Prop47
 90
       50
102
RTVSPost2010PropOp47
 70
     0
102
RTVSPost2010Prop48
 90
       50
102
RTVSPost2010PropOp48
 70
     0
102
RTVSPost2010Prop49
280
     0
102
RTVSPost2010PropOp49
 70
     1
102
RTVSPost2010Prop50
 90
       50
102
RTVSPost2010PropOp50
 70
     0
102
RTVSPost2010Prop51ColorIndex
 90
      256
102
RTVSPost2010Prop51ColorRGB
 90
-16777216
102
RTVSPost2010PropOp51
 70
     0
102
RTVSPost2010Prop52
140
1.0
102
RTVSPost2010PropOp52
 70
     0
102
RTVSPost2010Prop53
 90
        2
102
RTVSPost2010PropOp53
 70
     0
102
RTVSPost2010Prop54
  1
strokes_ogs.tif
102
RTVSPost2010PropOp54
 70
     0
102
RTVSPost2010Prop55
280
     0
102
RTVSPost2010PropOp55
 70
     1
102
RTVSPost2010Prop56
140
1.0
102
RTVSPost2010PropOp56
 70
     0
102
RTVSPost2010Prop57
140
1.0
102
RTVSPost2010PropOp57
 70
     0
102
RTVSPropertyOp0
 70
     0
102
RTVSPropertyOp1
 70
     0
102
RTVSPropertyOp2
 70
     0
102
RTVSPropertyOp3
 70
     0
102
RTVSPropertyOp4
 70
     0
102
RTVSPropertyOp5
 70
     0
102
RTVSPropertyOp6
 70
     0
102
RTVSPropertyOp7
 70
     0
102
RTVSPropertyOp8
 70
     0
102
RTVSPropertyOp9
 70
     0
102
RTVSPropertyOp10
 70
     0
102
RTVSPropertyOp11
 70
     0
102
RTVSPropertyOp12
 70
     0
102
RTVSPropertyOp13
 70
     0
102
RTVSPropertyOp14
 70
     2
102
RTVSPropertyOp15
 70
     0
102
RTVSPropertyOp16
 70
     0
102
RTVSPropertyOp17
 70
     0
102
RTVSPropertyOp18
 70
     0
102
RTVSPropertyOp19
 70
     0
102
RTVSPropertyOp20
 70
     0
102
RTVSPropertyOp21
 70
     0
102
RTVSPropertyOp22
 70
     0
102
RTVSPropertyOp23
 70
     0
102
RTVSPropertyOp24
 70
     0
102
RTVSPropertyOp25
 70
     0
102
RTVSPropertyOp26
 70
     0
102
RTVSPropertyOp27
 70
     0
102
RTVSPropertyOp28
 70
     1
102
RTVSPropertyOp29
 70
     1
102
RTVSPropertyOp30
 70
     1
102
RTVSPropertyOp31
 70
     1
102
RTVSPropertyOp32
 70
     1
102
RTVSPropertyOp33
 70
     1
102
RTVSPropertyOp34
 70
     1
102
RTVSPropertyOp35
 70
     1
102
RTVSPropertyOp36
 70
     1
102
RTVSPropertyOp37
 70
     0
102
RTVSPropertyOp38
 70
     0
102
RTVSPropertyOp39
 70
     0
102
RTVSPropertyOp40
 70
     0
102
RTVSPropertyOp41
 70
     0
102
RTVSPropertyOp42
 70
     0
102
RTVSPropertyOp43
 70
     0
102
RTVSPropertyOp44
 70
     0
102
RTVSPropertyOp45
 70
     1
102
RTVSPropertyOp46
 70
     0
102
RTVSPropertyOp47
 70
     0
102
RTVSPropertyOp48
 70
     0
102
RTVSPropertyOp49
 70
     1
102
RTVSPropertyOp50
 70
     0
102
RTVSPropertyOp51
 70
     0
102
RTVSPropertyOp52
 70
     0
102
RTVSPropertyOp53
 70
     0
102
RTVSPropertyOp54
 70
     0
102
RTVSPropertyOp55
 70
     1
102
RTVSPropertyOp56
 70
     0
102
RTVSPropertyOp57
 70
     0
102
RTVSPropertyOp58
 70
     0
102
RTVSPropertyOp59
 70
     0
102
RTVSPropertyOp60
 70
     0
102
RTVSPropertyOp61
 70
     0
102
RTVSPropertyOp62
 70
     0
  0
XRECORD
  5
1B97
102
{ACAD_REACTORS
330
1B96
102
}
330
1B96
100
AcDbXrecord
280
     1
102
RTVSPost2010Prop28
280
     0
102
RTVSPost2010PropOp28
 70
     1
102
RTVSPost2010Prop29
280
     1
102
RTVSPost2010PropOp29
 70
     1
102
RTVSPost2010Prop30
280
     1
102
RTVSPost2010PropOp30
 70
     1
102
RTVSPost2010Prop31
280
     0
102
RTVSPost2010PropOp31
 70
     1
102
RTVSPost2010Prop32
280
     0
102
RTVSPost2010PropOp32
 70
     1
102
RTVSPost2010Prop33
280
     0
102
RTVSPost2010PropOp33
 70
     1
102
RTVSPost2010Prop34
280
     0
102
RTVSPost2010PropOp34
 70
     1
102
RTVSPost2010Prop35
280
     0
102
RTVSPost2010PropOp35
 70
     1
102
RTVSPost2010Prop36
280
     0
102
RTVSPost2010PropOp36
 70
     1
102
RTVSPost2010Prop37
 90
       50
102
RTVSPost2010PropOp37
 70
     1
102
RTVSPost2010Prop38
140
0.0
102
RTVSPost2010PropOp38
 70
     1
102
RTVSPost2010Prop39
140
1.0
102
RTVSPost2010PropOp39
 70
     1
102
RTVSPost2010Prop40
 90
        0
102
RTVSPost2010PropOp40
 70
     1
102
RTVSPost2010Prop41ColorIndex
 90
       18
102
RTVSPost2010Prop41ColorRGB
 90
        0
102
RTVSPost2010PropOp41
 70
     1
102
RTVSPost2010Prop42
 90
       50
102
RTVSPost2010PropOp42
 70
     1
102
RTVSPost2010Prop43
 90
        3
102
RTVSPost2010PropOp43
 70
     1
102
RTVSPost2010Prop44ColorIndex
 90
        5
102
RTVSPost2010Prop44ColorRGB
 90
      255
102
RTVSPost2010PropOp44
 70
     1
102
RTVSPost2010Prop45
280
     0
102
RTVSPost2010PropOp45
 70
     1
102
RTVSPost2010Prop46
 90
       50
102
RTVSPost2010PropOp46
 70
     1
102
RTVSPost2010Prop47
 90
       50
102
RTVSPost2010PropOp47
 70
     1
102
RTVSPost2010Prop48
 90
       50
102
RTVSPost2010PropOp48
 70
     1
102
RTVSPost2010Prop49
280
     0
102
RTVSPost2010PropOp49
 70
     1
102
RTVSPost2010Prop50
 90
       50
102
RTVSPost2010PropOp50
 70
     1
102
RTVSPost2010Prop51ColorIndex
 90
      256
102
RTVSPost2010Prop51ColorRGB
 90
-16777216
102
RTVSPost2010PropOp51
 70
     0
102
RTVSPost2010Prop52
140
1.0
102
RTVSPost2010PropOp52
 70
     0
102
RTVSPost2010Prop53
 90
        2
102
RTVSPost2010PropOp53
 70
     1
102
RTVSPost2010Prop54
  1
strokes_ogs.tif
102
RTVSPost2010PropOp54
 70
     1
102
RTVSPost2010Prop55
280
     0
102
RTVSPost2010PropOp55
 70
     1
102
RTVSPost2010Prop56
140
1.0
102
RTVSPost2010PropOp56
 70
     1
102
RTVSPost2010Prop57
140
1.0
102
RTVSPost2010PropOp57
 70
     1
102
RTVSPropertyOp0
 70
     1
102
RTVSPropertyOp1
 70
     1
102
RTVSPropertyOp2
 70
     1
102
RTVSPropertyOp3
 70
     1
102
RTVSPropertyOp4
 70
     1
102
RTVSPropertyOp5
 70
     1
102
RTVSPropertyOp6
 70
     1
102
RTVSPropertyOp7
 70
     1
102
RTVSPropertyOp8
 70
     1
102
RTVSPropertyOp9
 70
     1
102
RTVSPropertyOp10
 70
     1
102
RTVSPropertyOp11
 70
     1
102
RTVSPropertyOp12
 70
     1
102
RTVSPropertyOp13
 70
     1
102
RTVSPropertyOp14
 70
     1
102
RTVSPropertyOp15
 70
     1
102
RTVSPropertyOp16
 70
     1
102
RTVSPropertyOp17
 70
     1
102
RTVSPropertyOp18
 70
     1
102
RTVSPropertyOp19
 70
     1
102
RTVSPropertyOp20
 70
     1
102
RTVSPropertyOp21
 70
     1
102
RTVSPropertyOp22
 70
     1
102
RTVSPropertyOp23
 70
     1
102
RTVSPropertyOp24
 70
     1
102
RTVSPropertyOp25
 70
     1
102
RTVSPropertyOp26
 70
     1
102
RTVSPropertyOp27
 70
     1
102
RTVSPropertyOp28
 70
     1
102
RTVSPropertyOp29
 70
     1
102
RTVSPropertyOp30
 70
     1
102
RTVSPropertyOp31
 70
     1
102
RTVSPropertyOp32
 70
     1
102
RTVSPropertyOp33
 70
     1
102
RTVSPropertyOp34
 70
     1
102
RTVSPropertyOp35
 70
     1
102
RTVSPropertyOp36
 70
     1
102
RTVSPropertyOp37
 70
     1
102
RTVSPropertyOp38
 70
     1
102
RTVSPropertyOp39
 70
     1
102
RTVSPropertyOp40
 70
     1
102
RTVSPropertyOp41
 70
     1
102
RTVSPropertyOp42
 70
     1
102
RTVSPropertyOp43
 70
     1
102
RTVSPropertyOp44
 70
     1
102
RTVSPropertyOp45
 70
     1
102
RTVSPropertyOp46
 70
     1
102
RTVSPropertyOp47
 70
     1
102
RTVSPropertyOp48
 70
     1
102
RTVSPropertyOp49
 70
     1
102
RTVSPropertyOp50
 70
     1
102
RTVSPropertyOp51
 70
     0
102
RTVSPropertyOp52
 70
     0
102
RTVSPropertyOp53
 70
     1
102
RTVSPropertyOp54
 70
     1
102
RTVSPropertyOp55
 70
     1
102
RTVSPropertyOp56
 70
     1
102
RTVSPropertyOp57
 70
     1
102
RTVSPropertyOp58
 70
     1
102
RTVSPropertyOp59
 70
     1
102
RTVSPropertyOp60
 70
     1
102
RTVSPropertyOp61
 70
     1
102
RTVSPropertyOp62
 70
     1
  0
XRECORD
  5
1BAD
102
{ACAD_REACTORS
330
1BAC
102
}
330
1BAC
100
AcDbXrecord
280
     1
102
RTVSPost2010Prop28
280
     0
102
RTVSPost2010PropOp28
 70
     1
102
RTVSPost2010Prop29
280
     1
102
RTVSPost2010PropOp29
 70
     1
102
RTVSPost2010Prop30
280
     1
102
RTVSPost2010PropOp30
 70
     1
102
RTVSPost2010Prop31
280
     0
102
RTVSPost2010PropOp31
 70
     1
102
RTVSPost2010Prop32
280
     0
102
RTVSPost2010PropOp32
 70
     1
102
RTVSPost2010Prop33
280
     0
102
RTVSPost2010PropOp33
 70
     1
102
RTVSPost2010Prop34
280
     0
102
RTVSPost2010PropOp34
 70
     1
102
RTVSPost2010Prop35
280
     0
102
RTVSPost2010PropOp35
 70
     1
102
RTVSPost2010Prop36
280
     0
102
RTVSPost2010PropOp36
 70
     1
102
RTVSPost2010Prop37
 90
       50
102
RTVSPost2010PropOp37
 70
     1
102
RTVSPost2010Prop38
140
0.0
102
RTVSPost2010PropOp38
 70
     1
102
RTVSPost2010Prop39
140
1.0
102
RTVSPost2010PropOp39
 70
     1
102
RTVSPost2010Prop40
 90
        0
102
RTVSPost2010PropOp40
 70
     1
102
RTVSPost2010Prop41ColorIndex
 90
       18
102
RTVSPost2010Prop41ColorRGB
 90
        0
102
RTVSPost2010PropOp41
 70
     1
102
RTVSPost2010Prop42
 90
       50
102
RTVSPost2010PropOp42
 70
     1
102
RTVSPost2010Prop43
 90
        3
102
RTVSPost2010PropOp43
 70
     1
102
RTVSPost2010Prop44ColorIndex
 90
        5
102
RTVSPost2010Prop44ColorRGB
 90
      255
102
RTVSPost2010PropOp44
 70
     1
102
RTVSPost2010Prop45
280
     0
102
RTVSPost2010PropOp45
 70
     1
102
RTVSPost2010Prop46
 90
       50
102
RTVSPost2010PropOp46
 70
     1
102
RTVSPost2010Prop47
 90
       50
102
RTVSPost2010PropOp47
 70
     1
102
RTVSPost2010Prop48
 90
       50
102
RTVSPost2010PropOp48
 70
     1
102
RTVSPost2010Prop49
280
     0
102
RTVSPost2010PropOp49
 70
     1
102
RTVSPost2010Prop50
 90
       50
102
RTVSPost2010PropOp50
 70
     1
102
RTVSPost2010Prop51ColorIndex
 90
      256
102
RTVSPost2010Prop51ColorRGB
 90
-16777216
102
RTVSPost2010PropOp51
 70
     0
102
RTVSPost2010Prop52
140
1.0
102
RTVSPost2010PropOp52
 70
     0
102
RTVSPost2010Prop53
 90
        2
102
RTVSPost2010PropOp53
 70
     1
102
RTVSPost2010Prop54
  1
strokes_ogs.tif
102
RTVSPost2010PropOp54
 70
     1
102
RTVSPost2010Prop55
280
     0
102
RTVSPost2010PropOp55
 70
     1
102
RTVSPost2010Prop56
140
1.0
102
RTVSPost2010PropOp56
 70
     1
102
RTVSPost2010Prop57
140
1.0
102
RTVSPost2010PropOp57
 70
     1
102
RTVSPropertyOp0
 70
     1
102
RTVSPropertyOp1
 70
     1
102
RTVSPropertyOp2
 70
     1
102
RTVSPropertyOp3
 70
     1
102
RTVSPropertyOp4
 70
     1
102
RTVSPropertyOp5
 70
     1
102
RTVSPropertyOp6
 70
     1
102
RTVSPropertyOp7
 70
     1
102
RTVSPropertyOp8
 70
     1
102
RTVSPropertyOp9
 70
     1
102
RTVSPropertyOp10
 70
     1
102
RTVSPropertyOp11
 70
     1
102
RTVSPropertyOp12
 70
     1
102
RTVSPropertyOp13
 70
     1
102
RTVSPropertyOp14
 70
     1
102
RTVSPropertyOp15
 70
     1
102
RTVSPropertyOp16
 70
     1
102
RTVSPropertyOp17
 70
     1
102
RTVSPropertyOp18
 70
     1
102
RTVSPropertyOp19
 70
     1
102
RTVSPropertyOp20
 70
     1
102
RTVSPropertyOp21
 70
     1
102
RTVSPropertyOp22
 70
     1
102
RTVSPropertyOp23
 70
     1
102
RTVSPropertyOp24
 70
     1
102
RTVSPropertyOp25
 70
     1
102
RTVSPropertyOp26
 70
     1
102
RTVSPropertyOp27
 70
     1
102
RTVSPropertyOp28
 70
     1
102
RTVSPropertyOp29
 70
     1
102
RTVSPropertyOp30
 70
     1
102
RTVSPropertyOp31
 70
     1
102
RTVSPropertyOp32
 70
     1
102
RTVSPropertyOp33
 70
     1
102
RTVSPropertyOp34
 70
     1
102
RTVSPropertyOp35
 70
     1
102
RTVSPropertyOp36
 70
     1
102
RTVSPropertyOp37
 70
     1
102
RTVSPropertyOp38
 70
     1
102
RTVSPropertyOp39
 70
     1
102
RTVSPropertyOp40
 70
     1
102
RTVSPropertyOp41
 70
     1
102
RTVSPropertyOp42
 70
     1
102
RTVSPropertyOp43
 70
     1
102
RTVSPropertyOp44
 70
     1
102
RTVSPropertyOp45
 70
     1
102
RTVSPropertyOp46
 70
     1
102
RTVSPropertyOp47
 70
     1
102
RTVSPropertyOp48
 70
     1
102
RTVSPropertyOp49
 70
     1
102
RTVSPropertyOp50
 70
     1
102
RTVSPropertyOp51
 70
     0
102
RTVSPropertyOp52
 70
     0
102
RTVSPropertyOp53
 70
     1
102
RTVSPropertyOp54
 70
     1
102
RTVSPropertyOp55
 70
     1
102
RTVSPropertyOp56
 70
     1
102
RTVSPropertyOp57
 70
     1
102
RTVSPropertyOp58
 70
     1
102
RTVSPropertyOp59
 70
     1
102
RTVSPropertyOp60
 70
     1
102
RTVSPropertyOp61
 70
     1
102
RTVSPropertyOp62
 70
     1
  0
XRECORD
  5
1BAB
102
{ACAD_REACTORS
330
1BAA
102
}
330
1BAA
100
AcDbXrecord
280
     1
102
RTVSPost2010Prop28
280
     0
102
RTVSPost2010PropOp28
 70
     1
102
RTVSPost2010Prop29
280
     1
102
RTVSPost2010PropOp29
 70
     1
102
RTVSPost2010Prop30
280
     1
102
RTVSPost2010PropOp30
 70
     1
102
RTVSPost2010Prop31
280
     0
102
RTVSPost2010PropOp31
 70
     1
102
RTVSPost2010Prop32
280
     0
102
RTVSPost2010PropOp32
 70
     1
102
RTVSPost2010Prop33
280
     0
102
RTVSPost2010PropOp33
 70
     1
102
RTVSPost2010Prop34
280
     0
102
RTVSPost2010PropOp34
 70
     1
102
RTVSPost2010Prop35
280
     0
102
RTVSPost2010PropOp35
 70
     1
102
RTVSPost2010Prop36
280
     0
102
RTVSPost2010PropOp36
 70
     1
102
RTVSPost2010Prop37
 90
       50
102
RTVSPost2010PropOp37
 70
     1
102
RTVSPost2010Prop38
140
0.0
102
RTVSPost2010PropOp38
 70
     1
102
RTVSPost2010Prop39
140
1.0
102
RTVSPost2010PropOp39
 70
     1
102
RTVSPost2010Prop40
 90
        0
102
RTVSPost2010PropOp40
 70
     1
102
RTVSPost2010Prop41ColorIndex
 90
       18
102
RTVSPost2010Prop41ColorRGB
 90
        0
102
RTVSPost2010PropOp41
 70
     1
102
RTVSPost2010Prop42
 90
       50
102
RTVSPost2010PropOp42
 70
     1
102
RTVSPost2010Prop43
 90
        3
102
RTVSPost2010PropOp43
 70
     1
102
RTVSPost2010Prop44ColorIndex
 90
        5
102
RTVSPost2010Prop44ColorRGB
 90
      255
102
RTVSPost2010PropOp44
 70
     1
102
RTVSPost2010Prop45
280
     0
102
RTVSPost2010PropOp45
 70
     1
102
RTVSPost2010Prop46
 90
       50
102
RTVSPost2010PropOp46
 70
     1
102
RTVSPost2010Prop47
 90
       50
102
RTVSPost2010PropOp47
 70
     1
102
RTVSPost2010Prop48
 90
       50
102
RTVSPost2010PropOp48
 70
     1
102
RTVSPost2010Prop49
280
     0
102
RTVSPost2010PropOp49
 70
     1
102
RTVSPost2010Prop50
 90
       50
102
RTVSPost2010PropOp50
 70
     1
102
RTVSPost2010Prop51ColorIndex
 90
      256
102
RTVSPost2010Prop51ColorRGB
 90
-16777216
102
RTVSPost2010PropOp51
 70
     0
102
RTVSPost2010Prop52
140
1.0
102
RTVSPost2010PropOp52
 70
     0
102
RTVSPost2010Prop53
 90
        2
102
RTVSPost2010PropOp53
 70
     1
102
RTVSPost2010Prop54
  1
strokes_ogs.tif
102
RTVSPost2010PropOp54
 70
     1
102
RTVSPost2010Prop55
280
     0
102
RTVSPost2010PropOp55
 70
     1
102
RTVSPost2010Prop56
140
1.0
102
RTVSPost2010PropOp56
 70
     1
102
RTVSPost2010Prop57
140
1.0
102
RTVSPost2010PropOp57
 70
     1
102
RTVSPropertyOp0
 70
     1
102
RTVSPropertyOp1
 70
     1
102
RTVSPropertyOp2
 70
     1
102
RTVSPropertyOp3
 70
     1
102
RTVSPropertyOp4
 70
     1
102
RTVSPropertyOp5
 70
     1
102
RTVSPropertyOp6
 70
     1
102
RTVSPropertyOp7
 70
     1
102
RTVSPropertyOp8
 70
     1
102
RTVSPropertyOp9
 70
     1
102
RTVSPropertyOp10
 70
     1
102
RTVSPropertyOp11
 70
     1
102
RTVSPropertyOp12
 70
     1
102
RTVSPropertyOp13
 70
     1
102
RTVSPropertyOp14
 70
     1
102
RTVSPropertyOp15
 70
     1
102
RTVSPropertyOp16
 70
     1
102
RTVSPropertyOp17
 70
     1
102
RTVSPropertyOp18
 70
     1
102
RTVSPropertyOp19
 70
     1
102
RTVSPropertyOp20
 70
     1
102
RTVSPropertyOp21
 70
     1
102
RTVSPropertyOp22
 70
     1
102
RTVSPropertyOp23
 70
     1
102
RTVSPropertyOp24
 70
     1
102
RTVSPropertyOp25
 70
     1
102
RTVSPropertyOp26
 70
     1
102
RTVSPropertyOp27
 70
     1
102
RTVSPropertyOp28
 70
     1
102
RTVSPropertyOp29
 70
     1
102
RTVSPropertyOp30
 70
     1
102
RTVSPropertyOp31
 70
     1
102
RTVSPropertyOp32
 70
     1
102
RTVSPropertyOp33
 70
     1
102
RTVSPropertyOp34
 70
     1
102
RTVSPropertyOp35
 70
     1
102
RTVSPropertyOp36
 70
     1
102
RTVSPropertyOp37
 70
     1
102
RTVSPropertyOp38
 70
     1
102
RTVSPropertyOp39
 70
     1
102
RTVSPropertyOp40
 70
     1
102
RTVSPropertyOp41
 70
     1
102
RTVSPropertyOp42
 70
     1
102
RTVSPropertyOp43
 70
     1
102
RTVSPropertyOp44
 70
     1
102
RTVSPropertyOp45
 70
     1
102
RTVSPropertyOp46
 70
     1
102
RTVSPropertyOp47
 70
     1
102
RTVSPropertyOp48
 70
     1
102
RTVSPropertyOp49
 70
     1
102
RTVSPropertyOp50
 70
     1
102
RTVSPropertyOp51
 70
     0
102
RTVSPropertyOp52
 70
     0
102
RTVSPropertyOp53
 70
     1
102
RTVSPropertyOp54
 70
     1
102
RTVSPropertyOp55
 70
     1
102
RTVSPropertyOp56
 70
     1
102
RTVSPropertyOp57
 70
     1
102
RTVSPropertyOp58
 70
     1
102
RTVSPropertyOp59
 70
     1
102
RTVSPropertyOp60
 70
     1
102
RTVSPropertyOp61
 70
     1
102
RTVSPropertyOp62
 70
     1
  0
XRECORD
  5
1BA5
102
{ACAD_REACTORS
330
1BA4
102
}
330
1BA4
100
AcDbXrecord
280
     1
102
RTVSPost2010Prop28
280
     0
102
RTVSPost2010PropOp28
 70
     1
102
RTVSPost2010Prop29
280
     1
102
RTVSPost2010PropOp29
 70
     1
102
RTVSPost2010Prop30
280
     1
102
RTVSPost2010PropOp30
 70
     1
102
RTVSPost2010Prop31
280
     0
102
RTVSPost2010PropOp31
 70
     1
102
RTVSPost2010Prop32
280
     0
102
RTVSPost2010PropOp32
 70
     1
102
RTVSPost2010Prop33
280
     0
102
RTVSPost2010PropOp33
 70
     1
102
RTVSPost2010Prop34
280
     0
102
RTVSPost2010PropOp34
 70
     1
102
RTVSPost2010Prop35
280
     0
102
RTVSPost2010PropOp35
 70
     1
102
RTVSPost2010Prop36
280
     0
102
RTVSPost2010PropOp36
 70
     1
102
RTVSPost2010Prop37
 90
       50
102
RTVSPost2010PropOp37
 70
     1
102
RTVSPost2010Prop38
140
0.0
102
RTVSPost2010PropOp38
 70
     1
102
RTVSPost2010Prop39
140
1.0
102
RTVSPost2010PropOp39
 70
     1
102
RTVSPost2010Prop40
 90
        0
102
RTVSPost2010PropOp40
 70
     1
102
RTVSPost2010Prop41ColorIndex
 90
       18
102
RTVSPost2010Prop41ColorRGB
 90
        0
102
RTVSPost2010PropOp41
 70
     1
102
RTVSPost2010Prop42
 90
       50
102
RTVSPost2010PropOp42
 70
     1
102
RTVSPost2010Prop43
 90
        3
102
RTVSPost2010PropOp43
 70
     1
102
RTVSPost2010Prop44ColorIndex
 90
        5
102
RTVSPost2010Prop44ColorRGB
 90
      255
102
RTVSPost2010PropOp44
 70
     1
102
RTVSPost2010Prop45
280
     0
102
RTVSPost2010PropOp45
 70
     1
102
RTVSPost2010Prop46
 90
       50
102
RTVSPost2010PropOp46
 70
     1
102
RTVSPost2010Prop47
 90
       50
102
RTVSPost2010PropOp47
 70
     1
102
RTVSPost2010Prop48
 90
       50
102
RTVSPost2010PropOp48
 70
     1
102
RTVSPost2010Prop49
280
     0
102
RTVSPost2010PropOp49
 70
     1
102
RTVSPost2010Prop50
 90
       50
102
RTVSPost2010PropOp50
 70
     1
102
RTVSPost2010Prop51ColorIndex
 90
      256
102
RTVSPost2010Prop51ColorRGB
 90
-16777216
102
RTVSPost2010PropOp51
 70
     0
102
RTVSPost2010Prop52
140
1.0
102
RTVSPost2010PropOp52
 70
     0
102
RTVSPost2010Prop53
 90
        2
102
RTVSPost2010PropOp53
 70
     1
102
RTVSPost2010Prop54
  1
strokes_ogs.tif
102
RTVSPost2010PropOp54
 70
     1
102
RTVSPost2010Prop55
280
     0
102
RTVSPost2010PropOp55
 70
     1
102
RTVSPost2010Prop56
140
1.0
102
RTVSPost2010PropOp56
 70
     1
102
RTVSPost2010Prop57
140
1.0
102
RTVSPost2010PropOp57
 70
     1
102
RTVSPropertyOp0
 70
     1
102
RTVSPropertyOp1
 70
     1
102
RTVSPropertyOp2
 70
     1
102
RTVSPropertyOp3
 70
     1
102
RTVSPropertyOp4
 70
     1
102
RTVSPropertyOp5
 70
     1
102
RTVSPropertyOp6
 70
     1
102
RTVSPropertyOp7
 70
     1
102
RTVSPropertyOp8
 70
     1
102
RTVSPropertyOp9
 70
     1
102
RTVSPropertyOp10
 70
     1
102
RTVSPropertyOp11
 70
     1
102
RTVSPropertyOp12
 70
     1
102
RTVSPropertyOp13
 70
     1
102
RTVSPropertyOp14
 70
     1
102
RTVSPropertyOp15
 70
     1
102
RTVSPropertyOp16
 70
     1
102
RTVSPropertyOp17
 70
     1
102
RTVSPropertyOp18
 70
     1
102
RTVSPropertyOp19
 70
     1
102
RTVSPropertyOp20
 70
     1
102
RTVSPropertyOp21
 70
     1
102
RTVSPropertyOp22
 70
     1
102
RTVSPropertyOp23
 70
     1
102
RTVSPropertyOp24
 70
     1
102
RTVSPropertyOp25
 70
     1
102
RTVSPropertyOp26
 70
     1
102
RTVSPropertyOp27
 70
     1
102
RTVSPropertyOp28
 70
     1
102
RTVSPropertyOp29
 70
     1
102
RTVSPropertyOp30
 70
     1
102
RTVSPropertyOp31
 70
     1
102
RTVSPropertyOp32
 70
     1
102
RTVSPropertyOp33
 70
     1
102
RTVSPropertyOp34
 70
     1
102
RTVSPropertyOp35
 70
     1
102
RTVSPropertyOp36
 70
     1
102
RTVSPropertyOp37
 70
     1
102
RTVSPropertyOp38
 70
     1
102
RTVSPropertyOp39
 70
     1
102
RTVSPropertyOp40
 70
     1
102
RTVSPropertyOp41
 70
     1
102
RTVSPropertyOp42
 70
     1
102
RTVSPropertyOp43
 70
     1
102
RTVSPropertyOp44
 70
     1
102
RTVSPropertyOp45
 70
     1
102
RTVSPropertyOp46
 70
     1
102
RTVSPropertyOp47
 70
     1
102
RTVSPropertyOp48
 70
     1
102
RTVSPropertyOp49
 70
     1
102
RTVSPropertyOp50
 70
     1
102
RTVSPropertyOp51
 70
     0
102
RTVSPropertyOp52
 70
     0
102
RTVSPropertyOp53
 70
     1
102
RTVSPropertyOp54
 70
     1
102
RTVSPropertyOp55
 70
     1
102
RTVSPropertyOp56
 70
     1
102
RTVSPropertyOp57
 70
     1
102
RTVSPropertyOp58
 70
     1
102
RTVSPropertyOp59
 70
     1
102
RTVSPropertyOp60
 70
     1
102
RTVSPropertyOp61
 70
     1
102
RTVSPropertyOp62
 70
     1
  0
XRECORD
  5
1BA7
102
{ACAD_REACTORS
330
1BA6
102
}
330
1BA6
100
AcDbXrecord
280
     1
102
RTVSPost2010Prop28
280
     0
102
RTVSPost2010PropOp28
 70
     1
102
RTVSPost2010Prop29
280
     1
102
RTVSPost2010PropOp29
 70
     1
102
RTVSPost2010Prop30
280
     1
102
RTVSPost2010PropOp30
 70
     1
102
RTVSPost2010Prop31
280
     0
102
RTVSPost2010PropOp31
 70
     1
102
RTVSPost2010Prop32
280
     0
102
RTVSPost2010PropOp32
 70
     1
102
RTVSPost2010Prop33
280
     0
102
RTVSPost2010PropOp33
 70
     1
102
RTVSPost2010Prop34
280
     0
102
RTVSPost2010PropOp34
 70
     1
102
RTVSPost2010Prop35
280
     0
102
RTVSPost2010PropOp35
 70
     1
102
RTVSPost2010Prop36
280
     0
102
RTVSPost2010PropOp36
 70
     1
102
RTVSPost2010Prop37
 90
       50
102
RTVSPost2010PropOp37
 70
     1
102
RTVSPost2010Prop38
140
0.0
102
RTVSPost2010PropOp38
 70
     1
102
RTVSPost2010Prop39
140
1.0
102
RTVSPost2010PropOp39
 70
     1
102
RTVSPost2010Prop40
 90
        0
102
RTVSPost2010PropOp40
 70
     1
102
RTVSPost2010Prop41ColorIndex
 90
       18
102
RTVSPost2010Prop41ColorRGB
 90
        0
102
RTVSPost2010PropOp41
 70
     1
102
RTVSPost2010Prop42
 90
       50
102
RTVSPost2010PropOp42
 70
     1
102
RTVSPost2010Prop43
 90
        3
102
RTVSPost2010PropOp43
 70
     1
102
RTVSPost2010Prop44ColorIndex
 90
        5
102
RTVSPost2010Prop44ColorRGB
 90
      255
102
RTVSPost2010PropOp44
 70
     1
102
RTVSPost2010Prop45
280
     0
102
RTVSPost2010PropOp45
 70
     1
102
RTVSPost2010Prop46
 90
       50
102
RTVSPost2010PropOp46
 70
     1
102
RTVSPost2010Prop47
 90
       50
102
RTVSPost2010PropOp47
 70
     1
102
RTVSPost2010Prop48
 90
       50
102
RTVSPost2010PropOp48
 70
     1
102
RTVSPost2010Prop49
280
     0
102
RTVSPost2010PropOp49
 70
     1
102
RTVSPost2010Prop50
 90
       50
102
RTVSPost2010PropOp50
 70
     1
102
RTVSPost2010Prop51ColorIndex
 90
      256
102
RTVSPost2010Prop51ColorRGB
 90
-16777216
102
RTVSPost2010PropOp51
 70
     0
102
RTVSPost2010Prop52
140
1.0
102
RTVSPost2010PropOp52
 70
     0
102
RTVSPost2010Prop53
 90
        2
102
RTVSPost2010PropOp53
 70
     1
102
RTVSPost2010Prop54
  1
strokes_ogs.tif
102
RTVSPost2010PropOp54
 70
     1
102
RTVSPost2010Prop55
280
     0
102
RTVSPost2010PropOp55
 70
     1
102
RTVSPost2010Prop56
140
1.0
102
RTVSPost2010PropOp56
 70
     1
102
RTVSPost2010Prop57
140
1.0
102
RTVSPost2010PropOp57
 70
     1
102
RTVSPropertyOp0
 70
     1
102
RTVSPropertyOp1
 70
     1
102
RTVSPropertyOp2
 70
     1
102
RTVSPropertyOp3
 70
     1
102
RTVSPropertyOp4
 70
     1
102
RTVSPropertyOp5
 70
     1
102
RTVSPropertyOp6
 70
     1
102
RTVSPropertyOp7
 70
     1
102
RTVSPropertyOp8
 70
     1
102
RTVSPropertyOp9
 70
     1
102
RTVSPropertyOp10
 70
     1
102
RTVSPropertyOp11
 70
     1
102
RTVSPropertyOp12
 70
     1
102
RTVSPropertyOp13
 70
     1
102
RTVSPropertyOp14
 70
     1
102
RTVSPropertyOp15
 70
     1
102
RTVSPropertyOp16
 70
     1
102
RTVSPropertyOp17
 70
     1
102
RTVSPropertyOp18
 70
     1
102
RTVSPropertyOp19
 70
     1
102
RTVSPropertyOp20
 70
     1
102
RTVSPropertyOp21
 70
     1
102
RTVSPropertyOp22
 70
     1
102
RTVSPropertyOp23
 70
     1
102
RTVSPropertyOp24
 70
     1
102
RTVSPropertyOp25
 70
     1
102
RTVSPropertyOp26
 70
     1
102
RTVSPropertyOp27
 70
     1
102
RTVSPropertyOp28
 70
     1
102
RTVSPropertyOp29
 70
     1
102
RTVSPropertyOp30
 70
     1
102
RTVSPropertyOp31
 70
     1
102
RTVSPropertyOp32
 70
     1
102
RTVSPropertyOp33
 70
     1
102
RTVSPropertyOp34
 70
     1
102
RTVSPropertyOp35
 70
     1
102
RTVSPropertyOp36
 70
     1
102
RTVSPropertyOp37
 70
     1
102
RTVSPropertyOp38
 70
     1
102
RTVSPropertyOp39
 70
     1
102
RTVSPropertyOp40
 70
     1
102
RTVSPropertyOp41
 70
     1
102
RTVSPropertyOp42
 70
     1
102
RTVSPropertyOp43
 70
     1
102
RTVSPropertyOp44
 70
     1
102
RTVSPropertyOp45
 70
     1
102
RTVSPropertyOp46
 70
     1
102
RTVSPropertyOp47
 70
     1
102
RTVSPropertyOp48
 70
     1
102
RTVSPropertyOp49
 70
     1
102
RTVSPropertyOp50
 70
     1
102
RTVSPropertyOp51
 70
     0
102
RTVSPropertyOp52
 70
     0
102
RTVSPropertyOp53
 70
     1
102
RTVSPropertyOp54
 70
     1
102
RTVSPropertyOp55
 70
     1
102
RTVSPropertyOp56
 70
     1
102
RTVSPropertyOp57
 70
     1
102
RTVSPropertyOp58
 70
     1
102
RTVSPropertyOp59
 70
     1
102
RTVSPropertyOp60
 70
     1
102
RTVSPropertyOp61
 70
     1
102
RTVSPropertyOp62
 70
     1
  0
XRECORD
  5
1B9D
102
{ACAD_REACTORS
330
1B9C
102
}
330
1B9C
100
AcDbXrecord
280
     1
102
RTVSPost2010Prop28
280
     0
102
RTVSPost2010PropOp28
 70
     1
102
RTVSPost2010Prop29
280
     1
102
RTVSPost2010PropOp29
 70
     1
102
RTVSPost2010Prop30
280
     1
102
RTVSPost2010PropOp30
 70
     1
102
RTVSPost2010Prop31
280
     0
102
RTVSPost2010PropOp31
 70
     1
102
RTVSPost2010Prop32
280
     0
102
RTVSPost2010PropOp32
 70
     1
102
RTVSPost2010Prop33
280
     0
102
RTVSPost2010PropOp33
 70
     1
102
RTVSPost2010Prop34
280
     0
102
RTVSPost2010PropOp34
 70
     1
102
RTVSPost2010Prop35
280
     0
102
RTVSPost2010PropOp35
 70
     1
102
RTVSPost2010Prop36
280
     0
102
RTVSPost2010PropOp36
 70
     1
102
RTVSPost2010Prop37
 90
       50
102
RTVSPost2010PropOp37
 70
     1
102
RTVSPost2010Prop38
140
0.0
102
RTVSPost2010PropOp38
 70
     1
102
RTVSPost2010Prop39
140
1.0
102
RTVSPost2010PropOp39
 70
     1
102
RTVSPost2010Prop40
 90
        0
102
RTVSPost2010PropOp40
 70
     1
102
RTVSPost2010Prop41ColorIndex
 90
       18
102
RTVSPost2010Prop41ColorRGB
 90
        0
102
RTVSPost2010PropOp41
 70
     1
102
RTVSPost2010Prop42
 90
       50
102
RTVSPost2010PropOp42
 70
     1
102
RTVSPost2010Prop43
 90
        3
102
RTVSPost2010PropOp43
 70
     1
102
RTVSPost2010Prop44ColorIndex
 90
        5
102
RTVSPost2010Prop44ColorRGB
 90
      255
102
RTVSPost2010PropOp44
 70
     1
102
RTVSPost2010Prop45
280
     0
102
RTVSPost2010PropOp45
 70
     1
102
RTVSPost2010Prop46
 90
       50
102
RTVSPost2010PropOp46
 70
     1
102
RTVSPost2010Prop47
 90
       50
102
RTVSPost2010PropOp47
 70
     1
102
RTVSPost2010Prop48
 90
       50
102
RTVSPost2010PropOp48
 70
     1
102
RTVSPost2010Prop49
280
     0
102
RTVSPost2010PropOp49
 70
     1
102
RTVSPost2010Prop50
 90
       50
102
RTVSPost2010PropOp50
 70
     1
102
RTVSPost2010Prop51ColorIndex
 90
      256
102
RTVSPost2010Prop51ColorRGB
 90
-16777216
102
RTVSPost2010PropOp51
 70
     0
102
RTVSPost2010Prop52
140
1.0
102
RTVSPost2010PropOp52
 70
     0
102
RTVSPost2010Prop53
 90
        2
102
RTVSPost2010PropOp53
 70
     1
102
RTVSPost2010Prop54
  1
strokes_ogs.tif
102
RTVSPost2010PropOp54
 70
     1
102
RTVSPost2010Prop55
280
     0
102
RTVSPost2010PropOp55
 70
     1
102
RTVSPost2010Prop56
140
1.0
102
RTVSPost2010PropOp56
 70
     1
102
RTVSPost2010Prop57
140
1.0
102
RTVSPost2010PropOp57
 70
     1
102
RTVSPropertyOp0
 70
     1
102
RTVSPropertyOp1
 70
     1
102
RTVSPropertyOp2
 70
     1
102
RTVSPropertyOp3
 70
     1
102
RTVSPropertyOp4
 70
     1
102
RTVSPropertyOp5
 70
     1
102
RTVSPropertyOp6
 70
     1
102
RTVSPropertyOp7
 70
     1
102
RTVSPropertyOp8
 70
     1
102
RTVSPropertyOp9
 70
     1
102
RTVSPropertyOp10
 70
     1
102
RTVSPropertyOp11
 70
     1
102
RTVSPropertyOp12
 70
     1
102
RTVSPropertyOp13
 70
     1
102
RTVSPropertyOp14
 70
     1
102
RTVSPropertyOp15
 70
     1
102
RTVSPropertyOp16
 70
     1
102
RTVSPropertyOp17
 70
     1
102
RTVSPropertyOp18
 70
     1
102
RTVSPropertyOp19
 70
     1
102
RTVSPropertyOp20
 70
     1
102
RTVSPropertyOp21
 70
     1
102
RTVSPropertyOp22
 70
     1
102
RTVSPropertyOp23
 70
     1
102
RTVSPropertyOp24
 70
     1
102
RTVSPropertyOp25
 70
     1
102
RTVSPropertyOp26
 70
     1
102
RTVSPropertyOp27
 70
     1
102
RTVSPropertyOp28
 70
     1
102
RTVSPropertyOp29
 70
     1
102
RTVSPropertyOp30
 70
     1
102
RTVSPropertyOp31
 70
     1
102
RTVSPropertyOp32
 70
     1
102
RTVSPropertyOp33
 70
     1
102
RTVSPropertyOp34
 70
     1
102
RTVSPropertyOp35
 70
     1
102
RTVSPropertyOp36
 70
     1
102
RTVSPropertyOp37
 70
     1
102
RTVSPropertyOp38
 70
     1
102
RTVSPropertyOp39
 70
     1
102
RTVSPropertyOp40
 70
     1
102
RTVSPropertyOp41
 70
     1
102
RTVSPropertyOp42
 70
     1
102
RTVSPropertyOp43
 70
     1
102
RTVSPropertyOp44
 70
     1
102
RTVSPropertyOp45
 70
     1
102
RTVSPropertyOp46
 70
     1
102
RTVSPropertyOp47
 70
     1
102
RTVSPropertyOp48
 70
     1
102
RTVSPropertyOp49
 70
     1
102
RTVSPropertyOp50
 70
     1
102
RTVSPropertyOp51
 70
     0
102
RTVSPropertyOp52
 70
     0
102
RTVSPropertyOp53
 70
     1
102
RTVSPropertyOp54
 70
     1
102
RTVSPropertyOp55
 70
     1
102
RTVSPropertyOp56
 70
     1
102
RTVSPropertyOp57
 70
     1
102
RTVSPropertyOp58
 70
     1
102
RTVSPropertyOp59
 70
     1
102
RTVSPropertyOp60
 70
     1
102
RTVSPropertyOp61
 70
     1
102
RTVSPropertyOp62
 70
     1
  0
XRECORD
  5
1B91
102
{ACAD_REACTORS
330
1B90
102
}
330
1B90
100
AcDbXrecord
280
     1
102
RTVSPost2010Prop28
280
     0
102
RTVSPost2010PropOp28
 70
     1
102
RTVSPost2010Prop29
280
     1
102
RTVSPost2010PropOp29
 70
     1
102
RTVSPost2010Prop30
280
     1
102
RTVSPost2010PropOp30
 70
     1
102
RTVSPost2010Prop31
280
     0
102
RTVSPost2010PropOp31
 70
     1
102
RTVSPost2010Prop32
280
     0
102
RTVSPost2010PropOp32
 70
     1
102
RTVSPost2010Prop33
280
     0
102
RTVSPost2010PropOp33
 70
     1
102
RTVSPost2010Prop34
280
     0
102
RTVSPost2010PropOp34
 70
     1
102
RTVSPost2010Prop35
280
     0
102
RTVSPost2010PropOp35
 70
     1
102
RTVSPost2010Prop36
280
     0
102
RTVSPost2010PropOp36
 70
     1
102
RTVSPost2010Prop37
 90
       50
102
RTVSPost2010PropOp37
 70
     1
102
RTVSPost2010Prop38
140
0.0
102
RTVSPost2010PropOp38
 70
     1
102
RTVSPost2010Prop39
140
1.0
102
RTVSPost2010PropOp39
 70
     1
102
RTVSPost2010Prop40
 90
        0
102
RTVSPost2010PropOp40
 70
     1
102
RTVSPost2010Prop41ColorIndex
 90
       18
102
RTVSPost2010Prop41ColorRGB
 90
        0
102
RTVSPost2010PropOp41
 70
     1
102
RTVSPost2010Prop42
 90
       50
102
RTVSPost2010PropOp42
 70
     1
102
RTVSPost2010Prop43
 90
        3
102
RTVSPost2010PropOp43
 70
     1
102
RTVSPost2010Prop44ColorIndex
 90
        5
102
RTVSPost2010Prop44ColorRGB
 90
      255
102
RTVSPost2010PropOp44
 70
     1
102
RTVSPost2010Prop45
280
     0
102
RTVSPost2010PropOp45
 70
     1
102
RTVSPost2010Prop46
 90
       50
102
RTVSPost2010PropOp46
 70
     1
102
RTVSPost2010Prop47
 90
       50
102
RTVSPost2010PropOp47
 70
     1
102
RTVSPost2010Prop48
 90
       50
102
RTVSPost2010PropOp48
 70
     1
102
RTVSPost2010Prop49
280
     0
102
RTVSPost2010PropOp49
 70
     1
102
RTVSPost2010Prop50
 90
       50
102
RTVSPost2010PropOp50
 70
     1
102
RTVSPost2010Prop51ColorIndex
 90
      256
102
RTVSPost2010Prop51ColorRGB
 90
-16777216
102
RTVSPost2010PropOp51
 70
     0
102
RTVSPost2010Prop52
140
1.0
102
RTVSPost2010PropOp52
 70
     0
102
RTVSPost2010Prop53
 90
        2
102
RTVSPost2010PropOp53
 70
     1
102
RTVSPost2010Prop54
  1
strokes_ogs.tif
102
RTVSPost2010PropOp54
 70
     1
102
RTVSPost2010Prop55
280
     0
102
RTVSPost2010PropOp55
 70
     1
102
RTVSPost2010Prop56
140
1.0
102
RTVSPost2010PropOp56
 70
     1
102
RTVSPost2010Prop57
140
1.0
102
RTVSPost2010PropOp57
 70
     1
102
RTVSPropertyOp0
 70
     1
102
RTVSPropertyOp1
 70
     1
102
RTVSPropertyOp2
 70
     1
102
RTVSPropertyOp3
 70
     1
102
RTVSPropertyOp4
 70
     1
102
RTVSPropertyOp5
 70
     1
102
RTVSPropertyOp6
 70
     1
102
RTVSPropertyOp7
 70
     1
102
RTVSPropertyOp8
 70
     1
102
RTVSPropertyOp9
 70
     1
102
RTVSPropertyOp10
 70
     1
102
RTVSPropertyOp11
 70
     1
102
RTVSPropertyOp12
 70
     1
102
RTVSPropertyOp13
 70
     1
102
RTVSPropertyOp14
 70
     1
102
RTVSPropertyOp15
 70
     1
102
RTVSPropertyOp16
 70
     1
102
RTVSPropertyOp17
 70
     1
102
RTVSPropertyOp18
 70
     1
102
RTVSPropertyOp19
 70
     1
102
RTVSPropertyOp20
 70
     1
102
RTVSPropertyOp21
 70
     1
102
RTVSPropertyOp22
 70
     1
102
RTVSPropertyOp23
 70
     1
102
RTVSPropertyOp24
 70
     1
102
RTVSPropertyOp25
 70
     1
102
RTVSPropertyOp26
 70
     1
102
RTVSPropertyOp27
 70
     1
102
RTVSPropertyOp28
 70
     1
102
RTVSPropertyOp29
 70
     1
102
RTVSPropertyOp30
 70
     1
102
RTVSPropertyOp31
 70
     1
102
RTVSPropertyOp32
 70
     1
102
RTVSPropertyOp33
 70
     1
102
RTVSPropertyOp34
 70
     1
102
RTVSPropertyOp35
 70
     1
102
RTVSPropertyOp36
 70
     1
102
RTVSPropertyOp37
 70
     1
102
RTVSPropertyOp38
 70
     1
102
RTVSPropertyOp39
 70
     1
102
RTVSPropertyOp40
 70
     1
102
RTVSPropertyOp41
 70
     1
102
RTVSPropertyOp42
 70
     1
102
RTVSPropertyOp43
 70
     1
102
RTVSPropertyOp44
 70
     1
102
RTVSPropertyOp45
 70
     1
102
RTVSPropertyOp46
 70
     1
102
RTVSPropertyOp47
 70
     1
102
RTVSPropertyOp48
 70
     1
102
RTVSPropertyOp49
 70
     1
102
RTVSPropertyOp50
 70
     1
102
RTVSPropertyOp51
 70
     0
102
RTVSPropertyOp52
 70
     0
102
RTVSPropertyOp53
 70
     1
102
RTVSPropertyOp54
 70
     1
102
RTVSPropertyOp55
 70
     1
102
RTVSPropertyOp56
 70
     1
102
RTVSPropertyOp57
 70
     1
102
RTVSPropertyOp58
 70
     1
102
RTVSPropertyOp59
 70
     1
102
RTVSPropertyOp60
 70
     1
102
RTVSPropertyOp61
 70
     1
102
RTVSPropertyOp62
 70
     1
  0
XRECORD
  5
1BA9
102
{ACAD_REACTORS
330
1BA8
102
}
330
1BA8
100
AcDbXrecord
280
     1
102
RTVSPost2010Prop28
280
     0
102
RTVSPost2010PropOp28
 70
     1
102
RTVSPost2010Prop29
280
     1
102
RTVSPost2010PropOp29
 70
     1
102
RTVSPost2010Prop30
280
     1
102
RTVSPost2010PropOp30
 70
     1
102
RTVSPost2010Prop31
280
     0
102
RTVSPost2010PropOp31
 70
     1
102
RTVSPost2010Prop32
280
     0
102
RTVSPost2010PropOp32
 70
     1
102
RTVSPost2010Prop33
280
     0
102
RTVSPost2010PropOp33
 70
     1
102
RTVSPost2010Prop34
280
     0
102
RTVSPost2010PropOp34
 70
     1
102
RTVSPost2010Prop35
280
     0
102
RTVSPost2010PropOp35
 70
     1
102
RTVSPost2010Prop36
280
     0
102
RTVSPost2010PropOp36
 70
     1
102
RTVSPost2010Prop37
 90
       50
102
RTVSPost2010PropOp37
 70
     1
102
RTVSPost2010Prop38
140
0.0
102
RTVSPost2010PropOp38
 70
     1
102
RTVSPost2010Prop39
140
1.0
102
RTVSPost2010PropOp39
 70
     1
102
RTVSPost2010Prop40
 90
        0
102
RTVSPost2010PropOp40
 70
     1
102
RTVSPost2010Prop41ColorIndex
 90
       18
102
RTVSPost2010Prop41ColorRGB
 90
        0
102
RTVSPost2010PropOp41
 70
     1
102
RTVSPost2010Prop42
 90
       50
102
RTVSPost2010PropOp42
 70
     1
102
RTVSPost2010Prop43
 90
        3
102
RTVSPost2010PropOp43
 70
     1
102
RTVSPost2010Prop44ColorIndex
 90
        5
102
RTVSPost2010Prop44ColorRGB
 90
      255
102
RTVSPost2010PropOp44
 70
     1
102
RTVSPost2010Prop45
280
     0
102
RTVSPost2010PropOp45
 70
     1
102
RTVSPost2010Prop46
 90
       50
102
RTVSPost2010PropOp46
 70
     1
102
RTVSPost2010Prop47
 90
       50
102
RTVSPost2010PropOp47
 70
     1
102
RTVSPost2010Prop48
 90
       50
102
RTVSPost2010PropOp48
 70
     1
102
RTVSPost2010Prop49
280
     0
102
RTVSPost2010PropOp49
 70
     1
102
RTVSPost2010Prop50
 90
       50
102
RTVSPost2010PropOp50
 70
     1
102
RTVSPost2010Prop51ColorIndex
 90
      256
102
RTVSPost2010Prop51ColorRGB
 90
-16777216
102
RTVSPost2010PropOp51
 70
     0
102
RTVSPost2010Prop52
140
1.0
102
RTVSPost2010PropOp52
 70
     0
102
RTVSPost2010Prop53
 90
        2
102
RTVSPost2010PropOp53
 70
     1
102
RTVSPost2010Prop54
  1
strokes_ogs.tif
102
RTVSPost2010PropOp54
 70
     1
102
RTVSPost2010Prop55
280
     0
102
RTVSPost2010PropOp55
 70
     1
102
RTVSPost2010Prop56
140
1.0
102
RTVSPost2010PropOp56
 70
     1
102
RTVSPost2010Prop57
140
1.0
102
RTVSPost2010PropOp57
 70
     1
102
RTVSPropertyOp0
 70
     1
102
RTVSPropertyOp1
 70
     1
102
RTVSPropertyOp2
 70
     1
102
RTVSPropertyOp3
 70
     1
102
RTVSPropertyOp4
 70
     1
102
RTVSPropertyOp5
 70
     1
102
RTVSPropertyOp6
 70
     1
102
RTVSPropertyOp7
 70
     1
102
RTVSPropertyOp8
 70
     1
102
RTVSPropertyOp9
 70
     1
102
RTVSPropertyOp10
 70
     1
102
RTVSPropertyOp11
 70
     1
102
RTVSPropertyOp12
 70
     1
102
RTVSPropertyOp13
 70
     1
102
RTVSPropertyOp14
 70
     1
102
RTVSPropertyOp15
 70
     1
102
RTVSPropertyOp16
 70
     1
102
RTVSPropertyOp17
 70
     1
102
RTVSPropertyOp18
 70
     1
102
RTVSPropertyOp19
 70
     1
102
RTVSPropertyOp20
 70
     1
102
RTVSPropertyOp21
 70
     1
102
RTVSPropertyOp22
 70
     1
102
RTVSPropertyOp23
 70
     1
102
RTVSPropertyOp24
 70
     1
102
RTVSPropertyOp25
 70
     1
102
RTVSPropertyOp26
 70
     1
102
RTVSPropertyOp27
 70
     1
102
RTVSPropertyOp28
 70
     1
102
RTVSPropertyOp29
 70
     1
102
RTVSPropertyOp30
 70
     1
102
RTVSPropertyOp31
 70
     1
102
RTVSPropertyOp32
 70
     1
102
RTVSPropertyOp33
 70
     1
102
RTVSPropertyOp34
 70
     1
102
RTVSPropertyOp35
 70
     1
102
RTVSPropertyOp36
 70
     1
102
RTVSPropertyOp37
 70
     1
102
RTVSPropertyOp38
 70
     1
102
RTVSPropertyOp39
 70
     1
102
RTVSPropertyOp40
 70
     1
102
RTVSPropertyOp41
 70
     1
102
RTVSPropertyOp42
 70
     1
102
RTVSPropertyOp43
 70
     1
102
RTVSPropertyOp44
 70
     1
102
RTVSPropertyOp45
 70
     1
102
RTVSPropertyOp46
 70
     1
102
RTVSPropertyOp47
 70
     1
102
RTVSPropertyOp48
 70
     1
102
RTVSPropertyOp49
 70
     1
102
RTVSPropertyOp50
 70
     1
102
RTVSPropertyOp51
 70
     0
102
RTVSPropertyOp52
 70
     0
102
RTVSPropertyOp53
 70
     1
102
RTVSPropertyOp54
 70
     1
102
RTVSPropertyOp55
 70
     1
102
RTVSPropertyOp56
 70
     1
102
RTVSPropertyOp57
 70
     1
102
RTVSPropertyOp58
 70
     1
102
RTVSPropertyOp59
 70
     1
102
RTVSPropertyOp60
 70
     1
102
RTVSPropertyOp61
 70
     1
102
RTVSPropertyOp62
 70
     1
  0
ENDSEC
  0
EOF
