  0
SECTION
  2
HEADER
  9
$ACADVER
  1
AC1015
  9
$DWGCODEPAGE
  3
ANSI_932
  9
$LTSCALE
 40
20.0
  9
$FILLMODE
 70
     1
  9
$CLAYER
  8
0
  9
$PDMODE
 70
     0
  9
$SPLFRAME
 70
     0
  9
$SPLINETYPE
 70
     6
  9
$SPLINESEGS
 70
     8
  9
$DIMASZ
 40
2.000000
  9
$DIMEXE
 40
1.500000
  9
$DIMEXO
 40
0.800000
  9
$DIMTAD
 70
     1
  9
$DIMTIH
 70
     0
  9
$DIMTOH
 70
     0
  9
$DIMTVP
 40
0.500000
  9
$DIMTXT
 40
3.100000
  9
$EXTMIN
 10
0.000000
 20
0.000000
 30
0.000000
  9
$EXTMAX
 10
297.000000
 20
420.000000
 30
0.000000
  9
$MEASUREMENT
 70
  1
  9
$LIMMIN
 10
0.000000
 20
0.000000
  9
$LIMMAX
 10
297.000000
 20
420.000000
  9
$HANDSEED
  5
2FA
  9
$LWDISPLAY
290
     0
  9
$DIMBLK
  1
_OPEN
  9
$DIMDEC
 70
     2
  9
$DIMADEC
 70
     2
  9
$DIMAUNIT
 70
     0
  9
$DIMZIN
 70
     8
  9
$DIMAZIN
 70
     2
  9
$DIMTOFL
 70
     1
  0
ENDSEC
  0
SECTION
  2
CLASSES
  0
ENDSEC
  0
SECTION
  2
TABLES
  0
TABLE
  2
VPORT
  5
2C7
100
AcDbSymbolTable
 70
     1
  0
VPORT
  5
2C8
100
AcDbSymbolTableRecord
100
AcDbViewportTableRecord
  2
*ACTIVE
 70
     0
 12
371.398345
 22
309.248514
 40
598.497028
 41
1.207686
  0
ENDTAB
  0
TABLE
  2
LTYPE
  5
2C9
100
AcDbSymbolTable
 70
     3
  0
LTYPE
  5
2CA
100
AcDbSymbolTableRecord
100
AcDbLinetypeTableRecord
  2
BYBLOCK
 70
     0
  3

 72
    65
 73
     0
 40
0.0
  0
LTYPE
  5
2CB
100
AcDbSymbolTableRecord
100
AcDbLinetypeTableRecord
  2
BYLAYER
 70
     0
  3

 72
    65
 73
     0
 40
0.0
  0
LTYPE
  5
2CC
100
AcDbSymbolTableRecord
100
AcDbLinetypeTableRecord
  2
CONTINUOUS
 70
     0
  3
Solid line (NEC CAE2D for Win R17.0 : 2023.03.28)
 72
    65
 73
     0
 40
0.0
  0
LTYPE
  5
2CD
100
AcDbSymbolTableRecord
100
AcDbLinetypeTableRecord
  2
CENTER
 70
     0
  3
____ _ ____ _ ____ _ ____ _ ____ _ ____
 72
    65
 73
     4
 40
2.0
 49
1.25
 74
     0
 49
-0.25
 74
     0
 49
0.25
 74
     0
 49
-0.25
 74
     0
  0
LTYPE
  5
2CE
100
AcDbSymbolTableRecord
100
AcDbLinetypeTableRecord
  2
PHANTOM
 70
     0
  3
______  __  __  ______  __  __  ______ 
 72
    65
 73
     6
 40
2.5
 49
1.25
 74
     0
 49
-0.25
 74
     0
 49
0.25
 74
     0
 49
-0.25
 74
     0
 49
0.25
 74
     0
 49
-0.25
 74
     0
  0
ENDTAB
  0
TABLE
  2
LAYER
  5
2CF
100
AcDbSymbolTable
 70
    12
  0
LAYER
  5
2D0
100
AcDbSymbolTableRecord
100
AcDbLayerTableRecord
  2
0
 70
     0
 62
     7
  6
CONTINUOUS
370
    -3
390

  0
LAYER
  5
2D1
100
AcDbSymbolTableRecord
100
AcDbLayerTableRecord
  2
DXF0
 70
     0
 62
     7
  6
CONTINUOUS
370
    -3
390

  0
LAYER
  5
2D2
100
AcDbSymbolTableRecord
100
AcDbLayerTableRecord
  2
DXF0
 70
     0
 62
     7
  6
CONTINUOUS
370
    -3
390

  0
LAYER
  5
2D3
100
AcDbSymbolTableRecord
100
AcDbLayerTableRecord
  2
4
 70
     0
 62
     1
  6
CONTINUOUS
370
    -3
390

  0
LAYER
  5
2D4
100
AcDbSymbolTableRecord
100
AcDbLayerTableRecord
  2
5
 70
     0
 62
     6
  6
CONTINUOUS
370
    -3
390

  0
LAYER
  5
2D5
100
AcDbSymbolTableRecord
100
AcDbLayerTableRecord
  2
1
 70
     0
 62
     7
  6
CONTINUOUS
370
    -3
390

  0
LAYER
  5
2D6
100
AcDbSymbolTableRecord
100
AcDbLayerTableRecord
  2
2
 70
     0
 62
     4
  6
CONTINUOUS
370
    -3
390

  0
LAYER
  5
2D7
100
AcDbSymbolTableRecord
100
AcDbLayerTableRecord
  2
3
 70
     0
 62
     2
  6
CONTINUOUS
370
    -3
390

  0
LAYER
  5
2D8
100
AcDbSymbolTableRecord
100
AcDbLayerTableRecord
  2
6
 70
     0
 62
     5
  6
CONTINUOUS
370
    -3
390

  0
LAYER
  5
2D9
100
AcDbSymbolTableRecord
100
AcDbLayerTableRecord
  2
7
 70
     0
 62
     3
  6
CONTINUOUS
370
    -3
390

  0
LAYER
  5
2DA
100
AcDbSymbolTableRecord
100
AcDbLayerTableRecord
  2
DXF1023
 70
     0
 62
     8
  6
CONTINUOUS
370
    -3
390

  0
LAYER
  5
2DB
100
AcDbSymbolTableRecord
100
AcDbLayerTableRecord
  2
DXF1023
 70
     0
 62
    16
  6
CONTINUOUS
370
    -3
390

  0
ENDTAB
  0
TABLE
  2
STYLE
  5
2DC
100
AcDbSymbolTable
 70
     4
  0
STYLE
  5
2DD
100
AcDbSymbolTableRecord
100
AcDbTextStyleTableRecord
  2
STANDARD
 70
    64
 40
0.0
 41
1.0
 50
0.0
 71
     0
 42
1.399999976158142
  3
TXT
  4

  0
STYLE
  5
2DE
100
AcDbSymbolTableRecord
100
AcDbTextStyleTableRecord
  2
ANKTATE
 70
    68
 40
0.0
 41
1.0
 50
0.0
 71
     0
 42
1.399999976158142
  3
TXT
  4

  0
STYLE
  5
2DF
100
AcDbSymbolTableRecord
100
AcDbTextStyleTableRecord
  2
KNJYOKO
 70
    64
 40
0.0
 41
1.0
 50
0.0
 71
     0
 42
1.399999976158142
  3
TXT
  4
BIGFONT
  0
STYLE
  5
2E0
100
AcDbSymbolTableRecord
100
AcDbTextStyleTableRecord
  2
KNJTATE
 70
    68
 40
0.0
 41
1.0
 50
0.0
 71
     0
 42
1.399999976158142
  3
TXT
  4
BIGFONT
  0
ENDTAB
  0
TABLE
  2
VIEW
  5
2E1
100
AcDbSymbolTable
 70
     0
  0
ENDTAB
  0
TABLE
  2
UCS
  5
2E2
100
AcDbSymbolTable
 70
     0
  0
ENDTAB
  0
TABLE
  2
APPID
  5
2E3
100
AcDbSymbolTable
 70
     1
  0
APPID
  5
2E4
100
AcDbSymbolTableRecord
100
AcDbRegAppTableRecord
  2
ACAD
 70
     0
  0
ENDTAB
  0
TABLE
  2
DIMSTYLE
  5
2E5
100
AcDbSymbolTable
 70
     2
100
AcDbDimStyleTable
  0
DIMSTYLE
105
2E6
100
AcDbSymbolTableRecord
100
AcDbDimStyleTableRecord
  2
STANDARD
 70
     0
 41
2.000000
 44
1.500000
 42
0.800000
145
0.661290
140
3.100000
144
1.000000
146
0.645161
340
2DD
  0
DIMSTYLE
105
2E7
100
AcDbSymbolTableRecord
100
AcDbDimStyleTableRecord
  2
DXF001
 70
     0
 41
2.000000
 44
1.500000
 42
0.800000
145
0.661290
140
3.100000
144
1.000000
146
0.645161
 77
     1
 73
     0
 74
     0
271
     2
179
     2
275
     0
 78
     8
 79
     2
172
     1
340
2DD
  0
ENDTAB
  0
TABLE
  2
BLOCK_RECORD
  5
2E8
100
AcDbSymbolTable
 70
    12
  0
BLOCK_RECORD
  5
2E9
100
AcDbSymbolTableRecord
100
AcDbBlockTableRecord
  2
*MODEL_SPACE
  0
BLOCK_RECORD
  5
2EA
100
AcDbSymbolTableRecord
100
AcDbBlockTableRecord
  2
*PAPER_SPACE
  0
BLOCK_RECORD
  5
2EB
100
AcDbSymbolTableRecord
100
AcDbBlockTableRecord
  2
*PAPER_SPACE0
  0
BLOCK_RECORD
  5
1
100
AcDbSymbolTableRecord
100
AcDbBlockTableRecord
  2
_NONE
  0
BLOCK_RECORD
  5
4
100
AcDbSymbolTableRecord
100
AcDbBlockTableRecord
  2
_CLOSED
  0
BLOCK_RECORD
  5
B
100
AcDbSymbolTableRecord
100
AcDbBlockTableRecord
  2
_DOT
  0
BLOCK_RECORD
  5
13
100
AcDbSymbolTableRecord
100
AcDbBlockTableRecord
  2
_OPEN
  0
BLOCK_RECORD
  5
19
100
AcDbSymbolTableRecord
100
AcDbBlockTableRecord
  2
_ORIGIN
  0
BLOCK_RECORD
  5
1E
100
AcDbSymbolTableRecord
100
AcDbBlockTableRecord
  2
_OPEN30
  0
BLOCK_RECORD
  5
24
100
AcDbSymbolTableRecord
100
AcDbBlockTableRecord
  2
_BOXFILLED
  0
BLOCK_RECORD
  5
29
100
AcDbSymbolTableRecord
100
AcDbBlockTableRecord
  2
_BOXBLANK
  0
BLOCK_RECORD
  5
31
100
AcDbSymbolTableRecord
100
AcDbBlockTableRecord
  2
_OBLIQUE
  0
BLOCK_RECORD
  5
35
100
AcDbSymbolTableRecord
100
AcDbBlockTableRecord
  2
_OPEN90
  0
BLOCK_RECORD
  5
3B
100
AcDbSymbolTableRecord
100
AcDbBlockTableRecord
  2
_CLOSEDBLANK
  0
BLOCK_RECORD
  5
41
100
AcDbSymbolTableRecord
100
AcDbBlockTableRecord
  2
_DOTBLANK
  0
ENDTAB
  0
ENDSEC
  0
SECTION
  2
BLOCKS
  0
BLOCK
  5
2EC
100
AcDbEntity
  8
0
100
AcDbBlockBegin
  2
*MODEL_SPACE
 70
     0
 10
0.0
 20
0.0
 30
0.0
  3
*MODEL_SPACE
  1

  0
ENDBLK
  5
2ED
100
AcDbEntity
  8
0
100
AcDbBlockEnd
  0
BLOCK
  5
2EE
100
AcDbEntity
  8
0
100
AcDbBlockBegin
  2
*PAPER_SPACE
 70
     0
 10
0.0
 20
0.0
 30
0.0
  3
*PAPER_SPACE
  1

  0
ENDBLK
  5
2EF
100
AcDbEntity
  8
0
100
AcDbBlockEnd
  0
BLOCK
  5
2F0
100
AcDbEntity
  8
0
100
AcDbBlockBegin
  2
*PAPER_SPACE0
 70
     0
 10
0.0
 20
0.0
 30
0.0
  3
*PAPER_SPACE0
  1

  0
ENDBLK
  5
2F1
100
AcDbEntity
  8
0
100
AcDbBlockEnd
  0
BLOCK
  5
2
330
1
100
AcDbEntity
  8
0
100
AcDbBlockBegin
  2
_NONE
 70
     0
 10
0.0
 20
0.0
 30
0.0
  3
_NONE
  1

  0
ENDBLK
  5
3
330
1
100
AcDbEntity
  8
0
100
AcDbBlockEnd
  0
BLOCK
  5
5
330
4
100
AcDbEntity
  8
0
100
AcDbBlockBegin
  2
_CLOSED
 70
     0
 10
0.0
 20
0.0
 30
0.0
  3
_CLOSED
  1

  0
LINE
  5
6
330
4
100
AcDbEntity
  8
0
  6
BYBLOCK
 62
     0
370
    -2
100
AcDbLine
 10
-1.0
 20
0.166667
 30
0.0
 11
0.0
 21
0.0
 31
0.0
  0
LINE
  5
7
330
4
100
AcDbEntity
  8
0
  6
BYBLOCK
 62
     0
370
    -2
100
AcDbLine
 10
0.0
 20
0.0
 30
0.0
 11
-1.0
 21
-0.166667
 31
0.0
  0
LINE
  5
8
330
4
100
AcDbEntity
  8
0
  6
BYBLOCK
 62
     0
370
    -2
100
AcDbLine
 10
-1.0
 20
0.166667
 30
0.0
 11
-1.0
 21
-0.166667
 31
0.0
  0
LINE
  5
9
330
4
100
AcDbEntity
  8
0
  6
BYBLOCK
 62
     0
370
    -2
100
AcDbLine
 10
0.0
 20
0.0
 30
0.0
 11
-1.0
 21
0.0
 31
0.0
  0
ENDBLK
  5
A
330
4
100
AcDbEntity
  8
0
100
AcDbBlockEnd
  0
BLOCK
  5
C
330
B
100
AcDbEntity
  8
0
100
AcDbBlockBegin
  2
_DOT
 70
     0
 10
0.0
 20
0.0
 30
0.0
  3
_DOT
  1

  0
POLYLINE
  5
D
330
B
100
AcDbEntity
  8
0
  6
BYBLOCK
 62
     0
370
    -2
100
AcDb2dPolyline
 66
     1
 10
0.0
 20
0.0
 30
0.0
 70
     1
 40
0.5
 41
0.5
  0
VERTEX
  5
E
330
B
100
AcDbEntity
  8
0
  6
BYBLOCK
 62
     0
370
    -2
100
AcDbVertex
100
AcDb2dVertex
 10
-0.25
 20
0.0
 30
0.0
 42
1.0
  0
VERTEX
  5
F
330
B
100
AcDbEntity
  8
0
  6
BYBLOCK
 62
     0
370
    -2
100
AcDbVertex
100
AcDb2dVertex
 10
0.25
 20
0.0
 30
0.0
 42
1.0
  0
SEQEND
  5
10
330
B
100
AcDbEntity
  8
0
  6
BYBLOCK
 62
     0
370
    -2
  0
LINE
  5
11
330
B
100
AcDbEntity
  8
0
  6
BYBLOCK
 62
     0
370
    -2
100
AcDbLine
 10
-0.5
 20
0.0
 30
0.0
 11
-1.0
 21
0.0
 31
0.0
  0
ENDBLK
  5
12
330
B
100
AcDbEntity
  8
0
100
AcDbBlockEnd
  0
BLOCK
  5
14
330
13
100
AcDbEntity
  8
0
100
AcDbBlockBegin
  2
_OPEN
 70
     0
 10
0.0
 20
0.0
 30
0.0
  3
_OPEN
  1

  0
LINE
  5
15
330
13
100
AcDbEntity
  8
0
  6
BYBLOCK
 62
     0
370
    -2
100
AcDbLine
 10
-1.0
 20
0.166667
 30
0.0
 11
0.0
 21
0.0
 31
0.0
  0
LINE
  5
16
330
13
100
AcDbEntity
  8
0
  6
BYBLOCK
 62
     0
370
    -2
100
AcDbLine
 10
0.0
 20
0.0
 30
0.0
 11
-1.0
 21
-0.166667
 31
0.0
  0
LINE
  5
17
330
13
100
AcDbEntity
  8
0
  6
BYBLOCK
 62
     0
370
    -2
100
AcDbLine
 10
0.0
 20
0.0
 30
0.0
 11
-1.0
 21
0.0
 31
0.0
  0
ENDBLK
  5
18
330
13
100
AcDbEntity
  8
0
100
AcDbBlockEnd
  0
BLOCK
  5
1A
330
19
100
AcDbEntity
  8
0
100
AcDbBlockBegin
  2
_ORIGIN
 70
     0
 10
0.0
 20
0.0
 30
0.0
  3
_ORIGIN
  1

  0
CIRCLE
  5
1B
330
19
100
AcDbEntity
  8
0
  6
BYBLOCK
 62
     0
370
    -2
100
AcDbCircle
 10
0.0
 20
0.0
 30
0.0
 40
0.5
  0
LINE
  5
1C
330
19
100
AcDbEntity
  8
0
  6
BYBLOCK
 62
     0
370
    -2
100
AcDbLine
 10
0.0
 20
0.0
 30
0.0
 11
-1.0
 21
0.0
 31
0.0
  0
ENDBLK
  5
1D
330
19
100
AcDbEntity
  8
0
100
AcDbBlockEnd
  0
BLOCK
  5
1F
330
1E
100
AcDbEntity
  8
0
100
AcDbBlockBegin
  2
_OPEN30
 70
     0
 10
0.0
 20
0.0
 30
0.0
  3
_OPEN30
  1

  0
LINE
  5
20
330
1E
100
AcDbEntity
  8
0
  6
BYBLOCK
 62
     0
370
    -2
100
AcDbLine
 10
-1.0
 20
0.267949
 30
0.0
 11
0.0
 21
0.0
 31
0.0
  0
LINE
  5
21
330
1E
100
AcDbEntity
  8
0
  6
BYBLOCK
 62
     0
370
    -2
100
AcDbLine
 10
0.0
 20
0.0
 30
0.0
 11
-1.0
 21
-0.267949
 31
0.0
  0
LINE
  5
22
330
1E
100
AcDbEntity
  8
0
  6
BYBLOCK
 62
     0
370
    -2
100
AcDbLine
 10
0.0
 20
0.0
 30
0.0
 11
-1.0
 21
0.0
 31
0.0
  0
ENDBLK
  5
23
330
1E
100
AcDbEntity
  8
0
100
AcDbBlockEnd
  0
BLOCK
  5
25
330
24
100
AcDbEntity
  8
0
100
AcDbBlockBegin
  2
_BOXFILLED
 70
     0
 10
0.0
 20
0.0
 30
0.0
  3
_BOXFILLED
  1

  0
SOLID
  5
26
330
24
100
AcDbEntity
  8
0
  6
BYBLOCK
 62
     0
370
    -2
100
AcDbTrace
 10
-0.5
 20
0.5
 30
0.0
 11
0.5
 21
0.5
 31
0.0
 12
-0.5
 22
-0.5
 32
0.0
 13
0.5
 23
-0.5
 33
0.0
  0
LINE
  5
27
330
24
100
AcDbEntity
  8
0
  6
BYBLOCK
 62
     0
370
    -2
100
AcDbLine
 10
-0.5
 20
0.0
 30
0.0
 11
-1.0
 21
0.0
 31
0.0
  0
ENDBLK
  5
28
330
24
100
AcDbEntity
  8
0
100
AcDbBlockEnd
  0
BLOCK
  5
2A
330
29
100
AcDbEntity
  8
0
100
AcDbBlockBegin
  2
_BOXBLANK
 70
     0
 10
0.0
 20
0.0
 30
0.0
  3
_BOXBLANK
  1

  0
LINE
  5
2B
330
29
100
AcDbEntity
  8
0
  6
BYBLOCK
 62
     0
370
    -2
100
AcDbLine
 10
-0.5
 20
-0.5
 30
0.0
 11
0.5
 21
-0.5
 31
0.0
  0
LINE
  5
2C
330
29
100
AcDbEntity
  8
0
  6
BYBLOCK
 62
     0
370
    -2
100
AcDbLine
 10
0.5
 20
-0.5
 30
0.0
 11
0.5
 21
0.5
 31
0.0
  0
LINE
  5
2D
330
29
100
AcDbEntity
  8
0
  6
BYBLOCK
 62
     0
370
    -2
100
AcDbLine
 10
0.5
 20
0.5
 30
0.0
 11
-0.5
 21
0.5
 31
0.0
  0
LINE
  5
2E
330
29
100
AcDbEntity
  8
0
  6
BYBLOCK
 62
     0
370
    -2
100
AcDbLine
 10
-0.5
 20
0.5
 30
0.0
 11
-0.5
 21
-0.5
 31
0.0
  0
LINE
  5
2F
330
29
100
AcDbEntity
  8
0
  6
BYBLOCK
 62
     0
370
    -2
100
AcDbLine
 10
-0.5
 20
0.0
 30
0.0
 11
-1.0
 21
0.0
 31
0.0
  0
ENDBLK
  5
30
330
29
100
AcDbEntity
  8
0
100
AcDbBlockEnd
  0
BLOCK
  5
32
330
31
100
AcDbEntity
  8
0
100
AcDbBlockBegin
  2
_OBLIQUE
 70
     0
 10
0.0
 20
0.0
 30
0.0
  3
_OBLIQUE
  1

  0
LINE
  5
33
330
31
100
AcDbEntity
  8
0
  6
BYBLOCK
 62
     0
370
    -2
100
AcDbLine
 10
-0.5
 20
-0.5
 30
0.0
 11
0.5
 21
0.5
 31
0.0
  0
ENDBLK
  5
34
330
31
100
AcDbEntity
  8
0
100
AcDbBlockEnd
  0
BLOCK
  5
36
330
35
100
AcDbEntity
  8
0
100
AcDbBlockBegin
  2
_OPEN90
 70
     0
 10
0.0
 20
0.0
 30
0.0
  3
_OPEN90
  1

  0
LINE
  5
37
330
35
100
AcDbEntity
  8
0
  6
BYBLOCK
 62
     0
370
    -2
100
AcDbLine
 10
-0.5
 20
0.5
 30
0.0
 11
0.0
 21
0.0
 31
0.0
  0
LINE
  5
38
330
35
100
AcDbEntity
  8
0
  6
BYBLOCK
 62
     0
370
    -2
100
AcDbLine
 10
0.0
 20
0.0
 30
0.0
 11
-0.5
 21
-0.5
 31
0.0
  0
LINE
  5
39
330
35
100
AcDbEntity
  8
0
  6
BYBLOCK
 62
     0
370
    -2
100
AcDbLine
 10
0.0
 20
0.0
 30
0.0
 11
-1.0
 21
0.0
 31
0.0
  0
ENDBLK
  5
3A
330
35
100
AcDbEntity
  8
0
100
AcDbBlockEnd
  0
BLOCK
  5
3C
330
3B
100
AcDbEntity
  8
0
100
AcDbBlockBegin
  2
_CLOSEDBLANK
 70
     0
 10
0.0
 20
0.0
 30
0.0
  3
_CLOSEDBLANK
  1

  0
LINE
  5
3D
330
3B
100
AcDbEntity
  8
0
  6
BYBLOCK
 62
     0
370
    -2
100
AcDbLine
 10
-1.0
 20
0.1666666666666666
 30
0.0
 11
0.0
 21
0.0
 31
0.0
  0
LINE
  5
3E
330
3B
100
AcDbEntity
  8
0
  6
BYBLOCK
 62
     0
370
    -2
100
AcDbLine
 10
0.0
 20
0.0
 30
0.0
 11
-1.0
 21
-0.1666666666666666
 31
0.0
  0
LINE
  5
3F
330
3B
100
AcDbEntity
  8
0
  6
BYBLOCK
 62
     0
370
    -2
100
AcDbLine
 10
-1.0
 20
0.1666666666666666
 30
0.0
 11
-1.0
 21
-0.1666666666666666
 31
0.0
  0
ENDBLK
  5
40
330
3B
100
AcDbEntity
  8
0
100
AcDbBlockEnd
  0
BLOCK
  5
42
330
41
100
AcDbEntity
  8
0
100
AcDbBlockBegin
  2
_DOTBLANK
 70
     0
 10
0.0
 20
0.0
 30
0.0
  3
_DOTBLANK
  1

  0
CIRCLE
  5
43
330
41
100
AcDbEntity
  8
0
  6
BYBLOCK
 62
     0
370
    -2
100
AcDbCircle
 10
0.0
 20
0.0
 30
0.0
 40
0.5
  0
LINE
  5
44
330
41
100
AcDbEntity
  8
0
  6
BYBLOCK
 62
     0
370
    -2
100
AcDbLine
 10
-0.5
 20
0.0
 30
0.0
 11
-1.0
 21
0.0
 31
0.0
  0
ENDBLK
  5
45
330
41
100
AcDbEntity
  8
0
100
AcDbBlockEnd
  0
ENDSEC
  0
SECTION
  2
ENTITIES
  0
MTEXT
  5
46
100
AcDbEntity
  8
7
  6
CONTINUOUS
 62
3
100
AcDbMText
 10
10.00000000000000
 20
18.00000000000000
 30
0.000000000000000
 40
3.000000000000000
 41
0.000000000000000
 44
0.6739999771118164
 71
     7
 72
     1
  1
{\H0.94x;{TYPE No.THA-433-2P}}
 11
1.000000000000000
 21
0.000000000000000
 31
0.000000000000000
  7
STANDARD
  0
MTEXT
  5
47
100
AcDbEntity
  8
7
  6
CONTINUOUS
 62
3
100
AcDbMText
 10
10.00000000000000
 20
26.00000000000000
 30
0.000000000000000
 40
3.000000000000000
 41
0.000000000000000
 44
0.6739999771118164
 71
     7
 72
     1
  1
{\H0.93x;{CODE No.13107}}
 11
1.000000000000000
 21
0.000000000000000
 31
0.000000000000000
  7
STANDARD
  0
MTEXT
  5
48
100
AcDbEntity
  8
1
  6
CONTINUOUS
 62
7
100
AcDbMText
 10
10.00000000000000
 20
10.00000000000000
 30
0.000000000000000
 40
1.399999976158142
 41
0.000000000000000
 44
0.6728571767952983
 71
     7
 72
     1
  1
{\H0.92x;{LAYER}}
 11
1.000000000000000
 21
0.000000000000000
 31
0.000000000000000
  7
STANDARD
  0
MTEXT
  5
49
100
AcDbEntity
  8
1
  6
CONTINUOUS
 62
7
100
AcDbMText
 10
17.97951099999998
 20
10.04873699999998
 30
0.000000000000000
 40
1.399999976158142
 41
0.000000000000000
 44
0.6728571767952983
 71
     7
 72
     1
  1
{\H0.82x;{1}}
 11
1.000000000000000
 21
0.000000000000000
 31
0.000000000000000
  7
STANDARD
  0
MTEXT
  5
4A
100
AcDbEntity
  8
7
  6
CONTINUOUS
 62
3
100
AcDbMText
 10
29.97951099999999
 20
10.04873699999998
 30
0.000000000000000
 40
1.399999976158142
 41
0.000000000000000
 44
0.6728571767952983
 71
     7
 72
     1
  1
{\H0.82x;{7}}
 11
1.000000000000000
 21
0.000000000000000
 31
0.000000000000000
  7
STANDARD
  0
MTEXT
  5
4B
100
AcDbEntity
  8
4
  6
CONTINUOUS
 62
1
100
AcDbMText
 10
23.97951099999999
 20
10.04873699999998
 30
0.000000000000000
 40
1.399999976158142
 41
0.000000000000000
 44
0.6728571767952983
 71
     7
 72
     1
  1
{\H0.82x;{4}}
 11
1.000000000000000
 21
0.000000000000000
 31
0.000000000000000
  7
STANDARD
  0
MTEXT
  5
4C
100
AcDbEntity
  8
3
  6
CONTINUOUS
 62
2
100
AcDbMText
 10
21.97951100000000
 20
10.04873699999998
 30
0.000000000000000
 40
1.399999976158142
 41
0.000000000000000
 44
0.6728571767952983
 71
     7
 72
     1
  1
{\H0.82x;{3}}
 11
1.000000000000000
 21
0.000000000000000
 31
0.000000000000000
  7
STANDARD
  0
MTEXT
  5
4D
100
AcDbEntity
  8
2
  6
CONTINUOUS
 62
4
100
AcDbMText
 10
19.97951099999999
 20
10.04873699999998
 30
0.000000000000000
 40
1.399999976158142
 41
0.000000000000000
 44
0.6728571767952983
 71
     7
 72
     1
  1
{\H0.82x;{2}}
 11
1.000000000000000
 21
0.000000000000000
 31
0.000000000000000
  7
STANDARD
  0
MTEXT
  5
4E
100
AcDbEntity
  8
6
  6
CONTINUOUS
 62
5
100
AcDbMText
 10
27.97951100000000
 20
10.04873699999998
 30
0.000000000000000
 40
1.399999976158142
 41
0.000000000000000
 44
0.6728571767952983
 71
     7
 72
     1
  1
{\H0.82x;{6}}
 11
1.000000000000000
 21
0.000000000000000
 31
0.000000000000000
  7
STANDARD
  0
MTEXT
  5
4F
100
AcDbEntity
  8
5
  6
CONTINUOUS
 62
6
100
AcDbMText
 10
25.97951099999999
 20
10.04873699999998
 30
0.000000000000000
 40
1.399999976158142
 41
0.000000000000000
 44
0.6728571767952983
 71
     7
 72
     1
  1
{\H0.82x;{5}}
 11
1.000000000000000
 21
0.000000000000000
 31
0.000000000000000
  7
STANDARD
  0
ARC
  5
50
100
AcDbEntity
  8
1
  6
CONTINUOUS
 62
7
100
AcDbCircle
 10
719.5828190000002
 20
379.0984509999999
 30
0.000000000000000
 40
7.000000000000000
100
AcDbArc
 50
3.289701999999998
 51
42.79748200000000
  0
ARC
  5
51
100
AcDbEntity
  8
1
  6
CONTINUOUS
 62
7
100
AcDbCircle
 10
641.8554550000000
 20
379.0984509999999
 30
0.000000000000000
 40
7.000000000000000
100
AcDbArc
 50
126.2210839999999
 51
176.7102979999999
  0
LINE
  5
52
100
AcDbEntity
  8
1
  6
CONTINUOUS
 62
7
100
AcDbLine
 10
637.7191370000002
 20
387.1155569999999
 30
0.000000000000000
 11
637.7191370000002
 21
257.1155569999999
 31
0.000000000000000
  0
LINE
  5
53
100
AcDbEntity
  8
1
  6
CONTINUOUS
 62
7
100
AcDbLine
 10
724.7191370000000
 20
387.1155569999999
 30
0.000000000000000
 11
724.7191370000000
 21
257.1155569999999
 31
0.000000000000000
  0
ARC
  5
54
100
AcDbEntity
  8
1
  6
CONTINUOUS
 62
7
100
AcDbCircle
 10
-271.7808629999999
 20
322.1155569999999
 30
0.000000000000000
 40
1000.000000000000
100
AcDbArc
 50
356.7102980000000
 51
363.2897019999999
  0
ARC
  5
55
100
AcDbEntity
  8
1
  6
CONTINUOUS
 62
7
100
AcDbCircle
 10
1633.219136999998
 20
322.1155569999999
 30
0.000000000000000
 40
1000.000000000000
100
AcDbArc
 50
176.7102979999999
 51
183.2897020000000
  0
LINE
  5
56
100
AcDbEntity
  8
1
  6
CONTINUOUS
 62
7
100
AcDbLine
 10
637.7191370000002
 20
257.1155569999999
 30
0.000000000000000
 11
724.7191370000000
 21
257.1155569999999
 31
0.000000000000000
  0
LINE
  5
57
100
AcDbEntity
  8
1
  6
CONTINUOUS
 62
7
100
AcDbLine
 10
724.7191370000000
 20
267.3794889999999
 30
0.000000000000000
 11
637.7191370000002
 21
267.3794889999999
 31
0.000000000000000
  0
LINE
  5
58
100
AcDbEntity
  8
1
  6
CONTINUOUS
 62
7
100
AcDbLine
 10
724.7191370000000
 20
271.8516249999999
 30
0.000000000000000
 11
637.7191370000002
 21
271.8516249999999
 31
0.000000000000000
  0
ARC
  5
59
100
AcDbEntity
  8
1
  6
CONTINUOUS
 62
7
100
AcDbCircle
 10
635.7191370000000
 20
269.6155569999999
 30
0.000000000000000
 40
3.000000000000000
100
AcDbArc
 50
311.8103150000000
 51
408.1896850000000
  0
ARC
  5
5A
100
AcDbEntity
  8
1
  6
CONTINUOUS
 62
7
100
AcDbCircle
 10
641.8554550000000
 20
265.1326639999999
 30
0.000000000000000
 40
7.000000000000000
100
AcDbArc
 50
183.2897020000000
 51
233.7789160000000
  0
LINE
  5
5B
100
AcDbEntity
  8
4
  6
CENTER
 62
1
100
AcDbLine
 10
645.7191370000002
 20
282.1155569999999
 30
0.000000000000000
 11
658.7191370000000
 21
282.1155569999999
 31
0.000000000000000
  0
LINE
  5
5C
100
AcDbEntity
  8
4
  6
CENTER
 62
1
100
AcDbLine
 10
652.2191370000000
 20
275.6155569999999
 30
0.000000000000000
 11
652.2191370000000
 21
288.6155569999999
 31
0.000000000000000
  0
LINE
  5
5D
100
AcDbEntity
  8
1
  6
CONTINUOUS
 62
7
100
AcDbLine
 10
701.8850490000000
 20
257.1155569999999
 30
0.000000000000000
 11
701.8850490000000
 21
230.1155570000000
 31
0.000000000000000
  0
LINE
  5
5E
100
AcDbEntity
  8
1
  6
CONTINUOUS
 62
7
100
AcDbLine
 10
687.8850489999996
 20
230.1155570000000
 30
0.000000000000000
 11
687.8850489999996
 21
257.1155569999999
 31
0.000000000000000
  0
LINE
  5
5F
100
AcDbEntity
  8
4
  6
CENTER
 62
1
100
AcDbLine
 10
694.8850489999996
 20
225.3655569999998
 30
0.000000000000000
 11
694.8850489999996
 21
234.8655570000000
 31
0.000000000000000
  0
ARC
  5
60
100
AcDbEntity
  8
1
  6
CONTINUOUS
 62
7
100
AcDbCircle
 10
694.8850489999996
 20
230.1155570000000
 30
0.000000000000000
 40
7.000000000000000
100
AcDbArc
 50
180.0000000000000
 51
360.0000000000000
  0
LINE
  5
61
100
AcDbEntity
  8
4
  6
CENTER
 62
1
100
AcDbLine
 10
690.1350489999996
 20
230.1155570000000
 30
0.000000000000000
 11
699.6350490000000
 21
230.1155570000000
 31
0.000000000000000
  0
CIRCLE
  5
62
100
AcDbEntity
  8
1
  6
CONTINUOUS
 62
7
100
AcDbCircle
 10
694.8850489999996
 20
230.1155570000000
 30
0.000000000000000
 40
3.000000000000000
  0
LINE
  5
63
100
AcDbEntity
  8
4
  6
CENTER
 62
1
100
AcDbLine
 10
705.7191370000000
 20
282.1155569999999
 30
0.000000000000000
 11
718.7191370000000
 21
282.1155569999999
 31
0.000000000000000
  0
ARC
  5
64
100
AcDbEntity
  8
1
  6
CONTINUOUS
 62
7
100
AcDbCircle
 10
726.7191370000000
 20
269.6155569999999
 30
0.000000000000000
 40
3.000000000000000
100
AcDbArc
 50
131.8103150000000
 51
228.1896849999998
  0
ARC
  5
65
100
AcDbEntity
  8
1
  6
CONTINUOUS
 62
7
100
AcDbCircle
 10
719.5828190000002
 20
265.1326639999999
 30
0.000000000000000
 40
7.000000000000000
100
AcDbArc
 50
317.2025179999999
 51
356.7102980000000
  0
LINE
  5
66
100
AcDbEntity
  8
4
  6
CENTER
 62
1
100
AcDbLine
 10
712.2191370000003
 20
275.6155569999999
 30
0.000000000000000
 11
712.2191370000003
 21
288.6155569999999
 31
0.000000000000000
  0
LINE
  5
67
100
AcDbEntity
  8
1
  6
CONTINUOUS
 62
7
100
AcDbLine
 10
724.7191370000000
 20
376.8516250000000
 30
0.000000000000000
 11
637.7191370000002
 21
376.8516250000000
 31
0.000000000000000
  0
CIRCLE
  5
68
100
AcDbEntity
  8
1
  6
CONTINUOUS
 62
7
100
AcDbCircle
 10
672.2191370000000
 20
344.2712009999998
 30
0.000000000000000
 40
2.399999999999999
  0
CIRCLE
  5
69
100
AcDbEntity
  8
1
  6
CONTINUOUS
 62
7
100
AcDbCircle
 10
672.2191370000000
 20
344.2712009999998
 30
0.000000000000000
 40
2.500000000000000
  0
LINE
  5
6A
100
AcDbEntity
  8
4
  6
CENTER
 62
1
100
AcDbLine
 10
665.7191370000000
 20
344.2712009999998
 30
0.000000000000000
 11
678.7191370000003
 21
344.2712009999998
 31
0.000000000000000
  0
LINE
  5
6B
100
AcDbEntity
  8
4
  6
CENTER
 62
1
100
AcDbLine
 10
665.7191370000000
 20
299.9599130000000
 30
0.000000000000000
 11
678.7191370000003
 21
299.9599130000000
 31
0.000000000000000
  0
CIRCLE
  5
6C
100
AcDbEntity
  8
1
  6
CONTINUOUS
 62
7
100
AcDbCircle
 10
672.2191370000000
 20
299.9599130000000
 30
0.000000000000000
 40
2.399999999999999
  0
CIRCLE
  5
6D
100
AcDbEntity
  8
1
  6
CONTINUOUS
 62
7
100
AcDbCircle
 10
672.2191370000000
 20
299.9599130000000
 30
0.000000000000000
 40
2.500000000000000
  0
LINE
  5
6E
100
AcDbEntity
  8
1
  6
CONTINUOUS
 62
7
100
AcDbLine
 10
724.7191370000000
 20
372.3794889999999
 30
0.000000000000000
 11
637.7191370000002
 21
372.3794889999999
 31
0.000000000000000
  0
LINE
  5
6F
100
AcDbEntity
  8
4
  6
CENTER
 62
1
100
AcDbLine
 10
629.2192479999997
 20
322.1155569999999
 30
0.000000000000000
 11
732.7966899999997
 21
322.1155569999999
 31
0.000000000000000
  0
LINE
  5
70
100
AcDbEntity
  8
4
  6
CENTER
 62
1
100
AcDbLine
 10
672.2191370000000
 20
293.4599129999999
 30
0.000000000000000
 11
672.2191370000000
 21
306.4599129999999
 31
0.000000000000000
  0
ARC
  5
71
100
AcDbEntity
  8
1
  6
CONTINUOUS
 62
7
100
AcDbCircle
 10
635.7191370000000
 20
374.6155569999999
 30
0.000000000000000
 40
3.000000000000000
100
AcDbArc
 50
311.8103150000000
 51
408.1896850000000
  0
LINE
  5
72
100
AcDbEntity
  8
4
  6
CENTER
 62
1
100
AcDbLine
 10
652.2191370000000
 20
355.6155569999999
 30
0.000000000000000
 11
652.2191370000000
 21
368.6155569999999
 31
0.000000000000000
  0
LINE
  5
73
100
AcDbEntity
  8
4
  6
CENTER
 62
1
100
AcDbLine
 10
672.2191370000000
 20
337.7712009999999
 30
0.000000000000000
 11
672.2191370000000
 21
350.7712009999999
 31
0.000000000000000
  0
LINE
  5
74
100
AcDbEntity
  8
4
  6
CENTER
 62
1
100
AcDbLine
 10
645.7191370000002
 20
362.1155569999999
 30
0.000000000000000
 11
658.7191370000000
 21
362.1155569999999
 31
0.000000000000000
  0
LINE
  5
75
100
AcDbEntity
  8
1
  6
CONTINUOUS
 62
7
100
AcDbLine
 10
699.7191370000003
 20
325.1155569999998
 30
0.000000000000000
 11
683.7191370000000
 21
325.1155569999998
 31
0.000000000000000
  0
LINE
  5
76
100
AcDbEntity
  8
1
  6
CONTINUOUS
 62
7
100
AcDbLine
 10
699.7191370000003
 20
319.1155569999999
 30
0.000000000000000
 11
683.7191370000000
 21
319.1155569999999
 31
0.000000000000000
  0
ARC
  5
77
100
AcDbEntity
  8
1
  6
CONTINUOUS
 62
7
100
AcDbCircle
 10
683.7191370000000
 20
322.1155569999999
 30
0.000000000000000
 40
3.000000000000000
100
AcDbArc
 50
90.00000000000000
 51
270.0000000000000
  0
CIRCLE
  5
78
100
AcDbEntity
  8
2
  6
CONTINUOUS
 62
4
100
AcDbCircle
 10
697.9941370000000
 20
322.1155569999999
 30
0.000000000000000
 40
2.000000000000000
  0
CIRCLE
  5
79
100
AcDbEntity
  8
1
  6
CONTINUOUS
 62
7
100
AcDbCircle
 10
697.9941370000000
 20
322.1155569999999
 30
0.000000000000000
 40
1.620999999999999
  0
LINE
  5
7A
100
AcDbEntity
  8
4
  6
CENTER
 62
1
100
AcDbLine
 10
697.9941370000000
 20
319.1723259999998
 30
0.000000000000000
 11
697.9941370000000
 21
325.6879740000000
 31
0.000000000000000
  0
ARC
  5
7B
100
AcDbEntity
  8
1
  6
CONTINUOUS
 62
7
100
AcDbCircle
 10
699.7191370000003
 20
322.1155569999999
 30
0.000000000000000
 40
3.000000000000000
100
AcDbArc
 50
270.0000000000000
 51
450.0000000000000
  0
LINE
  5
7C
100
AcDbEntity
  8
4
  6
CENTER
 62
1
100
AcDbLine
 10
705.7191370000000
 20
362.1155569999999
 30
0.000000000000000
 11
718.7191370000000
 21
362.1155569999999
 31
0.000000000000000
  0
LINE
  5
7D
100
AcDbEntity
  8
4
  6
CENTER
 62
1
100
AcDbLine
 10
712.2191370000003
 20
355.6155569999999
 30
0.000000000000000
 11
712.2191370000003
 21
368.6155569999999
 31
0.000000000000000
  0
CIRCLE
  5
7E
100
AcDbEntity
  8
1
  6
CONTINUOUS
 62
7
100
AcDbCircle
 10
712.2191370000003
 20
362.1155569999999
 30
0.000000000000000
 40
4.299999999999998
  0
ARC
  5
7F
100
AcDbEntity
  8
1
  6
CONTINUOUS
 62
7
100
AcDbCircle
 10
726.7191370000000
 20
374.6155569999999
 30
0.000000000000000
 40
3.000000000000000
100
AcDbArc
 50
131.8103150000000
 51
228.1896849999998
  0
LINE
  5
80
100
AcDbEntity
  8
1
  6
CONTINUOUS
 62
7
100
AcDbLine
 10
637.7191370000002
 20
387.1155569999999
 30
0.000000000000000
 11
724.7191370000000
 21
387.1155569999999
 31
0.000000000000000
  0
LINE
  5
81
100
AcDbEntity
  8
1
  6
CONTINUOUS
 62
7
100
AcDbLine
 10
687.8850489999996
 20
414.1155569999998
 30
0.000000000000000
 11
687.8850489999996
 21
387.1155569999999
 31
0.000000000000000
  0
LINE
  5
82
100
AcDbEntity
  8
1
  6
CONTINUOUS
 62
7
100
AcDbLine
 10
701.8850490000000
 20
387.1155569999999
 30
0.000000000000000
 11
701.8850490000000
 21
414.1155569999998
 31
0.000000000000000
  0
ARC
  5
83
100
AcDbEntity
  8
1
  6
CONTINUOUS
 62
7
100
AcDbCircle
 10
694.8850489999996
 20
414.1155569999998
 30
0.000000000000000
 40
7.000000000000000
100
AcDbArc
 50
0.000000000000000
 51
180.0000000000000
  0
LINE
  5
84
100
AcDbEntity
  8
4
  6
CENTER
 62
1
100
AcDbLine
 10
694.8850489999996
 20
409.3655570000000
 30
0.000000000000000
 11
694.8850489999996
 21
418.8655569999998
 31
0.000000000000000
  0
LINE
  5
85
100
AcDbEntity
  8
4
  6
CENTER
 62
1
100
AcDbLine
 10
690.1350489999996
 20
414.1155569999998
 30
0.000000000000000
 11
699.6350490000000
 21
414.1155569999998
 31
0.000000000000000
  0
CIRCLE
  5
86
100
AcDbEntity
  8
1
  6
CONTINUOUS
 62
7
100
AcDbCircle
 10
694.8850489999996
 20
414.1155569999998
 30
0.000000000000000
 40
3.000000000000000
  0
ARC
  5
87
100
AcDbEntity
  8
1
  6
CONTINUOUS
 62
7
100
AcDbCircle
 10
216.2798890000000
 20
379.0984500000000
 30
0.000000000000000
 40
7.000000000000000
100
AcDbArc
 50
92.99830599999999
 51
176.7102979999999
  0
ARC
  5
88
100
AcDbEntity
  8
1
  6
CONTINUOUS
 62
7
100
AcDbCircle
 10
294.0072530000000
 20
379.0984500000000
 30
0.000000000000000
 40
7.000000000000000
100
AcDbArc
 50
3.289701999999998
 51
87.00169400000000
  0
LINE
  5
89
100
AcDbEntity
  8
1
  6
CONTINUOUS
 62
7
100
AcDbLine
 10
207.6435969999999
 20
64.73408600000000
 30
0.000000000000000
 11
302.6435970000000
 21
64.73408600000000
 31
0.000000000000000
  0
ARC
  5
8A
100
AcDbEntity
  8
1
  6
CONTINUOUS
 62
7
100
AcDbCircle
 10
255.1435970000000
 20
-115.7867470000000
 30
0.000000000000000
 40
191.0208330000000
100
AcDbArc
 50
76.07130300000000
 51
103.9286970000000
  0
LINE
  5
8B
100
AcDbEntity
  8
1
  6
CONTINUOUS
 62
7
100
AcDbLine
 10
207.6435969999999
 20
63.73408600000000
 30
0.000000000000000
 11
302.6435970000000
 21
63.73408600000000
 31
0.000000000000000
  0
LINE
  5
8C
100
AcDbEntity
  8
5
  6
PHANTOM
 62
6
100
AcDbLine
 10
236.0602569999999
 20
94.29774700000003
 30
0.000000000000000
 11
236.9861410000000
 21
93.76146199999999
 31
0.000000000000000
  0
ARC
  5
8D
100
AcDbEntity
  8
5
  6
PHANTOM
 62
6
100
AcDbCircle
 10
236.5160390000000
 20
98.65628700000002
 30
0.000000000000000
 40
1.000000000000000
100
AcDbArc
 50
59.91998600000001
 51
146.7523709999998
  0
LINE
  5
8E
100
AcDbEntity
  8
1
  6
CONTINUOUS
 62
7
100
AcDbLine
 10
214.6435970000000
 20
41.73408600000000
 30
0.000000000000000
 11
250.6435970000000
 21
41.73408600000000
 31
0.000000000000000
  0
LINE
  5
8F
100
AcDbEntity
  8
1
  6
CONTINUOUS
 62
7
100
AcDbLine
 10
233.8776850000000
 20
48.53408600000000
 30
0.000000000000000
 11
237.9776800000000
 21
48.53408600000000
 31
0.000000000000000
  0
LINE
  5
90
100
AcDbEntity
  8
1
  6
CONTINUOUS
 62
7
100
AcDbLine
 10
296.1435970000000
 20
39.73408599999999
 30
0.000000000000000
 11
213.1435970000000
 21
39.73408599999999
 31
0.000000000000000
  0
LINE
  5
91
100
AcDbEntity
  8
1
  6
CONTINUOUS
 62
7
100
AcDbLine
 10
296.1435970000000
 20
41.73408600000000
 30
0.000000000000000
 11
213.1435970000000
 21
41.73408600000000
 31
0.000000000000000
  0
LINE
  5
92
100
AcDbEntity
  8
1
  6
CONTINUOUS
 62
7
100
AcDbLine
 10
295.1435969999998
 20
42.73408599999998
 30
0.000000000000000
 11
214.1435970000000
 21
42.73408599999998
 31
0.000000000000000
  0
LINE
  5
93
100
AcDbEntity
  8
1
  6
CONTINUOUS
 62
7
100
AcDbLine
 10
248.0776850000000
 20
46.03406800000000
 30
0.000000000000000
 11
234.9128739999999
 21
46.03405700000000
 31
0.000000000000000
  0
LINE
  5
94
100
AcDbEntity
  8
1
  6
CONTINUOUS
 62
7
100
AcDbLine
 10
248.0776850000000
 20
43.73406800000001
 30
0.000000000000000
 11
234.9128759999999
 21
43.73405700000001
 31
0.000000000000000
  0
LINE
  5
95
100
AcDbEntity
  8
1
  6
CONTINUOUS
 62
7
100
AcDbLine
 10
247.9778359999999
 20
48.33406800000000
 30
0.000000000000000
 11
233.9778359999999
 21
48.33405700000000
 31
0.000000000000000
  0
LINE
  5
96
100
AcDbEntity
  8
1
  6
CONTINUOUS
 62
7
100
AcDbLine
 10
265.6435920000000
 20
41.73408600000000
 30
0.000000000000000
 11
216.0935920000000
 21
41.73408600000000
 31
0.000000000000000
  0
ARC
  5
97
100
AcDbEntity
  8
5
  6
PHANTOM
 62
6
100
AcDbCircle
 10
230.7784519999999
 20
78.86690400000001
 30
0.000000000000000
 40
4.000000000000000
100
AcDbArc
 50
152.8631629999999
 51
239.9199859999999
  0
ARC
  5
98
100
AcDbEntity
  8
5
  6
PHANTOM
 62
6
100
AcDbCircle
 10
395.4321430000000
 20
-5.524270999999997
 30
0.000000000000000
 40
189.0208330000000
100
AcDbArc
 50
148.2437239999998
 51
155.6003269999999
  0
ARC
  5
99
100
AcDbEntity
  8
5
  6
PHANTOM
 62
6
100
AcDbCircle
 10
395.4321430000000
 20
-5.524270999999997
 30
0.000000000000000
 40
191.0208330000000
100
AcDbArc
 50
146.7523709999998
 51
156.0094740000000
  0
LINE
  5
9A
100
AcDbEntity
  8
4
  6
CENTER
 62
1
100
AcDbLine
 10
229.6435970000000
 20
65.08408600000000
 30
0.000000000000000
 11
229.6435970000000
 21
56.98408600000000
 31
0.000000000000000
  0
LINE
  5
9B
100
AcDbEntity
  8
1
  6
CONTINUOUS
 62
7
100
AcDbLine
 10
214.6435970000000
 20
42.73408599999998
 30
0.000000000000000
 11
214.6435970000000
 21
63.73408600000000
 31
0.000000000000000
  0
LINE
  5
9C
100
AcDbEntity
  8
1
  6
CONTINUOUS
 62
7
100
AcDbLine
 10
211.1435970000000
 20
41.73408600000000
 30
0.000000000000000
 11
211.1435970000000
 21
63.23408600000000
 31
0.000000000000000
  0
LINE
  5
9D
100
AcDbEntity
  8
1
  6
CONTINUOUS
 62
7
100
AcDbLine
 10
213.1435970000000
 20
41.73408600000000
 30
0.000000000000000
 11
213.1435970000000
 21
63.23408600000000
 31
0.000000000000000
  0
LINE
  5
9E
100
AcDbEntity
  8
1
  6
CONTINUOUS
 62
7
100
AcDbLine
 10
214.6435970000000
 20
51.93408600000000
 30
0.000000000000000
 11
231.8776850000000
 21
51.93408600000000
 31
0.000000000000000
  0
ARC
  5
9F
100
AcDbEntity
  8
1
  6
CONTINUOUS
 62
7
100
AcDbCircle
 10
213.1435970000000
 20
56.23408600000000
 30
0.000000000000000
 40
1.000000000000000
100
AcDbArc
 50
0.000000000000000
 51
90.00000000000000
  0
ARC
  5
A0
100
AcDbEntity
  8
1
  6
CONTINUOUS
 62
7
100
AcDbCircle
 10
213.1435970000000
 20
41.73408600000000
 30
0.000000000000000
 40
2.000000000000000
100
AcDbArc
 50
180.0000000000000
 51
270.0000000000000
  0
LINE
  5
A1
100
AcDbEntity
  8
1
  6
CONTINUOUS
 62
7
100
AcDbLine
 10
218.6435970000000
 20
42.73408599999998
 30
0.000000000000000
 11
218.6435970000000
 21
51.93408600000000
 31
0.000000000000000
  0
LINE
  5
A2
100
AcDbEntity
  8
1
  6
CONTINUOUS
 62
7
100
AcDbLine
 10
214.1435970000000
 20
42.73408599999998
 30
0.000000000000000
 11
214.1435970000000
 21
56.23408600000000
 31
0.000000000000000
  0
LINE
  5
A3
100
AcDbEntity
  8
1
  6
CONTINUOUS
 62
7
100
AcDbLine
 10
231.8776850000000
 20
44.73408599999999
 30
0.000000000000000
 11
233.8776850000000
 21
44.73408599999999
 31
0.000000000000000
  0
LINE
  5
A4
100
AcDbEntity
  8
1
  6
CONTINUOUS
 62
7
100
AcDbLine
 10
233.9778359999999
 20
46.03405699999998
 30
0.000000000000000
 11
233.9778359999999
 21
48.33405700000000
 31
0.000000000000000
  0
LINE
  5
A5
100
AcDbEntity
  8
1
  6
CONTINUOUS
 62
7
100
AcDbLine
 10
233.9778359999999
 20
46.03405699999998
 30
0.000000000000000
 11
234.9128660000000
 21
46.03405699999998
 31
0.000000000000000
  0
LINE
  5
A6
100
AcDbEntity
  8
1
  6
CONTINUOUS
 62
7
100
AcDbLine
 10
228.6435970000000
 20
42.73408599999998
 30
0.000000000000000
 11
228.6435970000000
 21
51.93408600000000
 31
0.000000000000000
  0
LINE
  5
A7
100
AcDbEntity
  8
1
  6
CONTINUOUS
 62
7
100
AcDbLine
 10
231.8776850000000
 20
42.73408599999998
 30
0.000000000000000
 11
231.8776850000000
 21
56.93408600000000
 31
0.000000000000000
  0
LINE
  5
A8
100
AcDbEntity
  8
1
  6
CONTINUOUS
 62
7
100
AcDbLine
 10
233.8776850000000
 20
42.73408599999998
 30
0.000000000000000
 11
233.8776850000000
 21
48.53408600000000
 31
0.000000000000000
  0
LINE
  5
A9
100
AcDbEntity
  8
1
  6
CONTINUOUS
 62
7
100
AcDbLine
 10
234.9128759999999
 20
43.73405700000000
 30
0.000000000000000
 11
234.9128719999999
 21
46.03405700000000
 31
0.000000000000000
  0
ARC
  5
AA
100
AcDbEntity
  8
1
  6
CONTINUOUS
 62
7
100
AcDbCircle
 10
209.6435969999999
 20
67.67612500000000
 30
0.000000000000000
 40
2.000000000000000
100
AcDbArc
 50
103.9286970000000
 51
180.0000000000000
  0
LINE
  5
AB
100
AcDbEntity
  8
1
  6
CONTINUOUS
 62
7
100
AcDbLine
 10
207.6435969999999
 20
64.73408600000000
 30
0.000000000000000
 11
207.6435969999999
 21
63.73408600000000
 31
0.000000000000000
  0
LINE
  5
AC
100
AcDbEntity
  8
1
  6
CONTINUOUS
 62
7
100
AcDbLine
 10
213.1435970000000
 20
63.23408600000000
 30
0.000000000000000
 11
211.1435970000000
 21
63.23408600000000
 31
0.000000000000000
  0
LINE
  5
AD
100
AcDbEntity
  8
1
  6
CONTINUOUS
 62
7
100
AcDbLine
 10
207.6435969999999
 20
64.73408600000000
 30
0.000000000000000
 11
207.6435969999999
 21
67.67612500000000
 31
0.000000000000000
  0
LINE
  5
AE
100
AcDbEntity
  8
5
  6
PHANTOM
 62
6
100
AcDbLine
 10
231.5870260000000
 20
73.77603100000002
 30
0.000000000000000
 11
228.7736129999999
 21
75.40560100000002
 31
0.000000000000000
  0
CIRCLE
  5
AF
100
AcDbEntity
  8
1
  6
CONTINUOUS
 62
7
100
AcDbCircle
 10
229.6435970000000
 20
61.03408600000000
 30
0.000000000000000
 40
2.549999999999998
  0
LINE
  5
B0
100
AcDbEntity
  8
4
  6
CENTER
 62
1
100
AcDbLine
 10
233.6935970000000
 20
61.03408600000000
 30
0.000000000000000
 11
225.5935969999999
 21
61.03408600000000
 31
0.000000000000000
  0
ARC
  5
B1
100
AcDbEntity
  8
5
  6
PHANTOM
 62
6
100
AcDbCircle
 10
235.5590480000000
 20
93.43242100000001
 30
0.000000000000000
 40
1.000000000000000
100
AcDbArc
 50
59.91998600000001
 51
148.2437239999998
  0
LINE
  5
B2
100
AcDbEntity
  8
1
  6
CONTINUOUS
 62
7
100
AcDbLine
 10
258.6435970000000
 20
44.23408600000000
 30
0.000000000000000
 11
268.6435970000000
 21
44.23408600000000
 31
0.000000000000000
  0
LINE
  5
B3
100
AcDbEntity
  8
1
  6
CONTINUOUS
 62
7
100
AcDbLine
 10
250.0776850000000
 20
51.93408600000000
 30
0.000000000000000
 11
284.3079040000000
 21
51.93408600000000
 31
0.000000000000000
  0
LINE
  5
B4
100
AcDbEntity
  8
1
  6
CONTINUOUS
 62
7
100
AcDbLine
 10
269.6436050000000
 20
41.73408500000001
 30
0.000000000000000
 11
257.6436269999999
 21
41.73407499999999
 31
0.000000000000000
  0
LINE
  5
B5
100
AcDbEntity
  8
1
  6
CONTINUOUS
 62
7
100
AcDbLine
 10
269.6436019999998
 20
44.03408500000000
 30
0.000000000000000
 11
257.6436249999998
 21
44.03407500000000
 31
0.000000000000000
  0
LINE
  5
B6
100
AcDbEntity
  8
4
  6
CENTER
 62
1
100
AcDbLine
 10
240.9776799999999
 20
41.79971199999999
 30
0.000000000000000
 11
240.9776799999999
 21
60.33406500000000
 31
0.000000000000000
  0
LINE
  5
B7
100
AcDbEntity
  8
1
  6
CONTINUOUS
 62
7
100
AcDbLine
 10
250.6435970000000
 20
49.43408600000000
 30
0.000000000000000
 11
258.6435970000000
 21
49.43408600000000
 31
0.000000000000000
  0
LINE
  5
B8
100
AcDbEntity
  8
1
  6
CONTINUOUS
 62
7
100
AcDbLine
 10
258.6435970000000
 20
49.03408200000000
 30
0.000000000000000
 11
250.6436129999999
 21
49.03407600000000
 31
0.000000000000000
  0
LINE
  5
B9
100
AcDbEntity
  8
1
  6
CONTINUOUS
 62
7
100
AcDbLine
 10
258.6435969999998
 20
46.73407599999999
 30
0.000000000000000
 11
250.6436109999999
 21
46.73407000000000
 31
0.000000000000000
  0
LINE
  5
BA
100
AcDbEntity
  8
1
  6
CONTINUOUS
 62
7
100
AcDbLine
 10
254.3436000000000
 20
46.03407299999999
 30
0.000000000000000
 11
250.6435970000000
 21
46.03406999999999
 31
0.000000000000000
  0
LINE
  5
BB
100
AcDbEntity
  8
1
  6
CONTINUOUS
 62
7
100
AcDbLine
 10
250.6436110000000
 20
49.23408600000000
 30
0.000000000000000
 11
258.6435970000000
 21
49.23408600000000
 31
0.000000000000000
  0
LINE
  5
BC
100
AcDbEntity
  8
1
  6
CONTINUOUS
 62
7
100
AcDbLine
 10
254.3436020000000
 20
43.73407300000000
 30
0.000000000000000
 11
250.6435970000000
 21
43.73407000000001
 31
0.000000000000000
  0
LINE
  5
BD
100
AcDbEntity
  8
1
  6
CONTINUOUS
 62
7
100
AcDbLine
 10
248.0776850000000
 20
44.73408599999999
 30
0.000000000000000
 11
250.0776850000000
 21
44.73408599999999
 31
0.000000000000000
  0
LINE
  5
BE
100
AcDbEntity
  8
1
  6
CONTINUOUS
 62
7
100
AcDbLine
 10
243.9776800000000
 20
48.53408600000000
 30
0.000000000000000
 11
248.0776850000000
 21
48.53408600000000
 31
0.000000000000000
  0
LINE
  5
BF
100
AcDbEntity
  8
1
  6
CONTINUOUS
 62
7
100
AcDbLine
 10
250.6436110000000
 20
46.03406999999999
 30
0.000000000000000
 11
250.6436110000000
 21
49.03407600000000
 31
0.000000000000000
  0
LINE
  5
C0
100
AcDbEntity
  8
1
  6
CONTINUOUS
 62
7
100
AcDbLine
 10
247.9778360000000
 20
46.03406800000000
 30
0.000000000000000
 11
247.9778360000000
 21
48.33406800000000
 31
0.000000000000000
  0
LINE
  5
C1
100
AcDbEntity
  8
1
  6
CONTINUOUS
 62
7
100
AcDbLine
 10
238.4776800000000
 20
57.33406500000000
 30
0.000000000000000
 11
243.4776799999999
 21
57.33406500000000
 31
0.000000000000000
  0
LINE
  5
C2
100
AcDbEntity
  8
1
  6
CONTINUOUS
 62
7
100
AcDbLine
 10
243.9776800000000
 20
48.33406500000000
 30
0.000000000000000
 11
243.9776800000000
 21
56.83406500000000
 31
0.000000000000000
  0
LINE
  5
C3
100
AcDbEntity
  8
1
  6
CONTINUOUS
 62
7
100
AcDbLine
 10
237.9776800000000
 20
48.33406500000000
 30
0.000000000000000
 11
237.9776800000000
 21
56.83406500000000
 31
0.000000000000000
  0
LINE
  5
C4
100
AcDbEntity
  8
1
  6
CONTINUOUS
 62
7
100
AcDbLine
 10
243.9776799999999
 20
56.83406500000004
 30
0.000000000000000
 11
243.4776799999999
 21
57.33406500000001
 31
0.000000000000000
  0
LINE
  5
C5
100
AcDbEntity
  8
1
  6
CONTINUOUS
 62
7
100
AcDbLine
 10
237.9776799999999
 20
56.83406499999998
 30
0.000000000000000
 11
238.4776799999999
 21
57.33406499999998
 31
0.000000000000000
  0
LINE
  5
C6
100
AcDbEntity
  8
1
  6
CONTINUOUS
 62
7
100
AcDbLine
 10
237.9776800000000
 20
56.83406500000000
 30
0.000000000000000
 11
243.9776800000000
 21
56.83406500000000
 31
0.000000000000000
  0
LINE
  5
C7
100
AcDbEntity
  8
4
  6
CENTER
 62
1
100
AcDbLine
 10
234.9776799999999
 20
55.33406500000000
 30
0.000000000000000
 11
246.9776799999999
 21
55.33406500000000
 31
0.000000000000000
  0
ARC
  5
C8
100
AcDbEntity
  8
1
  6
CONTINUOUS
 62
7
100
AcDbCircle
 10
240.9776799999999
 20
54.78405799999999
 30
0.000000000000000
 40
9.250000000000000
100
AcDbArc
 50
251.0753560000000
 51
288.9246439999999
  0
LINE
  5
C9
100
AcDbEntity
  8
1
  6
CONTINUOUS
 62
7
100
AcDbLine
 10
246.6435919999999
 20
48.33406700000000
 30
0.000000000000000
 11
246.6435919999999
 21
48.53408600000000
 31
0.000000000000000
  0
ARC
  5
CA
100
AcDbEntity
  8
1
  6
CONTINUOUS
 62
7
100
AcDbCircle
 10
240.9776799999999
 20
52.48406000000000
 30
0.000000000000000
 40
9.250000000000000
100
AcDbArc
 50
251.0753560000000
 51
288.9246439999999
  0
LINE
  5
CB
100
AcDbEntity
  8
1
  6
CONTINUOUS
 62
7
100
AcDbLine
 10
242.5435919999999
 20
43.73408600000000
 30
0.000000000000000
 11
246.6435919999999
 21
43.73408600000000
 31
0.000000000000000
  0
LINE
  5
CC
100
AcDbEntity
  8
1
  6
CONTINUOUS
 62
7
100
AcDbLine
 10
250.0776850000000
 20
42.73408599999998
 30
0.000000000000000
 11
250.0776850000000
 21
56.93408600000000
 31
0.000000000000000
  0
LINE
  5
CD
100
AcDbEntity
  8
1
  6
CONTINUOUS
 62
7
100
AcDbLine
 10
248.0776850000000
 20
42.73408599999998
 30
0.000000000000000
 11
248.0776850000000
 21
48.53408600000000
 31
0.000000000000000
  0
LINE
  5
CE
100
AcDbEntity
  8
1
  6
CONTINUOUS
 62
7
100
AcDbLine
 10
250.6435970000000
 20
42.73408599999998
 30
0.000000000000000
 11
250.6435970000000
 21
49.43408600000000
 31
0.000000000000000
  0
LINE
  5
CF
100
AcDbEntity
  8
1
  6
CONTINUOUS
 62
7
100
AcDbLine
 10
258.6435970000000
 20
44.23408600000000
 30
0.000000000000000
 11
258.6435970000000
 21
51.93408600000000
 31
0.000000000000000
  0
LINE
  5
D0
100
AcDbEntity
  8
1
  6
CONTINUOUS
 62
7
100
AcDbLine
 10
260.6435970000000
 20
44.03407800000000
 30
0.000000000000000
 11
260.6435970000000
 21
44.23408600000000
 31
0.000000000000000
  0
LINE
  5
D1
100
AcDbEntity
  8
1
  6
CONTINUOUS
 62
7
100
AcDbLine
 10
266.6435970000000
 20
44.03408300000000
 30
0.000000000000000
 11
266.6435970000000
 21
44.23408600000000
 31
0.000000000000000
  0
LINE
  5
D2
100
AcDbEntity
  8
1
  6
CONTINUOUS
 62
7
100
AcDbLine
 10
255.7835799999999
 20
45.52752299999997
 30
0.000000000000000
 11
257.6436249999999
 21
44.03407499999999
 31
0.000000000000000
  0
ARC
  5
D3
100
AcDbEntity
  8
1
  6
CONTINUOUS
 62
7
100
AcDbCircle
 10
254.3436020000000
 20
43.73407299999999
 30
0.000000000000000
 40
2.299999999999998
100
AcDbArc
 50
51.23869100000000
 51
90.00009399999998
  0
LINE
  5
D4
100
AcDbEntity
  8
1
  6
CONTINUOUS
 62
7
100
AcDbLine
 10
257.6436249999998
 20
44.03407500000002
 30
0.000000000000000
 11
257.6436170000000
 21
46.73406599999998
 31
0.000000000000000
  0
LINE
  5
D5
100
AcDbEntity
  8
1
  6
CONTINUOUS
 62
7
100
AcDbLine
 10
261.7435970000000
 20
38.73408599999999
 30
0.000000000000000
 11
265.5435969999999
 21
38.73408599999999
 31
0.000000000000000
  0
LINE
  5
D6
100
AcDbEntity
  8
1
  6
CONTINUOUS
 62
7
100
AcDbLine
 10
261.2435970000000
 20
39.23408600000000
 30
0.000000000000000
 11
261.2435970000000
 21
39.73408599999999
 31
0.000000000000000
  0
LINE
  5
D7
100
AcDbEntity
  8
1
  6
CONTINUOUS
 62
7
100
AcDbLine
 10
266.0435969999999
 20
39.23408600000000
 30
0.000000000000000
 11
266.0435969999999
 21
39.73408599999999
 31
0.000000000000000
  0
LINE
  5
D8
100
AcDbEntity
  8
1
  6
CONTINUOUS
 62
7
100
AcDbLine
 10
261.2435970000000
 20
39.23408600000003
 30
0.000000000000000
 11
261.7435970000000
 21
38.73408600000000
 31
0.000000000000000
  0
LINE
  5
D9
100
AcDbEntity
  8
1
  6
CONTINUOUS
 62
7
100
AcDbLine
 10
266.0435969999999
 20
39.23408599999996
 30
0.000000000000000
 11
265.5435969999999
 21
38.73408599999993
 31
0.000000000000000
  0
LINE
  5
DA
100
AcDbEntity
  8
1
  6
CONTINUOUS
 62
7
100
AcDbLine
 10
261.2435970000000
 20
39.23408600000000
 30
0.000000000000000
 11
266.0435969999999
 21
39.23408600000000
 31
0.000000000000000
  0
LINE
  5
DB
100
AcDbEntity
  8
1
  6
CONTINUOUS
 62
7
100
AcDbLine
 10
254.3436020000000
 20
43.73407300000001
 30
0.000000000000000
 11
255.5890559999999
 21
42.73408599999996
 31
0.000000000000000
  0
ARC
  5
DC
100
AcDbEntity
  8
1
  6
CONTINUOUS
 62
7
100
AcDbCircle
 10
284.3079040000000
 20
60.93408600000000
 30
0.000000000000000
 40
9.000000000000000
100
AcDbArc
 50
270.0000000000000
 51
345.0000000000000
  0
LINE
  5
DD
100
AcDbEntity
  8
1
  6
CONTINUOUS
 62
7
100
AcDbLine
 10
294.6435969999999
 20
63.73408600000000
 30
0.000000000000000
 11
294.6435969999999
 21
42.73408599999998
 31
0.000000000000000
  0
LINE
  5
DE
100
AcDbEntity
  8
1
  6
CONTINUOUS
 62
7
100
AcDbLine
 10
298.1435970000000
 20
41.73408600000000
 30
0.000000000000000
 11
298.1435970000000
 21
63.23408600000000
 31
0.000000000000000
  0
LINE
  5
DF
100
AcDbEntity
  8
1
  6
CONTINUOUS
 62
7
100
AcDbLine
 10
296.1435970000000
 20
41.73408600000000
 30
0.000000000000000
 11
296.1435970000000
 21
63.23408600000000
 31
0.000000000000000
  0
LINE
  5
E0
100
AcDbEntity
  8
1
  6
CONTINUOUS
 62
7
100
AcDbLine
 10
276.6435969999998
 20
41.73408600000000
 30
0.000000000000000
 11
294.6435969999999
 21
41.73408600000000
 31
0.000000000000000
  0
LINE
  5
E1
100
AcDbEntity
  8
1
  6
CONTINUOUS
 62
7
100
AcDbLine
 10
268.6435970000000
 20
44.23408600000000
 30
0.000000000000000
 11
268.6435970000000
 21
51.93408600000000
 31
0.000000000000000
  0
LINE
  5
E2
100
AcDbEntity
  8
1
  6
CONTINUOUS
 62
7
100
AcDbLine
 10
268.6435970000000
 20
49.43408600000000
 30
0.000000000000000
 11
276.6435969999998
 21
49.43408600000000
 31
0.000000000000000
  0
LINE
  5
E3
100
AcDbEntity
  8
1
  6
CONTINUOUS
 62
7
100
AcDbLine
 10
269.6435999999998
 20
46.73408499999999
 30
0.000000000000000
 11
268.6435970000000
 21
46.73408400000000
 31
0.000000000000000
  0
LINE
  5
E4
100
AcDbEntity
  8
1
  6
CONTINUOUS
 62
7
100
AcDbLine
 10
278.6435969999998
 20
42.73408599999998
 30
0.000000000000000
 11
278.6435969999998
 21
51.93408600000000
 31
0.000000000000000
  0
LINE
  5
E5
100
AcDbEntity
  8
1
  6
CONTINUOUS
 62
7
100
AcDbLine
 10
276.6435969999998
 20
42.73408599999998
 30
0.000000000000000
 11
276.6435969999998
 21
49.43408600000000
 31
0.000000000000000
  0
LINE
  5
E6
100
AcDbEntity
  8
1
  6
CONTINUOUS
 62
7
100
AcDbLine
 10
269.6436029999999
 20
42.73408599999997
 30
0.000000000000000
 11
269.6435939999998
 21
46.73408499999999
 31
0.000000000000000
  0
ARC
  5
E7
100
AcDbEntity
  8
1
  6
CONTINUOUS
 62
7
100
AcDbCircle
 10
296.1435970000000
 20
56.23408600000000
 30
0.000000000000000
 40
1.000000000000000
100
AcDbArc
 50
90.00000000000000
 51
180.0000000000000
  0
ARC
  5
E8
100
AcDbEntity
  8
1
  6
CONTINUOUS
 62
7
100
AcDbCircle
 10
296.1435970000000
 20
41.73408600000000
 30
0.000000000000000
 40
2.000000000000000
100
AcDbArc
 50
270.0000000000000
 51
360.0000000000000
  0
LINE
  5
E9
100
AcDbEntity
  8
1
  6
CONTINUOUS
 62
7
100
AcDbLine
 10
288.6435969999999
 20
42.73408599999998
 30
0.000000000000000
 11
288.6435969999999
 21
53.04727599999999
 31
0.000000000000000
  0
LINE
  5
EA
100
AcDbEntity
  8
1
  6
CONTINUOUS
 62
7
100
AcDbLine
 10
295.1435969999998
 20
42.73408599999998
 30
0.000000000000000
 11
295.1435969999998
 21
56.23408600000000
 31
0.000000000000000
  0
LINE
  5
EB
100
AcDbEntity
  8
1
  6
CONTINUOUS
 62
7
100
AcDbLine
 10
294.3756480000000
 20
63.73408600000000
 30
0.000000000000000
 11
293.0012369999998
 21
58.60471499999998
 31
0.000000000000000
  0
LINE
  5
EC
100
AcDbEntity
  8
1
  6
CONTINUOUS
 62
7
100
AcDbLine
 10
298.1435970000000
 20
63.23408600000000
 30
0.000000000000000
 11
296.1435970000000
 21
63.23408600000000
 31
0.000000000000000
  0
LINE
  5
ED
100
AcDbEntity
  8
5
  6
PHANTOM
 62
6
100
AcDbLine
 10
237.0172489999999
 20
99.52161300000003
 30
0.000000000000000
 11
239.6172620000000
 21
98.01564700000002
 31
0.000000000000000
  0
ARC
  5
EE
100
AcDbEntity
  8
5
  6
PHANTOM
 62
6
100
AcDbCircle
 10
395.4321430000000
 20
-5.524270999999997
 30
0.000000000000000
 40
186.0208330000000
100
AcDbArc
 50
146.7015069999999
 51
147.6216649999998
  0
ARC
  5
EF
100
AcDbEntity
  8
5
  6
PHANTOM
 62
6
100
AcDbCircle
 10
237.4873510000000
 20
94.62678699999999
 30
0.000000000000000
 40
1.000000000000000
100
AcDbArc
 50
239.9199859999999
 51
327.6216650000001
  0
ARC
  5
F0
100
AcDbEntity
  8
5
  6
PHANTOM
 62
6
100
AcDbCircle
 10
239.1160530000000
 20
97.15032100000001
 30
0.000000000000000
 40
1.000000000000000
100
AcDbArc
 50
326.7015069999998
 51
419.9199860000000
  0
ARC
  5
F1
100
AcDbEntity
  8
1
  6
CONTINUOUS
 62
7
100
AcDbCircle
 10
300.6435970000000
 20
67.67612500000000
 30
0.000000000000000
 40
2.000000000000000
100
AcDbArc
 50
0.000000000000000
 51
76.07130300000000
  0
LINE
  5
F2
100
AcDbEntity
  8
1
  6
CONTINUOUS
 62
7
100
AcDbLine
 10
302.6435970000000
 20
64.73408600000000
 30
0.000000000000000
 11
302.6435970000000
 21
63.73408600000000
 31
0.000000000000000
  0
LINE
  5
F3
100
AcDbEntity
  8
1
  6
CONTINUOUS
 62
7
100
AcDbLine
 10
302.6435970000000
 20
64.73408600000000
 30
0.000000000000000
 11
302.6435970000000
 21
67.67612500000000
 31
0.000000000000000
  0
LINE
  5
F4
100
AcDbEntity
  8
4
  6
CENTER
 62
1
100
AcDbLine
 10
307.6592919999999
 20
322.1155569999999
 30
0.000000000000000
 11
203.6229399999998
 21
322.1155569999999
 31
0.000000000000000
  0
ARC
  5
F5
100
AcDbEntity
  8
1
  6
CONTINUOUS
 62
7
100
AcDbCircle
 10
294.0072530000000
 20
265.1326629999999
 30
0.000000000000000
 40
7.000000000000000
100
AcDbArc
 50
272.9983060000000
 51
356.7102980000000
  0
LINE
  5
F6
100
AcDbEntity
  8
1
  6
CONTINUOUS
 62
7
100
AcDbLine
 10
224.0920420000000
 20
270.9359370000000
 30
0.000000000000000
 11
224.0920420000000
 21
373.1155569999998
 31
0.000000000000000
  0
ARC
  5
F7
100
AcDbEntity
  8
1
  6
CONTINUOUS
 62
7
100
AcDbCircle
 10
-697.3564290000000
 20
322.1155569999999
 30
0.000000000000000
 40
964.0000000000000
100
AcDbArc
 50
357.2449090000000
 51
362.7550909999999
  0
LINE
  5
F8
100
AcDbEntity
  8
1
  6
CONTINUOUS
 62
7
100
AcDbLine
 10
218.9303489999999
 20
271.1155569999998
 30
0.000000000000000
 11
218.9303489999999
 21
373.1155569999998
 31
0.000000000000000
  0
ARC
  5
F9
100
AcDbEntity
  8
1
  6
CONTINUOUS
 62
7
100
AcDbCircle
 10
-697.3564290000000
 20
322.1155569999999
 30
0.000000000000000
 40
991.1780890000001
100
AcDbArc
 50
357.2627650000000
 51
362.7372349999999
  0
LINE
  5
FA
100
AcDbEntity
  8
1
  6
CONTINUOUS
 62
7
100
AcDbLine
 10
216.6435710000000
 20
269.1155569999998
 30
0.000000000000000
 11
216.6435710000000
 21
375.1155569999998
 31
0.000000000000000
  0
ARC
  5
FB
100
AcDbEntity
  8
1
  6
CONTINUOUS
 62
7
100
AcDbCircle
 10
1207.643571000000
 20
322.1155569999999
 30
0.000000000000000
 40
1000.000000000000
100
AcDbArc
 50
176.7102979999999
 51
183.2897020000000
  0
LINE
  5
FC
100
AcDbEntity
  8
4
  6
CENTER
 62
1
100
AcDbLine
 10
245.7276540000000
 20
230.1155570000000
 30
0.000000000000000
 11
236.2276539999998
 21
230.1155570000000
 31
0.000000000000000
  0
ARC
  5
FD
100
AcDbEntity
  8
1
  6
CONTINUOUS
 62
7
100
AcDbCircle
 10
240.9776540000000
 20
230.1155570000000
 30
0.000000000000000
 40
7.000000000000000
100
AcDbArc
 50
180.0000000000000
 51
360.0000000000000
  0
LINE
  5
FE
100
AcDbEntity
  8
1
  6
CONTINUOUS
 62
7
100
AcDbLine
 10
220.9303489999999
 20
269.1155569999998
 30
0.000000000000000
 11
258.5373940000000
 21
269.1155569999998
 31
0.000000000000000
  0
LINE
  5
FF
100
AcDbEntity
  8
1
  6
CONTINUOUS
 62
7
100
AcDbLine
 10
217.6435710000000
 20
268.1155569999999
 30
0.000000000000000
 11
285.6987629999998
 21
268.1155569999999
 31
0.000000000000000
  0
ARC
  5
100
100
AcDbEntity
  8
1
  6
CONTINUOUS
 62
7
100
AcDbCircle
 10
255.1435710000000
 20
1007.115557000000
 30
0.000000000000000
 40
750.0000000000000
100
AcDbArc
 50
267.0016940000000
 51
272.9983060000000
  0
LINE
  5
101
100
AcDbEntity
  8
4
  6
CENTER
 62
1
100
AcDbLine
 10
245.7276540000000
 20
242.6755569999998
 30
0.000000000000000
 11
236.2276539999998
 21
242.6755569999998
 31
0.000000000000000
  0
ARC
  5
102
100
AcDbEntity
  8
5
  6
PHANTOM
 62
6
100
AcDbCircle
 10
240.9776540000000
 20
242.6755569999998
 30
0.000000000000000
 40
7.000000000000000
100
AcDbArc
 50
180.0000000000000
 51
360.0000000000000
  0
LINE
  5
103
100
AcDbEntity
  8
1
  6
CONTINUOUS
 62
7
100
AcDbLine
 10
233.9776539999999
 20
257.4142799999999
 30
0.000000000000000
 11
233.9776539999999
 21
230.1155570000000
 31
0.000000000000000
  0
ARC
  5
104
100
AcDbEntity
  8
1
  6
CONTINUOUS
 62
7
100
AcDbCircle
 10
220.9303489999999
 20
271.1155569999998
 30
0.000000000000000
 40
2.000000000000000
100
AcDbArc
 50
180.0000000000000
 51
270.0000000000000
  0
LINE
  5
105
100
AcDbEntity
  8
4
  6
CENTER
 62
1
100
AcDbLine
 10
229.6435710000000
 20
254.5474539999999
 30
0.000000000000000
 11
229.6435710000000
 21
389.6836599999998
 31
0.000000000000000
  0
ARC
  5
106
100
AcDbEntity
  8
1
  6
CONTINUOUS
 62
7
100
AcDbCircle
 10
217.6435710000000
 20
269.1155569999998
 30
0.000000000000000
 40
1.000000000000000
100
AcDbArc
 50
180.0000000000000
 51
270.0000000000000
  0
ARC
  5
107
100
AcDbEntity
  8
1
  6
CONTINUOUS
 62
7
100
AcDbCircle
 10
216.2798890000000
 20
265.1326629999999
 30
0.000000000000000
 40
7.000000000000000
100
AcDbArc
 50
183.2897020000000
 51
267.0016940000000
  0
LINE
  5
108
100
AcDbEntity
  8
1
  6
CONTINUOUS
 62
7
100
AcDbLine
 10
233.1076729999999
 20
268.1155569999999
 30
0.000000000000000
 11
233.1076729999999
 21
269.1155569999998
 31
0.000000000000000
  0
LINE
  5
109
100
AcDbEntity
  8
1
  6
CONTINUOUS
 62
7
100
AcDbLine
 10
225.6435710000000
 20
268.1155569999999
 30
0.000000000000000
 11
225.6435710000000
 21
269.1155569999998
 31
0.000000000000000
  0
LINE
  5
10A
100
AcDbEntity
  8
1
  6
CONTINUOUS
 62
7
100
AcDbLine
 10
247.9776540000000
 20
230.1155570000000
 30
0.000000000000000
 11
247.9776540000000
 21
257.1497910000000
 31
0.000000000000000
  0
LINE
  5
10B
100
AcDbEntity
  8
4
  6
CENTER
 62
1
100
AcDbLine
 10
240.9776540000000
 20
234.8655570000000
 30
0.000000000000000
 11
240.9776540000000
 21
225.3655569999998
 31
0.000000000000000
  0
CIRCLE
  5
10C
100
AcDbEntity
  8
1
  6
CONTINUOUS
 62
7
100
AcDbCircle
 10
240.9776540000000
 20
230.1155570000000
 30
0.000000000000000
 40
3.000000000000000
  0
CIRCLE
  5
10D
100
AcDbEntity
  8
5
  6
PHANTOM
 62
6
100
AcDbCircle
 10
240.9776540000000
 20
242.6755569999998
 30
0.000000000000000
 40
2.500000000000000
  0
LINE
  5
10E
100
AcDbEntity
  8
4
  6
CENTER
 62
1
100
AcDbLine
 10
240.9776540000000
 20
247.4255570000000
 30
0.000000000000000
 11
240.9776540000000
 21
237.9255569999999
 31
0.000000000000000
  0
CIRCLE
  5
10F
100
AcDbEntity
  8
5
  6
PHANTOM
 62
6
100
AcDbCircle
 10
240.9776540000000
 20
242.6755569999998
 30
0.000000000000000
 40
3.000000000000000
  0
CIRCLE
  5
110
100
AcDbEntity
  8
1
  6
CONTINUOUS
 62
7
100
AcDbCircle
 10
240.9776540000000
 20
230.1155570000000
 30
0.000000000000000
 40
2.500000000000000
  0
ARC
  5
111
100
AcDbEntity
  8
1
  6
CONTINUOUS
 62
7
100
AcDbCircle
 10
258.5373940000000
 20
276.1155569999999
 30
0.000000000000000
 40
7.000000000000000
100
AcDbArc
 50
270.0000000000000
 51
357.2449090000000
  0
LINE
  5
112
100
AcDbEntity
  8
1
  6
CONTINUOUS
 62
7
100
AcDbLine
 10
256.6435709999999
 20
268.1155569999999
 30
0.000000000000000
 11
256.6435709999999
 21
269.1155569999998
 31
0.000000000000000
  0
ARC
  5
113
100
AcDbEntity
  8
1
  6
CONTINUOUS
 62
7
100
AcDbCircle
 10
285.6987629999998
 20
275.1155569999998
 30
0.000000000000000
 40
7.000000000000000
100
AcDbArc
 50
270.0000000000000
 51
357.2627650000000
  0
LINE
  5
114
100
AcDbEntity
  8
1
  6
CONTINUOUS
 62
7
100
AcDbLine
 10
220.9303489999999
 20
375.1155569999998
 30
0.000000000000000
 11
258.5373940000000
 21
375.1155569999998
 31
0.000000000000000
  0
LINE
  5
115
100
AcDbEntity
  8
1
  6
CONTINUOUS
 62
7
100
AcDbLine
 10
217.6435710000000
 20
376.1155569999999
 30
0.000000000000000
 11
285.6987629999998
 21
376.1155569999999
 31
0.000000000000000
  0
ARC
  5
116
100
AcDbEntity
  8
1
  6
CONTINUOUS
 62
7
100
AcDbCircle
 10
220.9303489999999
 20
373.1155569999998
 30
0.000000000000000
 40
2.000000000000000
100
AcDbArc
 50
90.00000000000000
 51
180.0000000000000
  0
ARC
  5
117
100
AcDbEntity
  8
1
  6
CONTINUOUS
 62
7
100
AcDbCircle
 10
217.6435710000000
 20
375.1155569999998
 30
0.000000000000000
 40
1.000000000000000
100
AcDbArc
 50
90.00000000000000
 51
180.0000000000000
  0
LINE
  5
118
100
AcDbEntity
  8
1
  6
CONTINUOUS
 62
7
100
AcDbLine
 10
233.1076729999999
 20
375.1155569999998
 30
0.000000000000000
 11
233.1076729999999
 21
376.1155569999999
 31
0.000000000000000
  0
LINE
  5
119
100
AcDbEntity
  8
1
  6
CONTINUOUS
 62
7
100
AcDbLine
 10
225.6435710000000
 20
376.1155569999999
 30
0.000000000000000
 11
225.6435710000000
 21
375.1155569999998
 31
0.000000000000000
  0
ARC
  5
11A
100
AcDbEntity
  8
1
  6
CONTINUOUS
 62
7
100
AcDbCircle
 10
258.5373940000000
 20
368.1155569999999
 30
0.000000000000000
 40
7.000000000000000
100
AcDbArc
 50
2.755091000000000
 51
90.00000000000000
  0
LINE
  5
11B
100
AcDbEntity
  8
1
  6
CONTINUOUS
 62
7
100
AcDbLine
 10
256.6435709999999
 20
376.1155569999999
 30
0.000000000000000
 11
256.6435709999999
 21
375.1155569999998
 31
0.000000000000000
  0
ARC
  5
11C
100
AcDbEntity
  8
1
  6
CONTINUOUS
 62
7
100
AcDbCircle
 10
285.6987629999998
 20
369.1155569999998
 30
0.000000000000000
 40
7.000000000000000
100
AcDbArc
 50
2.737234999999998
 51
90.00000000000000
  0
ARC
  5
11D
100
AcDbEntity
  8
1
  6
CONTINUOUS
 62
7
100
AcDbCircle
 10
-697.3564290000000
 20
322.1155569999999
 30
0.000000000000000
 40
1000.000000000000
100
AcDbArc
 50
356.7102980000000
 51
363.2897019999999
  0
LINE
  5
11E
100
AcDbEntity
  8
4
  6
CENTER
 62
1
100
AcDbLine
 10
245.7276540000000
 20
414.1155569999998
 30
0.000000000000000
 11
236.2276539999998
 21
414.1155569999998
 31
0.000000000000000
  0
ARC
  5
11F
100
AcDbEntity
  8
1
  6
CONTINUOUS
 62
7
100
AcDbCircle
 10
240.9776540000000
 20
414.1155569999998
 30
0.000000000000000
 40
7.000000000000000
100
AcDbArc
 50
0.000000000000000
 51
180.0000000000000
  0
ARC
  5
120
100
AcDbEntity
  8
1
  6
CONTINUOUS
 62
7
100
AcDbCircle
 10
255.1435710000000
 20
-362.8844430000000
 30
0.000000000000000
 40
750.0000000000000
100
AcDbArc
 50
87.00169400000000
 51
92.99830599999999
  0
LINE
  5
121
100
AcDbEntity
  8
4
  6
CENTER
 62
1
100
AcDbLine
 10
245.7276540000000
 20
401.5555569999998
 30
0.000000000000000
 11
236.2276539999998
 21
401.5555569999998
 31
0.000000000000000
  0
ARC
  5
122
100
AcDbEntity
  8
5
  6
PHANTOM
 62
6
100
AcDbCircle
 10
240.9776540000000
 20
401.5555569999998
 30
0.000000000000000
 40
7.000000000000000
100
AcDbArc
 50
0.000000000000000
 51
180.0000000000000
  0
LINE
  5
123
100
AcDbEntity
  8
1
  6
CONTINUOUS
 62
7
100
AcDbLine
 10
233.9776539999999
 20
386.8168329999999
 30
0.000000000000000
 11
233.9776539999999
 21
414.1155569999998
 31
0.000000000000000
  0
LINE
  5
124
100
AcDbEntity
  8
1
  6
CONTINUOUS
 62
7
100
AcDbLine
 10
247.9776540000000
 20
414.1155569999998
 30
0.000000000000000
 11
247.9776540000000
 21
387.0813220000000
 31
0.000000000000000
  0
LINE
  5
125
100
AcDbEntity
  8
4
  6
CENTER
 62
1
100
AcDbLine
 10
240.9776540000000
 20
406.3055569999998
 30
0.000000000000000
 11
240.9776540000000
 21
396.8055569999999
 31
0.000000000000000
  0
CIRCLE
  5
126
100
AcDbEntity
  8
5
  6
PHANTOM
 62
6
100
AcDbCircle
 10
240.9776540000000
 20
401.5555569999998
 30
0.000000000000000
 40
3.000000000000000
  0
CIRCLE
  5
127
100
AcDbEntity
  8
5
  6
PHANTOM
 62
6
100
AcDbCircle
 10
240.9776540000000
 20
401.5555569999998
 30
0.000000000000000
 40
2.500000000000000
  0
LINE
  5
128
100
AcDbEntity
  8
4
  6
CENTER
 62
1
100
AcDbLine
 10
240.9776540000000
 20
418.8655569999998
 30
0.000000000000000
 11
240.9776540000000
 21
409.3655570000000
 31
0.000000000000000
  0
CIRCLE
  5
129
100
AcDbEntity
  8
1
  6
CONTINUOUS
 62
7
100
AcDbCircle
 10
240.9776540000000
 20
414.1155569999998
 30
0.000000000000000
 40
3.000000000000000
  0
CIRCLE
  5
12A
100
AcDbEntity
  8
1
  6
CONTINUOUS
 62
7
100
AcDbCircle
 10
240.9776540000000
 20
414.1155569999998
 30
0.000000000000000
 40
2.500000000000000
  0
LINE
  5
12B
100
AcDbEntity
  8
1
  6
CONTINUOUS
 62
7
100
AcDbLine
 10
481.5204620000000
 20
223.1155719999999
 30
0.000000000000000
 11
481.5204620000000
 21
257.1155569999999
 31
0.000000000000000
  0
LINE
  5
12C
100
AcDbEntity
  8
1
  6
CONTINUOUS
 62
7
100
AcDbLine
 10
479.2204540000000
 20
223.1155719999999
 30
0.000000000000000
 11
479.2204540000000
 21
257.1155569999999
 31
0.000000000000000
  0
LINE
  5
12D
100
AcDbEntity
  8
4
  6
CENTER
 62
1
100
AcDbLine
 10
464.7204540000000
 20
390.1155569999998
 30
0.000000000000000
 11
464.7204540000000
 21
254.1155569999999
 31
0.000000000000000
  0
LINE
  5
12E
100
AcDbEntity
  8
1
  6
CONTINUOUS
 62
7
100
AcDbLine
 10
470.7204540000000
 20
233.1155529999998
 30
0.000000000000000
 11
470.2204540000000
 21
232.6155529999998
 31
0.000000000000000
  0
LINE
  5
12F
100
AcDbEntity
  8
1
  6
CONTINUOUS
 62
7
100
AcDbLine
 10
470.7204540000000
 20
227.1155529999998
 30
0.000000000000000
 11
470.7204540000000
 21
233.1155529999998
 31
0.000000000000000
  0
ARC
  5
130
100
AcDbEntity
  8
1
  6
CONTINUOUS
 62
7
100
AcDbCircle
 10
472.7704619999998
 20
230.1155529999999
 30
0.000000000000000
 40
9.250000000000000
100
AcDbArc
 50
341.0753559999998
 51
378.9246440000000
  0
LINE
  5
131
100
AcDbEntity
  8
4
  6
CENTER
 62
1
100
AcDbLine
 10
485.0204620000000
 20
230.1155529999999
 30
0.000000000000000
 11
467.2204540000000
 21
230.1155529999999
 31
0.000000000000000
  0
LINE
  5
132
100
AcDbEntity
  8
1
  6
CONTINUOUS
 62
7
100
AcDbLine
 10
470.2204540000000
 20
227.6155530000000
 30
0.000000000000000
 11
470.2204540000000
 21
232.6155529999998
 31
0.000000000000000
  0
LINE
  5
133
100
AcDbEntity
  8
1
  6
CONTINUOUS
 62
7
100
AcDbLine
 10
470.7204539999999
 20
227.1155529999996
 30
0.000000000000000
 11
470.2204539999999
 21
227.6155529999998
 31
0.000000000000000
  0
CIRCLE
  5
134
100
AcDbEntity
  8
1
  6
CONTINUOUS
 62
7
100
AcDbCircle
 10
472.2204539999999
 20
230.1155529999999
 30
0.000000000000000
 40
1.000000000000000
  0
LINE
  5
135
100
AcDbEntity
  8
4
  6
CENTER
 62
1
100
AcDbLine
 10
472.2204539999999
 20
227.6155530000000
 30
0.000000000000000
 11
472.2204539999999
 21
232.6155529999998
 31
0.000000000000000
  0
LINE
  5
136
100
AcDbEntity
  8
1
  6
CONTINUOUS
 62
7
100
AcDbLine
 10
481.5204620000000
 20
223.1155719999999
 30
0.000000000000000
 11
479.2204540000000
 21
223.1155719999999
 31
0.000000000000000
  0
LINE
  5
137
100
AcDbEntity
  8
1
  6
CONTINUOUS
 62
7
100
AcDbLine
 10
479.2204540000000
 20
227.1155529999998
 30
0.000000000000000
 11
470.7204540000000
 21
227.1155529999998
 31
0.000000000000000
  0
LINE
  5
138
100
AcDbEntity
  8
1
  6
CONTINUOUS
 62
7
100
AcDbLine
 10
479.2204540000000
 20
233.1155529999998
 30
0.000000000000000
 11
470.7204540000000
 21
233.1155529999998
 31
0.000000000000000
  0
LINE
  5
139
100
AcDbEntity
  8
1
  6
CONTINUOUS
 62
7
100
AcDbLine
 10
486.0204539999998
 20
257.1155569999999
 30
0.000000000000000
 11
486.0204539999998
 21
387.1155569999999
 31
0.000000000000000
  0
LINE
  5
13A
100
AcDbEntity
  8
1
  6
CONTINUOUS
 62
7
100
AcDbLine
 10
462.5204539999998
 20
257.1155569999999
 30
0.000000000000000
 11
462.5204539999998
 21
387.1155569999999
 31
0.000000000000000
  0
LINE
  5
13B
100
AcDbEntity
  8
1
  6
CONTINUOUS
 62
7
100
AcDbLine
 10
487.0204539999998
 20
346.1712009999998
 30
0.000000000000000
 11
487.0204539999998
 21
342.3712010000000
 31
0.000000000000000
  0
LINE
  5
13C
100
AcDbEntity
  8
1
  6
CONTINUOUS
 62
7
100
AcDbLine
 10
486.5204539999998
 20
346.6712010000000
 30
0.000000000000000
 11
486.5204539999998
 21
341.8712010000000
 31
0.000000000000000
  0
LINE
  5
13D
100
AcDbEntity
  8
1
  6
CONTINUOUS
 62
7
100
AcDbLine
 10
454.5548590000000
 20
268.1155569999999
 30
0.000000000000000
 11
454.5548590000000
 21
376.1155569999999
 31
0.000000000000000
  0
LINE
  5
13E
100
AcDbEntity
  8
1
  6
CONTINUOUS
 62
7
100
AcDbLine
 10
450.5204540000000
 20
270.1155569999999
 30
0.000000000000000
 11
450.5204540000000
 21
374.1155569999999
 31
0.000000000000000
  0
LINE
  5
13F
100
AcDbEntity
  8
1
  6
CONTINUOUS
 62
7
100
AcDbLine
 10
461.0204539999998
 20
257.1155569999999
 30
0.000000000000000
 11
461.0204539999998
 21
387.1155569999999
 31
0.000000000000000
  0
LINE
  5
140
100
AcDbEntity
  8
1
  6
CONTINUOUS
 62
7
100
AcDbLine
 10
462.0204539999998
 20
257.1155569999999
 30
0.000000000000000
 11
462.0204539999998
 21
387.1155569999999
 31
0.000000000000000
  0
LINE
  5
141
100
AcDbEntity
  8
4
  6
CENTER
 62
1
100
AcDbLine
 10
489.0204540000000
 20
322.1155569999999
 30
0.000000000000000
 11
447.5204540000000
 21
322.1155569999999
 31
0.000000000000000
  0
LINE
  5
142
100
AcDbEntity
  8
1
  6
CONTINUOUS
 62
7
100
AcDbLine
 10
487.0204539999998
 20
301.8599120000000
 30
0.000000000000000
 11
487.0204539999998
 21
298.0599119999999
 31
0.000000000000000
  0
LINE
  5
143
100
AcDbEntity
  8
1
  6
CONTINUOUS
 62
7
100
AcDbLine
 10
486.5204539999998
 20
302.3599120000000
 30
0.000000000000000
 11
486.5204539999998
 21
297.5599120000000
 31
0.000000000000000
  0
LINE
  5
144
100
AcDbEntity
  8
1
  6
CONTINUOUS
 62
7
100
AcDbLine
 10
462.5204539999998
 20
257.1155569999999
 30
0.000000000000000
 11
486.0204539999998
 21
257.1155569999999
 31
0.000000000000000
  0
LINE
  5
145
100
AcDbEntity
  8
4
  6
CENTER
 62
1
100
AcDbLine
 10
490.0204539999998
 20
282.1155569999999
 30
0.000000000000000
 11
473.6238379999998
 21
282.1155569999999
 31
0.000000000000000
  0
LINE
  5
146
100
AcDbEntity
  8
1
  6
CONTINUOUS
 62
7
100
AcDbLine
 10
486.5204540000000
 20
297.5599120000002
 30
0.000000000000000
 11
487.0204539999998
 21
298.0599119999999
 31
0.000000000000000
  0
LINE
  5
147
100
AcDbEntity
  8
1
  6
CONTINUOUS
 62
7
100
AcDbLine
 10
486.5204539999998
 20
297.5599120000000
 30
0.000000000000000
 11
486.0204539999998
 21
297.5599120000000
 31
0.000000000000000
  0
ARC
  5
148
100
AcDbEntity
  8
1
  6
CONTINUOUS
 62
7
100
AcDbCircle
 10
454.3204539999998
 20
260.9155569999999
 30
0.000000000000000
 40
3.799999999999998
100
AcDbArc
 50
180.0000000000000
 51
270.0000000000000
  0
LINE
  5
149
100
AcDbEntity
  8
1
  6
CONTINUOUS
 62
7
100
AcDbLine
 10
451.0204540000000
 20
268.1155569999999
 30
0.000000000000000
 11
454.5548590000000
 21
268.1155569999999
 31
0.000000000000000
  0
LINE
  5
14A
100
AcDbEntity
  8
1
  6
CONTINUOUS
 62
7
100
AcDbLine
 10
451.5204540000000
 20
269.1155569999998
 30
0.000000000000000
 11
454.5548590000000
 21
269.1155569999998
 31
0.000000000000000
  0
LINE
  5
14B
100
AcDbEntity
  8
1
  6
CONTINUOUS
 62
7
100
AcDbLine
 10
461.0204539999998
 20
257.1155569999999
 30
0.000000000000000
 11
454.3204539999998
 21
257.1155569999999
 31
0.000000000000000
  0
LINE
  5
14C
100
AcDbEntity
  8
1
  6
CONTINUOUS
 62
7
100
AcDbLine
 10
462.0204539999998
 20
257.1155569999999
 30
0.000000000000000
 11
461.0204539999998
 21
257.1155569999999
 31
0.000000000000000
  0
LINE
  5
14D
100
AcDbEntity
  8
1
  6
CONTINUOUS
 62
7
100
AcDbLine
 10
462.0204539999998
 20
265.1155569999999
 30
0.000000000000000
 11
462.5204539999998
 21
265.1155569999999
 31
0.000000000000000
  0
LINE
  5
14E
100
AcDbEntity
  8
1
  6
CONTINUOUS
 62
7
100
AcDbLine
 10
450.5204540000000
 20
260.9155569999999
 30
0.000000000000000
 11
450.5204540000000
 21
267.6155569999999
 31
0.000000000000000
  0
ARC
  5
14F
100
AcDbEntity
  8
1
  6
CONTINUOUS
 62
7
100
AcDbCircle
 10
451.0204540000000
 20
267.6155569999999
 30
0.000000000000000
 40
0.5000000000000000
100
AcDbArc
 50
90.00000000000000
 51
180.0000000000000
  0
ARC
  5
150
100
AcDbEntity
  8
1
  6
CONTINUOUS
 62
7
100
AcDbCircle
 10
451.5204540000000
 20
270.1155569999999
 30
0.000000000000000
 40
1.000000000000000
100
AcDbArc
 50
180.0000000000000
 51
270.0000000000000
  0
LINE
  5
151
100
AcDbEntity
  8
4
  6
CENTER
 62
1
100
AcDbLine
 10
490.0204539999998
 20
299.9599119999999
 30
0.000000000000000
 11
473.6238379999998
 21
299.9599119999999
 31
0.000000000000000
  0
LINE
  5
152
100
AcDbEntity
  8
1
  6
CONTINUOUS
 62
7
100
AcDbLine
 10
486.5204539999996
 20
302.3599120000000
 30
0.000000000000000
 11
487.0204539999996
 21
301.8599120000000
 31
0.000000000000000
  0
LINE
  5
153
100
AcDbEntity
  8
1
  6
CONTINUOUS
 62
7
100
AcDbLine
 10
486.5204539999998
 20
302.3599120000000
 30
0.000000000000000
 11
486.0204539999998
 21
302.3599120000000
 31
0.000000000000000
  0
LINE
  5
154
100
AcDbEntity
  8
1
  6
CONTINUOUS
 62
7
100
AcDbLine
 10
486.5204539999996
 20
341.8712009999999
 30
0.000000000000000
 11
487.0204539999996
 21
342.3712009999999
 31
0.000000000000000
  0
LINE
  5
155
100
AcDbEntity
  8
1
  6
CONTINUOUS
 62
7
100
AcDbLine
 10
486.5204539999998
 20
341.8712010000000
 30
0.000000000000000
 11
486.0204539999998
 21
341.8712010000000
 31
0.000000000000000
  0
ARC
  5
156
100
AcDbEntity
  8
1
  6
CONTINUOUS
 62
7
100
AcDbCircle
 10
454.3204539999998
 20
383.3155569999998
 30
0.000000000000000
 40
3.799999999999998
100
AcDbArc
 50
90.00000000000000
 51
180.0000000000000
  0
LINE
  5
157
100
AcDbEntity
  8
4
  6
CENTER
 62
1
100
AcDbLine
 10
489.0204540000000
 20
362.1155569999999
 30
0.000000000000000
 11
473.6238379999998
 21
362.1155569999999
 31
0.000000000000000
  0
LINE
  5
158
100
AcDbEntity
  8
4
  6
CENTER
 62
1
100
AcDbLine
 10
489.0204540000000
 20
344.2712009999998
 30
0.000000000000000
 11
473.6238379999998
 21
344.2712009999998
 31
0.000000000000000
  0
LINE
  5
159
100
AcDbEntity
  8
1
  6
CONTINUOUS
 62
7
100
AcDbLine
 10
486.5204539999996
 20
346.6712009999997
 30
0.000000000000000
 11
487.0204539999995
 21
346.1712009999997
 31
0.000000000000000
  0
LINE
  5
15A
100
AcDbEntity
  8
1
  6
CONTINUOUS
 62
7
100
AcDbLine
 10
486.5204539999998
 20
346.6712010000000
 30
0.000000000000000
 11
486.0204539999998
 21
346.6712010000000
 31
0.000000000000000
  0
LINE
  5
15B
100
AcDbEntity
  8
1
  6
CONTINUOUS
 62
7
100
AcDbLine
 10
451.0204540000000
 20
376.1155569999999
 30
0.000000000000000
 11
454.5548590000000
 21
376.1155569999999
 31
0.000000000000000
  0
LINE
  5
15C
100
AcDbEntity
  8
1
  6
CONTINUOUS
 62
7
100
AcDbLine
 10
451.5204540000000
 20
375.1155569999998
 30
0.000000000000000
 11
454.5548590000000
 21
375.1155569999998
 31
0.000000000000000
  0
LINE
  5
15D
100
AcDbEntity
  8
1
  6
CONTINUOUS
 62
7
100
AcDbLine
 10
462.0204539999998
 20
379.1155569999999
 30
0.000000000000000
 11
462.5204539999998
 21
379.1155569999999
 31
0.000000000000000
  0
ARC
  5
15E
100
AcDbEntity
  8
1
  6
CONTINUOUS
 62
7
100
AcDbCircle
 10
451.0204540000000
 20
376.6155569999999
 30
0.000000000000000
 40
0.5000000000000000
100
AcDbArc
 50
180.0000000000000
 51
270.0000000000000
  0
ARC
  5
15F
100
AcDbEntity
  8
1
  6
CONTINUOUS
 62
7
100
AcDbCircle
 10
451.5204540000000
 20
374.1155569999999
 30
0.000000000000000
 40
1.000000000000000
100
AcDbArc
 50
90.00000000000000
 51
180.0000000000000
  0
LINE
  5
160
100
AcDbEntity
  8
1
  6
CONTINUOUS
 62
7
100
AcDbLine
 10
450.5204540000000
 20
376.6155569999999
 30
0.000000000000000
 11
450.5204540000000
 21
383.3155569999998
 31
0.000000000000000
  0
LINE
  5
161
100
AcDbEntity
  8
1
  6
CONTINUOUS
 62
7
100
AcDbLine
 10
462.5204539999998
 20
387.1155569999999
 30
0.000000000000000
 11
486.0204539999998
 21
387.1155569999999
 31
0.000000000000000
  0
LINE
  5
162
100
AcDbEntity
  8
1
  6
CONTINUOUS
 62
7
100
AcDbLine
 10
481.5204539999998
 20
421.1155299999998
 30
0.000000000000000
 11
481.5204539999998
 21
387.1155569999999
 31
0.000000000000000
  0
LINE
  5
163
100
AcDbEntity
  8
1
  6
CONTINUOUS
 62
7
100
AcDbLine
 10
479.2204540000000
 20
421.1155299999998
 30
0.000000000000000
 11
479.2204540000000
 21
387.1155569999999
 31
0.000000000000000
  0
LINE
  5
164
100
AcDbEntity
  8
4
  6
CENTER
 62
1
100
AcDbLine
 10
485.0204620000000
 20
414.1155499999999
 30
0.000000000000000
 11
467.2204540000000
 21
414.1155499999999
 31
0.000000000000000
  0
LINE
  5
165
100
AcDbEntity
  8
1
  6
CONTINUOUS
 62
7
100
AcDbLine
 10
470.2204540000000
 20
416.6155500000000
 30
0.000000000000000
 11
470.2204540000000
 21
411.6155499999998
 31
0.000000000000000
  0
LINE
  5
166
100
AcDbEntity
  8
1
  6
CONTINUOUS
 62
7
100
AcDbLine
 10
470.7204540000000
 20
411.1155499999997
 30
0.000000000000000
 11
470.2204540000000
 21
411.6155499999997
 31
0.000000000000000
  0
LINE
  5
167
100
AcDbEntity
  8
1
  6
CONTINUOUS
 62
7
100
AcDbLine
 10
470.7204540000000
 20
417.1155499999999
 30
0.000000000000000
 11
470.2204539999998
 21
416.6155499999999
 31
0.000000000000000
  0
LINE
  5
168
100
AcDbEntity
  8
1
  6
CONTINUOUS
 62
7
100
AcDbLine
 10
470.7204540000000
 20
417.1155500000000
 30
0.000000000000000
 11
470.7204540000000
 21
411.1155499999998
 31
0.000000000000000
  0
CIRCLE
  5
169
100
AcDbEntity
  8
1
  6
CONTINUOUS
 62
7
100
AcDbCircle
 10
472.2204539999999
 20
414.1155499999999
 30
0.000000000000000
 40
1.000000000000000
  0
LINE
  5
16A
100
AcDbEntity
  8
4
  6
CENTER
 62
1
100
AcDbLine
 10
472.2204539999999
 20
416.6155500000000
 30
0.000000000000000
 11
472.2204539999999
 21
411.6155499999998
 31
0.000000000000000
  0
LINE
  5
16B
100
AcDbEntity
  8
1
  6
CONTINUOUS
 62
7
100
AcDbLine
 10
481.5204539999998
 20
421.1155299999998
 30
0.000000000000000
 11
479.2204540000000
 21
421.1155299999998
 31
0.000000000000000
  0
ARC
  5
16C
100
AcDbEntity
  8
1
  6
CONTINUOUS
 62
7
100
AcDbCircle
 10
472.7704619999998
 20
414.1155499999999
 30
0.000000000000000
 40
9.250000000000000
100
AcDbArc
 50
341.0753559999998
 51
378.9246440000000
  0
LINE
  5
16D
100
AcDbEntity
  8
1
  6
CONTINUOUS
 62
7
100
AcDbLine
 10
479.2204540000000
 20
411.1155499999998
 30
0.000000000000000
 11
470.7204540000000
 21
411.1155499999998
 31
0.000000000000000
  0
LINE
  5
16E
100
AcDbEntity
  8
1
  6
CONTINUOUS
 62
7
100
AcDbLine
 10
479.2204540000000
 20
417.1155500000000
 30
0.000000000000000
 11
470.7204540000000
 21
417.1155500000000
 31
0.000000000000000
  0
LINE
  5
16F
100
AcDbEntity
  8
1
  6
CONTINUOUS
 62
7
100
AcDbLine
 10
461.0204539999998
 20
387.1155569999999
 30
0.000000000000000
 11
454.3204539999998
 21
387.1155569999999
 31
0.000000000000000
  0
LINE
  5
170
100
AcDbEntity
  8
1
  6
CONTINUOUS
 62
7
100
AcDbLine
 10
462.0204539999998
 20
387.1155569999999
 30
0.000000000000000
 11
461.0204539999998
 21
387.1155569999999
 31
0.000000000000000
  0
CIRCLE
  5
171
100
AcDbEntity
  8
1
  6
CONTINUOUS
 62
7
100
AcDbCircle
 10
712.2191370000003
 20
362.1155569999999
 30
0.000000000000000
 40
4.000000000000000
  0
ARC
  5
172
100
AcDbEntity
  8
1
  6
CONTINUOUS
 62
7
100
AcDbCircle
 10
712.2191370000003
 20
362.1155569999999
 30
0.000000000000000
 40
2.250000000000000
100
AcDbArc
 50
304.2420000000000
 51
325.7579999999999
  0
LINE
  5
173
100
AcDbEntity
  8
1
  6
CONTINUOUS
 62
7
100
AcDbLine
 10
713.1991870000002
 20
362.1155569999999
 30
0.000000000000000
 11
713.4070769999998
 21
362.6854850000000
 31
0.000000000000000
  0
LINE
  5
174
100
AcDbEntity
  8
1
  6
CONTINUOUS
 62
7
100
AcDbLine
 10
713.1991870000004
 20
362.1155570000000
 30
0.000000000000000
 11
713.4063700000003
 21
361.5463360000001
 31
0.000000000000000
  0
ARC
  5
175
100
AcDbEntity
  8
1
  6
CONTINUOUS
 62
7
100
AcDbCircle
 10
712.2191370000003
 20
362.1155569999999
 30
0.000000000000000
 40
2.250000000000000
100
AcDbArc
 50
34.24199999999999
 51
55.75829999999999
  0
LINE
  5
176
100
AcDbEntity
  8
1
  6
CONTINUOUS
 62
7
100
AcDbLine
 10
713.4070770000001
 20
362.6854850000001
 30
0.000000000000000
 11
714.0795350000000
 21
363.3819850000001
 31
0.000000000000000
  0
LINE
  5
177
100
AcDbEntity
  8
1
  6
CONTINUOUS
 62
7
100
AcDbLine
 10
713.4063699999998
 20
361.5463359999999
 30
0.000000000000000
 11
714.0795349999995
 21
360.8491289999997
 31
0.000000000000000
  0
LINE
  5
178
100
AcDbEntity
  8
1
  6
CONTINUOUS
 62
7
100
AcDbLine
 10
711.6499160000001
 20
360.9283249999997
 30
0.000000000000000
 11
710.9534159999998
 21
360.2558660000001
 31
0.000000000000000
  0
LINE
  5
179
100
AcDbEntity
  8
1
  6
CONTINUOUS
 62
7
100
AcDbLine
 10
712.2191370000000
 20
363.0956069999999
 30
0.000000000000000
 11
711.6499159999998
 21
363.3027890000001
 31
0.000000000000000
  0
LINE
  5
17A
100
AcDbEntity
  8
1
  6
CONTINUOUS
 62
7
100
AcDbLine
 10
712.2191370000006
 20
361.1355069999998
 30
0.000000000000000
 11
711.6499160000002
 21
360.9283250000000
 31
0.000000000000000
  0
LINE
  5
17B
100
AcDbEntity
  8
1
  6
CONTINUOUS
 62
7
100
AcDbLine
 10
711.6499160000001
 20
363.3027890000001
 30
0.000000000000000
 11
710.9534159999998
 21
363.9752480000001
 31
0.000000000000000
  0
LINE
  5
17C
100
AcDbEntity
  8
1
  6
CONTINUOUS
 62
7
100
AcDbLine
 10
711.2390870000000
 20
362.1155569999999
 30
0.000000000000000
 11
711.0319050000001
 21
362.6847779999998
 31
0.000000000000000
  0
LINE
  5
17D
100
AcDbEntity
  8
1
  6
CONTINUOUS
 62
7
100
AcDbLine
 10
711.2390869999998
 20
362.1155570000000
 30
0.000000000000000
 11
711.0319049999998
 21
361.5463360000002
 31
0.000000000000000
  0
LINE
  5
17E
100
AcDbEntity
  8
1
  6
CONTINUOUS
 62
7
100
AcDbLine
 10
712.2191370000003
 20
363.0956069999996
 30
0.000000000000000
 11
712.7890650000001
 21
363.3034959999998
 31
0.000000000000000
  0
LINE
  5
17F
100
AcDbEntity
  8
1
  6
CONTINUOUS
 62
7
100
AcDbLine
 10
712.2191370000002
 20
361.1355069999996
 30
0.000000000000000
 11
712.7883580000000
 21
360.9283249999996
 31
0.000000000000000
  0
ARC
  5
180
100
AcDbEntity
  8
1
  6
CONTINUOUS
 62
7
100
AcDbCircle
 10
712.2191370000003
 20
362.1155569999999
 30
0.000000000000000
 40
2.250000000000000
100
AcDbArc
 50
214.2419999999999
 51
235.7580000000000
  0
LINE
  5
181
100
AcDbEntity
  8
1
  6
CONTINUOUS
 62
7
100
AcDbLine
 10
711.0319050000003
 20
362.6847779999999
 30
0.000000000000000
 11
710.3594460000004
 21
363.3812780000001
 31
0.000000000000000
  0
LINE
  5
182
100
AcDbEntity
  8
1
  6
CONTINUOUS
 62
7
100
AcDbLine
 10
711.0319049999998
 20
361.5463359999999
 30
0.000000000000000
 11
710.3594459999999
 21
360.8498360000000
 31
0.000000000000000
  0
ARC
  5
183
100
AcDbEntity
  8
1
  6
CONTINUOUS
 62
7
100
AcDbCircle
 10
712.2191370000003
 20
362.1155569999999
 30
0.000000000000000
 40
2.250000000000000
100
AcDbArc
 50
124.2416999999998
 51
145.7579999999999
  0
LINE
  5
184
100
AcDbEntity
  8
1
  6
CONTINUOUS
 62
7
100
AcDbLine
 10
712.7883579999999
 20
360.9283249999997
 30
0.000000000000000
 11
713.4855659999996
 21
360.2551589999999
 31
0.000000000000000
  0
LINE
  5
185
100
AcDbEntity
  8
1
  6
CONTINUOUS
 62
7
100
AcDbLine
 10
712.7890650000001
 20
363.3034959999999
 30
0.000000000000000
 11
713.4855659999997
 21
363.9759549999998
 31
0.000000000000000
  0
CIRCLE
  5
186
100
AcDbEntity
  8
1
  6
CONTINUOUS
 62
7
100
AcDbCircle
 10
652.2191370000000
 20
362.1155569999999
 30
0.000000000000000
 40
4.000000000000000
  0
CIRCLE
  5
187
100
AcDbEntity
  8
1
  6
CONTINUOUS
 62
7
100
AcDbCircle
 10
652.2191370000000
 20
362.1155569999999
 30
0.000000000000000
 40
4.299999999999998
  0
LINE
  5
188
100
AcDbEntity
  8
1
  6
CONTINUOUS
 62
7
100
AcDbLine
 10
652.7890649999999
 20
363.3034959999999
 30
0.000000000000000
 11
653.4855659999998
 21
363.9759549999998
 31
0.000000000000000
  0
LINE
  5
189
100
AcDbEntity
  8
1
  6
CONTINUOUS
 62
7
100
AcDbLine
 10
652.7883579999999
 20
360.9283249999999
 30
0.000000000000000
 11
653.4855659999997
 21
360.2551589999999
 31
0.000000000000000
  0
ARC
  5
18A
100
AcDbEntity
  8
1
  6
CONTINUOUS
 62
7
100
AcDbCircle
 10
652.2191370000000
 20
362.1155569999999
 30
0.000000000000000
 40
2.250000000000000
100
AcDbArc
 50
124.2416999999998
 51
145.7579999999999
  0
LINE
  5
18B
100
AcDbEntity
  8
1
  6
CONTINUOUS
 62
7
100
AcDbLine
 10
651.0319049999998
 20
361.5463359999999
 30
0.000000000000000
 11
650.3594460000004
 21
360.8498360000000
 31
0.000000000000000
  0
LINE
  5
18C
100
AcDbEntity
  8
1
  6
CONTINUOUS
 62
7
100
AcDbLine
 10
651.0319050000001
 20
362.6847779999998
 30
0.000000000000000
 11
650.3594460000004
 21
363.3812780000000
 31
0.000000000000000
  0
ARC
  5
18D
100
AcDbEntity
  8
1
  6
CONTINUOUS
 62
7
100
AcDbCircle
 10
652.2191370000000
 20
362.1155569999999
 30
0.000000000000000
 40
2.250000000000000
100
AcDbArc
 50
214.2419999999999
 51
235.7580000000000
  0
LINE
  5
18E
100
AcDbEntity
  8
1
  6
CONTINUOUS
 62
7
100
AcDbLine
 10
652.2191369999999
 20
361.1355069999997
 30
0.000000000000000
 11
652.7883579999999
 21
360.9283249999999
 31
0.000000000000000
  0
LINE
  5
18F
100
AcDbEntity
  8
1
  6
CONTINUOUS
 62
7
100
AcDbLine
 10
652.2191370000000
 20
363.0956069999999
 30
0.000000000000000
 11
652.7890650000001
 21
363.3034959999999
 31
0.000000000000000
  0
LINE
  5
190
100
AcDbEntity
  8
1
  6
CONTINUOUS
 62
7
100
AcDbLine
 10
651.2390870000002
 20
362.1155570000000
 30
0.000000000000000
 11
651.0319049999999
 21
361.5463360000000
 31
0.000000000000000
  0
LINE
  5
191
100
AcDbEntity
  8
1
  6
CONTINUOUS
 62
7
100
AcDbLine
 10
651.2390870000000
 20
362.1155570000000
 30
0.000000000000000
 11
651.0319049999999
 21
362.6847779999998
 31
0.000000000000000
  0
LINE
  5
192
100
AcDbEntity
  8
1
  6
CONTINUOUS
 62
7
100
AcDbLine
 10
651.6499159999996
 20
363.3027890000000
 30
0.000000000000000
 11
650.9534160000001
 21
363.9752480000000
 31
0.000000000000000
  0
LINE
  5
193
100
AcDbEntity
  8
1
  6
CONTINUOUS
 62
7
100
AcDbLine
 10
652.2191370000002
 20
361.1355069999997
 30
0.000000000000000
 11
651.6499160000000
 21
360.9283249999999
 31
0.000000000000000
  0
LINE
  5
194
100
AcDbEntity
  8
1
  6
CONTINUOUS
 62
7
100
AcDbLine
 10
652.2191370000000
 20
363.0956070000000
 30
0.000000000000000
 11
651.6499159999997
 21
363.3027890000001
 31
0.000000000000000
  0
LINE
  5
195
100
AcDbEntity
  8
1
  6
CONTINUOUS
 62
7
100
AcDbLine
 10
651.6499160000000
 20
360.9283249999999
 30
0.000000000000000
 11
650.9534160000004
 21
360.2558660000001
 31
0.000000000000000
  0
LINE
  5
196
100
AcDbEntity
  8
1
  6
CONTINUOUS
 62
7
100
AcDbLine
 10
653.4063699999999
 20
361.5463360000000
 30
0.000000000000000
 11
654.0795349999996
 21
360.8491289999997
 31
0.000000000000000
  0
LINE
  5
197
100
AcDbEntity
  8
1
  6
CONTINUOUS
 62
7
100
AcDbLine
 10
653.4070769999998
 20
362.6854850000001
 30
0.000000000000000
 11
654.0795349999997
 21
363.3819850000001
 31
0.000000000000000
  0
ARC
  5
198
100
AcDbEntity
  8
1
  6
CONTINUOUS
 62
7
100
AcDbCircle
 10
652.2191370000000
 20
362.1155569999999
 30
0.000000000000000
 40
2.250000000000000
100
AcDbArc
 50
34.24199999999999
 51
55.75829999999999
  0
LINE
  5
199
100
AcDbEntity
  8
1
  6
CONTINUOUS
 62
7
100
AcDbLine
 10
653.1991869999998
 20
362.1155569999999
 30
0.000000000000000
 11
653.4063699999998
 21
361.5463360000000
 31
0.000000000000000
  0
LINE
  5
19A
100
AcDbEntity
  8
1
  6
CONTINUOUS
 62
7
100
AcDbLine
 10
653.1991870000001
 20
362.1155570000000
 30
0.000000000000000
 11
653.4070769999997
 21
362.6854850000000
 31
0.000000000000000
  0
ARC
  5
19B
100
AcDbEntity
  8
1
  6
CONTINUOUS
 62
7
100
AcDbCircle
 10
652.2191370000000
 20
362.1155569999999
 30
0.000000000000000
 40
2.250000000000000
100
AcDbArc
 50
304.2420000000000
 51
325.7579999999999
  0
ARC
  5
19C
100
AcDbEntity
  8
1
  6
CONTINUOUS
 62
7
100
AcDbCircle
 10
652.2191370000000
 20
282.1155569999999
 30
0.000000000000000
 40
2.250000000000000
100
AcDbArc
 50
304.2420000000000
 51
325.7579999999999
  0
LINE
  5
19D
100
AcDbEntity
  8
1
  6
CONTINUOUS
 62
7
100
AcDbLine
 10
653.1991870000002
 20
282.1155569999999
 30
0.000000000000000
 11
653.4070769999998
 21
282.6854850000001
 31
0.000000000000000
  0
LINE
  5
19E
100
AcDbEntity
  8
1
  6
CONTINUOUS
 62
7
100
AcDbLine
 10
653.1991870000001
 20
282.1155570000000
 30
0.000000000000000
 11
653.4063699999999
 21
281.5463359999998
 31
0.000000000000000
  0
ARC
  5
19F
100
AcDbEntity
  8
1
  6
CONTINUOUS
 62
7
100
AcDbCircle
 10
652.2191370000000
 20
282.1155569999999
 30
0.000000000000000
 40
2.250000000000000
100
AcDbArc
 50
34.24199999999999
 51
55.75829999999999
  0
LINE
  5
1A0
100
AcDbEntity
  8
1
  6
CONTINUOUS
 62
7
100
AcDbLine
 10
653.4070770000000
 20
282.6854850000002
 30
0.000000000000000
 11
654.0795349999999
 21
283.3819850000000
 31
0.000000000000000
  0
LINE
  5
1A1
100
AcDbEntity
  8
1
  6
CONTINUOUS
 62
7
100
AcDbLine
 10
653.4063699999998
 20
281.5463359999999
 30
0.000000000000000
 11
654.0795349999995
 21
280.8491289999999
 31
0.000000000000000
  0
LINE
  5
1A2
100
AcDbEntity
  8
1
  6
CONTINUOUS
 62
7
100
AcDbLine
 10
651.6499159999998
 20
280.9283250000000
 30
0.000000000000000
 11
650.9534160000003
 21
280.2558660000002
 31
0.000000000000000
  0
LINE
  5
1A3
100
AcDbEntity
  8
1
  6
CONTINUOUS
 62
7
100
AcDbLine
 10
652.2191370000000
 20
283.0956069999999
 30
0.000000000000000
 11
651.6499159999997
 21
283.3027890000000
 31
0.000000000000000
  0
LINE
  5
1A4
100
AcDbEntity
  8
1
  6
CONTINUOUS
 62
7
100
AcDbLine
 10
652.2191370000004
 20
281.1355070000001
 30
0.000000000000000
 11
651.6499160000002
 21
280.9283250000000
 31
0.000000000000000
  0
LINE
  5
1A5
100
AcDbEntity
  8
1
  6
CONTINUOUS
 62
7
100
AcDbLine
 10
651.6499159999998
 20
283.3027890000000
 30
0.000000000000000
 11
650.9534160000003
 21
283.9752480000001
 31
0.000000000000000
  0
LINE
  5
1A6
100
AcDbEntity
  8
1
  6
CONTINUOUS
 62
7
100
AcDbLine
 10
651.2390870000002
 20
282.1155570000000
 30
0.000000000000000
 11
651.0319050000001
 21
282.6847779999998
 31
0.000000000000000
  0
LINE
  5
1A7
100
AcDbEntity
  8
1
  6
CONTINUOUS
 62
7
100
AcDbLine
 10
651.2390870000003
 20
282.1155569999999
 30
0.000000000000000
 11
651.0319050000002
 21
281.5463359999998
 31
0.000000000000000
  0
LINE
  5
1A8
100
AcDbEntity
  8
1
  6
CONTINUOUS
 62
7
100
AcDbLine
 10
652.2191370000000
 20
283.0956069999999
 30
0.000000000000000
 11
652.7890650000001
 21
283.3034959999998
 31
0.000000000000000
  0
LINE
  5
1A9
100
AcDbEntity
  8
1
  6
CONTINUOUS
 62
7
100
AcDbLine
 10
652.2191370000000
 20
281.1355069999997
 30
0.000000000000000
 11
652.7883580000000
 21
280.9283249999999
 31
0.000000000000000
  0
ARC
  5
1AA
100
AcDbEntity
  8
1
  6
CONTINUOUS
 62
7
100
AcDbCircle
 10
652.2191370000000
 20
282.1155569999999
 30
0.000000000000000
 40
2.250000000000000
100
AcDbArc
 50
214.2419999999999
 51
235.7580000000000
  0
LINE
  5
1AB
100
AcDbEntity
  8
1
  6
CONTINUOUS
 62
7
100
AcDbLine
 10
651.0319050000001
 20
282.6847779999999
 30
0.000000000000000
 11
650.3594460000004
 21
283.3812779999998
 31
0.000000000000000
  0
LINE
  5
1AC
100
AcDbEntity
  8
1
  6
CONTINUOUS
 62
7
100
AcDbLine
 10
651.0319050000001
 20
281.5463359999999
 30
0.000000000000000
 11
650.3594460000004
 21
280.8498360000000
 31
0.000000000000000
  0
ARC
  5
1AD
100
AcDbEntity
  8
1
  6
CONTINUOUS
 62
7
100
AcDbCircle
 10
652.2191370000000
 20
282.1155569999999
 30
0.000000000000000
 40
2.250000000000000
100
AcDbArc
 50
124.2416999999998
 51
145.7579999999999
  0
LINE
  5
1AE
100
AcDbEntity
  8
1
  6
CONTINUOUS
 62
7
100
AcDbLine
 10
652.7883579999999
 20
280.9283250000000
 30
0.000000000000000
 11
653.4855659999998
 21
280.2551589999997
 31
0.000000000000000
  0
LINE
  5
1AF
100
AcDbEntity
  8
1
  6
CONTINUOUS
 62
7
100
AcDbLine
 10
652.7890650000002
 20
283.3034959999999
 30
0.000000000000000
 11
653.4855659999999
 21
283.9759550000001
 31
0.000000000000000
  0
CIRCLE
  5
1B0
100
AcDbEntity
  8
1
  6
CONTINUOUS
 62
7
100
AcDbCircle
 10
652.2191370000000
 20
282.1155569999999
 30
0.000000000000000
 40
4.299999999999998
  0
CIRCLE
  5
1B1
100
AcDbEntity
  8
1
  6
CONTINUOUS
 62
7
100
AcDbCircle
 10
652.2191370000000
 20
282.1155569999999
 30
0.000000000000000
 40
4.000000000000000
  0
CIRCLE
  5
1B2
100
AcDbEntity
  8
1
  6
CONTINUOUS
 62
7
100
AcDbCircle
 10
712.2191370000003
 20
282.1155569999999
 30
0.000000000000000
 40
4.000000000000000
  0
CIRCLE
  5
1B3
100
AcDbEntity
  8
1
  6
CONTINUOUS
 62
7
100
AcDbCircle
 10
712.2191370000003
 20
282.1155569999999
 30
0.000000000000000
 40
4.299999999999998
  0
LINE
  5
1B4
100
AcDbEntity
  8
1
  6
CONTINUOUS
 62
7
100
AcDbLine
 10
712.7890649999999
 20
283.3034959999998
 30
0.000000000000000
 11
713.4855659999996
 21
283.9759550000000
 31
0.000000000000000
  0
LINE
  5
1B5
100
AcDbEntity
  8
1
  6
CONTINUOUS
 62
7
100
AcDbLine
 10
712.7883580000000
 20
280.9283249999997
 30
0.000000000000000
 11
713.4855659999998
 21
280.2551589999997
 31
0.000000000000000
  0
ARC
  5
1B6
100
AcDbEntity
  8
1
  6
CONTINUOUS
 62
7
100
AcDbCircle
 10
712.2191370000003
 20
282.1155569999999
 30
0.000000000000000
 40
2.250000000000000
100
AcDbArc
 50
124.2416999999998
 51
145.7579999999999
  0
LINE
  5
1B7
100
AcDbEntity
  8
1
  6
CONTINUOUS
 62
7
100
AcDbLine
 10
711.0319049999999
 20
281.5463359999998
 30
0.000000000000000
 11
710.3594459999999
 21
280.8498359999999
 31
0.000000000000000
  0
LINE
  5
1B8
100
AcDbEntity
  8
1
  6
CONTINUOUS
 62
7
100
AcDbLine
 10
711.0319050000001
 20
282.6847779999998
 30
0.000000000000000
 11
710.3594459999999
 21
283.3812779999997
 31
0.000000000000000
  0
ARC
  5
1B9
100
AcDbEntity
  8
1
  6
CONTINUOUS
 62
7
100
AcDbCircle
 10
712.2191370000003
 20
282.1155569999999
 30
0.000000000000000
 40
2.250000000000000
100
AcDbArc
 50
214.2419999999999
 51
235.7580000000000
  0
LINE
  5
1BA
100
AcDbEntity
  8
1
  6
CONTINUOUS
 62
7
100
AcDbLine
 10
712.2191369999999
 20
281.1355069999997
 30
0.000000000000000
 11
712.7883579999998
 21
280.9283249999999
 31
0.000000000000000
  0
LINE
  5
1BB
100
AcDbEntity
  8
1
  6
CONTINUOUS
 62
7
100
AcDbLine
 10
712.2191370000004
 20
283.0956070000000
 30
0.000000000000000
 11
712.7890650000002
 21
283.3034959999999
 31
0.000000000000000
  0
LINE
  5
1BC
100
AcDbEntity
  8
1
  6
CONTINUOUS
 62
7
100
AcDbLine
 10
711.2390870000002
 20
282.1155570000001
 30
0.000000000000000
 11
711.0319050000002
 21
281.5463359999999
 31
0.000000000000000
  0
LINE
  5
1BD
100
AcDbEntity
  8
1
  6
CONTINUOUS
 62
7
100
AcDbLine
 10
711.2390870000000
 20
282.1155569999999
 30
0.000000000000000
 11
711.0319050000001
 21
282.6847779999998
 31
0.000000000000000
  0
LINE
  5
1BE
100
AcDbEntity
  8
1
  6
CONTINUOUS
 62
7
100
AcDbLine
 10
711.6499159999997
 20
283.3027890000000
 30
0.000000000000000
 11
710.9534159999996
 21
283.9752480000000
 31
0.000000000000000
  0
LINE
  5
1BF
100
AcDbEntity
  8
1
  6
CONTINUOUS
 62
7
100
AcDbLine
 10
712.2191370000005
 20
281.1355069999999
 30
0.000000000000000
 11
711.6499160000002
 21
280.9283249999999
 31
0.000000000000000
  0
LINE
  5
1C0
100
AcDbEntity
  8
1
  6
CONTINUOUS
 62
7
100
AcDbLine
 10
712.2191370000003
 20
283.0956069999999
 30
0.000000000000000
 11
711.6499159999998
 21
283.3027890000000
 31
0.000000000000000
  0
LINE
  5
1C1
100
AcDbEntity
  8
1
  6
CONTINUOUS
 62
7
100
AcDbLine
 10
711.6499160000001
 20
280.9283250000000
 30
0.000000000000000
 11
710.9534159999999
 21
280.2558660000001
 31
0.000000000000000
  0
LINE
  5
1C2
100
AcDbEntity
  8
1
  6
CONTINUOUS
 62
7
100
AcDbLine
 10
713.4063699999997
 20
281.5463359999998
 30
0.000000000000000
 11
714.0795349999995
 21
280.8491289999998
 31
0.000000000000000
  0
LINE
  5
1C3
100
AcDbEntity
  8
1
  6
CONTINUOUS
 62
7
100
AcDbLine
 10
713.4070770000000
 20
282.6854850000001
 30
0.000000000000000
 11
714.0795349999997
 21
283.3819849999999
 31
0.000000000000000
  0
ARC
  5
1C4
100
AcDbEntity
  8
1
  6
CONTINUOUS
 62
7
100
AcDbCircle
 10
712.2191370000003
 20
282.1155569999999
 30
0.000000000000000
 40
2.250000000000000
100
AcDbArc
 50
34.24199999999999
 51
55.75829999999999
  0
LINE
  5
1C5
100
AcDbEntity
  8
1
  6
CONTINUOUS
 62
7
100
AcDbLine
 10
713.1991870000002
 20
282.1155569999999
 30
0.000000000000000
 11
713.4063700000000
 21
281.5463359999998
 31
0.000000000000000
  0
LINE
  5
1C6
100
AcDbEntity
  8
1
  6
CONTINUOUS
 62
7
100
AcDbLine
 10
713.1991869999999
 20
282.1155569999999
 30
0.000000000000000
 11
713.4070769999998
 21
282.6854850000001
 31
0.000000000000000
  0
ARC
  5
1C7
100
AcDbEntity
  8
1
  6
CONTINUOUS
 62
7
100
AcDbCircle
 10
712.2191370000003
 20
282.1155569999999
 30
0.000000000000000
 40
2.250000000000000
100
AcDbArc
 50
304.2420000000000
 51
325.7579999999999
  0
ARC
  5
1C8
100
AcDbEntity
  8
5
  6
PHANTOM
 62
6
100
AcDbCircle
 10
694.8850489999996
 20
401.5555569999998
 30
0.000000000000000
 40
7.000000000000000
100
AcDbArc
 50
0.000000000000000
 51
180.0000000000000
  0
LINE
  5
1C9
100
AcDbEntity
  8
4
  6
CENTER
 62
1
100
AcDbLine
 10
699.6350490000000
 20
401.5555569999998
 30
0.000000000000000
 11
690.1350489999996
 21
401.5555569999998
 31
0.000000000000000
  0
LINE
  5
1CA
100
AcDbEntity
  8
4
  6
CENTER
 62
1
100
AcDbLine
 10
694.8850489999996
 20
406.3055569999998
 30
0.000000000000000
 11
694.8850489999996
 21
396.8055569999999
 31
0.000000000000000
  0
CIRCLE
  5
1CB
100
AcDbEntity
  8
5
  6
PHANTOM
 62
6
100
AcDbCircle
 10
694.8850489999996
 20
401.5555569999998
 30
0.000000000000000
 40
3.000000000000000
  0
CIRCLE
  5
1CC
100
AcDbEntity
  8
5
  6
PHANTOM
 62
6
100
AcDbCircle
 10
694.8850489999996
 20
401.5555569999998
 30
0.000000000000000
 40
2.500000000000000
  0
LINE
  5
1CD
100
AcDbEntity
  8
4
  6
CENTER
 62
1
100
AcDbLine
 10
699.6350490000000
 20
242.6755569999998
 30
0.000000000000000
 11
690.1350489999996
 21
242.6755569999998
 31
0.000000000000000
  0
ARC
  5
1CE
100
AcDbEntity
  8
5
  6
PHANTOM
 62
6
100
AcDbCircle
 10
694.8850489999996
 20
242.6755569999998
 30
0.000000000000000
 40
7.000000000000000
100
AcDbArc
 50
180.0000000000000
 51
360.0000000000000
  0
CIRCLE
  5
1CF
100
AcDbEntity
  8
5
  6
PHANTOM
 62
6
100
AcDbCircle
 10
694.8850489999996
 20
242.6755569999998
 30
0.000000000000000
 40
2.500000000000000
  0
LINE
  5
1D0
100
AcDbEntity
  8
4
  6
CENTER
 62
1
100
AcDbLine
 10
694.8850489999996
 20
247.4255570000000
 30
0.000000000000000
 11
694.8850489999996
 21
237.9255569999999
 31
0.000000000000000
  0
CIRCLE
  5
1D1
100
AcDbEntity
  8
5
  6
PHANTOM
 62
6
100
AcDbCircle
 10
694.8850489999996
 20
242.6755569999998
 30
0.000000000000000
 40
3.000000000000000
  0
LINE
  5
1D2
100
AcDbEntity
  8
1
  6
CONTINUOUS
 62
7
100
AcDbLine
 10
486.0204539999998
 20
376.8516250000000
 30
0.000000000000000
 11
469.7565219999998
 21
376.8516250000000
 31
0.000000000000000
  0
LINE
  5
1D3
100
AcDbEntity
  8
1
  6
CONTINUOUS
 62
7
100
AcDbLine
 10
486.0204539999998
 20
372.3794889999999
 30
0.000000000000000
 11
469.7565219999998
 21
372.3794889999999
 31
0.000000000000000
  0
ARC
  5
1D4
100
AcDbEntity
  8
1
  6
CONTINUOUS
 62
7
100
AcDbCircle
 10
469.7565219999998
 20
374.6155569999999
 30
0.000000000000000
 40
2.236067999999999
100
AcDbArc
 50
90.00000000000000
 51
270.0000000000000
  0
ARC
  5
1D5
100
AcDbEntity
  8
1
  6
CONTINUOUS
 62
7
100
AcDbCircle
 10
488.0204540000000
 20
374.6155569999999
 30
0.000000000000000
 40
3.000000000000000
100
AcDbArc
 50
131.8103150000000
 51
228.1896849999998
  0
ARC
  5
1D6
100
AcDbEntity
  8
1
  6
CONTINUOUS
 62
7
100
AcDbCircle
 10
469.7565219999998
 20
269.6155569999999
 30
0.000000000000000
 40
2.236067999999999
100
AcDbArc
 50
90.00000000000000
 51
270.0000000000000
  0
LINE
  5
1D7
100
AcDbEntity
  8
1
  6
CONTINUOUS
 62
7
100
AcDbLine
 10
486.0204539999998
 20
271.8516249999999
 30
0.000000000000000
 11
469.7565219999998
 21
271.8516249999999
 31
0.000000000000000
  0
LINE
  5
1D8
100
AcDbEntity
  8
1
  6
CONTINUOUS
 62
7
100
AcDbLine
 10
486.0204539999998
 20
267.3794889999999
 30
0.000000000000000
 11
469.7565219999998
 21
267.3794889999999
 31
0.000000000000000
  0
ARC
  5
1D9
100
AcDbEntity
  8
1
  6
CONTINUOUS
 62
7
100
AcDbCircle
 10
488.0204540000000
 20
269.6155569999999
 30
0.000000000000000
 40
3.000000000000000
100
AcDbArc
 50
131.8103150000000
 51
228.1896849999998
  0
LINE
  5
1DA
100
AcDbEntity
  8
5
  6
PHANTOM
 62
6
100
AcDbLine
 10
479.2204540000000
 20
404.5555499999998
 30
0.000000000000000
 11
470.7204540000000
 21
404.5555499999998
 31
0.000000000000000
  0
LINE
  5
1DB
100
AcDbEntity
  8
5
  6
PHANTOM
 62
6
100
AcDbLine
 10
479.2204540000000
 20
398.5555500000000
 30
0.000000000000000
 11
470.7204540000000
 21
398.5555500000000
 31
0.000000000000000
  0
LINE
  5
1DC
100
AcDbEntity
  8
4
  6
CENTER
 62
1
100
AcDbLine
 10
485.0204620000000
 20
401.5555500000000
 30
0.000000000000000
 11
467.2204540000000
 21
401.5555500000000
 31
0.000000000000000
  0
LINE
  5
1DD
100
AcDbEntity
  8
5
  6
PHANTOM
 62
6
100
AcDbLine
 10
470.7204540000000
 20
404.5555499999998
 30
0.000000000000000
 11
470.7204540000000
 21
398.5555500000000
 31
0.000000000000000
  0
LINE
  5
1DE
100
AcDbEntity
  8
5
  6
PHANTOM
 62
6
100
AcDbLine
 10
470.2204540000000
 20
404.0555499999998
 30
0.000000000000000
 11
470.2204540000000
 21
399.0555499999999
 31
0.000000000000000
  0
LINE
  5
1DF
100
AcDbEntity
  8
4
  6
CENTER
 62
1
100
AcDbLine
 10
472.2204539999999
 20
404.0555499999998
 30
0.000000000000000
 11
472.2204539999999
 21
399.0555499999999
 31
0.000000000000000
  0
LINE
  5
1E0
100
AcDbEntity
  8
5
  6
PHANTOM
 62
6
100
AcDbLine
 10
470.7204540000000
 20
398.5555499999999
 30
0.000000000000000
 11
470.2204540000000
 21
399.0555499999999
 31
0.000000000000000
  0
CIRCLE
  5
1E1
100
AcDbEntity
  8
5
  6
PHANTOM
 62
6
100
AcDbCircle
 10
472.2204539999999
 20
401.5555500000000
 30
0.000000000000000
 40
1.000000000000000
  0
LINE
  5
1E2
100
AcDbEntity
  8
5
  6
PHANTOM
 62
6
100
AcDbLine
 10
470.7204540000000
 20
404.5555499999998
 30
0.000000000000000
 11
470.2204539999998
 21
404.0555499999996
 31
0.000000000000000
  0
ARC
  5
1E3
100
AcDbEntity
  8
5
  6
PHANTOM
 62
6
100
AcDbCircle
 10
472.7704619999998
 20
401.5555500000000
 30
0.000000000000000
 40
9.250000000000000
100
AcDbArc
 50
341.0753559999998
 51
378.9246440000000
  0
LINE
  5
1E4
100
AcDbEntity
  8
5
  6
PHANTOM
 62
6
100
AcDbLine
 10
479.2204540000000
 20
239.6755640000000
 30
0.000000000000000
 11
470.7204540000000
 21
239.6755640000000
 31
0.000000000000000
  0
LINE
  5
1E5
100
AcDbEntity
  8
5
  6
PHANTOM
 62
6
100
AcDbLine
 10
479.2204540000000
 20
245.6755640000000
 30
0.000000000000000
 11
470.7204540000000
 21
245.6755640000000
 31
0.000000000000000
  0
LINE
  5
1E6
100
AcDbEntity
  8
4
  6
CENTER
 62
1
100
AcDbLine
 10
485.0204620000000
 20
242.6755640000000
 30
0.000000000000000
 11
467.2204540000000
 21
242.6755640000000
 31
0.000000000000000
  0
LINE
  5
1E7
100
AcDbEntity
  8
5
  6
PHANTOM
 62
6
100
AcDbLine
 10
470.7204540000000
 20
239.6755640000000
 30
0.000000000000000
 11
470.7204540000000
 21
245.6755640000000
 31
0.000000000000000
  0
LINE
  5
1E8
100
AcDbEntity
  8
5
  6
PHANTOM
 62
6
100
AcDbLine
 10
470.2204540000000
 20
240.1755639999999
 30
0.000000000000000
 11
470.2204540000000
 21
245.1755640000000
 31
0.000000000000000
  0
LINE
  5
1E9
100
AcDbEntity
  8
5
  6
PHANTOM
 62
6
100
AcDbLine
 10
470.7204540000000
 20
245.6755640000000
 30
0.000000000000000
 11
470.2204540000000
 21
245.1755640000000
 31
0.000000000000000
  0
CIRCLE
  5
1EA
100
AcDbEntity
  8
5
  6
PHANTOM
 62
6
100
AcDbCircle
 10
472.2204539999999
 20
242.6755640000000
 30
0.000000000000000
 40
1.000000000000000
  0
LINE
  5
1EB
100
AcDbEntity
  8
5
  6
PHANTOM
 62
6
100
AcDbLine
 10
470.7204540000001
 20
239.6755640000001
 30
0.000000000000000
 11
470.2204540000001
 21
240.1755640000000
 31
0.000000000000000
  0
LINE
  5
1EC
100
AcDbEntity
  8
4
  6
CENTER
 62
1
100
AcDbLine
 10
472.2204539999999
 20
240.1755639999999
 30
0.000000000000000
 11
472.2204539999999
 21
245.1755640000000
 31
0.000000000000000
  0
ARC
  5
1ED
100
AcDbEntity
  8
5
  6
PHANTOM
 62
6
100
AcDbCircle
 10
472.7704619999998
 20
242.6755640000000
 30
0.000000000000000
 40
9.250000000000000
100
AcDbArc
 50
341.0753559999998
 51
378.9246440000000
  0
LINE
  5
1EE
100
AcDbEntity
  8
4
  6
CENTER
 62
1
100
AcDbLine
 10
631.5940829999998
 20
374.6155569999999
 30
0.000000000000000
 11
729.8441920000000
 21
374.6155569999999
 31
0.000000000000000
  0
LINE
  5
1EF
100
AcDbEntity
  8
4
  6
CENTER
 62
1
100
AcDbLine
 10
631.5940829999998
 20
269.6155569999999
 30
0.000000000000000
 11
729.8441920000000
 21
269.6155569999999
 31
0.000000000000000
  0
CIRCLE
  5
1F0
100
AcDbEntity
  8
1
  6
CONTINUOUS
 62
7
100
AcDbCircle
 10
694.8850489999996
 20
414.1155569999998
 30
0.000000000000000
 40
2.500000000000000
  0
CIRCLE
  5
1F1
100
AcDbEntity
  8
1
  6
CONTINUOUS
 62
7
100
AcDbCircle
 10
694.8850489999996
 20
230.1155570000000
 30
0.000000000000000
 40
2.500000000000000
  0
LINE
  5
1F2
100
AcDbEntity
  8
4
  6
CENTER
 62
1
100
AcDbLine
 10
283.6435970000000
 20
36.73408600000000
 30
0.000000000000000
 11
283.6435970000000
 21
51.93408600000000
 31
0.000000000000000
  0
LINE
  5
1F3
100
AcDbEntity
  8
4
  6
CENTER
 62
1
100
AcDbLine
 10
263.6435969999999
 20
35.73408600000000
 30
0.000000000000000
 11
263.6435969999999
 21
51.93408600000000
 31
0.000000000000000
  0
LINE
  5
1F4
100
AcDbEntity
  8
4
  6
CENTER
 62
1
100
AcDbLine
 10
223.6435970000000
 20
36.73408600000000
 30
0.000000000000000
 11
223.6435970000000
 21
51.93408600000000
 31
0.000000000000000
  0
LINE
  5
1F5
100
AcDbEntity
  8
4
  6
CENTER
 62
1
100
AcDbLine
 10
263.6435969999999
 20
608.4970280000000
 30
0.000000000000000
 11
263.6435969999999
 21
592.2970279999998
 31
0.000000000000000
  0
LINE
  5
1F6
100
AcDbEntity
  8
4
  6
CENTER
 62
1
100
AcDbLine
 10
223.6435970000000
 20
607.4970280000000
 30
0.000000000000000
 11
223.6435970000000
 21
592.2970279999998
 31
0.000000000000000
  0
LINE
  5
1F7
100
AcDbEntity
  8
4
  6
CENTER
 62
1
100
AcDbLine
 10
283.6435970000000
 20
607.4970280000000
 30
0.000000000000000
 11
283.6435970000000
 21
592.2970279999998
 31
0.000000000000000
  0
LINE
  5
1F8
100
AcDbEntity
  8
1
  6
CONTINUOUS
 62
7
100
AcDbLine
 10
288.6435969999999
 20
601.4970280000000
 30
0.000000000000000
 11
288.6435969999999
 21
591.1838380000000
 31
0.000000000000000
  0
LINE
  5
1F9
100
AcDbEntity
  8
1
  6
CONTINUOUS
 62
7
100
AcDbLine
 10
295.1435969999998
 20
601.4970280000000
 30
0.000000000000000
 11
295.1435969999998
 21
587.9970280000000
 31
0.000000000000000
  0
LINE
  5
1FA
100
AcDbEntity
  8
1
  6
CONTINUOUS
 62
7
100
AcDbLine
 10
278.6435969999998
 20
601.4970280000000
 30
0.000000000000000
 11
278.6435969999998
 21
592.2970279999998
 31
0.000000000000000
  0
LINE
  5
1FB
100
AcDbEntity
  8
1
  6
CONTINUOUS
 62
7
100
AcDbLine
 10
276.6435969999998
 20
601.4970280000000
 30
0.000000000000000
 11
276.6435969999998
 21
594.7970279999998
 31
0.000000000000000
  0
LINE
  5
1FC
100
AcDbEntity
  8
1
  6
CONTINUOUS
 62
7
100
AcDbLine
 10
258.6435970000000
 20
599.9970280000000
 30
0.000000000000000
 11
258.6435970000000
 21
592.2970279999998
 31
0.000000000000000
  0
LINE
  5
1FD
100
AcDbEntity
  8
1
  6
CONTINUOUS
 62
7
100
AcDbLine
 10
268.6435970000000
 20
599.9970280000000
 30
0.000000000000000
 11
268.6435970000000
 21
592.2970279999998
 31
0.000000000000000
  0
LINE
  5
1FE
100
AcDbEntity
  8
1
  6
CONTINUOUS
 62
7
100
AcDbLine
 10
250.6436110000000
 20
598.1970440000000
 30
0.000000000000000
 11
250.6436110000000
 21
595.1970380000000
 31
0.000000000000000
  0
LINE
  5
1FF
100
AcDbEntity
  8
1
  6
CONTINUOUS
 62
7
100
AcDbLine
 10
247.9778360000000
 20
598.1970460000000
 30
0.000000000000000
 11
247.9778360000000
 21
595.8970460000000
 31
0.000000000000000
  0
LINE
  5
200
100
AcDbEntity
  8
1
  6
CONTINUOUS
 62
7
100
AcDbLine
 10
233.9778359999999
 20
598.1970570000002
 30
0.000000000000000
 11
233.9778359999999
 21
595.8970569999998
 31
0.000000000000000
  0
LINE
  5
201
100
AcDbEntity
  8
1
  6
CONTINUOUS
 62
7
100
AcDbLine
 10
248.0776850000000
 20
601.4970280000000
 30
0.000000000000000
 11
248.0776850000000
 21
595.6970280000000
 31
0.000000000000000
  0
LINE
  5
202
100
AcDbEntity
  8
1
  6
CONTINUOUS
 62
7
100
AcDbLine
 10
250.6435970000000
 20
601.4970280000000
 30
0.000000000000000
 11
250.6435970000000
 21
594.7970279999998
 31
0.000000000000000
  0
LINE
  5
203
100
AcDbEntity
  8
1
  6
CONTINUOUS
 62
7
100
AcDbLine
 10
250.0776850000000
 20
601.4970280000000
 30
0.000000000000000
 11
250.0776850000000
 21
587.2970279999998
 31
0.000000000000000
  0
LINE
  5
204
100
AcDbEntity
  8
1
  6
CONTINUOUS
 62
7
100
AcDbLine
 10
233.8776850000000
 20
601.4970280000000
 30
0.000000000000000
 11
233.8776850000000
 21
595.6970280000000
 31
0.000000000000000
  0
LINE
  5
205
100
AcDbEntity
  8
1
  6
CONTINUOUS
 62
7
100
AcDbLine
 10
228.6435970000000
 20
601.4970280000000
 30
0.000000000000000
 11
228.6435970000000
 21
592.2970279999998
 31
0.000000000000000
  0
LINE
  5
206
100
AcDbEntity
  8
1
  6
CONTINUOUS
 62
7
100
AcDbLine
 10
231.8776850000000
 20
601.4970280000000
 30
0.000000000000000
 11
231.8776850000000
 21
587.2970279999998
 31
0.000000000000000
  0
LINE
  5
207
100
AcDbEntity
  8
1
  6
CONTINUOUS
 62
7
100
AcDbLine
 10
218.6435970000000
 20
601.4970280000000
 30
0.000000000000000
 11
218.6435970000000
 21
592.2970279999998
 31
0.000000000000000
  0
LINE
  5
208
100
AcDbEntity
  8
1
  6
CONTINUOUS
 62
7
100
AcDbLine
 10
214.1435970000000
 20
601.4970280000000
 30
0.000000000000000
 11
214.1435970000000
 21
587.9970280000000
 31
0.000000000000000
  0
LINE
  5
209
100
AcDbEntity
  8
1
  6
CONTINUOUS
 62
7
100
AcDbLine
 10
294.6435969999999
 20
580.4970280000000
 30
0.000000000000000
 11
294.6435969999999
 21
601.4970280000000
 31
0.000000000000000
  0
LINE
  5
20A
100
AcDbEntity
  8
1
  6
CONTINUOUS
 62
7
100
AcDbLine
 10
298.1435970000000
 20
602.4970279999998
 30
0.000000000000000
 11
298.1435970000000
 21
580.9970279999999
 31
0.000000000000000
  0
LINE
  5
20B
100
AcDbEntity
  8
1
  6
CONTINUOUS
 62
7
100
AcDbLine
 10
296.1435970000000
 20
602.4970279999998
 30
0.000000000000000
 11
296.1435970000000
 21
580.9970279999999
 31
0.000000000000000
  0
LINE
  5
20C
100
AcDbEntity
  8
1
  6
CONTINUOUS
 62
7
100
AcDbLine
 10
211.1435970000000
 20
602.4970279999998
 30
0.000000000000000
 11
211.1435970000000
 21
580.9970279999999
 31
0.000000000000000
  0
LINE
  5
20D
100
AcDbEntity
  8
1
  6
CONTINUOUS
 62
7
100
AcDbLine
 10
214.6435970000000
 20
601.4970280000000
 30
0.000000000000000
 11
214.6435970000000
 21
580.4970280000000
 31
0.000000000000000
  0
LINE
  5
20E
100
AcDbEntity
  8
1
  6
CONTINUOUS
 62
7
100
AcDbLine
 10
213.1435970000000
 20
602.4970279999998
 30
0.000000000000000
 11
213.1435970000000
 21
580.9970279999999
 31
0.000000000000000
  0
LINE
  5
20F
100
AcDbEntity
  8
4
  6
CENTER
 62
1
100
AcDbLine
 10
240.9776799999999
 20
602.4314019999998
 30
0.000000000000000
 11
240.9776799999999
 21
583.8970490000000
 31
0.000000000000000
  0
LINE
  5
210
100
AcDbEntity
  8
1
  6
CONTINUOUS
 62
7
100
AcDbLine
 10
250.6435970000000
 20
594.7970279999998
 30
0.000000000000000
 11
258.6435970000000
 21
594.7970279999998
 31
0.000000000000000
  0
LINE
  5
211
100
AcDbEntity
  8
1
  6
CONTINUOUS
 62
7
100
AcDbLine
 10
258.6435970000000
 20
595.1970319999998
 30
0.000000000000000
 11
250.6436129999999
 21
595.1970379999998
 31
0.000000000000000
  0
LINE
  5
212
100
AcDbEntity
  8
1
  6
CONTINUOUS
 62
7
100
AcDbLine
 10
250.6436110000000
 20
594.9970280000000
 30
0.000000000000000
 11
258.6435970000000
 21
594.9970280000000
 31
0.000000000000000
  0
LINE
  5
213
100
AcDbEntity
  8
1
  6
CONTINUOUS
 62
7
100
AcDbLine
 10
250.0776850000000
 20
592.2970279999998
 30
0.000000000000000
 11
284.3079040000000
 21
592.2970279999998
 31
0.000000000000000
  0
LINE
  5
214
100
AcDbEntity
  8
1
  6
CONTINUOUS
 62
7
100
AcDbLine
 10
207.6435969999999
 20
579.4970280000000
 30
0.000000000000000
 11
302.6435970000000
 21
579.4970280000000
 31
0.000000000000000
  0
ARC
  5
215
100
AcDbEntity
  8
1
  6
CONTINUOUS
 62
7
100
AcDbCircle
 10
255.1435970000000
 20
760.0178610000000
 30
0.000000000000000
 40
191.0208330000000
100
AcDbArc
 50
256.0713030000000
 51
283.9286969999997
  0
LINE
  5
216
100
AcDbEntity
  8
1
  6
CONTINUOUS
 62
7
100
AcDbLine
 10
207.6435969999999
 20
580.4970280000000
 30
0.000000000000000
 11
302.6435970000000
 21
580.4970280000000
 31
0.000000000000000
  0
LINE
  5
217
100
AcDbEntity
  8
1
  6
CONTINUOUS
 62
7
100
AcDbLine
 10
207.6435969999999
 20
579.4970280000000
 30
0.000000000000000
 11
207.6435969999999
 21
580.4970280000000
 31
0.000000000000000
  0
ARC
  5
218
100
AcDbEntity
  8
1
  6
CONTINUOUS
 62
7
100
AcDbCircle
 10
209.6435969999999
 20
576.5549889999999
 30
0.000000000000000
 40
2.000000000000000
100
AcDbArc
 50
180.0000000000000
 51
256.0713030000000
  0
LINE
  5
219
100
AcDbEntity
  8
1
  6
CONTINUOUS
 62
7
100
AcDbLine
 10
207.6435969999999
 20
579.4970280000000
 30
0.000000000000000
 11
207.6435969999999
 21
576.5549889999999
 31
0.000000000000000
  0
ARC
  5
21A
100
AcDbEntity
  8
5
  6
PHANTOM
 62
6
100
AcDbCircle
 10
230.7784519999999
 20
565.3642099999997
 30
0.000000000000000
 40
4.000000000000000
100
AcDbArc
 50
120.0800139999999
 51
207.1368370000000
  0
ARC
  5
21B
100
AcDbEntity
  8
5
  6
PHANTOM
 62
6
100
AcDbCircle
 10
395.4321430000000
 20
649.7553849999998
 30
0.000000000000000
 40
191.0208330000000
100
AcDbArc
 50
203.9905259999999
 51
213.2476290000000
  0
ARC
  5
21C
100
AcDbEntity
  8
5
  6
PHANTOM
 62
6
100
AcDbCircle
 10
395.4321430000000
 20
649.7553849999998
 30
0.000000000000000
 40
189.0208330000000
100
AcDbArc
 50
204.3996729999999
 51
211.7562759999999
  0
ARC
  5
21D
100
AcDbEntity
  8
5
  6
PHANTOM
 62
6
100
AcDbCircle
 10
395.4321430000000
 20
649.7553849999998
 30
0.000000000000000
 40
186.0208330000000
100
AcDbArc
 50
212.3783349999999
 51
213.2984930000000
  0
ARC
  5
21E
100
AcDbEntity
  8
5
  6
PHANTOM
 62
6
100
AcDbCircle
 10
239.1160530000000
 20
547.0807929999997
 30
0.000000000000000
 40
1.000000000000000
100
AcDbArc
 50
300.0800139999998
 51
393.2984930000000
  0
ARC
  5
21F
100
AcDbEntity
  8
5
  6
PHANTOM
 62
6
100
AcDbCircle
 10
236.5160390000000
 20
545.5748269999998
 30
0.000000000000000
 40
1.000000000000000
100
AcDbArc
 50
213.2476290000000
 51
300.0800139999998
  0
LINE
  5
220
100
AcDbEntity
  8
5
  6
PHANTOM
 62
6
100
AcDbLine
 10
237.0172489999999
 20
544.7095009999998
 30
0.000000000000000
 11
239.6172620000000
 21
546.2154670000000
 31
0.000000000000000
  0
ARC
  5
221
100
AcDbEntity
  8
5
  6
PHANTOM
 62
6
100
AcDbCircle
 10
235.5590480000000
 20
550.7986929999998
 30
0.000000000000000
 40
1.000000000000000
100
AcDbArc
 50
211.7562759999999
 51
300.0800139999998
  0
ARC
  5
222
100
AcDbEntity
  8
5
  6
PHANTOM
 62
6
100
AcDbCircle
 10
237.4873510000000
 20
549.6043270000000
 30
0.000000000000000
 40
1.000000000000000
100
AcDbArc
 50
32.37833500000000
 51
120.0800139999999
  0
LINE
  5
223
100
AcDbEntity
  8
5
  6
PHANTOM
 62
6
100
AcDbLine
 10
236.0602569999999
 20
549.9333669999997
 30
0.000000000000000
 11
236.9861409999999
 21
550.4696520000000
 31
0.000000000000000
  0
LINE
  5
224
100
AcDbEntity
  8
4
  6
CENTER
 62
1
100
AcDbLine
 10
233.6935970000000
 20
583.1970280000000
 30
0.000000000000000
 11
225.5935969999999
 21
583.1970280000000
 31
0.000000000000000
  0
CIRCLE
  5
225
100
AcDbEntity
  8
1
  6
CONTINUOUS
 62
7
100
AcDbCircle
 10
229.6435970000000
 20
583.1970280000000
 30
0.000000000000000
 40
2.549999999999998
  0
LINE
  5
226
100
AcDbEntity
  8
4
  6
CENTER
 62
1
100
AcDbLine
 10
229.6435970000000
 20
579.1470279999998
 30
0.000000000000000
 11
229.6435970000000
 21
587.2470279999999
 31
0.000000000000000
  0
LINE
  5
227
100
AcDbEntity
  8
5
  6
PHANTOM
 62
6
100
AcDbLine
 10
231.5870260000000
 20
570.4550829999998
 30
0.000000000000000
 11
228.7736129999999
 21
568.8255129999999
 31
0.000000000000000
  0
LINE
  5
228
100
AcDbEntity
  8
1
  6
CONTINUOUS
 62
7
100
AcDbLine
 10
214.6435970000000
 20
592.2970279999998
 30
0.000000000000000
 11
231.8776850000000
 21
592.2970279999998
 31
0.000000000000000
  0
LINE
  5
229
100
AcDbEntity
  8
1
  6
CONTINUOUS
 62
7
100
AcDbLine
 10
213.1435970000000
 20
580.9970279999999
 30
0.000000000000000
 11
211.1435970000000
 21
580.9970279999999
 31
0.000000000000000
  0
ARC
  5
22A
100
AcDbEntity
  8
1
  6
CONTINUOUS
 62
7
100
AcDbCircle
 10
213.1435970000000
 20
587.9970280000000
 30
0.000000000000000
 40
1.000000000000000
100
AcDbArc
 50
270.0000000000000
 51
360.0000000000000
  0
LINE
  5
22B
100
AcDbEntity
  8
4
  6
CENTER
 62
1
100
AcDbLine
 10
234.9776799999999
 20
588.8970490000000
 30
0.000000000000000
 11
246.9776799999999
 21
588.8970490000000
 31
0.000000000000000
  0
LINE
  5
22C
100
AcDbEntity
  8
1
  6
CONTINUOUS
 62
7
100
AcDbLine
 10
246.6435919999999
 20
595.8970469999997
 30
0.000000000000000
 11
246.6435919999999
 21
595.6970280000000
 31
0.000000000000000
  0
LINE
  5
22D
100
AcDbEntity
  8
1
  6
CONTINUOUS
 62
7
100
AcDbLine
 10
243.9776800000000
 20
595.6970280000000
 30
0.000000000000000
 11
248.0776850000000
 21
595.6970280000000
 31
0.000000000000000
  0
LINE
  5
22E
100
AcDbEntity
  8
1
  6
CONTINUOUS
 62
7
100
AcDbLine
 10
238.4776800000000
 20
586.8970490000000
 30
0.000000000000000
 11
243.4776799999999
 21
586.8970490000000
 31
0.000000000000000
  0
LINE
  5
22F
100
AcDbEntity
  8
1
  6
CONTINUOUS
 62
7
100
AcDbLine
 10
243.9776799999999
 20
587.3970489999998
 30
0.000000000000000
 11
243.4776799999998
 21
586.8970489999998
 31
0.000000000000000
  0
LINE
  5
230
100
AcDbEntity
  8
1
  6
CONTINUOUS
 62
7
100
AcDbLine
 10
237.9776799999999
 20
587.3970489999998
 30
0.000000000000000
 11
238.4776799999999
 21
586.8970489999998
 31
0.000000000000000
  0
LINE
  5
231
100
AcDbEntity
  8
1
  6
CONTINUOUS
 62
7
100
AcDbLine
 10
237.9776800000000
 20
587.3970490000000
 30
0.000000000000000
 11
243.9776800000000
 21
587.3970490000000
 31
0.000000000000000
  0
LINE
  5
232
100
AcDbEntity
  8
1
  6
CONTINUOUS
 62
7
100
AcDbLine
 10
243.9776800000000
 20
595.8970490000000
 30
0.000000000000000
 11
243.9776800000000
 21
587.3970490000000
 31
0.000000000000000
  0
LINE
  5
233
100
AcDbEntity
  8
1
  6
CONTINUOUS
 62
7
100
AcDbLine
 10
237.9776800000000
 20
595.8970490000000
 30
0.000000000000000
 11
237.9776800000000
 21
587.3970490000000
 31
0.000000000000000
  0
LINE
  5
234
100
AcDbEntity
  8
1
  6
CONTINUOUS
 62
7
100
AcDbLine
 10
247.9778359999999
 20
595.8970460000000
 30
0.000000000000000
 11
233.9778359999999
 21
595.8970569999998
 31
0.000000000000000
  0
LINE
  5
235
100
AcDbEntity
  8
1
  6
CONTINUOUS
 62
7
100
AcDbLine
 10
233.8776850000000
 20
595.6970280000000
 30
0.000000000000000
 11
237.9776800000000
 21
595.6970280000000
 31
0.000000000000000
  0
LINE
  5
236
100
AcDbEntity
  8
1
  6
CONTINUOUS
 62
7
100
AcDbLine
 10
268.6435970000000
 20
594.7970279999998
 30
0.000000000000000
 11
276.6435969999998
 21
594.7970279999998
 31
0.000000000000000
  0
LINE
  5
237
100
AcDbEntity
  8
1
  6
CONTINUOUS
 62
7
100
AcDbLine
 10
294.3756480000002
 20
580.4970280000002
 30
0.000000000000000
 11
293.0012370000002
 21
585.6263990000002
 31
0.000000000000000
  0
LINE
  5
238
100
AcDbEntity
  8
1
  6
CONTINUOUS
 62
7
100
AcDbLine
 10
298.1435970000000
 20
580.9970279999999
 30
0.000000000000000
 11
296.1435970000000
 21
580.9970279999999
 31
0.000000000000000
  0
ARC
  5
239
100
AcDbEntity
  8
1
  6
CONTINUOUS
 62
7
100
AcDbCircle
 10
284.3079040000000
 20
583.2970279999998
 30
0.000000000000000
 40
9.000000000000000
100
AcDbArc
 50
15.00000000000000
 51
90.00000000000000
  0
ARC
  5
23A
100
AcDbEntity
  8
1
  6
CONTINUOUS
 62
7
100
AcDbCircle
 10
296.1435970000000
 20
587.9970280000000
 30
0.000000000000000
 40
1.000000000000000
100
AcDbArc
 50
180.0000000000000
 51
270.0000000000000
  0
LINE
  5
23B
100
AcDbEntity
  8
1
  6
CONTINUOUS
 62
7
100
AcDbLine
 10
302.6435970000000
 20
579.4970280000000
 30
0.000000000000000
 11
302.6435970000000
 21
580.4970280000000
 31
0.000000000000000
  0
LINE
  5
23C
100
AcDbEntity
  8
1
  6
CONTINUOUS
 62
7
100
AcDbLine
 10
302.6435970000000
 20
579.4970280000000
 30
0.000000000000000
 11
302.6435970000000
 21
576.5549889999999
 31
0.000000000000000
  0
ARC
  5
23D
100
AcDbEntity
  8
1
  6
CONTINUOUS
 62
7
100
AcDbCircle
 10
300.6435970000000
 20
576.5549889999999
 30
0.000000000000000
 40
2.000000000000000
100
AcDbArc
 50
283.9286969999997
 51
360.0000000000000
  0
LINE
  5
23E
100
AcDbEntity
  8
1
  6
CONTINUOUS
 62
7
100
AcDbLine
 10
254.3436020000000
 20
600.4970409999997
 30
0.000000000000000
 11
255.5890559999999
 21
601.4970280000000
 31
0.000000000000000
  0
ARC
  5
23F
100
AcDbEntity
  8
1
  6
CONTINUOUS
 62
7
100
AcDbCircle
 10
254.3436020000000
 20
600.4970409999997
 30
0.000000000000000
 40
2.299999999999998
100
AcDbArc
 50
269.9999060000000
 51
308.7613090000000
  0
LINE
  5
240
100
AcDbEntity
  8
1
  6
CONTINUOUS
 62
7
100
AcDbLine
 10
258.6435969999998
 20
597.4970379999995
 30
0.000000000000000
 11
250.6436110000000
 21
597.4970439999994
 31
0.000000000000000
  0
LINE
  5
241
100
AcDbEntity
  8
1
  6
CONTINUOUS
 62
7
100
AcDbLine
 10
265.6435920000000
 20
602.4970279999998
 30
0.000000000000000
 11
216.0935920000000
 21
602.4970279999998
 31
0.000000000000000
  0
LINE
  5
242
100
AcDbEntity
  8
1
  6
CONTINUOUS
 62
7
100
AcDbLine
 10
296.1435970000000
 20
604.4970280000000
 30
0.000000000000000
 11
213.1435970000000
 21
604.4970280000000
 31
0.000000000000000
  0
LINE
  5
243
100
AcDbEntity
  8
1
  6
CONTINUOUS
 62
7
100
AcDbLine
 10
296.1435970000000
 20
602.4970279999998
 30
0.000000000000000
 11
213.1435970000000
 21
602.4970279999998
 31
0.000000000000000
  0
LINE
  5
244
100
AcDbEntity
  8
1
  6
CONTINUOUS
 62
7
100
AcDbLine
 10
295.1435969999998
 20
601.4970280000000
 30
0.000000000000000
 11
214.1435970000000
 21
601.4970280000000
 31
0.000000000000000
  0
LINE
  5
245
100
AcDbEntity
  8
1
  6
CONTINUOUS
 62
7
100
AcDbLine
 10
231.8776850000000
 20
599.4970280000000
 30
0.000000000000000
 11
233.8776850000000
 21
599.4970280000000
 31
0.000000000000000
  0
LINE
  5
246
100
AcDbEntity
  8
1
  6
CONTINUOUS
 62
7
100
AcDbLine
 10
214.6435970000000
 20
602.4970279999998
 30
0.000000000000000
 11
250.6435970000000
 21
602.4970279999998
 31
0.000000000000000
  0
ARC
  5
247
100
AcDbEntity
  8
1
  6
CONTINUOUS
 62
7
100
AcDbCircle
 10
213.1435970000000
 20
602.4970279999998
 30
0.000000000000000
 40
2.000000000000000
100
AcDbArc
 50
90.00000000000000
 51
180.0000000000000
  0
LINE
  5
248
100
AcDbEntity
  8
1
  6
CONTINUOUS
 62
7
100
AcDbLine
 10
254.3436020000000
 20
600.4970410000000
 30
0.000000000000000
 11
250.6435970000000
 21
600.4970440000003
 31
0.000000000000000
  0
LINE
  5
249
100
AcDbEntity
  8
1
  6
CONTINUOUS
 62
7
100
AcDbLine
 10
248.0776850000000
 20
599.4970280000000
 30
0.000000000000000
 11
250.0776850000000
 21
599.4970280000000
 31
0.000000000000000
  0
ARC
  5
24A
100
AcDbEntity
  8
1
  6
CONTINUOUS
 62
7
100
AcDbCircle
 10
240.9776799999999
 20
591.7470540000000
 30
0.000000000000000
 40
9.250000000000000
100
AcDbArc
 50
71.07535600000000
 51
108.9246439999999
  0
LINE
  5
24B
100
AcDbEntity
  8
1
  6
CONTINUOUS
 62
7
100
AcDbLine
 10
242.5435919999999
 20
600.4970280000000
 30
0.000000000000000
 11
246.6435919999999
 21
600.4970280000000
 31
0.000000000000000
  0
LINE
  5
24C
100
AcDbEntity
  8
1
  6
CONTINUOUS
 62
7
100
AcDbLine
 10
248.0776850000000
 20
600.4970460000000
 30
0.000000000000000
 11
234.9128759999999
 21
600.4970570000000
 31
0.000000000000000
  0
LINE
  5
24D
100
AcDbEntity
  8
1
  6
CONTINUOUS
 62
7
100
AcDbLine
 10
254.3436000000000
 20
598.1970409999998
 30
0.000000000000000
 11
250.6435970000000
 21
598.1970439999998
 31
0.000000000000000
  0
ARC
  5
24E
100
AcDbEntity
  8
1
  6
CONTINUOUS
 62
7
100
AcDbCircle
 10
240.9776799999999
 20
589.4470560000000
 30
0.000000000000000
 40
9.250000000000000
100
AcDbArc
 50
71.07535600000000
 51
108.9246439999999
  0
LINE
  5
24F
100
AcDbEntity
  8
1
  6
CONTINUOUS
 62
7
100
AcDbLine
 10
233.9778359999999
 20
598.1970570000002
 30
0.000000000000000
 11
234.9128660000000
 21
598.1970570000002
 31
0.000000000000000
  0
LINE
  5
250
100
AcDbEntity
  8
1
  6
CONTINUOUS
 62
7
100
AcDbLine
 10
248.0776850000000
 20
598.1970460000000
 30
0.000000000000000
 11
234.9128739999999
 21
598.1970570000002
 31
0.000000000000000
  0
LINE
  5
251
100
AcDbEntity
  8
1
  6
CONTINUOUS
 62
7
100
AcDbLine
 10
234.9128759999999
 20
600.4970570000000
 30
0.000000000000000
 11
234.9128719999999
 21
598.1970570000004
 31
0.000000000000000
  0
LINE
  5
252
100
AcDbEntity
  8
1
  6
CONTINUOUS
 62
7
100
AcDbLine
 10
276.6435969999998
 20
602.4970279999998
 30
0.000000000000000
 11
294.6435969999999
 21
602.4970279999998
 31
0.000000000000000
  0
LINE
  5
253
100
AcDbEntity
  8
1
  6
CONTINUOUS
 62
7
100
AcDbLine
 10
261.7435970000000
 20
605.4970280000000
 30
0.000000000000000
 11
265.5435969999999
 21
605.4970280000000
 31
0.000000000000000
  0
LINE
  5
254
100
AcDbEntity
  8
1
  6
CONTINUOUS
 62
7
100
AcDbLine
 10
261.2435970000000
 20
604.9970280000000
 30
0.000000000000000
 11
261.2435970000000
 21
604.4970280000000
 31
0.000000000000000
  0
LINE
  5
255
100
AcDbEntity
  8
1
  6
CONTINUOUS
 62
7
100
AcDbLine
 10
266.0435969999999
 20
604.9970280000000
 30
0.000000000000000
 11
266.0435969999999
 21
604.4970280000000
 31
0.000000000000000
  0
LINE
  5
256
100
AcDbEntity
  8
1
  6
CONTINUOUS
 62
7
100
AcDbLine
 10
261.2435969999999
 20
604.9970279999998
 30
0.000000000000000
 11
261.7435969999999
 21
605.4970279999998
 31
0.000000000000000
  0
LINE
  5
257
100
AcDbEntity
  8
1
  6
CONTINUOUS
 62
7
100
AcDbLine
 10
266.0435969999999
 20
604.9970279999998
 30
0.000000000000000
 11
265.5435969999999
 21
605.4970279999998
 31
0.000000000000000
  0
LINE
  5
258
100
AcDbEntity
  8
1
  6
CONTINUOUS
 62
7
100
AcDbLine
 10
261.2435970000000
 20
604.9970280000000
 30
0.000000000000000
 11
266.0435969999999
 21
604.9970280000000
 31
0.000000000000000
  0
LINE
  5
259
100
AcDbEntity
  8
1
  6
CONTINUOUS
 62
7
100
AcDbLine
 10
257.6436249999998
 20
600.1970390000002
 30
0.000000000000000
 11
257.6436170000000
 21
597.4970479999998
 31
0.000000000000000
  0
LINE
  5
25A
100
AcDbEntity
  8
1
  6
CONTINUOUS
 62
7
100
AcDbLine
 10
269.6436029999999
 20
601.4970279999998
 30
0.000000000000000
 11
269.6435939999998
 21
597.4970289999997
 31
0.000000000000000
  0
LINE
  5
25B
100
AcDbEntity
  8
1
  6
CONTINUOUS
 62
7
100
AcDbLine
 10
269.6435999999998
 20
597.4970289999997
 30
0.000000000000000
 11
268.6435970000000
 21
597.4970299999995
 31
0.000000000000000
  0
LINE
  5
25C
100
AcDbEntity
  8
1
  6
CONTINUOUS
 62
7
100
AcDbLine
 10
258.6435970000000
 20
599.9970280000000
 30
0.000000000000000
 11
268.6435970000000
 21
599.9970280000000
 31
0.000000000000000
  0
LINE
  5
25D
100
AcDbEntity
  8
1
  6
CONTINUOUS
 62
7
100
AcDbLine
 10
269.6436019999999
 20
600.1970290000000
 30
0.000000000000000
 11
257.6436249999998
 21
600.1970390000000
 31
0.000000000000000
  0
LINE
  5
25E
100
AcDbEntity
  8
1
  6
CONTINUOUS
 62
7
100
AcDbLine
 10
260.6435970000000
 20
600.1970360000000
 30
0.000000000000000
 11
260.6435970000000
 21
599.9970280000000
 31
0.000000000000000
  0
LINE
  5
25F
100
AcDbEntity
  8
1
  6
CONTINUOUS
 62
7
100
AcDbLine
 10
266.6435970000000
 20
600.1970309999998
 30
0.000000000000000
 11
266.6435970000000
 21
599.9970280000000
 31
0.000000000000000
  0
LINE
  5
260
100
AcDbEntity
  8
1
  6
CONTINUOUS
 62
7
100
AcDbLine
 10
269.6436049999999
 20
602.4970289999997
 30
0.000000000000000
 11
257.6436269999999
 21
602.4970390000000
 31
0.000000000000000
  0
LINE
  5
261
100
AcDbEntity
  8
1
  6
CONTINUOUS
 62
7
100
AcDbLine
 10
255.7835799999998
 20
598.7035909999997
 30
0.000000000000000
 11
257.6436249999998
 21
600.1970390000000
 31
0.000000000000000
  0
ARC
  5
262
100
AcDbEntity
  8
1
  6
CONTINUOUS
 62
7
100
AcDbCircle
 10
296.1435970000000
 20
602.4970279999998
 30
0.000000000000000
 40
2.000000000000000
100
AcDbArc
 50
0.000000000000000
 51
90.00000000000000
  0
LINE
  5
263
100
AcDbEntity
  8
1
  6
CONTINUOUS
 62
7
100
AcDbLine
 10
48.57422800000001
 20
257.1155569999999
 30
0.000000000000000
 11
48.57422800000001
 21
387.1155569999999
 31
0.000000000000000
  0
LINE
  5
264
100
AcDbEntity
  8
1
  6
CONTINUOUS
 62
7
100
AcDbLine
 10
56.53982300000000
 20
268.1155569999999
 30
0.000000000000000
 11
56.53982300000000
 21
376.1155569999999
 31
0.000000000000000
  0
LINE
  5
265
100
AcDbEntity
  8
1
  6
CONTINUOUS
 62
7
100
AcDbLine
 10
60.57422800000001
 20
270.1155569999999
 30
0.000000000000000
 11
60.57422800000001
 21
374.1155569999999
 31
0.000000000000000
  0
LINE
  5
266
100
AcDbEntity
  8
1
  6
CONTINUOUS
 62
7
100
AcDbLine
 10
50.07422800000000
 20
257.1155569999999
 30
0.000000000000000
 11
50.07422800000000
 21
387.1155569999999
 31
0.000000000000000
  0
LINE
  5
267
100
AcDbEntity
  8
1
  6
CONTINUOUS
 62
7
100
AcDbLine
 10
49.07422799999999
 20
257.1155569999999
 30
0.000000000000000
 11
49.07422799999999
 21
387.1155569999999
 31
0.000000000000000
  0
LINE
  5
268
100
AcDbEntity
  8
1
  6
CONTINUOUS
 62
7
100
AcDbLine
 10
25.07422800000000
 20
257.1155569999999
 30
0.000000000000000
 11
25.07422800000000
 21
387.1155569999999
 31
0.000000000000000
  0
LINE
  5
269
100
AcDbEntity
  8
4
  6
CENTER
 62
1
100
AcDbLine
 10
46.37422800000000
 20
390.1155569999998
 30
0.000000000000000
 11
46.37422800000000
 21
254.1155569999999
 31
0.000000000000000
  0
LINE
  5
26A
100
AcDbEntity
  8
4
  6
CENTER
 62
1
100
AcDbLine
 10
26.07422000000000
 20
230.1155529999999
 30
0.000000000000000
 11
43.87422800000000
 21
230.1155529999999
 31
0.000000000000000
  0
LINE
  5
26B
100
AcDbEntity
  8
4
  6
CENTER
 62
1
100
AcDbLine
 10
22.07422800000000
 20
322.1155569999999
 30
0.000000000000000
 11
63.57422800000001
 21
322.1155569999999
 31
0.000000000000000
  0
LINE
  5
26C
100
AcDbEntity
  8
1
  6
CONTINUOUS
 62
7
100
AcDbLine
 10
48.57422800000001
 20
257.1155569999999
 30
0.000000000000000
 11
25.07422800000000
 21
257.1155569999999
 31
0.000000000000000
  0
LINE
  5
26D
100
AcDbEntity
  8
1
  6
CONTINUOUS
 62
7
100
AcDbLine
 10
31.87422800000000
 20
227.1155529999998
 30
0.000000000000000
 11
40.37422800000000
 21
227.1155529999998
 31
0.000000000000000
  0
LINE
  5
26E
100
AcDbEntity
  8
1
  6
CONTINUOUS
 62
7
100
AcDbLine
 10
31.87422800000000
 20
233.1155529999998
 30
0.000000000000000
 11
40.37422800000000
 21
233.1155529999998
 31
0.000000000000000
  0
LINE
  5
26F
100
AcDbEntity
  8
4
  6
CENTER
 62
1
100
AcDbLine
 10
21.07422800000000
 20
282.1155569999999
 30
0.000000000000000
 11
37.47084400000000
 21
282.1155569999999
 31
0.000000000000000
  0
LINE
  5
270
100
AcDbEntity
  8
4
  6
CENTER
 62
1
100
AcDbLine
 10
21.07422800000000
 20
299.9599119999999
 30
0.000000000000000
 11
37.47084400000000
 21
299.9599119999999
 31
0.000000000000000
  0
LINE
  5
271
100
AcDbEntity
  8
1
  6
CONTINUOUS
 62
7
100
AcDbLine
 10
25.07422800000000
 20
271.8516249999999
 30
0.000000000000000
 11
41.33815999999997
 21
271.8516249999999
 31
0.000000000000000
  0
LINE
  5
272
100
AcDbEntity
  8
1
  6
CONTINUOUS
 62
7
100
AcDbLine
 10
25.07422800000000
 20
267.3794889999999
 30
0.000000000000000
 11
41.33815999999997
 21
267.3794889999999
 31
0.000000000000000
  0
LINE
  5
273
100
AcDbEntity
  8
5
  6
PHANTOM
 62
6
100
AcDbLine
 10
31.87422800000000
 20
239.6755640000000
 30
0.000000000000000
 11
40.37422800000000
 21
239.6755640000000
 31
0.000000000000000
  0
LINE
  5
274
100
AcDbEntity
  8
5
  6
PHANTOM
 62
6
100
AcDbLine
 10
31.87422800000000
 20
245.6755640000000
 30
0.000000000000000
 11
40.37422800000000
 21
245.6755640000000
 31
0.000000000000000
  0
LINE
  5
275
100
AcDbEntity
  8
4
  6
CENTER
 62
1
100
AcDbLine
 10
26.07422000000000
 20
242.6755640000000
 30
0.000000000000000
 11
43.87422800000000
 21
242.6755640000000
 31
0.000000000000000
  0
LINE
  5
276
100
AcDbEntity
  8
5
  6
PHANTOM
 62
6
100
AcDbLine
 10
40.37422800000000
 20
239.6755640000000
 30
0.000000000000000
 11
40.37422800000000
 21
245.6755640000000
 31
0.000000000000000
  0
LINE
  5
277
100
AcDbEntity
  8
5
  6
PHANTOM
 62
6
100
AcDbLine
 10
40.87422800000000
 20
240.1755639999999
 30
0.000000000000000
 11
40.87422800000000
 21
245.1755640000000
 31
0.000000000000000
  0
CIRCLE
  5
278
100
AcDbEntity
  8
5
  6
PHANTOM
 62
6
100
AcDbCircle
 10
38.87422800000000
 20
242.6755640000000
 30
0.000000000000000
 40
1.000000000000000
  0
LINE
  5
279
100
AcDbEntity
  8
4
  6
CENTER
 62
1
100
AcDbLine
 10
38.87422800000000
 20
240.1755639999999
 30
0.000000000000000
 11
38.87422800000000
 21
245.1755640000000
 31
0.000000000000000
  0
LINE
  5
27A
100
AcDbEntity
  8
5
  6
PHANTOM
 62
6
100
AcDbLine
 10
40.37422799999999
 20
239.6755640000001
 30
0.000000000000000
 11
40.87422799999996
 21
240.1755640000000
 31
0.000000000000000
  0
LINE
  5
27B
100
AcDbEntity
  8
4
  6
CENTER
 62
1
100
AcDbLine
 10
38.87422800000000
 20
227.6155530000000
 30
0.000000000000000
 11
38.87422800000000
 21
232.6155529999998
 31
0.000000000000000
  0
LINE
  5
27C
100
AcDbEntity
  8
1
  6
CONTINUOUS
 62
7
100
AcDbLine
 10
40.87422800000000
 20
227.6155530000000
 30
0.000000000000000
 11
40.87422800000000
 21
232.6155529999998
 31
0.000000000000000
  0
CIRCLE
  5
27D
100
AcDbEntity
  8
1
  6
CONTINUOUS
 62
7
100
AcDbCircle
 10
38.87422800000000
 20
230.1155529999999
 30
0.000000000000000
 40
1.000000000000000
  0
LINE
  5
27E
100
AcDbEntity
  8
1
  6
CONTINUOUS
 62
7
100
AcDbLine
 10
40.37422800000000
 20
227.1155529999998
 30
0.000000000000000
 11
40.37422800000000
 21
233.1155529999998
 31
0.000000000000000
  0
LINE
  5
27F
100
AcDbEntity
  8
1
  6
CONTINUOUS
 62
7
100
AcDbLine
 10
40.37422800000002
 20
227.1155529999999
 30
0.000000000000000
 11
40.87422799999999
 21
227.6155530000000
 31
0.000000000000000
  0
LINE
  5
280
100
AcDbEntity
  8
1
  6
CONTINUOUS
 62
7
100
AcDbLine
 10
40.37422799999995
 20
233.1155529999996
 30
0.000000000000000
 11
40.87422799999993
 21
232.6155529999997
 31
0.000000000000000
  0
LINE
  5
281
100
AcDbEntity
  8
1
  6
CONTINUOUS
 62
7
100
AcDbLine
 10
60.57422800000001
 20
260.9155569999999
 30
0.000000000000000
 11
60.57422800000001
 21
267.6155569999999
 31
0.000000000000000
  0
LINE
  5
282
100
AcDbEntity
  8
1
  6
CONTINUOUS
 62
7
100
AcDbLine
 10
49.07422799999999
 20
265.1155569999999
 30
0.000000000000000
 11
48.57422800000001
 21
265.1155569999999
 31
0.000000000000000
  0
LINE
  5
283
100
AcDbEntity
  8
1
  6
CONTINUOUS
 62
7
100
AcDbLine
 10
49.07422799999999
 20
257.1155569999999
 30
0.000000000000000
 11
50.07422800000000
 21
257.1155569999999
 31
0.000000000000000
  0
LINE
  5
284
100
AcDbEntity
  8
1
  6
CONTINUOUS
 62
7
100
AcDbLine
 10
50.07422800000000
 20
257.1155569999999
 30
0.000000000000000
 11
56.77422800000000
 21
257.1155569999999
 31
0.000000000000000
  0
ARC
  5
285
100
AcDbEntity
  8
1
  6
CONTINUOUS
 62
7
100
AcDbCircle
 10
56.77422800000000
 20
260.9155569999999
 30
0.000000000000000
 40
3.799999999999998
100
AcDbArc
 50
270.0000000000000
 51
360.0000000000000
  0
LINE
  5
286
100
AcDbEntity
  8
5
  6
PHANTOM
 62
6
100
AcDbLine
 10
40.37422799999999
 20
245.6755639999999
 30
0.000000000000000
 11
40.87422799999996
 21
245.1755640000000
 31
0.000000000000000
  0
LINE
  5
287
100
AcDbEntity
  8
1
  6
CONTINUOUS
 62
7
100
AcDbLine
 10
60.07422800000000
 20
268.1155569999999
 30
0.000000000000000
 11
56.53982300000000
 21
268.1155569999999
 31
0.000000000000000
  0
LINE
  5
288
100
AcDbEntity
  8
1
  6
CONTINUOUS
 62
7
100
AcDbLine
 10
59.57422799999999
 20
269.1155569999998
 30
0.000000000000000
 11
56.53982300000000
 21
269.1155569999998
 31
0.000000000000000
  0
ARC
  5
289
100
AcDbEntity
  8
1
  6
CONTINUOUS
 62
7
100
AcDbCircle
 10
60.07422800000000
 20
267.6155569999999
 30
0.000000000000000
 40
0.5000000000000000
100
AcDbArc
 50
0.000000000000000
 51
90.00000000000000
  0
ARC
  5
28A
100
AcDbEntity
  8
1
  6
CONTINUOUS
 62
7
100
AcDbCircle
 10
59.57422799999999
 20
270.1155569999999
 30
0.000000000000000
 40
1.000000000000000
100
AcDbArc
 50
270.0000000000000
 51
360.0000000000000
  0
ARC
  5
28B
100
AcDbEntity
  8
1
  6
CONTINUOUS
 62
7
100
AcDbCircle
 10
41.33815999999997
 20
269.6155569999999
 30
0.000000000000000
 40
2.236067999999999
100
AcDbArc
 50
270.0000000000000
 51
450.0000000000000
  0
ARC
  5
28C
100
AcDbEntity
  8
5
  6
PHANTOM
 62
6
100
AcDbCircle
 10
38.32421999999999
 20
242.6755640000000
 30
0.000000000000000
 40
9.250000000000000
100
AcDbArc
 50
161.0753560000000
 51
198.9246440000000
  0
LINE
  5
28D
100
AcDbEntity
  8
1
  6
CONTINUOUS
 62
7
100
AcDbLine
 10
29.57422000000000
 20
223.1155719999999
 30
0.000000000000000
 11
29.57422000000000
 21
257.1155569999999
 31
0.000000000000000
  0
LINE
  5
28E
100
AcDbEntity
  8
1
  6
CONTINUOUS
 62
7
100
AcDbLine
 10
31.87422800000000
 20
223.1155719999999
 30
0.000000000000000
 11
31.87422800000000
 21
257.1155569999999
 31
0.000000000000000
  0
ARC
  5
28F
100
AcDbEntity
  8
1
  6
CONTINUOUS
 62
7
100
AcDbCircle
 10
38.32421999999999
 20
230.1155529999999
 30
0.000000000000000
 40
9.250000000000000
100
AcDbArc
 50
161.0753560000000
 51
198.9246440000000
  0
LINE
  5
290
100
AcDbEntity
  8
1
  6
CONTINUOUS
 62
7
100
AcDbLine
 10
29.57422000000000
 20
223.1155719999999
 30
0.000000000000000
 11
31.87422800000000
 21
223.1155719999999
 31
0.000000000000000
  0
ARC
  5
291
100
AcDbEntity
  8
1
  6
CONTINUOUS
 62
7
100
AcDbCircle
 10
23.07422800000000
 20
269.6155569999999
 30
0.000000000000000
 40
3.000000000000000
100
AcDbArc
 50
311.8103150000000
 51
408.1896850000000
  0
LINE
  5
292
100
AcDbEntity
  8
1
  6
CONTINUOUS
 62
7
100
AcDbLine
 10
24.57422800000000
 20
302.3599120000000
 30
0.000000000000000
 11
25.07422800000000
 21
302.3599120000000
 31
0.000000000000000
  0
LINE
  5
293
100
AcDbEntity
  8
1
  6
CONTINUOUS
 62
7
100
AcDbLine
 10
24.57422800000001
 20
297.5599120000002
 30
0.000000000000000
 11
24.07422800000001
 21
298.0599119999999
 31
0.000000000000000
  0
LINE
  5
294
100
AcDbEntity
  8
1
  6
CONTINUOUS
 62
7
100
AcDbLine
 10
24.57422800000000
 20
297.5599120000000
 30
0.000000000000000
 11
25.07422800000000
 21
297.5599120000000
 31
0.000000000000000
  0
LINE
  5
295
100
AcDbEntity
  8
1
  6
CONTINUOUS
 62
7
100
AcDbLine
 10
24.07422800000000
 20
301.8599120000000
 30
0.000000000000000
 11
24.07422800000000
 21
298.0599119999999
 31
0.000000000000000
  0
LINE
  5
296
100
AcDbEntity
  8
1
  6
CONTINUOUS
 62
7
100
AcDbLine
 10
24.57422799999998
 20
302.3599120000000
 30
0.000000000000000
 11
24.07422799999998
 21
301.8599120000000
 31
0.000000000000000
  0
LINE
  5
297
100
AcDbEntity
  8
1
  6
CONTINUOUS
 62
7
100
AcDbLine
 10
24.57422800000000
 20
302.3599120000000
 30
0.000000000000000
 11
24.57422800000000
 21
297.5599120000000
 31
0.000000000000000
  0
LINE
  5
298
100
AcDbEntity
  8
4
  6
CENTER
 62
1
100
AcDbLine
 10
26.07422000000000
 20
414.1155499999999
 30
0.000000000000000
 11
43.87422800000000
 21
414.1155499999999
 31
0.000000000000000
  0
LINE
  5
299
100
AcDbEntity
  8
1
  6
CONTINUOUS
 62
7
100
AcDbLine
 10
48.57422800000001
 20
387.1155569999999
 30
0.000000000000000
 11
25.07422800000000
 21
387.1155569999999
 31
0.000000000000000
  0
LINE
  5
29A
100
AcDbEntity
  8
1
  6
CONTINUOUS
 62
7
100
AcDbLine
 10
31.87422800000000
 20
411.1155499999998
 30
0.000000000000000
 11
40.37422800000000
 21
411.1155499999998
 31
0.000000000000000
  0
LINE
  5
29B
100
AcDbEntity
  8
1
  6
CONTINUOUS
 62
7
100
AcDbLine
 10
31.87422800000000
 20
417.1155500000000
 30
0.000000000000000
 11
40.37422800000000
 21
417.1155500000000
 31
0.000000000000000
  0
LINE
  5
29C
100
AcDbEntity
  8
1
  6
CONTINUOUS
 62
7
100
AcDbLine
 10
25.07422800000000
 20
372.3794889999999
 30
0.000000000000000
 11
41.33815999999997
 21
372.3794889999999
 31
0.000000000000000
  0
LINE
  5
29D
100
AcDbEntity
  8
1
  6
CONTINUOUS
 62
7
100
AcDbLine
 10
25.07422800000000
 20
376.8516250000000
 30
0.000000000000000
 11
41.33815999999997
 21
376.8516250000000
 31
0.000000000000000
  0
LINE
  5
29E
100
AcDbEntity
  8
4
  6
CENTER
 62
1
100
AcDbLine
 10
26.07422000000000
 20
401.5555500000000
 30
0.000000000000000
 11
43.87422800000000
 21
401.5555500000000
 31
0.000000000000000
  0
LINE
  5
29F
100
AcDbEntity
  8
5
  6
PHANTOM
 62
6
100
AcDbLine
 10
31.87422800000000
 20
398.5555500000000
 30
0.000000000000000
 11
40.37422800000000
 21
398.5555500000000
 31
0.000000000000000
  0
LINE
  5
2A0
100
AcDbEntity
  8
5
  6
PHANTOM
 62
6
100
AcDbLine
 10
31.87422800000000
 20
404.5555499999998
 30
0.000000000000000
 11
40.37422800000000
 21
404.5555499999998
 31
0.000000000000000
  0
LINE
  5
2A1
100
AcDbEntity
  8
4
  6
CENTER
 62
1
100
AcDbLine
 10
22.07422800000000
 20
344.2712009999998
 30
0.000000000000000
 11
37.47084400000000
 21
344.2712009999998
 31
0.000000000000000
  0
LINE
  5
2A2
100
AcDbEntity
  8
4
  6
CENTER
 62
1
100
AcDbLine
 10
22.07422800000000
 20
362.1155569999999
 30
0.000000000000000
 11
37.47084400000000
 21
362.1155569999999
 31
0.000000000000000
  0
LINE
  5
2A3
100
AcDbEntity
  8
1
  6
CONTINUOUS
 62
7
100
AcDbLine
 10
60.57422800000001
 20
376.6155569999999
 30
0.000000000000000
 11
60.57422800000001
 21
383.3155569999998
 31
0.000000000000000
  0
LINE
  5
2A4
100
AcDbEntity
  8
1
  6
CONTINUOUS
 62
7
100
AcDbLine
 10
60.07422800000000
 20
376.1155569999999
 30
0.000000000000000
 11
56.53982300000000
 21
376.1155569999999
 31
0.000000000000000
  0
LINE
  5
2A5
100
AcDbEntity
  8
1
  6
CONTINUOUS
 62
7
100
AcDbLine
 10
59.57422799999999
 20
375.1155569999998
 30
0.000000000000000
 11
56.53982300000000
 21
375.1155569999998
 31
0.000000000000000
  0
ARC
  5
2A6
100
AcDbEntity
  8
1
  6
CONTINUOUS
 62
7
100
AcDbCircle
 10
60.07422800000000
 20
376.6155569999999
 30
0.000000000000000
 40
0.5000000000000000
100
AcDbArc
 50
270.0000000000000
 51
360.0000000000000
  0
ARC
  5
2A7
100
AcDbEntity
  8
1
  6
CONTINUOUS
 62
7
100
AcDbCircle
 10
59.57422799999999
 20
374.1155569999999
 30
0.000000000000000
 40
1.000000000000000
100
AcDbArc
 50
0.000000000000000
 51
90.00000000000000
  0
ARC
  5
2A8
100
AcDbEntity
  8
1
  6
CONTINUOUS
 62
7
100
AcDbCircle
 10
41.33815999999997
 20
374.6155569999999
 30
0.000000000000000
 40
2.236067999999999
100
AcDbArc
 50
270.0000000000000
 51
450.0000000000000
  0
LINE
  5
2A9
100
AcDbEntity
  8
4
  6
CENTER
 62
1
100
AcDbLine
 10
38.87422800000000
 20
404.0555499999998
 30
0.000000000000000
 11
38.87422800000000
 21
399.0555499999999
 31
0.000000000000000
  0
LINE
  5
2AA
100
AcDbEntity
  8
5
  6
PHANTOM
 62
6
100
AcDbLine
 10
40.87422800000000
 20
404.0555499999998
 30
0.000000000000000
 11
40.87422800000000
 21
399.0555499999999
 31
0.000000000000000
  0
LINE
  5
2AB
100
AcDbEntity
  8
5
  6
PHANTOM
 62
6
100
AcDbLine
 10
40.37422800000000
 20
404.5555499999998
 30
0.000000000000000
 11
40.37422800000000
 21
398.5555500000000
 31
0.000000000000000
  0
LINE
  5
2AC
100
AcDbEntity
  8
1
  6
CONTINUOUS
 62
7
100
AcDbLine
 10
49.07422799999999
 20
379.1155569999999
 30
0.000000000000000
 11
48.57422800000001
 21
379.1155569999999
 31
0.000000000000000
  0
ARC
  5
2AD
100
AcDbEntity
  8
1
  6
CONTINUOUS
 62
7
100
AcDbCircle
 10
56.77422800000000
 20
383.3155569999998
 30
0.000000000000000
 40
3.799999999999998
100
AcDbArc
 50
0.000000000000000
 51
90.00000000000000
  0
LINE
  5
2AE
100
AcDbEntity
  8
1
  6
CONTINUOUS
 62
7
100
AcDbLine
 10
49.07422799999999
 20
387.1155569999999
 30
0.000000000000000
 11
50.07422800000000
 21
387.1155569999999
 31
0.000000000000000
  0
LINE
  5
2AF
100
AcDbEntity
  8
1
  6
CONTINUOUS
 62
7
100
AcDbLine
 10
50.07422800000000
 20
387.1155569999999
 30
0.000000000000000
 11
56.77422800000000
 21
387.1155569999999
 31
0.000000000000000
  0
LINE
  5
2B0
100
AcDbEntity
  8
5
  6
PHANTOM
 62
6
100
AcDbLine
 10
40.37422800000004
 20
398.5555499999999
 30
0.000000000000000
 11
40.87422800000004
 21
399.0555499999999
 31
0.000000000000000
  0
LINE
  5
2B1
100
AcDbEntity
  8
1
  6
CONTINUOUS
 62
7
100
AcDbLine
 10
40.37422799999999
 20
417.1155500000000
 30
0.000000000000000
 11
40.87422799999999
 21
416.6155500000000
 31
0.000000000000000
  0
CIRCLE
  5
2B2
100
AcDbEntity
  8
1
  6
CONTINUOUS
 62
7
100
AcDbCircle
 10
38.87422800000000
 20
414.1155499999999
 30
0.000000000000000
 40
1.000000000000000
  0
LINE
  5
2B3
100
AcDbEntity
  8
1
  6
CONTINUOUS
 62
7
100
AcDbLine
 10
40.37422799999999
 20
411.1155499999998
 30
0.000000000000000
 11
40.87422799999999
 21
411.6155499999998
 31
0.000000000000000
  0
LINE
  5
2B4
100
AcDbEntity
  8
5
  6
PHANTOM
 62
6
100
AcDbLine
 10
40.37422799999999
 20
404.5555499999998
 30
0.000000000000000
 11
40.87422799999999
 21
404.0555499999998
 31
0.000000000000000
  0
CIRCLE
  5
2B5
100
AcDbEntity
  8
5
  6
PHANTOM
 62
6
100
AcDbCircle
 10
38.87422800000000
 20
401.5555500000000
 30
0.000000000000000
 40
1.000000000000000
  0
LINE
  5
2B6
100
AcDbEntity
  8
4
  6
CENTER
 62
1
100
AcDbLine
 10
38.87422800000000
 20
416.6155500000000
 30
0.000000000000000
 11
38.87422800000000
 21
411.6155499999998
 31
0.000000000000000
  0
LINE
  5
2B7
100
AcDbEntity
  8
1
  6
CONTINUOUS
 62
7
100
AcDbLine
 10
40.87422800000000
 20
416.6155500000000
 30
0.000000000000000
 11
40.87422800000000
 21
411.6155499999998
 31
0.000000000000000
  0
LINE
  5
2B8
100
AcDbEntity
  8
1
  6
CONTINUOUS
 62
7
100
AcDbLine
 10
40.37422800000000
 20
417.1155500000000
 30
0.000000000000000
 11
40.37422800000000
 21
411.1155499999998
 31
0.000000000000000
  0
LINE
  5
2B9
100
AcDbEntity
  8
1
  6
CONTINUOUS
 62
7
100
AcDbLine
 10
29.57422800000000
 20
421.1155299999998
 30
0.000000000000000
 11
29.57422800000000
 21
387.1155569999999
 31
0.000000000000000
  0
LINE
  5
2BA
100
AcDbEntity
  8
1
  6
CONTINUOUS
 62
7
100
AcDbLine
 10
31.87422800000000
 20
421.1155299999998
 30
0.000000000000000
 11
31.87422800000000
 21
387.1155569999999
 31
0.000000000000000
  0
LINE
  5
2BB
100
AcDbEntity
  8
1
  6
CONTINUOUS
 62
7
100
AcDbLine
 10
24.57422799999998
 20
346.6712009999998
 30
0.000000000000000
 11
24.07422799999998
 21
346.1712009999998
 31
0.000000000000000
  0
LINE
  5
2BC
100
AcDbEntity
  8
1
  6
CONTINUOUS
 62
7
100
AcDbLine
 10
24.57422800000000
 20
346.6712010000000
 30
0.000000000000000
 11
25.07422800000000
 21
346.6712010000000
 31
0.000000000000000
  0
LINE
  5
2BD
100
AcDbEntity
  8
1
  6
CONTINUOUS
 62
7
100
AcDbLine
 10
24.57422800000001
 20
341.8712009999999
 30
0.000000000000000
 11
24.07422800000003
 21
342.3712009999999
 31
0.000000000000000
  0
LINE
  5
2BE
100
AcDbEntity
  8
1
  6
CONTINUOUS
 62
7
100
AcDbLine
 10
24.57422800000000
 20
341.8712010000000
 30
0.000000000000000
 11
25.07422800000000
 21
341.8712010000000
 31
0.000000000000000
  0
LINE
  5
2BF
100
AcDbEntity
  8
1
  6
CONTINUOUS
 62
7
100
AcDbLine
 10
24.07422800000000
 20
346.1712009999998
 30
0.000000000000000
 11
24.07422800000000
 21
342.3712010000000
 31
0.000000000000000
  0
LINE
  5
2C0
100
AcDbEntity
  8
1
  6
CONTINUOUS
 62
7
100
AcDbLine
 10
24.57422800000000
 20
346.6712010000000
 30
0.000000000000000
 11
24.57422800000000
 21
341.8712010000000
 31
0.000000000000000
  0
ARC
  5
2C1
100
AcDbEntity
  8
1
  6
CONTINUOUS
 62
7
100
AcDbCircle
 10
23.07422800000000
 20
374.6155569999999
 30
0.000000000000000
 40
3.000000000000000
100
AcDbArc
 50
311.8103150000000
 51
408.1896850000000
  0
ARC
  5
2C2
100
AcDbEntity
  8
5
  6
PHANTOM
 62
6
100
AcDbCircle
 10
38.32421999999999
 20
401.5555500000000
 30
0.000000000000000
 40
9.250000000000000
100
AcDbArc
 50
161.0753560000000
 51
198.9246440000000
  0
ARC
  5
2C3
100
AcDbEntity
  8
1
  6
CONTINUOUS
 62
7
100
AcDbCircle
 10
38.32421999999999
 20
414.1155499999999
 30
0.000000000000000
 40
9.250000000000000
100
AcDbArc
 50
161.0753560000000
 51
198.9246440000000
  0
LINE
  5
2C4
100
AcDbEntity
  8
1
  6
CONTINUOUS
 62
7
100
AcDbLine
 10
29.57422800000000
 20
421.1155299999998
 30
0.000000000000000
 11
31.87422800000000
 21
421.1155299999998
 31
0.000000000000000
  0
LINE
  5
2C5
100
AcDbEntity
  8
1
  6
CONTINUOUS
 62
7
100
AcDbLine
 10
57.95598500000000
 20
270.1155569999999
 30
0.000000000000000
 11
57.95598500000000
 21
374.1155569999999
 31
0.000000000000000
  0
LINE
  5
2C6
100
AcDbEntity
  8
4
  6
CENTER
 62
1
100
AcDbLine
 10
706.2191490000000
 20
390.1155569999998
 30
0.000000000000000
 11
706.2191490000000
 21
254.1155569999999
 31
0.000000000000000
  0
ENDSEC
  0
SECTION
  2
OBJECTS
  0
DICTIONARY
  5
2F2
100
AcDbDictionary
  3
ACAD_GROUP
350
2F3
  3
ACAD_LAYOUT
350
2F4
  3
ACAD_MLINESTYLE
350
2F5
  0
DICTIONARY
  5
2F3
102
{ACAD_REACTORS
330
2F2
102
}
330
2F2
100
AcDbDictionary
  0
DICTIONARY
  5
2F4
102
{ACAD_REACTORS
330
2F2
102
}
330
2F2
100
AcDbDictionary
  3
Model
350
2F6
  3
ﾚｲｱｳﾄ1
350
2F7
  3
ﾚｲｱｳﾄ2
350
2F8
  0
DICTIONARY
  5
2F5
102
{ACAD_REACTORS
330
2F2
102
}
330
2F2
100
AcDbDictionary
  3
STANDARD
350
2F9
  0
LAYOUT
  5
2F6
102
{ACAD_REACTORS
330
2F4
102
}
330
2F4
100
AcDbPlotSettings
 70
11952
  4
A3
 44
297.000000
 45
420.000000
 73
  1
 72
  1
100
AcDbLayout
  1
Model
 71
0
330
2E9
  0
LAYOUT
  5
2F7
102
{ACAD_REACTORS
330
2F4
102
}
330
2F4
100
AcDbPlotSettings
100
AcDbLayout
  1
ﾚｲｱｳﾄ1
 71
1
330
2EA
  0
LAYOUT
  5
2F8
102
{ACAD_REACTORS
330
2F4
102
}
330
2F4
100
AcDbPlotSettings
100
AcDbLayout
  1
ﾚｲｱｳﾄ2
 71
2
330
2EB
  0
MLINESTYLE
  5
2F9
102
{ACAD_REACTORS
330
2F5
102
}
330
2F5
100
AcDbMlineStyle
  2
STANDARD
 70
     0
  3

 62
   256
 51
90.00
 52
90.00
 71
     2
 49
0.50
 62
   256
  6
BYLAYER
 49
-0.50
 62
   256
  6
BYLAYER
  0
ENDSEC
  0
EOF
