  0
SECTION
  2
HEADER
  9
$ACADVER
  1
AC1015
  9
$ACADMAINTVER
 70
    20
  9
$DWGCODEPAGE
  3
ANSI_932
  9
$INSBASE
 10
0.0
 20
0.0
 30
0.0
  9
$EXTMIN
 10
9.999999064246615
 20
9.999999806846743
 30
0.0
  9
$EXTMAX
 10
718.3532410894937
 20
426.9972400998661
 30
0.0
  9
$LIMMIN
 10
0.0000015376081137
 20
-0.0000001931532552
  9
$LIMMAX
 10
742.0000015376082
 20
511.5303028371496
  9
$ORTHOMODE
 70
     1
  9
$REGENMODE
 70
     1
  9
$FILLMODE
 70
     1
  9
$QTEXTMODE
 70
     0
  9
$MIRRTEXT
 70
     1
  9
$LTSCALE
 40
1.0
  9
$ATTMODE
 70
     1
  9
$TEXTSIZE
 40
2.5
  9
$TRACEWID
 40
1.0
  9
$TEXTSTYLE
  7
STANDARD
  9
$CLAYER
  8
0
  9
$CELTYPE
  6
BYLAYER
  9
$CECOLOR
 62
   256
  9
$CELTSCALE
 40
1.0
  9
$DISPSILH
 70
     0
  9
$DIMSCALE
 40
1.0
  9
$DIMASZ
 40
3.0
  9
$DIMEXO
 40
1.0
  9
$DIMDLI
 40
10.0
  9
$DIMRND
 40
0.0
  9
$DIMDLE
 40
0.0
  9
$DIMEXE
 40
1.0
  9
$DIMTP
 40
0.0
  9
$DIMTM
 40
0.0
  9
$DIMTXT
 40
3.2
  9
$DIMCEN
 40
0.0
  9
$DIMTSZ
 40
0.0
  9
$DIMTOL
 70
     0
  9
$DIMLIM
 70
     0
  9
$DIMTIH
 70
     0
  9
$DIMTOH
 70
     0
  9
$DIMSE1
 70
     0
  9
$DIMSE2
 70
     0
  9
$DIMTAD
 70
     3
  9
$DIMZIN
 70
     8
  9
$DIMBLK
  1

  9
$DIMASO
 70
     1
  9
$DIMSHO
 70
     1
  9
$DIMPOST
  1

  9
$DIMAPOST
  1

  9
$DIMALT
 70
     0
  9
$DIMALTD
 70
     2
  9
$DIMALTF
 40
25.4
  9
$DIMLFAC
 40
1.0
  9
$DIMTOFL
 70
     1
  9
$DIMTVP
 40
0.0
  9
$DIMTIX
 70
     0
  9
$DIMSOXD
 70
     0
  9
$DIMSAH
 70
     1
  9
$DIMBLK1
  1
OPEN
  9
$DIMBLK2
  1
OPEN
  9
$DIMSTYLE
  2
STANDARD
  9
$DIMCLRD
 70
     0
  9
$DIMCLRE
 70
     0
  9
$DIMCLRT
 70
     0
  9
$DIMTFAC
 40
1.0
  9
$DIMGAP
 40
1.0
  9
$DIMJUST
 70
     0
  9
$DIMSD1
 70
     0
  9
$DIMSD2
 70
     0
  9
$DIMTOLJ
 70
     1
  9
$DIMTZIN
 70
     0
  9
$DIMALTZ
 70
     0
  9
$DIMALTTZ
 70
     0
  9
$DIMUPT
 70
     0
  9
$DIMDEC
 70
     4
  9
$DIMTDEC
 70
     4
  9
$DIMALTU
 70
     2
  9
$DIMALTTD
 70
     2
  9
$DIMTXSTY
  7
STANDARD
  9
$DIMAUNIT
 70
     0
  9
$DIMADEC
 70
     0
  9
$DIMALTRND
 40
0.0
  9
$DIMAZIN
 70
     0
  9
$DIMDSEP
 70
    46
  9
$DIMATFIT
 70
     3
  9
$DIMFRAC
 70
     0
  9
$DIMLDRBLK
  1
OPEN
  9
$DIMLUNIT
 70
     2
  9
$DIMLWD
 70
    -2
  9
$DIMLWE
 70
    -2
  9
$DIMTMOVE
 70
     0
  9
$LUNITS
 70
     2
  9
$LUPREC
 70
     4
  9
$SKETCHINC
 40
1.0
  9
$FILLETRAD
 40
10.0
  9
$AUNITS
 70
     0
  9
$AUPREC
 70
     0
  9
$MENU
  1
.
  9
$ELEVATION
 40
0.0
  9
$PELEVATION
 40
0.0
  9
$THICKNESS
 40
0.0
  9
$LIMCHECK
 70
     0
  9
$CHAMFERA
 40
10.0
  9
$CHAMFERB
 40
10.0
  9
$CHAMFERC
 40
20.0
  9
$CHAMFERD
 40
0.0
  9
$SKPOLY
 70
     0
  9
$TDCREATE
 40
2454523.471469537
  9
$TDUCREATE
 40
2454523.096469537
  9
$TDUPDATE
 40
2457192.643298461
  9
$TDUUPDATE
 40
2457192.268298461
  9
$TDINDWG
 40
0.0463830208
  9
$TDUSRTIMER
 40
0.0463829977
  9
$USRTIMER
 70
     1
  9
$ANGBASE
 50
0.0
  9
$ANGDIR
 70
     0
  9
$PDMODE
 70
     0
  9
$PDSIZE
 40
0.0
  9
$PLINEWID
 40
0.0
  9
$SPLFRAME
 70
     0
  9
$SPLINETYPE
 70
     6
  9
$SPLINESEGS
 70
     8
  9
$HANDSEED
  5
147A
  9
$SURFTAB1
 70
     6
  9
$SURFTAB2
 70
     6
  9
$SURFTYPE
 70
     6
  9
$SURFU
 70
     6
  9
$SURFV
 70
     6
  9
$UCSBASE
  2

  9
$UCSNAME
  2

  9
$UCSORG
 10
0.0
 20
0.0
 30
0.0
  9
$UCSXDIR
 10
1.0
 20
0.0
 30
0.0
  9
$UCSYDIR
 10
0.0
 20
1.0
 30
0.0
  9
$UCSORTHOREF
  2

  9
$UCSORTHOVIEW
 70
     0
  9
$UCSORGTOP
 10
0.0
 20
0.0
 30
0.0
  9
$UCSORGBOTTOM
 10
0.0
 20
0.0
 30
0.0
  9
$UCSORGLEFT
 10
0.0
 20
0.0
 30
0.0
  9
$UCSORGRIGHT
 10
0.0
 20
0.0
 30
0.0
  9
$UCSORGFRONT
 10
0.0
 20
0.0
 30
0.0
  9
$UCSORGBACK
 10
0.0
 20
0.0
 30
0.0
  9
$PUCSBASE
  2

  9
$PUCSNAME
  2

  9
$PUCSORG
 10
0.0
 20
0.0
 30
0.0
  9
$PUCSXDIR
 10
1.0
 20
0.0
 30
0.0
  9
$PUCSYDIR
 10
0.0
 20
1.0
 30
0.0
  9
$PUCSORTHOREF
  2

  9
$PUCSORTHOVIEW
 70
     0
  9
$PUCSORGTOP
 10
0.0
 20
0.0
 30
0.0
  9
$PUCSORGBOTTOM
 10
0.0
 20
0.0
 30
0.0
  9
$PUCSORGLEFT
 10
0.0
 20
0.0
 30
0.0
  9
$PUCSORGRIGHT
 10
0.0
 20
0.0
 30
0.0
  9
$PUCSORGFRONT
 10
0.0
 20
0.0
 30
0.0
  9
$PUCSORGBACK
 10
0.0
 20
0.0
 30
0.0
  9
$USERI1
 70
     0
  9
$USERI2
 70
     0
  9
$USERI3
 70
     0
  9
$USERI4
 70
     0
  9
$USERI5
 70
     0
  9
$USERR1
 40
0.0
  9
$USERR2
 40
0.0
  9
$USERR3
 40
0.0
  9
$USERR4
 40
0.0
  9
$USERR5
 40
0.0
  9
$WORLDVIEW
 70
     1
  9
$SHADEDGE
 70
     3
  9
$SHADEDIF
 70
    70
  9
$TILEMODE
 70
     1
  9
$MAXACTVP
 70
    48
  9
$PINSBASE
 10
0.0
 20
0.0
 30
0.0
  9
$PLIMCHECK
 70
     0
  9
$PEXTMIN
 10
1.000000000000000E+20
 20
1.000000000000000E+20
 30
1.000000000000000E+20
  9
$PEXTMAX
 10
-1.000000000000000E+20
 20
-1.000000000000000E+20
 30
-1.000000000000000E+20
  9
$PLIMMIN
 10
0.0
 20
0.0
  9
$PLIMMAX
 10
420.0
 20
297.0
  9
$UNITMODE
 70
     0
  9
$VISRETAIN
 70
     1
  9
$PLINEGEN
 70
     0
  9
$PSLTSCALE
 70
     1
  9
$TREEDEPTH
 70
  3020
  9
$CMLSTYLE
  2
STANDARD
  9
$CMLJUST
 70
     0
  9
$CMLSCALE
 40
20.0
  9
$PROXYGRAPHICS
 70
     1
  9
$MEASUREMENT
 70
     0
  9
$CELWEIGHT
370
    -1
  9
$ENDCAPS
280
     0
  9
$JOINSTYLE
280
     0
  9
$LWDISPLAY
290
     0
  9
$INSUNITS
 70
     0
  9
$HYPERLINKBASE
  1

  9
$STYLESHEET
  1

  9
$XEDIT
290
     1
  9
$CEPSNTYPE
380
     0
  9
$PSTYLEMODE
290
     1
  9
$FINGERPRINTGUID
  2
{2ABB6992-74FA-4E39-A3A2-B3B2B0087526}
  9
$VERSIONGUID
  2
{AA7E6FC4-15E0-444F-8832-36CF816B80B8}
  9
$EXTNAMES
290
     1
  9
$PSVPSCALE
 40
0.0
  9
$OLESTARTUP
290
     0
  0
ENDSEC
  0
SECTION
  2
CLASSES
  0
CLASS
  1
ACDBDICTIONARYWDFLT
  2
AcDbDictionaryWithDefault
  3
ObjectDBX Classes
 90
        0
280
     0
281
     0
  0
CLASS
  1
ACDBPLACEHOLDER
  2
AcDbPlaceHolder
  3
ObjectDBX Classes
 90
        0
280
     0
281
     0
  0
CLASS
  1
LAYOUT
  2
AcDbLayout
  3
ObjectDBX Classes
 90
        0
280
     0
281
     0
  0
CLASS
  1
DICTIONARYVAR
  2
AcDbDictionaryVar
  3
ObjectDBX Classes
 90
        0
280
     0
281
     0
  0
CLASS
  1
MATERIAL
  2
AcDbMaterial
  3
ObjectDBX Classes
 90
     1153
280
     0
281
     0
  0
CLASS
  1
VISUALSTYLE
  2
AcDbVisualStyle
  3
ObjectDBX Classes
 90
     4095
280
     0
281
     0
  0
CLASS
  1
TABLESTYLE
  2
AcDbTableStyle
  3
ObjectDBX Classes
 90
     4095
280
     0
281
     0
  0
CLASS
  1
SCALE
  2
AcDbScale
  3
ObjectDBX Classes
 90
     1153
280
     0
281
     0
  0
CLASS
  1
MLEADERSTYLE
  2
AcDbMLeaderStyle
  3
ACDB_MLEADERSTYLE_CLASS
 90
     4095
280
     0
281
     0
  0
CLASS
  1
ACDBSECTIONVIEWSTYLE
  2
AcDbSectionViewStyle
  3
ObjectDBX Classes
 90
     1025
280
     0
281
     0
  0
CLASS
  1
ACDBDETAILVIEWSTYLE
  2
AcDbDetailViewStyle
  3
ObjectDBX Classes
 90
     1025
280
     0
281
     0
  0
CLASS
  1
CELLSTYLEMAP
  2
AcDbCellStyleMap
  3
ObjectDBX Classes
 90
     1152
280
     0
281
     0
  0
ENDSEC
  0
SECTION
  2
TABLES
  0
TABLE
  2
VPORT
  5
8
330
0
100
AcDbSymbolTable
 70
     1
  0
VPORT
  5
13C4
330
8
100
AcDbSymbolTableRecord
100
AcDbViewportTableRecord
  2
*ACTIVE
 70
     0
 10
0.0
 20
0.0
 11
1.0
 21
1.0
 12
535.5577953607417
 22
218.4946874279571
 13
0.0
 23
0.0
 14
10.0
 24
10.0
 15
10.0
 25
10.0
 16
0.0
 26
0.0
 36
1.0
 17
0.0
 27
0.0
 37
0.0
 40
448.8328299698877
 41
1.899603698811096
 42
50.0
 43
0.0
 44
0.0
 50
0.0
 51
0.0
 71
     0
 72
   100
 73
     1
 74
     0
 75
     0
 76
     0
 77
     0
 78
     0
281
     0
 65
     1
110
0.0
120
0.0
130
0.0
111
1.0
121
0.0
131
0.0
112
0.0
122
1.0
132
0.0
 79
     0
146
0.0
1001
ACAD_NAV_VCDISPLAY
1070
     3
  0
ENDTAB
  0
TABLE
  2
LTYPE
  5
5
330
0
100
AcDbSymbolTable
 70
     4
  0
LTYPE
  5
12
330
5
100
AcDbSymbolTableRecord
100
AcDbLinetypeTableRecord
  2
BYBLOCK
 70
     0
  3

 72
    65
 73
     0
 40
0.0
  0
LTYPE
  5
13
330
5
100
AcDbSymbolTableRecord
100
AcDbLinetypeTableRecord
  2
BYLAYER
 70
     0
  3

 72
    65
 73
     0
 40
0.0
  0
LTYPE
  5
14
330
5
100
AcDbSymbolTableRecord
100
AcDbLinetypeTableRecord
  2
CONTINUOUS
 70
     0
  3
Solid line
 72
    65
 73
     0
 40
0.0
  0
LTYPE
  5
4B
330
5
100
AcDbSymbolTableRecord
100
AcDbLinetypeTableRecord
  2
DASHED
 70
     0
  3
Dashed __ __ __ __ __ __ __ __ __ __ __ __ __ _
 72
    65
 73
     2
 40
19.04999999999999
 49
12.7
 74
     0
 49
-6.349999999999998
 74
     0
  0
LTYPE
  5
4C
330
5
100
AcDbSymbolTableRecord
100
AcDbLinetypeTableRecord
  2
CENTER
 70
     0
  3
Center ____ _ ____ _ ____ _ ____ _ ____ _ ____
 72
    65
 73
     4
 40
50.8
 49
31.75
 74
     0
 49
-6.349999999999998
 74
     0
 49
6.349999999999998
 74
     0
 49
-6.349999999999998
 74
     0
  0
LTYPE
  5
4D
330
5
100
AcDbSymbolTableRecord
100
AcDbLinetypeTableRecord
  2
PHANTOM
 70
     0
  3
Phantom ______  __  __  ______  __  __  ______
 72
    65
 73
     6
 40
63.5
 49
31.75
 74
     0
 49
-6.349999999999998
 74
     0
 49
6.349999999999998
 74
     0
 49
-6.349999999999998
 74
     0
 49
6.349999999999998
 74
     0
 49
-6.349999999999998
 74
     0
  0
ENDTAB
  0
TABLE
  2
LAYER
  5
2
330
0
100
AcDbSymbolTable
 70
     8
  0
LAYER
  5
E
102
{ACAD_XDICTIONARY
360
141E
102
}
330
2
100
AcDbSymbolTableRecord
100
AcDbLayerTableRecord
  2
0
 70
     0
 62
     7
  6
CONTINUOUS
370
    -3
390
13CD
  0
LAYER
  5
4E
102
{ACAD_XDICTIONARY
360
1420
102
}
330
2
100
AcDbSymbolTableRecord
100
AcDbLayerTableRecord
  2
4
 70
     0
 62
     1
  6
CENTER
370
    -3
390
13CD
  0
LAYER
  5
4F
102
{ACAD_XDICTIONARY
360
1422
102
}
330
2
100
AcDbSymbolTableRecord
100
AcDbLayerTableRecord
  2
5
 70
     0
 62
     6
  6
PHANTOM
370
    -3
390
13CD
  0
LAYER
  5
50
102
{ACAD_XDICTIONARY
360
1424
102
}
330
2
100
AcDbSymbolTableRecord
100
AcDbLayerTableRecord
  2
1
 70
     0
 62
     7
  6
CONTINUOUS
370
    -3
390
13CD
  0
LAYER
  5
51
102
{ACAD_XDICTIONARY
360
1426
102
}
330
2
100
AcDbSymbolTableRecord
100
AcDbLayerTableRecord
  2
2
 70
     0
 62
     4
  6
CONTINUOUS
370
    -3
390
13CD
  0
LAYER
  5
52
102
{ACAD_XDICTIONARY
360
1428
102
}
330
2
100
AcDbSymbolTableRecord
100
AcDbLayerTableRecord
  2
3
 70
     0
 62
     2
  6
DASHED
370
    -3
390
13CD
  0
LAYER
  5
53
102
{ACAD_XDICTIONARY
360
142A
102
}
330
2
100
AcDbSymbolTableRecord
100
AcDbLayerTableRecord
  2
6
 70
     0
 62
     5
  6
CONTINUOUS
370
    -3
390
13CD
  0
LAYER
  5
54
102
{ACAD_XDICTIONARY
360
142C
102
}
330
2
100
AcDbSymbolTableRecord
100
AcDbLayerTableRecord
  2
7
 70
     0
 62
     3
  6
CONTINUOUS
370
    -3
390
13CD
  0
ENDTAB
  0
TABLE
  2
STYLE
  5
3
330
0
100
AcDbSymbolTable
 70
     1
  0
STYLE
  5
F
330
3
100
AcDbSymbolTableRecord
100
AcDbTextStyleTableRecord
  2
STANDARD
 70
     0
 40
0.0
 41
1.0
 50
0.0
 71
     0
 42
2.5
  3
simplex.shx
  4

  0
ENDTAB
  0
TABLE
  2
VIEW
  5
6
330
0
100
AcDbSymbolTable
 70
     0
  0
ENDTAB
  0
TABLE
  2
UCS
  5
7
330
0
100
AcDbSymbolTable
 70
     0
  0
ENDTAB
  0
TABLE
  2
APPID
  5
9
330
0
100
AcDbSymbolTable
 70
     5
  0
APPID
  5
10
330
9
100
AcDbSymbolTableRecord
100
AcDbRegAppTableRecord
  2
ACAD
 70
     0
  0
APPID
  5
3E
330
9
100
AcDbSymbolTableRecord
100
AcDbRegAppTableRecord
  2
CONTENTTABDATA
 70
     0
  0
APPID
  5
3F
330
9
100
AcDbSymbolTableRecord
100
AcDbRegAppTableRecord
  2
CONTENTCURRENTTAB
 70
     0
  0
APPID
  5
1438
330
9
100
AcDbSymbolTableRecord
100
AcDbRegAppTableRecord
  2
ACAD_NAV_VCDISPLAY
 70
     0
  0
APPID
  5
1471
330
9
100
AcDbSymbolTableRecord
100
AcDbRegAppTableRecord
  2
ACAD_MLEADERVER
 70
     0
  0
ENDTAB
  0
TABLE
  2
DIMSTYLE
  5
A
330
0
100
AcDbSymbolTable
 70
     1
100
AcDbDimStyleTable
 71
     0
  0
DIMSTYLE
105
1D
330
A
100
AcDbSymbolTableRecord
100
AcDbDimStyleTableRecord
  2
STANDARD
 70
     0
 41
3.0
 42
1.0
 43
10.0
 44
1.0
 73
     0
 74
     0
 77
     3
 78
     8
140
3.2
141
0.0
147
1.0
172
     1
173
     1
340
F
341
2E
343
2E
344
2E
  0
ENDTAB
  0
TABLE
  2
BLOCK_RECORD
  5
1
330
0
100
AcDbSymbolTable
 70
     1
  0
BLOCK_RECORD
  5
18
102
{ACAD_XDICTIONARY
360
13C7
102
}
330
1
100
AcDbSymbolTableRecord
100
AcDbBlockTableRecord
  2
*MODEL_SPACE
340
141B
  0
BLOCK_RECORD
  5
15
102
{ACAD_XDICTIONARY
360
13C5
102
}
330
1
100
AcDbSymbolTableRecord
100
AcDbBlockTableRecord
  2
*PAPER_SPACE
340
141C
  0
BLOCK_RECORD
  5
2E
330
1
100
AcDbSymbolTableRecord
100
AcDbBlockTableRecord
  2
_OPEN
340
0
  0
ENDTAB
  0
ENDSEC
  0
SECTION
  2
BLOCKS
  0
BLOCK
  5
19
330
18
100
AcDbEntity
  8
0
100
AcDbBlockBegin
  2
*MODEL_SPACE
 70
     0
 10
0.0
 20
0.0
 30
0.0
  3
*MODEL_SPACE
  1

  0
ENDBLK
  5
1A
330
18
100
AcDbEntity
  8
0
100
AcDbBlockEnd
  0
BLOCK
  5
16
330
15
100
AcDbEntity
 67
     1
  8
0
100
AcDbBlockBegin
  2
*PAPER_SPACE
 70
     0
 10
0.0
 20
0.0
 30
0.0
  3
*PAPER_SPACE
  1

  0
ENDBLK
  5
17
330
15
100
AcDbEntity
 67
     1
  8
0
100
AcDbBlockEnd
  0
BLOCK
  5
2F
330
2E
100
AcDbEntity
  8
0
100
AcDbBlockBegin
  2
_OPEN
 70
     0
 10
0.0
 20
0.0
 30
0.0
  3
_OPEN
  1

  0
LINE
  5
30
330
2E
100
AcDbEntity
  8
0
  6
ByBlock
 62
     0
100
AcDbLine
 10
-1.0
 20
0.1666666666666666
 30
0.0
 11
0.0
 21
0.0
 31
0.0
  0
LINE
  5
31
330
2E
100
AcDbEntity
  8
0
  6
ByBlock
 62
     0
100
AcDbLine
 10
0.0
 20
0.0
 30
0.0
 11
-1.0
 21
-0.1666666666666666
 31
0.0
  0
LINE
  5
32
330
2E
100
AcDbEntity
  8
0
  6
ByBlock
 62
     0
100
AcDbLine
 10
0.0
 20
0.0
 30
0.0
 11
-1.0
 21
0.0
 31
0.0
  0
ENDBLK
  5
33
330
2E
100
AcDbEntity
  8
0
100
AcDbBlockEnd
  0
ENDSEC
  0
SECTION
  2
ENTITIES
  0
ARC
  5
25A
330
18
100
AcDbEntity
  8
1
  6
Continuous
100
AcDbCircle
 10
277.2328498616404
 20
259.1859740137717
 30
0.0
 40
5.0
100
AcDbArc
 50
90.0
 51
180.0
  0
LINE
  5
25B
330
18
100
AcDbEntity
  8
1
  6
Continuous
100
AcDbLine
 10
65.68189369429342
 20
266.8252942388242
 30
0.0
 11
65.68189369429342
 21
159.1859740138791
 31
0.0
  0
LINE
  5
25C
330
18
100
AcDbEntity
  8
1
  6
Continuous
100
AcDbLine
 10
35.68189369429342
 20
266.825294238818
 30
0.0
 11
35.68189369429342
 21
159.1859740138791
 31
0.0
  0
LINE
  5
25D
330
18
100
AcDbEntity
  8
5
  6
PHANTOM
100
AcDbLine
 10
62.5468104253332
 20
265.0152530695519
 30
0.0
 11
155.7651961862183
 21
211.1955929570825
 31
0.0
  0
LINE
  5
25E
330
18
100
AcDbEntity
  8
4
  6
CENTER
100
AcDbLine
 10
50.68189369429342
 20
136.8968380930593
 30
0.0
 11
50.68189369429342
 21
319.1859740138188
 31
0.0
  0
LINE
  5
25F
330
18
100
AcDbEntity
  8
1
  6
Continuous
100
AcDbLine
 10
253.23284986164
 20
290.1859740137715
 30
0.0
 11
253.2328498616412
 21
149.1859740137725
 31
0.0
  0
LINE
  5
260
330
18
100
AcDbEntity
  8
5
  6
PHANTOM
100
AcDbLine
 10
77.54681042532762
 20
290.9960151830881
 30
0.0
 11
170.7651961862183
 21
237.1763550706156
 31
0.0
  0
LINE
  5
261
330
18
100
AcDbEntity
  8
4
  6
CENTER
100
AcDbLine
 10
24.70113158073945
 20
304.1859740137831
 30
0.0
 11
182.4379642930492
 21
213.1165711865033
 31
0.0
  0
TEXT
  5
262
330
18
100
AcDbEntity
  8
7
  6
Continuous
 48
0.25
100
AcDbText
 10
9.999999064246617
 20
18.00000056761563
 30
0.0
 40
3.0
  1
TYPE No.THA-445-1
100
AcDbText
  0
TEXT
  5
263
330
18
100
AcDbEntity
  8
7
  6
Continuous
 48
0.25
100
AcDbText
 10
9.999999064246617
 20
26.00000056761564
 30
0.0
 40
3.0
  1
CODE No.13245
100
AcDbText
  0
TEXT
  5
264
330
18
100
AcDbEntity
  8
4
  6
CENTER
 48
0.25
100
AcDbText
 10
23.9795100642466
 20
9.999999806846743
 30
0.0
 40
1.399999999999999
  1
4
100
AcDbText
  0
TEXT
  5
265
330
18
100
AcDbEntity
  8
1
  6
Continuous
 48
0.25
100
AcDbText
 10
9.999999064246617
 20
10.00000056761563
 30
0.0
 40
1.399999999999999
  1
LAYER
100
AcDbText
  0
TEXT
  5
266
330
18
100
AcDbEntity
  8
1
  6
Continuous
 48
0.25
100
AcDbText
 10
17.97951006424661
 20
9.999999806846743
 30
0.0
 40
1.399999999999999
  1
1
100
AcDbText
  0
TEXT
  5
267
330
18
100
AcDbEntity
  8
3
  6
DASHED
 48
0.25
100
AcDbText
 10
21.97951006424661
 20
9.999999806846743
 30
0.0
 40
1.399999999999999
  1
3
100
AcDbText
  0
TEXT
  5
268
330
18
100
AcDbEntity
  8
2
  6
Continuous
 48
0.25
100
AcDbText
 10
19.97951006424661
 20
9.999999806846743
 30
0.0
 40
1.399999999999999
  1
2
100
AcDbText
  0
TEXT
  5
269
330
18
100
AcDbEntity
  8
7
  6
Continuous
 48
0.25
100
AcDbText
 10
29.97951006424661
 20
9.999999806846743
 30
0.0
 40
1.399999999999999
  1
7
100
AcDbText
  0
TEXT
  5
26A
330
18
100
AcDbEntity
  8
6
  6
Continuous
 48
0.25
100
AcDbText
 10
27.97951006424661
 20
9.999999806846743
 30
0.0
 40
1.399999999999999
  1
6
100
AcDbText
  0
TEXT
  5
26B
330
18
100
AcDbEntity
  8
5
  6
PHANTOM
 48
0.25
100
AcDbText
 10
25.97951006424661
 20
9.999999806846743
 30
0.0
 40
1.399999999999999
  1
5
100
AcDbText
  0
ARC
  5
26C
330
18
100
AcDbEntity
  8
1
  6
Continuous
100
AcDbCircle
 10
50.68189369429342
 20
159.1859740138791
 30
0.0
 40
14.99999999999999
100
AcDbArc
 50
180.0
 51
0.0
  0
LINE
  5
26D
330
18
100
AcDbEntity
  8
1
  6
Continuous
100
AcDbLine
 10
318.2328498616405
 20
37.08557200701193
 30
0.0
 11
298.2328498616406
 21
37.08557200706422
 31
0.0
  0
LINE
  5
26E
330
18
100
AcDbEntity
  8
1
  6
Continuous
100
AcDbLine
 10
318.2328498616405
 20
87.08557200701193
 30
0.0
 11
298.2328498616406
 21
87.08557200701193
 31
0.0
  0
LINE
  5
26F
330
18
100
AcDbEntity
  8
4
  6
CENTER
100
AcDbLine
 10
245.6847143925567
 20
62.08557200701203
 30
0.0
 11
357.8521026780476
 21
62.08557200701203
 31
0.0
  0
ARC
  5
270
330
18
100
AcDbEntity
  8
1
  6
Continuous
100
AcDbCircle
 10
264.2328498616405
 20
62.08557200701193
 30
0.0
 40
15.0
100
AcDbArc
 50
270.0
 51
0.0
  0
ARC
  5
271
330
18
100
AcDbEntity
  8
1
  6
Continuous
100
AcDbCircle
 10
277.2328498616244
 20
61.08557200701204
 30
0.0
 40
24.0
100
AcDbArc
 50
180.0
 51
270.0
  0
LINE
  5
272
330
18
100
AcDbEntity
  8
1
  6
Continuous
100
AcDbLine
 10
298.2328498616406
 20
87.08557200701193
 30
0.0
 11
298.2328498616406
 21
37.08557200706422
 31
0.0
  0
LINE
  5
273
330
18
100
AcDbEntity
  8
1
  6
Continuous
100
AcDbLine
 10
298.0328498616406
 20
87.08557200701193
 30
0.0
 11
298.0328498616409
 21
37.08557200701193
 31
0.0
  0
ARC
  5
274
330
18
100
AcDbEntity
  8
1
  6
Continuous
100
AcDbCircle
 10
260.4996493309579
 20
52.08557200701193
 30
0.0
 40
5.0
100
AcDbArc
 50
208.2737136313646
 51
270.0
  0
LINE
  5
275
330
18
100
AcDbEntity
  8
1
  6
Continuous
100
AcDbLine
 10
260.4996493309579
 20
47.08557200701192
 30
0.0
 11
264.2328498616405
 21
47.08557200701192
 31
0.0
  0
LINE
  5
276
330
18
100
AcDbEntity
  8
1
  6
Continuous
100
AcDbLine
 10
277.2328498616401
 20
37.08557200701216
 30
0.0
 11
298.0328498616409
 21
37.08557200701204
 31
0.0
  0
ARC
  5
277
330
18
100
AcDbEntity
  8
1
  6
Continuous
100
AcDbCircle
 10
297.7328498616405
 20
49.58557200701203
 30
0.0
 40
0.5
100
AcDbArc
 50
306.8698976429121
 51
0.0
  0
ARC
  5
278
330
18
100
AcDbEntity
  8
1
  6
Continuous
100
AcDbCircle
 10
264.2328498616405
 20
62.08557200701193
 30
0.0
 40
15.0
100
AcDbArc
 50
0.0
 51
90.0
  0
ARC
  5
279
330
18
100
AcDbEntity
  8
1
  6
Continuous
100
AcDbCircle
 10
277.2328498616235
 20
63.08557200701204
 30
0.0
 40
24.0
100
AcDbArc
 50
90.00000000000005
 51
180.0
  0
ARC
  5
27A
330
18
100
AcDbEntity
  8
1
  6
Continuous
100
AcDbCircle
 10
260.499649330959
 20
72.08557200701193
 30
0.0
 40
5.0
100
AcDbArc
 50
90.0
 51
151.726286368635
  0
LINE
  5
27B
330
18
100
AcDbEntity
  8
1
  6
Continuous
100
AcDbLine
 10
253.2328498616245
 20
61.08557200699954
 30
0.0
 11
253.2328498616236
 21
63.08557200699954
 31
0.0
  0
LINE
  5
27C
330
18
100
AcDbEntity
  8
1
  6
Continuous
100
AcDbLine
 10
260.499649330959
 20
77.08557200701193
 30
0.0
 11
264.2328498616405
 21
77.08557200701193
 31
0.0
  0
ARC
  5
27D
330
18
100
AcDbEntity
  8
1
  6
Continuous
100
AcDbCircle
 10
297.7328498616405
 20
74.58557200701204
 30
0.0
 40
0.5
100
AcDbArc
 50
0.0
 51
53.13010234027649
  0
LINE
  5
27E
330
18
100
AcDbEntity
  8
1
  6
Continuous
100
AcDbLine
 10
277.2328498616404
 20
87.08557200701193
 30
0.0
 11
298.0328498616406
 21
87.08557200701193
 31
0.0
  0
ARC
  5
293
330
18
100
AcDbEntity
  8
5
  6
PHANTOM
100
AcDbCircle
 10
163.2651961862183
 20
224.1859740138491
 30
0.0
 40
14.99999999999999
100
AcDbArc
 50
239.9999999999999
 51
60.0
  0
LINE
  5
294
330
18
100
AcDbEntity
  8
1
  6
Continuous
100
AcDbLine
 10
272.2328498616405
 20
259.1859740137717
 30
0.0
 11
272.2328498616405
 21
173.1859740137734
 31
0.0
  0
ARC
  5
295
330
18
100
AcDbEntity
  8
1
  6
Continuous
100
AcDbCircle
 10
275.2328498616404
 20
173.1859740137734
 30
0.0
 40
3.0
100
AcDbArc
 50
180.0
 51
270.0
  0
ARC
  5
296
330
18
100
AcDbEntity
  8
1
  6
Continuous
100
AcDbCircle
 10
234.4387795480642
 20
186.4006372959952
 30
0.0
 40
50.0
100
AcDbArc
 50
303.4513120258121
 51
332.7773416587612
  0
LINE
  5
297
330
18
100
AcDbEntity
  8
1
  6
Continuous
100
AcDbLine
 10
260.346503949528
 20
144.1859740137764
 30
0.0
 11
258.2328498616413
 21
144.1859740137764
 31
0.0
  0
ARC
  5
298
330
18
100
AcDbEntity
  8
1
  6
Continuous
100
AcDbCircle
 10
258.2328498616413
 20
149.1859740137725
 30
0.0
 40
5.0
100
AcDbArc
 50
180.0
 51
270.0
  0
ARC
  5
299
330
18
100
AcDbEntity
  8
1
  6
Continuous
100
AcDbCircle
 10
260.346503949528
 20
147.1859740137764
 30
0.0
 40
3.0
100
AcDbArc
 50
270.0
 51
303.4513120258127
  0
LINE
  5
29A
330
18
100
AcDbEntity
  8
1
  6
Continuous
100
AcDbLine
 10
279.2328498616405
 20
167.1859740137733
 30
0.0
 11
279.2328498616405
 21
164.9005050493359
 31
0.0
  0
ARC
  5
29B
330
18
100
AcDbEntity
  8
1
  6
Continuous
100
AcDbCircle
 10
276.2328498616406
 20
164.9005050493359
 30
0.0
 40
3.0
100
AcDbArc
 50
332.7773416587612
 51
0.0
  0
LINE
  5
29C
330
18
100
AcDbEntity
  8
1
  6
Continuous
100
AcDbLine
 10
275.2328498616404
 20
170.1859740137733
 30
0.0
 11
276.2328498616406
 21
170.1859740137733
 31
0.0
  0
ARC
  5
29D
330
18
100
AcDbEntity
  8
1
  6
Continuous
100
AcDbCircle
 10
276.2328498616406
 20
167.1859740137733
 30
0.0
 40
3.0
100
AcDbArc
 50
0.0
 51
90.0
  0
LINE
  5
29E
330
18
100
AcDbEntity
  8
4
  6
CENTER
100
AcDbLine
 10
20.68189369429342
 20
289.1859740138157
 30
0.0
 11
80.68189369429342
 21
289.1859740138223
 31
0.0
  0
ARC
  5
29F
330
18
100
AcDbEntity
  8
1
  6
Continuous
100
AcDbCircle
 10
50.68189369429342
 20
289.1859740138222
 30
0.0
 40
25.0
100
AcDbArc
 50
311.810314895779
 51
90.0
  0
ARC
  5
2A0
330
18
100
AcDbEntity
  8
1
  6
Continuous
100
AcDbCircle
 10
50.68189369429342
 20
289.1859740138159
 30
0.0
 40
25.0
100
AcDbArc
 50
90.0
 51
228.1896851042209
  0
ARC
  5
2A1
330
18
100
AcDbEntity
  8
1
  6
Continuous
100
AcDbCircle
 10
30.68189369429342
 20
266.825294238818
 30
0.0
 40
5.0
100
AcDbArc
 50
0.0
 51
48.18968510422097
  0
ARC
  5
2A2
330
18
100
AcDbEntity
  8
1
  6
Continuous
100
AcDbCircle
 10
70.68189369429342
 20
266.8252942388242
 30
0.0
 40
5.0
100
AcDbArc
 50
131.8103148957789
 51
180.0
  0
LINE
  5
2A3
330
18
100
AcDbEntity
  8
4
  6
CENTER
100
AcDbLine
 10
245.343969913056
 20
289.1859740137716
 30
0.0
 11
357.3244138197755
 21
289.1859740137716
 31
0.0
  0
LINE
  5
2A4
330
18
100
AcDbEntity
  8
1
  6
Continuous
100
AcDbLine
 10
318.2328498616405
 20
314.1859740137715
 30
0.0
 11
298.2328498616406
 21
314.1859740137192
 31
0.0
  0
LINE
  5
2A5
330
18
100
AcDbEntity
  8
1
  6
Continuous
100
AcDbLine
 10
318.2328498616405
 20
264.1859740137717
 30
0.0
 11
298.2328498616406
 21
264.1859740137717
 31
0.0
  0
ARC
  5
2A6
330
18
100
AcDbEntity
  8
1
  6
Continuous
100
AcDbCircle
 10
277.2328498616401
 20
290.1859740137716
 30
0.0
 40
24.0
100
AcDbArc
 50
90.0
 51
180.0
  0
LINE
  5
2A7
330
18
100
AcDbEntity
  8
1
  6
Continuous
100
AcDbLine
 10
298.0328498616406
 20
264.1859740137717
 30
0.0
 11
298.0328498616409
 21
314.1859740137716
 31
0.0
  0
LINE
  5
2A8
330
18
100
AcDbEntity
  8
1
  6
Continuous
100
AcDbLine
 10
298.2328498616406
 20
264.1859740137717
 30
0.0
 11
298.2328498616406
 21
314.1859740137192
 31
0.0
  0
LINE
  5
2A9
330
18
100
AcDbEntity
  8
1
  6
Continuous
100
AcDbLine
 10
277.2328498616404
 20
264.1859740137717
 30
0.0
 11
298.0328498616406
 21
264.1859740137717
 31
0.0
  0
ARC
  5
2AA
330
18
100
AcDbEntity
  8
1
  6
Continuous
100
AcDbCircle
 10
297.7328498616405
 20
276.6859740137716
 30
0.0
 40
0.5
100
AcDbArc
 50
306.8698976597235
 51
0.0
  0
ARC
  5
2AB
330
18
100
AcDbEntity
  8
1
  6
Continuous
100
AcDbCircle
 10
297.7328498616405
 20
276.6859740137716
 30
0.0
 40
0.5
100
AcDbArc
 50
306.8698976597235
 51
0.0
  0
ARC
  5
2AC
330
18
100
AcDbEntity
  8
1
  6
Continuous
100
AcDbCircle
 10
297.7328498616405
 20
301.6859740137716
 30
0.0
 40
0.5
100
AcDbArc
 50
0.0
 51
53.13010235708785
  0
ARC
  5
2AD
330
18
100
AcDbEntity
  8
1
  6
Continuous
100
AcDbCircle
 10
297.7328498616405
 20
301.6859740137716
 30
0.0
 40
0.5
100
AcDbArc
 50
0.0
 51
53.13010235708785
  0
LINE
  5
2AE
330
18
100
AcDbEntity
  8
1
  6
Continuous
100
AcDbLine
 10
277.2328498616401
 20
314.1859740137716
 30
0.0
 11
298.0328498616409
 21
314.1859740137716
 31
0.0
  0
LINE
  5
2C3
330
18
100
AcDbEntity
  8
1
  6
Continuous
100
AcDbLine
 10
318.2328498616405
 20
426.9972400998661
 30
0.0
 11
298.2328498616406
 21
426.9972400998138
 31
0.0
  0
LINE
  5
2C4
330
18
100
AcDbEntity
  8
1
  6
Continuous
100
AcDbLine
 10
318.2328498616405
 20
376.9972400998662
 30
0.0
 11
298.2328498616406
 21
376.9972400998662
 31
0.0
  0
LINE
  5
2C5
330
18
100
AcDbEntity
  8
4
  6
CENTER
100
AcDbLine
 10
245.6847143925567
 20
401.9972400998661
 30
0.0
 11
357.8521026780476
 21
401.9972400998661
 31
0.0
  0
ARC
  5
2C6
330
18
100
AcDbEntity
  8
1
  6
Continuous
100
AcDbCircle
 10
277.2328498616235
 20
400.9972400998661
 30
0.0
 40
24.0
100
AcDbArc
 50
180.0
 51
270.0
  0
LINE
  5
2C7
330
18
100
AcDbEntity
  8
1
  6
Continuous
100
AcDbLine
 10
298.2328498616406
 20
376.9972400998662
 30
0.0
 11
298.2328498616406
 21
426.9972400998138
 31
0.0
  0
LINE
  5
2C8
330
18
100
AcDbEntity
  8
1
  6
Continuous
100
AcDbLine
 10
298.0328498616406
 20
376.9972400998662
 30
0.0
 11
298.0328498616409
 21
426.9972400998661
 31
0.0
  0
LINE
  5
2C9
330
18
100
AcDbEntity
  8
1
  6
Continuous
100
AcDbLine
 10
277.2328498616404
 20
376.9972400998662
 30
0.0
 11
298.0328498616406
 21
376.9972400998662
 31
0.0
  0
ARC
  5
2CA
330
18
100
AcDbEntity
  8
1
  6
Continuous
100
AcDbCircle
 10
297.7328498616405
 20
389.4972400998661
 30
0.0
 40
0.5
100
AcDbArc
 50
306.8698976597235
 51
0.0
  0
ARC
  5
2CB
330
18
100
AcDbEntity
  8
1
  6
Continuous
100
AcDbCircle
 10
277.2328498616244
 20
402.997240099866
 30
0.0
 40
24.0
100
AcDbArc
 50
90.0
 51
180.0
  0
LINE
  5
2CC
330
18
100
AcDbEntity
  8
1
  6
Continuous
100
AcDbLine
 10
253.2328498616245
 20
402.9972400998786
 30
0.0
 11
253.2328498616236
 21
400.9972400998784
 31
0.0
  0
LINE
  5
2CD
330
18
100
AcDbEntity
  8
1
  6
Continuous
100
AcDbLine
 10
277.2328498616401
 20
426.9972400998661
 30
0.0
 11
298.0328498616409
 21
426.9972400998661
 31
0.0
  0
ARC
  5
2CE
330
18
100
AcDbEntity
  8
1
  6
Continuous
100
AcDbCircle
 10
297.7328498616405
 20
414.4972400998661
 30
0.0
 40
0.5
100
AcDbArc
 50
0.0
 51
53.13010235708785
  0
LINE
  5
2CF
330
18
100
AcDbEntity
  8
1
  6
Continuous
100
AcDbLine
 10
318.2328498616405
 20
376.9972400998662
 30
0.0
 11
318.2328498616405
 21
426.9972400998661
 31
0.0
  0
LINE
  5
2D0
330
18
100
AcDbEntity
  8
4
  6
CENTER
100
AcDbLine
 10
315.2328498616404
 20
388.4972400998661
 30
0.0
 11
323.7328498616405
 21
388.4972400998661
 31
0.0
  0
LINE
  5
2D1
330
18
100
AcDbEntity
  8
1
  6
Continuous
100
AcDbLine
 10
318.2328498616405
 20
412.997240099866
 30
0.0
 11
341.2328498612884
 21
412.997240099866
 31
0.0
  0
LINE
  5
2D2
330
18
100
AcDbEntity
  8
1
  6
Continuous
100
AcDbLine
 10
318.2328498616405
 20
390.9972400998661
 30
0.0
 11
341.2328498612884
 21
390.9972400998661
 31
0.0
  0
LINE
  5
2D3
330
18
100
AcDbEntity
  8
4
  6
CENTER
100
AcDbLine
 10
315.2328498616404
 20
415.497240099866
 30
0.0
 11
323.7328498616405
 21
415.497240099866
 31
0.0
  0
LINE
  5
2E3
330
18
100
AcDbEntity
  8
1
  6
Continuous
100
AcDbLine
 10
710.4643611409097
 20
290.1859740137715
 30
0.0
 11
710.4643611409088
 21
149.1859740137725
 31
0.0
  0
ARC
  5
2E4
330
18
100
AcDbEntity
  8
1
  6
Continuous
100
AcDbCircle
 10
686.4643611409093
 20
259.1859740137717
 30
0.0
 40
5.0
100
AcDbArc
 50
0.000000000000007
 51
90.0
  0
LINE
  5
2E5
330
18
100
AcDbEntity
  8
1
  6
Continuous
100
AcDbLine
 10
466.8486055011046
 20
266.8252942391615
 30
0.0
 11
466.8486055011046
 21
159.185974014103
 31
0.0
  0
LINE
  5
2E6
330
18
100
AcDbEntity
  8
1
  6
Continuous
100
AcDbLine
 10
496.8486055011045
 20
159.185974014103
 30
0.0
 11
496.8486055011045
 21
266.8252942391615
 31
0.0
  0
LINE
  5
2E7
330
18
100
AcDbEntity
  8
4
  6
CENTER
100
AcDbLine
 10
481.8486055012748
 20
136.3835540799857
 30
0.0
 11
481.8486055011093
 21
319.1859740141918
 31
0.0
  0
ARC
  5
2E8
330
18
100
AcDbEntity
  8
1
  6
Continuous
 48
0.25
100
AcDbCircle
 10
380.5060109507202
 20
59.58557200701203
 30
0.0
 40
7.225291769924896
100
AcDbArc
 50
339.7567340180144
 51
20.24326598198539
  0
ARC
  5
2E9
330
18
100
AcDbEntity
  8
1
  6
Continuous
 48
0.25
100
AcDbCircle
 10
390.9565944905698
 20
59.58557200701203
 30
0.0
 40
7.225291769924896
100
AcDbArc
 50
159.7567340180135
 51
200.2432659819865
  0
LINE
  5
2EA
330
18
100
AcDbEntity
  8
1
  6
Continuous
100
AcDbLine
 10
380.7313027206449
 20
70.08557200702341
 30
0.0
 11
380.7313027206449
 21
54.08557200702341
 31
0.0
  0
LINE
  5
2EB
330
18
100
AcDbEntity
  8
1
  6
Continuous
 48
0.25
100
AcDbLine
 10
387.7313027206449
 20
57.08557200701203
 30
0.0
 11
387.7313027206449
 21
67.08557200701204
 31
0.0
  0
LINE
  5
2EC
330
18
100
AcDbEntity
  8
1
  6
Continuous
 48
0.25
100
AcDbLine
 10
383.731302720645
 20
57.08557200701203
 30
0.0
 11
383.731302720645
 21
67.08557200701204
 31
0.0
  0
LINE
  5
2ED
330
18
100
AcDbEntity
  8
1
  6
Continuous
100
AcDbLine
 10
383.731302720645
 20
68.18557200700003
 30
0.0
 11
383.731302720645
 21
55.98557200699996
 31
0.0
  0
LINE
  5
2EE
330
18
100
AcDbEntity
  8
1
  6
Continuous
100
AcDbLine
 10
382.2313027206449
 20
54.08557200702341
 30
0.0
 11
382.2313027206449
 21
70.08557200702341
 31
0.0
  0
LINE
  5
2EF
330
18
100
AcDbEntity
  8
1
  6
Continuous
100
AcDbLine
 10
383.731302720645
 20
55.98557200699996
 30
0.0
 11
382.2313027206449
 21
55.98557200699996
 31
0.0
  0
LINE
  5
2F0
330
18
100
AcDbEntity
  8
1
  6
Continuous
100
AcDbLine
 10
380.7313027206449
 20
54.08557200702341
 30
0.0
 11
382.2313027206449
 21
54.08557200702341
 31
0.0
  0
LINE
  5
2F1
330
18
100
AcDbEntity
  8
1
  6
Continuous
 48
0.25
100
AcDbLine
 10
387.7313027206449
 20
57.08557200701203
 30
0.0
 11
383.731302720645
 21
57.08557200701203
 31
0.0
  0
LINE
  5
2F2
330
18
100
AcDbEntity
  8
1
  6
Continuous
100
AcDbLine
 10
382.2313027206449
 20
60.58557200701204
 30
0.0
 11
383.731302720645
 21
62.08557200701203
 31
0.0
  0
LINE
  5
2F3
330
18
100
AcDbEntity
  8
1
  6
Continuous
100
AcDbLine
 10
382.2313027206449
 20
62.08557200701203
 30
0.0
 11
383.731302720645
 21
63.58557200701204
 31
0.0
  0
LINE
  5
2F4
330
18
100
AcDbEntity
  8
4
  6
CENTER
100
AcDbLine
 10
375.7567261550714
 20
62.08557200701203
 30
0.0
 11
391.5261085935494
 21
62.08557200701203
 31
0.0
  0
LINE
  5
2F5
330
18
100
AcDbEntity
  8
1
  6
Continuous
100
AcDbLine
 10
383.731302720645
 20
68.18557200700003
 30
0.0
 11
382.2313027206449
 21
68.18557200700003
 31
0.0
  0
LINE
  5
2F6
330
18
100
AcDbEntity
  8
1
  6
Continuous
100
AcDbLine
 10
380.7313027206449
 20
70.08557200702341
 30
0.0
 11
382.2313027206449
 21
70.08557200702341
 31
0.0
  0
LINE
  5
2F7
330
18
100
AcDbEntity
  8
1
  6
Continuous
 48
0.25
100
AcDbLine
 10
384.1775944787286
 20
62.08557200701203
 30
0.0
 11
387.2850109625614
 21
62.08557200701203
 31
0.0
  0
LINE
  5
2F8
330
18
100
AcDbEntity
  8
1
  6
Continuous
 48
0.25
100
AcDbLine
 10
387.7313027206449
 20
67.08557200701204
 30
0.0
 11
383.731302720645
 21
67.08557200701204
 31
0.0
  0
ARC
  5
2F9
330
18
100
AcDbEntity
  8
1
  6
Continuous
 48
0.25
100
AcDbCircle
 10
380.5060109507202
 20
64.58557200701204
 30
0.0
 40
7.225291769924896
100
AcDbArc
 50
339.7567340180144
 51
20.24326598198539
  0
ARC
  5
2FA
330
18
100
AcDbEntity
  8
1
  6
Continuous
 48
0.25
100
AcDbCircle
 10
390.9565944905698
 20
64.58557200701204
 30
0.0
 40
7.225291769924896
100
AcDbArc
 50
159.7567340180135
 51
200.2432659819865
  0
LINE
  5
2FB
330
18
100
AcDbEntity
  8
1
  6
Continuous
 48
0.25
100
AcDbLine
 10
481.5156874281369
 20
246.1866506769095
 30
0.0
 11
480.8498512821369
 21
246.1866506769095
 31
0.0
  0
ARC
  5
2FC
330
18
100
AcDbEntity
  8
1
  6
Continuous
 48
0.25
100
AcDbCircle
 10
481.8486055011371
 20
251.7853582704095
 30
0.0
 40
8.599395624885
100
AcDbArc
 50
234.4620000000011
 51
305.5379999999987
  0
ARC
  5
2FD
330
18
100
AcDbEntity
  8
1
  6
Continuous
 48
0.25
100
AcDbCircle
 10
481.8486055011371
 20
240.5865897579095
 30
0.0
 40
8.599395624885
100
AcDbArc
 50
54.46200000000126
 51
125.5377000000019
  0
ARC
  5
2FE
330
18
100
AcDbEntity
  8
1
  6
Continuous
100
AcDbCircle
 10
481.8486055011748
 20
159.185974014103
 30
0.0
 40
14.99999999999999
100
AcDbArc
 50
180.0
 51
0.0
  0
LINE
  5
2FF
330
18
100
AcDbEntity
  8
1
  6
Continuous
100
AcDbLine
 10
469.8486055011043
 20
170.1859740140314
 30
0.0
 11
493.848605501391
 21
170.1859740140314
 31
0.0
  0
ARC
  5
300
330
18
100
AcDbEntity
  8
1
  6
Continuous
100
AcDbCircle
 10
469.8486055011043
 20
167.1859740140313
 30
0.0
 40
3.0
100
AcDbArc
 50
90.0
 51
180.0
  0
LINE
  5
301
330
18
100
AcDbEntity
  8
1
  6
Continuous
 48
0.25
100
AcDbLine
 10
480.8498512821369
 20
248.4561775404095
 30
0.0
 11
480.8498512821369
 21
243.9157704879096
 31
0.0
  0
LINE
  5
302
330
18
100
AcDbEntity
  8
1
  6
Continuous
 48
0.25
100
AcDbLine
 10
477.5166105756372
 20
248.0149934274095
 30
0.0
 11
477.5166105756372
 21
245.1405300654095
 31
0.0
  0
LINE
  5
303
330
18
100
AcDbEntity
  8
1
  6
Continuous
 48
0.25
100
AcDbLine
 10
478.1824467216371
 20
244.9564777974096
 30
0.0
 11
478.1824467216371
 21
247.4154702309095
 31
0.0
  0
LINE
  5
304
330
18
100
AcDbEntity
  8
1
  6
Continuous
 48
0.25
100
AcDbLine
 10
478.8496361931369
 20
247.8309411594096
 30
0.0
 11
478.8496361931369
 21
244.5423601944094
 31
0.0
  0
LINE
  5
305
330
18
100
AcDbEntity
  8
1
  6
Continuous
 48
0.25
100
AcDbLine
 10
479.5154723391373
 20
247.9175539914095
 30
0.0
 11
479.5154723391373
 21
244.4543940369095
 31
0.0
  0
ARC
  5
306
330
18
100
AcDbEntity
  8
1
  6
Continuous
 48
0.25
100
AcDbCircle
 10
478.5167181201369
 20
244.9564777974096
 30
0.0
 40
0.333391736925
100
AcDbArc
 50
180.0
 51
243.9859999999971
  0
ARC
  5
307
330
18
100
AcDbEntity
  8
1
  6
Continuous
 48
0.25
100
AcDbCircle
 10
478.783323243637
 20
244.5423601944094
 30
0.0
 40
0.066678347385
100
AcDbArc
 50
247.056000000002
 51
0.0
  0
ARC
  5
308
330
18
100
AcDbEntity
  8
1
  6
Continuous
 48
0.25
100
AcDbCircle
 10
481.8486055011371
 20
251.7853582704095
 30
0.0
 40
7.932788083349999
100
AcDbArc
 50
243.9859999999971
 51
247.056000000002
  0
ARC
  5
309
330
18
100
AcDbEntity
  8
1
  6
Continuous
 48
0.25
100
AcDbCircle
 10
479.8497437376371
 20
244.4543940369095
 30
0.0
 40
0.333391736925
100
AcDbArc
 50
180.0
 51
254.7419999999994
  0
ARC
  5
30A
330
18
100
AcDbEntity
  8
1
  6
Continuous
 48
0.25
100
AcDbCircle
 10
481.8486055011371
 20
251.7853582704095
 30
0.0
 40
7.932788083349999
100
AcDbArc
 50
254.7419999999994
 51
254.7940000000024
  0
ARC
  5
30B
330
18
100
AcDbEntity
  8
1
  6
Continuous
 48
0.25
100
AcDbCircle
 10
481.8486055011371
 20
251.7853582704095
 30
0.0
 40
7.932788083349999
100
AcDbArc
 50
254.7940000000024
 51
257.271000000001
  0
ARC
  5
30C
330
18
100
AcDbEntity
  8
1
  6
Continuous
 48
0.25
100
AcDbCircle
 10
480.1163488611371
 20
244.1133560109095
 30
0.0
 40
0.066678347385
100
AcDbArc
 50
257.271000000001
 51
0.0
  0
LINE
  5
30D
330
18
100
AcDbEntity
  8
1
  6
Continuous
 48
0.25
100
AcDbLine
 10
480.1826618106371
 20
244.1133560109095
 30
0.0
 11
480.1826618106371
 21
245.3868353064095
 31
0.0
  0
ARC
  5
30E
330
18
100
AcDbEntity
  8
1
  6
Continuous
 48
0.25
100
AcDbCircle
 10
478.5167181201369
 20
247.4154702309095
 30
0.0
 40
0.333391736925
100
AcDbArc
 50
116.0143999999998
 51
180.0
  0
ARC
  5
30F
330
18
100
AcDbEntity
  8
1
  6
Continuous
 48
0.25
100
AcDbCircle
 10
481.8486055011371
 20
240.5865897579095
 30
0.0
 40
7.932788083349999
100
AcDbArc
 50
112.9439999999977
 51
116.0143999999998
  0
ARC
  5
310
330
18
100
AcDbEntity
  8
1
  6
Continuous
 48
0.25
100
AcDbCircle
 10
478.783323243637
 20
247.8309411594096
 30
0.0
 40
0.066678347385
100
AcDbArc
 50
0.0
 51
112.9439999999977
  0
LINE
  5
311
330
18
100
AcDbEntity
  8
1
  6
Continuous
 48
0.25
100
AcDbLine
 10
480.1826618106371
 20
246.9864660474095
 30
0.0
 11
480.1826618106371
 21
248.2585920174095
 31
0.0
  0
ARC
  5
312
330
18
100
AcDbEntity
  8
1
  6
Continuous
 48
0.25
100
AcDbCircle
 10
480.1163488611371
 20
248.2585920174095
 30
0.0
 40
0.066678347385
100
AcDbArc
 50
0.0
 51
102.7289000000025
  0
ARC
  5
313
330
18
100
AcDbEntity
  8
1
  6
Continuous
 48
0.25
100
AcDbCircle
 10
481.8486055011371
 20
240.5865897579095
 30
0.0
 40
7.932788083349999
100
AcDbArc
 50
102.7289000000025
 51
103.2681000000005
  0
ARC
  5
314
330
18
100
AcDbEntity
  8
1
  6
Continuous
 48
0.25
100
AcDbCircle
 10
481.8486055011371
 20
240.5865897579095
 30
0.0
 40
7.932788083349999
100
AcDbArc
 50
103.2681000000005
 51
105.2574999999984
  0
ARC
  5
315
330
18
100
AcDbEntity
  8
1
  6
Continuous
 48
0.25
100
AcDbCircle
 10
479.8497437376371
 20
247.9175539914095
 30
0.0
 40
0.333391736925
100
AcDbArc
 50
105.2574999999984
 51
180.0
  0
ARC
  5
316
330
18
100
AcDbEntity
  8
1
  6
Continuous
 48
0.25
100
AcDbCircle
 10
477.8495286486371
 20
246.1866506769095
 30
0.0
 40
1.717979055974999
100
AcDbArc
 50
180.0
 51
234.4620000000011
  0
ARC
  5
317
330
18
100
AcDbEntity
  8
1
  6
Continuous
 48
0.25
100
AcDbCircle
 10
477.8495286486371
 20
246.1866506769095
 30
0.0
 40
1.717979055974999
100
AcDbArc
 50
125.5377000000019
 51
166.5374
  0
ARC
  5
318
330
18
100
AcDbEntity
  8
1
  6
Continuous
100
AcDbCircle
 10
493.8486055013965
 20
167.1859740140537
 30
0.0
 40
3.0
100
AcDbArc
 50
0.0000000001074773
 51
90.00000000010663
  0
LINE
  5
319
330
18
100
AcDbEntity
  8
1
  6
Continuous
 48
0.25
100
AcDbLine
 10
485.181846207637
 20
246.1866506769095
 30
0.0
 11
485.181846207637
 21
244.5870199359095
 31
0.0
  0
LINE
  5
31A
330
18
100
AcDbEntity
  8
1
  6
Continuous
 48
0.25
100
AcDbLine
 10
485.8544489811372
 20
244.9388845659095
 30
0.0
 11
486.6082512846372
 21
247.7483883039095
 31
0.0
  0
LINE
  5
31B
330
18
100
AcDbEntity
  8
1
  6
Continuous
 48
0.25
100
AcDbLine
 10
484.1817386631371
 20
248.3776846614095
 30
0.0
 11
484.1817386631371
 21
244.2040288194096
 31
0.0
  0
ARC
  5
31C
330
18
100
AcDbEntity
  8
1
  6
Continuous
 48
0.25
100
AcDbCircle
 10
485.8490356791371
 20
246.1866506769095
 30
0.0
 40
1.717979055974999
100
AcDbArc
 50
305.5379999999987
 51
315.6989999999993
  0
LINE
  5
31D
330
18
100
AcDbEntity
  8
1
  6
Continuous
 48
0.25
100
AcDbLine
 10
484.8489281346372
 20
248.0637131454095
 30
0.0
 11
484.8489281346372
 21
246.5195687499095
 31
0.0
  0
LINE
  5
31E
330
18
100
AcDbEntity
  8
1
  6
Continuous
 48
0.25
100
AcDbLine
 10
485.5161176061371
 20
246.5195687499095
 30
0.0
 11
485.5161176061371
 21
247.9432671759095
 31
0.0
  0
ARC
  5
31F
330
18
100
AcDbEntity
  8
1
  6
Continuous
 48
0.25
100
AcDbCircle
 10
485.181846207637
 20
246.5195687499095
 30
0.0
 40
0.333391736925
100
AcDbArc
 50
180.0
 51
0.0
  0
LINE
  5
320
330
18
100
AcDbEntity
  8
1
  6
Continuous
 48
0.25
100
AcDbLine
 10
482.1828768996371
 20
248.5116638859095
 30
0.0
 11
482.1828768996371
 21
243.8602841424095
 31
0.0
  0
LINE
  5
321
330
18
100
AcDbEntity
  8
1
  6
Continuous
 48
0.25
100
AcDbLine
 10
482.8487130456371
 20
248.3803913124095
 30
0.0
 11
482.8487130456371
 21
243.9915567159095
 31
0.0
  0
LINE
  5
322
330
18
100
AcDbEntity
  8
1
  6
Continuous
 48
0.25
100
AcDbLine
 10
483.5159025171371
 20
244.3041749064095
 30
0.0
 11
483.5159025171371
 21
246.1866506769095
 31
0.0
  0
LINE
  5
323
330
18
100
AcDbEntity
  8
1
  6
Continuous
 48
0.25
100
AcDbLine
 10
481.5156874281369
 20
248.5116638859095
 30
0.0
 11
481.5156874281369
 21
243.8602841424095
 31
0.0
  0
ARC
  5
324
330
18
100
AcDbEntity
  8
1
  6
Continuous
 48
0.25
100
AcDbCircle
 10
483.1829844441369
 20
244.3041749064095
 30
0.0
 40
0.333391736925
100
AcDbArc
 50
280.1040000000003
 51
0.0
  0
ARC
  5
325
330
18
100
AcDbEntity
  8
1
  6
Continuous
 48
0.25
100
AcDbCircle
 10
482.9163793206372
 20
243.9915567159095
 30
0.0
 40
0.066678347385
100
AcDbArc
 50
180.0
 51
277.7929999999973
  0
ARC
  5
326
330
18
100
AcDbEntity
  8
1
  6
Continuous
 48
0.25
100
AcDbCircle
 10
481.8486055011371
 20
251.7853582704095
 30
0.0
 40
7.932788083349999
100
AcDbArc
 50
277.7929999999973
 51
280.1040000000003
  0
LINE
  5
327
330
18
100
AcDbEntity
  8
1
  6
Continuous
 48
0.25
100
AcDbLine
 10
483.5159025171371
 20
246.9864660474095
 30
0.0
 11
483.5159025171371
 21
248.0677731219095
 31
0.0
  0
LINE
  5
328
330
18
100
AcDbEntity
  8
1
  6
Continuous
 48
0.25
100
AcDbLine
 10
483.5159025171371
 20
246.1866506769095
 30
0.0
 11
483.1829844441369
 21
246.1866506769095
 31
0.0
  0
ARC
  5
329
330
18
100
AcDbEntity
  8
1
  6
Continuous
 48
0.25
100
AcDbCircle
 10
483.1829844441369
 20
248.0677731219095
 30
0.0
 40
0.333391736925
100
AcDbArc
 50
0.0
 51
79.89599999999967
  0
ARC
  5
32A
330
18
100
AcDbEntity
  8
1
  6
Continuous
 48
0.25
100
AcDbCircle
 10
481.8486055011371
 20
240.5865897579095
 30
0.0
 40
7.932788083349999
100
AcDbArc
 50
79.89599999999967
 51
82.20700000000267
  0
ARC
  5
32B
330
18
100
AcDbEntity
  8
1
  6
Continuous
 48
0.25
100
AcDbCircle
 10
482.9163793206372
 20
248.3803913124095
 30
0.0
 40
0.066678347385
100
AcDbArc
 50
82.20700000000267
 51
180.0
  0
ARC
  5
32C
330
18
100
AcDbEntity
  8
1
  6
Continuous
 48
0.25
100
AcDbCircle
 10
485.8490356791371
 20
246.1866506769095
 30
0.0
 40
1.717979055974999
100
AcDbArc
 50
332.2499999999996
 51
54.46200000000126
  0
LINE
  5
32D
330
18
100
AcDbEntity
  8
1
  6
Continuous
 48
0.25
100
AcDbLine
 10
487.5664057386371
 20
246.1866506769095
 30
0.0
 11
486.1887203796372
 21
246.1866506769095
 31
0.0
  0
LINE
  5
32E
330
18
100
AcDbEntity
  8
1
  6
Continuous
100
AcDbLine
 10
691.4643611409093
 20
259.1859740137717
 30
0.0
 11
691.4643611409093
 21
173.1859740137734
 31
0.0
  0
LINE
  5
32F
330
18
100
AcDbEntity
  8
1
  6
Continuous
100
AcDbLine
 10
688.464361140909
 20
170.1859740137733
 30
0.0
 11
687.4643611409092
 21
170.1859740137733
 31
0.0
  0
ARC
  5
330
330
18
100
AcDbEntity
  8
1
  6
Continuous
100
AcDbCircle
 10
729.2584314544853
 20
186.4006372959952
 30
0.0
 40
50.0
100
AcDbArc
 50
207.2226583412389
 51
236.5486879741877
  0
LINE
  5
331
330
18
100
AcDbEntity
  8
1
  6
Continuous
100
AcDbLine
 10
684.464361140909
 20
167.1859740137733
 30
0.0
 11
684.464361140909
 21
164.9005050493359
 31
0.0
  0
ARC
  5
332
330
18
100
AcDbEntity
  8
1
  6
Continuous
100
AcDbCircle
 10
687.4643611409092
 20
164.9005050493359
 30
0.0
 40
3.0
100
AcDbArc
 50
180.0
 51
207.2226583412389
  0
ARC
  5
333
330
18
100
AcDbEntity
  8
1
  6
Continuous
100
AcDbCircle
 10
687.4643611409092
 20
167.1859740137733
 30
0.0
 40
3.0
100
AcDbArc
 50
90.0
 51
180.0
  0
ARC
  5
334
330
18
100
AcDbEntity
  8
1
  6
Continuous
100
AcDbCircle
 10
703.3507070530216
 20
147.1859740137764
 30
0.0
 40
3.0
100
AcDbArc
 50
236.548687974187
 51
270.0
  0
ARC
  5
335
330
18
100
AcDbEntity
  8
1
  6
Continuous
100
AcDbCircle
 10
705.4643611409086
 20
149.1859740137725
 30
0.0
 40
5.0
100
AcDbArc
 50
270.0
 51
0.000000000000007
  0
LINE
  5
336
330
18
100
AcDbEntity
  8
1
  6
Continuous
100
AcDbLine
 10
703.3507070530216
 20
144.1859740137764
 30
0.0
 11
705.4643611409086
 21
144.1859740137764
 31
0.0
  0
ARC
  5
337
330
18
100
AcDbEntity
  8
1
  6
Continuous
100
AcDbCircle
 10
688.464361140909
 20
173.1859740137734
 30
0.0
 40
3.0
100
AcDbArc
 50
270.0
 51
0.000000000000007
  0
LINE
  5
338
330
18
100
AcDbEntity
  8
1
  6
Continuous
100
AcDbLine
 10
481.8486055011371
 20
281.9734848460568
 30
0.0
 11
474.6361163330345
 21
289.1859740141595
 31
0.0
  0
LINE
  5
339
330
18
100
AcDbEntity
  8
1
  6
Continuous
100
AcDbLine
 10
474.6361163330345
 20
289.1859740141595
 30
0.0
 11
481.8486055011375
 21
296.3984631822625
 31
0.0
  0
CIRCLE
  5
33A
330
18
100
AcDbEntity
  8
1
  6
Continuous
100
AcDbCircle
 10
481.8486055011113
 20
341.9806539593356
 30
0.0
 40
6.099999999999997
  0
CIRCLE
  5
33B
330
18
100
AcDbEntity
  8
1
  6
Continuous
100
AcDbCircle
 10
481.8486055011113
 20
341.9806539593356
 30
0.0
 40
8.0
  0
LINE
  5
33C
330
18
100
AcDbEntity
  8
4
  6
CENTER
100
AcDbLine
 10
471.8486055011111
 20
341.9806539593356
 30
0.0
 11
491.8486055011111
 21
341.9806539593356
 31
0.0
  0
LINE
  5
33D
330
18
100
AcDbEntity
  8
1
  6
Continuous
 48
0.25
100
AcDbLine
 10
480.4951145242286
 20
344.7695717020265
 30
0.0
 11
481.8456408938165
 21
343.4653835468349
 31
0.0
  0
LINE
  5
33E
330
18
100
AcDbEntity
  8
1
  6
Continuous
 48
0.25
100
AcDbLine
 10
481.8486055011113
 20
347.7536539593355
 30
0.0
 11
476.8486055011112
 21
344.8676539593355
 31
0.0
  0
LINE
  5
33F
330
18
100
AcDbEntity
  8
1
  6
Continuous
 48
0.25
100
AcDbLine
 10
481.8456408938165
 20
340.495924371836
 30
0.0
 11
480.4951145242286
 21
339.1917362166443
 31
0.0
  0
LINE
  5
340
330
18
100
AcDbEntity
  8
1
  6
Continuous
 48
0.25
100
AcDbLine
 10
476.8486055011112
 20
339.0936539593355
 30
0.0
 11
481.8486055011113
 21
336.2066539593355
 31
0.0
  0
CIRCLE
  5
341
330
18
100
AcDbEntity
  8
1
  6
Continuous
 48
0.25
100
AcDbCircle
 10
481.8486055011113
 20
341.9806539593356
 30
0.0
 40
5.0
  0
CIRCLE
  5
342
330
18
100
AcDbEntity
  8
1
  6
Continuous
 48
0.25
100
AcDbCircle
 10
481.8486055011113
 20
341.9806539593356
 30
0.0
 40
4.049999999999998
  0
ARC
  5
343
330
18
100
AcDbEntity
  8
1
  6
Continuous
100
AcDbCircle
 10
481.8486055011371
 20
289.1859740141595
 30
0.0
 40
21.99999999988606
100
AcDbArc
 50
65.83888532425444
 51
114.1611146757454
  0
ARC
  5
344
330
18
100
AcDbEntity
  8
1
  6
Continuous
100
AcDbCircle
 10
481.8486055011371
 20
289.1859740141595
 30
0.0
 40
6.0
100
AcDbArc
 50
79.4115086697669
 51
100.5884913302294
  0
ARC
  5
345
330
18
100
AcDbEntity
  8
1
  6
Continuous
100
AcDbCircle
 10
481.8486055011371
 20
289.1859740141595
 30
0.0
 40
6.0
100
AcDbArc
 50
259.4115086697696
 51
280.5884913302303
  0
CIRCLE
  5
346
330
18
100
AcDbEntity
  8
1
  6
Continuous
100
AcDbCircle
 10
481.8486055011371
 20
289.1859740141595
 30
0.0
 40
2.459
  0
CIRCLE
  5
347
330
18
100
AcDbEntity
  8
2
  6
Continuous
100
AcDbCircle
 10
481.8486055011371
 20
289.1859740141595
 30
0.0
 40
3.0
  0
CIRCLE
  5
348
330
18
100
AcDbEntity
  8
1
  6
Continuous
100
AcDbCircle
 10
481.8486055011371
 20
289.1859740141595
 30
0.0
 40
11.0000000000831
  0
CIRCLE
  5
349
330
18
100
AcDbEntity
  8
1
  6
Continuous
100
AcDbCircle
 10
481.8486055011371
 20
289.1859740141595
 30
0.0
 40
13.00000000008581
  0
LINE
  5
34A
330
18
100
AcDbEntity
  8
4
  6
CENTER
100
AcDbLine
 10
451.8486055011046
 20
289.1859740141595
 30
0.0
 11
511.8486055011697
 21
289.1859740141595
 31
0.0
  0
LINE
  5
34B
330
18
100
AcDbEntity
  8
1
  6
Continuous
100
AcDbLine
 10
484.8486055011371
 20
270.4859740142735
 30
0.0
 11
478.8486055011372
 21
270.4859740142735
 31
0.0
  0
LINE
  5
34C
330
18
100
AcDbEntity
  8
1
  6
Continuous
100
AcDbLine
 10
484.8486055011369
 20
266.4859740142739
 30
0.0
 11
478.8486055011367
 21
266.4859740142739
 31
0.0
  0
ARC
  5
34D
330
18
100
AcDbEntity
  8
1
  6
Continuous
100
AcDbCircle
 10
481.8486055011371
 20
289.1859740141595
 30
0.0
 40
23.99999999988606
100
AcDbArc
 50
245.3333616898786
 51
294.6666383101212
  0
CIRCLE
  5
34E
330
18
100
AcDbEntity
  8
1
  6
Continuous
100
AcDbCircle
 10
481.8486055011371
 20
289.1859740141595
 30
0.0
 40
25.00000000000005
  0
ARC
  5
34F
330
18
100
AcDbEntity
  8
1
  6
Continuous
 48
0.25
100
AcDbCircle
 10
386.28728240435
 20
284.8549740137715
 30
0.0
 40
2.555979683705014
100
AcDbArc
 50
145.6283631502078
 51
205.6283631501983
  0
ARC
  5
350
330
18
100
AcDbEntity
  8
1
  6
Continuous
 48
0.25
100
AcDbCircle
 10
385.17532303694
 20
284.8549740137715
 30
0.0
 40
2.555979683705014
100
AcDbArc
 50
334.3716368498089
 51
34.37163684979211
  0
LINE
  5
351
330
18
100
AcDbEntity
  8
1
  6
Continuous
 48
0.25
100
AcDbLine
 10
387.7313027206449
 20
294.1859740137715
 30
0.0
 11
387.7313027206449
 21
284.1849740137715
 31
0.0
  0
LINE
  5
352
330
18
100
AcDbEntity
  8
1
  6
Continuous
100
AcDbLine
 10
382.2313027206449
 20
297.1859740137602
 30
0.0
 11
382.2313027206449
 21
281.1859740137602
 31
0.0
  0
LINE
  5
353
330
18
100
AcDbEntity
  8
1
  6
Continuous
100
AcDbLine
 10
383.731302720645
 20
283.0859740137836
 30
0.0
 11
383.731302720645
 21
295.2859740137837
 31
0.0
  0
LINE
  5
354
330
18
100
AcDbEntity
  8
1
  6
Continuous
100
AcDbLine
 10
380.7313027206449
 20
281.1859740137602
 30
0.0
 11
380.7313027206449
 21
297.1859740137602
 31
0.0
  0
LINE
  5
355
330
18
100
AcDbEntity
  8
1
  6
Continuous
100
AcDbLine
 10
383.731302720645
 20
283.0859740137836
 30
0.0
 11
382.2313027206449
 21
283.0859740137836
 31
0.0
  0
LINE
  5
356
330
18
100
AcDbEntity
  8
1
  6
Continuous
100
AcDbLine
 10
380.7313027206449
 20
281.1859740137602
 30
0.0
 11
382.2313027206449
 21
281.1859740137602
 31
0.0
  0
ARC
  5
357
330
18
100
AcDbEntity
  8
1
  6
Continuous
 48
0.25
100
AcDbCircle
 10
385.1753027206452
 20
284.8559740137716
 30
0.0
 40
2.55582
100
AcDbArc
 50
325.6160000000007
 51
325.6471430520213
  0
ARC
  5
358
330
18
100
AcDbEntity
  8
1
  6
Continuous
 48
0.25
100
AcDbCircle
 10
386.287302720645
 20
284.8559740137716
 30
0.0
 40
2.55582
100
AcDbArc
 50
214.3528569479785
 51
214.383999999999
  0
LINE
  5
359
330
18
100
AcDbEntity
  8
1
  6
Continuous
 48
0.25
100
AcDbLine
 10
384.1775944787286
 20
283.4119740137715
 30
0.0
 11
387.2850109625614
 21
283.4119740137715
 31
0.0
  0
LINE
  5
35A
330
18
100
AcDbEntity
  8
1
  6
Continuous
 48
0.25
100
AcDbLine
 10
383.731302720645
 20
284.1849740137715
 30
0.0
 11
384.1775944787286
 21
283.4119740137715
 31
0.0
  0
LINE
  5
35B
330
18
100
AcDbEntity
  8
1
  6
Continuous
 48
0.25
100
AcDbLine
 10
387.7313027206449
 20
284.1849740137715
 30
0.0
 11
387.2850109625614
 21
283.4119740137715
 31
0.0
  0
LINE
  5
35C
330
18
100
AcDbEntity
  8
1
  6
Continuous
100
AcDbLine
 10
382.2313027206449
 20
289.1859740137716
 30
0.0
 11
383.731302720645
 21
290.6859740137716
 31
0.0
  0
LINE
  5
35D
330
18
100
AcDbEntity
  8
1
  6
Continuous
100
AcDbLine
 10
382.2313027206449
 20
287.6859740137716
 30
0.0
 11
383.731302720645
 21
289.1859740137716
 31
0.0
  0
LINE
  5
35E
330
18
100
AcDbEntity
  8
4
  6
CENTER
100
AcDbLine
 10
375.7567261550714
 20
289.1859740137716
 30
0.0
 11
391.5261085935494
 21
289.1859740137716
 31
0.0
  0
LINE
  5
35F
330
18
100
AcDbEntity
  8
1
  6
Continuous
100
AcDbLine
 10
383.731302720645
 20
295.2859740137837
 30
0.0
 11
382.2313027206449
 21
295.2859740137837
 31
0.0
  0
LINE
  5
360
330
18
100
AcDbEntity
  8
1
  6
Continuous
100
AcDbLine
 10
380.7313027206449
 20
297.1859740137602
 30
0.0
 11
382.2313027206449
 21
297.1859740137602
 31
0.0
  0
LINE
  5
361
330
18
100
AcDbEntity
  8
1
  6
Continuous
 48
0.25
100
AcDbLine
 10
383.731302720645
 20
294.1859740137715
 30
0.0
 11
384.1775944787286
 21
294.9589740137716
 31
0.0
  0
ARC
  5
362
330
18
100
AcDbEntity
  8
1
  6
Continuous
 48
0.25
100
AcDbCircle
 10
386.28728240435
 20
293.5159740137716
 30
0.0
 40
2.555979683705014
100
AcDbArc
 50
154.3716368497972
 51
214.3716368497921
  0
LINE
  5
363
330
18
100
AcDbEntity
  8
1
  6
Continuous
 48
0.25
100
AcDbLine
 10
384.1775944787286
 20
294.9589740137716
 30
0.0
 11
387.2850109625614
 21
294.9589740137716
 31
0.0
  0
LINE
  5
364
330
18
100
AcDbEntity
  8
1
  6
Continuous
 48
0.25
100
AcDbLine
 10
384.1775944787286
 20
292.0729740137716
 30
0.0
 11
387.2850109625614
 21
292.0729740137715
 31
0.0
  0
LINE
  5
365
330
18
100
AcDbEntity
  8
1
  6
Continuous
 48
0.25
100
AcDbLine
 10
387.7313027206449
 20
294.1859740137715
 30
0.0
 11
387.2850109625614
 21
294.9589740137716
 31
0.0
  0
ARC
  5
366
330
18
100
AcDbEntity
  8
1
  6
Continuous
 48
0.25
100
AcDbCircle
 10
385.17532303694
 20
293.5159740137716
 30
0.0
 40
2.555979683705014
100
AcDbArc
 50
325.6283631502078
 51
25.62836315019695
  0
LINE
  5
367
330
18
100
AcDbEntity
  8
1
  6
Continuous
 48
0.25
100
AcDbLine
 10
384.1775944787286
 20
286.2989740137716
 30
0.0
 11
387.2850109625614
 21
286.2989740137716
 31
0.0
  0
ARC
  5
368
330
18
100
AcDbEntity
  8
1
  6
Continuous
 48
0.25
100
AcDbCircle
 10
393.2922515604566
 20
289.1859740137716
 30
0.0
 40
9.560948839811523
100
AcDbArc
 50
162.4247882023555
 51
197.5752117976444
  0
ARC
  5
369
330
18
100
AcDbEntity
  8
1
  6
Continuous
 48
0.25
100
AcDbCircle
 10
378.1703538808334
 20
289.1859740137716
 30
0.0
 40
9.560948839811523
100
AcDbArc
 50
342.4247882023546
 51
17.57521179764539
  0
LINE
  5
36A
330
18
100
AcDbEntity
  8
4
  6
CENTER
100
AcDbLine
 10
468.3486055011372
 20
297.1859740141597
 30
0.0
 11
468.3486055011374
 21
308.1859740141597
 31
0.0
  0
LINE
  5
36B
330
18
100
AcDbEntity
  8
1
  6
Continuous
100
AcDbLine
 10
472.3865759444468
 20
307.8474135116804
 30
0.0
 11
475.9057953961344
 21
301.7343737334217
 31
0.0
  0
CIRCLE
  5
36C
330
18
100
AcDbEntity
  8
1
  6
Continuous
100
AcDbCircle
 10
468.3486055011371
 20
302.6859740141597
 30
0.0
 40
3.064999999999991
  0
CIRCLE
  5
36D
330
18
100
AcDbEntity
  8
1
  6
Continuous
100
AcDbCircle
 10
468.3486055011371
 20
302.6859740141597
 30
0.0
 40
4.0
  0
ARC
  5
36E
330
18
100
AcDbEntity
  8
1
  6
Continuous
100
AcDbCircle
 10
468.8012849401335
 20
284.1098114694003
 30
0.0
 40
1.0
100
AcDbArc
 50
299.9286291101207
 51
21.25891427584027
  0
LINE
  5
36F
330
18
100
AcDbEntity
  8
1
  6
Continuous
100
AcDbLine
 10
480.7460820387357
 20
283.2881403428144
 30
0.0
 11
475.9507718297919
 21
288.083450551758
 31
0.0
  0
ARC
  5
370
330
18
100
AcDbEntity
  8
1
  6
Continuous
100
AcDbCircle
 10
481.8486055011368
 20
289.1859740141595
 30
0.0
 40
21.99999999988606
100
AcDbArc
 50
155.8388853242529
 51
204.1611146758524
  0
CIRCLE
  5
371
330
18
100
AcDbEntity
  8
1
  6
Continuous
100
AcDbCircle
 10
468.3486055011371
 20
275.6859740141596
 30
0.0
 40
3.064999999999991
  0
LINE
  5
372
330
18
100
AcDbEntity
  8
4
  6
CENTER
100
AcDbLine
 10
473.8486055011371
 20
275.6859740141596
 30
0.0
 11
462.8486055011372
 21
275.6859740141596
 31
0.0
  0
LINE
  5
373
330
18
100
AcDbEntity
  8
1
  6
Continuous
100
AcDbLine
 10
463.1871660036167
 20
279.7239444574691
 30
0.0
 11
469.3002057818753
 21
283.2431639091569
 31
0.0
  0
ARC
  5
374
330
18
100
AcDbEntity
  8
1
  6
Continuous
100
AcDbCircle
 10
461.8486055011372
 20
266.8252942391585
 30
0.0
 40
5.0
100
AcDbArc
 50
0.0
 51
48.18968510422097
  0
CIRCLE
  5
375
330
18
100
AcDbEntity
  8
1
  6
Continuous
100
AcDbCircle
 10
468.3486055011371
 20
275.6859740141596
 30
0.0
 40
4.0
  0
ARC
  5
376
330
18
100
AcDbEntity
  8
1
  6
Continuous
100
AcDbCircle
 10
462.6882451618751
 20
280.5905920177126
 30
0.0
 40
1.0
100
AcDbArc
 50
204.1611146757452
 51
299.9286291101213
  0
CIRCLE
  5
377
330
18
100
AcDbEntity
  8
1
  6
Continuous
100
AcDbCircle
 10
468.3486055011371
 20
275.6859740141596
 30
0.0
 40
2.066999999999999
  0
CIRCLE
  5
378
330
18
100
AcDbEntity
  8
2
  6
Continuous
100
AcDbCircle
 10
468.3486055011371
 20
275.6859740141596
 30
0.0
 40
2.5
  0
LINE
  5
379
330
18
100
AcDbEntity
  8
4
  6
CENTER
100
AcDbLine
 10
468.3486055011371
 20
281.1859740141596
 30
0.0
 11
468.3486055011371
 21
270.1859740141596
 31
0.0
  0
LINE
  5
37A
330
18
100
AcDbEntity
  8
1
  6
Continuous
100
AcDbLine
 10
475.9057612591739
 20
276.637694804027
 30
0.0
 11
471.3832342709066
 21
268.7837017430251
 31
0.0
  0
ARC
  5
37B
330
18
100
AcDbEntity
  8
1
  6
Continuous
100
AcDbCircle
 10
472.2498313924606
 20
268.2846932972905
 30
0.0
 40
1.0
100
AcDbArc
 50
150.0655790485532
 51
245.3333616898786
  0
LINE
  5
37C
330
18
100
AcDbEntity
  8
1
  6
Continuous
100
AcDbLine
 10
478.848605501137
 20
266.4859740142744
 30
0.0
 11
478.8486055011373
 21
270.4859740142735
 31
0.0
  0
LINE
  5
37D
330
18
100
AcDbEntity
  8
1
  6
Continuous
100
AcDbLine
 10
478.2986055011368
 20
278.7745620060875
 30
0.0
 11
478.2986055011368
 21
276.6800754058136
 31
0.0
  0
ARC
  5
37E
330
18
100
AcDbEntity
  8
1
  6
Continuous
100
AcDbCircle
 10
476.7723583807276
 20
276.1386863582925
 30
0.0
 40
1.0
100
AcDbArc
 50
68.74071431963139
 51
150.0655790485532
  0
LINE
  5
37F
330
18
100
AcDbEntity
  8
4
  6
CENTER
100
AcDbLine
 10
473.8486055011373
 20
302.6859740141597
 30
0.0
 11
462.8486055011372
 21
302.6859740141598
 31
0.0
  0
LINE
  5
380
330
18
100
AcDbEntity
  8
1
  6
Continuous
100
AcDbLine
 10
463.1871660036167
 20
298.6480035708502
 30
0.0
 11
469.3002057818751
 21
295.1287841191624
 31
0.0
  0
LINE
  5
381
330
18
100
AcDbEntity
  8
1
  6
Continuous
100
AcDbLine
 10
457.0292582091826
 20
292.1859740141137
 30
0.0
 11
460.0541107835438
 21
292.1859740141193
 31
0.0
  0
LINE
  5
382
330
18
100
AcDbEntity
  8
1
  6
Continuous
100
AcDbLine
 10
457.0292582091938
 20
286.1859740141137
 30
0.0
 11
460.0541107835546
 21
286.1859740141192
 31
0.0
  0
ARC
  5
383
330
18
100
AcDbEntity
  8
1
  6
Continuous
100
AcDbCircle
 10
462.6882451618753
 20
297.7813560106067
 30
0.0
 40
1.0
100
AcDbArc
 50
60.071370889877
 51
155.8388853242529
  0
ARC
  5
384
330
18
100
AcDbEntity
  8
1
  6
Continuous
100
AcDbCircle
 10
468.8012849401338
 20
294.2621365589189
 30
0.0
 40
1.0
100
AcDbArc
 50
338.7410857241578
 51
60.07137088987853
  0
LINE
  5
385
330
18
100
AcDbEntity
  8
1
  6
Continuous
100
AcDbLine
 10
475.9507718297919
 20
290.2884974765612
 30
0.0
 11
480.7460820387357
 21
295.0838076855049
 31
0.0
  0
ARC
  5
386
330
18
100
AcDbEntity
  8
1
  6
Continuous
100
AcDbCircle
 10
481.8486055011371
 20
289.1859740141595
 30
0.0
 40
6.0
100
AcDbArc
 50
169.4115086697703
 51
190.5884913302296
  0
CIRCLE
  5
387
330
18
100
AcDbEntity
  8
1
  6
Continuous
100
AcDbCircle
 10
468.3486055011374
 20
302.6859740141597
 30
0.0
 40
2.066999999999999
  0
CIRCLE
  5
388
330
18
100
AcDbEntity
  8
2
  6
Continuous
100
AcDbCircle
 10
468.3486055011374
 20
302.6859740141597
 30
0.0
 40
2.5
  0
ARC
  5
389
330
18
100
AcDbEntity
  8
1
  6
Continuous
100
AcDbCircle
 10
476.7724429563778
 20
302.2332945751629
 30
0.0
 40
1.0
100
AcDbArc
 50
209.92862911012
 51
291.258914275841
  0
ARC
  5
38A
330
18
100
AcDbEntity
  8
1
  6
Continuous
100
AcDbCircle
 10
473.2532235046901
 20
308.3463343534215
 30
0.0
 40
1.0
100
AcDbArc
 50
114.1611146757454
 51
209.9286291101218
  0
LINE
  5
38B
330
18
100
AcDbEntity
  8
1
  6
Continuous
100
AcDbLine
 10
478.8486055010911
 20
314.0053213061029
 30
0.0
 11
478.8486055010968
 21
310.9804687317418
 31
0.0
  0
ARC
  5
38C
330
18
100
AcDbEntity
  8
1
  6
Continuous
 48
0.25
100
AcDbCircle
 10
481.8486055011109
 20
341.9806539593354
 30
0.0
 40
3.1
100
AcDbArc
 50
115.8877845283007
 51
154.112215471699
  0
LINE
  5
38D
330
18
100
AcDbEntity
  8
1
  6
Continuous
 48
0.25
100
AcDbLine
 10
480.3647822850201
 20
341.9806539593356
 30
0.0
 11
480.3638759136118
 21
341.9776893520406
 31
0.0
  0
LINE
  5
38E
330
18
100
AcDbEntity
  8
1
  6
Continuous
 48
0.25
100
AcDbLine
 10
480.3647822850201
 20
341.9806539593356
 30
0.0
 11
480.3638759136118
 21
341.9836185666302
 31
0.0
  0
ARC
  5
38F
330
18
100
AcDbEntity
  8
1
  6
Continuous
 48
0.25
100
AcDbCircle
 10
481.8486055011109
 20
341.9806539593354
 30
0.0
 40
3.1
100
AcDbArc
 50
205.8877845282993
 51
244.1122154717006
  0
LINE
  5
390
330
18
100
AcDbEntity
  8
1
  6
Continuous
 48
0.25
100
AcDbLine
 10
480.3638759136118
 20
341.9776893520406
 30
0.0
 11
479.0596877584199
 21
340.627162982453
 31
0.0
  0
LINE
  5
391
330
18
100
AcDbEntity
  8
1
  6
Continuous
 48
0.25
100
AcDbLine
 10
476.8486055011112
 20
339.0936539593355
 30
0.0
 11
476.8486055011112
 21
344.8676539593355
 31
0.0
  0
LINE
  5
392
330
18
100
AcDbEntity
  8
1
  6
Continuous
 48
0.25
100
AcDbLine
 10
479.0596877584199
 20
343.334144936218
 30
0.0
 11
480.3638759136118
 21
341.9836185666303
 31
0.0
  0
LINE
  5
393
330
18
100
AcDbEntity
  8
1
  6
Continuous
100
AcDbLine
 10
382.2313027206449
 20
400.497240099866
 30
0.0
 11
383.731302720645
 21
401.9972400998661
 31
0.0
  0
LINE
  5
394
330
18
100
AcDbEntity
  8
1
  6
Continuous
100
AcDbLine
 10
382.2313027206449
 20
401.9972400998661
 30
0.0
 11
383.731302720645
 21
403.497240099866
 31
0.0
  0
LINE
  5
395
330
18
100
AcDbEntity
  8
1
  6
Continuous
100
AcDbLine
 10
383.731302720645
 20
408.0972400998781
 30
0.0
 11
382.2313027206449
 21
408.0972400998781
 31
0.0
  0
LINE
  5
396
330
18
100
AcDbEntity
  8
1
  6
Continuous
100
AcDbLine
 10
383.731302720645
 20
395.8972400998782
 30
0.0
 11
382.2313027206449
 21
395.8972400998782
 31
0.0
  0
LINE
  5
397
330
18
100
AcDbEntity
  8
4
  6
CENTER
100
AcDbLine
 10
375.7567261550714
 20
401.9972400998661
 30
0.0
 11
391.5261085935494
 21
401.9972400998661
 31
0.0
  0
LINE
  5
398
330
18
100
AcDbEntity
  8
1
  6
Continuous
100
AcDbLine
 10
380.7313027206449
 20
393.9972400998546
 30
0.0
 11
380.7313027206449
 21
409.9972400998549
 31
0.0
  0
LINE
  5
399
330
18
100
AcDbEntity
  8
1
  6
Continuous
100
AcDbLine
 10
382.2313027206449
 20
409.9972400998549
 30
0.0
 11
382.2313027206449
 21
393.9972400998546
 31
0.0
  0
LINE
  5
39A
330
18
100
AcDbEntity
  8
1
  6
Continuous
100
AcDbLine
 10
380.7313027206449
 20
393.9972400998546
 30
0.0
 11
382.2313027206449
 21
393.9972400998546
 31
0.0
  0
LINE
  5
39B
330
18
100
AcDbEntity
  8
1
  6
Continuous
100
AcDbLine
 10
380.7313027206449
 20
409.9972400998549
 30
0.0
 11
382.2313027206449
 21
409.9972400998549
 31
0.0
  0
ARC
  5
39C
330
18
100
AcDbEntity
  8
1
  6
Continuous
 48
0.25
100
AcDbCircle
 10
380.5060109507202
 20
399.4972400998661
 30
0.0
 40
7.225291769924896
100
AcDbArc
 50
339.7567340180144
 51
20.24326598198539
  0
LINE
  5
39D
330
18
100
AcDbEntity
  8
1
  6
Continuous
 48
0.25
100
AcDbLine
 10
387.7313027206449
 20
406.997240099866
 30
0.0
 11
387.7313027206449
 21
396.9972400998661
 31
0.0
  0
ARC
  5
39E
330
18
100
AcDbEntity
  8
1
  6
Continuous
 48
0.25
100
AcDbCircle
 10
390.9565944905698
 20
399.4972400998661
 30
0.0
 40
7.225291769924896
100
AcDbArc
 50
159.7567340180134
 51
200.2432659819865
  0
LINE
  5
39F
330
18
100
AcDbEntity
  8
1
  6
Continuous
 48
0.25
100
AcDbLine
 10
383.731302720645
 20
406.997240099866
 30
0.0
 11
383.731302720645
 21
396.9972400998661
 31
0.0
  0
LINE
  5
3A0
330
18
100
AcDbEntity
  8
1
  6
Continuous
100
AcDbLine
 10
383.731302720645
 20
395.8972400998782
 30
0.0
 11
383.731302720645
 21
408.0972400998781
 31
0.0
  0
LINE
  5
3A1
330
18
100
AcDbEntity
  8
1
  6
Continuous
 48
0.25
100
AcDbLine
 10
387.7313027206449
 20
396.9972400998661
 30
0.0
 11
383.731302720645
 21
396.9972400998661
 31
0.0
  0
ARC
  5
3A2
330
18
100
AcDbEntity
  8
1
  6
Continuous
 48
0.25
100
AcDbCircle
 10
380.5060109507202
 20
404.497240099866
 30
0.0
 40
7.225291769924896
100
AcDbArc
 50
339.7567340180144
 51
20.24326598198539
  0
ARC
  5
3A3
330
18
100
AcDbEntity
  8
1
  6
Continuous
 48
0.25
100
AcDbCircle
 10
390.9565944905698
 20
404.497240099866
 30
0.0
 40
7.225291769924896
100
AcDbArc
 50
159.7567340180134
 51
200.2432659819865
  0
LINE
  5
3A4
330
18
100
AcDbEntity
  8
1
  6
Continuous
 48
0.25
100
AcDbLine
 10
387.7313027206449
 20
406.997240099866
 30
0.0
 11
383.731302720645
 21
406.997240099866
 31
0.0
  0
LINE
  5
3A5
330
18
100
AcDbEntity
  8
1
  6
Continuous
 48
0.25
100
AcDbLine
 10
384.1775944787286
 20
401.9972400998661
 30
0.0
 11
387.2850109625614
 21
401.9972400998661
 31
0.0
  0
LINE
  5
3A6
330
18
100
AcDbEntity
  8
4
  6
CENTER
100
AcDbLine
 10
481.8486055011113
 20
331.9806539593354
 30
0.0
 11
481.8486055011113
 21
351.9806539593355
 31
0.0
  0
LINE
  5
3A7
330
18
100
AcDbEntity
  8
4
  6
CENTER
100
AcDbLine
 10
495.3486055011373
 20
297.1859740141595
 30
0.0
 11
495.3486055011373
 21
308.1859740141595
 31
0.0
  0
CIRCLE
  5
3A8
330
18
100
AcDbEntity
  8
1
  6
Continuous
100
AcDbCircle
 10
495.3486055011373
 20
302.6859740141595
 30
0.0
 40
4.0
  0
LINE
  5
3A9
330
18
100
AcDbEntity
  8
1
  6
Continuous
100
AcDbLine
 10
491.3106350578279
 20
307.8474135116802
 30
0.0
 11
487.7914156061401
 21
301.7343737334215
 31
0.0
  0
CIRCLE
  5
3AA
330
18
100
AcDbEntity
  8
1
  6
Continuous
100
AcDbCircle
 10
495.3486055011373
 20
302.6859740141596
 30
0.0
 40
3.064999999999991
  0
LINE
  5
3AB
330
18
100
AcDbEntity
  8
1
  6
Continuous
100
AcDbLine
 10
481.8486055011371
 20
281.9734848460568
 30
0.0
 11
489.0610946692401
 21
289.1859740141595
 31
0.0
  0
ARC
  5
3AC
330
18
100
AcDbEntity
  8
1
  6
Continuous
100
AcDbCircle
 10
494.8959260621406
 20
284.1098114694
 30
0.0
 40
1.0
100
AcDbArc
 50
158.7410857241579
 51
240.0713708898785
  0
ARC
  5
3AD
330
18
100
AcDbEntity
  8
1
  6
Continuous
100
AcDbCircle
 10
481.8486055011368
 20
289.1859740141596
 30
0.0
 40
21.99999999988606
100
AcDbArc
 50
335.83888532436
 51
24.16111467585237
  0
LINE
  5
3AE
330
18
100
AcDbEntity
  8
1
  6
Continuous
100
AcDbLine
 10
482.9511289635387
 20
283.2881403428144
 30
0.0
 11
487.7464391724826
 21
288.0834505517582
 31
0.0
  0
CIRCLE
  5
3AF
330
18
100
AcDbEntity
  8
2
  6
Continuous
100
AcDbCircle
 10
495.3486055011372
 20
275.6859740141595
 30
0.0
 40
2.5
  0
CIRCLE
  5
3B0
330
18
100
AcDbEntity
  8
1
  6
Continuous
100
AcDbCircle
 10
495.3486055011372
 20
275.6859740141595
 30
0.0
 40
2.066999999999999
  0
CIRCLE
  5
3B1
330
18
100
AcDbEntity
  8
1
  6
Continuous
100
AcDbCircle
 10
495.3486055011372
 20
275.6859740141595
 30
0.0
 40
3.064999999999991
  0
LINE
  5
3B2
330
18
100
AcDbEntity
  8
4
  6
CENTER
100
AcDbLine
 10
500.8486055011371
 20
275.6859740141593
 30
0.0
 11
489.8486055011369
 21
275.6859740141595
 31
0.0
  0
LINE
  5
3B3
330
18
100
AcDbEntity
  8
1
  6
Continuous
100
AcDbLine
 10
500.5100449986581
 20
279.7239444574686
 30
0.0
 11
494.3970052203995
 21
283.2431639091565
 31
0.0
  0
ARC
  5
3B4
330
18
100
AcDbEntity
  8
1
  6
Continuous
100
AcDbCircle
 10
501.8486055011371
 20
266.8252942391647
 30
0.0
 40
5.0
100
AcDbArc
 50
131.8103148957789
 51
180.0
  0
CIRCLE
  5
3B5
330
18
100
AcDbEntity
  8
1
  6
Continuous
100
AcDbCircle
 10
495.3486055011372
 20
275.6859740141595
 30
0.0
 40
4.0
  0
LINE
  5
3B6
330
18
100
AcDbEntity
  8
4
  6
CENTER
100
AcDbLine
 10
495.3486055011372
 20
281.1859740141594
 30
0.0
 11
495.348605501137
 21
270.1859740141594
 31
0.0
  0
LINE
  5
3B7
330
18
100
AcDbEntity
  8
1
  6
Continuous
100
AcDbLine
 10
487.7914497431002
 20
276.637694804027
 30
0.0
 11
492.3139767313672
 21
268.7837017430251
 31
0.0
  0
LINE
  5
3B8
330
18
100
AcDbEntity
  8
1
  6
Continuous
100
AcDbLine
 10
484.8486055011369
 20
266.4859740142739
 30
0.0
 11
484.8486055011371
 21
270.4859740142735
 31
0.0
  0
ARC
  5
3B9
330
18
100
AcDbEntity
  8
1
  6
Continuous
100
AcDbCircle
 10
491.4473796098135
 20
268.2846932972904
 30
0.0
 40
1.0
100
AcDbArc
 50
294.6666383101212
 51
29.93442095144498
  0
LINE
  5
3BA
330
18
100
AcDbEntity
  8
1
  6
Continuous
100
AcDbLine
 10
485.398605501137
 20
278.7745620060873
 30
0.0
 11
485.398605501137
 21
276.6800754058134
 31
0.0
  0
ARC
  5
3BB
330
18
100
AcDbEntity
  8
1
  6
Continuous
100
AcDbCircle
 10
486.9248526215463
 20
276.1386863582924
 30
0.0
 40
1.0
100
AcDbArc
 50
29.93442095144678
 51
111.2592856803685
  0
ARC
  5
3BC
330
18
100
AcDbEntity
  8
1
  6
Continuous
100
AcDbCircle
 10
501.008965840399
 20
280.5905920177126
 30
0.0
 40
1.0
100
AcDbArc
 50
240.071370889877
 51
335.8388853242528
  0
CIRCLE
  5
3BD
330
18
100
AcDbEntity
  8
1
  6
Continuous
100
AcDbCircle
 10
495.3486055011373
 20
302.6859740141596
 30
0.0
 40
2.066999999999999
  0
LINE
  5
3BE
330
18
100
AcDbEntity
  8
4
  6
CENTER
100
AcDbLine
 10
500.8486055011371
 20
302.6859740141595
 30
0.0
 11
489.8486055011373
 21
302.6859740141596
 31
0.0
  0
LINE
  5
3BF
330
18
100
AcDbEntity
  8
1
  6
Continuous
100
AcDbLine
 10
500.5100449986581
 20
298.6480035708502
 30
0.0
 11
494.3970052203995
 21
295.1287841191625
 31
0.0
  0
CIRCLE
  5
3C0
330
18
100
AcDbEntity
  8
2
  6
Continuous
100
AcDbCircle
 10
495.3486055011373
 20
302.6859740141596
 30
0.0
 40
2.5
  0
LINE
  5
3C1
330
18
100
AcDbEntity
  8
1
  6
Continuous
100
AcDbLine
 10
489.0610946692401
 20
289.1859740141595
 30
0.0
 11
481.8486055011375
 21
296.3984631822625
 31
0.0
  0
ARC
  5
3C2
330
18
100
AcDbEntity
  8
1
  6
Continuous
100
AcDbCircle
 10
494.8959260621406
 20
294.2621365589189
 30
0.0
 40
1.0
100
AcDbArc
 50
119.9286291101206
 51
201.2589142758403
  0
LINE
  5
3C3
330
18
100
AcDbEntity
  8
1
  6
Continuous
100
AcDbLine
 10
487.7464391724823
 20
290.2884974765613
 30
0.0
 11
482.9511289635389
 21
295.0838076855049
 31
0.0
  0
ARC
  5
3C4
330
18
100
AcDbEntity
  8
1
  6
Continuous
100
AcDbCircle
 10
481.8486055011371
 20
289.1859740141595
 30
0.0
 40
6.0
100
AcDbArc
 50
349.4115086697685
 51
10.58849133023293
  0
ARC
  5
3C5
330
18
100
AcDbEntity
  8
1
  6
Continuous
100
AcDbCircle
 10
486.9247680458966
 20
302.233294575163
 30
0.0
 40
1.0
100
AcDbArc
 50
248.741085724158
 51
330.0713708898781
  0
LINE
  5
3C6
330
18
100
AcDbEntity
  8
1
  6
Continuous
100
AcDbLine
 10
504.8362215321765
 20
298.9937787026229
 30
0.0
 11
502.4011643842809
 21
297.5878978027871
 31
0.0
  0
ARC
  5
3C7
330
18
100
AcDbEntity
  8
1
  6
Continuous
100
AcDbCircle
 10
501.0089658403993
 20
297.7813560106066
 30
0.0
 40
1.0
100
AcDbArc
 50
24.16111467574522
 51
119.9286291101214
  0
LINE
  5
3C8
330
18
100
AcDbEntity
  8
1
  6
Continuous
100
AcDbLine
 10
501.8362215321671
 20
304.189931125324
 30
0.0
 11
499.4011643842714
 21
302.7840502254884
 31
0.0
  0
LINE
  5
3C9
330
18
100
AcDbEntity
  8
1
  6
Continuous
100
AcDbLine
 10
499.4011643842714
 20
302.7840502254884
 30
0.0
 11
502.4011643842809
 21
297.587897802787
 31
0.0
  0
LINE
  5
3CA
330
18
100
AcDbEntity
  8
1
  6
Continuous
100
AcDbLine
 10
484.8486055010915
 20
314.005321306114
 30
0.0
 11
484.8486055010968
 21
310.9804687317529
 31
0.0
  0
ARC
  5
3CB
330
18
100
AcDbEntity
  8
1
  6
Continuous
100
AcDbCircle
 10
490.4439874975843
 20
308.3463343534215
 30
0.0
 40
1.0
100
AcDbArc
 50
330.0713708898781
 51
65.83888532425368
  0
LINE
  5
3CC
330
18
100
AcDbEntity
  8
1
  6
Continuous
 48
0.25
100
AcDbLine
 10
486.8486055011111
 20
339.0936539593355
 30
0.0
 11
481.8486055011113
 21
336.2066539593355
 31
0.0
  0
LINE
  5
3CD
330
18
100
AcDbEntity
  8
1
  6
Continuous
 48
0.25
100
AcDbLine
 10
486.8486055011111
 20
339.0936539593355
 30
0.0
 11
486.8486055011111
 21
344.8676539593355
 31
0.0
  0
LINE
  5
3CE
330
18
100
AcDbEntity
  8
1
  6
Continuous
 48
0.25
100
AcDbLine
 10
481.8486055011113
 20
343.4644771754264
 30
0.0
 11
481.8456408938161
 21
343.4653835468349
 31
0.0
  0
LINE
  5
3CF
330
18
100
AcDbEntity
  8
1
  6
Continuous
 48
0.25
100
AcDbLine
 10
481.8486055011113
 20
343.4644771754264
 30
0.0
 11
481.8515701084058
 21
343.4653835468349
 31
0.0
  0
LINE
  5
3D0
330
18
100
AcDbEntity
  8
1
  6
Continuous
 48
0.25
100
AcDbLine
 10
481.8515701084058
 20
343.4653835468349
 30
0.0
 11
483.2020964779935
 21
344.7695717020266
 31
0.0
  0
LINE
  5
3D1
330
18
100
AcDbEntity
  8
1
  6
Continuous
 48
0.25
100
AcDbLine
 10
483.2020964779936
 20
339.1917362166443
 30
0.0
 11
481.8515701084058
 21
340.4959243718361
 31
0.0
  0
LINE
  5
3D2
330
18
100
AcDbEntity
  8
1
  6
Continuous
 48
0.25
100
AcDbLine
 10
483.3324287172017
 20
341.9806539593356
 30
0.0
 11
483.3333350886105
 21
341.9836185666302
 31
0.0
  0
LINE
  5
3D3
330
18
100
AcDbEntity
  8
1
  6
Continuous
 48
0.25
100
AcDbLine
 10
483.3324287172017
 20
341.9806539593356
 30
0.0
 11
483.3333350886105
 21
341.9776893520406
 31
0.0
  0
LINE
  5
3D4
330
18
100
AcDbEntity
  8
1
  6
Continuous
 48
0.25
100
AcDbLine
 10
481.8486055011113
 20
340.4968307432446
 30
0.0
 11
481.8515701084058
 21
340.495924371836
 31
0.0
  0
LINE
  5
3D5
330
18
100
AcDbEntity
  8
1
  6
Continuous
 48
0.25
100
AcDbLine
 10
481.8486055011113
 20
340.4968307432446
 30
0.0
 11
481.8456408938165
 21
340.495924371836
 31
0.0
  0
LINE
  5
3D6
330
18
100
AcDbEntity
  8
1
  6
Continuous
 48
0.25
100
AcDbLine
 10
481.8486055011113
 20
347.7536539593355
 30
0.0
 11
486.8486055011111
 21
344.8676539593355
 31
0.0
  0
ARC
  5
3D7
330
18
100
AcDbEntity
  8
1
  6
Continuous
 48
0.25
100
AcDbCircle
 10
481.8486055011109
 20
341.9806539593354
 30
0.0
 40
3.1
100
AcDbArc
 50
295.8877845283006
 51
334.1122154717006
  0
LINE
  5
3D8
330
18
100
AcDbEntity
  8
1
  6
Continuous
 48
0.25
100
AcDbLine
 10
484.6375232438023
 20
340.6271629824528
 30
0.0
 11
483.3333350886105
 21
341.9776893520406
 31
0.0
  0
LINE
  5
3D9
330
18
100
AcDbEntity
  8
1
  6
Continuous
 48
0.25
100
AcDbLine
 10
483.3333350886105
 20
341.9836185666302
 30
0.0
 11
484.6375232438023
 21
343.3341449362178
 31
0.0
  0
ARC
  5
3DA
330
18
100
AcDbEntity
  8
1
  6
Continuous
 48
0.25
100
AcDbCircle
 10
481.8486055011109
 20
341.9806539593354
 30
0.0
 40
3.1
100
AcDbArc
 50
25.88778452829937
 51
64.11221547170064
  0
LINE
  5
3DB
330
18
100
AcDbEntity
  8
1
  6
Continuous
100
AcDbLine
 10
579.9659082819045
 20
283.0859740137836
 30
0.0
 11
579.9659082819045
 21
295.2859740137837
 31
0.0
  0
LINE
  5
3DC
330
18
100
AcDbEntity
  8
1
  6
Continuous
100
AcDbLine
 10
581.4659082819049
 20
297.1859740137602
 30
0.0
 11
581.4659082819049
 21
281.1859740137602
 31
0.0
  0
LINE
  5
3DD
330
18
100
AcDbEntity
  8
1
  6
Continuous
 48
0.25
100
AcDbLine
 10
575.9659082819047
 20
294.1859740137715
 30
0.0
 11
575.9659082819047
 21
284.1849740137715
 31
0.0
  0
LINE
  5
3DE
330
18
100
AcDbEntity
  8
1
  6
Continuous
100
AcDbLine
 10
582.9659082819047
 20
281.1859740137602
 30
0.0
 11
582.9659082819047
 21
297.1859740137602
 31
0.0
  0
ARC
  5
3DF
330
18
100
AcDbEntity
  8
1
  6
Continuous
 48
0.25
100
AcDbCircle
 10
577.4099285981996
 20
284.8549740137715
 30
0.0
 40
2.555979683705014
100
AcDbArc
 50
334.3716368498017
 51
34.37163684979214
  0
ARC
  5
3E0
330
18
100
AcDbEntity
  8
1
  6
Continuous
 48
0.25
100
AcDbCircle
 10
578.5218879656097
 20
284.8549740137715
 30
0.0
 40
2.555979683705014
100
AcDbArc
 50
145.6283631502078
 51
205.6283631501911
  0
LINE
  5
3E1
330
18
100
AcDbEntity
  8
1
  6
Continuous
 48
0.25
100
AcDbLine
 10
579.9659082819045
 20
284.1849740137715
 30
0.0
 11
579.5196165238212
 21
283.4119740137715
 31
0.0
  0
LINE
  5
3E2
330
18
100
AcDbEntity
  8
1
  6
Continuous
 48
0.25
100
AcDbLine
 10
579.5196165238212
 20
283.4119740137715
 30
0.0
 11
576.4122000399884
 21
283.4119740137715
 31
0.0
  0
ARC
  5
3E3
330
18
100
AcDbEntity
  8
1
  6
Continuous
 48
0.25
100
AcDbCircle
 10
577.4099082819049
 20
284.8559740137716
 30
0.0
 40
2.55582
100
AcDbArc
 50
325.6160000000007
 51
325.6471430520213
  0
LINE
  5
3E4
330
18
100
AcDbEntity
  8
1
  6
Continuous
 48
0.25
100
AcDbLine
 10
575.9659082819047
 20
284.1849740137715
 30
0.0
 11
576.4122000399884
 21
283.4119740137715
 31
0.0
  0
ARC
  5
3E5
330
18
100
AcDbEntity
  8
1
  6
Continuous
 48
0.25
100
AcDbCircle
 10
578.5219082819047
 20
284.8559740137716
 30
0.0
 40
2.55582
100
AcDbArc
 50
214.3528569479785
 51
214.383999999999
  0
LINE
  5
3E6
330
18
100
AcDbEntity
  8
1
  6
Continuous
100
AcDbLine
 10
582.9659082819047
 20
281.1859740137602
 30
0.0
 11
581.4659082819049
 21
281.1859740137602
 31
0.0
  0
LINE
  5
3E7
330
18
100
AcDbEntity
  8
1
  6
Continuous
100
AcDbLine
 10
579.9659082819045
 20
283.0859740137836
 30
0.0
 11
581.4659082819049
 21
283.0859740137836
 31
0.0
  0
ARC
  5
3E8
330
18
100
AcDbEntity
  8
1
  6
Continuous
 48
0.25
100
AcDbCircle
 10
577.4099285981996
 20
293.5159740137716
 30
0.0
 40
2.555979683705014
100
AcDbArc
 50
325.6283631502078
 51
25.62836315020271
  0
ARC
  5
3E9
330
18
100
AcDbEntity
  8
1
  6
Continuous
 48
0.25
100
AcDbCircle
 10
570.4049594420933
 20
289.1859740137716
 30
0.0
 40
9.560948839811523
100
AcDbArc
 50
342.4247882023556
 51
17.57521179764441
  0
LINE
  5
3EA
330
18
100
AcDbEntity
  8
1
  6
Continuous
 48
0.25
100
AcDbLine
 10
579.9659082819045
 20
294.1859740137715
 30
0.0
 11
579.5196165238212
 21
294.9589740137716
 31
0.0
  0
LINE
  5
3EB
330
18
100
AcDbEntity
  8
4
  6
CENTER
100
AcDbLine
 10
587.9404848474782
 20
289.1859740137716
 30
0.0
 11
572.1711024090002
 21
289.1859740137716
 31
0.0
  0
ARC
  5
3EC
330
18
100
AcDbEntity
  8
1
  6
Continuous
 48
0.25
100
AcDbCircle
 10
578.5218879656097
 20
293.5159740137716
 30
0.0
 40
2.555979683705014
100
AcDbArc
 50
154.371636849803
 51
214.3716368497921
  0
LINE
  5
3ED
330
18
100
AcDbEntity
  8
1
  6
Continuous
 48
0.25
100
AcDbLine
 10
579.5196165238212
 20
286.2989740137716
 30
0.0
 11
576.4122000399884
 21
286.2989740137716
 31
0.0
  0
LINE
  5
3EE
330
18
100
AcDbEntity
  8
1
  6
Continuous
 48
0.25
100
AcDbLine
 10
579.5196165238212
 20
292.0729740137716
 30
0.0
 11
576.4122000399884
 21
292.0729740137715
 31
0.0
  0
ARC
  5
3EF
330
18
100
AcDbEntity
  8
1
  6
Continuous
 48
0.25
100
AcDbCircle
 10
585.5268571217163
 20
289.1859740137716
 30
0.0
 40
9.560948839811523
100
AcDbArc
 50
162.4247882023546
 51
197.5752117976454
  0
LINE
  5
3F0
330
18
100
AcDbEntity
  8
1
  6
Continuous
 48
0.25
100
AcDbLine
 10
579.5196165238212
 20
294.9589740137716
 30
0.0
 11
576.4122000399884
 21
294.9589740137716
 31
0.0
  0
LINE
  5
3F1
330
18
100
AcDbEntity
  8
1
  6
Continuous
 48
0.25
100
AcDbLine
 10
575.9659082819047
 20
294.1859740137715
 30
0.0
 11
576.4122000399884
 21
294.9589740137716
 31
0.0
  0
LINE
  5
3F2
330
18
100
AcDbEntity
  8
1
  6
Continuous
100
AcDbLine
 10
581.4659082819049
 20
290.6859740137716
 30
0.0
 11
579.9659082819045
 21
289.1859740137716
 31
0.0
  0
LINE
  5
3F3
330
18
100
AcDbEntity
  8
1
  6
Continuous
100
AcDbLine
 10
581.4659082819049
 20
289.1859740137716
 30
0.0
 11
579.9659082819045
 21
287.6859740137716
 31
0.0
  0
LINE
  5
3F4
330
18
100
AcDbEntity
  8
1
  6
Continuous
100
AcDbLine
 10
582.9659082819047
 20
297.1859740137602
 30
0.0
 11
581.4659082819049
 21
297.1859740137602
 31
0.0
  0
LINE
  5
3F5
330
18
100
AcDbEntity
  8
1
  6
Continuous
100
AcDbLine
 10
579.9659082819045
 20
295.2859740137837
 30
0.0
 11
581.4659082819049
 21
295.2859740137837
 31
0.0
  0
LINE
  5
3F6
330
18
100
AcDbEntity
  8
4
  6
CENTER
100
AcDbLine
 10
718.3532410894937
 20
289.1859740137716
 30
0.0
 11
606.3727971827743
 21
289.1859740137716
 31
0.0
  0
LINE
  5
3F7
330
18
100
AcDbEntity
  8
1
  6
Continuous
100
AcDbLine
 10
645.4643611409093
 20
264.1859740137717
 30
0.0
 11
665.4643611409093
 21
264.1859740137717
 31
0.0
  0
LINE
  5
3F8
330
18
100
AcDbEntity
  8
1
  6
Continuous
100
AcDbLine
 10
645.4643611409093
 20
314.1859740137715
 30
0.0
 11
665.4643611409093
 21
314.1859740137192
 31
0.0
  0
ARC
  5
40D
330
18
100
AcDbEntity
  8
1
  6
Continuous
100
AcDbCircle
 10
686.4643611409097
 20
290.1859740137716
 30
0.0
 40
24.0
100
AcDbArc
 50
0.000000000000007
 51
90.0
  0
LINE
  5
40E
330
18
100
AcDbEntity
  8
1
  6
Continuous
100
AcDbLine
 10
665.4643611409093
 20
264.1859740137717
 30
0.0
 11
665.4643611409093
 21
314.1859740137192
 31
0.0
  0
LINE
  5
40F
330
18
100
AcDbEntity
  8
1
  6
Continuous
100
AcDbLine
 10
665.6643611409092
 20
264.1859740137717
 30
0.0
 11
665.664361140909
 21
314.1859740137716
 31
0.0
  0
LINE
  5
410
330
18
100
AcDbEntity
  8
1
  6
Continuous
100
AcDbLine
 10
686.4643611409093
 20
264.1859740137717
 30
0.0
 11
665.6643611409092
 21
264.1859740137717
 31
0.0
  0
ARC
  5
411
330
18
100
AcDbEntity
  8
1
  6
Continuous
100
AcDbCircle
 10
665.9643611409093
 20
276.6859740137716
 30
0.0
 40
0.5
100
AcDbArc
 50
180.0
 51
233.1301023402764
  0
ARC
  5
412
330
18
100
AcDbEntity
  8
1
  6
Continuous
100
AcDbCircle
 10
665.9643611409093
 20
276.6859740137716
 30
0.0
 40
0.5
100
AcDbArc
 50
180.0
 51
233.1301023402764
  0
ARC
  5
413
330
18
100
AcDbEntity
  8
1
  6
Continuous
100
AcDbCircle
 10
665.9643611409093
 20
301.6859740137716
 30
0.0
 40
0.5
100
AcDbArc
 50
126.869897642912
 51
180.0
  0
ARC
  5
414
330
18
100
AcDbEntity
  8
1
  6
Continuous
100
AcDbCircle
 10
665.9643611409093
 20
301.6859740137716
 30
0.0
 40
0.5
100
AcDbArc
 50
126.869897642912
 51
180.0
  0
LINE
  5
415
330
18
100
AcDbEntity
  8
1
  6
Continuous
100
AcDbLine
 10
686.4643611409097
 20
314.1859740137716
 30
0.0
 11
665.664361140909
 21
314.1859740137716
 31
0.0
  0
LINE
  5
686
330
18
100
AcDbEntity
  8
1
  6
Continuous
100
AcDbLine
 10
318.2328498616405
 20
264.1859740137717
 30
0.0
 11
318.2328498616405
 21
314.1859740137715
 31
0.0
  0
LINE
  5
68F
330
18
100
AcDbEntity
  8
4
  6
CENTER
100
AcDbLine
 10
323.7328498616405
 20
302.6859740141595
 30
0.0
 11
315.2328498616404
 21
302.6859740141595
 31
0.0
  0
LINE
  5
690
330
18
100
AcDbEntity
  8
4
  6
CENTER
100
AcDbLine
 10
323.7328498616405
 20
275.6859740141595
 30
0.0
 11
315.2328498616404
 21
275.6859740141595
 31
0.0
  0
LINE
  5
69B
330
18
100
AcDbEntity
  8
1
  6
Continuous
100
AcDbLine
 10
345.2328498616693
 20
286.3929022278932
 30
0.0
 11
348.0328498612842
 21
286.3929022278932
 31
0.0
  0
LINE
  5
69C
330
18
100
AcDbEntity
  8
1
  6
Continuous
100
AcDbLine
 10
348.0328498612844
 20
286.3493134537069
 30
0.0
 11
345.2328498616694
 21
286.3221915497746
 31
0.0
  0
LINE
  5
69D
330
18
100
AcDbEntity
  8
1
  6
Continuous
100
AcDbLine
 10
348.0328498612842
 20
291.979045799267
 30
0.0
 11
345.2328498616693
 21
291.979045799267
 31
0.0
  0
LINE
  5
69E
330
18
100
AcDbEntity
  8
1
  6
Continuous
100
AcDbLine
 10
345.2328498616696
 20
293.4639700397588
 30
0.0
 11
348.0328498612842
 21
293.4368481358266
 31
0.0
  0
LINE
  5
69F
330
18
100
AcDbEntity
  8
1
  6
Continuous
100
AcDbLine
 10
348.0328498612842
 20
292.0226345734534
 30
0.0
 11
345.2328498616691
 21
292.0497564773857
 31
0.0
  0
LINE
  5
6A0
330
18
100
AcDbEntity
  8
1
  6
Continuous
100
AcDbLine
 10
348.0328498612842
 20
290.2884974759817
 30
0.0
 11
342.2328498616693
 21
290.2884974759817
 31
0.0
  0
LINE
  5
6A1
330
18
100
AcDbEntity
  8
1
  6
Continuous
100
AcDbLine
 10
348.0328498612842
 20
288.0834505511786
 30
0.0
 11
342.2328498616693
 21
288.0834505511786
 31
0.0
  0
LINE
  5
6A2
330
18
100
AcDbEntity
  8
1
  6
Continuous
100
AcDbLine
 10
348.0328498612842
 20
295.0838076849254
 30
0.0
 11
342.2328498616693
 21
295.0838076849254
 31
0.0
  0
LINE
  5
6A3
330
18
100
AcDbEntity
  8
1
  6
Continuous
100
AcDbLine
 10
348.0328498612842
 20
295.1859740135801
 30
0.0
 11
342.2328498616693
 21
295.1859740135801
 31
0.0
  0
LINE
  5
6A4
330
18
100
AcDbEntity
  8
1
  6
Continuous
100
AcDbLine
 10
345.2328498616693
 20
284.9079779874013
 30
0.0
 11
348.0328498612842
 21
284.9350998913335
 31
0.0
  0
LINE
  5
6A5
330
18
100
AcDbEntity
  8
1
  6
Continuous
100
AcDbLine
 10
348.0328498612842
 20
283.2881403422348
 30
0.0
 11
342.2328498616693
 21
283.2881403422348
 31
0.0
  0
LINE
  5
6A6
330
18
100
AcDbEntity
  8
1
  6
Continuous
100
AcDbLine
 10
342.2328498616693
 20
283.1859740135801
 30
0.0
 11
348.0328498612842
 21
283.1859740135801
 31
0.0
  0
LINE
  5
6A7
330
18
100
AcDbEntity
  8
1
  6
Continuous
100
AcDbLine
 10
341.7328498616392
 20
300.1859740137835
 30
0.0
 11
341.7328498616392
 21
278.1859740137836
 31
0.0
  0
LINE
  5
6A8
330
18
100
AcDbEntity
  8
1
  6
Continuous
100
AcDbLine
 10
342.2328498616392
 20
300.1859740137835
 30
0.0
 11
342.2328498616392
 21
278.1859740137836
 31
0.0
  0
LINE
  5
6A9
330
18
100
AcDbEntity
  8
1
  6
Continuous
100
AcDbLine
 10
345.2328498616693
 20
284.9079779874014
 30
0.0
 11
345.2328498616693
 21
286.3929022278932
 31
0.0
  0
LINE
  5
6AB
330
18
100
AcDbEntity
  8
1
  6
Continuous
100
AcDbLine
 10
318.2328498616405
 20
278.1859740137716
 30
0.0
 11
341.2328498612885
 21
278.1859740137716
 31
0.0
  0
ARC
  5
6AC
330
18
100
AcDbEntity
  8
1
  6
Continuous
100
AcDbCircle
 10
341.2328498616393
 20
278.6859740137316
 30
0.0
 40
0.5
100
AcDbArc
 50
270.0
 51
0.0
  0
LINE
  5
6AD
330
18
100
AcDbEntity
  8
1
  6
Continuous
100
AcDbLine
 10
341.7328498616392
 20
278.1859740137836
 30
0.0
 11
342.2328498616392
 21
278.1859740137836
 31
0.0
  0
LINE
  5
6AE
330
18
100
AcDbEntity
  8
1
  6
Continuous
100
AcDbLine
 10
318.2328498616405
 20
300.1859740137716
 30
0.0
 11
341.2328498612885
 21
300.1859740137716
 31
0.0
  0
LINE
  5
6AF
330
18
100
AcDbEntity
  8
1
  6
Continuous
100
AcDbLine
 10
345.2328498616693
 20
291.979045799267
 30
0.0
 11
345.2328498616693
 21
293.4639700397586
 31
0.0
  0
ARC
  5
6B0
330
18
100
AcDbEntity
  8
1
  6
Continuous
100
AcDbCircle
 10
341.2328498616393
 20
299.6859740138353
 30
0.0
 40
0.5
100
AcDbArc
 50
0.0
 51
90.0
  0
LINE
  5
6B1
330
18
100
AcDbEntity
  8
1
  6
Continuous
100
AcDbLine
 10
342.2328498616392
 20
300.1859740137835
 30
0.0
 11
341.7328498616392
 21
300.1859740137835
 31
0.0
  0
LINE
  5
6B2
330
18
100
AcDbEntity
  8
1
  6
Continuous
100
AcDbLine
 10
348.0328498612842
 20
300.1859740137306
 30
0.0
 11
348.0328498612842
 21
278.1859740137306
 31
0.0
  0
LINE
  5
6B3
330
18
100
AcDbEntity
  8
1
  6
Continuous
100
AcDbLine
 10
350.0328498612841
 20
300.1859740137306
 30
0.0
 11
350.0328498612841
 21
278.1859740137306
 31
0.0
  0
LINE
  5
6B4
330
18
100
AcDbEntity
  8
1
  6
Continuous
100
AcDbLine
 10
353.0328498612843
 20
278.1859740137306
 30
0.0
 11
353.0328498612843
 21
300.1859740137306
 31
0.0
  0
LINE
  5
6B6
330
18
100
AcDbEntity
  8
1
  6
Continuous
100
AcDbLine
 10
348.0328498612842
 20
278.1859740137306
 30
0.0
 11
353.0328498612841
 21
278.1859740137306
 31
0.0
  0
LINE
  5
6B7
330
18
100
AcDbEntity
  8
1
  6
Continuous
100
AcDbLine
 10
348.0328498612842
 20
300.1859740137306
 30
0.0
 11
353.0328498612841
 21
300.1859740137306
 31
0.0
  0
LINE
  5
6C1
330
18
100
AcDbEntity
  8
1
  6
Continuous
100
AcDbLine
 10
353.0328498612843
 20
390.997240099825
 30
0.0
 11
353.0328498612843
 21
412.9972400998251
 31
0.0
  0
LINE
  5
6C2
330
18
100
AcDbEntity
  8
1
  6
Continuous
100
AcDbLine
 10
342.2328498616392
 20
412.9972400998778
 30
0.0
 11
342.2328498616392
 21
390.997240099878
 31
0.0
  0
LINE
  5
6C3
330
18
100
AcDbEntity
  8
1
  6
Continuous
100
AcDbLine
 10
341.7328498616392
 20
412.9972400998778
 30
0.0
 11
341.7328498616392
 21
390.997240099878
 31
0.0
  0
LINE
  5
6C4
330
18
100
AcDbEntity
  8
1
  6
Continuous
100
AcDbLine
 10
350.0328498612841
 20
412.9972400998251
 30
0.0
 11
350.0328498612841
 21
390.997240099825
 31
0.0
  0
LINE
  5
6C5
330
18
100
AcDbEntity
  8
1
  6
Continuous
100
AcDbLine
 10
348.0328498612842
 20
412.9972400998251
 30
0.0
 11
348.0328498612842
 21
390.997240099825
 31
0.0
  0
ARC
  5
6CB
330
18
100
AcDbEntity
  8
1
  6
Continuous
100
AcDbCircle
 10
341.2328498616393
 20
391.4972400998261
 30
0.0
 40
0.5
100
AcDbArc
 50
270.0
 51
0.0
  0
LINE
  5
6CC
330
18
100
AcDbEntity
  8
1
  6
Continuous
100
AcDbLine
 10
341.7328498616392
 20
390.997240099878
 30
0.0
 11
342.2328498616392
 21
390.997240099878
 31
0.0
  0
LINE
  5
6CD
330
18
100
AcDbEntity
  8
1
  6
Continuous
100
AcDbLine
 10
348.0328498612842
 20
390.997240099825
 30
0.0
 11
353.0328498612841
 21
390.997240099825
 31
0.0
  0
LINE
  5
6CE
330
18
100
AcDbEntity
  8
1
  6
Continuous
100
AcDbLine
 10
348.0328498612842
 20
404.8339006595478
 30
0.0
 11
345.2328498616691
 21
404.8610225634801
 31
0.0
  0
LINE
  5
6CF
330
18
100
AcDbEntity
  8
1
  6
Continuous
100
AcDbLine
 10
345.2328498616696
 20
406.2752361258533
 30
0.0
 11
348.0328498612842
 21
406.248114221921
 31
0.0
  0
LINE
  5
6D0
330
18
100
AcDbEntity
  8
1
  6
Continuous
100
AcDbLine
 10
348.0328498612842
 20
404.7903118853614
 30
0.0
 11
345.2328498616693
 21
404.7903118853614
 31
0.0
  0
LINE
  5
6D1
330
18
100
AcDbEntity
  8
1
  6
Continuous
100
AcDbLine
 10
348.0328498612842
 20
407.9972400996744
 30
0.0
 11
342.2328498616693
 21
407.9972400996744
 31
0.0
  0
LINE
  5
6D2
330
18
100
AcDbEntity
  8
1
  6
Continuous
100
AcDbLine
 10
348.0328498612842
 20
407.8950737710199
 30
0.0
 11
342.2328498616693
 21
407.8950737710199
 31
0.0
  0
LINE
  5
6D3
330
18
100
AcDbEntity
  8
1
  6
Continuous
100
AcDbLine
 10
345.2328498616693
 20
397.7192440734958
 30
0.0
 11
348.0328498612842
 21
397.7463659774279
 31
0.0
  0
LINE
  5
6D4
330
18
100
AcDbEntity
  8
1
  6
Continuous
100
AcDbLine
 10
348.0328498612844
 20
399.1605795398013
 30
0.0
 11
345.2328498616694
 21
399.1334576358692
 31
0.0
  0
LINE
  5
6D5
330
18
100
AcDbEntity
  8
1
  6
Continuous
100
AcDbLine
 10
345.2328498616693
 20
399.2041683139877
 30
0.0
 11
348.0328498612842
 21
399.2041683139877
 31
0.0
  0
LINE
  5
6D6
330
18
100
AcDbEntity
  8
1
  6
Continuous
100
AcDbLine
 10
342.2328498616693
 20
395.9972400996745
 30
0.0
 11
348.0328498612842
 21
395.9972400996745
 31
0.0
  0
LINE
  5
6D7
330
18
100
AcDbEntity
  8
1
  6
Continuous
100
AcDbLine
 10
348.0328498612842
 20
396.0994064283293
 30
0.0
 11
342.2328498616693
 21
396.0994064283293
 31
0.0
  0
LINE
  5
6D8
330
18
100
AcDbEntity
  8
1
  6
Continuous
100
AcDbLine
 10
348.0328498612842
 20
400.8947166372731
 30
0.0
 11
342.2328498616693
 21
400.8947166372731
 31
0.0
  0
LINE
  5
6D9
330
18
100
AcDbEntity
  8
1
  6
Continuous
100
AcDbLine
 10
348.0328498612842
 20
403.0997635620762
 30
0.0
 11
342.2328498616693
 21
403.0997635620762
 31
0.0
  0
LINE
  5
6DB
330
18
100
AcDbEntity
  8
1
  6
Continuous
100
AcDbLine
 10
345.2328498616693
 20
397.7192440734958
 30
0.0
 11
345.2328498616693
 21
399.2041683139877
 31
0.0
  0
LINE
  5
6DC
330
18
100
AcDbEntity
  8
1
  6
Continuous
100
AcDbLine
 10
345.2328498616693
 20
404.7903118853614
 30
0.0
 11
345.2328498616693
 21
406.2752361258531
 31
0.0
  0
LINE
  5
6DD
330
18
100
AcDbEntity
  8
1
  6
Continuous
100
AcDbLine
 10
342.2328498616392
 20
412.9972400998778
 30
0.0
 11
341.7328498616392
 21
412.9972400998778
 31
0.0
  0
ARC
  5
6DE
330
18
100
AcDbEntity
  8
1
  6
Continuous
100
AcDbCircle
 10
341.2328498616393
 20
412.4972400999299
 30
0.0
 40
0.5
100
AcDbArc
 50
0.0
 51
90.0
  0
LINE
  5
6DF
330
18
100
AcDbEntity
  8
1
  6
Continuous
100
AcDbLine
 10
348.0328498612842
 20
412.9972400998251
 30
0.0
 11
353.0328498612841
 21
412.9972400998251
 31
0.0
  0
LINE
  5
750
330
18
100
AcDbEntity
  8
1
  6
Continuous
100
AcDbLine
 10
478.9848230373307
 20
284.9079779879811
 30
0.0
 11
477.5706094749578
 21
286.3221915503538
 31
0.0
  0
LINE
  5
752
330
18
100
AcDbEntity
  8
1
  6
Continuous
100
AcDbLine
 10
486.1266015273151
 20
286.3221915503542
 30
0.0
 11
484.712387964942
 21
284.9079779879811
 31
0.0
  0
LINE
  5
75A
330
18
100
AcDbEntity
  8
1
  6
Continuous
100
AcDbLine
 10
484.6416772868234
 20
284.9786886660997
 30
0.0
 11
484.712387964942
 21
284.9079779879811
 31
0.0
  0
LINE
  5
75C
330
18
100
AcDbEntity
  8
1
  6
Continuous
100
AcDbLine
 10
479.0555337154493
 20
284.9786886660998
 30
0.0
 11
478.9848230373307
 21
284.9079779879811
 31
0.0
  0
LINE
  5
769
330
18
100
AcDbEntity
  8
1
  6
Continuous
100
AcDbLine
 10
484.7123879649451
 20
293.4639700403349
 30
0.0
 11
486.1266015273165
 21
292.0497564779637
 31
0.0
  0
LINE
  5
76C
330
18
100
AcDbEntity
  8
1
  6
Continuous
100
AcDbLine
 10
477.5706094749621
 20
292.0497564779693
 30
0.0
 11
478.9848230373294
 21
293.4639700403369
 31
0.0
  0
LINE
  5
76F
330
18
100
AcDbEntity
  8
1
  6
Continuous
100
AcDbLine
 10
477.5706094749576
 20
286.3221915503538
 30
0.0
 11
477.6413201530765
 21
286.3929022284727
 31
0.0
  0
LINE
  5
771
330
18
100
AcDbEntity
  8
1
  6
Continuous
100
AcDbLine
 10
477.5706094749579
 20
292.049756477965
 30
0.0
 11
477.6413201530765
 21
291.9790457998465
 31
0.0
  0
LINE
  5
772
330
18
100
AcDbEntity
  8
1
  6
Continuous
100
AcDbLine
 10
484.6416772868234
 20
293.3932593622197
 30
0.0
 11
484.7123879649422
 21
293.4639700403383
 31
0.0
  0
LINE
  5
774
330
18
100
AcDbEntity
  8
1
  6
Continuous
100
AcDbLine
 10
479.0555337154495
 20
293.3932593622195
 30
0.0
 11
478.9848230373308
 21
293.4639700403382
 31
0.0
  0
LINE
  5
77B
330
18
100
AcDbEntity
  8
1
  6
Continuous
100
AcDbLine
 10
486.1266015273152
 20
286.3221915503544
 30
0.0
 11
486.0558908491966
 21
286.3929022284728
 31
0.0
  0
LINE
  5
77D
330
18
100
AcDbEntity
  8
1
  6
Continuous
100
AcDbLine
 10
486.1266015273149
 20
292.0497564779653
 30
0.0
 11
486.055890849196
 21
291.9790457998466
 31
0.0
  0
LINE
  5
BD0
330
18
100
AcDbEntity
  8
1
  6
Continuous
100
AcDbLine
 10
318.2328498616405
 20
37.08557200701193
 30
0.0
 11
318.2328498616405
 21
87.08557200701177
 31
0.0
  0
LINE
  5
BD1
330
18
100
AcDbEntity
  8
4
  6
CENTER
100
AcDbLine
 10
315.2328498616404
 20
48.58557200701183
 30
0.0
 11
323.7328498616404
 21
48.58557200701183
 31
0.0
  0
LINE
  5
BD7
330
18
100
AcDbEntity
  8
1
  6
Continuous
100
AcDbLine
 10
318.2328498616405
 20
51.08557200701183
 30
0.0
 11
341.2328498612883
 21
51.08557200701183
 31
0.0
  0
LINE
  5
BD8
330
18
100
AcDbEntity
  8
1
  6
Continuous
100
AcDbLine
 10
318.2328498616405
 20
73.08557200701182
 30
0.0
 11
341.2328498612883
 21
73.08557200701182
 31
0.0
  0
LINE
  5
BD9
330
18
100
AcDbEntity
  8
4
  6
CENTER
100
AcDbLine
 10
315.2328498616404
 20
75.58557200701182
 30
0.0
 11
323.7328498616404
 21
75.58557200701182
 31
0.0
  0
ARC
  5
BDA
330
18
100
AcDbEntity
  8
1
  6
Continuous
100
AcDbCircle
 10
341.2328498616392
 20
72.5855720070756
 30
0.0
 40
0.5
100
AcDbArc
 50
0.0
 51
90.0
  0
LINE
  5
BDB
330
18
100
AcDbEntity
  8
1
  6
Continuous
100
AcDbLine
 10
348.0328498612841
 20
73.08557200697078
 30
0.0
 11
353.0328498612841
 21
73.08557200697078
 31
0.0
  0
LINE
  5
BDC
330
18
100
AcDbEntity
  8
1
  6
Continuous
100
AcDbLine
 10
348.0328498612841
 20
51.08557200697077
 30
0.0
 11
353.0328498612841
 21
51.08557200697077
 31
0.0
  0
LINE
  5
BDD
330
18
100
AcDbEntity
  8
1
  6
Continuous
100
AcDbLine
 10
342.2328498616392
 20
73.08557200702364
 30
0.0
 11
342.2328498616392
 21
51.08557200702375
 31
0.0
  0
LINE
  5
BDE
330
18
100
AcDbEntity
  8
1
  6
Continuous
100
AcDbLine
 10
341.7328498616392
 20
73.08557200702364
 30
0.0
 11
341.7328498616392
 21
51.08557200702375
 31
0.0
  0
LINE
  5
BDF
330
18
100
AcDbEntity
  8
1
  6
Continuous
100
AcDbLine
 10
350.032849861284
 20
73.08557200697078
 30
0.0
 11
350.032849861284
 21
51.08557200697077
 31
0.0
  0
LINE
  5
BE0
330
18
100
AcDbEntity
  8
1
  6
Continuous
100
AcDbLine
 10
348.0328498612841
 20
73.08557200697078
 30
0.0
 11
348.0328498612841
 21
51.08557200697077
 31
0.0
  0
LINE
  5
BE1
330
18
100
AcDbEntity
  8
1
  6
Continuous
100
AcDbLine
 10
348.0328498612841
 20
60.98304854441881
 30
0.0
 11
342.2328498616692
 21
60.98304854441881
 31
0.0
  0
LINE
  5
BE2
330
18
100
AcDbEntity
  8
1
  6
Continuous
100
AcDbLine
 10
342.2328498616692
 20
56.08557200682025
 30
0.0
 11
348.0328498612841
 21
56.08557200682025
 31
0.0
  0
LINE
  5
BE3
330
18
100
AcDbEntity
  8
1
  6
Continuous
100
AcDbLine
 10
348.0328498612841
 20
56.18773833547503
 30
0.0
 11
342.2328498616692
 21
56.18773833547503
 31
0.0
  0
LINE
  5
BE4
330
18
100
AcDbEntity
  8
1
  6
Continuous
100
AcDbLine
 10
341.7328498616392
 20
51.08557200702375
 30
0.0
 11
342.2328498616392
 21
51.08557200702375
 31
0.0
  0
ARC
  5
BE5
330
18
100
AcDbEntity
  8
1
  6
Continuous
100
AcDbCircle
 10
341.2328498616392
 20
51.58557200697179
 30
0.0
 40
0.5
100
AcDbArc
 50
270.0
 51
0.0
  0
LINE
  5
BE6
330
18
100
AcDbEntity
  8
1
  6
Continuous
100
AcDbLine
 10
345.2328498616691
 20
59.29250022113331
 30
0.0
 11
348.0328498612841
 21
59.29250022113331
 31
0.0
  0
LINE
  5
BE7
330
18
100
AcDbEntity
  8
1
  6
Continuous
100
AcDbLine
 10
345.2328498616691
 20
57.80757598064155
 30
0.0
 11
348.0328498612841
 21
57.83469788457364
 31
0.0
  0
LINE
  5
BE8
330
18
100
AcDbEntity
  8
1
  6
Continuous
100
AcDbLine
 10
348.0328498612843
 20
59.2489114469471
 30
0.0
 11
345.2328498616693
 21
59.22178954301489
 31
0.0
  0
LINE
  5
BE9
330
18
100
AcDbEntity
  8
1
  6
Continuous
100
AcDbLine
 10
345.2328498616691
 20
57.80757598064155
 30
0.0
 11
345.2328498616691
 21
59.29250022113331
 31
0.0
  0
LINE
  5
BEA
330
18
100
AcDbEntity
  8
1
  6
Continuous
100
AcDbLine
 10
348.0328498612841
 20
68.08557200682026
 30
0.0
 11
342.2328498616692
 21
68.08557200682026
 31
0.0
  0
LINE
  5
BEB
330
18
100
AcDbEntity
  8
1
  6
Continuous
100
AcDbLine
 10
348.0328498612841
 20
67.98340567816558
 30
0.0
 11
342.2328498616692
 21
67.98340567816558
 31
0.0
  0
LINE
  5
BEC
330
18
100
AcDbEntity
  8
1
  6
Continuous
100
AcDbLine
 10
348.0328498612841
 20
63.18809546922192
 30
0.0
 11
342.2328498616692
 21
63.18809546922192
 31
0.0
  0
LINE
  5
BED
330
18
100
AcDbEntity
  8
1
  6
Continuous
100
AcDbLine
 10
342.2328498616392
 20
73.08557200702364
 30
0.0
 11
341.7328498616392
 21
73.08557200702364
 31
0.0
  0
LINE
  5
BEE
330
18
100
AcDbEntity
  8
1
  6
Continuous
100
AcDbLine
 10
348.0328498612841
 20
64.92223256669354
 30
0.0
 11
345.2328498616691
 21
64.94935447062585
 31
0.0
  0
LINE
  5
BEF
330
18
100
AcDbEntity
  8
1
  6
Continuous
100
AcDbLine
 10
345.2328498616695
 20
66.36356803299896
 30
0.0
 11
348.0328498612841
 21
66.33644612906675
 31
0.0
  0
LINE
  5
BF0
330
18
100
AcDbEntity
  8
1
  6
Continuous
100
AcDbLine
 10
348.0328498612841
 20
64.8786437925072
 30
0.0
 11
345.2328498616691
 21
64.8786437925072
 31
0.0
  0
LINE
  5
BF1
330
18
100
AcDbEntity
  8
1
  6
Continuous
100
AcDbLine
 10
345.2328498616691
 20
64.8786437925072
 30
0.0
 11
345.2328498616691
 21
66.36356803299884
 31
0.0
  0
LINE
  5
BF2
330
18
100
AcDbEntity
  8
1
  6
Continuous
100
AcDbLine
 10
353.0328498612843
 20
51.08557200697077
 30
0.0
 11
353.0328498612843
 21
73.08557200697078
 31
0.0
  0
LINE
  5
CC6
330
18
100
AcDbEntity
  8
1
  6
Continuous
100
AcDbLine
 10
610.6643611412652
 20
278.1859740137306
 30
0.0
 11
610.6643611412652
 21
300.1859740137306
 31
0.0
  0
LINE
  5
CC7
330
18
100
AcDbEntity
  8
1
  6
Continuous
100
AcDbLine
 10
613.6643611412654
 20
300.1859740137306
 30
0.0
 11
613.6643611412654
 21
278.1859740137306
 31
0.0
  0
LINE
  5
CC8
330
18
100
AcDbEntity
  8
1
  6
Continuous
100
AcDbLine
 10
615.6643611412654
 20
300.1859740137306
 30
0.0
 11
615.6643611412654
 21
278.1859740137306
 31
0.0
  0
LINE
  5
CCA
330
18
100
AcDbEntity
  8
1
  6
Continuous
100
AcDbLine
 10
621.4643611409102
 20
300.1859740137835
 30
0.0
 11
621.4643611409102
 21
278.1859740137836
 31
0.0
  0
LINE
  5
CCB
330
18
100
AcDbEntity
  8
1
  6
Continuous
100
AcDbLine
 10
621.9643611409102
 20
300.1859740137835
 30
0.0
 11
621.9643611409102
 21
278.1859740137836
 31
0.0
  0
LINE
  5
CCC
330
18
100
AcDbEntity
  8
1
  6
Continuous
100
AcDbLine
 10
645.4643611409093
 20
264.1859740137717
 30
0.0
 11
645.4643611409093
 21
314.1859740137715
 31
0.0
  0
LINE
  5
CCD
330
18
100
AcDbEntity
  8
1
  6
Continuous
100
AcDbLine
 10
645.4643611409093
 20
278.1859740137716
 30
0.0
 11
622.4643611412611
 21
278.1859740137716
 31
0.0
  0
LINE
  5
CD0
330
18
100
AcDbEntity
  8
4
  6
CENTER
100
AcDbLine
 10
639.9643611409093
 20
275.6859740141595
 30
0.0
 11
648.4643611409093
 21
275.6859740141595
 31
0.0
  0
LINE
  5
CD1
330
18
100
AcDbEntity
  8
1
  6
Continuous
100
AcDbLine
 10
615.6643611412654
 20
278.1859740137306
 30
0.0
 11
610.6643611412654
 21
278.1859740137306
 31
0.0
  0
LINE
  5
CD2
330
18
100
AcDbEntity
  8
1
  6
Continuous
100
AcDbLine
 10
621.9643611409102
 20
278.1859740137836
 30
0.0
 11
621.4643611409102
 21
278.1859740137836
 31
0.0
  0
ARC
  5
CD3
330
18
100
AcDbEntity
  8
1
  6
Continuous
100
AcDbCircle
 10
622.4643611409102
 20
278.6859740137316
 30
0.0
 40
0.5
100
AcDbArc
 50
180.0
 51
270.0
  0
LINE
  5
CD4
330
18
100
AcDbEntity
  8
1
  6
Continuous
100
AcDbLine
 10
615.6643611412654
 20
288.0834505511786
 30
0.0
 11
621.4643611408803
 21
288.0834505511786
 31
0.0
  0
LINE
  5
CD5
330
18
100
AcDbEntity
  8
1
  6
Continuous
100
AcDbLine
 10
615.6643611412654
 20
290.2884974759817
 30
0.0
 11
621.4643611408803
 21
290.2884974759817
 31
0.0
  0
LINE
  5
CD6
330
18
100
AcDbEntity
  8
1
  6
Continuous
100
AcDbLine
 10
621.4643611408803
 20
283.1859740135801
 30
0.0
 11
615.6643611412654
 21
283.1859740135801
 31
0.0
  0
LINE
  5
CD7
330
18
100
AcDbEntity
  8
1
  6
Continuous
100
AcDbLine
 10
615.6643611412654
 20
283.2881403422348
 30
0.0
 11
621.4643611408803
 21
283.2881403422348
 31
0.0
  0
LINE
  5
CD8
330
18
100
AcDbEntity
  8
1
  6
Continuous
100
AcDbLine
 10
618.4643611408803
 20
291.979045799267
 30
0.0
 11
618.4643611408803
 21
293.4639700397586
 31
0.0
  0
LINE
  5
CD9
330
18
100
AcDbEntity
  8
1
  6
Continuous
100
AcDbLine
 10
615.6643611412654
 20
292.0226345734534
 30
0.0
 11
618.4643611408805
 21
292.0497564773857
 31
0.0
  0
LINE
  5
CDA
330
18
100
AcDbEntity
  8
1
  6
Continuous
100
AcDbLine
 10
615.6643611412654
 20
291.979045799267
 30
0.0
 11
618.4643611408803
 21
291.979045799267
 31
0.0
  0
LINE
  5
CDB
330
18
100
AcDbEntity
  8
1
  6
Continuous
100
AcDbLine
 10
618.4643611408801
 20
293.4639700397588
 30
0.0
 11
615.6643611412654
 21
293.4368481358266
 31
0.0
  0
LINE
  5
CDC
330
18
100
AcDbEntity
  8
1
  6
Continuous
100
AcDbLine
 10
618.4643611408803
 20
284.9079779874014
 30
0.0
 11
618.4643611408803
 21
286.3929022278932
 31
0.0
  0
LINE
  5
CDD
330
18
100
AcDbEntity
  8
1
  6
Continuous
100
AcDbLine
 10
618.4643611408803
 20
284.9079779874013
 30
0.0
 11
615.6643611412654
 21
284.9350998913335
 31
0.0
  0
LINE
  5
CDE
330
18
100
AcDbEntity
  8
1
  6
Continuous
100
AcDbLine
 10
615.6643611412651
 20
286.3493134537069
 30
0.0
 11
618.4643611408803
 21
286.3221915497746
 31
0.0
  0
LINE
  5
CDF
330
18
100
AcDbEntity
  8
1
  6
Continuous
100
AcDbLine
 10
618.4643611408803
 20
286.3929022278932
 30
0.0
 11
615.6643611412654
 21
286.3929022278932
 31
0.0
  0
LINE
  5
CE0
330
18
100
AcDbEntity
  8
1
  6
Continuous
100
AcDbLine
 10
645.4643611409093
 20
300.1859740137716
 30
0.0
 11
622.4643611412611
 21
300.1859740137716
 31
0.0
  0
LINE
  5
CE4
330
18
100
AcDbEntity
  8
4
  6
CENTER
100
AcDbLine
 10
639.9643611409093
 20
302.6859740141595
 30
0.0
 11
648.4643611409093
 21
302.6859740141595
 31
0.0
  0
LINE
  5
CE7
330
18
100
AcDbEntity
  8
1
  6
Continuous
100
AcDbLine
 10
615.6643611412654
 20
300.1859740137306
 30
0.0
 11
610.6643611412654
 21
300.1859740137306
 31
0.0
  0
LINE
  5
CE8
330
18
100
AcDbEntity
  8
1
  6
Continuous
100
AcDbLine
 10
615.6643611412654
 20
295.1859740135801
 30
0.0
 11
621.4643611408803
 21
295.1859740135801
 31
0.0
  0
LINE
  5
CE9
330
18
100
AcDbEntity
  8
1
  6
Continuous
100
AcDbLine
 10
615.6643611412654
 20
295.0838076849254
 30
0.0
 11
621.4643611408803
 21
295.0838076849254
 31
0.0
  0
LINE
  5
CEA
330
18
100
AcDbEntity
  8
1
  6
Continuous
100
AcDbLine
 10
621.4643611409102
 20
300.1859740137835
 30
0.0
 11
621.9643611409102
 21
300.1859740137835
 31
0.0
  0
ARC
  5
CEB
330
18
100
AcDbEntity
  8
1
  6
Continuous
100
AcDbCircle
 10
622.4643611409102
 20
299.6859740138353
 30
0.0
 40
0.5
100
AcDbArc
 50
90.0
 51
180.0
  0
ENDSEC
  0
SECTION
  2
OBJECTS
  0
DICTIONARY
  5
C
330
0
100
AcDbDictionary
281
     1
  3
ACAD_CIP_PREVIOUS_PRODUCT_INFO
350
141D
  3
ACAD_COLOR
350
1400
  3
ACAD_DETAILVIEWSTYLE
350
1419
  3
ACAD_GROUP
350
D
  3
ACAD_LAYOUT
350
94
  3
ACAD_MATERIAL
350
13CE
  3
ACAD_MLEADERSTYLE
350
1415
  3
ACAD_MLINESTYLE
350
1B
  3
ACAD_PLOTSETTINGS
350
95
  3
ACAD_PLOTSTYLENAME
350
13CC
  3
ACAD_SCALELIST
350
1403
  3
ACAD_SECTIONVIEWSTYLE
350
1417
  3
ACAD_TABLESTYLE
350
1401
  3
ACAD_VISUALSTYLE
350
13E7
  3
ACDB_RECOMPOSE_DATA
350
143B
  3
AcDbVariableDictionary
350
142E
  3
CONTENTDICTIONARY
350
3D
  3
DWGPROPS
350
143C
  0
DICTIONARY
  5
141E
330
E
100
AcDbDictionary
280
     1
281
     1
  3
ADSK_XREC_LAYER_RECONCILED
360
141F
  0
DICTIONARY
  5
1420
330
4E
100
AcDbDictionary
280
     1
281
     1
  3
ADSK_XREC_LAYER_RECONCILED
360
1421
  0
DICTIONARY
  5
1422
330
4F
100
AcDbDictionary
280
     1
281
     1
  3
ADSK_XREC_LAYER_RECONCILED
360
1423
  0
DICTIONARY
  5
1424
330
50
100
AcDbDictionary
280
     1
281
     1
  3
ADSK_XREC_LAYER_RECONCILED
360
1425
  0
DICTIONARY
  5
1426
330
51
100
AcDbDictionary
280
     1
281
     1
  3
ADSK_XREC_LAYER_RECONCILED
360
1427
  0
DICTIONARY
  5
1428
330
52
100
AcDbDictionary
280
     1
281
     1
  3
ADSK_XREC_LAYER_RECONCILED
360
1429
  0
DICTIONARY
  5
142A
330
53
100
AcDbDictionary
280
     1
281
     1
  3
ADSK_XREC_LAYER_RECONCILED
360
142B
  0
DICTIONARY
  5
142C
330
54
100
AcDbDictionary
280
     1
281
     1
  3
ADSK_XREC_LAYER_RECONCILED
360
142D
  0
DICTIONARY
  5
13C7
330
18
100
AcDbDictionary
281
     1
  3
ACAD_LAYOUTSELFREF
350
13C8
  0
DICTIONARY
  5
13C5
330
15
100
AcDbDictionary
281
     1
  3
ACAD_LAYOUTSELFREF
350
13C6
  0
XRECORD
  5
141D
102
{ACAD_REACTORS
330
C
102
}
330
C
100
AcDbXrecord
280
     1
300
ACDLT
300
2014
300
ACDLT_F_S
  0
DICTIONARY
  5
1400
102
{ACAD_REACTORS
330
C
102
}
330
C
100
AcDbDictionary
281
     1
  0
DICTIONARY
  5
1419
102
{ACAD_REACTORS
330
C
102
}
330
C
100
AcDbDictionary
281
     1
  3
Imperial24
350
141A
  0
DICTIONARY
  5
D
102
{ACAD_REACTORS
330
C
102
}
330
C
100
AcDbDictionary
281
     1
  0
DICTIONARY
  5
94
102
{ACAD_REACTORS
330
C
102
}
330
C
100
AcDbDictionary
281
     1
  3
Model
350
141B
  3
レイアウト1
350
141C
  0
DICTIONARY
  5
13CE
102
{ACAD_REACTORS
330
C
102
}
330
C
100
AcDbDictionary
281
     1
  3
ByBlock
350
13D7
  3
ByLayer
350
13CF
  3
Global
350
13DF
  0
DICTIONARY
  5
1415
102
{ACAD_REACTORS
330
C
102
}
330
C
100
AcDbDictionary
281
     1
  3
Standard
350
1416
  0
DICTIONARY
  5
1B
102
{ACAD_REACTORS
330
C
102
}
330
C
100
AcDbDictionary
281
     1
  3
STANDARD
350
1C
  0
DICTIONARY
  5
95
102
{ACAD_REACTORS
330
C
102
}
330
C
100
AcDbDictionary
281
     1
  0
ACDBDICTIONARYWDFLT
  5
13CC
102
{ACAD_REACTORS
330
C
102
}
330
C
100
AcDbDictionary
281
     1
  3
Normal
350
13CD
100
AcDbDictionaryWithDefault
340
13CD
  0
DICTIONARY
  5
1403
102
{ACAD_REACTORS
330
C
102
}
330
C
100
AcDbDictionary
281
     1
  3
A0
350
1404
  3
A1
350
1405
  3
A2
350
1406
  3
A3
350
1407
  3
A4
350
1408
  3
A5
350
1409
  3
A6
350
140A
  3
A7
350
140B
  3
A8
350
140C
  3
A9
350
140D
  3
B0
350
140E
  3
B1
350
140F
  3
B2
350
1410
  3
B3
350
1411
  3
B4
350
1412
  3
B5
350
1413
  3
B6
350
1414
  0
DICTIONARY
  5
1417
102
{ACAD_REACTORS
330
C
102
}
330
C
100
AcDbDictionary
281
     1
  3
Imperial24
350
1418
  0
DICTIONARY
  5
1401
102
{ACAD_REACTORS
330
C
102
}
330
C
100
AcDbDictionary
281
     1
  3
Standard
350
1402
  0
DICTIONARY
  5
13E7
102
{ACAD_REACTORS
330
C
102
}
330
C
100
AcDbDictionary
281
     1
  3
2dWireframe
350
13ED
  3
Basic
350
13EC
  3
Brighten
350
13F3
  3
ColorChange
350
13F7
  3
Conceptual
350
13F0
  3
Dim
350
13F2
  3
EdgeColorOff
350
13FF
  3
Facepattern
350
13F6
  3
Flat
350
13E8
  3
FlatWithEdges
350
13E9
  3
Gouraud
350
13EA
  3
GouraudWithEdges
350
13EB
  3
Hidden
350
13EF
  3
JitterOff
350
13FD
  3
Linepattern
350
13F5
  3
OverhangOff
350
13FE
  3
Realistic
350
13F1
  3
Shaded
350
13FC
  3
Shaded with edges
350
13FB
  3
Shades of Gray
350
13F8
  3
Sketchy
350
13F9
  3
Thicken
350
13F4
  3
Wireframe
350
13EE
  3
X-Ray
350
13FA
  0
XRECORD
  5
143B
102
{ACAD_REACTORS
330
C
102
}
330
C
100
AcDbXrecord
280
     1
 90
        1
330
1402
  0
DICTIONARY
  5
142E
102
{ACAD_REACTORS
330
C
102
}
330
C
100
AcDbDictionary
281
     1
  3
CANNOSCALE
350
1433
  3
CMLEADERSTYLE
350
1430
  3
CTABLESTYLE
350
142F
  3
CVIEWDETAILSTYLE
350
1431
  3
CVIEWSECTIONSTYLE
350
1432
  3
DIMASSOC
350
1436
  3
INDEXCTL
350
1435
  3
SORTENTS
350
1434
  3
XCLIPFRAME
350
1437
  0
DICTIONARY
  5
3D
102
{ACAD_REACTORS
330
C
102
}
330
C
100
AcDbDictionary
281
     1
  0
XRECORD
  5
143C
102
{ACAD_REACTORS
330
C
102
}
330
C
100
AcDbXrecord
280
     1
  1
DWGPROPS COOKIE
  2

  3

  4

  6

  7

  8
Yoshitsune
  9

300
=
301
=
302
=
303
=
304
=
305
=
306
=
307
=
308
=
309
=
 40
0.0463823148148148
 41
2454523.471469537
 42
2457192.643298461
  1

 90
        0
  0
XRECORD
  5
141F
102
{ACAD_REACTORS
330
141E
102
}
330
141E
100
AcDbXrecord
280
     1
290
     1
  0
XRECORD
  5
1421
102
{ACAD_REACTORS
330
1420
102
}
330
1420
100
AcDbXrecord
280
     1
290
     1
  0
XRECORD
  5
1423
102
{ACAD_REACTORS
330
1422
102
}
330
1422
100
AcDbXrecord
280
     1
290
     1
  0
XRECORD
  5
1425
102
{ACAD_REACTORS
330
1424
102
}
330
1424
100
AcDbXrecord
280
     1
290
     1
  0
XRECORD
  5
1427
102
{ACAD_REACTORS
330
1426
102
}
330
1426
100
AcDbXrecord
280
     1
290
     1
  0
XRECORD
  5
1429
102
{ACAD_REACTORS
330
1428
102
}
330
1428
100
AcDbXrecord
280
     1
290
     1
  0
XRECORD
  5
142B
102
{ACAD_REACTORS
330
142A
102
}
330
142A
100
AcDbXrecord
280
     1
290
     1
  0
XRECORD
  5
142D
102
{ACAD_REACTORS
330
142C
102
}
330
142C
100
AcDbXrecord
280
     1
290
     1
  0
XRECORD
  5
13C8
102
{ACAD_REACTORS
330
13C7
102
}
330
13C7
100
AcDbXrecord
280
     1
340
18
  0
XRECORD
  5
13C6
102
{ACAD_REACTORS
330
13C5
102
}
330
13C5
100
AcDbXrecord
280
     1
340
15
  0
ACDBDETAILVIEWSTYLE
  5
141A
102
{ACAD_XDICTIONARY
360
1474
102
}
102
{ACAD_REACTORS
330
1419
102
}
330
1419
100
AcDbModelDocViewStyle
 70
     0
  3
Imperial24
290
     0
100
AcDbDetailViewStyle
 70
     0
 71
     0
 90
        3
 71
     1
340
F
 40
0.24
340
0
 40
0.24
300

 40
0.36
280
     3
 71
     2
340
14
 90
       25
 71
     3
340
F
 40
0.24
 90
        1
 40
0.75
 90
        1
300
%<\AcVar ViewType \f "%tc1">% %<\AcVar ViewDetailId>%\PSCALE %<\AcVar ViewScale \f "%sn">%
 71
     4
340
14
 90
       25
340
14
 90
       25
280
     0
  0
LAYOUT
  5
141B
102
{ACAD_XDICTIONARY
360
1476
102
}
102
{ACAD_REACTORS
330
94
102
}
330
94
100
AcDbPlotSettings
  1

  2
Canon LBP9100C
  4

  6

 40
0.0
 41
0.0
 42
0.0
 43
0.0
 44
0.0
 45
0.0
 46
0.0
 47
0.0
 48
0.0
 49
0.0
140
0.0
141
0.0
142
1.0
143
1.0
 70
  1712
 72
     0
 73
     0
 74
     0
  7

 75
     0
147
1.0
148
0.0
149
0.0
100
AcDbLayout
  1
Model
 70
     1
 71
     0
 10
0.0
 20
0.0
 11
12.0
 21
9.0
 12
0.0
 22
0.0
 32
0.0
 14
0.0
 24
0.0
 34
0.0
 15
0.0
 25
0.0
 35
0.0
146
0.0
 13
0.0
 23
0.0
 33
0.0
 16
1.0
 26
0.0
 36
0.0
 17
0.0
 27
1.0
 37
0.0
 76
     0
330
18
331
13C4
  0
LAYOUT
  5
141C
102
{ACAD_XDICTIONARY
360
1478
102
}
102
{ACAD_REACTORS
330
94
102
}
330
94
100
AcDbPlotSettings
  1

  2
Canon LBP9100C
  4

  6

 40
0.0
 41
0.0
 42
0.0
 43
0.0
 44
0.0
 45
0.0
 46
0.0
 47
0.0
 48
0.0
 49
0.0
140
0.0
141
0.0
142
1.0
143
1.0
 70
   688
 72
     0
 73
     0
 74
     5
  7

 75
    16
147
1.0
148
0.0
149
0.0
100
AcDbLayout
  1
レイアウト1
 70
     1
 71
     1
 10
0.0
 20
0.0
 11
420.0
 21
297.0
 12
0.0
 22
0.0
 32
0.0
 14
1.000000000000000E+20
 24
1.000000000000000E+20
 34
1.000000000000000E+20
 15
-1.000000000000000E+20
 25
-1.000000000000000E+20
 35
-1.000000000000000E+20
146
0.0
 13
0.0
 23
0.0
 33
0.0
 16
1.0
 26
0.0
 36
0.0
 17
0.0
 27
1.0
 37
0.0
 76
     0
330
15
  0
MATERIAL
  5
13D7
102
{ACAD_XDICTIONARY
360
13D8
102
}
102
{ACAD_REACTORS
330
13CE
102
}
330
13CE
100
AcDbMaterial
  1
ByBlock
 72
     0
 43
0.0208333333333333
 43
0.0
 43
0.0
 43
0.0
 43
0.0
 43
0.0208333333333333
 43
0.0
 43
0.0
 43
0.0
 43
0.0
 43
1.0
 43
0.0
 43
0.0
 43
0.0
 43
0.0
 43
1.0
 77
     0
 47
0.0208333333333333
 47
0.0
 47
0.0
 47
0.0
 47
0.0
 47
0.0208333333333333
 47
0.0
 47
0.0
 47
0.0
 47
0.0
 47
1.0
 47
0.0
 47
0.0
 47
0.0
 47
0.0
 47
1.0
171
     0
 49
0.0208333333333333
 49
0.0
 49
0.0
 49
0.0
 49
0.0
 49
0.0208333333333333
 49
0.0
 49
0.0
 49
0.0
 49
0.0
 49
1.0
 49
0.0
 49
0.0
 49
0.0
 49
0.0
 49
1.0
175
     0
142
0.0208333333333333
142
0.0
142
0.0
142
0.0
142
0.0
142
0.0208333333333333
142
0.0
142
0.0
142
0.0
142
0.0
142
1.0
142
0.0
142
0.0
142
0.0
142
0.0
142
1.0
179
     0
144
0.0208333333333333
144
0.0
144
0.0
144
0.0
144
0.0
144
0.0208333333333333
144
0.0
144
0.0
144
0.0
144
0.0
144
1.0
144
0.0
144
0.0
144
0.0
144
0.0
144
1.0
147
0.0208333333333333
147
0.0
147
0.0
147
0.0
147
0.0
147
0.0208333333333333
147
0.0
147
0.0
147
0.0
147
0.0
147
1.0
147
0.0
147
0.0
147
0.0
147
0.0
147
1.0
  0
MATERIAL
  5
13CF
102
{ACAD_XDICTIONARY
360
13D0
102
}
102
{ACAD_REACTORS
330
13CE
102
}
330
13CE
100
AcDbMaterial
  1
ByLayer
 72
     0
 43
0.0208333333333333
 43
0.0
 43
0.0
 43
0.0
 43
0.0
 43
0.0208333333333333
 43
0.0
 43
0.0
 43
0.0
 43
0.0
 43
1.0
 43
0.0
 43
0.0
 43
0.0
 43
0.0
 43
1.0
 77
     0
 47
0.0208333333333333
 47
0.0
 47
0.0
 47
0.0
 47
0.0
 47
0.0208333333333333
 47
0.0
 47
0.0
 47
0.0
 47
0.0
 47
1.0
 47
0.0
 47
0.0
 47
0.0
 47
0.0
 47
1.0
171
     0
 49
0.0208333333333333
 49
0.0
 49
0.0
 49
0.0
 49
0.0
 49
0.0208333333333333
 49
0.0
 49
0.0
 49
0.0
 49
0.0
 49
1.0
 49
0.0
 49
0.0
 49
0.0
 49
0.0
 49
1.0
175
     0
142
0.0208333333333333
142
0.0
142
0.0
142
0.0
142
0.0
142
0.0208333333333333
142
0.0
142
0.0
142
0.0
142
0.0
142
1.0
142
0.0
142
0.0
142
0.0
142
0.0
142
1.0
179
     0
144
0.0208333333333333
144
0.0
144
0.0
144
0.0
144
0.0
144
0.0208333333333333
144
0.0
144
0.0
144
0.0
144
0.0
144
1.0
144
0.0
144
0.0
144
0.0
144
0.0
144
1.0
147
0.0208333333333333
147
0.0
147
0.0
147
0.0
147
0.0
147
0.0208333333333333
147
0.0
147
0.0
147
0.0
147
0.0
147
1.0
147
0.0
147
0.0
147
0.0
147
0.0
147
1.0
  0
MATERIAL
  5
13DF
102
{ACAD_XDICTIONARY
360
13E0
102
}
102
{ACAD_REACTORS
330
13CE
102
}
330
13CE
100
AcDbMaterial
  1
Global
 72
     0
 43
0.0208333333333333
 43
0.0
 43
0.0
 43
0.0
 43
0.0
 43
0.0208333333333333
 43
0.0
 43
0.0
 43
0.0
 43
0.0
 43
1.0
 43
0.0
 43
0.0
 43
0.0
 43
0.0
 43
1.0
 77
     0
 47
0.0208333333333333
 47
0.0
 47
0.0
 47
0.0
 47
0.0
 47
0.0208333333333333
 47
0.0
 47
0.0
 47
0.0
 47
0.0
 47
1.0
 47
0.0
 47
0.0
 47
0.0
 47
0.0
 47
1.0
171
     0
 49
0.0208333333333333
 49
0.0
 49
0.0
 49
0.0
 49
0.0
 49
0.0208333333333333
 49
0.0
 49
0.0
 49
0.0
 49
0.0
 49
1.0
 49
0.0
 49
0.0
 49
0.0
 49
0.0
 49
1.0
175
     0
142
0.0208333333333333
142
0.0
142
0.0
142
0.0
142
0.0
142
0.0208333333333333
142
0.0
142
0.0
142
0.0
142
0.0
142
1.0
142
0.0
142
0.0
142
0.0
142
0.0
142
1.0
179
     0
144
0.0208333333333333
144
0.0
144
0.0
144
0.0
144
0.0
144
0.0208333333333333
144
0.0
144
0.0
144
0.0
144
0.0
144
1.0
144
0.0
144
0.0
144
0.0
144
0.0
144
1.0
147
0.0208333333333333
147
0.0
147
0.0
147
0.0
147
0.0
147
0.0208333333333333
147
0.0
147
0.0
147
0.0
147
0.0
147
1.0
147
0.0
147
0.0
147
0.0
147
0.0
147
1.0
  0
MLEADERSTYLE
  5
1416
102
{ACAD_REACTORS
330
1415
102
}
330
1415
100
AcDbMLeaderStyle
170
     2
171
     1
172
     0
 90
        2
 40
0.0
 41
0.0
173
     1
 91
-1056964608
340
12
 92
       -2
290
     1
 42
0.09
291
     1
 43
0.36
  3
Standard
 44
0.18
300

342
F
174
     1
178
     6
175
     1
176
     0
 93
-1056964608
 45
0.18
292
     0
297
     0
 46
0.18
 94
-1056964608
 47
1.0
 49
1.0
140
1.0
293
     1
141
0.0
294
     1
177
     0
142
1.0
295
     0
296
     0
143
0.125
1001
ACAD_MLEADERVER
1070
     2
  0
MLINESTYLE
  5
1C
102
{ACAD_REACTORS
330
1B
102
}
330
1B
100
AcDbMlineStyle
  2
STANDARD
 70
     0
  3

 62
   256
 51
90.0
 52
90.0
 71
     2
 49
0.5
 62
   256
  6
BYLAYER
 49
-0.5
 62
   256
  6
BYLAYER
  0
ACDBPLACEHOLDER
  5
13CD
102
{ACAD_REACTORS
330
13CC
102
}
330
13CC
  0
SCALE
  5
1404
102
{ACAD_REACTORS
330
1403
102
}
330
1403
100
AcDbScale
 70
     0
300
1:1
140
1.0
141
1.0
290
     1
  0
SCALE
  5
1405
102
{ACAD_REACTORS
330
1403
102
}
330
1403
100
AcDbScale
 70
     0
300
1/128" = 1'-0"
140
0.0078125
141
12.0
290
     0
  0
SCALE
  5
1406
102
{ACAD_REACTORS
330
1403
102
}
330
1403
100
AcDbScale
 70
     0
300
1/64" = 1'-0"
140
0.015625
141
12.0
290
     0
  0
SCALE
  5
1407
102
{ACAD_REACTORS
330
1403
102
}
330
1403
100
AcDbScale
 70
     0
300
1/32" = 1'-0"
140
0.03125
141
12.0
290
     0
  0
SCALE
  5
1408
102
{ACAD_REACTORS
330
1403
102
}
330
1403
100
AcDbScale
 70
     0
300
1/16" = 1'-0"
140
0.0625
141
12.0
290
     0
  0
SCALE
  5
1409
102
{ACAD_REACTORS
330
1403
102
}
330
1403
100
AcDbScale
 70
     0
300
3/32" = 1'-0"
140
0.09375
141
12.0
290
     0
  0
SCALE
  5
140A
102
{ACAD_REACTORS
330
1403
102
}
330
1403
100
AcDbScale
 70
     0
300
1/8" = 1'-0"
140
0.125
141
12.0
290
     0
  0
SCALE
  5
140B
102
{ACAD_REACTORS
330
1403
102
}
330
1403
100
AcDbScale
 70
     0
300
3/16" = 1'-0"
140
0.1875
141
12.0
290
     0
  0
SCALE
  5
140C
102
{ACAD_REACTORS
330
1403
102
}
330
1403
100
AcDbScale
 70
     0
300
1/4" = 1'-0"
140
0.25
141
12.0
290
     0
  0
SCALE
  5
140D
102
{ACAD_REACTORS
330
1403
102
}
330
1403
100
AcDbScale
 70
     0
300
3/8" = 1'-0"
140
0.375
141
12.0
290
     0
  0
SCALE
  5
140E
102
{ACAD_REACTORS
330
1403
102
}
330
1403
100
AcDbScale
 70
     0
300
1/2" = 1'-0"
140
0.5
141
12.0
290
     0
  0
SCALE
  5
140F
102
{ACAD_REACTORS
330
1403
102
}
330
1403
100
AcDbScale
 70
     0
300
3/4" = 1'-0"
140
0.75
141
12.0
290
     0
  0
SCALE
  5
1410
102
{ACAD_REACTORS
330
1403
102
}
330
1403
100
AcDbScale
 70
     0
300
1" = 1'-0"
140
1.0
141
12.0
290
     0
  0
SCALE
  5
1411
102
{ACAD_REACTORS
330
1403
102
}
330
1403
100
AcDbScale
 70
     0
300
1-1/2" = 1'-0"
140
1.5
141
12.0
290
     0
  0
SCALE
  5
1412
102
{ACAD_REACTORS
330
1403
102
}
330
1403
100
AcDbScale
 70
     0
300
3" = 1'-0"
140
3.0
141
12.0
290
     0
  0
SCALE
  5
1413
102
{ACAD_REACTORS
330
1403
102
}
330
1403
100
AcDbScale
 70
     0
300
6" = 1'-0"
140
6.0
141
12.0
290
     0
  0
SCALE
  5
1414
102
{ACAD_REACTORS
330
1403
102
}
330
1403
100
AcDbScale
 70
     0
300
1'-0" = 1'-0"
140
12.0
141
12.0
290
     0
  0
ACDBSECTIONVIEWSTYLE
  5
1418
102
{ACAD_XDICTIONARY
360
1472
102
}
102
{ACAD_REACTORS
330
1417
102
}
330
1417
100
AcDbModelDocViewStyle
 70
     0
  3
Imperial24
290
     0
100
AcDbSectionViewStyle
 70
     0
 71
     0
 90
       78
 71
     1
340
F
 40
0.24
340
0
340
0
 40
0.24
300
I, O, Q, S, X, Z
 40
0.48
 90
        3
 40
0.18
 90
        1
 71
     2
340
14
 90
       25
340
14
 90
       50
 40
0.24
 40
0.0
 40
0.24
 71
     3
340
F
 40
0.24
 90
        1
 40
0.75
 90
        1
300
%<\AcVar ViewType \f "%tc1">% %<\AcVar ViewSectionStartId>%-%<\AcVar ViewSectionEndId>%\PSCALE %<\AcVar ViewScale \f "%sn">%
 71
     4
300
ANSI31
 40
1.0
 90
        0
290
     0
290
     0
 90
        6
 40
0.0
 40
1.570796326794896
 40
0.2617993877991494
 40
1.308996938995747
 40
-0.2617993877991494
 40
1.832595714594046
  0
TABLESTYLE
  5
1402
102
{ACAD_XDICTIONARY
360
1439
102
}
102
{ACAD_REACTORS
330
1401
102
}
330
1401
100
AcDbTableStyle
  3
Standard
 70
     0
 71
     0
 40
0.06
 41
0.06
280
     0
281
     0
  7
STANDARD
140
0.18
170
     2
 62
     0
 63
     7
283
     0
274
    -2
284
     1
 64
     0
275
    -2
285
     1
 65
     0
276
    -2
286
     1
 66
     0
277
    -2
287
     1
 67
     0
278
    -2
288
     1
 68
     0
279
    -2
289
     1
 69
     0
  7
STANDARD
140
0.25
170
     5
 62
     0
 63
     7
283
     0
274
    -2
284
     1
 64
     0
275
    -2
285
     1
 65
     0
276
    -2
286
     1
 66
     0
277
    -2
287
     1
 67
     0
278
    -2
288
     1
 68
     0
279
    -2
289
     1
 69
     0
  7
STANDARD
140
0.18
170
     5
 62
     0
 63
     7
283
     0
274
    -2
284
     1
 64
     0
275
    -2
285
     1
 65
     0
276
    -2
286
     1
 66
     0
277
    -2
287
     1
 67
     0
278
    -2
288
     1
 68
     0
279
    -2
289
     1
 69
     0
  0
VISUALSTYLE
  5
13ED
102
{ACAD_XDICTIONARY
360
144A
102
}
102
{ACAD_REACTORS
330
13E7
102
}
330
13E7
100
AcDbVisualStyle
  2
2dWireframe
 70
     4
 71
     0
 72
     2
 73
     0
 90
        0
 40
-0.6
 41
-30.0
 62
     5
 63
     7
 74
     1
 91
        4
 64
     7
 65
   257
 75
     1
175
     1
 42
1.0
 92
        0
 66
   257
 43
1.0
 76
     1
 77
     6
 78
     2
 67
     7
 79
     5
170
     0
171
     0
290
     0
174
     0
 93
        1
 44
0.0
173
     0
291
     0
 45
0.0
1001
ACAD
1000
AcDbSavedByObjectVersion
1070
     0
  0
VISUALSTYLE
  5
13EC
102
{ACAD_XDICTIONARY
360
1448
102
}
102
{ACAD_REACTORS
330
13E7
102
}
330
13E7
100
AcDbVisualStyle
  2
Basic
 70
     7
 71
     1
 72
     0
 73
     1
 90
        0
 40
-0.6
 41
-30.0
 62
     5
 63
     7
 74
     0
 91
        4
 64
     7
 65
   257
 75
     1
175
     1
 42
1.0
 92
        8
 66
     7
 43
1.0
 76
     1
 77
     6
 78
     2
 67
     7
 79
     5
170
     0
171
     0
290
     0
174
     0
 93
        1
 44
0.0
173
     0
291
     1
 45
0.0
1001
ACAD
1000
AcDbSavedByObjectVersion
1070
     0
  0
VISUALSTYLE
  5
13F3
102
{ACAD_XDICTIONARY
360
1456
102
}
102
{ACAD_REACTORS
330
13E7
102
}
330
13E7
100
AcDbVisualStyle
  2
Brighten
 70
    12
 71
     2
 72
     2
 73
     0
 90
        0
 40
-0.6
 41
-30.0
 62
     5
 63
     7
 74
     1
 91
        4
 64
     7
 65
   257
 75
     1
175
     1
 42
1.0
 92
        8
 66
     7
 43
1.0
 76
     1
 77
     6
 78
     2
 67
     7
 79
     5
170
     0
171
     0
290
     0
174
     0
 93
        1
 44
50.0
173
     0
291
     1
 45
0.0
1001
ACAD
1000
AcDbSavedByObjectVersion
1070
     0
  0
VISUALSTYLE
  5
13F7
102
{ACAD_XDICTIONARY
360
145E
102
}
102
{ACAD_REACTORS
330
13E7
102
}
330
13E7
100
AcDbVisualStyle
  2
ColorChange
 70
    16
 71
     2
 72
     2
 73
     3
 90
        0
 40
-0.6
 41
-30.0
 62
     5
 63
     8
 74
     1
 91
        4
 64
     7
 65
   257
 75
     1
175
     1
 42
1.0
 92
        8
 66
     8
 43
1.0
 76
     1
 77
     6
 78
     2
 67
     7
 79
     5
170
     0
171
     0
290
     0
174
     0
 93
        1
 44
0.0
173
     0
291
     1
 45
0.0
1001
ACAD
1000
AcDbSavedByObjectVersion
1070
     0
  0
VISUALSTYLE
  5
13F0
102
{ACAD_XDICTIONARY
360
1450
102
}
102
{ACAD_REACTORS
330
13E7
102
}
330
13E7
100
AcDbVisualStyle
  2
Conceptual
 70
     9
 71
     3
 72
     2
 73
     0
 90
        0
 40
-0.6
 41
-30.0
 62
     5
 63
     7
 74
     2
 91
        2
 64
     7
 65
   257
 75
     1
175
     1
 42
179.0
 92
        8
 66
     7
 43
1.0
 76
     1
 77
     6
 78
     2
 67
     7
 79
     3
170
     0
171
     0
290
     0
174
     0
 93
        1
 44
0.0
173
     0
291
     0
 45
0.0
1001
ACAD
1000
AcDbSavedByObjectVersion
1070
     0
  0
VISUALSTYLE
  5
13F2
102
{ACAD_XDICTIONARY
360
1454
102
}
102
{ACAD_REACTORS
330
13E7
102
}
330
13E7
100
AcDbVisualStyle
  2
Dim
 70
    11
 71
     2
 72
     2
 73
     0
 90
        0
 40
-0.6
 41
-30.0
 62
     5
 63
     7
 74
     1
 91
        4
 64
     7
 65
   257
 75
     1
175
     1
 42
1.0
 92
        8
 66
     7
 43
1.0
 76
     1
 77
     6
 78
     2
 67
     7
 79
     5
170
     0
171
     0
290
     0
174
     0
 93
        1
 44
-50.0
173
     0
291
     1
 45
0.0
1001
ACAD
1000
AcDbSavedByObjectVersion
1070
     0
  0
VISUALSTYLE
  5
13FF
102
{ACAD_XDICTIONARY
360
146E
102
}
102
{ACAD_REACTORS
330
13E7
102
}
330
13E7
100
AcDbVisualStyle
  2
EdgeColorOff
 70
    22
 71
     2
 72
     2
 73
     0
 90
        0
 40
-0.6
 41
-30.0
 62
     5
 63
     7
 74
     1
 91
        4
 64
     7
 65
   257
 75
     1
175
     1
 42
1.0
 92
        8
 66
     7
 43
1.0
 76
     1
 77
     6
 78
     2
 67
     7
 79
     5
170
     0
171
     0
290
     0
174
     0
 93
        1
 44
0.0
173
     0
291
     1
 45
0.0
1001
ACAD
1000
AcDbSavedByObjectVersion
1070
     0
  0
VISUALSTYLE
  5
13F6
102
{ACAD_XDICTIONARY
360
145C
102
}
102
{ACAD_REACTORS
330
13E7
102
}
330
13E7
100
AcDbVisualStyle
  2
Facepattern
 70
    15
 71
     2
 72
     2
 73
     0
 90
        0
 40
-0.6
 41
-30.0
 62
     5
 63
     7
 74
     1
 91
        4
 64
     7
 65
   257
 75
     1
175
     1
 42
1.0
 92
        8
 66
     7
 43
1.0
 76
     1
 77
     6
 78
     2
 67
     7
 79
     5
170
     0
171
     0
290
     0
174
     0
 93
        1
 44
0.0
173
     0
291
     1
 45
0.0
1001
ACAD
1000
AcDbSavedByObjectVersion
1070
     0
  0
VISUALSTYLE
  5
13E8
102
{ACAD_XDICTIONARY
360
1440
102
}
102
{ACAD_REACTORS
330
13E7
102
}
330
13E7
100
AcDbVisualStyle
  2
Flat
 70
     0
 71
     2
 72
     1
 73
     1
 90
        2
 40
-0.6
 41
30.0
 62
     5
 63
     7
 74
     0
 91
        0
 64
     7
 65
   257
 75
     1
175
     1
 42
1.0
 92
        8
 66
     7
 43
1.0
 76
     1
 77
     6
 78
     2
 67
     7
 79
     5
170
     0
171
     0
290
     0
174
     0
 93
       13
 44
0.0
173
     0
291
     1
 45
0.0
1001
ACAD
1000
AcDbSavedByObjectVersion
1070
     0
  0
VISUALSTYLE
  5
13E9
102
{ACAD_XDICTIONARY
360
1442
102
}
102
{ACAD_REACTORS
330
13E7
102
}
330
13E7
100
AcDbVisualStyle
  2
FlatWithEdges
 70
     1
 71
     2
 72
     1
 73
     1
 90
        2
 40
-0.6
 41
30.0
 62
     5
 63
     7
 74
     1
 91
        0
 64
     7
 65
   257
 75
     1
175
     1
 42
1.0
 92
        0
 66
   257
 43
1.0
 76
     1
 77
     6
 78
     2
 67
     7
 79
     5
170
     0
171
     0
290
     0
174
     0
 93
       13
 44
0.0
173
     0
291
     1
 45
0.0
1001
ACAD
1000
AcDbSavedByObjectVersion
1070
     0
  0
VISUALSTYLE
  5
13EA
102
{ACAD_XDICTIONARY
360
1444
102
}
102
{ACAD_REACTORS
330
13E7
102
}
330
13E7
100
AcDbVisualStyle
  2
Gouraud
 70
     2
 71
     2
 72
     2
 73
     1
 90
        2
 40
-0.6
 41
30.0
 62
     5
 63
     7
 74
     0
 91
        0
 64
     7
 65
   257
 75
     1
175
     1
 42
1.0
 92
        0
 66
     7
 43
1.0
 76
     1
 77
     6
 78
     2
 67
     7
 79
     5
170
     0
171
     0
290
     0
174
     0
 93
       13
 44
0.0
173
     0
291
     1
 45
0.0
1001
ACAD
1000
AcDbSavedByObjectVersion
1070
     0
  0
VISUALSTYLE
  5
13EB
102
{ACAD_XDICTIONARY
360
1446
102
}
102
{ACAD_REACTORS
330
13E7
102
}
330
13E7
100
AcDbVisualStyle
  2
GouraudWithEdges
 70
     3
 71
     2
 72
     2
 73
     1
 90
        2
 40
-0.6
 41
30.0
 62
     5
 63
     7
 74
     1
 91
        0
 64
     7
 65
   257
 75
     1
175
     1
 42
1.0
 92
        0
 66
   257
 43
1.0
 76
     1
 77
     6
 78
     2
 67
     7
 79
     5
170
     0
171
     0
290
     0
174
     0
 93
       13
 44
0.0
173
     0
291
     1
 45
0.0
1001
ACAD
1000
AcDbSavedByObjectVersion
1070
     0
  0
VISUALSTYLE
  5
13EF
102
{ACAD_XDICTIONARY
360
144E
102
}
102
{ACAD_REACTORS
330
13E7
102
}
330
13E7
100
AcDbVisualStyle
  2
Hidden
 70
     6
 71
     1
 72
     2
 73
     2
 90
        0
 40
-0.6
 41
-30.0
 62
     5
 63
     7
 74
     2
 91
        2
 64
     7
 65
   257
 75
     2
175
     1
 42
40.0
 92
        0
 66
   257
 43
1.0
 76
     1
 77
     6
 78
     2
 67
     7
 79
     3
170
     0
171
     0
290
     0
174
     0
 93
        1
 44
0.0
173
     0
291
     0
 45
0.0
1001
ACAD
1000
AcDbSavedByObjectVersion
1070
     0
  0
VISUALSTYLE
  5
13FD
102
{ACAD_XDICTIONARY
360
146A
102
}
102
{ACAD_REACTORS
330
13E7
102
}
330
13E7
100
AcDbVisualStyle
  2
JitterOff
 70
    20
 71
     2
 72
     2
 73
     0
 90
        0
 40
-0.6
 41
-30.0
 62
     5
 63
     7
 74
     1
 91
        4
 64
     7
 65
   257
 75
     1
175
     1
 42
1.0
 92
       10
 66
     7
 43
1.0
 76
     1
 77
     6
 78
     2
 67
     7
 79
     5
170
     0
171
     0
290
     0
174
     0
 93
        1
 44
0.0
173
     0
291
     1
 45
0.0
1001
ACAD
1000
AcDbSavedByObjectVersion
1070
     0
  0
VISUALSTYLE
  5
13F5
102
{ACAD_XDICTIONARY
360
145A
102
}
102
{ACAD_REACTORS
330
13E7
102
}
330
13E7
100
AcDbVisualStyle
  2
Linepattern
 70
    14
 71
     2
 72
     2
 73
     0
 90
        0
 40
-0.6
 41
-30.0
 62
     5
 63
     7
 74
     1
 91
        4
 64
     7
 65
   257
 75
     7
175
     7
 42
1.0
 92
        8
 66
     7
 43
1.0
 76
     1
 77
     6
 78
     2
 67
     7
 79
     5
170
     0
171
     0
290
     0
174
     0
 93
        1
 44
0.0
173
     0
291
     1
 45
0.0
1001
ACAD
1000
AcDbSavedByObjectVersion
1070
     0
  0
VISUALSTYLE
  5
13FE
102
{ACAD_XDICTIONARY
360
146C
102
}
102
{ACAD_REACTORS
330
13E7
102
}
330
13E7
100
AcDbVisualStyle
  2
OverhangOff
 70
    21
 71
     2
 72
     2
 73
     0
 90
        0
 40
-0.6
 41
-30.0
 62
     5
 63
     7
 74
     1
 91
        4
 64
     7
 65
   257
 75
     1
175
     1
 42
1.0
 92
        9
 66
     7
 43
1.0
 76
     1
 77
     6
 78
     2
 67
     7
 79
     5
170
     0
171
     0
290
     0
174
     0
 93
        1
 44
0.0
173
     0
291
     1
 45
0.0
1001
ACAD
1000
AcDbSavedByObjectVersion
1070
     0
  0
VISUALSTYLE
  5
13F1
102
{ACAD_XDICTIONARY
360
1452
102
}
102
{ACAD_REACTORS
330
13E7
102
}
330
13E7
100
AcDbVisualStyle
  2
Realistic
 70
     8
 71
     2
 72
     3
 73
     0
 90
        2
 40
-0.6
 41
30.0
 62
     5
 63
     7
 74
     0
 91
        0
 64
     7
 65
   257
 75
     1
175
     1
 42
1.0
 92
        8
 66
   257
 43
1.0
 76
     1
 77
     6
 78
     2
 67
     7
 79
     3
170
     0
171
     0
290
     0
174
     0
 93
       13
 44
0.0
173
     0
291
     0
 45
0.0
1001
ACAD
1000
AcDbSavedByObjectVersion
1070
     0
  0
VISUALSTYLE
  5
13FC
102
{ACAD_XDICTIONARY
360
1468
102
}
102
{ACAD_REACTORS
330
13E7
102
}
330
13E7
100
AcDbVisualStyle
  2
Shaded
 70
    27
 71
     2
 72
     2
 73
     1
 90
        2
 40
-0.6
 41
30.0
 62
     5
 63
     7
 74
     0
 91
        4
 64
     7
 65
   257
 75
     1
175
     1
 42
1.0
 92
        8
 66
   257
 43
1.0
 76
     1
 77
     6
 78
     2
 67
     8
 79
     3
170
     0
171
     0
290
     0
174
     0
 93
        5
 44
0.0
173
     0
291
     0
 45
0.0
1001
ACAD
1000
AcDbSavedByObjectVersion
1070
     0
  0
VISUALSTYLE
  5
13FB
102
{ACAD_XDICTIONARY
360
1466
102
}
102
{ACAD_REACTORS
330
13E7
102
}
330
13E7
100
AcDbVisualStyle
  2
Shaded with edges
 70
    26
 71
     2
 72
     2
 73
     1
 90
        2
 40
-0.6
 41
30.0
 62
     5
 63
     7
 74
     1
 91
       10
 64
     7
 65
   257
 75
     2
175
     1
 42
1.0
 92
        8
 66
   257
 43
1.0
 76
     1
 77
     6
 78
     2
 67
     7
 79
     3
170
     0
171
     0
290
     0
174
     0
 93
        5
 44
0.0
173
     0
291
     0
 45
0.0
1001
ACAD
1000
AcDbSavedByObjectVersion
1070
     0
  0
VISUALSTYLE
  5
13F8
102
{ACAD_XDICTIONARY
360
1460
102
}
102
{ACAD_REACTORS
330
13E7
102
}
330
13E7
100
AcDbVisualStyle
  2
Shades of Gray
 70
    23
 71
     2
 72
     2
 73
     3
 90
        0
 40
-0.6
 41
-30.0
 62
     5
 63
     7
 74
     2
 91
        2
 64
     7
 65
     7
 75
     1
175
     1
 42
40.0
 92
        8
 66
     7
 43
1.0
 76
     1
 77
     6
 78
     2
 67
     7
 79
     3
170
     0
171
     0
290
     0
174
     0
 93
        1
 44
0.0
173
     0
291
     0
 45
0.0
1001
ACAD
1000
AcDbSavedByObjectVersion
1070
     0
  0
VISUALSTYLE
  5
13F9
102
{ACAD_XDICTIONARY
360
1462
102
}
102
{ACAD_REACTORS
330
13E7
102
}
330
13E7
100
AcDbVisualStyle
  2
Sketchy
 70
    24
 71
     1
 72
     2
 73
     2
 90
        0
 40
-0.6
 41
-30.0
 62
     5
 63
     7
 74
     2
 91
        2
 64
     7
 65
     7
 75
     1
175
     1
 42
40.0
 92
       11
 66
     7
 43
1.0
 76
     1
 77
     6
 78
     2
 67
     7
 79
     6
170
     0
171
     0
290
     0
174
     0
 93
        1
 44
0.0
173
     0
291
     0
 45
0.0
1001
ACAD
1000
AcDbSavedByObjectVersion
1070
     0
  0
VISUALSTYLE
  5
13F4
102
{ACAD_XDICTIONARY
360
1458
102
}
102
{ACAD_REACTORS
330
13E7
102
}
330
13E7
100
AcDbVisualStyle
  2
Thicken
 70
    13
 71
     2
 72
     2
 73
     0
 90
        0
 40
-0.6
 41
-30.0
 62
     5
 63
     7
 74
     1
 91
        4
 64
     7
 65
   257
 75
     1
175
     1
 42
1.0
 92
       12
 66
     7
 43
1.0
 76
     1
 77
     6
 78
     2
 67
     7
 79
     5
170
     0
171
     0
290
     0
174
     0
 93
        1
 44
0.0
173
     0
291
     1
 45
0.0
1001
ACAD
1000
AcDbSavedByObjectVersion
1070
     0
  0
VISUALSTYLE
  5
13EE
102
{ACAD_XDICTIONARY
360
144C
102
}
102
{ACAD_REACTORS
330
13E7
102
}
330
13E7
100
AcDbVisualStyle
  2
Wireframe
 70
     5
 71
     0
 72
     2
 73
     0
 90
        0
 40
-0.6
 41
-30.0
 62
     5
 63
     7
 74
     1
 91
        4
 64
     7
 65
   257
 75
     1
175
     1
 42
1.0
 92
        0
 66
   257
 43
1.0
 76
     1
 77
     6
 78
     2
 67
     7
 79
     3
170
     0
171
     0
290
     0
174
     0
 93
        1
 44
0.0
173
     0
291
     0
 45
0.0
1001
ACAD
1000
AcDbSavedByObjectVersion
1070
     0
  0
VISUALSTYLE
  5
13FA
102
{ACAD_XDICTIONARY
360
1464
102
}
102
{ACAD_REACTORS
330
13E7
102
}
330
13E7
100
AcDbVisualStyle
  2
X-Ray
 70
    25
 71
     2
 72
     2
 73
     1
 90
        1
 40
0.5
 41
-30.0
 62
     5
 63
     7
 74
     1
 91
        0
 64
     7
 65
   257
 75
     1
175
     1
 42
1.0
 92
        8
 66
     7
 43
1.0
 76
     1
 77
     6
 78
     2
 67
     7
 79
     3
170
     0
171
     0
290
     0
174
     0
 93
       13
 44
0.0
173
     0
291
     0
 45
0.0
1001
ACAD
1000
AcDbSavedByObjectVersion
1070
     0
  0
DICTIONARYVAR
  5
1433
102
{ACAD_REACTORS
330
142E
102
}
330
142E
100
DictionaryVariables
280
     0
  1
1:1
  0
DICTIONARYVAR
  5
1430
102
{ACAD_REACTORS
330
142E
102
}
330
142E
100
DictionaryVariables
280
     0
  1
STANDARD
  0
DICTIONARYVAR
  5
142F
102
{ACAD_REACTORS
330
142E
102
}
330
142E
100
DictionaryVariables
280
     0
  1
STANDARD
  0
DICTIONARYVAR
  5
1431
102
{ACAD_REACTORS
330
142E
102
}
330
142E
100
DictionaryVariables
280
     0
  1
Imperial24
  0
DICTIONARYVAR
  5
1432
102
{ACAD_REACTORS
330
142E
102
}
330
142E
100
DictionaryVariables
280
     0
  1
Imperial24
  0
DICTIONARYVAR
  5
1436
102
{ACAD_REACTORS
330
142E
102
}
330
142E
100
DictionaryVariables
280
     0
  1
1
  0
DICTIONARYVAR
  5
1435
102
{ACAD_REACTORS
330
142E
102
}
330
142E
100
DictionaryVariables
280
     0
  1
0
  0
DICTIONARYVAR
  5
1434
102
{ACAD_REACTORS
330
142E
102
}
330
142E
100
DictionaryVariables
280
     0
  1
127
  0
DICTIONARYVAR
  5
1437
102
{ACAD_REACTORS
330
142E
102
}
330
142E
100
DictionaryVariables
280
     0
  1
2
  0
DICTIONARY
  5
1474
330
141A
100
AcDbDictionary
280
     1
281
     1
  3
ACAD_XREC_ROUNDTRIP
360
1475
  0
DICTIONARY
  5
1476
330
141B
100
AcDbDictionary
280
     1
281
     1
  3
ACAD_XREC_ROUNDTRIP
360
1477
  0
DICTIONARY
  5
1478
330
141C
100
AcDbDictionary
280
     1
281
     1
  3
ACAD_XREC_ROUNDTRIP
360
1479
  0
DICTIONARY
  5
13D8
330
13D7
100
AcDbDictionary
280
     1
281
     1
  3
ACAD_XREC_ROUNDTRIP
360
143E
  3
BUMPTILE
360
13DA
  3
DIFFUSETILE
360
13D9
  3
OPACITYTILE
360
13DD
  3
REFLECTIONTILE
360
13DC
  3
REFRACTIONTILE
360
13DE
  3
SPECULARTILE
360
13DB
  0
DICTIONARY
  5
13D0
330
13CF
100
AcDbDictionary
280
     1
281
     1
  3
ACAD_XREC_ROUNDTRIP
360
143D
  3
BUMPTILE
360
13D2
  3
DIFFUSETILE
360
13D1
  3
OPACITYTILE
360
13D5
  3
REFLECTIONTILE
360
13D4
  3
REFRACTIONTILE
360
13D6
  3
SPECULARTILE
360
13D3
  0
DICTIONARY
  5
13E0
330
13DF
100
AcDbDictionary
280
     1
281
     1
  3
ACAD_XREC_ROUNDTRIP
360
143F
  3
BUMPTILE
360
13E2
  3
DIFFUSETILE
360
13E1
  3
OPACITYTILE
360
13E5
  3
REFLECTIONTILE
360
13E4
  3
REFRACTIONTILE
360
13E6
  3
SPECULARTILE
360
13E3
  0
DICTIONARY
  5
1472
330
1418
100
AcDbDictionary
280
     1
281
     1
  3
ACAD_XREC_ROUNDTRIP
360
1473
  0
DICTIONARY
  5
1439
330
1402
100
AcDbDictionary
280
     1
281
     1
  3
ACAD_ROUNDTRIP_2008_TABLESTYLE_CELLSTYLEMAP
360
143A
  3
ACAD_XREC_ROUNDTRIP
360
1470
  0
DICTIONARY
  5
144A
330
13ED
100
AcDbDictionary
280
     1
281
     1
  3
ACAD_XREC_ROUNDTRIP
360
144B
  0
DICTIONARY
  5
1448
330
13EC
100
AcDbDictionary
280
     1
281
     1
  3
ACAD_XREC_ROUNDTRIP
360
1449
  0
DICTIONARY
  5
1456
330
13F3
100
AcDbDictionary
280
     1
281
     1
  3
ACAD_XREC_ROUNDTRIP
360
1457
  0
DICTIONARY
  5
145E
330
13F7
100
AcDbDictionary
280
     1
281
     1
  3
ACAD_XREC_ROUNDTRIP
360
145F
  0
DICTIONARY
  5
1450
330
13F0
100
AcDbDictionary
280
     1
281
     1
  3
ACAD_XREC_ROUNDTRIP
360
1451
  0
DICTIONARY
  5
1454
330
13F2
100
AcDbDictionary
280
     1
281
     1
  3
ACAD_XREC_ROUNDTRIP
360
1455
  0
DICTIONARY
  5
146E
330
13FF
100
AcDbDictionary
280
     1
281
     1
  3
ACAD_XREC_ROUNDTRIP
360
146F
  0
DICTIONARY
  5
145C
330
13F6
100
AcDbDictionary
280
     1
281
     1
  3
ACAD_XREC_ROUNDTRIP
360
145D
  0
DICTIONARY
  5
1440
330
13E8
100
AcDbDictionary
280
     1
281
     1
  3
ACAD_XREC_ROUNDTRIP
360
1441
  0
DICTIONARY
  5
1442
330
13E9
100
AcDbDictionary
280
     1
281
     1
  3
ACAD_XREC_ROUNDTRIP
360
1443
  0
DICTIONARY
  5
1444
330
13EA
100
AcDbDictionary
280
     1
281
     1
  3
ACAD_XREC_ROUNDTRIP
360
1445
  0
DICTIONARY
  5
1446
330
13EB
100
AcDbDictionary
280
     1
281
     1
  3
ACAD_XREC_ROUNDTRIP
360
1447
  0
DICTIONARY
  5
144E
330
13EF
100
AcDbDictionary
280
     1
281
     1
  3
ACAD_XREC_ROUNDTRIP
360
144F
  0
DICTIONARY
  5
146A
330
13FD
100
AcDbDictionary
280
     1
281
     1
  3
ACAD_XREC_ROUNDTRIP
360
146B
  0
DICTIONARY
  5
145A
330
13F5
100
AcDbDictionary
280
     1
281
     1
  3
ACAD_XREC_ROUNDTRIP
360
145B
  0
DICTIONARY
  5
146C
330
13FE
100
AcDbDictionary
280
     1
281
     1
  3
ACAD_XREC_ROUNDTRIP
360
146D
  0
DICTIONARY
  5
1452
330
13F1
100
AcDbDictionary
280
     1
281
     1
  3
ACAD_XREC_ROUNDTRIP
360
1453
  0
DICTIONARY
  5
1468
330
13FC
100
AcDbDictionary
280
     1
281
     1
  3
ACAD_XREC_ROUNDTRIP
360
1469
  0
DICTIONARY
  5
1466
330
13FB
100
AcDbDictionary
280
     1
281
     1
  3
ACAD_XREC_ROUNDTRIP
360
1467
  0
DICTIONARY
  5
1460
330
13F8
100
AcDbDictionary
280
     1
281
     1
  3
ACAD_XREC_ROUNDTRIP
360
1461
  0
DICTIONARY
  5
1462
330
13F9
100
AcDbDictionary
280
     1
281
     1
  3
ACAD_XREC_ROUNDTRIP
360
1463
  0
DICTIONARY
  5
1458
330
13F4
100
AcDbDictionary
280
     1
281
     1
  3
ACAD_XREC_ROUNDTRIP
360
1459
  0
DICTIONARY
  5
144C
330
13EE
100
AcDbDictionary
280
     1
281
     1
  3
ACAD_XREC_ROUNDTRIP
360
144D
  0
DICTIONARY
  5
1464
330
13FA
100
AcDbDictionary
280
     1
281
     1
  3
ACAD_XREC_ROUNDTRIP
360
1465
  0
XRECORD
  5
1475
102
{ACAD_REACTORS
330
1474
102
}
330
1474
100
AcDbXrecord
280
     1
102
DISPLAYNAME
  1
Imperial24
102
FLAGS
 90
        0
  0
XRECORD
  5
1477
102
{ACAD_REACTORS
330
1476
102
}
330
1476
100
AcDbXrecord
280
     1
102
SHADEPLOT
 70
     0
102
SHADEPLOTRESLEVEL
 70
     2
102
SHADEPLOTCUSTOMDPI
 70
   300
  0
XRECORD
  5
1479
102
{ACAD_REACTORS
330
1478
102
}
330
1478
100
AcDbXrecord
280
     1
102
SHADEPLOT
 70
     0
102
SHADEPLOTRESLEVEL
 70
     2
102
SHADEPLOTCUSTOMDPI
 70
   300
  0
XRECORD
  5
143E
102
{ACAD_REACTORS
330
13D8
102
}
330
13D8
100
AcDbXrecord
280
     1
102
MATERIAL
148
0.0
149
0.0
149
0.0
 93
        0
 94
      127
282
     0
 72
     0
 77
     0
171
     0
175
     0
179
     0
273
     0
  0
XRECORD
  5
13DA
102
{ACAD_REACTORS
330
13D8
102
}
330
13D8
100
AcDbXrecord
280
     1
270
     1
271
     1
  0
XRECORD
  5
13D9
102
{ACAD_REACTORS
330
13D8
102
}
330
13D8
100
AcDbXrecord
280
     1
270
     1
271
     1
  0
XRECORD
  5
13DD
102
{ACAD_REACTORS
330
13D8
102
}
330
13D8
100
AcDbXrecord
280
     1
270
     1
271
     1
  0
XRECORD
  5
13DC
102
{ACAD_REACTORS
330
13D8
102
}
330
13D8
100
AcDbXrecord
280
     1
270
     1
271
     1
  0
XRECORD
  5
13DE
102
{ACAD_REACTORS
330
13D8
102
}
330
13D8
100
AcDbXrecord
280
     1
270
     1
271
     1
  0
XRECORD
  5
13DB
102
{ACAD_REACTORS
330
13D8
102
}
330
13D8
100
AcDbXrecord
280
     1
270
     1
271
     1
  0
XRECORD
  5
143D
102
{ACAD_REACTORS
330
13D0
102
}
330
13D0
100
AcDbXrecord
280
     1
102
MATERIAL
148
0.0
149
0.0
149
0.0
 93
        0
 94
      127
282
     0
 72
     0
 77
     0
171
     0
175
     0
179
     0
273
     0
  0
XRECORD
  5
13D2
102
{ACAD_REACTORS
330
13D0
102
}
330
13D0
100
AcDbXrecord
280
     1
270
     1
271
     1
  0
XRECORD
  5
13D1
102
{ACAD_REACTORS
330
13D0
102
}
330
13D0
100
AcDbXrecord
280
     1
270
     1
271
     1
  0
XRECORD
  5
13D5
102
{ACAD_REACTORS
330
13D0
102
}
330
13D0
100
AcDbXrecord
280
     1
270
     1
271
     1
  0
XRECORD
  5
13D4
102
{ACAD_REACTORS
330
13D0
102
}
330
13D0
100
AcDbXrecord
280
     1
270
     1
271
     1
  0
XRECORD
  5
13D6
102
{ACAD_REACTORS
330
13D0
102
}
330
13D0
100
AcDbXrecord
280
     1
270
     1
271
     1
  0
XRECORD
  5
13D3
102
{ACAD_REACTORS
330
13D0
102
}
330
13D0
100
AcDbXrecord
280
     1
270
     1
271
     1
  0
XRECORD
  5
143F
102
{ACAD_REACTORS
330
13E0
102
}
330
13E0
100
AcDbXrecord
280
     1
102
MATERIAL
148
0.0
149
0.0
149
0.0
 93
        0
 94
      127
282
     0
 72
     0
 77
     0
171
     0
175
     0
179
     0
273
     0
  0
XRECORD
  5
13E2
102
{ACAD_REACTORS
330
13E0
102
}
330
13E0
100
AcDbXrecord
280
     1
270
     1
271
     1
  0
XRECORD
  5
13E1
102
{ACAD_REACTORS
330
13E0
102
}
330
13E0
100
AcDbXrecord
280
     1
270
     1
271
     1
  0
XRECORD
  5
13E5
102
{ACAD_REACTORS
330
13E0
102
}
330
13E0
100
AcDbXrecord
280
     1
270
     1
271
     1
  0
XRECORD
  5
13E4
102
{ACAD_REACTORS
330
13E0
102
}
330
13E0
100
AcDbXrecord
280
     1
270
     1
271
     1
  0
XRECORD
  5
13E6
102
{ACAD_REACTORS
330
13E0
102
}
330
13E0
100
AcDbXrecord
280
     1
270
     1
271
     1
  0
XRECORD
  5
13E3
102
{ACAD_REACTORS
330
13E0
102
}
330
13E0
100
AcDbXrecord
280
     1
270
     1
271
     1
  0
XRECORD
  5
1473
102
{ACAD_REACTORS
330
1472
102
}
330
1472
100
AcDbXrecord
280
     1
102
DISPLAYNAME
  1
Imperial24
102
FLAGS
 90
        0
  0
CELLSTYLEMAP
  5
143A
102
{ACAD_REACTORS
330
1439
102
}
330
1439
100
AcDbCellStyleMap
 90
        3
300
CELLSTYLE
  1
TABLEFORMAT_BEGIN
 90
        5
170
     1
 91
        0
 92
    32768
 62
   257
 93
        1
300
CONTENTFORMAT
  1
CONTENTFORMAT_BEGIN
 90
        0
 91
        0
 92
      512
 93
        0
300

 40
0.0
140
1.0
 94
        5
 62
     0
340
F
144
0.25
309
CONTENTFORMAT_END
171
     0
 94
        0
309
TABLEFORMAT_END
  1
CELLSTYLE_BEGIN
 90
        1
 91
        1
300
_TITLE
309
CELLSTYLE_END
300
CELLSTYLE
  1
TABLEFORMAT_BEGIN
 90
        5
170
     1
 91
        0
 92
        0
 62
   257
 93
        1
300
CONTENTFORMAT
  1
CONTENTFORMAT_BEGIN
 90
        0
 91
        0
 92
      512
 93
        0
300

 40
0.0
140
1.0
 94
        5
 62
     0
340
F
144
0.18
309
CONTENTFORMAT_END
171
     0
 94
        0
309
TABLEFORMAT_END
  1
CELLSTYLE_BEGIN
 90
        2
 91
        1
300
_HEADER
309
CELLSTYLE_END
300
CELLSTYLE
  1
TABLEFORMAT_BEGIN
 90
        5
170
     1
 91
        0
 92
        0
 62
   257
 93
        1
300
CONTENTFORMAT
  1
CONTENTFORMAT_BEGIN
 90
        0
 91
        0
 92
      512
 93
        0
300

 40
0.0
140
1.0
 94
        2
 62
     0
340
F
144
0.18
309
CONTENTFORMAT_END
171
     0
 94
        0
309
TABLEFORMAT_END
  1
CELLSTYLE_BEGIN
 90
        3
 91
        2
300
_DATA
309
CELLSTYLE_END
  0
XRECORD
  5
1470
102
{ACAD_REACTORS
330
1439
102
}
330
1439
100
AcDbXrecord
280
     1
102
ACAD_ROUNDTRIP_PRE2007_TABLESTYLE
 90
      512
 91
        0
  1

 92
      512
 93
        0
  2

 94
      512
 95
        0
  3

  0
XRECORD
  5
144B
102
{ACAD_REACTORS
330
144A
102
}
330
144A
100
AcDbXrecord
280
     1
102
RTVSPost2010Prop28
280
     1
102
RTVSPost2010PropOp28
 70
     1
102
RTVSPost2010Prop29
280
     1
102
RTVSPost2010PropOp29
 70
     1
102
RTVSPost2010Prop30
280
     0
102
RTVSPost2010PropOp30
 70
     1
102
RTVSPost2010Prop31
280
     0
102
RTVSPost2010PropOp31
 70
     1
102
RTVSPost2010Prop32
280
     0
102
RTVSPost2010PropOp32
 70
     1
102
RTVSPost2010Prop33
280
     0
102
RTVSPost2010PropOp33
 70
     1
102
RTVSPost2010Prop34
280
     0
102
RTVSPost2010PropOp34
 70
     1
102
RTVSPost2010Prop35
280
     0
102
RTVSPost2010PropOp35
 70
     1
102
RTVSPost2010Prop36
280
     0
102
RTVSPost2010PropOp36
 70
     1
102
RTVSPost2010Prop37
 90
       50
102
RTVSPost2010PropOp37
 70
     1
102
RTVSPost2010Prop38
140
0.0
102
RTVSPost2010PropOp38
 70
     1
102
RTVSPost2010Prop39
140
1.0
102
RTVSPost2010PropOp39
 70
     1
102
RTVSPost2010Prop40
 90
        0
102
RTVSPost2010PropOp40
 70
     1
102
RTVSPost2010Prop41ColorIndex
 90
       18
102
RTVSPost2010Prop41ColorRGB
 90
        0
102
RTVSPost2010PropOp41
 70
     1
102
RTVSPost2010Prop42
 90
       50
102
RTVSPost2010PropOp42
 70
     1
102
RTVSPost2010Prop43
 90
        3
102
RTVSPost2010PropOp43
 70
     1
102
RTVSPost2010Prop44ColorIndex
 90
        5
102
RTVSPost2010Prop44ColorRGB
 90
      255
102
RTVSPost2010PropOp44
 70
     1
102
RTVSPost2010Prop45
280
     0
102
RTVSPost2010PropOp45
 70
     1
102
RTVSPost2010Prop46
 90
       50
102
RTVSPost2010PropOp46
 70
     1
102
RTVSPost2010Prop47
 90
       50
102
RTVSPost2010PropOp47
 70
     1
102
RTVSPost2010Prop48
 90
       50
102
RTVSPost2010PropOp48
 70
     1
102
RTVSPost2010Prop49
280
     0
102
RTVSPost2010PropOp49
 70
     1
102
RTVSPost2010Prop50
 90
       50
102
RTVSPost2010PropOp50
 70
     1
102
RTVSPost2010Prop51ColorIndex
 90
      256
102
RTVSPost2010Prop51ColorRGB
 90
-16777216
102
RTVSPost2010PropOp51
 70
     0
102
RTVSPost2010Prop52
140
1.0
102
RTVSPost2010PropOp52
 70
     0
102
RTVSPost2010Prop53
 90
        2
102
RTVSPost2010PropOp53
 70
     1
102
RTVSPost2010Prop54
  1
strokes_ogs.tif
102
RTVSPost2010PropOp54
 70
     1
102
RTVSPost2010Prop55
280
     0
102
RTVSPost2010PropOp55
 70
     1
102
RTVSPost2010Prop56
140
1.0
102
RTVSPost2010PropOp56
 70
     1
102
RTVSPost2010Prop57
140
1.0
102
RTVSPost2010PropOp57
 70
     1
102
RTVSPropertyOp0
 70
     1
102
RTVSPropertyOp1
 70
     1
102
RTVSPropertyOp2
 70
     1
102
RTVSPropertyOp3
 70
     1
102
RTVSPropertyOp4
 70
     1
102
RTVSPropertyOp5
 70
     1
102
RTVSPropertyOp6
 70
     1
102
RTVSPropertyOp7
 70
     1
102
RTVSPropertyOp8
 70
     1
102
RTVSPropertyOp9
 70
     1
102
RTVSPropertyOp10
 70
     1
102
RTVSPropertyOp11
 70
     1
102
RTVSPropertyOp12
 70
     1
102
RTVSPropertyOp13
 70
     1
102
RTVSPropertyOp14
 70
     1
102
RTVSPropertyOp15
 70
     1
102
RTVSPropertyOp16
 70
     1
102
RTVSPropertyOp17
 70
     1
102
RTVSPropertyOp18
 70
     1
102
RTVSPropertyOp19
 70
     1
102
RTVSPropertyOp20
 70
     1
102
RTVSPropertyOp21
 70
     1
102
RTVSPropertyOp22
 70
     1
102
RTVSPropertyOp23
 70
     1
102
RTVSPropertyOp24
 70
     1
102
RTVSPropertyOp25
 70
     1
102
RTVSPropertyOp26
 70
     1
102
RTVSPropertyOp27
 70
     1
102
RTVSPropertyOp28
 70
     1
102
RTVSPropertyOp29
 70
     1
102
RTVSPropertyOp30
 70
     1
102
RTVSPropertyOp31
 70
     1
102
RTVSPropertyOp32
 70
     1
102
RTVSPropertyOp33
 70
     1
102
RTVSPropertyOp34
 70
     1
102
RTVSPropertyOp35
 70
     1
102
RTVSPropertyOp36
 70
     1
102
RTVSPropertyOp37
 70
     1
102
RTVSPropertyOp38
 70
     1
102
RTVSPropertyOp39
 70
     1
102
RTVSPropertyOp40
 70
     1
102
RTVSPropertyOp41
 70
     1
102
RTVSPropertyOp42
 70
     1
102
RTVSPropertyOp43
 70
     1
102
RTVSPropertyOp44
 70
     1
102
RTVSPropertyOp45
 70
     1
102
RTVSPropertyOp46
 70
     1
102
RTVSPropertyOp47
 70
     1
102
RTVSPropertyOp48
 70
     1
102
RTVSPropertyOp49
 70
     1
102
RTVSPropertyOp50
 70
     1
102
RTVSPropertyOp51
 70
     0
102
RTVSPropertyOp52
 70
     0
102
RTVSPropertyOp53
 70
     1
102
RTVSPropertyOp54
 70
     1
102
RTVSPropertyOp55
 70
     1
102
RTVSPropertyOp56
 70
     1
102
RTVSPropertyOp57
 70
     1
102
RTVSPropertyOp58
 70
     1
102
RTVSPropertyOp59
 70
     1
102
RTVSPropertyOp60
 70
     1
102
RTVSPropertyOp61
 70
     1
102
RTVSPropertyOp62
 70
     1
  0
XRECORD
  5
1449
102
{ACAD_REACTORS
330
1448
102
}
330
1448
100
AcDbXrecord
280
     1
102
RTVSPost2010Prop28
280
     0
102
RTVSPost2010PropOp28
 70
     1
102
RTVSPost2010Prop29
280
     1
102
RTVSPost2010PropOp29
 70
     1
102
RTVSPost2010Prop30
280
     1
102
RTVSPost2010PropOp30
 70
     1
102
RTVSPost2010Prop31
280
     0
102
RTVSPost2010PropOp31
 70
     1
102
RTVSPost2010Prop32
280
     0
102
RTVSPost2010PropOp32
 70
     1
102
RTVSPost2010Prop33
280
     0
102
RTVSPost2010PropOp33
 70
     1
102
RTVSPost2010Prop34
280
     0
102
RTVSPost2010PropOp34
 70
     1
102
RTVSPost2010Prop35
280
     0
102
RTVSPost2010PropOp35
 70
     1
102
RTVSPost2010Prop36
280
     0
102
RTVSPost2010PropOp36
 70
     1
102
RTVSPost2010Prop37
 90
       50
102
RTVSPost2010PropOp37
 70
     1
102
RTVSPost2010Prop38
140
0.0
102
RTVSPost2010PropOp38
 70
     1
102
RTVSPost2010Prop39
140
1.0
102
RTVSPost2010PropOp39
 70
     1
102
RTVSPost2010Prop40
 90
        0
102
RTVSPost2010PropOp40
 70
     1
102
RTVSPost2010Prop41ColorIndex
 90
       18
102
RTVSPost2010Prop41ColorRGB
 90
        0
102
RTVSPost2010PropOp41
 70
     1
102
RTVSPost2010Prop42
 90
       50
102
RTVSPost2010PropOp42
 70
     1
102
RTVSPost2010Prop43
 90
        3
102
RTVSPost2010PropOp43
 70
     1
102
RTVSPost2010Prop44ColorIndex
 90
        5
102
RTVSPost2010Prop44ColorRGB
 90
      255
102
RTVSPost2010PropOp44
 70
     1
102
RTVSPost2010Prop45
280
     0
102
RTVSPost2010PropOp45
 70
     1
102
RTVSPost2010Prop46
 90
       50
102
RTVSPost2010PropOp46
 70
     1
102
RTVSPost2010Prop47
 90
       50
102
RTVSPost2010PropOp47
 70
     1
102
RTVSPost2010Prop48
 90
       50
102
RTVSPost2010PropOp48
 70
     1
102
RTVSPost2010Prop49
280
     0
102
RTVSPost2010PropOp49
 70
     1
102
RTVSPost2010Prop50
 90
       50
102
RTVSPost2010PropOp50
 70
     1
102
RTVSPost2010Prop51ColorIndex
 90
      256
102
RTVSPost2010Prop51ColorRGB
 90
-16777216
102
RTVSPost2010PropOp51
 70
     0
102
RTVSPost2010Prop52
140
1.0
102
RTVSPost2010PropOp52
 70
     0
102
RTVSPost2010Prop53
 90
        2
102
RTVSPost2010PropOp53
 70
     1
102
RTVSPost2010Prop54
  1
strokes_ogs.tif
102
RTVSPost2010PropOp54
 70
     1
102
RTVSPost2010Prop55
280
     0
102
RTVSPost2010PropOp55
 70
     1
102
RTVSPost2010Prop56
140
1.0
102
RTVSPost2010PropOp56
 70
     1
102
RTVSPost2010Prop57
140
1.0
102
RTVSPost2010PropOp57
 70
     1
102
RTVSPropertyOp0
 70
     1
102
RTVSPropertyOp1
 70
     1
102
RTVSPropertyOp2
 70
     1
102
RTVSPropertyOp3
 70
     1
102
RTVSPropertyOp4
 70
     1
102
RTVSPropertyOp5
 70
     1
102
RTVSPropertyOp6
 70
     1
102
RTVSPropertyOp7
 70
     1
102
RTVSPropertyOp8
 70
     1
102
RTVSPropertyOp9
 70
     1
102
RTVSPropertyOp10
 70
     1
102
RTVSPropertyOp11
 70
     1
102
RTVSPropertyOp12
 70
     1
102
RTVSPropertyOp13
 70
     1
102
RTVSPropertyOp14
 70
     1
102
RTVSPropertyOp15
 70
     1
102
RTVSPropertyOp16
 70
     1
102
RTVSPropertyOp17
 70
     1
102
RTVSPropertyOp18
 70
     1
102
RTVSPropertyOp19
 70
     1
102
RTVSPropertyOp20
 70
     1
102
RTVSPropertyOp21
 70
     1
102
RTVSPropertyOp22
 70
     1
102
RTVSPropertyOp23
 70
     1
102
RTVSPropertyOp24
 70
     1
102
RTVSPropertyOp25
 70
     1
102
RTVSPropertyOp26
 70
     1
102
RTVSPropertyOp27
 70
     1
102
RTVSPropertyOp28
 70
     1
102
RTVSPropertyOp29
 70
     1
102
RTVSPropertyOp30
 70
     1
102
RTVSPropertyOp31
 70
     1
102
RTVSPropertyOp32
 70
     1
102
RTVSPropertyOp33
 70
     1
102
RTVSPropertyOp34
 70
     1
102
RTVSPropertyOp35
 70
     1
102
RTVSPropertyOp36
 70
     1
102
RTVSPropertyOp37
 70
     1
102
RTVSPropertyOp38
 70
     1
102
RTVSPropertyOp39
 70
     1
102
RTVSPropertyOp40
 70
     1
102
RTVSPropertyOp41
 70
     1
102
RTVSPropertyOp42
 70
     1
102
RTVSPropertyOp43
 70
     1
102
RTVSPropertyOp44
 70
     1
102
RTVSPropertyOp45
 70
     1
102
RTVSPropertyOp46
 70
     1
102
RTVSPropertyOp47
 70
     1
102
RTVSPropertyOp48
 70
     1
102
RTVSPropertyOp49
 70
     1
102
RTVSPropertyOp50
 70
     1
102
RTVSPropertyOp51
 70
     0
102
RTVSPropertyOp52
 70
     0
102
RTVSPropertyOp53
 70
     1
102
RTVSPropertyOp54
 70
     1
102
RTVSPropertyOp55
 70
     1
102
RTVSPropertyOp56
 70
     1
102
RTVSPropertyOp57
 70
     1
102
RTVSPropertyOp58
 70
     1
102
RTVSPropertyOp59
 70
     1
102
RTVSPropertyOp60
 70
     1
102
RTVSPropertyOp61
 70
     1
102
RTVSPropertyOp62
 70
     1
  0
XRECORD
  5
1457
102
{ACAD_REACTORS
330
1456
102
}
330
1456
100
AcDbXrecord
280
     1
102
RTVSPost2010Prop28
280
     0
102
RTVSPost2010PropOp28
 70
     1
102
RTVSPost2010Prop29
280
     1
102
RTVSPost2010PropOp29
 70
     1
102
RTVSPost2010Prop30
280
     1
102
RTVSPost2010PropOp30
 70
     1
102
RTVSPost2010Prop31
280
     0
102
RTVSPost2010PropOp31
 70
     1
102
RTVSPost2010Prop32
280
     0
102
RTVSPost2010PropOp32
 70
     1
102
RTVSPost2010Prop33
280
     0
102
RTVSPost2010PropOp33
 70
     1
102
RTVSPost2010Prop34
280
     0
102
RTVSPost2010PropOp34
 70
     1
102
RTVSPost2010Prop35
280
     0
102
RTVSPost2010PropOp35
 70
     1
102
RTVSPost2010Prop36
280
     0
102
RTVSPost2010PropOp36
 70
     1
102
RTVSPost2010Prop37
 90
       50
102
RTVSPost2010PropOp37
 70
     1
102
RTVSPost2010Prop38
140
0.0
102
RTVSPost2010PropOp38
 70
     1
102
RTVSPost2010Prop39
140
1.0
102
RTVSPost2010PropOp39
 70
     1
102
RTVSPost2010Prop40
 90
        0
102
RTVSPost2010PropOp40
 70
     1
102
RTVSPost2010Prop41ColorIndex
 90
       18
102
RTVSPost2010Prop41ColorRGB
 90
        0
102
RTVSPost2010PropOp41
 70
     1
102
RTVSPost2010Prop42
 90
       50
102
RTVSPost2010PropOp42
 70
     1
102
RTVSPost2010Prop43
 90
        3
102
RTVSPost2010PropOp43
 70
     1
102
RTVSPost2010Prop44ColorIndex
 90
        5
102
RTVSPost2010Prop44ColorRGB
 90
      255
102
RTVSPost2010PropOp44
 70
     1
102
RTVSPost2010Prop45
280
     0
102
RTVSPost2010PropOp45
 70
     1
102
RTVSPost2010Prop46
 90
       50
102
RTVSPost2010PropOp46
 70
     1
102
RTVSPost2010Prop47
 90
       50
102
RTVSPost2010PropOp47
 70
     1
102
RTVSPost2010Prop48
 90
       50
102
RTVSPost2010PropOp48
 70
     1
102
RTVSPost2010Prop49
280
     0
102
RTVSPost2010PropOp49
 70
     1
102
RTVSPost2010Prop50
 90
       50
102
RTVSPost2010PropOp50
 70
     1
102
RTVSPost2010Prop51ColorIndex
 90
      256
102
RTVSPost2010Prop51ColorRGB
 90
-16777216
102
RTVSPost2010PropOp51
 70
     0
102
RTVSPost2010Prop52
140
1.0
102
RTVSPost2010PropOp52
 70
     0
102
RTVSPost2010Prop53
 90
        2
102
RTVSPost2010PropOp53
 70
     1
102
RTVSPost2010Prop54
  1
strokes_ogs.tif
102
RTVSPost2010PropOp54
 70
     1
102
RTVSPost2010Prop55
280
     0
102
RTVSPost2010PropOp55
 70
     1
102
RTVSPost2010Prop56
140
1.0
102
RTVSPost2010PropOp56
 70
     1
102
RTVSPost2010Prop57
140
1.0
102
RTVSPost2010PropOp57
 70
     1
102
RTVSPropertyOp0
 70
     1
102
RTVSPropertyOp1
 70
     1
102
RTVSPropertyOp2
 70
     1
102
RTVSPropertyOp3
 70
     1
102
RTVSPropertyOp4
 70
     1
102
RTVSPropertyOp5
 70
     1
102
RTVSPropertyOp6
 70
     1
102
RTVSPropertyOp7
 70
     1
102
RTVSPropertyOp8
 70
     1
102
RTVSPropertyOp9
 70
     1
102
RTVSPropertyOp10
 70
     1
102
RTVSPropertyOp11
 70
     1
102
RTVSPropertyOp12
 70
     1
102
RTVSPropertyOp13
 70
     1
102
RTVSPropertyOp14
 70
     1
102
RTVSPropertyOp15
 70
     1
102
RTVSPropertyOp16
 70
     1
102
RTVSPropertyOp17
 70
     1
102
RTVSPropertyOp18
 70
     1
102
RTVSPropertyOp19
 70
     1
102
RTVSPropertyOp20
 70
     1
102
RTVSPropertyOp21
 70
     1
102
RTVSPropertyOp22
 70
     1
102
RTVSPropertyOp23
 70
     1
102
RTVSPropertyOp24
 70
     1
102
RTVSPropertyOp25
 70
     1
102
RTVSPropertyOp26
 70
     1
102
RTVSPropertyOp27
 70
     1
102
RTVSPropertyOp28
 70
     1
102
RTVSPropertyOp29
 70
     1
102
RTVSPropertyOp30
 70
     1
102
RTVSPropertyOp31
 70
     1
102
RTVSPropertyOp32
 70
     1
102
RTVSPropertyOp33
 70
     1
102
RTVSPropertyOp34
 70
     1
102
RTVSPropertyOp35
 70
     1
102
RTVSPropertyOp36
 70
     1
102
RTVSPropertyOp37
 70
     1
102
RTVSPropertyOp38
 70
     1
102
RTVSPropertyOp39
 70
     1
102
RTVSPropertyOp40
 70
     1
102
RTVSPropertyOp41
 70
     1
102
RTVSPropertyOp42
 70
     1
102
RTVSPropertyOp43
 70
     1
102
RTVSPropertyOp44
 70
     1
102
RTVSPropertyOp45
 70
     1
102
RTVSPropertyOp46
 70
     1
102
RTVSPropertyOp47
 70
     1
102
RTVSPropertyOp48
 70
     1
102
RTVSPropertyOp49
 70
     1
102
RTVSPropertyOp50
 70
     1
102
RTVSPropertyOp51
 70
     0
102
RTVSPropertyOp52
 70
     0
102
RTVSPropertyOp53
 70
     1
102
RTVSPropertyOp54
 70
     1
102
RTVSPropertyOp55
 70
     1
102
RTVSPropertyOp56
 70
     1
102
RTVSPropertyOp57
 70
     1
102
RTVSPropertyOp58
 70
     1
102
RTVSPropertyOp59
 70
     1
102
RTVSPropertyOp60
 70
     1
102
RTVSPropertyOp61
 70
     1
102
RTVSPropertyOp62
 70
     1
  0
XRECORD
  5
145F
102
{ACAD_REACTORS
330
145E
102
}
330
145E
100
AcDbXrecord
280
     1
102
RTVSPost2010Prop28
280
     0
102
RTVSPost2010PropOp28
 70
     1
102
RTVSPost2010Prop29
280
     1
102
RTVSPost2010PropOp29
 70
     1
102
RTVSPost2010Prop30
280
     1
102
RTVSPost2010PropOp30
 70
     1
102
RTVSPost2010Prop31
280
     0
102
RTVSPost2010PropOp31
 70
     1
102
RTVSPost2010Prop32
280
     0
102
RTVSPost2010PropOp32
 70
     1
102
RTVSPost2010Prop33
280
     0
102
RTVSPost2010PropOp33
 70
     1
102
RTVSPost2010Prop34
280
     0
102
RTVSPost2010PropOp34
 70
     1
102
RTVSPost2010Prop35
280
     0
102
RTVSPost2010PropOp35
 70
     1
102
RTVSPost2010Prop36
280
     0
102
RTVSPost2010PropOp36
 70
     1
102
RTVSPost2010Prop37
 90
       50
102
RTVSPost2010PropOp37
 70
     1
102
RTVSPost2010Prop38
140
0.0
102
RTVSPost2010PropOp38
 70
     1
102
RTVSPost2010Prop39
140
1.0
102
RTVSPost2010PropOp39
 70
     1
102
RTVSPost2010Prop40
 90
        0
102
RTVSPost2010PropOp40
 70
     1
102
RTVSPost2010Prop41ColorIndex
 90
       18
102
RTVSPost2010Prop41ColorRGB
 90
        0
102
RTVSPost2010PropOp41
 70
     1
102
RTVSPost2010Prop42
 90
       50
102
RTVSPost2010PropOp42
 70
     1
102
RTVSPost2010Prop43
 90
        3
102
RTVSPost2010PropOp43
 70
     1
102
RTVSPost2010Prop44ColorIndex
 90
        5
102
RTVSPost2010Prop44ColorRGB
 90
      255
102
RTVSPost2010PropOp44
 70
     1
102
RTVSPost2010Prop45
280
     0
102
RTVSPost2010PropOp45
 70
     1
102
RTVSPost2010Prop46
 90
       50
102
RTVSPost2010PropOp46
 70
     1
102
RTVSPost2010Prop47
 90
       50
102
RTVSPost2010PropOp47
 70
     1
102
RTVSPost2010Prop48
 90
       50
102
RTVSPost2010PropOp48
 70
     1
102
RTVSPost2010Prop49
280
     0
102
RTVSPost2010PropOp49
 70
     1
102
RTVSPost2010Prop50
 90
       50
102
RTVSPost2010PropOp50
 70
     1
102
RTVSPost2010Prop51ColorIndex
 90
      256
102
RTVSPost2010Prop51ColorRGB
 90
-16777216
102
RTVSPost2010PropOp51
 70
     0
102
RTVSPost2010Prop52
140
1.0
102
RTVSPost2010PropOp52
 70
     0
102
RTVSPost2010Prop53
 90
        2
102
RTVSPost2010PropOp53
 70
     1
102
RTVSPost2010Prop54
  1
strokes_ogs.tif
102
RTVSPost2010PropOp54
 70
     1
102
RTVSPost2010Prop55
280
     0
102
RTVSPost2010PropOp55
 70
     1
102
RTVSPost2010Prop56
140
1.0
102
RTVSPost2010PropOp56
 70
     1
102
RTVSPost2010Prop57
140
1.0
102
RTVSPost2010PropOp57
 70
     1
102
RTVSPropertyOp0
 70
     1
102
RTVSPropertyOp1
 70
     1
102
RTVSPropertyOp2
 70
     1
102
RTVSPropertyOp3
 70
     1
102
RTVSPropertyOp4
 70
     1
102
RTVSPropertyOp5
 70
     1
102
RTVSPropertyOp6
 70
     1
102
RTVSPropertyOp7
 70
     1
102
RTVSPropertyOp8
 70
     1
102
RTVSPropertyOp9
 70
     1
102
RTVSPropertyOp10
 70
     1
102
RTVSPropertyOp11
 70
     1
102
RTVSPropertyOp12
 70
     1
102
RTVSPropertyOp13
 70
     1
102
RTVSPropertyOp14
 70
     1
102
RTVSPropertyOp15
 70
     1
102
RTVSPropertyOp16
 70
     1
102
RTVSPropertyOp17
 70
     1
102
RTVSPropertyOp18
 70
     1
102
RTVSPropertyOp19
 70
     1
102
RTVSPropertyOp20
 70
     1
102
RTVSPropertyOp21
 70
     1
102
RTVSPropertyOp22
 70
     1
102
RTVSPropertyOp23
 70
     1
102
RTVSPropertyOp24
 70
     1
102
RTVSPropertyOp25
 70
     1
102
RTVSPropertyOp26
 70
     1
102
RTVSPropertyOp27
 70
     1
102
RTVSPropertyOp28
 70
     1
102
RTVSPropertyOp29
 70
     1
102
RTVSPropertyOp30
 70
     1
102
RTVSPropertyOp31
 70
     1
102
RTVSPropertyOp32
 70
     1
102
RTVSPropertyOp33
 70
     1
102
RTVSPropertyOp34
 70
     1
102
RTVSPropertyOp35
 70
     1
102
RTVSPropertyOp36
 70
     1
102
RTVSPropertyOp37
 70
     1
102
RTVSPropertyOp38
 70
     1
102
RTVSPropertyOp39
 70
     1
102
RTVSPropertyOp40
 70
     1
102
RTVSPropertyOp41
 70
     1
102
RTVSPropertyOp42
 70
     1
102
RTVSPropertyOp43
 70
     1
102
RTVSPropertyOp44
 70
     1
102
RTVSPropertyOp45
 70
     1
102
RTVSPropertyOp46
 70
     1
102
RTVSPropertyOp47
 70
     1
102
RTVSPropertyOp48
 70
     1
102
RTVSPropertyOp49
 70
     1
102
RTVSPropertyOp50
 70
     1
102
RTVSPropertyOp51
 70
     0
102
RTVSPropertyOp52
 70
     0
102
RTVSPropertyOp53
 70
     1
102
RTVSPropertyOp54
 70
     1
102
RTVSPropertyOp55
 70
     1
102
RTVSPropertyOp56
 70
     1
102
RTVSPropertyOp57
 70
     1
102
RTVSPropertyOp58
 70
     1
102
RTVSPropertyOp59
 70
     1
102
RTVSPropertyOp60
 70
     1
102
RTVSPropertyOp61
 70
     1
102
RTVSPropertyOp62
 70
     1
  0
XRECORD
  5
1451
102
{ACAD_REACTORS
330
1450
102
}
330
1450
100
AcDbXrecord
280
     1
102
RTVSPost2010Prop28
280
     0
102
RTVSPost2010PropOp28
 70
     1
102
RTVSPost2010Prop29
280
     1
102
RTVSPost2010PropOp29
 70
     1
102
RTVSPost2010Prop30
280
     1
102
RTVSPost2010PropOp30
 70
     1
102
RTVSPost2010Prop31
280
     0
102
RTVSPost2010PropOp31
 70
     1
102
RTVSPost2010Prop32
280
     0
102
RTVSPost2010PropOp32
 70
     1
102
RTVSPost2010Prop33
280
     0
102
RTVSPost2010PropOp33
 70
     1
102
RTVSPost2010Prop34
280
     0
102
RTVSPost2010PropOp34
 70
     1
102
RTVSPost2010Prop35
280
     0
102
RTVSPost2010PropOp35
 70
     1
102
RTVSPost2010Prop36
280
     0
102
RTVSPost2010PropOp36
 70
     1
102
RTVSPost2010Prop37
 90
       50
102
RTVSPost2010PropOp37
 70
     1
102
RTVSPost2010Prop38
140
0.0
102
RTVSPost2010PropOp38
 70
     1
102
RTVSPost2010Prop39
140
1.0
102
RTVSPost2010PropOp39
 70
     1
102
RTVSPost2010Prop40
 90
        0
102
RTVSPost2010PropOp40
 70
     1
102
RTVSPost2010Prop41ColorIndex
 90
       18
102
RTVSPost2010Prop41ColorRGB
 90
        0
102
RTVSPost2010PropOp41
 70
     1
102
RTVSPost2010Prop42
 90
       50
102
RTVSPost2010PropOp42
 70
     1
102
RTVSPost2010Prop43
 90
        3
102
RTVSPost2010PropOp43
 70
     1
102
RTVSPost2010Prop44ColorIndex
 90
        5
102
RTVSPost2010Prop44ColorRGB
 90
      255
102
RTVSPost2010PropOp44
 70
     1
102
RTVSPost2010Prop45
280
     0
102
RTVSPost2010PropOp45
 70
     1
102
RTVSPost2010Prop46
 90
       50
102
RTVSPost2010PropOp46
 70
     1
102
RTVSPost2010Prop47
 90
       50
102
RTVSPost2010PropOp47
 70
     1
102
RTVSPost2010Prop48
 90
       50
102
RTVSPost2010PropOp48
 70
     1
102
RTVSPost2010Prop49
280
     0
102
RTVSPost2010PropOp49
 70
     1
102
RTVSPost2010Prop50
 90
       50
102
RTVSPost2010PropOp50
 70
     1
102
RTVSPost2010Prop51ColorIndex
 90
      256
102
RTVSPost2010Prop51ColorRGB
 90
-16777216
102
RTVSPost2010PropOp51
 70
     0
102
RTVSPost2010Prop52
140
1.0
102
RTVSPost2010PropOp52
 70
     0
102
RTVSPost2010Prop53
 90
        2
102
RTVSPost2010PropOp53
 70
     1
102
RTVSPost2010Prop54
  1
strokes_ogs.tif
102
RTVSPost2010PropOp54
 70
     1
102
RTVSPost2010Prop55
280
     0
102
RTVSPost2010PropOp55
 70
     1
102
RTVSPost2010Prop56
140
1.0
102
RTVSPost2010PropOp56
 70
     1
102
RTVSPost2010Prop57
140
1.0
102
RTVSPost2010PropOp57
 70
     1
102
RTVSPropertyOp0
 70
     1
102
RTVSPropertyOp1
 70
     1
102
RTVSPropertyOp2
 70
     1
102
RTVSPropertyOp3
 70
     1
102
RTVSPropertyOp4
 70
     1
102
RTVSPropertyOp5
 70
     1
102
RTVSPropertyOp6
 70
     1
102
RTVSPropertyOp7
 70
     1
102
RTVSPropertyOp8
 70
     1
102
RTVSPropertyOp9
 70
     1
102
RTVSPropertyOp10
 70
     1
102
RTVSPropertyOp11
 70
     1
102
RTVSPropertyOp12
 70
     1
102
RTVSPropertyOp13
 70
     1
102
RTVSPropertyOp14
 70
     1
102
RTVSPropertyOp15
 70
     1
102
RTVSPropertyOp16
 70
     1
102
RTVSPropertyOp17
 70
     1
102
RTVSPropertyOp18
 70
     1
102
RTVSPropertyOp19
 70
     1
102
RTVSPropertyOp20
 70
     1
102
RTVSPropertyOp21
 70
     1
102
RTVSPropertyOp22
 70
     1
102
RTVSPropertyOp23
 70
     1
102
RTVSPropertyOp24
 70
     1
102
RTVSPropertyOp25
 70
     1
102
RTVSPropertyOp26
 70
     1
102
RTVSPropertyOp27
 70
     1
102
RTVSPropertyOp28
 70
     1
102
RTVSPropertyOp29
 70
     1
102
RTVSPropertyOp30
 70
     1
102
RTVSPropertyOp31
 70
     1
102
RTVSPropertyOp32
 70
     1
102
RTVSPropertyOp33
 70
     1
102
RTVSPropertyOp34
 70
     1
102
RTVSPropertyOp35
 70
     1
102
RTVSPropertyOp36
 70
     1
102
RTVSPropertyOp37
 70
     1
102
RTVSPropertyOp38
 70
     1
102
RTVSPropertyOp39
 70
     1
102
RTVSPropertyOp40
 70
     1
102
RTVSPropertyOp41
 70
     1
102
RTVSPropertyOp42
 70
     1
102
RTVSPropertyOp43
 70
     1
102
RTVSPropertyOp44
 70
     1
102
RTVSPropertyOp45
 70
     1
102
RTVSPropertyOp46
 70
     1
102
RTVSPropertyOp47
 70
     1
102
RTVSPropertyOp48
 70
     1
102
RTVSPropertyOp49
 70
     1
102
RTVSPropertyOp50
 70
     1
102
RTVSPropertyOp51
 70
     0
102
RTVSPropertyOp52
 70
     0
102
RTVSPropertyOp53
 70
     1
102
RTVSPropertyOp54
 70
     1
102
RTVSPropertyOp55
 70
     1
102
RTVSPropertyOp56
 70
     1
102
RTVSPropertyOp57
 70
     1
102
RTVSPropertyOp58
 70
     1
102
RTVSPropertyOp59
 70
     1
102
RTVSPropertyOp60
 70
     1
102
RTVSPropertyOp61
 70
     1
102
RTVSPropertyOp62
 70
     1
  0
XRECORD
  5
1455
102
{ACAD_REACTORS
330
1454
102
}
330
1454
100
AcDbXrecord
280
     1
102
RTVSPost2010Prop28
280
     0
102
RTVSPost2010PropOp28
 70
     1
102
RTVSPost2010Prop29
280
     1
102
RTVSPost2010PropOp29
 70
     1
102
RTVSPost2010Prop30
280
     1
102
RTVSPost2010PropOp30
 70
     1
102
RTVSPost2010Prop31
280
     0
102
RTVSPost2010PropOp31
 70
     1
102
RTVSPost2010Prop32
280
     0
102
RTVSPost2010PropOp32
 70
     1
102
RTVSPost2010Prop33
280
     0
102
RTVSPost2010PropOp33
 70
     1
102
RTVSPost2010Prop34
280
     0
102
RTVSPost2010PropOp34
 70
     1
102
RTVSPost2010Prop35
280
     0
102
RTVSPost2010PropOp35
 70
     1
102
RTVSPost2010Prop36
280
     0
102
RTVSPost2010PropOp36
 70
     1
102
RTVSPost2010Prop37
 90
       50
102
RTVSPost2010PropOp37
 70
     1
102
RTVSPost2010Prop38
140
0.0
102
RTVSPost2010PropOp38
 70
     1
102
RTVSPost2010Prop39
140
1.0
102
RTVSPost2010PropOp39
 70
     1
102
RTVSPost2010Prop40
 90
        0
102
RTVSPost2010PropOp40
 70
     1
102
RTVSPost2010Prop41ColorIndex
 90
       18
102
RTVSPost2010Prop41ColorRGB
 90
        0
102
RTVSPost2010PropOp41
 70
     1
102
RTVSPost2010Prop42
 90
       50
102
RTVSPost2010PropOp42
 70
     1
102
RTVSPost2010Prop43
 90
        3
102
RTVSPost2010PropOp43
 70
     1
102
RTVSPost2010Prop44ColorIndex
 90
        5
102
RTVSPost2010Prop44ColorRGB
 90
      255
102
RTVSPost2010PropOp44
 70
     1
102
RTVSPost2010Prop45
280
     0
102
RTVSPost2010PropOp45
 70
     1
102
RTVSPost2010Prop46
 90
       50
102
RTVSPost2010PropOp46
 70
     1
102
RTVSPost2010Prop47
 90
       50
102
RTVSPost2010PropOp47
 70
     1
102
RTVSPost2010Prop48
 90
       50
102
RTVSPost2010PropOp48
 70
     1
102
RTVSPost2010Prop49
280
     0
102
RTVSPost2010PropOp49
 70
     1
102
RTVSPost2010Prop50
 90
       50
102
RTVSPost2010PropOp50
 70
     1
102
RTVSPost2010Prop51ColorIndex
 90
      256
102
RTVSPost2010Prop51ColorRGB
 90
-16777216
102
RTVSPost2010PropOp51
 70
     0
102
RTVSPost2010Prop52
140
1.0
102
RTVSPost2010PropOp52
 70
     0
102
RTVSPost2010Prop53
 90
        2
102
RTVSPost2010PropOp53
 70
     1
102
RTVSPost2010Prop54
  1
strokes_ogs.tif
102
RTVSPost2010PropOp54
 70
     1
102
RTVSPost2010Prop55
280
     0
102
RTVSPost2010PropOp55
 70
     1
102
RTVSPost2010Prop56
140
1.0
102
RTVSPost2010PropOp56
 70
     1
102
RTVSPost2010Prop57
140
1.0
102
RTVSPost2010PropOp57
 70
     1
102
RTVSPropertyOp0
 70
     1
102
RTVSPropertyOp1
 70
     1
102
RTVSPropertyOp2
 70
     1
102
RTVSPropertyOp3
 70
     1
102
RTVSPropertyOp4
 70
     1
102
RTVSPropertyOp5
 70
     1
102
RTVSPropertyOp6
 70
     1
102
RTVSPropertyOp7
 70
     1
102
RTVSPropertyOp8
 70
     1
102
RTVSPropertyOp9
 70
     1
102
RTVSPropertyOp10
 70
     1
102
RTVSPropertyOp11
 70
     1
102
RTVSPropertyOp12
 70
     1
102
RTVSPropertyOp13
 70
     1
102
RTVSPropertyOp14
 70
     1
102
RTVSPropertyOp15
 70
     1
102
RTVSPropertyOp16
 70
     1
102
RTVSPropertyOp17
 70
     1
102
RTVSPropertyOp18
 70
     1
102
RTVSPropertyOp19
 70
     1
102
RTVSPropertyOp20
 70
     1
102
RTVSPropertyOp21
 70
     1
102
RTVSPropertyOp22
 70
     1
102
RTVSPropertyOp23
 70
     1
102
RTVSPropertyOp24
 70
     1
102
RTVSPropertyOp25
 70
     1
102
RTVSPropertyOp26
 70
     1
102
RTVSPropertyOp27
 70
     1
102
RTVSPropertyOp28
 70
     1
102
RTVSPropertyOp29
 70
     1
102
RTVSPropertyOp30
 70
     1
102
RTVSPropertyOp31
 70
     1
102
RTVSPropertyOp32
 70
     1
102
RTVSPropertyOp33
 70
     1
102
RTVSPropertyOp34
 70
     1
102
RTVSPropertyOp35
 70
     1
102
RTVSPropertyOp36
 70
     1
102
RTVSPropertyOp37
 70
     1
102
RTVSPropertyOp38
 70
     1
102
RTVSPropertyOp39
 70
     1
102
RTVSPropertyOp40
 70
     1
102
RTVSPropertyOp41
 70
     1
102
RTVSPropertyOp42
 70
     1
102
RTVSPropertyOp43
 70
     1
102
RTVSPropertyOp44
 70
     1
102
RTVSPropertyOp45
 70
     1
102
RTVSPropertyOp46
 70
     1
102
RTVSPropertyOp47
 70
     1
102
RTVSPropertyOp48
 70
     1
102
RTVSPropertyOp49
 70
     1
102
RTVSPropertyOp50
 70
     1
102
RTVSPropertyOp51
 70
     0
102
RTVSPropertyOp52
 70
     0
102
RTVSPropertyOp53
 70
     1
102
RTVSPropertyOp54
 70
     1
102
RTVSPropertyOp55
 70
     1
102
RTVSPropertyOp56
 70
     1
102
RTVSPropertyOp57
 70
     1
102
RTVSPropertyOp58
 70
     1
102
RTVSPropertyOp59
 70
     1
102
RTVSPropertyOp60
 70
     1
102
RTVSPropertyOp61
 70
     1
102
RTVSPropertyOp62
 70
     1
  0
XRECORD
  5
146F
102
{ACAD_REACTORS
330
146E
102
}
330
146E
100
AcDbXrecord
280
     1
102
RTVSPost2010Prop28
280
     0
102
RTVSPost2010PropOp28
 70
     1
102
RTVSPost2010Prop29
280
     1
102
RTVSPost2010PropOp29
 70
     1
102
RTVSPost2010Prop30
280
     1
102
RTVSPost2010PropOp30
 70
     1
102
RTVSPost2010Prop31
280
     0
102
RTVSPost2010PropOp31
 70
     1
102
RTVSPost2010Prop32
280
     0
102
RTVSPost2010PropOp32
 70
     1
102
RTVSPost2010Prop33
280
     0
102
RTVSPost2010PropOp33
 70
     1
102
RTVSPost2010Prop34
280
     0
102
RTVSPost2010PropOp34
 70
     1
102
RTVSPost2010Prop35
280
     0
102
RTVSPost2010PropOp35
 70
     1
102
RTVSPost2010Prop36
280
     0
102
RTVSPost2010PropOp36
 70
     1
102
RTVSPost2010Prop37
 90
       50
102
RTVSPost2010PropOp37
 70
     0
102
RTVSPost2010Prop38
140
0.0
102
RTVSPost2010PropOp38
 70
     0
102
RTVSPost2010Prop39
140
1.0
102
RTVSPost2010PropOp39
 70
     0
102
RTVSPost2010Prop40
 90
        0
102
RTVSPost2010PropOp40
 70
     0
102
RTVSPost2010Prop41ColorIndex
 90
       18
102
RTVSPost2010Prop41ColorRGB
 90
        0
102
RTVSPost2010PropOp41
 70
     0
102
RTVSPost2010Prop42
 90
       50
102
RTVSPost2010PropOp42
 70
     0
102
RTVSPost2010Prop43
 90
        3
102
RTVSPost2010PropOp43
 70
     0
102
RTVSPost2010Prop44ColorIndex
 90
        5
102
RTVSPost2010Prop44ColorRGB
 90
      255
102
RTVSPost2010PropOp44
 70
     0
102
RTVSPost2010Prop45
280
     0
102
RTVSPost2010PropOp45
 70
     1
102
RTVSPost2010Prop46
 90
       50
102
RTVSPost2010PropOp46
 70
     0
102
RTVSPost2010Prop47
 90
       50
102
RTVSPost2010PropOp47
 70
     0
102
RTVSPost2010Prop48
 90
       50
102
RTVSPost2010PropOp48
 70
     0
102
RTVSPost2010Prop49
280
     0
102
RTVSPost2010PropOp49
 70
     1
102
RTVSPost2010Prop50
 90
       50
102
RTVSPost2010PropOp50
 70
     0
102
RTVSPost2010Prop51ColorIndex
 90
      256
102
RTVSPost2010Prop51ColorRGB
 90
-16777216
102
RTVSPost2010PropOp51
 70
     0
102
RTVSPost2010Prop52
140
1.0
102
RTVSPost2010PropOp52
 70
     0
102
RTVSPost2010Prop53
 90
        2
102
RTVSPost2010PropOp53
 70
     0
102
RTVSPost2010Prop54
  1
strokes_ogs.tif
102
RTVSPost2010PropOp54
 70
     0
102
RTVSPost2010Prop55
280
     0
102
RTVSPost2010PropOp55
 70
     1
102
RTVSPost2010Prop56
140
1.0
102
RTVSPost2010PropOp56
 70
     0
102
RTVSPost2010Prop57
140
1.0
102
RTVSPost2010PropOp57
 70
     0
102
RTVSPropertyOp0
 70
     0
102
RTVSPropertyOp1
 70
     0
102
RTVSPropertyOp2
 70
     0
102
RTVSPropertyOp3
 70
     0
102
RTVSPropertyOp4
 70
     0
102
RTVSPropertyOp5
 70
     0
102
RTVSPropertyOp6
 70
     0
102
RTVSPropertyOp7
 70
     0
102
RTVSPropertyOp8
 70
     0
102
RTVSPropertyOp9
 70
     0
102
RTVSPropertyOp10
 70
     0
102
RTVSPropertyOp11
 70
     0
102
RTVSPropertyOp12
 70
     0
102
RTVSPropertyOp13
 70
     0
102
RTVSPropertyOp14
 70
     2
102
RTVSPropertyOp15
 70
     0
102
RTVSPropertyOp16
 70
     0
102
RTVSPropertyOp17
 70
     0
102
RTVSPropertyOp18
 70
     0
102
RTVSPropertyOp19
 70
     0
102
RTVSPropertyOp20
 70
     0
102
RTVSPropertyOp21
 70
     0
102
RTVSPropertyOp22
 70
     0
102
RTVSPropertyOp23
 70
     0
102
RTVSPropertyOp24
 70
     0
102
RTVSPropertyOp25
 70
     0
102
RTVSPropertyOp26
 70
     0
102
RTVSPropertyOp27
 70
     0
102
RTVSPropertyOp28
 70
     1
102
RTVSPropertyOp29
 70
     1
102
RTVSPropertyOp30
 70
     1
102
RTVSPropertyOp31
 70
     1
102
RTVSPropertyOp32
 70
     1
102
RTVSPropertyOp33
 70
     1
102
RTVSPropertyOp34
 70
     1
102
RTVSPropertyOp35
 70
     1
102
RTVSPropertyOp36
 70
     1
102
RTVSPropertyOp37
 70
     0
102
RTVSPropertyOp38
 70
     0
102
RTVSPropertyOp39
 70
     0
102
RTVSPropertyOp40
 70
     0
102
RTVSPropertyOp41
 70
     0
102
RTVSPropertyOp42
 70
     0
102
RTVSPropertyOp43
 70
     0
102
RTVSPropertyOp44
 70
     0
102
RTVSPropertyOp45
 70
     1
102
RTVSPropertyOp46
 70
     0
102
RTVSPropertyOp47
 70
     0
102
RTVSPropertyOp48
 70
     0
102
RTVSPropertyOp49
 70
     1
102
RTVSPropertyOp50
 70
     0
102
RTVSPropertyOp51
 70
     0
102
RTVSPropertyOp52
 70
     0
102
RTVSPropertyOp53
 70
     0
102
RTVSPropertyOp54
 70
     0
102
RTVSPropertyOp55
 70
     1
102
RTVSPropertyOp56
 70
     0
102
RTVSPropertyOp57
 70
     0
102
RTVSPropertyOp58
 70
     0
102
RTVSPropertyOp59
 70
     0
102
RTVSPropertyOp60
 70
     0
102
RTVSPropertyOp61
 70
     0
102
RTVSPropertyOp62
 70
     0
  0
XRECORD
  5
145D
102
{ACAD_REACTORS
330
145C
102
}
330
145C
100
AcDbXrecord
280
     1
102
RTVSPost2010Prop28
280
     0
102
RTVSPost2010PropOp28
 70
     1
102
RTVSPost2010Prop29
280
     1
102
RTVSPost2010PropOp29
 70
     1
102
RTVSPost2010Prop30
280
     1
102
RTVSPost2010PropOp30
 70
     1
102
RTVSPost2010Prop31
280
     0
102
RTVSPost2010PropOp31
 70
     1
102
RTVSPost2010Prop32
280
     0
102
RTVSPost2010PropOp32
 70
     1
102
RTVSPost2010Prop33
280
     0
102
RTVSPost2010PropOp33
 70
     1
102
RTVSPost2010Prop34
280
     0
102
RTVSPost2010PropOp34
 70
     1
102
RTVSPost2010Prop35
280
     0
102
RTVSPost2010PropOp35
 70
     1
102
RTVSPost2010Prop36
280
     0
102
RTVSPost2010PropOp36
 70
     1
102
RTVSPost2010Prop37
 90
       50
102
RTVSPost2010PropOp37
 70
     1
102
RTVSPost2010Prop38
140
0.0
102
RTVSPost2010PropOp38
 70
     1
102
RTVSPost2010Prop39
140
1.0
102
RTVSPost2010PropOp39
 70
     1
102
RTVSPost2010Prop40
 90
        0
102
RTVSPost2010PropOp40
 70
     1
102
RTVSPost2010Prop41ColorIndex
 90
       18
102
RTVSPost2010Prop41ColorRGB
 90
        0
102
RTVSPost2010PropOp41
 70
     1
102
RTVSPost2010Prop42
 90
       50
102
RTVSPost2010PropOp42
 70
     1
102
RTVSPost2010Prop43
 90
        3
102
RTVSPost2010PropOp43
 70
     1
102
RTVSPost2010Prop44ColorIndex
 90
        5
102
RTVSPost2010Prop44ColorRGB
 90
      255
102
RTVSPost2010PropOp44
 70
     1
102
RTVSPost2010Prop45
280
     0
102
RTVSPost2010PropOp45
 70
     1
102
RTVSPost2010Prop46
 90
       50
102
RTVSPost2010PropOp46
 70
     1
102
RTVSPost2010Prop47
 90
       50
102
RTVSPost2010PropOp47
 70
     1
102
RTVSPost2010Prop48
 90
       50
102
RTVSPost2010PropOp48
 70
     1
102
RTVSPost2010Prop49
280
     0
102
RTVSPost2010PropOp49
 70
     1
102
RTVSPost2010Prop50
 90
       50
102
RTVSPost2010PropOp50
 70
     1
102
RTVSPost2010Prop51ColorIndex
 90
      256
102
RTVSPost2010Prop51ColorRGB
 90
-16777216
102
RTVSPost2010PropOp51
 70
     0
102
RTVSPost2010Prop52
140
1.0
102
RTVSPost2010PropOp52
 70
     0
102
RTVSPost2010Prop53
 90
        2
102
RTVSPost2010PropOp53
 70
     1
102
RTVSPost2010Prop54
  1
strokes_ogs.tif
102
RTVSPost2010PropOp54
 70
     1
102
RTVSPost2010Prop55
280
     0
102
RTVSPost2010PropOp55
 70
     1
102
RTVSPost2010Prop56
140
1.0
102
RTVSPost2010PropOp56
 70
     1
102
RTVSPost2010Prop57
140
1.0
102
RTVSPost2010PropOp57
 70
     1
102
RTVSPropertyOp0
 70
     1
102
RTVSPropertyOp1
 70
     1
102
RTVSPropertyOp2
 70
     1
102
RTVSPropertyOp3
 70
     1
102
RTVSPropertyOp4
 70
     1
102
RTVSPropertyOp5
 70
     1
102
RTVSPropertyOp6
 70
     1
102
RTVSPropertyOp7
 70
     1
102
RTVSPropertyOp8
 70
     1
102
RTVSPropertyOp9
 70
     1
102
RTVSPropertyOp10
 70
     1
102
RTVSPropertyOp11
 70
     1
102
RTVSPropertyOp12
 70
     1
102
RTVSPropertyOp13
 70
     1
102
RTVSPropertyOp14
 70
     1
102
RTVSPropertyOp15
 70
     1
102
RTVSPropertyOp16
 70
     1
102
RTVSPropertyOp17
 70
     1
102
RTVSPropertyOp18
 70
     1
102
RTVSPropertyOp19
 70
     1
102
RTVSPropertyOp20
 70
     1
102
RTVSPropertyOp21
 70
     1
102
RTVSPropertyOp22
 70
     1
102
RTVSPropertyOp23
 70
     1
102
RTVSPropertyOp24
 70
     1
102
RTVSPropertyOp25
 70
     1
102
RTVSPropertyOp26
 70
     1
102
RTVSPropertyOp27
 70
     1
102
RTVSPropertyOp28
 70
     1
102
RTVSPropertyOp29
 70
     1
102
RTVSPropertyOp30
 70
     1
102
RTVSPropertyOp31
 70
     1
102
RTVSPropertyOp32
 70
     1
102
RTVSPropertyOp33
 70
     1
102
RTVSPropertyOp34
 70
     1
102
RTVSPropertyOp35
 70
     1
102
RTVSPropertyOp36
 70
     1
102
RTVSPropertyOp37
 70
     1
102
RTVSPropertyOp38
 70
     1
102
RTVSPropertyOp39
 70
     1
102
RTVSPropertyOp40
 70
     1
102
RTVSPropertyOp41
 70
     1
102
RTVSPropertyOp42
 70
     1
102
RTVSPropertyOp43
 70
     1
102
RTVSPropertyOp44
 70
     1
102
RTVSPropertyOp45
 70
     1
102
RTVSPropertyOp46
 70
     1
102
RTVSPropertyOp47
 70
     1
102
RTVSPropertyOp48
 70
     1
102
RTVSPropertyOp49
 70
     1
102
RTVSPropertyOp50
 70
     1
102
RTVSPropertyOp51
 70
     0
102
RTVSPropertyOp52
 70
     0
102
RTVSPropertyOp53
 70
     1
102
RTVSPropertyOp54
 70
     1
102
RTVSPropertyOp55
 70
     1
102
RTVSPropertyOp56
 70
     1
102
RTVSPropertyOp57
 70
     1
102
RTVSPropertyOp58
 70
     1
102
RTVSPropertyOp59
 70
     1
102
RTVSPropertyOp60
 70
     1
102
RTVSPropertyOp61
 70
     1
102
RTVSPropertyOp62
 70
     1
  0
XRECORD
  5
1441
102
{ACAD_REACTORS
330
1440
102
}
330
1440
100
AcDbXrecord
280
     1
102
RTVSPost2010Prop28
280
     0
102
RTVSPost2010PropOp28
 70
     1
102
RTVSPost2010Prop29
280
     1
102
RTVSPost2010PropOp29
 70
     1
102
RTVSPost2010Prop30
280
     1
102
RTVSPost2010PropOp30
 70
     1
102
RTVSPost2010Prop31
280
     0
102
RTVSPost2010PropOp31
 70
     1
102
RTVSPost2010Prop32
280
     0
102
RTVSPost2010PropOp32
 70
     1
102
RTVSPost2010Prop33
280
     0
102
RTVSPost2010PropOp33
 70
     1
102
RTVSPost2010Prop34
280
     0
102
RTVSPost2010PropOp34
 70
     1
102
RTVSPost2010Prop35
280
     0
102
RTVSPost2010PropOp35
 70
     1
102
RTVSPost2010Prop36
280
     0
102
RTVSPost2010PropOp36
 70
     1
102
RTVSPost2010Prop37
 90
       50
102
RTVSPost2010PropOp37
 70
     1
102
RTVSPost2010Prop38
140
0.0
102
RTVSPost2010PropOp38
 70
     1
102
RTVSPost2010Prop39
140
1.0
102
RTVSPost2010PropOp39
 70
     1
102
RTVSPost2010Prop40
 90
        0
102
RTVSPost2010PropOp40
 70
     1
102
RTVSPost2010Prop41ColorIndex
 90
       18
102
RTVSPost2010Prop41ColorRGB
 90
        0
102
RTVSPost2010PropOp41
 70
     1
102
RTVSPost2010Prop42
 90
       50
102
RTVSPost2010PropOp42
 70
     1
102
RTVSPost2010Prop43
 90
        3
102
RTVSPost2010PropOp43
 70
     1
102
RTVSPost2010Prop44ColorIndex
 90
        5
102
RTVSPost2010Prop44ColorRGB
 90
      255
102
RTVSPost2010PropOp44
 70
     1
102
RTVSPost2010Prop45
280
     0
102
RTVSPost2010PropOp45
 70
     1
102
RTVSPost2010Prop46
 90
       50
102
RTVSPost2010PropOp46
 70
     1
102
RTVSPost2010Prop47
 90
       50
102
RTVSPost2010PropOp47
 70
     1
102
RTVSPost2010Prop48
 90
       50
102
RTVSPost2010PropOp48
 70
     1
102
RTVSPost2010Prop49
280
     0
102
RTVSPost2010PropOp49
 70
     1
102
RTVSPost2010Prop50
 90
       50
102
RTVSPost2010PropOp50
 70
     1
102
RTVSPost2010Prop51ColorIndex
 90
      256
102
RTVSPost2010Prop51ColorRGB
 90
-16777216
102
RTVSPost2010PropOp51
 70
     0
102
RTVSPost2010Prop52
140
1.0
102
RTVSPost2010PropOp52
 70
     0
102
RTVSPost2010Prop53
 90
        2
102
RTVSPost2010PropOp53
 70
     1
102
RTVSPost2010Prop54
  1
strokes_ogs.tif
102
RTVSPost2010PropOp54
 70
     1
102
RTVSPost2010Prop55
280
     0
102
RTVSPost2010PropOp55
 70
     1
102
RTVSPost2010Prop56
140
1.0
102
RTVSPost2010PropOp56
 70
     1
102
RTVSPost2010Prop57
140
1.0
102
RTVSPost2010PropOp57
 70
     1
102
RTVSPropertyOp0
 70
     1
102
RTVSPropertyOp1
 70
     1
102
RTVSPropertyOp2
 70
     1
102
RTVSPropertyOp3
 70
     1
102
RTVSPropertyOp4
 70
     1
102
RTVSPropertyOp5
 70
     1
102
RTVSPropertyOp6
 70
     1
102
RTVSPropertyOp7
 70
     1
102
RTVSPropertyOp8
 70
     1
102
RTVSPropertyOp9
 70
     1
102
RTVSPropertyOp10
 70
     1
102
RTVSPropertyOp11
 70
     1
102
RTVSPropertyOp12
 70
     1
102
RTVSPropertyOp13
 70
     1
102
RTVSPropertyOp14
 70
     1
102
RTVSPropertyOp15
 70
     1
102
RTVSPropertyOp16
 70
     1
102
RTVSPropertyOp17
 70
     1
102
RTVSPropertyOp18
 70
     1
102
RTVSPropertyOp19
 70
     1
102
RTVSPropertyOp20
 70
     1
102
RTVSPropertyOp21
 70
     1
102
RTVSPropertyOp22
 70
     1
102
RTVSPropertyOp23
 70
     1
102
RTVSPropertyOp24
 70
     1
102
RTVSPropertyOp25
 70
     1
102
RTVSPropertyOp26
 70
     1
102
RTVSPropertyOp27
 70
     1
102
RTVSPropertyOp28
 70
     1
102
RTVSPropertyOp29
 70
     1
102
RTVSPropertyOp30
 70
     1
102
RTVSPropertyOp31
 70
     1
102
RTVSPropertyOp32
 70
     1
102
RTVSPropertyOp33
 70
     1
102
RTVSPropertyOp34
 70
     1
102
RTVSPropertyOp35
 70
     1
102
RTVSPropertyOp36
 70
     1
102
RTVSPropertyOp37
 70
     1
102
RTVSPropertyOp38
 70
     1
102
RTVSPropertyOp39
 70
     1
102
RTVSPropertyOp40
 70
     1
102
RTVSPropertyOp41
 70
     1
102
RTVSPropertyOp42
 70
     1
102
RTVSPropertyOp43
 70
     1
102
RTVSPropertyOp44
 70
     1
102
RTVSPropertyOp45
 70
     1
102
RTVSPropertyOp46
 70
     1
102
RTVSPropertyOp47
 70
     1
102
RTVSPropertyOp48
 70
     1
102
RTVSPropertyOp49
 70
     1
102
RTVSPropertyOp50
 70
     1
102
RTVSPropertyOp51
 70
     0
102
RTVSPropertyOp52
 70
     0
102
RTVSPropertyOp53
 70
     1
102
RTVSPropertyOp54
 70
     1
102
RTVSPropertyOp55
 70
     1
102
RTVSPropertyOp56
 70
     1
102
RTVSPropertyOp57
 70
     1
102
RTVSPropertyOp58
 70
     1
102
RTVSPropertyOp59
 70
     1
102
RTVSPropertyOp60
 70
     1
102
RTVSPropertyOp61
 70
     1
102
RTVSPropertyOp62
 70
     1
  0
XRECORD
  5
1443
102
{ACAD_REACTORS
330
1442
102
}
330
1442
100
AcDbXrecord
280
     1
102
RTVSPost2010Prop28
280
     0
102
RTVSPost2010PropOp28
 70
     1
102
RTVSPost2010Prop29
280
     1
102
RTVSPost2010PropOp29
 70
     1
102
RTVSPost2010Prop30
280
     1
102
RTVSPost2010PropOp30
 70
     1
102
RTVSPost2010Prop31
280
     0
102
RTVSPost2010PropOp31
 70
     1
102
RTVSPost2010Prop32
280
     0
102
RTVSPost2010PropOp32
 70
     1
102
RTVSPost2010Prop33
280
     0
102
RTVSPost2010PropOp33
 70
     1
102
RTVSPost2010Prop34
280
     0
102
RTVSPost2010PropOp34
 70
     1
102
RTVSPost2010Prop35
280
     0
102
RTVSPost2010PropOp35
 70
     1
102
RTVSPost2010Prop36
280
     0
102
RTVSPost2010PropOp36
 70
     1
102
RTVSPost2010Prop37
 90
       50
102
RTVSPost2010PropOp37
 70
     1
102
RTVSPost2010Prop38
140
0.0
102
RTVSPost2010PropOp38
 70
     1
102
RTVSPost2010Prop39
140
1.0
102
RTVSPost2010PropOp39
 70
     1
102
RTVSPost2010Prop40
 90
        0
102
RTVSPost2010PropOp40
 70
     1
102
RTVSPost2010Prop41ColorIndex
 90
       18
102
RTVSPost2010Prop41ColorRGB
 90
        0
102
RTVSPost2010PropOp41
 70
     1
102
RTVSPost2010Prop42
 90
       50
102
RTVSPost2010PropOp42
 70
     1
102
RTVSPost2010Prop43
 90
        3
102
RTVSPost2010PropOp43
 70
     1
102
RTVSPost2010Prop44ColorIndex
 90
        5
102
RTVSPost2010Prop44ColorRGB
 90
      255
102
RTVSPost2010PropOp44
 70
     1
102
RTVSPost2010Prop45
280
     0
102
RTVSPost2010PropOp45
 70
     1
102
RTVSPost2010Prop46
 90
       50
102
RTVSPost2010PropOp46
 70
     1
102
RTVSPost2010Prop47
 90
       50
102
RTVSPost2010PropOp47
 70
     1
102
RTVSPost2010Prop48
 90
       50
102
RTVSPost2010PropOp48
 70
     1
102
RTVSPost2010Prop49
280
     0
102
RTVSPost2010PropOp49
 70
     1
102
RTVSPost2010Prop50
 90
       50
102
RTVSPost2010PropOp50
 70
     1
102
RTVSPost2010Prop51ColorIndex
 90
      256
102
RTVSPost2010Prop51ColorRGB
 90
-16777216
102
RTVSPost2010PropOp51
 70
     0
102
RTVSPost2010Prop52
140
1.0
102
RTVSPost2010PropOp52
 70
     0
102
RTVSPost2010Prop53
 90
        2
102
RTVSPost2010PropOp53
 70
     1
102
RTVSPost2010Prop54
  1
strokes_ogs.tif
102
RTVSPost2010PropOp54
 70
     1
102
RTVSPost2010Prop55
280
     0
102
RTVSPost2010PropOp55
 70
     1
102
RTVSPost2010Prop56
140
1.0
102
RTVSPost2010PropOp56
 70
     1
102
RTVSPost2010Prop57
140
1.0
102
RTVSPost2010PropOp57
 70
     1
102
RTVSPropertyOp0
 70
     1
102
RTVSPropertyOp1
 70
     1
102
RTVSPropertyOp2
 70
     1
102
RTVSPropertyOp3
 70
     1
102
RTVSPropertyOp4
 70
     1
102
RTVSPropertyOp5
 70
     1
102
RTVSPropertyOp6
 70
     1
102
RTVSPropertyOp7
 70
     1
102
RTVSPropertyOp8
 70
     1
102
RTVSPropertyOp9
 70
     1
102
RTVSPropertyOp10
 70
     1
102
RTVSPropertyOp11
 70
     1
102
RTVSPropertyOp12
 70
     1
102
RTVSPropertyOp13
 70
     1
102
RTVSPropertyOp14
 70
     1
102
RTVSPropertyOp15
 70
     1
102
RTVSPropertyOp16
 70
     1
102
RTVSPropertyOp17
 70
     1
102
RTVSPropertyOp18
 70
     1
102
RTVSPropertyOp19
 70
     1
102
RTVSPropertyOp20
 70
     1
102
RTVSPropertyOp21
 70
     1
102
RTVSPropertyOp22
 70
     1
102
RTVSPropertyOp23
 70
     1
102
RTVSPropertyOp24
 70
     1
102
RTVSPropertyOp25
 70
     1
102
RTVSPropertyOp26
 70
     1
102
RTVSPropertyOp27
 70
     1
102
RTVSPropertyOp28
 70
     1
102
RTVSPropertyOp29
 70
     1
102
RTVSPropertyOp30
 70
     1
102
RTVSPropertyOp31
 70
     1
102
RTVSPropertyOp32
 70
     1
102
RTVSPropertyOp33
 70
     1
102
RTVSPropertyOp34
 70
     1
102
RTVSPropertyOp35
 70
     1
102
RTVSPropertyOp36
 70
     1
102
RTVSPropertyOp37
 70
     1
102
RTVSPropertyOp38
 70
     1
102
RTVSPropertyOp39
 70
     1
102
RTVSPropertyOp40
 70
     1
102
RTVSPropertyOp41
 70
     1
102
RTVSPropertyOp42
 70
     1
102
RTVSPropertyOp43
 70
     1
102
RTVSPropertyOp44
 70
     1
102
RTVSPropertyOp45
 70
     1
102
RTVSPropertyOp46
 70
     1
102
RTVSPropertyOp47
 70
     1
102
RTVSPropertyOp48
 70
     1
102
RTVSPropertyOp49
 70
     1
102
RTVSPropertyOp50
 70
     1
102
RTVSPropertyOp51
 70
     0
102
RTVSPropertyOp52
 70
     0
102
RTVSPropertyOp53
 70
     1
102
RTVSPropertyOp54
 70
     1
102
RTVSPropertyOp55
 70
     1
102
RTVSPropertyOp56
 70
     1
102
RTVSPropertyOp57
 70
     1
102
RTVSPropertyOp58
 70
     1
102
RTVSPropertyOp59
 70
     1
102
RTVSPropertyOp60
 70
     1
102
RTVSPropertyOp61
 70
     1
102
RTVSPropertyOp62
 70
     1
  0
XRECORD
  5
1445
102
{ACAD_REACTORS
330
1444
102
}
330
1444
100
AcDbXrecord
280
     1
102
RTVSPost2010Prop28
280
     0
102
RTVSPost2010PropOp28
 70
     1
102
RTVSPost2010Prop29
280
     1
102
RTVSPost2010PropOp29
 70
     1
102
RTVSPost2010Prop30
280
     1
102
RTVSPost2010PropOp30
 70
     1
102
RTVSPost2010Prop31
280
     0
102
RTVSPost2010PropOp31
 70
     1
102
RTVSPost2010Prop32
280
     0
102
RTVSPost2010PropOp32
 70
     1
102
RTVSPost2010Prop33
280
     0
102
RTVSPost2010PropOp33
 70
     1
102
RTVSPost2010Prop34
280
     0
102
RTVSPost2010PropOp34
 70
     1
102
RTVSPost2010Prop35
280
     0
102
RTVSPost2010PropOp35
 70
     1
102
RTVSPost2010Prop36
280
     0
102
RTVSPost2010PropOp36
 70
     1
102
RTVSPost2010Prop37
 90
       50
102
RTVSPost2010PropOp37
 70
     1
102
RTVSPost2010Prop38
140
0.0
102
RTVSPost2010PropOp38
 70
     1
102
RTVSPost2010Prop39
140
1.0
102
RTVSPost2010PropOp39
 70
     1
102
RTVSPost2010Prop40
 90
        0
102
RTVSPost2010PropOp40
 70
     1
102
RTVSPost2010Prop41ColorIndex
 90
       18
102
RTVSPost2010Prop41ColorRGB
 90
        0
102
RTVSPost2010PropOp41
 70
     1
102
RTVSPost2010Prop42
 90
       50
102
RTVSPost2010PropOp42
 70
     1
102
RTVSPost2010Prop43
 90
        3
102
RTVSPost2010PropOp43
 70
     1
102
RTVSPost2010Prop44ColorIndex
 90
        5
102
RTVSPost2010Prop44ColorRGB
 90
      255
102
RTVSPost2010PropOp44
 70
     1
102
RTVSPost2010Prop45
280
     0
102
RTVSPost2010PropOp45
 70
     1
102
RTVSPost2010Prop46
 90
       50
102
RTVSPost2010PropOp46
 70
     1
102
RTVSPost2010Prop47
 90
       50
102
RTVSPost2010PropOp47
 70
     1
102
RTVSPost2010Prop48
 90
       50
102
RTVSPost2010PropOp48
 70
     1
102
RTVSPost2010Prop49
280
     0
102
RTVSPost2010PropOp49
 70
     1
102
RTVSPost2010Prop50
 90
       50
102
RTVSPost2010PropOp50
 70
     1
102
RTVSPost2010Prop51ColorIndex
 90
      256
102
RTVSPost2010Prop51ColorRGB
 90
-16777216
102
RTVSPost2010PropOp51
 70
     0
102
RTVSPost2010Prop52
140
1.0
102
RTVSPost2010PropOp52
 70
     0
102
RTVSPost2010Prop53
 90
        2
102
RTVSPost2010PropOp53
 70
     1
102
RTVSPost2010Prop54
  1
strokes_ogs.tif
102
RTVSPost2010PropOp54
 70
     1
102
RTVSPost2010Prop55
280
     0
102
RTVSPost2010PropOp55
 70
     1
102
RTVSPost2010Prop56
140
1.0
102
RTVSPost2010PropOp56
 70
     1
102
RTVSPost2010Prop57
140
1.0
102
RTVSPost2010PropOp57
 70
     1
102
RTVSPropertyOp0
 70
     1
102
RTVSPropertyOp1
 70
     1
102
RTVSPropertyOp2
 70
     1
102
RTVSPropertyOp3
 70
     1
102
RTVSPropertyOp4
 70
     1
102
RTVSPropertyOp5
 70
     1
102
RTVSPropertyOp6
 70
     1
102
RTVSPropertyOp7
 70
     1
102
RTVSPropertyOp8
 70
     1
102
RTVSPropertyOp9
 70
     1
102
RTVSPropertyOp10
 70
     1
102
RTVSPropertyOp11
 70
     1
102
RTVSPropertyOp12
 70
     1
102
RTVSPropertyOp13
 70
     1
102
RTVSPropertyOp14
 70
     1
102
RTVSPropertyOp15
 70
     1
102
RTVSPropertyOp16
 70
     1
102
RTVSPropertyOp17
 70
     1
102
RTVSPropertyOp18
 70
     1
102
RTVSPropertyOp19
 70
     1
102
RTVSPropertyOp20
 70
     1
102
RTVSPropertyOp21
 70
     1
102
RTVSPropertyOp22
 70
     1
102
RTVSPropertyOp23
 70
     1
102
RTVSPropertyOp24
 70
     1
102
RTVSPropertyOp25
 70
     1
102
RTVSPropertyOp26
 70
     1
102
RTVSPropertyOp27
 70
     1
102
RTVSPropertyOp28
 70
     1
102
RTVSPropertyOp29
 70
     1
102
RTVSPropertyOp30
 70
     1
102
RTVSPropertyOp31
 70
     1
102
RTVSPropertyOp32
 70
     1
102
RTVSPropertyOp33
 70
     1
102
RTVSPropertyOp34
 70
     1
102
RTVSPropertyOp35
 70
     1
102
RTVSPropertyOp36
 70
     1
102
RTVSPropertyOp37
 70
     1
102
RTVSPropertyOp38
 70
     1
102
RTVSPropertyOp39
 70
     1
102
RTVSPropertyOp40
 70
     1
102
RTVSPropertyOp41
 70
     1
102
RTVSPropertyOp42
 70
     1
102
RTVSPropertyOp43
 70
     1
102
RTVSPropertyOp44
 70
     1
102
RTVSPropertyOp45
 70
     1
102
RTVSPropertyOp46
 70
     1
102
RTVSPropertyOp47
 70
     1
102
RTVSPropertyOp48
 70
     1
102
RTVSPropertyOp49
 70
     1
102
RTVSPropertyOp50
 70
     1
102
RTVSPropertyOp51
 70
     0
102
RTVSPropertyOp52
 70
     0
102
RTVSPropertyOp53
 70
     1
102
RTVSPropertyOp54
 70
     1
102
RTVSPropertyOp55
 70
     1
102
RTVSPropertyOp56
 70
     1
102
RTVSPropertyOp57
 70
     1
102
RTVSPropertyOp58
 70
     1
102
RTVSPropertyOp59
 70
     1
102
RTVSPropertyOp60
 70
     1
102
RTVSPropertyOp61
 70
     1
102
RTVSPropertyOp62
 70
     1
  0
XRECORD
  5
1447
102
{ACAD_REACTORS
330
1446
102
}
330
1446
100
AcDbXrecord
280
     1
102
RTVSPost2010Prop28
280
     0
102
RTVSPost2010PropOp28
 70
     1
102
RTVSPost2010Prop29
280
     1
102
RTVSPost2010PropOp29
 70
     1
102
RTVSPost2010Prop30
280
     1
102
RTVSPost2010PropOp30
 70
     1
102
RTVSPost2010Prop31
280
     0
102
RTVSPost2010PropOp31
 70
     1
102
RTVSPost2010Prop32
280
     0
102
RTVSPost2010PropOp32
 70
     1
102
RTVSPost2010Prop33
280
     0
102
RTVSPost2010PropOp33
 70
     1
102
RTVSPost2010Prop34
280
     0
102
RTVSPost2010PropOp34
 70
     1
102
RTVSPost2010Prop35
280
     0
102
RTVSPost2010PropOp35
 70
     1
102
RTVSPost2010Prop36
280
     0
102
RTVSPost2010PropOp36
 70
     1
102
RTVSPost2010Prop37
 90
       50
102
RTVSPost2010PropOp37
 70
     1
102
RTVSPost2010Prop38
140
0.0
102
RTVSPost2010PropOp38
 70
     1
102
RTVSPost2010Prop39
140
1.0
102
RTVSPost2010PropOp39
 70
     1
102
RTVSPost2010Prop40
 90
        0
102
RTVSPost2010PropOp40
 70
     1
102
RTVSPost2010Prop41ColorIndex
 90
       18
102
RTVSPost2010Prop41ColorRGB
 90
        0
102
RTVSPost2010PropOp41
 70
     1
102
RTVSPost2010Prop42
 90
       50
102
RTVSPost2010PropOp42
 70
     1
102
RTVSPost2010Prop43
 90
        3
102
RTVSPost2010PropOp43
 70
     1
102
RTVSPost2010Prop44ColorIndex
 90
        5
102
RTVSPost2010Prop44ColorRGB
 90
      255
102
RTVSPost2010PropOp44
 70
     1
102
RTVSPost2010Prop45
280
     0
102
RTVSPost2010PropOp45
 70
     1
102
RTVSPost2010Prop46
 90
       50
102
RTVSPost2010PropOp46
 70
     1
102
RTVSPost2010Prop47
 90
       50
102
RTVSPost2010PropOp47
 70
     1
102
RTVSPost2010Prop48
 90
       50
102
RTVSPost2010PropOp48
 70
     1
102
RTVSPost2010Prop49
280
     0
102
RTVSPost2010PropOp49
 70
     1
102
RTVSPost2010Prop50
 90
       50
102
RTVSPost2010PropOp50
 70
     1
102
RTVSPost2010Prop51ColorIndex
 90
      256
102
RTVSPost2010Prop51ColorRGB
 90
-16777216
102
RTVSPost2010PropOp51
 70
     0
102
RTVSPost2010Prop52
140
1.0
102
RTVSPost2010PropOp52
 70
     0
102
RTVSPost2010Prop53
 90
        2
102
RTVSPost2010PropOp53
 70
     1
102
RTVSPost2010Prop54
  1
strokes_ogs.tif
102
RTVSPost2010PropOp54
 70
     1
102
RTVSPost2010Prop55
280
     0
102
RTVSPost2010PropOp55
 70
     1
102
RTVSPost2010Prop56
140
1.0
102
RTVSPost2010PropOp56
 70
     1
102
RTVSPost2010Prop57
140
1.0
102
RTVSPost2010PropOp57
 70
     1
102
RTVSPropertyOp0
 70
     1
102
RTVSPropertyOp1
 70
     1
102
RTVSPropertyOp2
 70
     1
102
RTVSPropertyOp3
 70
     1
102
RTVSPropertyOp4
 70
     1
102
RTVSPropertyOp5
 70
     1
102
RTVSPropertyOp6
 70
     1
102
RTVSPropertyOp7
 70
     1
102
RTVSPropertyOp8
 70
     1
102
RTVSPropertyOp9
 70
     1
102
RTVSPropertyOp10
 70
     1
102
RTVSPropertyOp11
 70
     1
102
RTVSPropertyOp12
 70
     1
102
RTVSPropertyOp13
 70
     1
102
RTVSPropertyOp14
 70
     1
102
RTVSPropertyOp15
 70
     1
102
RTVSPropertyOp16
 70
     1
102
RTVSPropertyOp17
 70
     1
102
RTVSPropertyOp18
 70
     1
102
RTVSPropertyOp19
 70
     1
102
RTVSPropertyOp20
 70
     1
102
RTVSPropertyOp21
 70
     1
102
RTVSPropertyOp22
 70
     1
102
RTVSPropertyOp23
 70
     1
102
RTVSPropertyOp24
 70
     1
102
RTVSPropertyOp25
 70
     1
102
RTVSPropertyOp26
 70
     1
102
RTVSPropertyOp27
 70
     1
102
RTVSPropertyOp28
 70
     1
102
RTVSPropertyOp29
 70
     1
102
RTVSPropertyOp30
 70
     1
102
RTVSPropertyOp31
 70
     1
102
RTVSPropertyOp32
 70
     1
102
RTVSPropertyOp33
 70
     1
102
RTVSPropertyOp34
 70
     1
102
RTVSPropertyOp35
 70
     1
102
RTVSPropertyOp36
 70
     1
102
RTVSPropertyOp37
 70
     1
102
RTVSPropertyOp38
 70
     1
102
RTVSPropertyOp39
 70
     1
102
RTVSPropertyOp40
 70
     1
102
RTVSPropertyOp41
 70
     1
102
RTVSPropertyOp42
 70
     1
102
RTVSPropertyOp43
 70
     1
102
RTVSPropertyOp44
 70
     1
102
RTVSPropertyOp45
 70
     1
102
RTVSPropertyOp46
 70
     1
102
RTVSPropertyOp47
 70
     1
102
RTVSPropertyOp48
 70
     1
102
RTVSPropertyOp49
 70
     1
102
RTVSPropertyOp50
 70
     1
102
RTVSPropertyOp51
 70
     0
102
RTVSPropertyOp52
 70
     0
102
RTVSPropertyOp53
 70
     1
102
RTVSPropertyOp54
 70
     1
102
RTVSPropertyOp55
 70
     1
102
RTVSPropertyOp56
 70
     1
102
RTVSPropertyOp57
 70
     1
102
RTVSPropertyOp58
 70
     1
102
RTVSPropertyOp59
 70
     1
102
RTVSPropertyOp60
 70
     1
102
RTVSPropertyOp61
 70
     1
102
RTVSPropertyOp62
 70
     1
  0
XRECORD
  5
144F
102
{ACAD_REACTORS
330
144E
102
}
330
144E
100
AcDbXrecord
280
     1
102
RTVSPost2010Prop28
280
     0
102
RTVSPost2010PropOp28
 70
     1
102
RTVSPost2010Prop29
280
     1
102
RTVSPost2010PropOp29
 70
     1
102
RTVSPost2010Prop30
280
     1
102
RTVSPost2010PropOp30
 70
     1
102
RTVSPost2010Prop31
280
     0
102
RTVSPost2010PropOp31
 70
     1
102
RTVSPost2010Prop32
280
     0
102
RTVSPost2010PropOp32
 70
     1
102
RTVSPost2010Prop33
280
     0
102
RTVSPost2010PropOp33
 70
     1
102
RTVSPost2010Prop34
280
     0
102
RTVSPost2010PropOp34
 70
     1
102
RTVSPost2010Prop35
280
     0
102
RTVSPost2010PropOp35
 70
     1
102
RTVSPost2010Prop36
280
     0
102
RTVSPost2010PropOp36
 70
     1
102
RTVSPost2010Prop37
 90
       50
102
RTVSPost2010PropOp37
 70
     1
102
RTVSPost2010Prop38
140
0.0
102
RTVSPost2010PropOp38
 70
     1
102
RTVSPost2010Prop39
140
1.0
102
RTVSPost2010PropOp39
 70
     1
102
RTVSPost2010Prop40
 90
        0
102
RTVSPost2010PropOp40
 70
     1
102
RTVSPost2010Prop41ColorIndex
 90
       18
102
RTVSPost2010Prop41ColorRGB
 90
        0
102
RTVSPost2010PropOp41
 70
     1
102
RTVSPost2010Prop42
 90
       50
102
RTVSPost2010PropOp42
 70
     1
102
RTVSPost2010Prop43
 90
        3
102
RTVSPost2010PropOp43
 70
     1
102
RTVSPost2010Prop44ColorIndex
 90
        5
102
RTVSPost2010Prop44ColorRGB
 90
      255
102
RTVSPost2010PropOp44
 70
     1
102
RTVSPost2010Prop45
280
     0
102
RTVSPost2010PropOp45
 70
     1
102
RTVSPost2010Prop46
 90
       50
102
RTVSPost2010PropOp46
 70
     1
102
RTVSPost2010Prop47
 90
       50
102
RTVSPost2010PropOp47
 70
     1
102
RTVSPost2010Prop48
 90
       50
102
RTVSPost2010PropOp48
 70
     1
102
RTVSPost2010Prop49
280
     0
102
RTVSPost2010PropOp49
 70
     1
102
RTVSPost2010Prop50
 90
       50
102
RTVSPost2010PropOp50
 70
     1
102
RTVSPost2010Prop51ColorIndex
 90
      256
102
RTVSPost2010Prop51ColorRGB
 90
-16777216
102
RTVSPost2010PropOp51
 70
     0
102
RTVSPost2010Prop52
140
1.0
102
RTVSPost2010PropOp52
 70
     0
102
RTVSPost2010Prop53
 90
        2
102
RTVSPost2010PropOp53
 70
     1
102
RTVSPost2010Prop54
  1
strokes_ogs.tif
102
RTVSPost2010PropOp54
 70
     1
102
RTVSPost2010Prop55
280
     0
102
RTVSPost2010PropOp55
 70
     1
102
RTVSPost2010Prop56
140
1.0
102
RTVSPost2010PropOp56
 70
     1
102
RTVSPost2010Prop57
140
1.0
102
RTVSPost2010PropOp57
 70
     1
102
RTVSPropertyOp0
 70
     1
102
RTVSPropertyOp1
 70
     1
102
RTVSPropertyOp2
 70
     1
102
RTVSPropertyOp3
 70
     1
102
RTVSPropertyOp4
 70
     1
102
RTVSPropertyOp5
 70
     1
102
RTVSPropertyOp6
 70
     1
102
RTVSPropertyOp7
 70
     1
102
RTVSPropertyOp8
 70
     1
102
RTVSPropertyOp9
 70
     1
102
RTVSPropertyOp10
 70
     1
102
RTVSPropertyOp11
 70
     1
102
RTVSPropertyOp12
 70
     1
102
RTVSPropertyOp13
 70
     1
102
RTVSPropertyOp14
 70
     1
102
RTVSPropertyOp15
 70
     1
102
RTVSPropertyOp16
 70
     1
102
RTVSPropertyOp17
 70
     1
102
RTVSPropertyOp18
 70
     1
102
RTVSPropertyOp19
 70
     1
102
RTVSPropertyOp20
 70
     1
102
RTVSPropertyOp21
 70
     1
102
RTVSPropertyOp22
 70
     1
102
RTVSPropertyOp23
 70
     1
102
RTVSPropertyOp24
 70
     1
102
RTVSPropertyOp25
 70
     1
102
RTVSPropertyOp26
 70
     1
102
RTVSPropertyOp27
 70
     1
102
RTVSPropertyOp28
 70
     1
102
RTVSPropertyOp29
 70
     1
102
RTVSPropertyOp30
 70
     1
102
RTVSPropertyOp31
 70
     1
102
RTVSPropertyOp32
 70
     1
102
RTVSPropertyOp33
 70
     1
102
RTVSPropertyOp34
 70
     1
102
RTVSPropertyOp35
 70
     1
102
RTVSPropertyOp36
 70
     1
102
RTVSPropertyOp37
 70
     1
102
RTVSPropertyOp38
 70
     1
102
RTVSPropertyOp39
 70
     1
102
RTVSPropertyOp40
 70
     1
102
RTVSPropertyOp41
 70
     1
102
RTVSPropertyOp42
 70
     1
102
RTVSPropertyOp43
 70
     1
102
RTVSPropertyOp44
 70
     1
102
RTVSPropertyOp45
 70
     1
102
RTVSPropertyOp46
 70
     1
102
RTVSPropertyOp47
 70
     1
102
RTVSPropertyOp48
 70
     1
102
RTVSPropertyOp49
 70
     1
102
RTVSPropertyOp50
 70
     1
102
RTVSPropertyOp51
 70
     0
102
RTVSPropertyOp52
 70
     0
102
RTVSPropertyOp53
 70
     1
102
RTVSPropertyOp54
 70
     1
102
RTVSPropertyOp55
 70
     1
102
RTVSPropertyOp56
 70
     1
102
RTVSPropertyOp57
 70
     1
102
RTVSPropertyOp58
 70
     1
102
RTVSPropertyOp59
 70
     1
102
RTVSPropertyOp60
 70
     1
102
RTVSPropertyOp61
 70
     1
102
RTVSPropertyOp62
 70
     1
  0
XRECORD
  5
146B
102
{ACAD_REACTORS
330
146A
102
}
330
146A
100
AcDbXrecord
280
     1
102
RTVSPost2010Prop28
280
     0
102
RTVSPost2010PropOp28
 70
     1
102
RTVSPost2010Prop29
280
     1
102
RTVSPost2010PropOp29
 70
     1
102
RTVSPost2010Prop30
280
     1
102
RTVSPost2010PropOp30
 70
     1
102
RTVSPost2010Prop31
280
     0
102
RTVSPost2010PropOp31
 70
     1
102
RTVSPost2010Prop32
280
     0
102
RTVSPost2010PropOp32
 70
     1
102
RTVSPost2010Prop33
280
     0
102
RTVSPost2010PropOp33
 70
     1
102
RTVSPost2010Prop34
280
     0
102
RTVSPost2010PropOp34
 70
     1
102
RTVSPost2010Prop35
280
     0
102
RTVSPost2010PropOp35
 70
     1
102
RTVSPost2010Prop36
280
     0
102
RTVSPost2010PropOp36
 70
     1
102
RTVSPost2010Prop37
 90
       50
102
RTVSPost2010PropOp37
 70
     0
102
RTVSPost2010Prop38
140
0.0
102
RTVSPost2010PropOp38
 70
     0
102
RTVSPost2010Prop39
140
1.0
102
RTVSPost2010PropOp39
 70
     0
102
RTVSPost2010Prop40
 90
        0
102
RTVSPost2010PropOp40
 70
     0
102
RTVSPost2010Prop41ColorIndex
 90
       18
102
RTVSPost2010Prop41ColorRGB
 90
        0
102
RTVSPost2010PropOp41
 70
     0
102
RTVSPost2010Prop42
 90
       50
102
RTVSPost2010PropOp42
 70
     0
102
RTVSPost2010Prop43
 90
        3
102
RTVSPost2010PropOp43
 70
     0
102
RTVSPost2010Prop44ColorIndex
 90
        5
102
RTVSPost2010Prop44ColorRGB
 90
      255
102
RTVSPost2010PropOp44
 70
     0
102
RTVSPost2010Prop45
280
     0
102
RTVSPost2010PropOp45
 70
     1
102
RTVSPost2010Prop46
 90
       50
102
RTVSPost2010PropOp46
 70
     0
102
RTVSPost2010Prop47
 90
       50
102
RTVSPost2010PropOp47
 70
     0
102
RTVSPost2010Prop48
 90
       50
102
RTVSPost2010PropOp48
 70
     0
102
RTVSPost2010Prop49
280
     0
102
RTVSPost2010PropOp49
 70
     1
102
RTVSPost2010Prop50
 90
       50
102
RTVSPost2010PropOp50
 70
     0
102
RTVSPost2010Prop51ColorIndex
 90
      256
102
RTVSPost2010Prop51ColorRGB
 90
-16777216
102
RTVSPost2010PropOp51
 70
     0
102
RTVSPost2010Prop52
140
1.0
102
RTVSPost2010PropOp52
 70
     0
102
RTVSPost2010Prop53
 90
        2
102
RTVSPost2010PropOp53
 70
     0
102
RTVSPost2010Prop54
  1
strokes_ogs.tif
102
RTVSPost2010PropOp54
 70
     0
102
RTVSPost2010Prop55
280
     0
102
RTVSPost2010PropOp55
 70
     1
102
RTVSPost2010Prop56
140
1.0
102
RTVSPost2010PropOp56
 70
     0
102
RTVSPost2010Prop57
140
1.0
102
RTVSPost2010PropOp57
 70
     0
102
RTVSPropertyOp0
 70
     0
102
RTVSPropertyOp1
 70
     0
102
RTVSPropertyOp2
 70
     0
102
RTVSPropertyOp3
 70
     0
102
RTVSPropertyOp4
 70
     0
102
RTVSPropertyOp5
 70
     0
102
RTVSPropertyOp6
 70
     0
102
RTVSPropertyOp7
 70
     0
102
RTVSPropertyOp8
 70
     0
102
RTVSPropertyOp9
 70
     0
102
RTVSPropertyOp10
 70
     0
102
RTVSPropertyOp11
 70
     0
102
RTVSPropertyOp12
 70
     0
102
RTVSPropertyOp13
 70
     0
102
RTVSPropertyOp14
 70
     2
102
RTVSPropertyOp15
 70
     0
102
RTVSPropertyOp16
 70
     0
102
RTVSPropertyOp17
 70
     0
102
RTVSPropertyOp18
 70
     0
102
RTVSPropertyOp19
 70
     0
102
RTVSPropertyOp20
 70
     0
102
RTVSPropertyOp21
 70
     0
102
RTVSPropertyOp22
 70
     0
102
RTVSPropertyOp23
 70
     0
102
RTVSPropertyOp24
 70
     0
102
RTVSPropertyOp25
 70
     0
102
RTVSPropertyOp26
 70
     0
102
RTVSPropertyOp27
 70
     0
102
RTVSPropertyOp28
 70
     1
102
RTVSPropertyOp29
 70
     1
102
RTVSPropertyOp30
 70
     1
102
RTVSPropertyOp31
 70
     1
102
RTVSPropertyOp32
 70
     1
102
RTVSPropertyOp33
 70
     1
102
RTVSPropertyOp34
 70
     1
102
RTVSPropertyOp35
 70
     1
102
RTVSPropertyOp36
 70
     1
102
RTVSPropertyOp37
 70
     0
102
RTVSPropertyOp38
 70
     0
102
RTVSPropertyOp39
 70
     0
102
RTVSPropertyOp40
 70
     0
102
RTVSPropertyOp41
 70
     0
102
RTVSPropertyOp42
 70
     0
102
RTVSPropertyOp43
 70
     0
102
RTVSPropertyOp44
 70
     0
102
RTVSPropertyOp45
 70
     1
102
RTVSPropertyOp46
 70
     0
102
RTVSPropertyOp47
 70
     0
102
RTVSPropertyOp48
 70
     0
102
RTVSPropertyOp49
 70
     1
102
RTVSPropertyOp50
 70
     0
102
RTVSPropertyOp51
 70
     0
102
RTVSPropertyOp52
 70
     0
102
RTVSPropertyOp53
 70
     0
102
RTVSPropertyOp54
 70
     0
102
RTVSPropertyOp55
 70
     1
102
RTVSPropertyOp56
 70
     0
102
RTVSPropertyOp57
 70
     0
102
RTVSPropertyOp58
 70
     0
102
RTVSPropertyOp59
 70
     0
102
RTVSPropertyOp60
 70
     0
102
RTVSPropertyOp61
 70
     0
102
RTVSPropertyOp62
 70
     0
  0
XRECORD
  5
145B
102
{ACAD_REACTORS
330
145A
102
}
330
145A
100
AcDbXrecord
280
     1
102
RTVSPost2010Prop28
280
     0
102
RTVSPost2010PropOp28
 70
     1
102
RTVSPost2010Prop29
280
     1
102
RTVSPost2010PropOp29
 70
     1
102
RTVSPost2010Prop30
280
     1
102
RTVSPost2010PropOp30
 70
     1
102
RTVSPost2010Prop31
280
     0
102
RTVSPost2010PropOp31
 70
     1
102
RTVSPost2010Prop32
280
     0
102
RTVSPost2010PropOp32
 70
     1
102
RTVSPost2010Prop33
280
     0
102
RTVSPost2010PropOp33
 70
     1
102
RTVSPost2010Prop34
280
     0
102
RTVSPost2010PropOp34
 70
     1
102
RTVSPost2010Prop35
280
     0
102
RTVSPost2010PropOp35
 70
     1
102
RTVSPost2010Prop36
280
     0
102
RTVSPost2010PropOp36
 70
     1
102
RTVSPost2010Prop37
 90
       50
102
RTVSPost2010PropOp37
 70
     1
102
RTVSPost2010Prop38
140
0.0
102
RTVSPost2010PropOp38
 70
     1
102
RTVSPost2010Prop39
140
1.0
102
RTVSPost2010PropOp39
 70
     1
102
RTVSPost2010Prop40
 90
        0
102
RTVSPost2010PropOp40
 70
     1
102
RTVSPost2010Prop41ColorIndex
 90
       18
102
RTVSPost2010Prop41ColorRGB
 90
        0
102
RTVSPost2010PropOp41
 70
     1
102
RTVSPost2010Prop42
 90
       50
102
RTVSPost2010PropOp42
 70
     1
102
RTVSPost2010Prop43
 90
        3
102
RTVSPost2010PropOp43
 70
     1
102
RTVSPost2010Prop44ColorIndex
 90
        5
102
RTVSPost2010Prop44ColorRGB
 90
      255
102
RTVSPost2010PropOp44
 70
     1
102
RTVSPost2010Prop45
280
     0
102
RTVSPost2010PropOp45
 70
     1
102
RTVSPost2010Prop46
 90
       50
102
RTVSPost2010PropOp46
 70
     1
102
RTVSPost2010Prop47
 90
       50
102
RTVSPost2010PropOp47
 70
     1
102
RTVSPost2010Prop48
 90
       50
102
RTVSPost2010PropOp48
 70
     1
102
RTVSPost2010Prop49
280
     0
102
RTVSPost2010PropOp49
 70
     1
102
RTVSPost2010Prop50
 90
       50
102
RTVSPost2010PropOp50
 70
     1
102
RTVSPost2010Prop51ColorIndex
 90
      256
102
RTVSPost2010Prop51ColorRGB
 90
-16777216
102
RTVSPost2010PropOp51
 70
     0
102
RTVSPost2010Prop52
140
1.0
102
RTVSPost2010PropOp52
 70
     0
102
RTVSPost2010Prop53
 90
        2
102
RTVSPost2010PropOp53
 70
     1
102
RTVSPost2010Prop54
  1
strokes_ogs.tif
102
RTVSPost2010PropOp54
 70
     1
102
RTVSPost2010Prop55
280
     0
102
RTVSPost2010PropOp55
 70
     1
102
RTVSPost2010Prop56
140
1.0
102
RTVSPost2010PropOp56
 70
     1
102
RTVSPost2010Prop57
140
1.0
102
RTVSPost2010PropOp57
 70
     1
102
RTVSPropertyOp0
 70
     1
102
RTVSPropertyOp1
 70
     1
102
RTVSPropertyOp2
 70
     1
102
RTVSPropertyOp3
 70
     1
102
RTVSPropertyOp4
 70
     1
102
RTVSPropertyOp5
 70
     1
102
RTVSPropertyOp6
 70
     1
102
RTVSPropertyOp7
 70
     1
102
RTVSPropertyOp8
 70
     1
102
RTVSPropertyOp9
 70
     1
102
RTVSPropertyOp10
 70
     1
102
RTVSPropertyOp11
 70
     1
102
RTVSPropertyOp12
 70
     1
102
RTVSPropertyOp13
 70
     1
102
RTVSPropertyOp14
 70
     1
102
RTVSPropertyOp15
 70
     1
102
RTVSPropertyOp16
 70
     1
102
RTVSPropertyOp17
 70
     1
102
RTVSPropertyOp18
 70
     1
102
RTVSPropertyOp19
 70
     1
102
RTVSPropertyOp20
 70
     1
102
RTVSPropertyOp21
 70
     1
102
RTVSPropertyOp22
 70
     1
102
RTVSPropertyOp23
 70
     1
102
RTVSPropertyOp24
 70
     1
102
RTVSPropertyOp25
 70
     1
102
RTVSPropertyOp26
 70
     1
102
RTVSPropertyOp27
 70
     1
102
RTVSPropertyOp28
 70
     1
102
RTVSPropertyOp29
 70
     1
102
RTVSPropertyOp30
 70
     1
102
RTVSPropertyOp31
 70
     1
102
RTVSPropertyOp32
 70
     1
102
RTVSPropertyOp33
 70
     1
102
RTVSPropertyOp34
 70
     1
102
RTVSPropertyOp35
 70
     1
102
RTVSPropertyOp36
 70
     1
102
RTVSPropertyOp37
 70
     1
102
RTVSPropertyOp38
 70
     1
102
RTVSPropertyOp39
 70
     1
102
RTVSPropertyOp40
 70
     1
102
RTVSPropertyOp41
 70
     1
102
RTVSPropertyOp42
 70
     1
102
RTVSPropertyOp43
 70
     1
102
RTVSPropertyOp44
 70
     1
102
RTVSPropertyOp45
 70
     1
102
RTVSPropertyOp46
 70
     1
102
RTVSPropertyOp47
 70
     1
102
RTVSPropertyOp48
 70
     1
102
RTVSPropertyOp49
 70
     1
102
RTVSPropertyOp50
 70
     1
102
RTVSPropertyOp51
 70
     0
102
RTVSPropertyOp52
 70
     0
102
RTVSPropertyOp53
 70
     1
102
RTVSPropertyOp54
 70
     1
102
RTVSPropertyOp55
 70
     1
102
RTVSPropertyOp56
 70
     1
102
RTVSPropertyOp57
 70
     1
102
RTVSPropertyOp58
 70
     1
102
RTVSPropertyOp59
 70
     1
102
RTVSPropertyOp60
 70
     1
102
RTVSPropertyOp61
 70
     1
102
RTVSPropertyOp62
 70
     1
  0
XRECORD
  5
146D
102
{ACAD_REACTORS
330
146C
102
}
330
146C
100
AcDbXrecord
280
     1
102
RTVSPost2010Prop28
280
     0
102
RTVSPost2010PropOp28
 70
     1
102
RTVSPost2010Prop29
280
     1
102
RTVSPost2010PropOp29
 70
     1
102
RTVSPost2010Prop30
280
     1
102
RTVSPost2010PropOp30
 70
     1
102
RTVSPost2010Prop31
280
     0
102
RTVSPost2010PropOp31
 70
     1
102
RTVSPost2010Prop32
280
     0
102
RTVSPost2010PropOp32
 70
     1
102
RTVSPost2010Prop33
280
     0
102
RTVSPost2010PropOp33
 70
     1
102
RTVSPost2010Prop34
280
     0
102
RTVSPost2010PropOp34
 70
     1
102
RTVSPost2010Prop35
280
     0
102
RTVSPost2010PropOp35
 70
     1
102
RTVSPost2010Prop36
280
     0
102
RTVSPost2010PropOp36
 70
     1
102
RTVSPost2010Prop37
 90
       50
102
RTVSPost2010PropOp37
 70
     0
102
RTVSPost2010Prop38
140
0.0
102
RTVSPost2010PropOp38
 70
     0
102
RTVSPost2010Prop39
140
1.0
102
RTVSPost2010PropOp39
 70
     0
102
RTVSPost2010Prop40
 90
        0
102
RTVSPost2010PropOp40
 70
     0
102
RTVSPost2010Prop41ColorIndex
 90
       18
102
RTVSPost2010Prop41ColorRGB
 90
        0
102
RTVSPost2010PropOp41
 70
     0
102
RTVSPost2010Prop42
 90
       50
102
RTVSPost2010PropOp42
 70
     0
102
RTVSPost2010Prop43
 90
        3
102
RTVSPost2010PropOp43
 70
     0
102
RTVSPost2010Prop44ColorIndex
 90
        5
102
RTVSPost2010Prop44ColorRGB
 90
      255
102
RTVSPost2010PropOp44
 70
     0
102
RTVSPost2010Prop45
280
     0
102
RTVSPost2010PropOp45
 70
     1
102
RTVSPost2010Prop46
 90
       50
102
RTVSPost2010PropOp46
 70
     0
102
RTVSPost2010Prop47
 90
       50
102
RTVSPost2010PropOp47
 70
     0
102
RTVSPost2010Prop48
 90
       50
102
RTVSPost2010PropOp48
 70
     0
102
RTVSPost2010Prop49
280
     0
102
RTVSPost2010PropOp49
 70
     1
102
RTVSPost2010Prop50
 90
       50
102
RTVSPost2010PropOp50
 70
     0
102
RTVSPost2010Prop51ColorIndex
 90
      256
102
RTVSPost2010Prop51ColorRGB
 90
-16777216
102
RTVSPost2010PropOp51
 70
     0
102
RTVSPost2010Prop52
140
1.0
102
RTVSPost2010PropOp52
 70
     0
102
RTVSPost2010Prop53
 90
        2
102
RTVSPost2010PropOp53
 70
     0
102
RTVSPost2010Prop54
  1
strokes_ogs.tif
102
RTVSPost2010PropOp54
 70
     0
102
RTVSPost2010Prop55
280
     0
102
RTVSPost2010PropOp55
 70
     1
102
RTVSPost2010Prop56
140
1.0
102
RTVSPost2010PropOp56
 70
     0
102
RTVSPost2010Prop57
140
1.0
102
RTVSPost2010PropOp57
 70
     0
102
RTVSPropertyOp0
 70
     0
102
RTVSPropertyOp1
 70
     0
102
RTVSPropertyOp2
 70
     0
102
RTVSPropertyOp3
 70
     0
102
RTVSPropertyOp4
 70
     0
102
RTVSPropertyOp5
 70
     0
102
RTVSPropertyOp6
 70
     0
102
RTVSPropertyOp7
 70
     0
102
RTVSPropertyOp8
 70
     0
102
RTVSPropertyOp9
 70
     0
102
RTVSPropertyOp10
 70
     0
102
RTVSPropertyOp11
 70
     0
102
RTVSPropertyOp12
 70
     0
102
RTVSPropertyOp13
 70
     0
102
RTVSPropertyOp14
 70
     2
102
RTVSPropertyOp15
 70
     0
102
RTVSPropertyOp16
 70
     0
102
RTVSPropertyOp17
 70
     0
102
RTVSPropertyOp18
 70
     0
102
RTVSPropertyOp19
 70
     0
102
RTVSPropertyOp20
 70
     0
102
RTVSPropertyOp21
 70
     0
102
RTVSPropertyOp22
 70
     0
102
RTVSPropertyOp23
 70
     0
102
RTVSPropertyOp24
 70
     0
102
RTVSPropertyOp25
 70
     0
102
RTVSPropertyOp26
 70
     0
102
RTVSPropertyOp27
 70
     0
102
RTVSPropertyOp28
 70
     1
102
RTVSPropertyOp29
 70
     1
102
RTVSPropertyOp30
 70
     1
102
RTVSPropertyOp31
 70
     1
102
RTVSPropertyOp32
 70
     1
102
RTVSPropertyOp33
 70
     1
102
RTVSPropertyOp34
 70
     1
102
RTVSPropertyOp35
 70
     1
102
RTVSPropertyOp36
 70
     1
102
RTVSPropertyOp37
 70
     0
102
RTVSPropertyOp38
 70
     0
102
RTVSPropertyOp39
 70
     0
102
RTVSPropertyOp40
 70
     0
102
RTVSPropertyOp41
 70
     0
102
RTVSPropertyOp42
 70
     0
102
RTVSPropertyOp43
 70
     0
102
RTVSPropertyOp44
 70
     0
102
RTVSPropertyOp45
 70
     1
102
RTVSPropertyOp46
 70
     0
102
RTVSPropertyOp47
 70
     0
102
RTVSPropertyOp48
 70
     0
102
RTVSPropertyOp49
 70
     1
102
RTVSPropertyOp50
 70
     0
102
RTVSPropertyOp51
 70
     0
102
RTVSPropertyOp52
 70
     0
102
RTVSPropertyOp53
 70
     0
102
RTVSPropertyOp54
 70
     0
102
RTVSPropertyOp55
 70
     1
102
RTVSPropertyOp56
 70
     0
102
RTVSPropertyOp57
 70
     0
102
RTVSPropertyOp58
 70
     0
102
RTVSPropertyOp59
 70
     0
102
RTVSPropertyOp60
 70
     0
102
RTVSPropertyOp61
 70
     0
102
RTVSPropertyOp62
 70
     0
  0
XRECORD
  5
1453
102
{ACAD_REACTORS
330
1452
102
}
330
1452
100
AcDbXrecord
280
     1
102
RTVSPost2010Prop28
280
     0
102
RTVSPost2010PropOp28
 70
     1
102
RTVSPost2010Prop29
280
     1
102
RTVSPost2010PropOp29
 70
     1
102
RTVSPost2010Prop30
280
     1
102
RTVSPost2010PropOp30
 70
     1
102
RTVSPost2010Prop31
280
     0
102
RTVSPost2010PropOp31
 70
     1
102
RTVSPost2010Prop32
280
     0
102
RTVSPost2010PropOp32
 70
     1
102
RTVSPost2010Prop33
280
     0
102
RTVSPost2010PropOp33
 70
     1
102
RTVSPost2010Prop34
280
     0
102
RTVSPost2010PropOp34
 70
     1
102
RTVSPost2010Prop35
280
     0
102
RTVSPost2010PropOp35
 70
     1
102
RTVSPost2010Prop36
280
     0
102
RTVSPost2010PropOp36
 70
     1
102
RTVSPost2010Prop37
 90
       50
102
RTVSPost2010PropOp37
 70
     1
102
RTVSPost2010Prop38
140
0.0
102
RTVSPost2010PropOp38
 70
     1
102
RTVSPost2010Prop39
140
1.0
102
RTVSPost2010PropOp39
 70
     1
102
RTVSPost2010Prop40
 90
        0
102
RTVSPost2010PropOp40
 70
     1
102
RTVSPost2010Prop41ColorIndex
 90
       18
102
RTVSPost2010Prop41ColorRGB
 90
        0
102
RTVSPost2010PropOp41
 70
     1
102
RTVSPost2010Prop42
 90
       50
102
RTVSPost2010PropOp42
 70
     1
102
RTVSPost2010Prop43
 90
        3
102
RTVSPost2010PropOp43
 70
     1
102
RTVSPost2010Prop44ColorIndex
 90
        5
102
RTVSPost2010Prop44ColorRGB
 90
      255
102
RTVSPost2010PropOp44
 70
     1
102
RTVSPost2010Prop45
280
     0
102
RTVSPost2010PropOp45
 70
     1
102
RTVSPost2010Prop46
 90
       50
102
RTVSPost2010PropOp46
 70
     1
102
RTVSPost2010Prop47
 90
       50
102
RTVSPost2010PropOp47
 70
     1
102
RTVSPost2010Prop48
 90
       50
102
RTVSPost2010PropOp48
 70
     1
102
RTVSPost2010Prop49
280
     0
102
RTVSPost2010PropOp49
 70
     1
102
RTVSPost2010Prop50
 90
       50
102
RTVSPost2010PropOp50
 70
     1
102
RTVSPost2010Prop51ColorIndex
 90
      256
102
RTVSPost2010Prop51ColorRGB
 90
-16777216
102
RTVSPost2010PropOp51
 70
     0
102
RTVSPost2010Prop52
140
1.0
102
RTVSPost2010PropOp52
 70
     0
102
RTVSPost2010Prop53
 90
        2
102
RTVSPost2010PropOp53
 70
     1
102
RTVSPost2010Prop54
  1
strokes_ogs.tif
102
RTVSPost2010PropOp54
 70
     1
102
RTVSPost2010Prop55
280
     0
102
RTVSPost2010PropOp55
 70
     1
102
RTVSPost2010Prop56
140
1.0
102
RTVSPost2010PropOp56
 70
     1
102
RTVSPost2010Prop57
140
1.0
102
RTVSPost2010PropOp57
 70
     1
102
RTVSPropertyOp0
 70
     1
102
RTVSPropertyOp1
 70
     1
102
RTVSPropertyOp2
 70
     1
102
RTVSPropertyOp3
 70
     1
102
RTVSPropertyOp4
 70
     1
102
RTVSPropertyOp5
 70
     1
102
RTVSPropertyOp6
 70
     1
102
RTVSPropertyOp7
 70
     1
102
RTVSPropertyOp8
 70
     1
102
RTVSPropertyOp9
 70
     1
102
RTVSPropertyOp10
 70
     1
102
RTVSPropertyOp11
 70
     1
102
RTVSPropertyOp12
 70
     1
102
RTVSPropertyOp13
 70
     1
102
RTVSPropertyOp14
 70
     1
102
RTVSPropertyOp15
 70
     1
102
RTVSPropertyOp16
 70
     1
102
RTVSPropertyOp17
 70
     1
102
RTVSPropertyOp18
 70
     1
102
RTVSPropertyOp19
 70
     1
102
RTVSPropertyOp20
 70
     1
102
RTVSPropertyOp21
 70
     1
102
RTVSPropertyOp22
 70
     1
102
RTVSPropertyOp23
 70
     1
102
RTVSPropertyOp24
 70
     1
102
RTVSPropertyOp25
 70
     1
102
RTVSPropertyOp26
 70
     1
102
RTVSPropertyOp27
 70
     1
102
RTVSPropertyOp28
 70
     1
102
RTVSPropertyOp29
 70
     1
102
RTVSPropertyOp30
 70
     1
102
RTVSPropertyOp31
 70
     1
102
RTVSPropertyOp32
 70
     1
102
RTVSPropertyOp33
 70
     1
102
RTVSPropertyOp34
 70
     1
102
RTVSPropertyOp35
 70
     1
102
RTVSPropertyOp36
 70
     1
102
RTVSPropertyOp37
 70
     1
102
RTVSPropertyOp38
 70
     1
102
RTVSPropertyOp39
 70
     1
102
RTVSPropertyOp40
 70
     1
102
RTVSPropertyOp41
 70
     1
102
RTVSPropertyOp42
 70
     1
102
RTVSPropertyOp43
 70
     1
102
RTVSPropertyOp44
 70
     1
102
RTVSPropertyOp45
 70
     1
102
RTVSPropertyOp46
 70
     1
102
RTVSPropertyOp47
 70
     1
102
RTVSPropertyOp48
 70
     1
102
RTVSPropertyOp49
 70
     1
102
RTVSPropertyOp50
 70
     1
102
RTVSPropertyOp51
 70
     0
102
RTVSPropertyOp52
 70
     0
102
RTVSPropertyOp53
 70
     1
102
RTVSPropertyOp54
 70
     1
102
RTVSPropertyOp55
 70
     1
102
RTVSPropertyOp56
 70
     1
102
RTVSPropertyOp57
 70
     1
102
RTVSPropertyOp58
 70
     1
102
RTVSPropertyOp59
 70
     1
102
RTVSPropertyOp60
 70
     1
102
RTVSPropertyOp61
 70
     1
102
RTVSPropertyOp62
 70
     1
  0
XRECORD
  5
1469
102
{ACAD_REACTORS
330
1468
102
}
330
1468
100
AcDbXrecord
280
     1
102
RTVSPost2010Prop28
280
     0
102
RTVSPost2010PropOp28
 70
     1
102
RTVSPost2010Prop29
280
     1
102
RTVSPost2010PropOp29
 70
     1
102
RTVSPost2010Prop30
280
     1
102
RTVSPost2010PropOp30
 70
     1
102
RTVSPost2010Prop31
280
     0
102
RTVSPost2010PropOp31
 70
     1
102
RTVSPost2010Prop32
280
     0
102
RTVSPost2010PropOp32
 70
     1
102
RTVSPost2010Prop33
280
     0
102
RTVSPost2010PropOp33
 70
     1
102
RTVSPost2010Prop34
280
     0
102
RTVSPost2010PropOp34
 70
     1
102
RTVSPost2010Prop35
280
     0
102
RTVSPost2010PropOp35
 70
     1
102
RTVSPost2010Prop36
280
     0
102
RTVSPost2010PropOp36
 70
     1
102
RTVSPost2010Prop37
 90
       50
102
RTVSPost2010PropOp37
 70
     1
102
RTVSPost2010Prop38
140
0.0
102
RTVSPost2010PropOp38
 70
     1
102
RTVSPost2010Prop39
140
1.0
102
RTVSPost2010PropOp39
 70
     1
102
RTVSPost2010Prop40
 90
        0
102
RTVSPost2010PropOp40
 70
     1
102
RTVSPost2010Prop41ColorIndex
 90
       18
102
RTVSPost2010Prop41ColorRGB
 90
        0
102
RTVSPost2010PropOp41
 70
     1
102
RTVSPost2010Prop42
 90
       50
102
RTVSPost2010PropOp42
 70
     1
102
RTVSPost2010Prop43
 90
        3
102
RTVSPost2010PropOp43
 70
     1
102
RTVSPost2010Prop44ColorIndex
 90
        5
102
RTVSPost2010Prop44ColorRGB
 90
      255
102
RTVSPost2010PropOp44
 70
     1
102
RTVSPost2010Prop45
280
     0
102
RTVSPost2010PropOp45
 70
     1
102
RTVSPost2010Prop46
 90
       50
102
RTVSPost2010PropOp46
 70
     1
102
RTVSPost2010Prop47
 90
       50
102
RTVSPost2010PropOp47
 70
     1
102
RTVSPost2010Prop48
 90
       50
102
RTVSPost2010PropOp48
 70
     1
102
RTVSPost2010Prop49
280
     0
102
RTVSPost2010PropOp49
 70
     1
102
RTVSPost2010Prop50
 90
       50
102
RTVSPost2010PropOp50
 70
     1
102
RTVSPost2010Prop51ColorIndex
 90
      256
102
RTVSPost2010Prop51ColorRGB
 90
-16777216
102
RTVSPost2010PropOp51
 70
     0
102
RTVSPost2010Prop52
140
1.0
102
RTVSPost2010PropOp52
 70
     0
102
RTVSPost2010Prop53
 90
        2
102
RTVSPost2010PropOp53
 70
     1
102
RTVSPost2010Prop54
  1
strokes_ogs.tif
102
RTVSPost2010PropOp54
 70
     1
102
RTVSPost2010Prop55
280
     0
102
RTVSPost2010PropOp55
 70
     1
102
RTVSPost2010Prop56
140
1.0
102
RTVSPost2010PropOp56
 70
     1
102
RTVSPost2010Prop57
140
1.0
102
RTVSPost2010PropOp57
 70
     1
102
RTVSPropertyOp0
 70
     1
102
RTVSPropertyOp1
 70
     1
102
RTVSPropertyOp2
 70
     1
102
RTVSPropertyOp3
 70
     1
102
RTVSPropertyOp4
 70
     1
102
RTVSPropertyOp5
 70
     1
102
RTVSPropertyOp6
 70
     1
102
RTVSPropertyOp7
 70
     1
102
RTVSPropertyOp8
 70
     1
102
RTVSPropertyOp9
 70
     1
102
RTVSPropertyOp10
 70
     1
102
RTVSPropertyOp11
 70
     1
102
RTVSPropertyOp12
 70
     1
102
RTVSPropertyOp13
 70
     1
102
RTVSPropertyOp14
 70
     1
102
RTVSPropertyOp15
 70
     1
102
RTVSPropertyOp16
 70
     1
102
RTVSPropertyOp17
 70
     1
102
RTVSPropertyOp18
 70
     1
102
RTVSPropertyOp19
 70
     1
102
RTVSPropertyOp20
 70
     1
102
RTVSPropertyOp21
 70
     1
102
RTVSPropertyOp22
 70
     1
102
RTVSPropertyOp23
 70
     1
102
RTVSPropertyOp24
 70
     1
102
RTVSPropertyOp25
 70
     1
102
RTVSPropertyOp26
 70
     1
102
RTVSPropertyOp27
 70
     1
102
RTVSPropertyOp28
 70
     1
102
RTVSPropertyOp29
 70
     1
102
RTVSPropertyOp30
 70
     1
102
RTVSPropertyOp31
 70
     1
102
RTVSPropertyOp32
 70
     1
102
RTVSPropertyOp33
 70
     1
102
RTVSPropertyOp34
 70
     1
102
RTVSPropertyOp35
 70
     1
102
RTVSPropertyOp36
 70
     1
102
RTVSPropertyOp37
 70
     1
102
RTVSPropertyOp38
 70
     1
102
RTVSPropertyOp39
 70
     1
102
RTVSPropertyOp40
 70
     1
102
RTVSPropertyOp41
 70
     1
102
RTVSPropertyOp42
 70
     1
102
RTVSPropertyOp43
 70
     1
102
RTVSPropertyOp44
 70
     1
102
RTVSPropertyOp45
 70
     1
102
RTVSPropertyOp46
 70
     1
102
RTVSPropertyOp47
 70
     1
102
RTVSPropertyOp48
 70
     1
102
RTVSPropertyOp49
 70
     1
102
RTVSPropertyOp50
 70
     1
102
RTVSPropertyOp51
 70
     0
102
RTVSPropertyOp52
 70
     0
102
RTVSPropertyOp53
 70
     1
102
RTVSPropertyOp54
 70
     1
102
RTVSPropertyOp55
 70
     1
102
RTVSPropertyOp56
 70
     1
102
RTVSPropertyOp57
 70
     1
102
RTVSPropertyOp58
 70
     1
102
RTVSPropertyOp59
 70
     1
102
RTVSPropertyOp60
 70
     1
102
RTVSPropertyOp61
 70
     1
102
RTVSPropertyOp62
 70
     1
  0
XRECORD
  5
1467
102
{ACAD_REACTORS
330
1466
102
}
330
1466
100
AcDbXrecord
280
     1
102
RTVSPost2010Prop28
280
     0
102
RTVSPost2010PropOp28
 70
     1
102
RTVSPost2010Prop29
280
     1
102
RTVSPost2010PropOp29
 70
     1
102
RTVSPost2010Prop30
280
     1
102
RTVSPost2010PropOp30
 70
     1
102
RTVSPost2010Prop31
280
     0
102
RTVSPost2010PropOp31
 70
     1
102
RTVSPost2010Prop32
280
     0
102
RTVSPost2010PropOp32
 70
     1
102
RTVSPost2010Prop33
280
     0
102
RTVSPost2010PropOp33
 70
     1
102
RTVSPost2010Prop34
280
     0
102
RTVSPost2010PropOp34
 70
     1
102
RTVSPost2010Prop35
280
     0
102
RTVSPost2010PropOp35
 70
     1
102
RTVSPost2010Prop36
280
     0
102
RTVSPost2010PropOp36
 70
     1
102
RTVSPost2010Prop37
 90
       50
102
RTVSPost2010PropOp37
 70
     1
102
RTVSPost2010Prop38
140
0.0
102
RTVSPost2010PropOp38
 70
     1
102
RTVSPost2010Prop39
140
1.0
102
RTVSPost2010PropOp39
 70
     1
102
RTVSPost2010Prop40
 90
        0
102
RTVSPost2010PropOp40
 70
     1
102
RTVSPost2010Prop41ColorIndex
 90
       18
102
RTVSPost2010Prop41ColorRGB
 90
        0
102
RTVSPost2010PropOp41
 70
     1
102
RTVSPost2010Prop42
 90
       50
102
RTVSPost2010PropOp42
 70
     1
102
RTVSPost2010Prop43
 90
        3
102
RTVSPost2010PropOp43
 70
     1
102
RTVSPost2010Prop44ColorIndex
 90
        5
102
RTVSPost2010Prop44ColorRGB
 90
      255
102
RTVSPost2010PropOp44
 70
     1
102
RTVSPost2010Prop45
280
     0
102
RTVSPost2010PropOp45
 70
     1
102
RTVSPost2010Prop46
 90
       50
102
RTVSPost2010PropOp46
 70
     1
102
RTVSPost2010Prop47
 90
       50
102
RTVSPost2010PropOp47
 70
     1
102
RTVSPost2010Prop48
 90
       50
102
RTVSPost2010PropOp48
 70
     1
102
RTVSPost2010Prop49
280
     0
102
RTVSPost2010PropOp49
 70
     1
102
RTVSPost2010Prop50
 90
       50
102
RTVSPost2010PropOp50
 70
     1
102
RTVSPost2010Prop51ColorIndex
 90
      256
102
RTVSPost2010Prop51ColorRGB
 90
-16777216
102
RTVSPost2010PropOp51
 70
     0
102
RTVSPost2010Prop52
140
1.0
102
RTVSPost2010PropOp52
 70
     0
102
RTVSPost2010Prop53
 90
        2
102
RTVSPost2010PropOp53
 70
     1
102
RTVSPost2010Prop54
  1
strokes_ogs.tif
102
RTVSPost2010PropOp54
 70
     1
102
RTVSPost2010Prop55
280
     0
102
RTVSPost2010PropOp55
 70
     1
102
RTVSPost2010Prop56
140
1.0
102
RTVSPost2010PropOp56
 70
     1
102
RTVSPost2010Prop57
140
1.0
102
RTVSPost2010PropOp57
 70
     1
102
RTVSPropertyOp0
 70
     1
102
RTVSPropertyOp1
 70
     1
102
RTVSPropertyOp2
 70
     1
102
RTVSPropertyOp3
 70
     1
102
RTVSPropertyOp4
 70
     1
102
RTVSPropertyOp5
 70
     1
102
RTVSPropertyOp6
 70
     1
102
RTVSPropertyOp7
 70
     1
102
RTVSPropertyOp8
 70
     1
102
RTVSPropertyOp9
 70
     1
102
RTVSPropertyOp10
 70
     1
102
RTVSPropertyOp11
 70
     1
102
RTVSPropertyOp12
 70
     1
102
RTVSPropertyOp13
 70
     1
102
RTVSPropertyOp14
 70
     1
102
RTVSPropertyOp15
 70
     1
102
RTVSPropertyOp16
 70
     1
102
RTVSPropertyOp17
 70
     1
102
RTVSPropertyOp18
 70
     1
102
RTVSPropertyOp19
 70
     1
102
RTVSPropertyOp20
 70
     1
102
RTVSPropertyOp21
 70
     1
102
RTVSPropertyOp22
 70
     1
102
RTVSPropertyOp23
 70
     1
102
RTVSPropertyOp24
 70
     1
102
RTVSPropertyOp25
 70
     1
102
RTVSPropertyOp26
 70
     1
102
RTVSPropertyOp27
 70
     1
102
RTVSPropertyOp28
 70
     1
102
RTVSPropertyOp29
 70
     1
102
RTVSPropertyOp30
 70
     1
102
RTVSPropertyOp31
 70
     1
102
RTVSPropertyOp32
 70
     1
102
RTVSPropertyOp33
 70
     1
102
RTVSPropertyOp34
 70
     1
102
RTVSPropertyOp35
 70
     1
102
RTVSPropertyOp36
 70
     1
102
RTVSPropertyOp37
 70
     1
102
RTVSPropertyOp38
 70
     1
102
RTVSPropertyOp39
 70
     1
102
RTVSPropertyOp40
 70
     1
102
RTVSPropertyOp41
 70
     1
102
RTVSPropertyOp42
 70
     1
102
RTVSPropertyOp43
 70
     1
102
RTVSPropertyOp44
 70
     1
102
RTVSPropertyOp45
 70
     1
102
RTVSPropertyOp46
 70
     1
102
RTVSPropertyOp47
 70
     1
102
RTVSPropertyOp48
 70
     1
102
RTVSPropertyOp49
 70
     1
102
RTVSPropertyOp50
 70
     1
102
RTVSPropertyOp51
 70
     0
102
RTVSPropertyOp52
 70
     0
102
RTVSPropertyOp53
 70
     1
102
RTVSPropertyOp54
 70
     1
102
RTVSPropertyOp55
 70
     1
102
RTVSPropertyOp56
 70
     1
102
RTVSPropertyOp57
 70
     1
102
RTVSPropertyOp58
 70
     1
102
RTVSPropertyOp59
 70
     1
102
RTVSPropertyOp60
 70
     1
102
RTVSPropertyOp61
 70
     1
102
RTVSPropertyOp62
 70
     1
  0
XRECORD
  5
1461
102
{ACAD_REACTORS
330
1460
102
}
330
1460
100
AcDbXrecord
280
     1
102
RTVSPost2010Prop28
280
     0
102
RTVSPost2010PropOp28
 70
     1
102
RTVSPost2010Prop29
280
     1
102
RTVSPost2010PropOp29
 70
     1
102
RTVSPost2010Prop30
280
     1
102
RTVSPost2010PropOp30
 70
     1
102
RTVSPost2010Prop31
280
     0
102
RTVSPost2010PropOp31
 70
     1
102
RTVSPost2010Prop32
280
     0
102
RTVSPost2010PropOp32
 70
     1
102
RTVSPost2010Prop33
280
     0
102
RTVSPost2010PropOp33
 70
     1
102
RTVSPost2010Prop34
280
     0
102
RTVSPost2010PropOp34
 70
     1
102
RTVSPost2010Prop35
280
     0
102
RTVSPost2010PropOp35
 70
     1
102
RTVSPost2010Prop36
280
     0
102
RTVSPost2010PropOp36
 70
     1
102
RTVSPost2010Prop37
 90
       50
102
RTVSPost2010PropOp37
 70
     1
102
RTVSPost2010Prop38
140
0.0
102
RTVSPost2010PropOp38
 70
     1
102
RTVSPost2010Prop39
140
1.0
102
RTVSPost2010PropOp39
 70
     1
102
RTVSPost2010Prop40
 90
        0
102
RTVSPost2010PropOp40
 70
     1
102
RTVSPost2010Prop41ColorIndex
 90
       18
102
RTVSPost2010Prop41ColorRGB
 90
        0
102
RTVSPost2010PropOp41
 70
     1
102
RTVSPost2010Prop42
 90
       50
102
RTVSPost2010PropOp42
 70
     1
102
RTVSPost2010Prop43
 90
        3
102
RTVSPost2010PropOp43
 70
     1
102
RTVSPost2010Prop44ColorIndex
 90
        5
102
RTVSPost2010Prop44ColorRGB
 90
      255
102
RTVSPost2010PropOp44
 70
     1
102
RTVSPost2010Prop45
280
     0
102
RTVSPost2010PropOp45
 70
     1
102
RTVSPost2010Prop46
 90
       50
102
RTVSPost2010PropOp46
 70
     1
102
RTVSPost2010Prop47
 90
       50
102
RTVSPost2010PropOp47
 70
     1
102
RTVSPost2010Prop48
 90
       50
102
RTVSPost2010PropOp48
 70
     1
102
RTVSPost2010Prop49
280
     0
102
RTVSPost2010PropOp49
 70
     1
102
RTVSPost2010Prop50
 90
       50
102
RTVSPost2010PropOp50
 70
     1
102
RTVSPost2010Prop51ColorIndex
 90
      256
102
RTVSPost2010Prop51ColorRGB
 90
-16777216
102
RTVSPost2010PropOp51
 70
     0
102
RTVSPost2010Prop52
140
1.0
102
RTVSPost2010PropOp52
 70
     0
102
RTVSPost2010Prop53
 90
        2
102
RTVSPost2010PropOp53
 70
     1
102
RTVSPost2010Prop54
  1
strokes_ogs.tif
102
RTVSPost2010PropOp54
 70
     1
102
RTVSPost2010Prop55
280
     0
102
RTVSPost2010PropOp55
 70
     1
102
RTVSPost2010Prop56
140
1.0
102
RTVSPost2010PropOp56
 70
     1
102
RTVSPost2010Prop57
140
1.0
102
RTVSPost2010PropOp57
 70
     1
102
RTVSPropertyOp0
 70
     1
102
RTVSPropertyOp1
 70
     1
102
RTVSPropertyOp2
 70
     1
102
RTVSPropertyOp3
 70
     1
102
RTVSPropertyOp4
 70
     1
102
RTVSPropertyOp5
 70
     1
102
RTVSPropertyOp6
 70
     1
102
RTVSPropertyOp7
 70
     1
102
RTVSPropertyOp8
 70
     1
102
RTVSPropertyOp9
 70
     1
102
RTVSPropertyOp10
 70
     1
102
RTVSPropertyOp11
 70
     1
102
RTVSPropertyOp12
 70
     1
102
RTVSPropertyOp13
 70
     1
102
RTVSPropertyOp14
 70
     1
102
RTVSPropertyOp15
 70
     1
102
RTVSPropertyOp16
 70
     1
102
RTVSPropertyOp17
 70
     1
102
RTVSPropertyOp18
 70
     1
102
RTVSPropertyOp19
 70
     1
102
RTVSPropertyOp20
 70
     1
102
RTVSPropertyOp21
 70
     1
102
RTVSPropertyOp22
 70
     1
102
RTVSPropertyOp23
 70
     1
102
RTVSPropertyOp24
 70
     1
102
RTVSPropertyOp25
 70
     1
102
RTVSPropertyOp26
 70
     1
102
RTVSPropertyOp27
 70
     1
102
RTVSPropertyOp28
 70
     1
102
RTVSPropertyOp29
 70
     1
102
RTVSPropertyOp30
 70
     1
102
RTVSPropertyOp31
 70
     1
102
RTVSPropertyOp32
 70
     1
102
RTVSPropertyOp33
 70
     1
102
RTVSPropertyOp34
 70
     1
102
RTVSPropertyOp35
 70
     1
102
RTVSPropertyOp36
 70
     1
102
RTVSPropertyOp37
 70
     1
102
RTVSPropertyOp38
 70
     1
102
RTVSPropertyOp39
 70
     1
102
RTVSPropertyOp40
 70
     1
102
RTVSPropertyOp41
 70
     1
102
RTVSPropertyOp42
 70
     1
102
RTVSPropertyOp43
 70
     1
102
RTVSPropertyOp44
 70
     1
102
RTVSPropertyOp45
 70
     1
102
RTVSPropertyOp46
 70
     1
102
RTVSPropertyOp47
 70
     1
102
RTVSPropertyOp48
 70
     1
102
RTVSPropertyOp49
 70
     1
102
RTVSPropertyOp50
 70
     1
102
RTVSPropertyOp51
 70
     0
102
RTVSPropertyOp52
 70
     0
102
RTVSPropertyOp53
 70
     1
102
RTVSPropertyOp54
 70
     1
102
RTVSPropertyOp55
 70
     1
102
RTVSPropertyOp56
 70
     1
102
RTVSPropertyOp57
 70
     1
102
RTVSPropertyOp58
 70
     1
102
RTVSPropertyOp59
 70
     1
102
RTVSPropertyOp60
 70
     1
102
RTVSPropertyOp61
 70
     1
102
RTVSPropertyOp62
 70
     1
  0
XRECORD
  5
1463
102
{ACAD_REACTORS
330
1462
102
}
330
1462
100
AcDbXrecord
280
     1
102
RTVSPost2010Prop28
280
     0
102
RTVSPost2010PropOp28
 70
     1
102
RTVSPost2010Prop29
280
     1
102
RTVSPost2010PropOp29
 70
     1
102
RTVSPost2010Prop30
280
     1
102
RTVSPost2010PropOp30
 70
     1
102
RTVSPost2010Prop31
280
     0
102
RTVSPost2010PropOp31
 70
     1
102
RTVSPost2010Prop32
280
     0
102
RTVSPost2010PropOp32
 70
     1
102
RTVSPost2010Prop33
280
     0
102
RTVSPost2010PropOp33
 70
     1
102
RTVSPost2010Prop34
280
     0
102
RTVSPost2010PropOp34
 70
     1
102
RTVSPost2010Prop35
280
     0
102
RTVSPost2010PropOp35
 70
     1
102
RTVSPost2010Prop36
280
     0
102
RTVSPost2010PropOp36
 70
     1
102
RTVSPost2010Prop37
 90
       50
102
RTVSPost2010PropOp37
 70
     1
102
RTVSPost2010Prop38
140
0.0
102
RTVSPost2010PropOp38
 70
     1
102
RTVSPost2010Prop39
140
1.0
102
RTVSPost2010PropOp39
 70
     1
102
RTVSPost2010Prop40
 90
        0
102
RTVSPost2010PropOp40
 70
     1
102
RTVSPost2010Prop41ColorIndex
 90
       18
102
RTVSPost2010Prop41ColorRGB
 90
        0
102
RTVSPost2010PropOp41
 70
     1
102
RTVSPost2010Prop42
 90
       50
102
RTVSPost2010PropOp42
 70
     1
102
RTVSPost2010Prop43
 90
        3
102
RTVSPost2010PropOp43
 70
     1
102
RTVSPost2010Prop44ColorIndex
 90
        5
102
RTVSPost2010Prop44ColorRGB
 90
      255
102
RTVSPost2010PropOp44
 70
     1
102
RTVSPost2010Prop45
280
     0
102
RTVSPost2010PropOp45
 70
     1
102
RTVSPost2010Prop46
 90
       50
102
RTVSPost2010PropOp46
 70
     1
102
RTVSPost2010Prop47
 90
       50
102
RTVSPost2010PropOp47
 70
     1
102
RTVSPost2010Prop48
 90
       50
102
RTVSPost2010PropOp48
 70
     1
102
RTVSPost2010Prop49
280
     0
102
RTVSPost2010PropOp49
 70
     1
102
RTVSPost2010Prop50
 90
       50
102
RTVSPost2010PropOp50
 70
     1
102
RTVSPost2010Prop51ColorIndex
 90
      256
102
RTVSPost2010Prop51ColorRGB
 90
-16777216
102
RTVSPost2010PropOp51
 70
     0
102
RTVSPost2010Prop52
140
1.0
102
RTVSPost2010PropOp52
 70
     0
102
RTVSPost2010Prop53
 90
        2
102
RTVSPost2010PropOp53
 70
     1
102
RTVSPost2010Prop54
  1
strokes_ogs.tif
102
RTVSPost2010PropOp54
 70
     1
102
RTVSPost2010Prop55
280
     0
102
RTVSPost2010PropOp55
 70
     1
102
RTVSPost2010Prop56
140
1.0
102
RTVSPost2010PropOp56
 70
     1
102
RTVSPost2010Prop57
140
1.0
102
RTVSPost2010PropOp57
 70
     1
102
RTVSPropertyOp0
 70
     1
102
RTVSPropertyOp1
 70
     1
102
RTVSPropertyOp2
 70
     1
102
RTVSPropertyOp3
 70
     1
102
RTVSPropertyOp4
 70
     1
102
RTVSPropertyOp5
 70
     1
102
RTVSPropertyOp6
 70
     1
102
RTVSPropertyOp7
 70
     1
102
RTVSPropertyOp8
 70
     1
102
RTVSPropertyOp9
 70
     1
102
RTVSPropertyOp10
 70
     1
102
RTVSPropertyOp11
 70
     1
102
RTVSPropertyOp12
 70
     1
102
RTVSPropertyOp13
 70
     1
102
RTVSPropertyOp14
 70
     1
102
RTVSPropertyOp15
 70
     1
102
RTVSPropertyOp16
 70
     1
102
RTVSPropertyOp17
 70
     1
102
RTVSPropertyOp18
 70
     1
102
RTVSPropertyOp19
 70
     1
102
RTVSPropertyOp20
 70
     1
102
RTVSPropertyOp21
 70
     1
102
RTVSPropertyOp22
 70
     1
102
RTVSPropertyOp23
 70
     1
102
RTVSPropertyOp24
 70
     1
102
RTVSPropertyOp25
 70
     1
102
RTVSPropertyOp26
 70
     1
102
RTVSPropertyOp27
 70
     1
102
RTVSPropertyOp28
 70
     1
102
RTVSPropertyOp29
 70
     1
102
RTVSPropertyOp30
 70
     1
102
RTVSPropertyOp31
 70
     1
102
RTVSPropertyOp32
 70
     1
102
RTVSPropertyOp33
 70
     1
102
RTVSPropertyOp34
 70
     1
102
RTVSPropertyOp35
 70
     1
102
RTVSPropertyOp36
 70
     1
102
RTVSPropertyOp37
 70
     1
102
RTVSPropertyOp38
 70
     1
102
RTVSPropertyOp39
 70
     1
102
RTVSPropertyOp40
 70
     1
102
RTVSPropertyOp41
 70
     1
102
RTVSPropertyOp42
 70
     1
102
RTVSPropertyOp43
 70
     1
102
RTVSPropertyOp44
 70
     1
102
RTVSPropertyOp45
 70
     1
102
RTVSPropertyOp46
 70
     1
102
RTVSPropertyOp47
 70
     1
102
RTVSPropertyOp48
 70
     1
102
RTVSPropertyOp49
 70
     1
102
RTVSPropertyOp50
 70
     1
102
RTVSPropertyOp51
 70
     0
102
RTVSPropertyOp52
 70
     0
102
RTVSPropertyOp53
 70
     1
102
RTVSPropertyOp54
 70
     1
102
RTVSPropertyOp55
 70
     1
102
RTVSPropertyOp56
 70
     1
102
RTVSPropertyOp57
 70
     1
102
RTVSPropertyOp58
 70
     1
102
RTVSPropertyOp59
 70
     1
102
RTVSPropertyOp60
 70
     1
102
RTVSPropertyOp61
 70
     1
102
RTVSPropertyOp62
 70
     1
  0
XRECORD
  5
1459
102
{ACAD_REACTORS
330
1458
102
}
330
1458
100
AcDbXrecord
280
     1
102
RTVSPost2010Prop28
280
     0
102
RTVSPost2010PropOp28
 70
     1
102
RTVSPost2010Prop29
280
     1
102
RTVSPost2010PropOp29
 70
     1
102
RTVSPost2010Prop30
280
     1
102
RTVSPost2010PropOp30
 70
     1
102
RTVSPost2010Prop31
280
     0
102
RTVSPost2010PropOp31
 70
     1
102
RTVSPost2010Prop32
280
     0
102
RTVSPost2010PropOp32
 70
     1
102
RTVSPost2010Prop33
280
     0
102
RTVSPost2010PropOp33
 70
     1
102
RTVSPost2010Prop34
280
     0
102
RTVSPost2010PropOp34
 70
     1
102
RTVSPost2010Prop35
280
     0
102
RTVSPost2010PropOp35
 70
     1
102
RTVSPost2010Prop36
280
     0
102
RTVSPost2010PropOp36
 70
     1
102
RTVSPost2010Prop37
 90
       50
102
RTVSPost2010PropOp37
 70
     1
102
RTVSPost2010Prop38
140
0.0
102
RTVSPost2010PropOp38
 70
     1
102
RTVSPost2010Prop39
140
1.0
102
RTVSPost2010PropOp39
 70
     1
102
RTVSPost2010Prop40
 90
        0
102
RTVSPost2010PropOp40
 70
     1
102
RTVSPost2010Prop41ColorIndex
 90
       18
102
RTVSPost2010Prop41ColorRGB
 90
        0
102
RTVSPost2010PropOp41
 70
     1
102
RTVSPost2010Prop42
 90
       50
102
RTVSPost2010PropOp42
 70
     1
102
RTVSPost2010Prop43
 90
        3
102
RTVSPost2010PropOp43
 70
     1
102
RTVSPost2010Prop44ColorIndex
 90
        5
102
RTVSPost2010Prop44ColorRGB
 90
      255
102
RTVSPost2010PropOp44
 70
     1
102
RTVSPost2010Prop45
280
     0
102
RTVSPost2010PropOp45
 70
     1
102
RTVSPost2010Prop46
 90
       50
102
RTVSPost2010PropOp46
 70
     1
102
RTVSPost2010Prop47
 90
       50
102
RTVSPost2010PropOp47
 70
     1
102
RTVSPost2010Prop48
 90
       50
102
RTVSPost2010PropOp48
 70
     1
102
RTVSPost2010Prop49
280
     0
102
RTVSPost2010PropOp49
 70
     1
102
RTVSPost2010Prop50
 90
       50
102
RTVSPost2010PropOp50
 70
     1
102
RTVSPost2010Prop51ColorIndex
 90
      256
102
RTVSPost2010Prop51ColorRGB
 90
-16777216
102
RTVSPost2010PropOp51
 70
     0
102
RTVSPost2010Prop52
140
1.0
102
RTVSPost2010PropOp52
 70
     0
102
RTVSPost2010Prop53
 90
        2
102
RTVSPost2010PropOp53
 70
     1
102
RTVSPost2010Prop54
  1
strokes_ogs.tif
102
RTVSPost2010PropOp54
 70
     1
102
RTVSPost2010Prop55
280
     0
102
RTVSPost2010PropOp55
 70
     1
102
RTVSPost2010Prop56
140
1.0
102
RTVSPost2010PropOp56
 70
     1
102
RTVSPost2010Prop57
140
1.0
102
RTVSPost2010PropOp57
 70
     1
102
RTVSPropertyOp0
 70
     1
102
RTVSPropertyOp1
 70
     1
102
RTVSPropertyOp2
 70
     1
102
RTVSPropertyOp3
 70
     1
102
RTVSPropertyOp4
 70
     1
102
RTVSPropertyOp5
 70
     1
102
RTVSPropertyOp6
 70
     1
102
RTVSPropertyOp7
 70
     1
102
RTVSPropertyOp8
 70
     1
102
RTVSPropertyOp9
 70
     1
102
RTVSPropertyOp10
 70
     1
102
RTVSPropertyOp11
 70
     1
102
RTVSPropertyOp12
 70
     1
102
RTVSPropertyOp13
 70
     1
102
RTVSPropertyOp14
 70
     1
102
RTVSPropertyOp15
 70
     1
102
RTVSPropertyOp16
 70
     1
102
RTVSPropertyOp17
 70
     1
102
RTVSPropertyOp18
 70
     1
102
RTVSPropertyOp19
 70
     1
102
RTVSPropertyOp20
 70
     1
102
RTVSPropertyOp21
 70
     1
102
RTVSPropertyOp22
 70
     1
102
RTVSPropertyOp23
 70
     1
102
RTVSPropertyOp24
 70
     1
102
RTVSPropertyOp25
 70
     1
102
RTVSPropertyOp26
 70
     1
102
RTVSPropertyOp27
 70
     1
102
RTVSPropertyOp28
 70
     1
102
RTVSPropertyOp29
 70
     1
102
RTVSPropertyOp30
 70
     1
102
RTVSPropertyOp31
 70
     1
102
RTVSPropertyOp32
 70
     1
102
RTVSPropertyOp33
 70
     1
102
RTVSPropertyOp34
 70
     1
102
RTVSPropertyOp35
 70
     1
102
RTVSPropertyOp36
 70
     1
102
RTVSPropertyOp37
 70
     1
102
RTVSPropertyOp38
 70
     1
102
RTVSPropertyOp39
 70
     1
102
RTVSPropertyOp40
 70
     1
102
RTVSPropertyOp41
 70
     1
102
RTVSPropertyOp42
 70
     1
102
RTVSPropertyOp43
 70
     1
102
RTVSPropertyOp44
 70
     1
102
RTVSPropertyOp45
 70
     1
102
RTVSPropertyOp46
 70
     1
102
RTVSPropertyOp47
 70
     1
102
RTVSPropertyOp48
 70
     1
102
RTVSPropertyOp49
 70
     1
102
RTVSPropertyOp50
 70
     1
102
RTVSPropertyOp51
 70
     0
102
RTVSPropertyOp52
 70
     0
102
RTVSPropertyOp53
 70
     1
102
RTVSPropertyOp54
 70
     1
102
RTVSPropertyOp55
 70
     1
102
RTVSPropertyOp56
 70
     1
102
RTVSPropertyOp57
 70
     1
102
RTVSPropertyOp58
 70
     1
102
RTVSPropertyOp59
 70
     1
102
RTVSPropertyOp60
 70
     1
102
RTVSPropertyOp61
 70
     1
102
RTVSPropertyOp62
 70
     1
  0
XRECORD
  5
144D
102
{ACAD_REACTORS
330
144C
102
}
330
144C
100
AcDbXrecord
280
     1
102
RTVSPost2010Prop28
280
     0
102
RTVSPost2010PropOp28
 70
     1
102
RTVSPost2010Prop29
280
     1
102
RTVSPost2010PropOp29
 70
     1
102
RTVSPost2010Prop30
280
     1
102
RTVSPost2010PropOp30
 70
     1
102
RTVSPost2010Prop31
280
     0
102
RTVSPost2010PropOp31
 70
     1
102
RTVSPost2010Prop32
280
     0
102
RTVSPost2010PropOp32
 70
     1
102
RTVSPost2010Prop33
280
     0
102
RTVSPost2010PropOp33
 70
     1
102
RTVSPost2010Prop34
280
     0
102
RTVSPost2010PropOp34
 70
     1
102
RTVSPost2010Prop35
280
     0
102
RTVSPost2010PropOp35
 70
     1
102
RTVSPost2010Prop36
280
     0
102
RTVSPost2010PropOp36
 70
     1
102
RTVSPost2010Prop37
 90
       50
102
RTVSPost2010PropOp37
 70
     1
102
RTVSPost2010Prop38
140
0.0
102
RTVSPost2010PropOp38
 70
     1
102
RTVSPost2010Prop39
140
1.0
102
RTVSPost2010PropOp39
 70
     1
102
RTVSPost2010Prop40
 90
        0
102
RTVSPost2010PropOp40
 70
     1
102
RTVSPost2010Prop41ColorIndex
 90
       18
102
RTVSPost2010Prop41ColorRGB
 90
        0
102
RTVSPost2010PropOp41
 70
     1
102
RTVSPost2010Prop42
 90
       50
102
RTVSPost2010PropOp42
 70
     1
102
RTVSPost2010Prop43
 90
        3
102
RTVSPost2010PropOp43
 70
     1
102
RTVSPost2010Prop44ColorIndex
 90
        5
102
RTVSPost2010Prop44ColorRGB
 90
      255
102
RTVSPost2010PropOp44
 70
     1
102
RTVSPost2010Prop45
280
     0
102
RTVSPost2010PropOp45
 70
     1
102
RTVSPost2010Prop46
 90
       50
102
RTVSPost2010PropOp46
 70
     1
102
RTVSPost2010Prop47
 90
       50
102
RTVSPost2010PropOp47
 70
     1
102
RTVSPost2010Prop48
 90
       50
102
RTVSPost2010PropOp48
 70
     1
102
RTVSPost2010Prop49
280
     0
102
RTVSPost2010PropOp49
 70
     1
102
RTVSPost2010Prop50
 90
       50
102
RTVSPost2010PropOp50
 70
     1
102
RTVSPost2010Prop51ColorIndex
 90
      256
102
RTVSPost2010Prop51ColorRGB
 90
-16777216
102
RTVSPost2010PropOp51
 70
     0
102
RTVSPost2010Prop52
140
1.0
102
RTVSPost2010PropOp52
 70
     0
102
RTVSPost2010Prop53
 90
        2
102
RTVSPost2010PropOp53
 70
     1
102
RTVSPost2010Prop54
  1
strokes_ogs.tif
102
RTVSPost2010PropOp54
 70
     1
102
RTVSPost2010Prop55
280
     0
102
RTVSPost2010PropOp55
 70
     1
102
RTVSPost2010Prop56
140
1.0
102
RTVSPost2010PropOp56
 70
     1
102
RTVSPost2010Prop57
140
1.0
102
RTVSPost2010PropOp57
 70
     1
102
RTVSPropertyOp0
 70
     1
102
RTVSPropertyOp1
 70
     1
102
RTVSPropertyOp2
 70
     1
102
RTVSPropertyOp3
 70
     1
102
RTVSPropertyOp4
 70
     1
102
RTVSPropertyOp5
 70
     1
102
RTVSPropertyOp6
 70
     1
102
RTVSPropertyOp7
 70
     1
102
RTVSPropertyOp8
 70
     1
102
RTVSPropertyOp9
 70
     1
102
RTVSPropertyOp10
 70
     1
102
RTVSPropertyOp11
 70
     1
102
RTVSPropertyOp12
 70
     1
102
RTVSPropertyOp13
 70
     1
102
RTVSPropertyOp14
 70
     1
102
RTVSPropertyOp15
 70
     1
102
RTVSPropertyOp16
 70
     1
102
RTVSPropertyOp17
 70
     1
102
RTVSPropertyOp18
 70
     1
102
RTVSPropertyOp19
 70
     1
102
RTVSPropertyOp20
 70
     1
102
RTVSPropertyOp21
 70
     1
102
RTVSPropertyOp22
 70
     1
102
RTVSPropertyOp23
 70
     1
102
RTVSPropertyOp24
 70
     1
102
RTVSPropertyOp25
 70
     1
102
RTVSPropertyOp26
 70
     1
102
RTVSPropertyOp27
 70
     1
102
RTVSPropertyOp28
 70
     1
102
RTVSPropertyOp29
 70
     1
102
RTVSPropertyOp30
 70
     1
102
RTVSPropertyOp31
 70
     1
102
RTVSPropertyOp32
 70
     1
102
RTVSPropertyOp33
 70
     1
102
RTVSPropertyOp34
 70
     1
102
RTVSPropertyOp35
 70
     1
102
RTVSPropertyOp36
 70
     1
102
RTVSPropertyOp37
 70
     1
102
RTVSPropertyOp38
 70
     1
102
RTVSPropertyOp39
 70
     1
102
RTVSPropertyOp40
 70
     1
102
RTVSPropertyOp41
 70
     1
102
RTVSPropertyOp42
 70
     1
102
RTVSPropertyOp43
 70
     1
102
RTVSPropertyOp44
 70
     1
102
RTVSPropertyOp45
 70
     1
102
RTVSPropertyOp46
 70
     1
102
RTVSPropertyOp47
 70
     1
102
RTVSPropertyOp48
 70
     1
102
RTVSPropertyOp49
 70
     1
102
RTVSPropertyOp50
 70
     1
102
RTVSPropertyOp51
 70
     0
102
RTVSPropertyOp52
 70
     0
102
RTVSPropertyOp53
 70
     1
102
RTVSPropertyOp54
 70
     1
102
RTVSPropertyOp55
 70
     1
102
RTVSPropertyOp56
 70
     1
102
RTVSPropertyOp57
 70
     1
102
RTVSPropertyOp58
 70
     1
102
RTVSPropertyOp59
 70
     1
102
RTVSPropertyOp60
 70
     1
102
RTVSPropertyOp61
 70
     1
102
RTVSPropertyOp62
 70
     1
  0
XRECORD
  5
1465
102
{ACAD_REACTORS
330
1464
102
}
330
1464
100
AcDbXrecord
280
     1
102
RTVSPost2010Prop28
280
     0
102
RTVSPost2010PropOp28
 70
     1
102
RTVSPost2010Prop29
280
     1
102
RTVSPost2010PropOp29
 70
     1
102
RTVSPost2010Prop30
280
     1
102
RTVSPost2010PropOp30
 70
     1
102
RTVSPost2010Prop31
280
     0
102
RTVSPost2010PropOp31
 70
     1
102
RTVSPost2010Prop32
280
     0
102
RTVSPost2010PropOp32
 70
     1
102
RTVSPost2010Prop33
280
     0
102
RTVSPost2010PropOp33
 70
     1
102
RTVSPost2010Prop34
280
     0
102
RTVSPost2010PropOp34
 70
     1
102
RTVSPost2010Prop35
280
     0
102
RTVSPost2010PropOp35
 70
     1
102
RTVSPost2010Prop36
280
     0
102
RTVSPost2010PropOp36
 70
     1
102
RTVSPost2010Prop37
 90
       50
102
RTVSPost2010PropOp37
 70
     1
102
RTVSPost2010Prop38
140
0.0
102
RTVSPost2010PropOp38
 70
     1
102
RTVSPost2010Prop39
140
1.0
102
RTVSPost2010PropOp39
 70
     1
102
RTVSPost2010Prop40
 90
        0
102
RTVSPost2010PropOp40
 70
     1
102
RTVSPost2010Prop41ColorIndex
 90
       18
102
RTVSPost2010Prop41ColorRGB
 90
        0
102
RTVSPost2010PropOp41
 70
     1
102
RTVSPost2010Prop42
 90
       50
102
RTVSPost2010PropOp42
 70
     1
102
RTVSPost2010Prop43
 90
        3
102
RTVSPost2010PropOp43
 70
     1
102
RTVSPost2010Prop44ColorIndex
 90
        5
102
RTVSPost2010Prop44ColorRGB
 90
      255
102
RTVSPost2010PropOp44
 70
     1
102
RTVSPost2010Prop45
280
     0
102
RTVSPost2010PropOp45
 70
     1
102
RTVSPost2010Prop46
 90
       50
102
RTVSPost2010PropOp46
 70
     1
102
RTVSPost2010Prop47
 90
       50
102
RTVSPost2010PropOp47
 70
     1
102
RTVSPost2010Prop48
 90
       50
102
RTVSPost2010PropOp48
 70
     1
102
RTVSPost2010Prop49
280
     0
102
RTVSPost2010PropOp49
 70
     1
102
RTVSPost2010Prop50
 90
       50
102
RTVSPost2010PropOp50
 70
     1
102
RTVSPost2010Prop51ColorIndex
 90
      256
102
RTVSPost2010Prop51ColorRGB
 90
-16777216
102
RTVSPost2010PropOp51
 70
     0
102
RTVSPost2010Prop52
140
1.0
102
RTVSPost2010PropOp52
 70
     0
102
RTVSPost2010Prop53
 90
        2
102
RTVSPost2010PropOp53
 70
     1
102
RTVSPost2010Prop54
  1
strokes_ogs.tif
102
RTVSPost2010PropOp54
 70
     1
102
RTVSPost2010Prop55
280
     0
102
RTVSPost2010PropOp55
 70
     1
102
RTVSPost2010Prop56
140
1.0
102
RTVSPost2010PropOp56
 70
     1
102
RTVSPost2010Prop57
140
1.0
102
RTVSPost2010PropOp57
 70
     1
102
RTVSPropertyOp0
 70
     1
102
RTVSPropertyOp1
 70
     1
102
RTVSPropertyOp2
 70
     1
102
RTVSPropertyOp3
 70
     1
102
RTVSPropertyOp4
 70
     1
102
RTVSPropertyOp5
 70
     1
102
RTVSPropertyOp6
 70
     1
102
RTVSPropertyOp7
 70
     1
102
RTVSPropertyOp8
 70
     1
102
RTVSPropertyOp9
 70
     1
102
RTVSPropertyOp10
 70
     1
102
RTVSPropertyOp11
 70
     1
102
RTVSPropertyOp12
 70
     1
102
RTVSPropertyOp13
 70
     1
102
RTVSPropertyOp14
 70
     1
102
RTVSPropertyOp15
 70
     1
102
RTVSPropertyOp16
 70
     1
102
RTVSPropertyOp17
 70
     1
102
RTVSPropertyOp18
 70
     1
102
RTVSPropertyOp19
 70
     1
102
RTVSPropertyOp20
 70
     1
102
RTVSPropertyOp21
 70
     1
102
RTVSPropertyOp22
 70
     1
102
RTVSPropertyOp23
 70
     1
102
RTVSPropertyOp24
 70
     1
102
RTVSPropertyOp25
 70
     1
102
RTVSPropertyOp26
 70
     1
102
RTVSPropertyOp27
 70
     1
102
RTVSPropertyOp28
 70
     1
102
RTVSPropertyOp29
 70
     1
102
RTVSPropertyOp30
 70
     1
102
RTVSPropertyOp31
 70
     1
102
RTVSPropertyOp32
 70
     1
102
RTVSPropertyOp33
 70
     1
102
RTVSPropertyOp34
 70
     1
102
RTVSPropertyOp35
 70
     1
102
RTVSPropertyOp36
 70
     1
102
RTVSPropertyOp37
 70
     1
102
RTVSPropertyOp38
 70
     1
102
RTVSPropertyOp39
 70
     1
102
RTVSPropertyOp40
 70
     1
102
RTVSPropertyOp41
 70
     1
102
RTVSPropertyOp42
 70
     1
102
RTVSPropertyOp43
 70
     1
102
RTVSPropertyOp44
 70
     1
102
RTVSPropertyOp45
 70
     1
102
RTVSPropertyOp46
 70
     1
102
RTVSPropertyOp47
 70
     1
102
RTVSPropertyOp48
 70
     1
102
RTVSPropertyOp49
 70
     1
102
RTVSPropertyOp50
 70
     1
102
RTVSPropertyOp51
 70
     0
102
RTVSPropertyOp52
 70
     0
102
RTVSPropertyOp53
 70
     1
102
RTVSPropertyOp54
 70
     1
102
RTVSPropertyOp55
 70
     1
102
RTVSPropertyOp56
 70
     1
102
RTVSPropertyOp57
 70
     1
102
RTVSPropertyOp58
 70
     1
102
RTVSPropertyOp59
 70
     1
102
RTVSPropertyOp60
 70
     1
102
RTVSPropertyOp61
 70
     1
102
RTVSPropertyOp62
 70
     1
  0
ENDSEC
  0
EOF
