  0
SECTION
  2
HEADER
  9
$ACADVER
  1
AC1015
  9
$ACADMAINTVER
 70
    20
  9
$DWGCODEPAGE
  3
ANSI_932
  9
$INSBASE
 10
0.0
 20
0.0
 30
0.0
  9
$EXTMIN
 10
9.9999975266385
 20
10.0
 30
0.0
  9
$EXTMAX
 10
679.0740859898026
 20
372.7757603170787
 30
0.0
  9
$LIMMIN
 10
0.0000015376081137
 20
-0.0000001931532552
  9
$LIMMAX
 10
692.0000015376082
 20
477.0606058674526
  9
$ORTHOMODE
 70
     1
  9
$REGENMODE
 70
     1
  9
$FILLMODE
 70
     1
  9
$QTEXTMODE
 70
     0
  9
$MIRRTEXT
 70
     1
  9
$LTSCALE
 40
0.5
  9
$ATTMODE
 70
     1
  9
$TEXTSIZE
 40
2.5
  9
$TRACEWID
 40
1.0
  9
$TEXTSTYLE
  7
STANDARD
  9
$CLAYER
  8
0
  9
$CELTYPE
  6
BYLAYER
  9
$CECOLOR
 62
   256
  9
$CELTSCALE
 40
1.0
  9
$DISPSILH
 70
     0
  9
$DIMSCALE
 40
1.0
  9
$DIMASZ
 40
3.0
  9
$DIMEXO
 40
1.0
  9
$DIMDLI
 40
10.0
  9
$DIMRND
 40
0.0
  9
$DIMDLE
 40
0.0
  9
$DIMEXE
 40
1.0
  9
$DIMTP
 40
0.0
  9
$DIMTM
 40
0.0
  9
$DIMTXT
 40
3.2
  9
$DIMCEN
 40
0.0
  9
$DIMTSZ
 40
0.0
  9
$DIMTOL
 70
     0
  9
$DIMLIM
 70
     0
  9
$DIMTIH
 70
     0
  9
$DIMTOH
 70
     0
  9
$DIMSE1
 70
     0
  9
$DIMSE2
 70
     0
  9
$DIMTAD
 70
     3
  9
$DIMZIN
 70
     8
  9
$DIMBLK
  1

  9
$DIMASO
 70
     1
  9
$DIMSHO
 70
     1
  9
$DIMPOST
  1

  9
$DIMAPOST
  1

  9
$DIMALT
 70
     0
  9
$DIMALTD
 70
     2
  9
$DIMALTF
 40
25.4
  9
$DIMLFAC
 40
1.0
  9
$DIMTOFL
 70
     1
  9
$DIMTVP
 40
0.0
  9
$DIMTIX
 70
     0
  9
$DIMSOXD
 70
     0
  9
$DIMSAH
 70
     1
  9
$DIMBLK1
  1
OPEN
  9
$DIMBLK2
  1
OPEN
  9
$DIMSTYLE
  2
STANDARD
  9
$DIMCLRD
 70
     0
  9
$DIMCLRE
 70
     0
  9
$DIMCLRT
 70
     0
  9
$DIMTFAC
 40
1.0
  9
$DIMGAP
 40
1.0
  9
$DIMJUST
 70
     0
  9
$DIMSD1
 70
     0
  9
$DIMSD2
 70
     0
  9
$DIMTOLJ
 70
     1
  9
$DIMTZIN
 70
     0
  9
$DIMALTZ
 70
     0
  9
$DIMALTTZ
 70
     0
  9
$DIMUPT
 70
     0
  9
$DIMDEC
 70
     4
  9
$DIMTDEC
 70
     4
  9
$DIMALTU
 70
     2
  9
$DIMALTTD
 70
     2
  9
$DIMTXSTY
  7
STANDARD
  9
$DIMAUNIT
 70
     0
  9
$DIMADEC
 70
     0
  9
$DIMALTRND
 40
0.0
  9
$DIMAZIN
 70
     0
  9
$DIMDSEP
 70
    46
  9
$DIMATFIT
 70
     3
  9
$DIMFRAC
 70
     0
  9
$DIMLDRBLK
  1
OPEN
  9
$DIMLUNIT
 70
     2
  9
$DIMLWD
 70
    -2
  9
$DIMLWE
 70
    -2
  9
$DIMTMOVE
 70
     0
  9
$LUNITS
 70
     2
  9
$LUPREC
 70
     4
  9
$SKETCHINC
 40
1.0
  9
$FILLETRAD
 40
0.0
  9
$AUNITS
 70
     0
  9
$AUPREC
 70
     0
  9
$MENU
  1
.
  9
$ELEVATION
 40
0.0
  9
$PELEVATION
 40
0.0
  9
$THICKNESS
 40
0.0
  9
$LIMCHECK
 70
     0
  9
$CHAMFERA
 40
10.0
  9
$CHAMFERB
 40
10.0
  9
$CHAMFERC
 40
20.0
  9
$CHAMFERD
 40
0.0
  9
$SKPOLY
 70
     0
  9
$TDCREATE
 40
2452955.408024630
  9
$TDUCREATE
 40
2452955.033024630
  9
$TDUPDATE
 40
2457192.643388553
  9
$TDUUPDATE
 40
2457192.268388553
  9
$TDINDWG
 40
0.2748182176
  9
$TDUSRTIMER
 40
0.2748181944
  9
$USRTIMER
 70
     1
  9
$ANGBASE
 50
0.0
  9
$ANGDIR
 70
     0
  9
$PDMODE
 70
     0
  9
$PDSIZE
 40
0.0
  9
$PLINEWID
 40
0.0
  9
$SPLFRAME
 70
     0
  9
$SPLINETYPE
 70
     6
  9
$SPLINESEGS
 70
     8
  9
$HANDSEED
  5
246F
  9
$SURFTAB1
 70
     6
  9
$SURFTAB2
 70
     6
  9
$SURFTYPE
 70
     6
  9
$SURFU
 70
     6
  9
$SURFV
 70
     6
  9
$UCSBASE
  2

  9
$UCSNAME
  2

  9
$UCSORG
 10
0.0
 20
0.0
 30
0.0
  9
$UCSXDIR
 10
1.0
 20
0.0
 30
0.0
  9
$UCSYDIR
 10
0.0
 20
1.0
 30
0.0
  9
$UCSORTHOREF
  2

  9
$UCSORTHOVIEW
 70
     0
  9
$UCSORGTOP
 10
0.0
 20
0.0
 30
0.0
  9
$UCSORGBOTTOM
 10
0.0
 20
0.0
 30
0.0
  9
$UCSORGLEFT
 10
0.0
 20
0.0
 30
0.0
  9
$UCSORGRIGHT
 10
0.0
 20
0.0
 30
0.0
  9
$UCSORGFRONT
 10
0.0
 20
0.0
 30
0.0
  9
$UCSORGBACK
 10
0.0
 20
0.0
 30
0.0
  9
$PUCSBASE
  2

  9
$PUCSNAME
  2

  9
$PUCSORG
 10
0.0
 20
0.0
 30
0.0
  9
$PUCSXDIR
 10
1.0
 20
0.0
 30
0.0
  9
$PUCSYDIR
 10
0.0
 20
1.0
 30
0.0
  9
$PUCSORTHOREF
  2

  9
$PUCSORTHOVIEW
 70
     0
  9
$PUCSORGTOP
 10
0.0
 20
0.0
 30
0.0
  9
$PUCSORGBOTTOM
 10
0.0
 20
0.0
 30
0.0
  9
$PUCSORGLEFT
 10
0.0
 20
0.0
 30
0.0
  9
$PUCSORGRIGHT
 10
0.0
 20
0.0
 30
0.0
  9
$PUCSORGFRONT
 10
0.0
 20
0.0
 30
0.0
  9
$PUCSORGBACK
 10
0.0
 20
0.0
 30
0.0
  9
$USERI1
 70
     0
  9
$USERI2
 70
     0
  9
$USERI3
 70
     0
  9
$USERI4
 70
     0
  9
$USERI5
 70
     0
  9
$USERR1
 40
0.0
  9
$USERR2
 40
0.0
  9
$USERR3
 40
0.0
  9
$USERR4
 40
0.0
  9
$USERR5
 40
0.0
  9
$WORLDVIEW
 70
     1
  9
$SHADEDGE
 70
     3
  9
$SHADEDIF
 70
    70
  9
$TILEMODE
 70
     1
  9
$MAXACTVP
 70
    48
  9
$PINSBASE
 10
0.0
 20
0.0
 30
0.0
  9
$PLIMCHECK
 70
     0
  9
$PEXTMIN
 10
1.000000000000000E+20
 20
1.000000000000000E+20
 30
1.000000000000000E+20
  9
$PEXTMAX
 10
-1.000000000000000E+20
 20
-1.000000000000000E+20
 30
-1.000000000000000E+20
  9
$PLIMMIN
 10
0.0
 20
0.0
  9
$PLIMMAX
 10
420.0
 20
297.0
  9
$UNITMODE
 70
     0
  9
$VISRETAIN
 70
     1
  9
$PLINEGEN
 70
     0
  9
$PSLTSCALE
 70
     1
  9
$TREEDEPTH
 70
  3020
  9
$CMLSTYLE
  2
STANDARD
  9
$CMLJUST
 70
     0
  9
$CMLSCALE
 40
20.0
  9
$PROXYGRAPHICS
 70
     1
  9
$MEASUREMENT
 70
     0
  9
$CELWEIGHT
370
    -1
  9
$ENDCAPS
280
     0
  9
$JOINSTYLE
280
     0
  9
$LWDISPLAY
290
     0
  9
$INSUNITS
 70
     0
  9
$HYPERLINKBASE
  1

  9
$STYLESHEET
  1

  9
$XEDIT
290
     1
  9
$CEPSNTYPE
380
     0
  9
$PSTYLEMODE
290
     1
  9
$FINGERPRINTGUID
  2
{41E3027F-CB31-431A-84DA-BC45DB562616}
  9
$VERSIONGUID
  2
{4C33251E-5D0F-412D-BC4C-44A68757DA75}
  9
$EXTNAMES
290
     1
  9
$PSVPSCALE
 40
0.0
  9
$OLESTARTUP
290
     0
  0
ENDSEC
  0
SECTION
  2
CLASSES
  0
CLASS
  1
ACDBDICTIONARYWDFLT
  2
AcDbDictionaryWithDefault
  3
ObjectDBX Classes
 90
        0
280
     0
281
     0
  0
CLASS
  1
ACDBPLACEHOLDER
  2
AcDbPlaceHolder
  3
ObjectDBX Classes
 90
        0
280
     0
281
     0
  0
CLASS
  1
LAYOUT
  2
AcDbLayout
  3
ObjectDBX Classes
 90
        0
280
     0
281
     0
  0
CLASS
  1
DICTIONARYVAR
  2
AcDbDictionaryVar
  3
ObjectDBX Classes
 90
        0
280
     0
281
     0
  0
CLASS
  1
MATERIAL
  2
AcDbMaterial
  3
ObjectDBX Classes
 90
     1153
280
     0
281
     0
  0
CLASS
  1
VISUALSTYLE
  2
AcDbVisualStyle
  3
ObjectDBX Classes
 90
     4095
280
     0
281
     0
  0
CLASS
  1
TABLESTYLE
  2
AcDbTableStyle
  3
ObjectDBX Classes
 90
     4095
280
     0
281
     0
  0
CLASS
  1
SCALE
  2
AcDbScale
  3
ObjectDBX Classes
 90
     1153
280
     0
281
     0
  0
CLASS
  1
MLEADERSTYLE
  2
AcDbMLeaderStyle
  3
ACDB_MLEADERSTYLE_CLASS
 90
     4095
280
     0
281
     0
  0
CLASS
  1
ACDBSECTIONVIEWSTYLE
  2
AcDbSectionViewStyle
  3
ObjectDBX Classes
 90
     1025
280
     0
281
     0
  0
CLASS
  1
ACDBDETAILVIEWSTYLE
  2
AcDbDetailViewStyle
  3
ObjectDBX Classes
 90
     1025
280
     0
281
     0
  0
CLASS
  1
CELLSTYLEMAP
  2
AcDbCellStyleMap
  3
ObjectDBX Classes
 90
     1152
280
     0
281
     0
  0
ENDSEC
  0
SECTION
  2
TABLES
  0
TABLE
  2
VPORT
  5
8
330
0
100
AcDbSymbolTable
 70
     1
  0
VPORT
  5
23B9
330
8
100
AcDbSymbolTableRecord
100
AcDbViewportTableRecord
  2
*ACTIVE
 70
     0
 10
0.0
 20
0.0
 11
1.0
 21
1.0
 12
459.7279617467092
 22
191.3964015455729
 13
0.0
 23
0.0
 14
10.0
 24
10.0
 15
10.0
 25
10.0
 16
0.0
 26
0.0
 36
1.0
 17
0.0
 27
0.0
 37
0.0
 40
384.620947044034
 41
1.899603698811096
 42
50.0
 43
0.0
 44
0.0
 50
0.0
 51
0.0
 71
     0
 72
   100
 73
     1
 74
     0
 75
     0
 76
     0
 77
     0
 78
     0
281
     0
 65
     1
110
0.0
120
0.0
130
0.0
111
1.0
121
0.0
131
0.0
112
0.0
122
1.0
132
0.0
 79
     0
146
0.0
1001
ACAD_NAV_VCDISPLAY
1070
     3
  0
ENDTAB
  0
TABLE
  2
LTYPE
  5
5
330
0
100
AcDbSymbolTable
 70
     4
  0
LTYPE
  5
12
330
5
100
AcDbSymbolTableRecord
100
AcDbLinetypeTableRecord
  2
BYBLOCK
 70
     0
  3

 72
    65
 73
     0
 40
0.0
  0
LTYPE
  5
13
330
5
100
AcDbSymbolTableRecord
100
AcDbLinetypeTableRecord
  2
BYLAYER
 70
     0
  3

 72
    65
 73
     0
 40
0.0
  0
LTYPE
  5
14
330
5
100
AcDbSymbolTableRecord
100
AcDbLinetypeTableRecord
  2
CONTINUOUS
 70
     0
  3
Solid line
 72
    65
 73
     0
 40
0.0
  0
LTYPE
  5
4B
330
5
100
AcDbSymbolTableRecord
100
AcDbLinetypeTableRecord
  2
DASHED
 70
     0
  3
Dashed __ __ __ __ __ __ __ __ __ __ __ __ __ _
 72
    65
 73
     2
 40
19.04999999999999
 49
12.7
 74
     0
 49
-6.349999999999998
 74
     0
  0
LTYPE
  5
4C
330
5
100
AcDbSymbolTableRecord
100
AcDbLinetypeTableRecord
  2
CENTER
 70
     0
  3
Center ____ _ ____ _ ____ _ ____ _ ____ _ ____
 72
    65
 73
     4
 40
50.8
 49
31.75
 74
     0
 49
-6.349999999999998
 74
     0
 49
6.349999999999998
 74
     0
 49
-6.349999999999998
 74
     0
  0
LTYPE
  5
4D
330
5
100
AcDbSymbolTableRecord
100
AcDbLinetypeTableRecord
  2
PHANTOM
 70
     0
  3
Phantom ______  __  __  ______  __  __  ______
 72
    65
 73
     6
 40
63.5
 49
31.75
 74
     0
 49
-6.349999999999998
 74
     0
 49
6.349999999999998
 74
     0
 49
-6.349999999999998
 74
     0
 49
6.349999999999998
 74
     0
 49
-6.349999999999998
 74
     0
  0
ENDTAB
  0
TABLE
  2
LAYER
  5
2
330
0
100
AcDbSymbolTable
 70
     8
  0
LAYER
  5
E
102
{ACAD_XDICTIONARY
360
2413
102
}
330
2
100
AcDbSymbolTableRecord
100
AcDbLayerTableRecord
  2
0
 70
     0
 62
     7
  6
CONTINUOUS
370
    -3
390
23C2
  0
LAYER
  5
4E
102
{ACAD_XDICTIONARY
360
2415
102
}
330
2
100
AcDbSymbolTableRecord
100
AcDbLayerTableRecord
  2
4
 70
     0
 62
     1
  6
CENTER
370
    -3
390
23C2
  0
LAYER
  5
4F
102
{ACAD_XDICTIONARY
360
2417
102
}
330
2
100
AcDbSymbolTableRecord
100
AcDbLayerTableRecord
  2
5
 70
     0
 62
     6
  6
PHANTOM
370
    -3
390
23C2
  0
LAYER
  5
50
102
{ACAD_XDICTIONARY
360
2419
102
}
330
2
100
AcDbSymbolTableRecord
100
AcDbLayerTableRecord
  2
1
 70
     0
 62
     7
  6
CONTINUOUS
370
    -3
390
23C2
  0
LAYER
  5
51
102
{ACAD_XDICTIONARY
360
241B
102
}
330
2
100
AcDbSymbolTableRecord
100
AcDbLayerTableRecord
  2
2
 70
     0
 62
     4
  6
CONTINUOUS
370
    -3
390
23C2
  0
LAYER
  5
52
102
{ACAD_XDICTIONARY
360
241D
102
}
330
2
100
AcDbSymbolTableRecord
100
AcDbLayerTableRecord
  2
3
 70
     0
 62
     2
  6
DASHED
370
    -3
390
23C2
  0
LAYER
  5
53
102
{ACAD_XDICTIONARY
360
241F
102
}
330
2
100
AcDbSymbolTableRecord
100
AcDbLayerTableRecord
  2
6
 70
     0
 62
     5
  6
CONTINUOUS
370
    -3
390
23C2
  0
LAYER
  5
54
102
{ACAD_XDICTIONARY
360
2421
102
}
330
2
100
AcDbSymbolTableRecord
100
AcDbLayerTableRecord
  2
7
 70
     0
 62
     3
  6
CONTINUOUS
370
    -3
390
23C2
  0
ENDTAB
  0
TABLE
  2
STYLE
  5
3
330
0
100
AcDbSymbolTable
 70
     1
  0
STYLE
  5
F
330
3
100
AcDbSymbolTableRecord
100
AcDbTextStyleTableRecord
  2
STANDARD
 70
     0
 40
0.0
 41
1.0
 50
0.0
 71
     0
 42
2.5
  3
simplex.shx
  4

  0
ENDTAB
  0
TABLE
  2
VIEW
  5
6
330
0
100
AcDbSymbolTable
 70
     0
  0
ENDTAB
  0
TABLE
  2
UCS
  5
7
330
0
100
AcDbSymbolTable
 70
     0
  0
ENDTAB
  0
TABLE
  2
APPID
  5
9
330
0
100
AcDbSymbolTable
 70
     7
  0
APPID
  5
10
330
9
100
AcDbSymbolTableRecord
100
AcDbRegAppTableRecord
  2
ACAD
 70
     0
  0
APPID
  5
3E
330
9
100
AcDbSymbolTableRecord
100
AcDbRegAppTableRecord
  2
CONTENTTABDATA
 70
     0
  0
APPID
  5
3F
330
9
100
AcDbSymbolTableRecord
100
AcDbRegAppTableRecord
  2
CONTENTCURRENTTAB
 70
     0
  0
APPID
  5
A7A
330
9
100
AcDbSymbolTableRecord
100
AcDbRegAppTableRecord
  2
CONTENTBLOCKICON
 70
     0
  0
APPID
  5
A7B
330
9
100
AcDbSymbolTableRecord
100
AcDbRegAppTableRecord
  2
CONTENTBLOCKDESCRIPTION
 70
     0
  0
APPID
  5
242D
330
9
100
AcDbSymbolTableRecord
100
AcDbRegAppTableRecord
  2
ACAD_NAV_VCDISPLAY
 70
     0
  0
APPID
  5
2466
330
9
100
AcDbSymbolTableRecord
100
AcDbRegAppTableRecord
  2
ACAD_MLEADERVER
 70
     0
  0
ENDTAB
  0
TABLE
  2
DIMSTYLE
  5
A
330
0
100
AcDbSymbolTable
 70
     1
100
AcDbDimStyleTable
 71
     0
  0
DIMSTYLE
105
1D
330
A
100
AcDbSymbolTableRecord
100
AcDbDimStyleTableRecord
  2
STANDARD
 70
     0
 41
3.0
 42
1.0
 43
10.0
 44
1.0
 73
     0
 74
     0
 77
     3
 78
     8
140
3.2
141
0.0
147
1.0
172
     1
173
     1
340
F
341
2E
343
2E
344
2E
  0
ENDTAB
  0
TABLE
  2
BLOCK_RECORD
  5
1
330
0
100
AcDbSymbolTable
 70
     1
  0
BLOCK_RECORD
  5
18
102
{ACAD_XDICTIONARY
360
23BC
102
}
330
1
100
AcDbSymbolTableRecord
100
AcDbBlockTableRecord
  2
*MODEL_SPACE
340
2410
  0
BLOCK_RECORD
  5
15
102
{ACAD_XDICTIONARY
360
23BA
102
}
330
1
100
AcDbSymbolTableRecord
100
AcDbBlockTableRecord
  2
*PAPER_SPACE
340
2411
  0
BLOCK_RECORD
  5
2E
330
1
100
AcDbSymbolTableRecord
100
AcDbBlockTableRecord
  2
_OPEN
340
0
  0
ENDTAB
  0
ENDSEC
  0
SECTION
  2
BLOCKS
  0
BLOCK
  5
19
330
18
100
AcDbEntity
  8
0
100
AcDbBlockBegin
  2
*MODEL_SPACE
 70
     0
 10
0.0
 20
0.0
 30
0.0
  3
*MODEL_SPACE
  1

  0
ENDBLK
  5
1A
330
18
100
AcDbEntity
  8
0
100
AcDbBlockEnd
  0
BLOCK
  5
16
330
15
100
AcDbEntity
 67
     1
  8
0
100
AcDbBlockBegin
  2
*PAPER_SPACE
 70
     0
 10
0.0
 20
0.0
 30
0.0
  3
*PAPER_SPACE
  1

  0
ENDBLK
  5
17
330
15
100
AcDbEntity
 67
     1
  8
0
100
AcDbBlockEnd
  0
BLOCK
  5
2F
330
2E
100
AcDbEntity
  8
0
100
AcDbBlockBegin
  2
_OPEN
 70
     0
 10
0.0
 20
0.0
 30
0.0
  3
_OPEN
  1

  0
LINE
  5
30
330
2E
100
AcDbEntity
  8
0
  6
ByBlock
 62
     0
100
AcDbLine
 10
-1.0
 20
0.1666666666666666
 30
0.0
 11
0.0
 21
0.0
 31
0.0
  0
LINE
  5
31
330
2E
100
AcDbEntity
  8
0
  6
ByBlock
 62
     0
100
AcDbLine
 10
0.0
 20
0.0
 30
0.0
 11
-1.0
 21
-0.1666666666666666
 31
0.0
  0
LINE
  5
32
330
2E
100
AcDbEntity
  8
0
  6
ByBlock
 62
     0
100
AcDbLine
 10
0.0
 20
0.0
 30
0.0
 11
-1.0
 21
0.0
 31
0.0
  0
ENDBLK
  5
33
330
2E
100
AcDbEntity
  8
0
100
AcDbBlockEnd
  0
ENDSEC
  0
SECTION
  2
ENTITIES
  0
TEXT
  5
63
330
18
100
AcDbEntity
  8
4
  6
CENTER
 48
0.25
100
AcDbText
 10
23.97950852663849
 20
10.0
 30
0.0
 40
1.399999999999999
  1
4
100
AcDbText
  0
TEXT
  5
64
330
18
100
AcDbEntity
  8
7
  6
Continuous
 48
0.25
100
AcDbText
 10
9.999997526638502
 20
26.0000007607689
 30
0.0
 40
3.0
  1
CODE No.13233
100
AcDbText
  0
TEXT
  5
65
330
18
100
AcDbEntity
  8
7
  6
Continuous
 48
0.25
100
AcDbText
 10
9.999997526638502
 20
18.00000076076889
 30
0.0
 40
3.0
  1
TYPE No.THA-449B-1K
100
AcDbText
  0
TEXT
  5
66
330
18
100
AcDbEntity
  8
1
  6
Continuous
 48
0.25
100
AcDbText
 10
9.999997526638502
 20
10.00000076076889
 30
0.0
 40
1.399999999999999
  1
LAYER
100
AcDbText
  0
TEXT
  5
67
330
18
100
AcDbEntity
  8
2
  6
Continuous
 48
0.25
100
AcDbText
 10
19.9795085266385
 20
10.0
 30
0.0
 40
1.399999999999999
  1
2
100
AcDbText
  0
TEXT
  5
68
330
18
100
AcDbEntity
  8
3
  6
DASHED
 48
0.25
100
AcDbText
 10
21.9795085266385
 20
10.0
 30
0.0
 40
1.399999999999999
  1
3
100
AcDbText
  0
TEXT
  5
69
330
18
100
AcDbEntity
  8
1
  6
Continuous
 48
0.25
100
AcDbText
 10
17.9795085266385
 20
10.0
 30
0.0
 40
1.399999999999999
  1
1
100
AcDbText
  0
TEXT
  5
6A
330
18
100
AcDbEntity
  8
5
  6
PHANTOM
 48
0.25
100
AcDbText
 10
25.9795085266385
 20
10.0
 30
0.0
 40
1.399999999999999
  1
5
100
AcDbText
  0
TEXT
  5
6B
330
18
100
AcDbEntity
  8
6
  6
Continuous
 48
0.25
100
AcDbText
 10
27.9795085266385
 20
10.0
 30
0.0
 40
1.399999999999999
  1
6
100
AcDbText
  0
TEXT
  5
6C
330
18
100
AcDbEntity
  8
7
  6
Continuous
 48
0.25
100
AcDbText
 10
29.9795085266385
 20
10.0
 30
0.0
 40
1.399999999999999
  1
7
100
AcDbText
  0
LINE
  5
417
330
18
100
AcDbEntity
  8
1
  6
Continuous
 48
0.25
100
AcDbLine
 10
115.6604117056847
 20
338.9757603170274
 30
0.0
 11
122.9937447056847
 21
344.4757603170274
 31
0.0
  0
LINE
  5
418
330
18
100
AcDbEntity
  8
1
  6
Continuous
 48
0.25
100
AcDbLine
 10
103.2283612056849
 20
346.7210598170276
 30
0.0
 11
108.2283612056849
 21
339.2210598170275
 31
0.0
  0
LINE
  5
419
330
18
100
AcDbEntity
  8
1
  6
Continuous
 48
0.25
100
AcDbLine
 10
116.2604117056848
 20
338.1757603170275
 30
0.0
 11
123.5937447056849
 21
343.6757603170274
 31
0.0
  0
LINE
  5
41A
330
18
100
AcDbEntity
  8
1
  6
Continuous
 48
0.25
100
AcDbLine
 10
102.3963112056849
 20
346.1663598170275
 30
0.0
 11
107.3963112056849
 21
338.6663598170275
 31
0.0
  0
LINE
  5
41E
330
18
100
AcDbEntity
  8
1
  6
Continuous
 48
0.25
100
AcDbLine
 10
109.0604117056849
 20
338.7757603170275
 30
0.0
 11
115.0604117056849
 21
338.7757603170275
 31
0.0
  0
LINE
  5
41F
330
18
100
AcDbEntity
  8
1
  6
Continuous
 48
0.25
100
AcDbLine
 10
109.0604117056849
 20
337.7757603170274
 30
0.0
 11
115.0604117056849
 21
337.7757603170274
 31
0.0
  0
ARC
  5
424
330
18
100
AcDbEntity
  8
1
  6
Continuous
 48
0.25
100
AcDbCircle
 10
109.0604117056849
 20
339.7757603170273
 30
0.0
 40
1.0
100
AcDbArc
 50
213.6900679999981
 51
270.0
  0
ARC
  5
425
330
18
100
AcDbEntity
  8
1
  6
Continuous
 48
0.25
100
AcDbCircle
 10
109.0604117056849
 20
339.7757603170273
 30
0.0
 40
2.0
100
AcDbArc
 50
213.6900679999981
 51
270.0
  0
ARC
  5
429
330
18
100
AcDbEntity
  8
1
  6
Continuous
 48
0.25
100
AcDbCircle
 10
115.0604117056849
 20
339.7757603170273
 30
0.0
 40
1.0
100
AcDbArc
 50
270.0
 51
306.8698979999997
  0
ARC
  5
42A
330
18
100
AcDbEntity
  8
1
  6
Continuous
 48
0.25
100
AcDbCircle
 10
115.0604117056849
 20
339.7757603170273
 30
0.0
 40
2.0
100
AcDbArc
 50
270.0
 51
306.8698979999997
  0
LINE
  5
430
330
18
100
AcDbEntity
  8
1
  6
Continuous
 48
0.25
100
AcDbLine
 10
122.9937447056847
 20
359.0757603170275
 30
0.0
 11
115.6604117056847
 21
364.5757603170275
 31
0.0
  0
LINE
  5
431
330
18
100
AcDbEntity
  8
1
  6
Continuous
 48
0.25
100
AcDbLine
 10
123.5937447056849
 20
359.8757603170274
 30
0.0
 11
116.2604117056847
 21
365.3757603170273
 31
0.0
  0
LINE
  5
442
330
18
100
AcDbEntity
  8
1
  6
Continuous
 48
0.25
100
AcDbLine
 10
108.2283612056849
 20
364.3304603170276
 30
0.0
 11
103.2283612056847
 21
356.8304603170275
 31
0.0
  0
LINE
  5
443
330
18
100
AcDbEntity
  8
1
  6
Continuous
 48
0.25
100
AcDbLine
 10
107.3963112056848
 20
364.8851608170275
 30
0.0
 11
102.3963112056848
 21
357.3851608170275
 31
0.0
  0
LINE
  5
447
330
18
100
AcDbEntity
  8
1
  6
Continuous
 48
0.25
100
AcDbLine
 10
105.5604117056848
 20
354.6293137076201
 30
0.0
 11
105.5604117056848
 21
347.7757603170569
 31
0.0
  0
LINE
  5
448
330
18
100
AcDbEntity
  8
1
  6
Continuous
 48
0.25
100
AcDbLine
 10
105.5604117056848
 20
355.7757603170853
 30
0.0
 11
105.5604117056848
 21
347.7757603170275
 31
0.0
  0
LINE
  5
449
330
18
100
AcDbEntity
  8
1
  6
Continuous
 48
0.25
100
AcDbLine
 10
109.4458272056847
 20
355.7757603170275
 30
0.0
 11
109.4458272056847
 21
347.7757603170275
 31
0.0
  0
LINE
  5
44A
330
18
100
AcDbEntity
  8
1
  6
Continuous
 48
0.25
100
AcDbLine
 10
103.0604117056848
 20
356.2757603170853
 30
0.0
 11
103.0604117056848
 21
347.2757603170275
 31
0.0
  0
LINE
  5
44B
330
18
100
AcDbEntity
  8
1
  6
Continuous
 48
0.25
100
AcDbLine
 10
102.0604117056848
 20
356.2757603170853
 30
0.0
 11
102.0604117056848
 21
347.2757603170275
 31
0.0
  0
ARC
  5
44E
330
18
100
AcDbEntity
  8
1
  6
Continuous
 48
0.25
100
AcDbCircle
 10
104.0604117056848
 20
347.2757603170275
 30
0.0
 40
1.0
100
AcDbArc
 50
180.0
 51
213.6900679999981
  0
ARC
  5
44F
330
18
100
AcDbEntity
  8
1
  6
Continuous
 48
0.25
100
AcDbCircle
 10
104.0604117056848
 20
347.2757603170275
 30
0.0
 40
2.0
100
AcDbArc
 50
180.0
 51
213.6900679999981
  0
ARC
  5
453
330
18
100
AcDbEntity
  8
1
  6
Continuous
 48
0.25
100
AcDbCircle
 10
106.5604117056849
 20
347.7757603170567
 30
0.0
 40
1.0
100
AcDbArc
 50
180.0
 51
270.0
  0
ARC
  5
454
330
18
100
AcDbEntity
  8
1
  6
Continuous
 48
0.25
100
AcDbCircle
 10
108.4458272056849
 20
347.7757603170567
 30
0.0
 40
1.0
100
AcDbArc
 50
270.0
 51
0.0
  0
LINE
  5
455
330
18
100
AcDbEntity
  8
1
  6
Continuous
 48
0.25
100
AcDbLine
 10
106.5604117056849
 20
346.7757603170568
 30
0.0
 11
108.4458272056849
 21
346.7757603170567
 31
0.0
  0
LINE
  5
456
330
18
100
AcDbEntity
  8
1
  6
Continuous
 48
0.25
100
AcDbLine
 10
109.4458272056847
 20
350.0257603170567
 30
0.0
 11
109.4458272056847
 21
347.7757603170567
 31
0.0
  0
ARC
  5
457
330
18
100
AcDbEntity
  8
1
  6
Continuous
 48
0.25
100
AcDbCircle
 10
106.5604117056849
 20
347.7757603170275
 30
0.0
 40
1.0
100
AcDbArc
 50
180.0
 51
270.0
  0
ARC
  5
458
330
18
100
AcDbEntity
  8
1
  6
Continuous
 48
0.25
100
AcDbCircle
 10
108.4458272056847
 20
347.7757603170275
 30
0.0
 40
1.0
100
AcDbArc
 50
270.0
 51
0.0
  0
LINE
  5
459
330
18
100
AcDbEntity
  8
1
  6
Continuous
 48
0.25
100
AcDbLine
 10
106.5604117056849
 20
346.7757603170275
 30
0.0
 11
108.4458272056847
 21
346.7757603170275
 31
0.0
  0
LINE
  5
45A
330
18
100
AcDbEntity
  8
4
  6
CENTER
100
AcDbLine
 10
100.067361013891
 20
351.7757603170576
 30
0.0
 11
154.6929550062518
 21
351.7757603170536
 31
0.0
  0
ARC
  5
466
330
18
100
AcDbEntity
  8
1
  6
Continuous
 48
0.25
100
AcDbCircle
 10
108.4458272056849
 20
355.7757603170567
 30
0.0
 40
1.0
100
AcDbArc
 50
0.0
 51
90.0
  0
LINE
  5
468
330
18
100
AcDbEntity
  8
1
  6
Continuous
 48
0.25
100
AcDbLine
 10
106.5604117056849
 20
356.7757603170568
 30
0.0
 11
108.4458272056849
 21
356.7757603170567
 31
0.0
  0
LINE
  5
469
330
18
100
AcDbEntity
  8
1
  6
Continuous
 48
0.25
100
AcDbLine
 10
109.4458272056847
 20
355.7757603170567
 30
0.0
 11
109.4458272056847
 21
353.5257603170567
 31
0.0
  0
ARC
  5
46A
330
18
100
AcDbEntity
  8
1
  6
Continuous
 48
0.25
100
AcDbCircle
 10
108.4458272056847
 20
355.7757603170275
 30
0.0
 40
1.0
100
AcDbArc
 50
0.0
 51
90.0
  0
LINE
  5
4F1
330
18
100
AcDbEntity
  8
1
  6
Continuous
 48
0.25
100
AcDbLine
 10
115.0604117056849
 20
364.7757603170275
 30
0.0
 11
109.0604117056849
 21
364.7757603170275
 31
0.0
  0
LINE
  5
4F2
330
18
100
AcDbEntity
  8
1
  6
Continuous
 48
0.25
100
AcDbLine
 10
115.0604117056849
 20
365.7757603170275
 30
0.0
 11
109.0604117056849
 21
365.7757603170275
 31
0.0
  0
ARC
  5
4F3
330
18
100
AcDbEntity
  8
1
  6
Continuous
 48
0.25
100
AcDbCircle
 10
109.0604117056849
 20
363.7757603170275
 30
0.0
 40
1.0
100
AcDbArc
 50
90.0
 51
146.3099320000011
  0
ARC
  5
4F4
330
18
100
AcDbEntity
  8
1
  6
Continuous
 48
0.25
100
AcDbCircle
 10
109.0604117056849
 20
363.7757603170275
 30
0.0
 40
2.0
100
AcDbArc
 50
90.0
 51
146.3099320000011
  0
ARC
  5
4F9
330
18
100
AcDbEntity
  8
1
  6
Continuous
 48
0.25
100
AcDbCircle
 10
115.0604117056849
 20
363.7757603170275
 30
0.0
 40
1.0
100
AcDbArc
 50
53.13010200000036
 51
90.0
  0
ARC
  5
4FA
330
18
100
AcDbEntity
  8
1
  6
Continuous
 48
0.25
100
AcDbCircle
 10
115.0604117056849
 20
363.7757603170275
 30
0.0
 40
2.0
100
AcDbArc
 50
53.13010200000036
 51
90.0
  0
LINE
  5
4FD
330
18
100
AcDbEntity
  8
1
  6
Continuous
 48
0.25
100
AcDbLine
 10
130.9937447056847
 20
354.8507603170656
 30
0.0
 11
149.8937447056848
 21
354.8507603170656
 31
0.0
  0
LINE
  5
4FE
330
18
100
AcDbEntity
  8
1
  6
Continuous
 48
0.25
100
AcDbLine
 10
130.9937447056845
 20
348.7007603170657
 30
0.0
 11
149.8937447056848
 21
348.7007603170657
 31
0.0
  0
ARC
  5
4FF
330
18
100
AcDbEntity
  8
1
  6
Continuous
 48
0.25
100
AcDbCircle
 10
122.3937447056848
 20
358.2757603170275
 30
0.0
 40
1.0
100
AcDbArc
 50
0.0
 51
53.13010200000036
  0
ARC
  5
500
330
18
100
AcDbEntity
  8
1
  6
Continuous
 48
0.25
100
AcDbCircle
 10
122.3937447056848
 20
358.2757603170275
 30
0.0
 40
2.0
100
AcDbArc
 50
0.0
 51
53.13010200000036
  0
LINE
  5
501
330
18
100
AcDbEntity
  8
1
  6
Continuous
 48
0.25
100
AcDbLine
 10
123.3937447056848
 20
345.2757603170275
 30
0.0
 11
123.3937447056848
 21
358.2757603170275
 31
0.0
  0
LINE
  5
502
330
18
100
AcDbEntity
  8
1
  6
Continuous
 48
0.25
100
AcDbLine
 10
124.3937447056848
 20
345.2757603170275
 30
0.0
 11
124.3937447056848
 21
358.2757603170275
 31
0.0
  0
LINE
  5
505
330
18
100
AcDbEntity
  8
1
  6
Continuous
 48
0.25
100
AcDbLine
 10
124.3937447056848
 20
345.7757603170567
 30
0.0
 11
129.3937447056848
 21
345.7757603170567
 31
0.0
  0
ARC
  5
506
330
18
100
AcDbEntity
  8
1
  6
Continuous
 48
0.25
100
AcDbCircle
 10
122.3937447056848
 20
345.2757603170275
 30
0.0
 40
1.0
100
AcDbArc
 50
306.8698979999997
 51
0.0
  0
ARC
  5
507
330
18
100
AcDbEntity
  8
1
  6
Continuous
 48
0.25
100
AcDbCircle
 10
122.3937447056848
 20
345.2757603170275
 30
0.0
 40
2.0
100
AcDbArc
 50
306.8698979999997
 51
0.0
  0
LINE
  5
50C
330
18
100
AcDbEntity
  8
1
  6
Continuous
 48
0.25
100
AcDbLine
 10
130.6937447056848
 20
349.0007603170655
 30
0.0
 11
130.9937447056847
 21
348.7007603170653
 31
0.0
  0
LINE
  5
50D
330
18
100
AcDbEntity
  8
1
  6
Continuous
 48
0.25
100
AcDbLine
 10
129.8937447056847
 20
349.0007603170657
 30
0.0
 11
130.6937447056848
 21
349.0007603170657
 31
0.0
  0
ARC
  5
50E
330
18
100
AcDbEntity
  8
1
  6
Continuous
 48
0.25
100
AcDbCircle
 10
129.3937447056848
 20
346.2757603170567
 30
0.0
 40
0.5
100
AcDbArc
 50
270.0
 51
0.0
  0
LINE
  5
50F
330
18
100
AcDbEntity
  8
1
  6
Continuous
 48
0.25
100
AcDbLine
 10
129.8937447056847
 20
349.0007603170657
 30
0.0
 11
129.8937447056847
 21
346.2757603170567
 31
0.0
  0
LINE
  5
510
330
18
100
AcDbEntity
  8
1
  6
Continuous
 48
0.25
100
AcDbLine
 10
124.3937447056848
 20
357.7757603170567
 30
0.0
 11
129.3937447056848
 21
357.7757603170567
 31
0.0
  0
LINE
  5
511
330
18
100
AcDbEntity
  8
1
  6
Continuous
 48
0.25
100
AcDbLine
 10
129.8937447056847
 20
354.5507603170655
 30
0.0
 11
130.6937447056848
 21
354.5507603170655
 31
0.0
  0
LINE
  5
512
330
18
100
AcDbEntity
  8
1
  6
Continuous
 48
0.25
100
AcDbLine
 10
130.6937447056848
 20
354.5507603170655
 30
0.0
 11
130.993744705685
 21
354.8507603170656
 31
0.0
  0
ARC
  5
513
330
18
100
AcDbEntity
  8
1
  6
Continuous
 48
0.25
100
AcDbCircle
 10
129.3937447056848
 20
357.2757603170567
 30
0.0
 40
0.5
100
AcDbArc
 50
0.0
 51
90.0
  0
LINE
  5
514
330
18
100
AcDbEntity
  8
1
  6
Continuous
 48
0.25
100
AcDbLine
 10
129.8937447056847
 20
357.2757603170567
 30
0.0
 11
129.8937447056847
 21
354.5507603170655
 31
0.0
  0
LINE
  5
515
330
18
100
AcDbEntity
  8
1
  6
Continuous
 48
0.25
100
AcDbLine
 10
150.9215015192633
 20
354.1340872594998
 30
0.0
 11
150.9215015192633
 21
349.4174333746111
 31
0.0
  0
ARC
  5
516
330
18
100
AcDbEntity
  8
1
  6
Continuous
 48
0.25
100
AcDbCircle
 10
149.3937447056848
 20
351.7757603170656
 30
0.0
 40
3.0
100
AcDbArc
 50
325.4818921580735
 51
34.518107840195
  0
LINE
  5
517
330
18
100
AcDbEntity
  8
1
  6
Continuous
 48
0.25
100
AcDbLine
 10
151.8655861245208
 20
350.0757603170284
 30
0.0
 11
149.8937447056848
 21
348.7007603170657
 31
0.0
  0
LINE
  5
518
330
18
100
AcDbEntity
  8
1
  6
Continuous
 48
0.25
100
AcDbLine
 10
151.865586124572
 20
353.4757603170283
 30
0.0
 11
149.8937447056848
 21
354.8507603170656
 31
0.0
  0
ARC
  5
519
330
18
100
AcDbEntity
  8
1
  6
Continuous
100
AcDbCircle
 10
344.8778557279684
 20
198.7752804691225
 30
0.0
 40
12.0
100
AcDbArc
 50
344.5060324994781
 51
15.49396750052177
  0
ARC
  5
51B
330
18
100
AcDbEntity
  8
1
  6
Continuous
100
AcDbCircle
 10
344.877855728004
 20
238.7752804691225
 30
0.0
 40
12.0
100
AcDbArc
 50
344.5060324994781
 51
15.49396750052177
  0
LINE
  5
51F
330
18
100
AcDbEntity
  8
1
  6
Continuous
100
AcDbLine
 10
346.4778557280226
 20
259.2752804691435
 30
0.0
 11
346.4778557279505
 21
178.7752804691281
 31
0.0
  0
LINE
  5
520
330
18
100
AcDbEntity
  8
1
  6
Continuous
100
AcDbLine
 10
348.7778557280226
 20
259.2752804691446
 30
0.0
 11
348.7778557279505
 21
178.7752804691291
 31
0.0
  0
LINE
  5
521
330
18
100
AcDbEntity
  8
1
  6
Continuous
100
AcDbLine
 10
352.2778557280226
 20
259.2752804691461
 30
0.0
 11
352.2778557279504
 21
178.7752804691306
 31
0.0
  0
LINE
  5
522
330
18
100
AcDbEntity
  8
5
  6
PHANTOM
100
AcDbLine
 10
301.2922571222743
 20
259.8752804691235
 30
0.0
 11
246.2111976015694
 21
204.7942209484183
 31
0.0
  0
LINE
  5
523
330
18
100
AcDbEntity
  8
5
  6
PHANTOM
100
AcDbLine
 10
305.6922571221766
 20
272.0534550620777
 30
0.0
 11
233.6176179728242
 21
199.9788159127255
 31
0.0
  0
LINE
  5
524
330
18
100
AcDbEntity
  8
1
  6
Continuous
100
AcDbLine
 10
302.192257122173
 20
275.1667997976635
 30
0.0
 11
302.1922571221807
 21
165.7752804690014
 31
0.0
  0
LINE
  5
525
330
18
100
AcDbEntity
  8
1
  6
Continuous
100
AcDbLine
 10
125.966166750484
 20
269.5007334055095
 30
0.0
 11
125.7661944816761
 21
140.0727628213161
 31
0.0
  0
LINE
  5
526
330
18
100
AcDbEntity
  8
1
  6
Continuous
100
AcDbLine
 10
106.6662008202354
 20
140.0727628212855
 30
0.0
 11
106.4662285514361
 21
269.5007334055097
 31
0.0
  0
LINE
  5
52B
330
18
100
AcDbEntity
  8
1
  6
Continuous
100
AcDbLine
 10
314.1922571221766
 20
264.7752804690223
 30
0.0
 11
314.1922571221844
 21
177.2752804690368
 31
0.0
  0
LINE
  5
52C
330
18
100
AcDbEntity
  8
1
  6
Continuous
100
AcDbLine
 10
308.6922571221766
 20
293.0752804690222
 30
0.0
 11
308.6922571221843
 21
125.0752804690367
 31
0.0
  0
LINE
  5
52D
330
18
100
AcDbEntity
  8
1
  6
Continuous
100
AcDbLine
 10
310.6922571221766
 20
293.0752804690222
 30
0.0
 11
310.6922571221844
 21
125.0752804690367
 31
0.0
  0
LINE
  5
52E
330
18
100
AcDbEntity
  8
1
  6
Continuous
100
AcDbLine
 10
305.6922571221766
 20
289.0752804690139
 30
0.0
 11
305.6922571221843
 21
129.0752804690441
 31
0.0
  0
LINE
  5
52F
330
18
100
AcDbEntity
  8
1
  6
Continuous
100
AcDbLine
 10
125.6161976511034
 20
256.3688476193892
 30
0.0
 11
125.6161976510935
 21
165.7752804691815
 31
0.0
  0
LINE
  5
530
330
18
100
AcDbEntity
  8
1
  6
Continuous
100
AcDbLine
 10
106.8161976511035
 20
256.3688476258551
 30
0.0
 11
106.8161976510936
 21
165.7752804691815
 31
0.0
  0
LINE
  5
531
330
18
100
AcDbEntity
  8
4
  6
CENTER
100
AcDbLine
 10
116.2161976509632
 20
298.2997608893159
 30
0.0
 11
116.216197650952
 21
120.4485478899848
 31
0.0
  0
LINE
  5
532
330
18
100
AcDbEntity
  8
1
  6
Continuous
100
AcDbLine
 10
128.216197650343
 20
277.0752804690596
 30
0.0
 11
128.2161976503314
 21
141.0752804690741
 31
0.0
  0
LINE
  5
533
330
18
100
AcDbEntity
  8
1
  6
Continuous
100
AcDbLine
 10
104.2161976503432
 20
277.0752804690596
 30
0.0
 11
104.2161976503315
 21
141.0752804690741
 31
0.0
  0
LINE
  5
534
330
18
100
AcDbEntity
  8
1
  6
Continuous
100
AcDbLine
 10
132.2161976503314
 20
141.0752804690741
 30
0.0
 11
132.2161976503431
 21
277.0752804690596
 31
0.0
  0
LINE
  5
535
330
18
100
AcDbEntity
  8
1
  6
Continuous
100
AcDbLine
 10
100.2161976503432
 20
277.0752804690596
 30
0.0
 11
100.2161976503314
 21
141.0752804690741
 31
0.0
  0
LINE
  5
537
330
18
100
AcDbEntity
  8
4
  6
CENTER
100
AcDbLine
 10
105.3661976510068
 20
154.0752804690822
 30
0.0
 11
127.0661976510067
 21
154.0752804690822
 31
0.0
  0
LINE
  5
538
330
18
100
AcDbEntity
  8
1
  6
Continuous
100
AcDbLine
 10
124.1161976510036
 20
142.0535207525064
 30
0.0
 11
118.2161976510067
 21
130.832636947362
 31
0.0
  0
LINE
  5
539
330
18
100
AcDbEntity
  8
1
  6
Continuous
100
AcDbLine
 10
124.1161976510036
 20
142.0535207525064
 30
0.0
 11
108.3161976510027
 21
142.0535207525064
 31
0.0
  0
ARC
  5
53A
330
18
100
AcDbEntity
  8
1
  6
Continuous
100
AcDbCircle
 10
122.1161976510027
 20
143.0752804690773
 30
0.0
 40
2.0
100
AcDbArc
 50
0.0
 51
90.0
  0
LINE
  5
53B
330
18
100
AcDbEntity
  8
1
  6
Continuous
100
AcDbLine
 10
125.8241068972695
 20
163.0752804690741
 30
0.0
 11
106.6082884046418
 21
163.0752804690901
 31
0.0
  0
ARC
  5
53C
330
18
100
AcDbEntity
  8
1
  6
Continuous
100
AcDbCircle
 10
116.2161976509989
 20
138.4752804690821
 30
0.0
 40
7.900000000007822
100
AcDbArc
 50
180.0
 51
0.0
  0
ARC
  5
53D
330
18
100
AcDbEntity
  8
1
  6
Continuous
100
AcDbCircle
 10
116.2161976509989
 20
138.4752804690821
 30
0.0
 40
9.400000000007819
100
AcDbArc
 50
180.0
 51
0.0
  0
ARC
  5
540
330
18
100
AcDbEntity
  8
5
  6
PHANTOM
100
AcDbCircle
 10
116.2161976509436
 20
134.4752804684758
 30
0.0
 40
9.400000000007819
100
AcDbArc
 50
180.0
 51
0.0
  0
ARC
  5
541
330
18
100
AcDbEntity
  8
5
  6
PHANTOM
100
AcDbCircle
 10
209.5498269422285
 20
223.9338684570185
 30
0.0
 40
2.0
100
AcDbArc
 50
330.0
 51
60.0
  0
ARC
  5
542
330
18
100
AcDbEntity
  8
1
  6
Continuous
100
AcDbCircle
 10
116.2161976503314
 20
141.0752804690741
 30
0.0
 40
11.99999999999993
100
AcDbArc
 50
180.0
 51
0.0
  0
ARC
  5
543
330
18
100
AcDbEntity
  8
1
  6
Continuous
100
AcDbCircle
 10
116.2161976503314
 20
141.0752804690741
 30
0.0
 40
15.99999999999994
100
AcDbArc
 50
180.0
 51
0.0
  0
LINE
  5
544
330
18
100
AcDbEntity
  8
1
  6
Continuous
100
AcDbLine
 10
117.2661976509541
 20
149.8994948252851
 30
0.0
 11
117.2661976509541
 21
155.9252804690296
 31
0.0
  0
LINE
  5
545
330
18
100
AcDbEntity
  8
1
  6
Continuous
100
AcDbLine
 10
115.1661976509541
 20
149.8994948252851
 30
0.0
 11
115.1661976509541
 21
155.9252804690296
 31
0.0
  0
ARC
  5
546
330
18
100
AcDbEntity
  8
1
  6
Continuous
100
AcDbCircle
 10
116.2161976509542
 20
154.0752804690296
 30
0.0
 40
4.5
100
AcDbArc
 50
286.1276202131635
 51
73.87237978683645
  0
ARC
  5
547
330
18
100
AcDbEntity
  8
1
  6
Continuous
100
AcDbCircle
 10
116.2161976509542
 20
154.0752804690296
 30
0.0
 40
4.5
100
AcDbArc
 50
106.1276202131635
 51
253.8723797868364
  0
LINE
  5
548
330
18
100
AcDbEntity
  8
1
  6
Continuous
100
AcDbLine
 10
117.4661976509542
 20
149.6994948252851
 30
0.0
 11
117.4661976509542
 21
158.9165096517997
 31
0.0
  0
LINE
  5
549
330
18
100
AcDbEntity
  8
1
  6
Continuous
100
AcDbLine
 10
114.9661976509541
 20
149.6994948252851
 30
0.0
 11
114.9661976509541
 21
158.9165096517997
 31
0.0
  0
ARC
  5
54A
330
18
100
AcDbEntity
  8
1
  6
Continuous
100
AcDbCircle
 10
116.2161976509542
 20
154.0752804690296
 30
0.0
 40
5.5
100
AcDbArc
 50
291.3051029737895
 51
248.6948970262104
  0
CIRCLE
  5
54B
330
18
100
AcDbEntity
  8
1
  6
Continuous
100
AcDbCircle
 10
116.2161976509542
 20
154.0752804690296
 30
0.0
 40
5.599999999999998
  0
LINE
  5
54C
330
18
100
AcDbEntity
  8
1
  6
Continuous
100
AcDbLine
 10
106.8161976510068
 20
162.0752804690892
 30
0.0
 11
106.8161976510068
 21
138.4752804690821
 31
0.0
  0
LINE
  5
54D
330
18
100
AcDbEntity
  8
1
  6
Continuous
100
AcDbLine
 10
114.2161976510068
 20
130.8326369473577
 30
0.0
 11
108.3161976510028
 21
142.0535207525064
 31
0.0
  0
LINE
  5
54E
330
18
100
AcDbEntity
  8
1
  6
Continuous
100
AcDbLine
 10
118.5838215378071
 20
131.531800492749
 30
0.0
 11
113.8485737642056
 21
131.5318004927459
 31
0.0
  0
LINE
  5
551
330
18
100
AcDbEntity
  8
1
  6
Continuous
100
AcDbLine
 10
119.08676482082
 20
132.4883205163539
 30
0.0
 11
113.3456304811926
 21
132.4883205163501
 31
0.0
  0
LINE
  5
553
330
18
100
AcDbEntity
  8
1
  6
Continuous
100
AcDbLine
 10
119.5897081038327
 20
133.4448405399585
 30
0.0
 11
112.8426871981797
 21
133.4448405399542
 31
0.0
  0
LINE
  5
555
330
18
100
AcDbEntity
  8
1
  6
Continuous
100
AcDbLine
 10
120.0926513868456
 20
134.4013605635633
 30
0.0
 11
112.3397439151668
 21
134.4013605635583
 31
0.0
  0
LINE
  5
557
330
18
100
AcDbEntity
  8
1
  6
Continuous
100
AcDbLine
 10
120.5955946698584
 20
135.3578805871679
 30
0.0
 11
111.8368006321538
 21
135.3578805871623
 31
0.0
  0
LINE
  5
559
330
18
100
AcDbEntity
  8
1
  6
Continuous
100
AcDbLine
 10
121.0985379528711
 20
136.3144006107726
 30
0.0
 11
111.3338573491411
 21
136.3144006107663
 31
0.0
  0
LINE
  5
55B
330
18
100
AcDbEntity
  8
1
  6
Continuous
100
AcDbLine
 10
121.601481235884
 20
137.2709206343773
 30
0.0
 11
110.8309140661282
 21
137.2709206343704
 31
0.0
  0
LINE
  5
55D
330
18
100
AcDbEntity
  8
1
  6
Continuous
100
AcDbLine
 10
122.1044245188967
 20
138.227440657982
 30
0.0
 11
110.3279707831153
 21
138.2274406579744
 31
0.0
  0
LINE
  5
55F
330
18
100
AcDbEntity
  8
1
  6
Continuous
100
AcDbLine
 10
122.6073678019096
 20
139.1839606815867
 30
0.0
 11
109.8250275001024
 21
139.1839606815785
 31
0.0
  0
LINE
  5
561
330
18
100
AcDbEntity
  8
1
  6
Continuous
100
AcDbLine
 10
123.1103110849224
 20
140.1404807051914
 30
0.0
 11
109.3220842170895
 21
140.1404807051824
 31
0.0
  0
LINE
  5
563
330
18
100
AcDbEntity
  8
1
  6
Continuous
100
AcDbLine
 10
123.6132543679352
 20
141.0970007287961
 30
0.0
 11
108.8191409340766
 21
141.0970007287866
 31
0.0
  0
LINE
  5
564
330
18
100
AcDbEntity
  8
1
  6
Continuous
100
AcDbLine
 10
122.1161976510043
 20
145.0752804690773
 30
0.0
 11
110.3161976510077
 21
145.0752804690871
 31
0.0
  0
LINE
  5
565
330
18
100
AcDbEntity
  8
1
  6
Continuous
100
AcDbLine
 10
108.3161976509912
 20
138.4752804690821
 30
0.0
 11
108.3161976510061
 21
143.0752804690935
 31
0.0
  0
ARC
  5
566
330
18
100
AcDbEntity
  8
1
  6
Continuous
100
AcDbCircle
 10
107.6586446843874
 20
143.0752804688226
 30
0.0
 40
1.0
100
AcDbArc
 50
180.1442507309408
 51
212.6005703924167
  0
LINE
  5
567
330
18
100
AcDbEntity
  8
1
  6
Continuous
100
AcDbLine
 10
108.4308457573172
 20
137.1342749166471
 30
0.0
 11
106.9123433900764
 21
137.1342749166471
 31
0.0
  0
ARC
  5
568
330
18
100
AcDbEntity
  8
1
  6
Continuous
100
AcDbCircle
 10
107.6661976509557
 20
140.0752804688292
 30
0.0
 40
1.0
100
AcDbArc
 50
180.0
 51
211.7883306226036
  0
LINE
  5
569
330
18
100
AcDbEntity
  8
1
  6
Continuous
100
AcDbLine
 10
106.6435355819605
 20
149.0752804690822
 30
0.0
 11
106.8161976510068
 21
149.0752804690822
 31
0.0
  0
LINE
  5
56A
330
18
100
AcDbEntity
  8
1
  6
Continuous
100
AcDbLine
 10
106.8161976510068
 20
147.0752804691978
 30
0.0
 11
106.6661976510067
 21
147.0752804691978
 31
0.0
  0
ARC
  5
56B
330
18
100
AcDbEntity
  8
1
  6
Continuous
100
AcDbCircle
 10
110.3161976510061
 20
143.0752804690871
 30
0.0
 40
2.0
100
AcDbArc
 50
90.0
 51
180.0
  0
LINE
  5
56C
330
18
100
AcDbEntity
  8
1
  6
Continuous
100
AcDbLine
 10
106.8161976509516
 20
147.0752804685914
 30
0.0
 11
106.6485708930073
 21
147.0752804685914
 31
0.0
  0
LINE
  5
56D
330
18
100
AcDbEntity
  8
1
  6
Continuous
100
AcDbLine
 10
117.2661976509541
 20
149.8994948252851
 30
0.0
 11
118.2145357998757
 21
148.9511566763636
 31
0.0
  0
LINE
  5
56E
330
18
100
AcDbEntity
  8
1
  6
Continuous
100
AcDbLine
 10
115.1661976509541
 20
149.8994948252852
 30
0.0
 11
114.2178595020326
 21
148.9511566763636
 31
0.0
  0
ARC
  5
56F
330
18
100
AcDbEntity
  8
1
  6
Continuous
100
AcDbCircle
 10
116.2161976509542
 20
154.0752804690296
 30
0.0
 40
4.5
100
AcDbArc
 50
254.417499999944
 51
285.5825000000558
  0
LINE
  5
570
330
18
100
AcDbEntity
  8
5
  6
PHANTOM
100
AcDbLine
 10
211.2818777497973
 20
222.9338684570185
 30
0.0
 11
203.8818777497973
 21
210.1166924810088
 31
0.0
  0
LINE
  5
571
330
18
100
AcDbEntity
  8
1
  6
Continuous
100
AcDbLine
 10
106.6183590267329
 20
159.0752804690821
 30
0.0
 11
106.8161976510068
 21
159.0752804690821
 31
0.0
  0
ARC
  5
572
330
18
100
AcDbEntity
  8
1
  6
Continuous
100
AcDbCircle
 10
107.8161976510068
 20
162.0752804690892
 30
0.0
 40
1.0
100
AcDbArc
 50
90.0
 51
180.0
  0
LINE
  5
573
330
18
100
AcDbEntity
  8
1
  6
Continuous
100
AcDbLine
 10
111.7161976510067
 20
163.7752804697878
 30
0.0
 11
111.7161976510067
 21
163.0752804690859
 31
0.0
  0
ARC
  5
574
330
18
100
AcDbEntity
  8
5
  6
PHANTOM
100
AcDbCircle
 10
202.1498269422283
 20
211.1166924810088
 30
0.0
 40
2.0
100
AcDbArc
 50
239.9999999999999
 51
330.0
  0
LINE
  5
575
330
18
100
AcDbEntity
  8
1
  6
Continuous
100
AcDbLine
 10
117.2661976509541
 20
155.9252804690296
 30
0.0
 11
115.1661976509541
 21
155.9252804690296
 31
0.0
  0
ARC
  5
576
330
18
100
AcDbEntity
  8
1
  6
Continuous
100
AcDbCircle
 10
116.2161976509542
 20
154.0752804690296
 30
0.0
 40
5.000000000010571
100
AcDbArc
 50
75.52248781410352
 51
104.4775121858964
  0
LINE
  5
577
330
18
100
AcDbEntity
  8
1
  6
Continuous
100
AcDbLine
 10
114.2161976510067
 20
163.7752804697878
 30
0.0
 11
114.2161976510067
 21
163.0752804690838
 31
0.0
  0
LINE
  5
578
330
18
100
AcDbEntity
  8
1
  6
Continuous
100
AcDbLine
 10
118.2161976510067
 20
163.7752804697878
 30
0.0
 11
118.2161976510067
 21
163.0752804690805
 31
0.0
  0
LINE
  5
579
330
18
100
AcDbEntity
  8
1
  6
Continuous
100
AcDbLine
 10
120.7161976510067
 20
163.7752804697878
 30
0.0
 11
120.7161976510067
 21
163.0752804690784
 31
0.0
  0
ARC
  5
57A
330
18
100
AcDbEntity
  8
1
  6
Continuous
100
AcDbCircle
 10
107.5828507497616
 20
173.1802467521051
 30
0.0
 40
1.0
100
AcDbArc
 50
140.0542840245013
 51
180.1442507309408
  0
LINE
  5
57B
330
18
100
AcDbEntity
  8
1
  6
Continuous
100
AcDbLine
 10
106.8161976510936
 20
169.1752804688273
 30
0.0
 11
106.6661976511338
 21
169.1752804688271
 31
0.0
  0
ARC
  5
57C
330
18
100
AcDbEntity
  8
1
  6
Continuous
100
AcDbCircle
 10
107.5790610156615
 20
204.6855099100114
 30
0.0
 40
1.0
100
AcDbArc
 50
139.7172802086923
 51
180.1442507309408
  0
LINE
  5
57E
330
18
100
AcDbEntity
  8
1
  6
Continuous
100
AcDbLine
 10
125.6161976510068
 20
162.0752804690751
 30
0.0
 11
125.6161976510068
 21
138.4752804690821
 31
0.0
  0
LINE
  5
584
330
18
100
AcDbEntity
  8
1
  6
Continuous
100
AcDbLine
 10
124.1161976510068
 20
138.4752804690821
 30
0.0
 11
124.1161976510027
 21
143.0752804690791
 31
0.0
  0
ARC
  5
585
330
18
100
AcDbEntity
  8
1
  6
Continuous
100
AcDbCircle
 10
124.7737506175241
 20
143.075280468853
 30
0.0
 40
1.0
100
AcDbArc
 50
327.3994296184385
 51
359.8557492690591
  0
LINE
  5
586
330
18
100
AcDbEntity
  8
1
  6
Continuous
100
AcDbLine
 10
125.5200519119233
 20
137.1342749166471
 30
0.0
 11
124.0015495446806
 21
137.1342749166471
 31
0.0
  0
ARC
  5
587
330
18
100
AcDbEntity
  8
1
  6
Continuous
100
AcDbCircle
 10
124.7661976509557
 20
140.0752804688596
 30
0.0
 40
1.0
100
AcDbArc
 50
328.2116693884907
 51
0.0
  0
LINE
  5
588
330
18
100
AcDbEntity
  8
1
  6
Continuous
100
AcDbLine
 10
125.6161976510068
 20
149.0752804690822
 30
0.0
 11
125.7888597199508
 21
149.0752804690822
 31
0.0
  0
LINE
  5
589
330
18
100
AcDbEntity
  8
1
  6
Continuous
100
AcDbLine
 10
125.7661976510067
 20
147.0752804691978
 30
0.0
 11
125.6161976510068
 21
147.0752804691978
 31
0.0
  0
LINE
  5
58A
330
18
100
AcDbEntity
  8
1
  6
Continuous
100
AcDbLine
 10
125.7838244089041
 20
147.0752804685914
 30
0.0
 11
125.6161976509515
 21
147.0752804685914
 31
0.0
  0
LINE
  5
591
330
18
100
AcDbEntity
  8
5
  6
PHANTOM
100
AcDbLine
 10
236.0924917069694
 20
194.6755150538344
 30
0.0
 11
233.6176179728245
 21
197.1503887879793
 31
0.0
  0
LINE
  5
592
330
18
100
AcDbEntity
  8
1
  6
Continuous
100
AcDbLine
 10
125.6161976510068
 20
159.0752804690821
 30
0.0
 11
125.8140362751785
 21
159.0752804690821
 31
0.0
  0
ARC
  5
593
330
18
100
AcDbEntity
  8
1
  6
Continuous
100
AcDbCircle
 10
124.6161976510068
 20
162.0752804690751
 30
0.0
 40
1.0
100
AcDbArc
 50
0.0
 51
90.0
  0
ARC
  5
594
330
18
100
AcDbEntity
  8
1
  6
Continuous
100
AcDbCircle
 10
124.8495445521498
 20
173.1802467521358
 30
0.0
 40
1.0
100
AcDbArc
 50
359.8557492690591
 51
39.94571595070471
  0
LINE
  5
595
330
18
100
AcDbEntity
  8
1
  6
Continuous
100
AcDbLine
 10
125.7661976509631
 20
169.1752804688611
 30
0.0
 11
125.6161976510935
 21
169.1752804688609
 31
0.0
  0
ARC
  5
598
330
18
100
AcDbEntity
  8
1
  6
Continuous
100
AcDbCircle
 10
124.8533342862551
 20
204.6855099100421
 30
0.0
 40
1.0
100
AcDbArc
 50
359.8557492690591
 51
40.28271976665329
  0
ARC
  5
599
330
18
100
AcDbEntity
  8
5
  6
PHANTOM
100
AcDbCircle
 10
235.0318315351976
 20
198.5646023503524
 30
0.0
 40
2.0
100
AcDbArc
 50
135.0000000000002
 51
224.9999999999997
  0
ARC
  5
59D
330
18
100
AcDbEntity
  8
5
  6
PHANTOM
100
AcDbCircle
 10
249.0396247263074
 20
201.9657938236803
 30
0.0
 40
4.0
100
AcDbArc
 50
135.0
 51
214.2157021324363
  0
ARC
  5
59E
330
18
100
AcDbEntity
  8
5
  6
PHANTOM
100
AcDbCircle
 10
242.1276363006777
 20
194.3466986168639
 30
0.0
 40
6.0
100
AcDbArc
 50
315.0
 51
34.21570213243604
  0
LINE
  5
59F
330
18
100
AcDbEntity
  8
5
  6
PHANTOM
100
AcDbLine
 10
243.1726816574691
 20
188.8266624860302
 30
0.0
 11
236.0924917069694
 21
194.6755150538345
 31
0.0
  0
LINE
  5
5A0
330
18
100
AcDbEntity
  8
5
  6
PHANTOM
100
AcDbLine
 10
246.370276987797
 20
190.1040579297445
 30
0.0
 11
245.1886639997435
 21
188.9224449416911
 31
0.0
  0
ARC
  5
5A1
330
18
100
AcDbEntity
  8
5
  6
PHANTOM
100
AcDbCircle
 10
244.1280038279637
 20
189.9831051134709
 30
0.0
 40
1.5
100
AcDbArc
 50
230.4403320310046
 51
315.0
  0
LINE
  5
5A2
330
18
100
AcDbEntity
  8
5
  6
PHANTOM
100
AcDbLine
 10
245.7319187180294
 20
199.7165537380513
 30
0.0
 11
247.0891953130949
 21
197.7205587453076
 31
0.0
  0
LINE
  5
5A3
330
18
100
AcDbEntity
  8
1
  6
Continuous
100
AcDbLine
 10
329.1922571221844
 20
144.575280469089
 30
0.0
 11
329.1922571221844
 21
160.575280469145
 31
0.0
  0
LINE
  5
5A5
330
18
100
AcDbEntity
  8
1
  6
Continuous
100
AcDbLine
 10
302.2922571221851
 20
137.134274916582
 30
0.0
 11
302.2922571221463
 21
162.075280469007
 31
0.0
  0
LINE
  5
5A6
330
18
100
AcDbEntity
  8
1
  6
Continuous
100
AcDbLine
 10
326.6922571221844
 20
136.0752804690576
 30
0.0
 11
326.6922571221844
 21
172.0752804690576
 31
0.0
  0
LINE
  5
5A7
330
18
100
AcDbEntity
  8
1
  6
Continuous
100
AcDbLine
 10
323.6922571221843
 20
173.4855099102086
 30
0.0
 11
323.6922571221843
 21
136.0752804690173
 31
0.0
  0
ARC
  5
5AB
330
18
100
AcDbEntity
  8
1
  6
Continuous
100
AcDbCircle
 10
307.2922571221761
 20
143.0752804690109
 30
0.0
 40
2.0
100
AcDbArc
 50
143.1301023537586
 51
180.0
  0
ARC
  5
5AC
330
18
100
AcDbEntity
  8
1
  6
Continuous
100
AcDbCircle
 10
305.2922571221903
 20
133.8752804690097
 30
0.0
 40
0.2
100
AcDbArc
 50
0.0
 51
90.0
  0
ARC
  5
5AD
330
18
100
AcDbEntity
  8
1
  6
Continuous
100
AcDbCircle
 10
305.2922571221977
 20
129.2752804690098
 30
0.0
 40
0.2
100
AcDbArc
 50
270.0
 51
0.0
  0
LINE
  5
5AE
330
18
100
AcDbEntity
  8
1
  6
Continuous
100
AcDbLine
 10
302.292257122185
 20
137.1342749165818
 30
0.0
 11
300.2922571221952
 21
130.5752804690077
 31
0.0
  0
LINE
  5
5AF
330
18
100
AcDbEntity
  8
1
  6
Continuous
100
AcDbLine
 10
305.2922571221979
 20
129.0752804690098
 30
0.0
 11
305.2922571221761
 21
143.0752804690078
 31
0.0
  0
LINE
  5
5B0
330
18
100
AcDbEntity
  8
1
  6
Continuous
100
AcDbLine
 10
305.2922571221977
 20
129.0752804690098
 30
0.0
 11
301.7922571221967
 21
129.0752804690079
 31
0.0
  0
ARC
  5
5B1
330
18
100
AcDbEntity
  8
1
  6
Continuous
100
AcDbCircle
 10
301.7922571221956
 20
130.5752804690079
 30
0.0
 40
1.5
100
AcDbArc
 50
180.0
 51
270.0
  0
LINE
  5
5B2
330
18
100
AcDbEntity
  8
1
  6
Continuous
100
AcDbLine
 10
305.6922571221897
 20
129.0752804690369
 30
0.0
 11
308.6922571221839
 21
125.0752804690367
 31
0.0
  0
LINE
  5
5B3
330
18
100
AcDbEntity
  8
1
  6
Continuous
100
AcDbLine
 10
308.6922571221875
 20
125.0752804690327
 30
0.0
 11
310.6922571221905
 21
125.0752804690299
 31
0.0
  0
LINE
  5
5B4
330
18
100
AcDbEntity
  8
1
  6
Continuous
100
AcDbLine
 10
305.4922571221977
 20
129.2752804690101
 30
0.0
 11
305.4922571221904
 21
133.87528046901
 31
0.0
  0
LINE
  5
5B5
330
18
100
AcDbEntity
  8
1
  6
Continuous
100
AcDbLine
 10
326.6922571221844
 20
136.0752804690176
 30
0.0
 11
310.6922571220886
 21
136.0752804690153
 31
0.0
  0
ARC
  5
5B6
330
18
100
AcDbEntity
  8
1
  6
Continuous
100
AcDbCircle
 10
328.1922571221843
 20
144.575280469089
 30
0.0
 40
1.0
100
AcDbArc
 50
270.0
 51
0.0
  0
LINE
  5
5B7
330
18
100
AcDbEntity
  8
1
  6
Continuous
100
AcDbLine
 10
326.6922571221844
 20
143.5752804690896
 30
0.0
 11
328.1922571221843
 21
143.5752804690896
 31
0.0
  0
LINE
  5
5B9
330
18
100
AcDbEntity
  8
1
  6
Continuous
100
AcDbLine
 10
305.6922571221843
 20
163.7752804690015
 30
0.0
 11
304.1922571221809
 21
163.7752804690015
 31
0.0
  0
LINE
  5
5BA
330
18
100
AcDbEntity
  8
1
  6
Continuous
100
AcDbLine
 10
305.6922571221843
 20
163.0752804690099
 30
0.0
 11
303.2922571221456
 21
163.0752804690086
 31
0.0
  0
ARC
  5
5BB
330
18
100
AcDbEntity
  8
1
  6
Continuous
100
AcDbCircle
 10
304.1922571221809
 20
165.7752804690016
 30
0.0
 40
2.0
100
AcDbArc
 50
180.0
 51
270.0
  0
ARC
  5
5BC
330
18
100
AcDbEntity
  8
1
  6
Continuous
100
AcDbCircle
 10
303.2922571221463
 20
162.0752804690087
 30
0.0
 40
1.0
100
AcDbArc
 50
90.0
 51
180.0
  0
ARC
  5
5BD
330
18
100
AcDbEntity
  8
1
  6
Continuous
100
AcDbCircle
 10
328.1922571221843
 20
160.575280469145
 30
0.0
 40
1.0
100
AcDbArc
 50
0.0
 51
90.0
  0
LINE
  5
5BE
330
18
100
AcDbEntity
  8
1
  6
Continuous
100
AcDbLine
 10
328.1922571221843
 20
161.575280469145
 30
0.0
 11
326.6922571221821
 21
161.5752804691436
 31
0.0
  0
LINE
  5
5BF
330
18
100
AcDbEntity
  8
1
  6
Continuous
100
AcDbLine
 10
314.1922571221844
 20
177.275280469037
 30
0.0
 11
322.1434739134297
 21
175.4339460542223
 31
0.0
  0
LINE
  5
5C0
330
18
100
AcDbEntity
  8
1
  6
Continuous
100
AcDbLine
 10
314.1922571221841
 20
177.2752804690367
 30
0.0
 11
312.1922571222016
 21
175.2752804690415
 31
0.0
  0
ARC
  5
5C1
330
18
100
AcDbEntity
  8
1
  6
Continuous
100
AcDbCircle
 10
321.6922571221843
 20
173.4855099102086
 30
0.0
 40
2.0
100
AcDbArc
 50
0.0
 51
76.96134341697488
  0
LINE
  5
5C2
330
18
100
AcDbEntity
  8
1
  6
Continuous
100
AcDbLine
 10
326.6922571221793
 20
168.8752804690176
 30
0.0
 11
323.6922571221843
 21
168.8752804690173
 31
0.0
  0
LINE
  5
5C3
330
18
100
AcDbEntity
  8
1
  6
Continuous
100
AcDbLine
 10
323.6922571221839
 20
170.0752804690876
 30
0.0
 11
324.6922571221839
 21
172.0752804690573
 31
0.0
  0
LINE
  5
5C4
330
18
100
AcDbEntity
  8
1
  6
Continuous
100
AcDbLine
 10
324.6922571221844
 20
172.0752804690576
 30
0.0
 11
326.6922571221844
 21
172.0752804690576
 31
0.0
  0
LINE
  5
5C5
330
18
100
AcDbEntity
  8
1
  6
Continuous
100
AcDbLine
 10
346.4778557279507
 20
178.7752804691281
 30
0.0
 11
352.2778557279561
 21
178.7752804691306
 31
0.0
  0
LINE
  5
5C6
330
18
100
AcDbEntity
  8
4
  6
CENTER
100
AcDbLine
 10
343.7185773982978
 20
198.7752804691187
 30
0.0
 11
359.687466247054
 21
198.7752804691236
 31
0.0
  0
LINE
  5
5C8
330
18
100
AcDbEntity
  8
1
  6
Continuous
100
AcDbLine
 10
353.5778557279684
 20
203.3752804691225
 30
0.0
 11
353.5778557279684
 21
194.1752804691224
 31
0.0
  0
LINE
  5
5CC
330
18
100
AcDbEntity
  8
1
  6
Continuous
100
AcDbLine
 10
353.5778557279686
 20
198.7752804691219
 30
0.0
 11
352.2778557279683
 21
197.6844509485914
 31
0.0
  0
LINE
  5
5CD
330
18
100
AcDbEntity
  8
1
  6
Continuous
100
AcDbLine
 10
353.5778557279684
 20
194.1752804691224
 30
0.0
 11
352.2778557279683
 21
194.1752804691224
 31
0.0
  0
ARC
  5
5CE
330
18
100
AcDbEntity
  8
1
  6
Continuous
100
AcDbCircle
 10
354.8999050076597
 20
195.9970565337981
 30
0.0
 40
1.6
100
AcDbArc
 50
274.9999999999997
 51
344.5060324994781
  0
LINE
  5
5CF
330
18
100
AcDbEntity
  8
1
  6
Continuous
100
AcDbLine
 10
353.5778557279686
 20
194.2752804691225
 30
0.0
 11
355.0393541961048
 21
194.4031450168449
 31
0.0
  0
LINE
  5
5D2
330
18
100
AcDbEntity
  8
1
  6
Continuous
100
AcDbLine
 10
353.5778557279684
 20
203.3752804691225
 30
0.0
 11
352.2778557279683
 21
203.3752804691225
 31
0.0
  0
ARC
  5
5D3
330
18
100
AcDbEntity
  8
1
  6
Continuous
100
AcDbCircle
 10
354.8999050076426
 20
201.5535044044428
 30
0.0
 40
1.6
100
AcDbArc
 50
15.49396750052177
 51
85.00000000000019
  0
LINE
  5
5D4
330
18
100
AcDbEntity
  8
1
  6
Continuous
100
AcDbLine
 10
353.5778557279686
 20
203.2752804691225
 30
0.0
 11
355.0393541960639
 21
203.1474159214037
 31
0.0
  0
ARC
  5
5D5
330
18
100
AcDbEntity
  8
1
  6
Continuous
100
AcDbCircle
 10
116.2161976509601
 20
269.5252804690595
 30
0.0
 40
9.75
100
AcDbArc
 50
359.8557492690591
 51
180.1442507309408
  0
LINE
  5
5D7
330
18
100
AcDbEntity
  8
4
  6
CENTER
100
AcDbLine
 10
116.2161976509601
 20
269.2752804686183
 30
0.0
 11
212.0320711319513
 21
213.955960121787
 31
0.0
  0
LINE
  5
5D8
330
18
100
AcDbEntity
  8
5
  6
PHANTOM
100
AcDbLine
 10
111.5161976504006
 20
261.1346416727627
 30
0.0
 11
201.1498269422284
 21
209.38464167344
 31
0.0
  0
LINE
  5
5D9
330
18
100
AcDbEntity
  8
5
  6
PHANTOM
100
AcDbLine
 10
120.9161976504024
 20
277.4159192639091
 30
0.0
 11
210.5498716882929
 21
225.6658934296645
 31
0.0
  0
LINE
  5
5DA
330
18
100
AcDbEntity
  8
4
  6
CENTER
100
AcDbLine
 10
135.7217532855748
 20
269.2752804690595
 30
0.0
 11
96.93693931809812
 21
269.2752804690595
 31
0.0
  0
ARC
  5
5DB
330
18
100
AcDbEntity
  8
1
  6
Continuous
100
AcDbCircle
 10
116.2161976503432
 20
277.0752804690594
 30
0.0
 40
12.0
100
AcDbArc
 50
0.0
 51
180.0
  0
ARC
  5
5DC
330
18
100
AcDbEntity
  8
1
  6
Continuous
100
AcDbCircle
 10
116.2161976503432
 20
277.0752804690594
 30
0.0
 40
16.0
100
AcDbArc
 50
0.0
 51
180.0
  0
LINE
  5
5DF
330
18
100
AcDbEntity
  8
4
  6
CENTER
100
AcDbLine
 10
116.2161976509632
 20
269.2752804686183
 30
0.0
 11
21.00818718471975
 21
214.3069099969957
 31
0.0
  0
LINE
  5
5E1
330
18
100
AcDbEntity
  8
1
  6
Continuous
100
AcDbLine
 10
107.2161976509602
 20
266.446853343861
 30
0.0
 11
107.2161976509602
 21
265.3861931721039
 31
0.0
  0
LINE
  5
5E2
330
18
100
AcDbEntity
  8
1
  6
Continuous
100
AcDbLine
 10
107.2161976509602
 20
265.3861931721038
 30
0.0
 11
106.8161976509602
 21
256.3688476226233
 31
0.0
  0
ARC
  5
5E3
330
18
100
AcDbEntity
  8
1
  6
Continuous
100
AcDbCircle
 10
112.4757446474322
 20
264.7752804690595
 30
0.0
 40
6.0
100
AcDbArc
 50
180.1152346920688
 51
205.7884987792734
  0
LINE
  5
5EA
330
18
100
AcDbEntity
  8
1
  6
Continuous
100
AcDbLine
 10
125.2161976509601
 20
266.446853343861
 30
0.0
 11
125.2161976509601
 21
265.3861931721043
 31
0.0
  0
LINE
  5
5EB
330
18
100
AcDbEntity
  8
1
  6
Continuous
100
AcDbLine
 10
125.2161976509601
 20
265.3861931721043
 30
0.0
 11
125.6161976509603
 21
256.3688476226234
 31
0.0
  0
ARC
  5
5EC
330
18
100
AcDbEntity
  8
1
  6
Continuous
100
AcDbCircle
 10
119.9566506544877
 20
264.7752804690596
 30
0.0
 40
6.0
100
AcDbArc
 50
334.2115012207382
 51
359.8847653079295
  0
LINE
  5
5ED
330
18
100
AcDbEntity
  8
1
  6
Continuous
100
AcDbLine
 10
318.4922571221767
 20
255.875280469023
 30
0.0
 11
318.4922571221767
 21
282.6752804690215
 31
0.0
  0
ARC
  5
5EE
330
18
100
AcDbEntity
  8
1
  6
Continuous
100
AcDbCircle
 10
329.7922571221767
 20
282.1752804690238
 30
0.0
 40
0.5
100
AcDbArc
 50
0.0
 51
90.0
  0
ARC
  5
5F0
330
18
100
AcDbEntity
  8
5
  6
PHANTOM
100
AcDbCircle
 10
332.2922571221766
 20
282.2616160695123
 30
0.0
 40
0.5
100
AcDbArc
 50
0.0
 51
90.0
  0
LINE
  5
5F1
330
18
100
AcDbEntity
  8
4
  6
CENTER
100
AcDbLine
 10
314.3080492067486
 20
269.2752804690221
 30
0.0
 11
337.7309635294892
 21
269.2752804690222
 31
0.0
  0
LINE
  5
5F2
330
18
100
AcDbEntity
  8
1
  6
Continuous
100
AcDbLine
 10
318.4922571221767
 20
255.875280469023
 30
0.0
 11
329.7922571221763
 21
255.8752804690191
 31
0.0
  0
ARC
  5
5F3
330
18
100
AcDbEntity
  8
1
  6
Continuous
100
AcDbCircle
 10
307.692257122173
 20
269.2752804690016
 30
0.0
 40
9.4
100
AcDbArc
 50
102.8650719958548
 51
112.9933943142978
  0
LINE
  5
5F4
330
18
100
AcDbEntity
  8
5
  6
PHANTOM
100
AcDbLine
 10
302.192257122173
 20
259.8752804691205
 30
0.0
 11
301.2922571222741
 21
259.8752804691233
 31
0.0
  0
ARC
  5
5F5
330
18
100
AcDbEntity
  8
1
  6
Continuous
100
AcDbCircle
 10
305.1922571221731
 20
275.1667997976637
 30
0.0
 40
3.0
100
AcDbArc
 50
112.9933943142975
 51
180.0
  0
LINE
  5
5F6
330
18
100
AcDbEntity
  8
1
  6
Continuous
100
AcDbLine
 10
317.6922571221766
 20
256.7752804690222
 30
0.0
 11
314.1922571221766
 21
256.7752804690222
 31
0.0
  0
ARC
  5
5F7
330
18
100
AcDbEntity
  8
1
  6
Continuous
100
AcDbCircle
 10
317.6922571221766
 20
257.7752804690222
 30
0.0
 40
1.0
100
AcDbArc
 50
270.0
 51
323.1301023541624
  0
LINE
  5
5F8
330
18
100
AcDbEntity
  8
1
  6
Continuous
100
AcDbLine
 10
317.6922571221764
 20
282.0752804690018
 30
0.0
 11
310.6922571220809
 21
282.0752804690008
 31
0.0
  0
LINE
  5
5F9
330
18
100
AcDbEntity
  8
1
  6
Continuous
100
AcDbLine
 10
312.6922571221766
 20
281.0752804690009
 30
0.0
 11
312.6922571221766
 21
269.2752804690222
 31
0.0
  0
LINE
  5
5FA
330
18
100
AcDbEntity
  8
1
  6
Continuous
100
AcDbLine
 10
305.6922571221766
 20
278.3463482808632
 30
0.0
 11
305.5992921163177
 21
278.4393132867222
 31
0.0
  0
ARC
  5
5FB
330
18
100
AcDbEntity
  8
1
  6
Continuous
100
AcDbCircle
 10
311.6922571221766
 20
281.0752804690009
 30
0.0
 40
1.0
100
AcDbArc
 50
0.0
 51
90.0
  0
ARC
  5
5FC
330
18
100
AcDbEntity
  8
1
  6
Continuous
100
AcDbCircle
 10
317.6922571221766
 20
281.0752804690018
 30
0.0
 40
1.0
100
AcDbArc
 50
36.86989764583751
 51
90.0
  0
LINE
  5
5FD
330
18
100
AcDbEntity
  8
4
  6
CENTER
100
AcDbLine
 10
343.7185773983336
 20
238.7752804691187
 30
0.0
 11
359.5673932334366
 21
238.7752804691236
 31
0.0
  0
LINE
  5
5FF
330
18
100
AcDbEntity
  8
1
  6
Continuous
100
AcDbLine
 10
353.5778557280041
 20
243.3752804691225
 30
0.0
 11
353.5778557280041
 21
234.1752804691225
 31
0.0
  0
LINE
  5
605
330
18
100
AcDbEntity
  8
1
  6
Continuous
100
AcDbLine
 10
353.5778557280043
 20
239.8661099896518
 30
0.0
 11
352.2778557280042
 21
238.7752804691213
 31
0.0
  0
LINE
  5
606
330
18
100
AcDbEntity
  8
1
  6
Continuous
100
AcDbLine
 10
353.5778557280041
 20
234.1752804691225
 30
0.0
 11
352.2778557280042
 21
234.1752804691225
 31
0.0
  0
ARC
  5
607
330
18
100
AcDbEntity
  8
1
  6
Continuous
100
AcDbCircle
 10
354.8999050076954
 20
235.9970565337981
 30
0.0
 40
1.6
100
AcDbArc
 50
274.9999999999997
 51
344.5060324994781
  0
LINE
  5
608
330
18
100
AcDbEntity
  8
1
  6
Continuous
100
AcDbLine
 10
353.5778557280041
 20
234.2752804691225
 30
0.0
 11
355.0393541961405
 21
234.403145016845
 31
0.0
  0
LINE
  5
609
330
18
100
AcDbEntity
  8
1
  6
Continuous
100
AcDbLine
 10
353.5778557280041
 20
243.3752804691225
 30
0.0
 11
352.2778557280042
 21
243.3752804691225
 31
0.0
  0
ARC
  5
60A
330
18
100
AcDbEntity
  8
1
  6
Continuous
100
AcDbCircle
 10
354.8999050076783
 20
241.5535044044429
 30
0.0
 40
1.6
100
AcDbArc
 50
15.49396750052177
 51
85.00000000000019
  0
LINE
  5
60B
330
18
100
AcDbEntity
  8
1
  6
Continuous
100
AcDbLine
 10
353.5778557280041
 20
243.2752804691226
 30
0.0
 11
355.0393541960994
 21
243.1474159214038
 31
0.0
  0
LINE
  5
60C
330
18
100
AcDbEntity
  8
1
  6
Continuous
100
AcDbLine
 10
330.2922571221766
 20
256.3752804690194
 30
0.0
 11
330.2922571221766
 21
282.1752804690238
 31
0.0
  0
LINE
  5
60D
330
18
100
AcDbEntity
  8
5
  6
PHANTOM
100
AcDbLine
 10
332.7922571221766
 20
256.3752804690191
 30
0.0
 11
332.7922571221766
 21
282.2616160695123
 31
0.0
  0
LINE
  5
60E
330
18
100
AcDbEntity
  8
1
  6
Continuous
100
AcDbLine
 10
332.2922571221766
 20
265.2752804693261
 30
0.0
 11
332.2922571221766
 21
273.2752804693263
 31
0.0
  0
LINE
  5
60F
330
18
100
AcDbEntity
  8
1
  6
Continuous
100
AcDbLine
 10
346.477855728021
 20
259.2752804691435
 30
0.0
 11
352.2778557280066
 21
259.2752804691461
 31
0.0
  0
ARC
  5
610
330
18
100
AcDbEntity
  8
1
  6
Continuous
100
AcDbCircle
 10
329.7922571221767
 20
256.3752804690194
 30
0.0
 40
0.5
100
AcDbArc
 50
270.0
 51
0.0
  0
ARC
  5
611
330
18
100
AcDbEntity
  8
5
  6
PHANTOM
100
AcDbCircle
 10
332.2922571221766
 20
256.3752804690191
 30
0.0
 40
0.5
100
AcDbArc
 50
270.0
 51
0.0
  0
LINE
  5
612
330
18
100
AcDbEntity
  8
1
  6
Continuous
100
AcDbLine
 10
332.2922571221766
 20
265.4311003414254
 30
0.0
 11
330.2922571217912
 21
265.4311003414256
 31
0.0
  0
LINE
  5
613
330
18
100
AcDbEntity
  8
1
  6
Continuous
100
AcDbLine
 10
332.2922571221766
 20
265.275280469326
 30
0.0
 11
330.2922571221768
 21
265.275280469326
 31
0.0
  0
LINE
  5
614
330
18
100
AcDbEntity
  8
5
  6
PHANTOM
100
AcDbLine
 10
332.7922571221766
 20
267.2752804689467
 30
0.0
 11
334.2922571221763
 21
267.2752804689462
 31
0.0
  0
LINE
  5
615
330
18
100
AcDbEntity
  8
5
  6
PHANTOM
100
AcDbLine
 10
332.792257122178
 20
271.2752804689467
 30
0.0
 11
334.2922571221768
 21
271.2752804689462
 31
0.0
  0
LINE
  5
616
330
18
100
AcDbEntity
  8
1
  6
Continuous
100
AcDbLine
 10
332.2922571221766
 20
273.1194605966184
 30
0.0
 11
330.2922571217912
 21
273.1194605966181
 31
0.0
  0
LINE
  5
617
330
18
100
AcDbEntity
  8
1
  6
Continuous
100
AcDbLine
 10
332.2922571221766
 20
273.2752804693264
 30
0.0
 11
330.2922571221766
 21
273.2752804693264
 31
0.0
  0
LINE
  5
618
330
18
100
AcDbEntity
  8
1
  6
Continuous
100
AcDbLine
 10
330.292257122178
 20
271.2752804689467
 30
0.0
 11
331.7922571221768
 21
271.275280468946
 31
0.0
  0
ARC
  5
619
330
18
100
AcDbEntity
  8
1
  6
Continuous
100
AcDbCircle
 10
331.7922571221767
 20
270.7752804689461
 30
0.0
 40
0.5
100
AcDbArc
 50
0.0
 51
90.0
  0
ARC
  5
61A
330
18
100
AcDbEntity
  8
1
  6
Continuous
100
AcDbCircle
 10
331.7922571221767
 20
267.7752804689461
 30
0.0
 40
0.5
100
AcDbArc
 50
270.0
 51
0.0
  0
LINE
  5
61B
330
18
100
AcDbEntity
  8
1
  6
Continuous
100
AcDbLine
 10
330.2922571221766
 20
267.2752804689467
 30
0.0
 11
331.7922571221763
 21
267.275280468946
 31
0.0
  0
ARC
  5
61C
330
18
100
AcDbEntity
  8
5
  6
PHANTOM
100
AcDbCircle
 10
334.2922571221766
 20
267.7752804689461
 30
0.0
 40
0.5
100
AcDbArc
 50
270.0
 51
0.0
  0
LINE
  5
61D
330
18
100
AcDbEntity
  8
5
  6
PHANTOM
100
AcDbLine
 10
334.7922571221766
 20
267.7752804689461
 30
0.0
 11
334.7922571221766
 21
270.7752804689461
 31
0.0
  0
ARC
  5
61E
330
18
100
AcDbEntity
  8
5
  6
PHANTOM
100
AcDbCircle
 10
334.2922571221766
 20
270.7752804689461
 30
0.0
 40
0.5
100
AcDbArc
 50
0.0
 51
90.0
  0
LINE
  5
61F
330
18
100
AcDbEntity
  8
1
  6
Continuous
100
AcDbLine
 10
370.051858128731
 20
275.2752804694213
 30
0.0
 11
370.051858128731
 21
263.2752804694214
 31
0.0
  0
LINE
  5
620
330
18
100
AcDbEntity
  8
1
  6
Continuous
100
AcDbLine
 10
371.3518581287312
 20
273.8752804694213
 30
0.0
 11
371.3518581287312
 21
264.6752804694212
 31
0.0
  0
ARC
  5
621
330
18
100
AcDbEntity
  8
1
  6
Continuous
100
AcDbCircle
 10
372.6739074084225
 20
266.4970565340969
 30
0.0
 40
1.6
100
AcDbArc
 50
274.9999999999997
 51
344.5060324994781
  0
LINE
  5
622
330
18
100
AcDbEntity
  8
1
  6
Continuous
100
AcDbLine
 10
369.251858128731
 20
275.2752804694213
 30
0.0
 11
369.251858128731
 21
263.2752804694214
 31
0.0
  0
LINE
  5
623
330
18
100
AcDbEntity
  8
1
  6
Continuous
100
AcDbLine
 10
371.3518581287312
 20
264.6752804694212
 30
0.0
 11
370.051858128731
 21
264.6752804694212
 31
0.0
  0
LINE
  5
624
330
18
100
AcDbEntity
  8
1
  6
Continuous
100
AcDbLine
 10
370.051858128731
 20
263.2752804694213
 30
0.0
 11
369.251858128731
 21
263.2752804694213
 31
0.0
  0
LINE
  5
625
330
18
100
AcDbEntity
  8
1
  6
Continuous
100
AcDbLine
 10
371.3518581287312
 20
264.7752804694213
 30
0.0
 11
372.8133565968676
 21
264.9031450171438
 31
0.0
  0
LINE
  5
627
330
18
100
AcDbEntity
  8
1
  6
Continuous
100
AcDbLine
 10
371.3518581287312
 20
270.3661099899518
 30
0.0
 11
370.051858128731
 21
269.2752804694213
 31
0.0
  0
LINE
  5
628
330
18
100
AcDbEntity
  8
1
  6
Continuous
100
AcDbLine
 10
371.3518581287312
 20
273.8752804694213
 30
0.0
 11
370.051858128731
 21
273.8752804694213
 31
0.0
  0
LINE
  5
62E
330
18
100
AcDbEntity
  8
1
  6
Continuous
100
AcDbLine
 10
370.051858128731
 20
275.2752804694213
 30
0.0
 11
369.251858128731
 21
275.2752804694213
 31
0.0
  0
ARC
  5
62F
330
18
100
AcDbEntity
  8
1
  6
Continuous
100
AcDbCircle
 10
372.6739074084052
 20
272.0535044047417
 30
0.0
 40
1.6
100
AcDbArc
 50
15.49396750052177
 51
85.00000000000019
  0
LINE
  5
630
330
18
100
AcDbEntity
  8
1
  6
Continuous
100
AcDbLine
 10
371.3518581287312
 20
273.7752804694215
 30
0.0
 11
372.8133565968264
 21
273.6474159217026
 31
0.0
  0
ARC
  5
631
330
18
100
AcDbEntity
  8
1
  6
Continuous
100
AcDbCircle
 10
362.6518581287311
 20
269.2752804694213
 30
0.0
 40
12.0
100
AcDbArc
 50
344.5060324994781
 51
15.49396750052177
  0
LINE
  5
632
330
18
100
AcDbEntity
  8
1
  6
Continuous
100
AcDbLine
 10
318.4922571221767
 20
282.6752804690215
 30
0.0
 11
329.7922571221767
 21
282.6752804690237
 31
0.0
  0
LINE
  5
633
330
18
100
AcDbEntity
  8
1
  6
Continuous
100
AcDbLine
 10
308.6922571221766
 20
293.0752804690222
 30
0.0
 11
305.692257122183
 21
289.0752804690222
 31
0.0
  0
LINE
  5
634
330
18
100
AcDbEntity
  8
1
  6
Continuous
100
AcDbLine
 10
308.69225712218
 20
293.0752804690267
 30
0.0
 11
310.6922571221682
 21
293.0752804690299
 31
0.0
  0
LINE
  5
635
330
18
100
AcDbEntity
  8
1
  6
Continuous
100
AcDbLine
 10
471.852958762515
 20
259.2752804690489
 30
0.0
 11
471.8529587624863
 21
178.7752804690304
 31
0.0
  0
LINE
  5
636
330
18
100
AcDbEntity
  8
1
  6
Continuous
100
AcDbLine
 10
440.2529587625148
 20
259.2752804690613
 30
0.0
 11
440.2529587624862
 21
178.7752804690613
 31
0.0
  0
LINE
  5
637
330
18
100
AcDbEntity
  8
1
  6
Continuous
100
AcDbLine
 10
477.0529587625897
 20
256.2752804690282
 30
0.0
 11
477.0529587625923
 21
181.7752804690284
 31
0.0
  0
LINE
  5
638
330
18
100
AcDbEntity
  8
1
  6
Continuous
100
AcDbLine
 10
435.0529587625893
 20
256.2752804690635
 30
0.0
 11
435.0529587625923
 21
181.7752804690634
 31
0.0
  0
LINE
  5
639
330
18
100
AcDbEntity
  8
4
  6
CENTER
100
AcDbLine
 10
456.0529587626695
 20
121.5199405557831
 30
0.0
 11
456.0529587624508
 21
296.0627803201762
 31
0.0
  0
LINE
  5
63D
330
18
100
AcDbEntity
  8
1
  6
Continuous
100
AcDbLine
 10
463.5529587626668
 20
145.5752804693398
 30
0.0
 11
463.5529587626668
 21
159.5752804693425
 31
0.0
  0
LINE
  5
63E
330
18
100
AcDbEntity
  8
1
  6
Continuous
100
AcDbLine
 10
448.552958762637
 20
145.5752804693487
 30
0.0
 11
448.5529587626992
 21
159.5752804693514
 31
0.0
  0
LINE
  5
63F
330
18
100
AcDbEntity
  8
1
  6
Continuous
100
AcDbLine
 10
468.8529587625977
 20
178.7752804690334
 30
0.0
 11
468.8529587626304
 21
139.0752804693476
 31
0.0
  0
LINE
  5
640
330
18
100
AcDbEntity
  8
1
  6
Continuous
100
AcDbLine
 10
443.2529587625976
 20
178.7752804690584
 30
0.0
 11
443.2529587626303
 21
139.0752804693343
 31
0.0
  0
LINE
  5
641
330
18
100
AcDbEntity
  8
1
  6
Continuous
100
AcDbLine
 10
472.0529587617884
 20
141.075280469341
 30
0.0
 11
472.0529587617884
 21
178.7752804690301
 31
0.0
  0
LINE
  5
642
330
18
100
AcDbEntity
  8
1
  6
Continuous
100
AcDbLine
 10
440.0529587617884
 20
178.7752804690615
 30
0.0
 11
440.0529587617884
 21
141.075280469341
 31
0.0
  0
LINE
  5
643
330
18
100
AcDbEntity
  8
1
  6
Continuous
100
AcDbLine
 10
443.3529587624356
 20
167.875280469341
 30
0.0
 11
443.3529587624356
 21
139.075280469341
 31
0.0
  0
LINE
  5
644
330
18
100
AcDbEntity
  8
1
  6
Continuous
100
AcDbLine
 10
468.7529587624358
 20
139.075280469341
 30
0.0
 11
468.7529587624358
 21
167.875280469341
 31
0.0
  0
ARC
  5
645
330
18
100
AcDbEntity
  8
1
  6
Continuous
100
AcDbCircle
 10
456.0529587617884
 20
141.075280469341
 30
0.0
 40
15.99999999999994
100
AcDbArc
 50
180.0
 51
0.0
  0
ARC
  5
646
330
18
100
AcDbEntity
  8
1
  6
Continuous
100
AcDbCircle
 10
465.0529587626306
 20
139.075280469341
 30
0.0
 40
1.3
100
AcDbArc
 50
163.3282509640196
 51
196.6717490359757
  0
CIRCLE
  5
647
330
18
100
AcDbEntity
  8
1
  6
Continuous
100
AcDbCircle
 10
465.0529587626306
 20
139.075280469341
 30
0.0
 40
2.6
  0
ARC
  5
648
330
18
100
AcDbEntity
  8
1
  6
Continuous
100
AcDbCircle
 10
461.5529587626648
 20
145.5752804693398
 30
0.0
 40
2.0
100
AcDbArc
 50
270.0
 51
0.0
  0
LINE
  5
649
330
18
100
AcDbEntity
  8
4
  6
CENTER
100
AcDbLine
 10
460.7529587626303
 20
139.075280469341
 30
0.0
 11
469.3529587626304
 21
139.075280469341
 31
0.0
  0
CIRCLE
  5
64A
330
18
100
AcDbEntity
  8
1
  6
Continuous
100
AcDbCircle
 10
465.0529587626306
 20
139.075280469341
 30
0.0
 40
2.799999999999998
  0
LINE
  5
64B
330
18
100
AcDbEntity
  8
1
  6
Continuous
100
AcDbLine
 10
446.3529587624356
 20
136.075280469341
 30
0.0
 11
465.7529587624358
 21
136.075280469341
 31
0.0
  0
LINE
  5
64C
330
18
100
AcDbEntity
  8
4
  6
CENTER
100
AcDbLine
 10
447.0529587626306
 20
143.375280469341
 30
0.0
 11
447.0529587626306
 21
134.7752804693409
 31
0.0
  0
LINE
  5
64D
330
18
100
AcDbEntity
  8
1
  6
Continuous
100
AcDbLine
 10
450.5529587626317
 20
143.5752804693398
 30
0.0
 11
461.5529587626648
 21
143.5752804693398
 31
0.0
  0
LINE
  5
64E
330
18
100
AcDbEntity
  8
1
  6
Continuous
100
AcDbLine
 10
446.5532082366965
 20
138.5755299434071
 30
0.0
 11
446.2872233699865
 21
138.6939540359243
 31
0.0
  0
LINE
  5
64F
330
18
100
AcDbEntity
  8
1
  6
Continuous
100
AcDbLine
 10
446.5532082366968
 20
139.5750309952749
 30
0.0
 11
446.2872233699868
 21
139.4566069027578
 31
0.0
  0
CIRCLE
  5
650
330
18
100
AcDbEntity
  8
1
  6
Continuous
100
AcDbCircle
 10
447.0529587626306
 20
139.075280469341
 30
0.0
 40
2.6
  0
CIRCLE
  5
651
330
18
100
AcDbEntity
  8
1
  6
Continuous
100
AcDbCircle
 10
447.0529587626306
 20
139.075280469341
 30
0.0
 40
2.799999999999998
  0
LINE
  5
652
330
18
100
AcDbEntity
  8
4
  6
CENTER
100
AcDbLine
 10
442.7529587626303
 20
139.075280469341
 30
0.0
 11
451.3529587626305
 21
139.075280469341
 31
0.0
  0
ARC
  5
653
330
18
100
AcDbEntity
  8
1
  6
Continuous
100
AcDbCircle
 10
447.0529587626306
 20
139.075280469341
 30
0.0
 40
1.3
100
AcDbArc
 50
163.3282509640196
 51
196.6717490359757
  0
LINE
  5
654
330
18
100
AcDbEntity
  8
1
  6
Continuous
100
AcDbLine
 10
446.2872233699868
 20
138.6939540359242
 30
0.0
 11
445.8076054743213
 21
138.7023257974336
 31
0.0
  0
LINE
  5
655
330
18
100
AcDbEntity
  8
1
  6
Continuous
100
AcDbLine
 10
446.2872233699865
 20
139.4566069027577
 30
0.0
 11
445.8076054743212
 21
139.4482351412482
 31
0.0
  0
ARC
  5
656
330
18
100
AcDbEntity
  8
1
  6
Continuous
100
AcDbCircle
 10
446.3529587624356
 20
139.075280469341
 30
0.0
 40
3.0
100
AcDbArc
 50
180.0
 51
270.0
  0
ARC
  5
657
330
18
100
AcDbEntity
  8
1
  6
Continuous
100
AcDbCircle
 10
446.2529587626304
 20
139.075280469341
 30
0.0
 40
3.0
100
AcDbArc
 50
180.0
 51
270.0
  0
ARC
  5
658
330
18
100
AcDbEntity
  8
1
  6
Continuous
100
AcDbCircle
 10
447.0529587626306
 20
139.075280469341
 30
0.0
 40
1.3
100
AcDbArc
 50
73.32825096401609
 51
106.6717490359839
  0
ARC
  5
659
330
18
100
AcDbEntity
  8
1
  6
Continuous
100
AcDbCircle
 10
447.0529587626306
 20
139.075280469341
 30
0.0
 40
1.3
100
AcDbArc
 50
253.3282509640092
 51
286.6717490359766
  0
ARC
  5
65A
330
18
100
AcDbEntity
  8
1
  6
Continuous
100
AcDbCircle
 10
447.0529587626306
 20
139.075280469341
 30
0.0
 40
1.3
100
AcDbArc
 50
343.3282509640044
 51
16.67174903597494
  0
LINE
  5
65B
330
18
100
AcDbEntity
  8
1
  6
Continuous
100
AcDbLine
 10
446.5532082366965
 20
138.5755299434071
 30
0.0
 11
446.6716323292136
 21
138.3095450766975
 31
0.0
  0
LINE
  5
65C
330
18
100
AcDbEntity
  8
1
  6
Continuous
100
AcDbLine
 10
446.6716323292136
 20
138.3095450766975
 30
0.0
 11
446.6800040907233
 21
137.8299271810318
 31
0.0
  0
LINE
  5
65D
330
18
100
AcDbEntity
  8
1
  6
Continuous
100
AcDbLine
 10
447.4342851960471
 20
138.3095450766971
 30
0.0
 11
447.4259134345376
 21
137.8299271810318
 31
0.0
  0
LINE
  5
65E
330
18
100
AcDbEntity
  8
1
  6
Continuous
100
AcDbLine
 10
447.5527092885645
 20
138.575529943407
 30
0.0
 11
447.4342851960471
 21
138.3095450766969
 31
0.0
  0
LINE
  5
65F
330
18
100
AcDbEntity
  8
1
  6
Continuous
100
AcDbLine
 10
447.5527092885648
 20
138.5755299434072
 30
0.0
 11
447.8186941552743
 21
138.6939540359243
 31
0.0
  0
LINE
  5
660
330
18
100
AcDbEntity
  8
1
  6
Continuous
100
AcDbLine
 10
447.8186941552743
 20
138.6939540359241
 30
0.0
 11
448.29831205094
 21
138.7023257974337
 31
0.0
  0
LINE
  5
661
330
18
100
AcDbEntity
  8
1
  6
Continuous
100
AcDbLine
 10
447.8186941552743
 20
139.4566069027575
 30
0.0
 11
448.2983120509395
 21
139.448235141248
 31
0.0
  0
LINE
  5
662
330
18
100
AcDbEntity
  8
1
  6
Continuous
100
AcDbLine
 10
447.5527092885648
 20
139.5750309952748
 30
0.0
 11
447.8186941552743
 21
139.4566069027576
 31
0.0
  0
LINE
  5
663
330
18
100
AcDbEntity
  8
1
  6
Continuous
100
AcDbLine
 10
447.5527092885648
 20
139.575030995275
 30
0.0
 11
447.4342851960478
 21
139.8410158619847
 31
0.0
  0
LINE
  5
664
330
18
100
AcDbEntity
  8
1
  6
Continuous
100
AcDbLine
 10
447.4342851960478
 20
139.8410158619846
 30
0.0
 11
447.425913434538
 21
140.3206337576503
 31
0.0
  0
LINE
  5
665
330
18
100
AcDbEntity
  8
1
  6
Continuous
100
AcDbLine
 10
446.6716323292138
 20
139.8410158619844
 30
0.0
 11
446.6800040907233
 21
140.3206337576502
 31
0.0
  0
LINE
  5
666
330
18
100
AcDbEntity
  8
1
  6
Continuous
100
AcDbLine
 10
446.5532082366968
 20
139.575030995275
 30
0.0
 11
446.6716323292138
 21
139.8410158619845
 31
0.0
  0
ARC
  5
667
330
18
100
AcDbEntity
  8
1
  6
Continuous
100
AcDbCircle
 10
450.5529587626317
 20
145.5752804693398
 30
0.0
 40
2.0
100
AcDbArc
 50
180.0
 51
270.0
  0
LINE
  5
668
330
18
100
AcDbEntity
  8
4
  6
CENTER
100
AcDbLine
 10
465.0529587626306
 20
143.375280469341
 30
0.0
 11
465.0529587626306
 21
134.7752804693409
 31
0.0
  0
ARC
  5
669
330
18
100
AcDbEntity
  8
1
  6
Continuous
100
AcDbCircle
 10
465.0529587626306
 20
139.075280469341
 30
0.0
 40
1.3
100
AcDbArc
 50
73.32825096401609
 51
106.6717490359839
  0
ARC
  5
66A
330
18
100
AcDbEntity
  8
1
  6
Continuous
100
AcDbCircle
 10
465.0529587626306
 20
139.075280469341
 30
0.0
 40
1.3
100
AcDbArc
 50
253.3282509640092
 51
286.6717490359766
  0
ARC
  5
66B
330
18
100
AcDbEntity
  8
1
  6
Continuous
100
AcDbCircle
 10
465.0529587626306
 20
139.075280469341
 30
0.0
 40
1.3
100
AcDbArc
 50
343.3282509640044
 51
16.67174903597494
  0
LINE
  5
66C
330
18
100
AcDbEntity
  8
1
  6
Continuous
100
AcDbLine
 10
464.2872233699866
 20
138.6939540359242
 30
0.0
 11
463.8076054743215
 21
138.7023257974336
 31
0.0
  0
LINE
  5
66D
330
18
100
AcDbEntity
  8
1
  6
Continuous
100
AcDbLine
 10
464.5532082366968
 20
138.5755299434071
 30
0.0
 11
464.2872233699868
 21
138.6939540359244
 31
0.0
  0
LINE
  5
66E
330
18
100
AcDbEntity
  8
1
  6
Continuous
100
AcDbLine
 10
464.5532082366965
 20
138.5755299434071
 30
0.0
 11
464.6716323292137
 21
138.3095450766975
 31
0.0
  0
LINE
  5
66F
330
18
100
AcDbEntity
  8
1
  6
Continuous
100
AcDbLine
 10
464.6716323292137
 20
138.3095450766975
 30
0.0
 11
464.6800040907232
 21
137.8299271810318
 31
0.0
  0
LINE
  5
670
330
18
100
AcDbEntity
  8
1
  6
Continuous
100
AcDbLine
 10
465.4342851960469
 20
138.3095450766971
 30
0.0
 11
465.4259134345377
 21
137.8299271810317
 31
0.0
  0
LINE
  5
671
330
18
100
AcDbEntity
  8
1
  6
Continuous
100
AcDbLine
 10
465.552709288564
 20
138.5755299434068
 30
0.0
 11
465.4342851960469
 21
138.3095450766968
 31
0.0
  0
LINE
  5
672
330
18
100
AcDbEntity
  8
1
  6
Continuous
100
AcDbLine
 10
465.5527092885645
 20
138.575529943407
 30
0.0
 11
465.818694155274
 21
138.693954035924
 31
0.0
  0
LINE
  5
673
330
18
100
AcDbEntity
  8
1
  6
Continuous
100
AcDbLine
 10
465.8186941552742
 20
138.6939540359241
 30
0.0
 11
466.29831205094
 21
138.7023257974337
 31
0.0
  0
LINE
  5
674
330
18
100
AcDbEntity
  8
1
  6
Continuous
100
AcDbLine
 10
465.8186941552742
 20
139.4566069027576
 30
0.0
 11
466.2983120509393
 21
139.4482351412481
 31
0.0
  0
LINE
  5
675
330
18
100
AcDbEntity
  8
1
  6
Continuous
100
AcDbLine
 10
465.5527092885645
 20
139.575030995275
 30
0.0
 11
465.8186941552743
 21
139.4566069027578
 31
0.0
  0
LINE
  5
676
330
18
100
AcDbEntity
  8
1
  6
Continuous
100
AcDbLine
 10
465.5527092885645
 20
139.5750309952749
 30
0.0
 11
465.4342851960477
 21
139.8410158619846
 31
0.0
  0
LINE
  5
677
330
18
100
AcDbEntity
  8
1
  6
Continuous
100
AcDbLine
 10
465.4342851960477
 20
139.8410158619846
 30
0.0
 11
465.4259134345381
 21
140.3206337576502
 31
0.0
  0
LINE
  5
678
330
18
100
AcDbEntity
  8
1
  6
Continuous
100
AcDbLine
 10
464.2872233699866
 20
139.4566069027576
 30
0.0
 11
463.8076054743212
 21
139.4482351412481
 31
0.0
  0
LINE
  5
679
330
18
100
AcDbEntity
  8
1
  6
Continuous
100
AcDbLine
 10
464.6716323292137
 20
139.8410158619845
 30
0.0
 11
464.6800040907232
 21
140.3206337576503
 31
0.0
  0
LINE
  5
67A
330
18
100
AcDbEntity
  8
1
  6
Continuous
100
AcDbLine
 10
464.5532082366968
 20
139.5750309952749
 30
0.0
 11
464.2872233699868
 21
139.4566069027576
 31
0.0
  0
LINE
  5
67B
330
18
100
AcDbEntity
  8
1
  6
Continuous
100
AcDbLine
 10
464.5532082366961
 20
139.5750309952747
 30
0.0
 11
464.6716323292134
 21
139.8410158619842
 31
0.0
  0
ARC
  5
67C
330
18
100
AcDbEntity
  8
1
  6
Continuous
100
AcDbCircle
 10
465.7529587624358
 20
139.075280469341
 30
0.0
 40
3.0
100
AcDbArc
 50
270.0
 51
0.0
  0
ARC
  5
67D
330
18
100
AcDbEntity
  8
1
  6
Continuous
100
AcDbCircle
 10
465.8529587626309
 20
139.075280469341
 30
0.0
 40
3.0
100
AcDbArc
 50
270.0
 51
0.0
  0
LINE
  5
67E
330
18
100
AcDbEntity
  8
1
  6
Continuous
100
AcDbLine
 10
438.0529587625893
 20
178.7752804690635
 30
0.0
 11
474.0529587625896
 21
178.7752804690283
 31
0.0
  0
ARC
  5
67F
330
18
100
AcDbEntity
  8
1
  6
Continuous
100
AcDbCircle
 10
438.0529587625924
 20
181.7752804690634
 30
0.0
 40
3.0
100
AcDbArc
 50
180.0
 51
270.0
  0
ARC
  5
680
330
18
100
AcDbEntity
  8
1
  6
Continuous
100
AcDbCircle
 10
461.5529587626666
 20
159.5752804693425
 30
0.0
 40
2.0
100
AcDbArc
 50
0.0
 51
90.0
  0
LINE
  5
681
330
18
100
AcDbEntity
  8
1
  6
Continuous
100
AcDbLine
 10
466.9529587625638
 20
169.1752804693409
 30
0.0
 11
463.0529587626973
 21
169.1752804693409
 31
0.0
  0
LINE
  5
682
330
18
100
AcDbEntity
  8
1
  6
Continuous
100
AcDbLine
 10
467.7529587624356
 20
168.875280469341
 30
0.0
 11
463.0529587627037
 21
168.875280469341
 31
0.0
  0
LINE
  5
683
330
18
100
AcDbEntity
  8
1
  6
Continuous
100
AcDbLine
 10
466.8529587625676
 20
177.2752804693409
 30
0.0
 11
445.2529587625673
 21
177.2752804693409
 31
0.0
  0
LINE
  5
684
330
18
100
AcDbEntity
  8
1
  6
Continuous
100
AcDbLine
 10
466.8529587625712
 20
175.0752804693409
 30
0.0
 11
445.2529587625713
 21
175.0752804693409
 31
0.0
  0
LINE
  5
685
330
18
100
AcDbEntity
  8
1
  6
Continuous
100
AcDbLine
 10
450.5529587626993
 20
161.5752804693425
 30
0.0
 11
461.5529587626666
 21
161.5752804693425
 31
0.0
  0
ARC
  5
686
330
18
100
AcDbEntity
  8
1
  6
Continuous
100
AcDbCircle
 10
450.5529587626993
 20
159.5752804693425
 30
0.0
 40
2.0
100
AcDbArc
 50
90.0
 51
180.0
  0
LINE
  5
687
330
18
100
AcDbEntity
  8
1
  6
Continuous
100
AcDbLine
 10
462.0529587627014
 20
172.075280469341
 30
0.0
 11
450.0529587627014
 21
172.075280469341
 31
0.0
  0
ARC
  5
688
330
18
100
AcDbEntity
  8
1
  6
Continuous
100
AcDbCircle
 10
445.2529587625673
 20
175.2752804693409
 30
0.0
 40
2.0
100
AcDbArc
 50
90.0
 51
180.0
  0
LINE
  5
689
330
18
100
AcDbEntity
  8
1
  6
Continuous
100
AcDbLine
 10
449.0529587626975
 20
169.1752804693409
 30
0.0
 11
445.1529587625641
 21
169.1752804693409
 31
0.0
  0
LINE
  5
68A
330
18
100
AcDbEntity
  8
1
  6
Continuous
100
AcDbLine
 10
449.0529587627038
 20
168.875280469341
 30
0.0
 11
444.3529587624357
 21
168.875280469341
 31
0.0
  0
ARC
  5
68B
330
18
100
AcDbEntity
  8
1
  6
Continuous
100
AcDbCircle
 10
444.3529587624357
 20
167.875280469341
 30
0.0
 40
1.0
100
AcDbArc
 50
90.0
 51
180.0
  0
ARC
  5
68C
330
18
100
AcDbEntity
  8
1
  6
Continuous
100
AcDbCircle
 10
445.2529587625713
 20
173.0752804693409
 30
0.0
 40
2.0
100
AcDbArc
 50
90.0
 51
180.0
  0
LINE
  5
68D
330
18
100
AcDbEntity
  8
1
  6
Continuous
100
AcDbLine
 10
445.1529587625638
 20
169.175280469341
 30
0.0
 11
445.1529587625644
 21
168.875280469341
 31
0.0
  0
LINE
  5
68E
330
18
100
AcDbEntity
  8
1
  6
Continuous
100
AcDbLine
 10
449.0529587627015
 20
171.0752804693432
 30
0.0
 11
449.0529587626965
 21
168.875280469341
 31
0.0
  0
ARC
  5
68F
330
18
100
AcDbEntity
  8
1
  6
Continuous
100
AcDbCircle
 10
450.0529587627014
 20
171.075280469341
 30
0.0
 40
1.0
100
AcDbArc
 50
90.0
 51
180.0
  0
LINE
  5
690
330
18
100
AcDbEntity
  8
1
  6
Continuous
100
AcDbLine
 10
446.5029587625637
 20
169.175280469341
 30
0.0
 11
446.5029587625644
 21
168.875280469341
 31
0.0
  0
ARC
  5
691
330
18
100
AcDbEntity
  8
1
  6
Continuous
100
AcDbCircle
 10
462.0529587627014
 20
171.075280469341
 30
0.0
 40
1.0
100
AcDbArc
 50
0.0
 51
90.0
  0
LINE
  5
692
330
18
100
AcDbEntity
  8
1
  6
Continuous
100
AcDbLine
 10
463.0529587627015
 20
171.0752804693387
 30
0.0
 11
463.0529587626964
 21
168.875280469341
 31
0.0
  0
ARC
  5
693
330
18
100
AcDbEntity
  8
1
  6
Continuous
100
AcDbCircle
 10
474.0529587625923
 20
181.7752804690283
 30
0.0
 40
3.0
100
AcDbArc
 50
270.0
 51
0.0
  0
ARC
  5
694
330
18
100
AcDbEntity
  8
1
  6
Continuous
100
AcDbCircle
 10
466.8529587625676
 20
175.2752804693409
 30
0.0
 40
2.0
100
AcDbArc
 50
0.0
 51
90.0
  0
ARC
  5
695
330
18
100
AcDbEntity
  8
1
  6
Continuous
100
AcDbCircle
 10
467.7529587624356
 20
167.875280469341
 30
0.0
 40
1.0
100
AcDbArc
 50
0.0
 51
90.0
  0
ARC
  5
696
330
18
100
AcDbEntity
  8
1
  6
Continuous
100
AcDbCircle
 10
466.8529587625712
 20
173.0752804693409
 30
0.0
 40
2.0
100
AcDbArc
 50
0.0
 51
90.0
  0
LINE
  5
697
330
18
100
AcDbEntity
  8
1
  6
Continuous
100
AcDbLine
 10
465.6029587625638
 20
169.175280469341
 30
0.0
 11
465.6029587625646
 21
168.875280469341
 31
0.0
  0
LINE
  5
698
330
18
100
AcDbEntity
  8
1
  6
Continuous
100
AcDbLine
 10
466.9529587625638
 20
169.175280469341
 30
0.0
 11
466.9529587625644
 21
168.875280469341
 31
0.0
  0
CIRCLE
  5
69E
330
18
100
AcDbEntity
  8
1
  6
Continuous
100
AcDbCircle
 10
456.0529587624238
 20
269.2752804693264
 30
0.0
 40
13.4
  0
ARC
  5
6A0
330
18
100
AcDbEntity
  8
1
  6
Continuous
100
AcDbCircle
 10
465.8529587623941
 20
279.0752804693264
 30
0.0
 40
3.0
100
AcDbArc
 50
0.0
 51
90.0
  0
ARC
  5
6A1
330
18
100
AcDbEntity
  8
1
  6
Continuous
100
AcDbCircle
 10
446.2529587623942
 20
279.0752804693264
 30
0.0
 40
3.0
100
AcDbArc
 50
90.0
 51
180.0
  0
ARC
  5
6A2
330
18
100
AcDbEntity
  8
1
  6
Continuous
100
AcDbCircle
 10
456.0529587617956
 20
277.0752804693264
 30
0.0
 40
16.0
100
AcDbArc
 50
0.0
 51
180.0
  0
LINE
  5
6A3
330
18
100
AcDbEntity
  8
1
  6
Continuous
100
AcDbLine
 10
438.0529587625924
 20
259.2752804690635
 30
0.0
 11
442.7206671365226
 21
259.275280469059
 31
0.0
  0
LINE
  5
6A5
330
18
100
AcDbEntity
  8
1
  6
Continuous
100
AcDbLine
 10
440.2529587624808
 20
258.2752804690614
 30
0.0
 11
440.2529587624529
 21
227.7752804696815
 31
0.0
  0
LINE
  5
6A6
330
18
100
AcDbEntity
  8
1
  6
Continuous
100
AcDbLine
 10
440.0529587617956
 20
277.0752804693264
 30
0.0
 11
440.0529587617956
 21
259.2752804690615
 31
0.0
  0
ARC
  5
6A7
330
18
100
AcDbEntity
  8
1
  6
Continuous
100
AcDbCircle
 10
438.0529587625893
 20
256.2752804690635
 30
0.0
 40
3.0
100
AcDbArc
 50
90.0
 51
180.0
  0
LINE
  5
6A8
330
18
100
AcDbEntity
  8
1
  6
Continuous
100
AcDbLine
 10
471.8529587624806
 20
258.2752804690305
 30
0.0
 11
471.8529587624535
 21
227.7752804696506
 31
0.0
  0
LINE
  5
6A9
330
18
100
AcDbEntity
  8
4
  6
CENTER
100
AcDbLine
 10
462.3029587625
 20
238.7752804690459
 30
0.0
 11
449.8029587625
 21
238.7752804690459
 31
0.0
  0
CIRCLE
  5
6AA
330
18
100
AcDbEntity
  8
1
  6
Continuous
100
AcDbCircle
 10
456.0529587625191
 20
238.7752804690511
 30
0.0
 40
4.600000000071418
  0
ARC
  5
6AD
330
18
100
AcDbEntity
  8
1
  6
Continuous
100
AcDbCircle
 10
456.0529587625133
 20
276.7752804690458
 30
0.0
 40
22.0
100
AcDbArc
 50
232.6982097077993
 51
307.3017902920923
  0
CIRCLE
  5
6AE
330
18
100
AcDbEntity
  8
1
  6
Continuous
100
AcDbCircle
 10
465.5529587624238
 20
269.2752804693264
 30
0.0
 40
2.0
  0
LINE
  5
6AF
330
18
100
AcDbEntity
  8
1
  6
Continuous
100
AcDbLine
 10
465.8529587623941
 20
282.0752804693263
 30
0.0
 11
460.0178042827438
 21
282.0752804693263
 31
0.0
  0
LINE
  5
6B0
330
18
100
AcDbEntity
  8
4
  6
CENTER
100
AcDbLine
 10
446.5529587624239
 20
272.7752804693265
 30
0.0
 11
446.5529587624239
 21
265.7752804693265
 31
0.0
  0
LINE
  5
6B1
330
18
100
AcDbEntity
  8
1
  6
Continuous
100
AcDbLine
 10
455.3458519812377
 20
265.0326397822073
 30
0.0
 11
451.8103180753048
 21
268.5681736881401
 31
0.0
  0
LINE
  5
6B2
330
18
100
AcDbEntity
  8
1
  6
Continuous
100
AcDbLine
 10
460.2955994495431
 20
268.5681736881399
 30
0.0
 11
456.7600655436108
 21
265.0326397822073
 31
0.0
  0
LINE
  5
6B5
330
18
100
AcDbEntity
  8
1
  6
Continuous
100
AcDbLine
 10
443.2529587624244
 20
265.3104349490053
 30
0.0
 11
443.2529587624388
 21
258.882265072023
 31
0.0
  0
CIRCLE
  5
6B6
330
18
100
AcDbEntity
  8
1
  6
Continuous
100
AcDbCircle
 10
456.0529587624238
 20
259.7752804693264
 30
0.0
 40
2.0
  0
ARC
  5
6B8
330
18
100
AcDbEntity
  8
1
  6
Continuous
100
AcDbCircle
 10
456.0529587624241
 20
265.7397465633938
 30
0.0
 40
1.0
100
AcDbArc
 50
224.9999999999993
 51
315.0
  0
ARC
  5
6B9
330
18
100
AcDbEntity
  8
1
  6
Continuous
100
AcDbCircle
 10
456.0529587624053
 20
269.2752804693263
 30
0.0
 40
4.0
100
AcDbArc
 50
253.9550243718621
 51
286.0449756281441
  0
LINE
  5
6BC
330
18
100
AcDbEntity
  8
1
  6
Continuous
100
AcDbLine
 10
455.3458519812377
 20
273.5179211564457
 30
0.0
 11
451.8103180753048
 21
269.982387250513
 31
0.0
  0
ARC
  5
6BD
330
18
100
AcDbEntity
  8
1
  6
Continuous
100
AcDbCircle
 10
456.0529587624053
 20
269.2752804693263
 30
0.0
 40
4.0
100
AcDbArc
 50
163.9550243718618
 51
196.0449756281404
  0
LINE
  5
6BE
330
18
100
AcDbEntity
  8
4
  6
CENTER
100
AcDbLine
 10
469.0529587624238
 20
269.2752804693264
 30
0.0
 11
443.0529587624238
 21
269.2752804693264
 31
0.0
  0
LINE
  5
6BF
330
18
100
AcDbEntity
  8
1
  6
Continuous
100
AcDbLine
 10
443.2529587623938
 20
279.0752804693197
 30
0.0
 11
443.2529587624068
 21
273.240125989591
 31
0.0
  0
CIRCLE
  5
6C0
330
18
100
AcDbEntity
  8
1
  6
Continuous
100
AcDbCircle
 10
446.5529587624239
 20
269.2752804693264
 30
0.0
 40
2.0
  0
ARC
  5
6C2
330
18
100
AcDbEntity
  8
1
  6
Continuous
100
AcDbCircle
 10
452.5174248564915
 20
269.2752804693264
 30
0.0
 40
1.0
100
AcDbArc
 50
135.0000000000002
 51
224.9999999999997
  0
LINE
  5
6C5
330
18
100
AcDbEntity
  8
1
  6
Continuous
100
AcDbLine
 10
452.0881132421043
 20
282.0752804693263
 30
0.0
 11
446.2529587623942
 21
282.0752804693263
 31
0.0
  0
LINE
  5
6C6
330
18
100
AcDbEntity
  8
1
  6
Continuous
100
AcDbLine
 10
460.2955994495431
 20
269.9823872505129
 30
0.0
 11
456.7600655436105
 21
273.5179211564456
 31
0.0
  0
CIRCLE
  5
6C7
330
18
100
AcDbEntity
  8
1
  6
Continuous
100
AcDbCircle
 10
456.0529587624053
 20
269.2752804693263
 30
0.0
 40
2.066999999999999
  0
CIRCLE
  5
6C8
330
18
100
AcDbEntity
  8
2
  6
Continuous
100
AcDbCircle
 10
456.0529587624053
 20
269.2752804693263
 30
0.0
 40
2.5
  0
CIRCLE
  5
6C9
330
18
100
AcDbEntity
  8
1
  6
Continuous
100
AcDbCircle
 10
456.0529587624053
 20
269.2752804693263
 30
0.0
 40
3.0
  0
ARC
  5
6CA
330
18
100
AcDbEntity
  8
1
  6
Continuous
100
AcDbCircle
 10
456.0529587624238
 20
272.8108143752592
 30
0.0
 40
1.0
100
AcDbArc
 50
44.99999999999971
 51
135.0000000000002
  0
ARC
  5
6CB
330
18
100
AcDbEntity
  8
1
  6
Continuous
100
AcDbCircle
 10
456.0529587624053
 20
269.2752804693263
 30
0.0
 40
4.0
100
AcDbArc
 50
73.95502437186222
 51
106.0449756281375
  0
ARC
  5
6CE
330
18
100
AcDbEntity
  8
1
  6
Continuous
100
AcDbCircle
 10
459.5884926683567
 20
269.2752804693264
 30
0.0
 40
1.0
100
AcDbArc
 50
315.0
 51
44.99999999999942
  0
ARC
  5
6CF
330
18
100
AcDbEntity
  8
1
  6
Continuous
100
AcDbCircle
 10
456.0529587624053
 20
269.2752804693263
 30
0.0
 40
4.0
100
AcDbArc
 50
343.9550243718579
 51
16.04497562814046
  0
CIRCLE
  5
6D1
330
18
100
AcDbEntity
  8
1
  6
Continuous
100
AcDbCircle
 10
456.0529587624238
 20
278.7752804693264
 30
0.0
 40
2.0
  0
LINE
  5
6D5
330
18
100
AcDbEntity
  8
1
  6
Continuous
100
AcDbLine
 10
472.0529587617956
 20
259.2752804690303
 30
0.0
 11
472.0529587617956
 21
277.0752804693264
 31
0.0
  0
ARC
  5
6D6
330
18
100
AcDbEntity
  8
1
  6
Continuous
100
AcDbCircle
 10
474.0529587625896
 20
256.2752804690282
 30
0.0
 40
3.0
100
AcDbArc
 50
0.0
 51
90.0
  0
LINE
  5
6D7
330
18
100
AcDbEntity
  8
1
  6
Continuous
100
AcDbLine
 10
469.3852503884694
 20
259.2752804690329
 30
0.0
 11
474.0529587625923
 21
259.2752804690283
 31
0.0
  0
LINE
  5
6D8
330
18
100
AcDbEntity
  8
1
  6
Continuous
100
AcDbLine
 10
468.8529587624071
 20
265.3104349489514
 30
0.0
 11
468.8529587624071
 21
258.8822650718938
 31
0.0
  0
LINE
  5
6D9
330
18
100
AcDbEntity
  8
1
  6
Continuous
100
AcDbLine
 10
468.8529587623941
 20
279.075280469333
 30
0.0
 11
468.8529587624071
 21
273.2401259897014
 31
0.0
  0
ARC
  5
7B2
330
18
100
AcDbEntity
  8
1
  6
Continuous
 48
0.25
100
AcDbCircle
 10
104.0604117056848
 20
356.2757603170853
 30
0.0
 40
2.0
100
AcDbArc
 50
146.3099320000018
 51
180.0
  0
ARC
  5
7B3
330
18
100
AcDbEntity
  8
1
  6
Continuous
 48
0.25
100
AcDbCircle
 10
104.0604117056848
 20
356.2757603170853
 30
0.0
 40
1.0
100
AcDbArc
 50
146.3099320000018
 51
180.0
  0
ARC
  5
7B4
330
18
100
AcDbEntity
  8
1
  6
Continuous
 48
0.25
100
AcDbCircle
 10
106.5604117056849
 20
355.7757603170853
 30
0.0
 40
1.0
100
AcDbArc
 50
90.00000000000005
 51
180.0
  0
ARC
  5
7B5
330
18
100
AcDbEntity
  8
1
  6
Continuous
 48
0.25
100
AcDbCircle
 10
106.5604117056849
 20
355.7757603170561
 30
0.0
 40
1.0
100
AcDbArc
 50
90.00000000000005
 51
180.0
  0
ARC
  5
8C7
330
18
100
AcDbEntity
  8
1
  6
Continuous
 48
0.25
100
AcDbCircle
 10
122.9315395388648
 20
351.7757603170565
 30
0.0
 40
11.46586083318
100
AcDbArc
 50
144.4620000000005
 51
215.5377000000011
  0
ARC
  5
8C8
330
18
100
AcDbEntity
  8
1
  6
Continuous
 48
0.25
100
AcDbCircle
 10
107.9998481888649
 20
351.7757603170565
 30
0.0
 40
11.46586083318
100
AcDbArc
 50
324.4620000000005
 51
35.53799999999949
  0
LINE
  5
8C9
330
18
100
AcDbEntity
  8
1
  6
Continuous
 48
0.25
100
AcDbLine
 10
114.3983711528647
 20
349.5545020630565
 30
0.0
 11
112.7022031928648
 21
349.5545020630565
 31
0.0
  0
ARC
  5
8CA
330
18
100
AcDbEntity
  8
1
  6
Continuous
 48
0.25
100
AcDbCircle
 10
113.2724043368648
 20
347.6887173070565
 30
0.0
 40
0.08890446318
100
AcDbArc
 50
90.0
 51
202.9439999999996
  0
ARC
  5
8CB
330
18
100
AcDbEntity
  8
1
  6
Continuous
 48
0.25
100
AcDbCircle
 10
122.9315395388648
 20
351.7757603170565
 30
0.0
 40
10.5770507778
100
AcDbArc
 50
202.9439999999996
 51
206.0143999999998
  0
LINE
  5
8CC
330
18
100
AcDbEntity
  8
1
  6
Continuous
 48
0.25
100
AcDbLine
 10
113.1569205608648
 20
348.6649161010563
 30
0.0
 11
117.7744671668649
 21
348.6649161010563
 31
0.0
  0
LINE
  5
8CD
330
18
100
AcDbEntity
  8
1
  6
Continuous
 48
0.25
100
AcDbLine
 10
113.0270013128648
 20
345.9997670830567
 30
0.0
 11
116.8596191288648
 21
345.9997670830567
 31
0.0
  0
ARC
  5
8CE
330
18
100
AcDbEntity
  8
1
  6
Continuous
 48
0.25
100
AcDbCircle
 10
115.4647916468648
 20
346.4436578470563
 30
0.0
 40
2.2906387413
100
AcDbArc
 50
215.5377000000011
 51
256.5374000000025
  0
ARC
  5
8CF
330
18
100
AcDbEntity
  8
1
  6
Continuous
 48
0.25
100
AcDbCircle
 10
115.4647916468648
 20
346.4436578470563
 30
0.0
 40
2.2906387413
100
AcDbArc
 50
270.0
 51
324.4620000000005
  0
ARC
  5
8D0
330
18
100
AcDbEntity
  8
1
  6
Continuous
 48
0.25
100
AcDbCircle
 10
113.8263655748648
 20
347.3332438090565
 30
0.0
 40
0.4445223159000001
100
AcDbArc
 50
206.0143999999998
 51
270.0
  0
LINE
  5
8D1
330
18
100
AcDbEntity
  8
1
  6
Continuous
 48
0.25
100
AcDbLine
 10
118.2291845348649
 20
349.5545020630565
 30
0.0
 11
116.5312121408649
 21
349.5545020630565
 31
0.0
  0
ARC
  5
8D2
330
18
100
AcDbEntity
  8
1
  6
Continuous
 48
0.25
100
AcDbCircle
 10
118.2291845348649
 20
349.4660847970565
 30
0.0
 40
0.08890446318
100
AcDbArc
 50
347.2710000000012
 51
90.0
  0
ARC
  5
8D3
330
18
100
AcDbEntity
  8
1
  6
Continuous
 48
0.25
100
AcDbCircle
 10
107.9998481888649
 20
351.7757603170565
 30
0.0
 40
10.5770507778
100
AcDbArc
 50
333.9859999999999
 51
337.0560000000004
  0
ARC
  5
8D4
330
18
100
AcDbEntity
  8
1
  6
Continuous
 48
0.25
100
AcDbCircle
 10
117.6571789568648
 20
347.6887173070565
 30
0.0
 40
0.08890446318
100
AcDbArc
 50
337.0560000000004
 51
90.0
  0
ARC
  5
8D5
330
18
100
AcDbEntity
  8
1
  6
Continuous
 48
0.25
100
AcDbCircle
 10
107.9998481888649
 20
351.7757603170565
 30
0.0
 40
10.5770507778
100
AcDbArc
 50
344.7419999999996
 51
344.7939999999994
  0
ARC
  5
8D6
330
18
100
AcDbEntity
  8
1
  6
Continuous
 48
0.25
100
AcDbCircle
 10
117.7744671668649
 20
349.1106112990565
 30
0.0
 40
0.4445223159000001
100
AcDbArc
 50
270.0
 51
344.7419999999996
  0
ARC
  5
8D7
330
18
100
AcDbEntity
  8
1
  6
Continuous
 48
0.25
100
AcDbCircle
 10
117.1050221528648
 20
347.3332438090565
 30
0.0
 40
0.4445223159000001
100
AcDbArc
 50
270.0
 51
333.9859999999999
  0
ARC
  5
8D8
330
18
100
AcDbEntity
  8
1
  6
Continuous
 48
0.25
100
AcDbCircle
 10
107.9998481888649
 20
351.7757603170565
 30
0.0
 40
10.5770507778
100
AcDbArc
 50
344.7939999999994
 51
347.2710000000012
  0
LINE
  5
8D9
330
18
100
AcDbEntity
  8
1
  6
Continuous
 48
0.25
100
AcDbLine
 10
113.2724043368648
 20
347.7771345730564
 30
0.0
 11
117.6571789568648
 21
347.7771345730564
 31
0.0
  0
LINE
  5
8DA
330
18
100
AcDbEntity
  8
1
  6
Continuous
 48
0.25
100
AcDbLine
 10
117.1050221528648
 20
346.8875486110565
 30
0.0
 11
113.8263655748648
 21
346.8875486110565
 31
0.0
  0
ARC
  5
8DB
330
18
100
AcDbEntity
  8
1
  6
Continuous
 48
0.25
100
AcDbCircle
 10
122.9315395388648
 20
351.7757603170565
 30
0.0
 40
10.5770507778
100
AcDbArc
 50
192.7288999999993
 51
193.2681000000006
  0
ARC
  5
8DC
330
18
100
AcDbEntity
  8
1
  6
Continuous
 48
0.25
100
AcDbCircle
 10
112.7022031928648
 20
349.4660847970565
 30
0.0
 40
0.08890446318
100
AcDbArc
 50
90.0
 51
192.7288999999993
  0
ARC
  5
8DD
330
18
100
AcDbEntity
  8
1
  6
Continuous
 48
0.25
100
AcDbCircle
 10
113.1569205608648
 20
349.1106112990565
 30
0.0
 40
0.4445223159000001
100
AcDbArc
 50
195.2574999999992
 51
270.0
  0
ARC
  5
8DE
330
18
100
AcDbEntity
  8
1
  6
Continuous
 48
0.25
100
AcDbCircle
 10
122.9315395388648
 20
351.7757603170565
 30
0.0
 40
10.5770507778
100
AcDbArc
 50
193.2681000000006
 51
195.2574999999992
  0
LINE
  5
8DF
330
18
100
AcDbEntity
  8
1
  6
Continuous
 48
0.25
100
AcDbLine
 10
117.1284797948649
 20
357.1168849570566
 30
0.0
 11
113.3824748108648
 21
358.1219546950564
 31
0.0
  0
LINE
  5
8E0
330
18
100
AcDbEntity
  8
1
  6
Continuous
 48
0.25
100
AcDbLine
 10
114.3983711528649
 20
353.9988230050565
 30
0.0
 11
112.9566283868648
 21
353.9988230050565
 31
0.0
  0
LINE
  5
8E1
330
18
100
AcDbEntity
  8
1
  6
Continuous
 48
0.25
100
AcDbLine
 10
112.5434130008649
 20
354.8866045330565
 30
0.0
 11
118.1082874568649
 21
354.8866045330565
 31
0.0
  0
LINE
  5
8E2
330
18
100
AcDbEntity
  8
1
  6
Continuous
 48
0.25
100
AcDbLine
 10
112.5398041328649
 20
353.1092370430565
 30
0.0
 11
118.3915835948648
 21
353.1092370430565
 31
0.0
  0
LINE
  5
8E3
330
18
100
AcDbEntity
  8
1
  6
Continuous
 48
0.25
100
AcDbLine
 10
115.0209008828649
 20
356.6657764570565
 30
0.0
 11
113.1226363148648
 21
356.6657764570565
 31
0.0
  0
LINE
  5
8E4
330
18
100
AcDbEntity
  8
1
  6
Continuous
 48
0.25
100
AcDbLine
 10
112.9620416888649
 20
355.7761904950566
 30
0.0
 11
115.0209008828649
 21
355.7761904950566
 31
0.0
  0
LINE
  5
8E5
330
18
100
AcDbEntity
  8
1
  6
Continuous
 48
0.25
100
AcDbLine
 10
112.3647740348649
 20
351.3318695530565
 30
0.0
 11
118.5666136928648
 21
351.3318695530565
 31
0.0
  0
LINE
  5
8E6
330
18
100
AcDbEntity
  8
1
  6
Continuous
 48
0.25
100
AcDbLine
 10
112.4387558288649
 20
350.4440880250565
 30
0.0
 11
118.4926318988648
 21
350.4440880250565
 31
0.0
  0
LINE
  5
8E7
330
18
100
AcDbEntity
  8
1
  6
Continuous
 48
0.25
100
AcDbLine
 10
112.3647740348649
 20
352.2214555150565
 30
0.0
 11
118.5666136928648
 21
352.2214555150565
 31
0.0
  0
ARC
  5
8E8
330
18
100
AcDbEntity
  8
1
  6
Continuous
 48
0.25
100
AcDbCircle
 10
117.9747593408649
 20
353.5549322410565
 30
0.0
 40
0.4445223159000001
100
AcDbArc
 50
10.10400000000033
 51
90.0
  0
LINE
  5
8E9
330
18
100
AcDbEntity
  8
1
  6
Continuous
 48
0.25
100
AcDbLine
 10
115.4647916468649
 20
353.9988230050565
 30
0.0
 11
115.4647916468649
 21
353.5549322410565
 31
0.0
  0
ARC
  5
8EA
330
18
100
AcDbEntity
  8
1
  6
Continuous
 48
0.25
100
AcDbCircle
 10
107.9998481888649
 20
351.7757603170565
 30
0.0
 40
10.5770507778
100
AcDbArc
 50
7.793000000000557
 51
10.10400000000033
  0
ARC
  5
8EB
330
18
100
AcDbEntity
  8
1
  6
Continuous
 48
0.25
100
AcDbCircle
 10
118.3915835948648
 20
353.1994587430566
 30
0.0
 40
0.08890446318
100
AcDbArc
 50
270.0
 51
7.793000000000557
  0
LINE
  5
8EC
330
18
100
AcDbEntity
  8
1
  6
Continuous
 48
0.25
100
AcDbLine
 10
115.4647916468648
 20
351.3318695530565
 30
0.0
 11
115.4647916468648
 21
350.4440880250565
 31
0.0
  0
LINE
  5
8ED
330
18
100
AcDbEntity
  8
1
  6
Continuous
 48
0.25
100
AcDbLine
 10
117.9747593408649
 20
353.9988230050565
 30
0.0
 11
115.4647916468649
 21
353.9988230050565
 31
0.0
  0
ARC
  5
8EE
330
18
100
AcDbEntity
  8
1
  6
Continuous
 48
0.25
100
AcDbCircle
 10
115.0209008828649
 20
356.2200812590564
 30
0.0
 40
0.4445223159000001
100
AcDbArc
 50
270.0
 51
90.0
  0
LINE
  5
8EF
330
18
100
AcDbEntity
  8
1
  6
Continuous
 48
0.25
100
AcDbLine
 10
115.4647916468649
 20
356.2200812590564
 30
0.0
 11
117.5976326348649
 21
356.2200812590564
 31
0.0
  0
ARC
  5
8F0
330
18
100
AcDbEntity
  8
1
  6
Continuous
 48
0.25
100
AcDbCircle
 10
112.9566283868648
 20
353.5549322410565
 30
0.0
 40
0.4445223159000001
100
AcDbArc
 50
90.0
 51
169.8959999999996
  0
ARC
  5
8F1
330
18
100
AcDbEntity
  8
1
  6
Continuous
 48
0.25
100
AcDbCircle
 10
112.5398041328649
 20
353.1994587430566
 30
0.0
 40
0.08890446318
100
AcDbArc
 50
172.2069999999994
 51
270.0
  0
ARC
  5
8F2
330
18
100
AcDbEntity
  8
1
  6
Continuous
 48
0.25
100
AcDbCircle
 10
122.9315395388648
 20
351.7757603170565
 30
0.0
 40
10.5770507778
100
AcDbArc
 50
169.8959999999996
 51
172.2069999999994
  0
ARC
  5
8F3
330
18
100
AcDbEntity
  8
1
  6
Continuous
 48
0.25
100
AcDbCircle
 10
115.4647916468649
 20
357.1096672210565
 30
0.0
 40
2.2906387413
100
AcDbArc
 50
35.53799999999949
 51
45.69900000000163
  0
LINE
  5
8F4
330
18
100
AcDbEntity
  8
1
  6
Continuous
 48
0.25
100
AcDbLine
 10
115.4647916468649
 20
359.3994939670565
 30
0.0
 11
115.4647916468649
 21
357.5625801550564
 31
0.0
  0
ARC
  5
8F5
330
18
100
AcDbEntity
  8
1
  6
Continuous
 48
0.25
100
AcDbCircle
 10
115.4647916468649
 20
357.1096672210565
 30
0.0
 40
2.2906387413
100
AcDbArc
 50
62.2500000000025
 51
144.4620000000005
  0
LINE
  5
8FB
330
18
100
AcDbEntity
  8
4
  6
CENTER
100
AcDbLine
 10
465.5529587624238
 20
272.7752804693264
 30
0.0
 11
465.5529587624238
 21
265.7752804693264
 31
0.0
  0
LINE
  5
900
330
18
100
AcDbEntity
  8
4
  6
CENTER
100
AcDbLine
 10
376.2473219567963
 20
269.2752804694213
 30
0.0
 11
366.9034914867552
 21
269.2752804694213
 31
0.0
  0
ARC
  5
901
330
18
100
AcDbEntity
  8
1
  6
Continuous
100
AcDbCircle
 10
108.8161976510936
 20
165.7752804691815
 30
0.0
 40
2.0
100
AcDbArc
 50
180.0
 51
270.0
  0
LINE
  5
902
330
18
100
AcDbEntity
  8
1
  6
Continuous
100
AcDbLine
 10
123.6161976510935
 20
163.7752804691815
 30
0.0
 11
108.8161976510936
 21
163.7752804691815
 31
0.0
  0
ARC
  5
903
330
18
100
AcDbEntity
  8
1
  6
Continuous
100
AcDbCircle
 10
123.6161976510935
 20
165.7752804691815
 30
0.0
 40
2.0
100
AcDbArc
 50
270.0
 51
0.0
  0
LINE
  5
904
330
18
100
AcDbEntity
  8
5
  6
PHANTOM
100
AcDbLine
 10
120.9161976515259
 20
261.1346416727627
 30
0.0
 11
31.28256835969819
 21
209.38464167344
 31
0.0
  0
LINE
  5
905
330
18
100
AcDbEntity
  8
5
  6
PHANTOM
100
AcDbLine
 10
111.516197651524
 20
277.4159192639091
 30
0.0
 11
21.88252361363367
 21
225.6658934296645
 31
0.0
  0
LINE
  5
906
330
18
100
AcDbEntity
  8
5
  6
PHANTOM
100
AcDbLine
 10
21.15051755212925
 20
222.9338684570185
 30
0.0
 11
28.55051755212923
 21
210.1166924810088
 31
0.0
  0
ARC
  5
907
330
18
100
AcDbEntity
  8
5
  6
PHANTOM
100
AcDbCircle
 10
30.28256835969818
 20
211.1166924810088
 30
0.0
 40
2.0
100
AcDbArc
 50
210.0
 51
300.0
  0
ARC
  5
908
330
18
100
AcDbEntity
  8
5
  6
PHANTOM
100
AcDbCircle
 10
22.88256835969809
 20
223.9338684570185
 30
0.0
 40
2.0
100
AcDbArc
 50
120.0
 51
210.0
  0
LINE
  5
909
330
18
100
AcDbEntity
  8
1
  6
Continuous
100
AcDbLine
 10
353.5778557280041
 20
238.7752804691217
 30
0.0
 11
352.2778557280038
 21
237.6844509485912
 31
0.0
  0
LINE
  5
90A
330
18
100
AcDbEntity
  8
1
  6
Continuous
100
AcDbLine
 10
353.5778557279686
 20
199.8661099896518
 30
0.0
 11
352.2778557279683
 21
198.7752804691213
 31
0.0
  0
CIRCLE
  5
90C
330
18
100
AcDbEntity
  8
1
  6
Continuous
100
AcDbCircle
 10
456.0529587625693
 20
198.7752804690511
 30
0.0
 40
4.600000000071418
  0
LINE
  5
90D
330
18
100
AcDbEntity
  8
4
  6
CENTER
100
AcDbLine
 10
462.3029587625502
 20
198.7752804690459
 30
0.0
 11
449.8029587625502
 21
198.7752804690459
 31
0.0
  0
LINE
  5
90F
330
18
100
AcDbEntity
  8
1
  6
Continuous
100
AcDbLine
 10
371.3518581287312
 20
269.2752804694213
 30
0.0
 11
370.051858128731
 21
268.1844509488907
 31
0.0
  0
CIRCLE
  5
92E
330
18
100
AcDbEntity
  8
1
  6
Continuous
 48
0.25
100
AcDbCircle
 10
456.0529587625226
 20
238.7752804690459
 30
0.0
 40
4.5
  0
LINE
  5
92F
330
18
100
AcDbEntity
  8
1
  6
Continuous
 48
0.25
100
AcDbLine
 10
456.6815766909974
 20
237.5258227866893
 30
0.0
 11
457.4629296842084
 21
236.7713398511633
 31
0.0
  0
LINE
  5
930
330
18
100
AcDbEntity
  8
1
  6
Continuous
 48
0.25
100
AcDbLine
 10
456.6815766909974
 20
240.0247381514026
 30
0.0
 11
457.4629296842084
 21
240.7792210869286
 31
0.0
  0
LINE
  5
931
330
18
100
AcDbEntity
  8
1
  6
Continuous
 48
0.25
100
AcDbLine
 10
455.4243408340477
 20
237.5258227866893
 30
0.0
 11
454.6429878408367
 21
236.7713398511633
 31
0.0
  0
LINE
  5
932
330
18
100
AcDbEntity
  8
1
  6
Continuous
 48
0.25
100
AcDbLine
 10
454.8035010801658
 20
238.1466625405711
 30
0.0
 11
454.0490181446398
 21
237.36530954736
 31
0.0
  0
LINE
  5
933
330
18
100
AcDbEntity
  8
1
  6
Continuous
 48
0.25
100
AcDbLine
 10
454.8035010801658
 20
239.4038983975208
 30
0.0
 11
454.0490181446398
 21
240.185251390732
 31
0.0
  0
LINE
  5
934
330
18
100
AcDbEntity
  8
1
  6
Continuous
 48
0.25
100
AcDbLine
 10
455.4243408340477
 20
240.0247381514025
 30
0.0
 11
454.6429878408367
 21
240.7792210869286
 31
0.0
  0
ARC
  5
935
330
18
100
AcDbEntity
  8
1
  6
Continuous
 48
0.25
100
AcDbCircle
 10
456.0529587625226
 20
238.7752804690459
 30
0.0
 40
2.45
100
AcDbArc
 50
215.1289999999999
 51
234.871
  0
ARC
  5
936
330
18
100
AcDbEntity
  8
1
  6
Continuous
 48
0.25
100
AcDbCircle
 10
456.0529587625226
 20
238.7752804690459
 30
0.0
 40
2.45
100
AcDbArc
 50
125.1291000000039
 51
144.8709000000038
  0
LINE
  5
937
330
18
100
AcDbEntity
  8
1
  6
Continuous
 48
0.25
100
AcDbLine
 10
456.0536658693036
 20
237.7549253837937
 30
0.0
 11
456.6815766909974
 21
237.5258227866893
 31
0.0
  0
LINE
  5
938
330
18
100
AcDbEntity
  8
1
  6
Continuous
 48
0.25
100
AcDbLine
 10
456.0536658693036
 20
237.7549253837937
 30
0.0
 11
455.4243408340477
 21
237.5258227866893
 31
0.0
  0
LINE
  5
939
330
18
100
AcDbEntity
  8
1
  6
Continuous
 48
0.25
100
AcDbLine
 10
455.0326036772703
 20
238.7759875758271
 30
0.0
 11
454.8035010801658
 21
238.1466625405711
 31
0.0
  0
LINE
  5
93A
330
18
100
AcDbEntity
  8
1
  6
Continuous
 48
0.25
100
AcDbLine
 10
455.0326036772703
 20
238.7759875758271
 30
0.0
 11
454.8035010801658
 21
239.4038983975208
 31
0.0
  0
LINE
  5
93B
330
18
100
AcDbEntity
  8
1
  6
Continuous
 48
0.25
100
AcDbLine
 10
456.0529587625226
 20
239.7963426610793
 30
0.0
 11
455.4243408340477
 21
240.0247381514025
 31
0.0
  0
LINE
  5
93C
330
18
100
AcDbEntity
  8
1
  6
Continuous
 48
0.25
100
AcDbLine
 10
456.0529587625226
 20
239.7963426610793
 30
0.0
 11
456.6815766909974
 21
240.0247381514026
 31
0.0
  0
ARC
  5
93D
330
18
100
AcDbEntity
  8
1
  6
Continuous
 48
0.25
100
AcDbCircle
 10
456.0529587625226
 20
238.7752804690459
 30
0.0
 40
2.45
100
AcDbArc
 50
305.1289999999998
 51
324.871
  0
ARC
  5
93E
330
18
100
AcDbEntity
  8
1
  6
Continuous
 48
0.25
100
AcDbCircle
 10
456.0529587625226
 20
238.7752804690459
 30
0.0
 40
2.45
100
AcDbArc
 50
35.12899999999993
 51
54.87089000000293
  0
LINE
  5
93F
330
18
100
AcDbEntity
  8
1
  6
Continuous
 48
0.25
100
AcDbLine
 10
457.3024164448793
 20
238.146662540571
 30
0.0
 11
458.0568993804051
 21
237.3653095473599
 31
0.0
  0
LINE
  5
940
330
18
100
AcDbEntity
  8
1
  6
Continuous
 48
0.25
100
AcDbLine
 10
457.0740209545561
 20
238.7752804690459
 30
0.0
 11
457.3024164448793
 21
238.146662540571
 31
0.0
  0
LINE
  5
941
330
18
100
AcDbEntity
  8
1
  6
Continuous
 48
0.25
100
AcDbLine
 10
457.3024164448793
 20
239.4038983975208
 30
0.0
 11
458.0568993804051
 21
240.1852513907319
 31
0.0
  0
LINE
  5
942
330
18
100
AcDbEntity
  8
1
  6
Continuous
 48
0.25
100
AcDbLine
 10
457.0740209545561
 20
238.7752804690459
 30
0.0
 11
457.3024164448793
 21
239.4038983975208
 31
0.0
  0
CIRCLE
  5
949
330
18
100
AcDbEntity
  8
1
  6
Continuous
 48
0.25
100
AcDbCircle
 10
456.0529587625729
 20
198.7752804690459
 30
0.0
 40
4.5
  0
LINE
  5
94A
330
18
100
AcDbEntity
  8
1
  6
Continuous
 48
0.25
100
AcDbLine
 10
456.6815766910476
 20
197.5258227866893
 30
0.0
 11
457.4629296842588
 21
196.7713398511633
 31
0.0
  0
LINE
  5
94B
330
18
100
AcDbEntity
  8
1
  6
Continuous
 48
0.25
100
AcDbLine
 10
456.6815766910476
 20
200.0247381514026
 30
0.0
 11
457.4629296842588
 21
200.7792210869286
 31
0.0
  0
LINE
  5
94C
330
18
100
AcDbEntity
  8
1
  6
Continuous
 48
0.25
100
AcDbLine
 10
455.4243408340981
 20
197.5258227866893
 30
0.0
 11
454.6429878408869
 21
196.7713398511633
 31
0.0
  0
LINE
  5
94D
330
18
100
AcDbEntity
  8
1
  6
Continuous
 48
0.25
100
AcDbLine
 10
454.8035010802161
 20
198.1466625405711
 30
0.0
 11
454.0490181446902
 21
197.36530954736
 31
0.0
  0
LINE
  5
94E
330
18
100
AcDbEntity
  8
1
  6
Continuous
 48
0.25
100
AcDbLine
 10
454.8035010802161
 20
199.4038983975208
 30
0.0
 11
454.0490181446902
 21
200.1852513907319
 31
0.0
  0
LINE
  5
94F
330
18
100
AcDbEntity
  8
1
  6
Continuous
 48
0.25
100
AcDbLine
 10
455.4243408340981
 20
200.0247381514025
 30
0.0
 11
454.6429878408869
 21
200.7792210869286
 31
0.0
  0
ARC
  5
950
330
18
100
AcDbEntity
  8
1
  6
Continuous
 48
0.25
100
AcDbCircle
 10
456.0529587625729
 20
198.7752804690459
 30
0.0
 40
2.45
100
AcDbArc
 50
215.1289999999999
 51
234.871
  0
ARC
  5
951
330
18
100
AcDbEntity
  8
1
  6
Continuous
 48
0.25
100
AcDbCircle
 10
456.0529587625729
 20
198.7752804690459
 30
0.0
 40
2.45
100
AcDbArc
 50
125.1291000000039
 51
144.8709000000038
  0
LINE
  5
952
330
18
100
AcDbEntity
  8
1
  6
Continuous
 48
0.25
100
AcDbLine
 10
456.053665869354
 20
197.7549253837938
 30
0.0
 11
456.6815766910476
 21
197.5258227866893
 31
0.0
  0
LINE
  5
953
330
18
100
AcDbEntity
  8
1
  6
Continuous
 48
0.25
100
AcDbLine
 10
456.053665869354
 20
197.7549253837938
 30
0.0
 11
455.4243408340981
 21
197.5258227866893
 31
0.0
  0
LINE
  5
954
330
18
100
AcDbEntity
  8
1
  6
Continuous
 48
0.25
100
AcDbLine
 10
455.0326036773205
 20
198.7759875758271
 30
0.0
 11
454.8035010802161
 21
198.1466625405711
 31
0.0
  0
LINE
  5
955
330
18
100
AcDbEntity
  8
1
  6
Continuous
 48
0.25
100
AcDbLine
 10
455.0326036773205
 20
198.7759875758271
 30
0.0
 11
454.8035010802161
 21
199.4038983975208
 31
0.0
  0
LINE
  5
956
330
18
100
AcDbEntity
  8
1
  6
Continuous
 48
0.25
100
AcDbLine
 10
456.0529587625729
 20
199.7963426610793
 30
0.0
 11
455.4243408340981
 21
200.0247381514025
 31
0.0
  0
LINE
  5
957
330
18
100
AcDbEntity
  8
1
  6
Continuous
 48
0.25
100
AcDbLine
 10
456.0529587625729
 20
199.7963426610793
 30
0.0
 11
456.6815766910476
 21
200.0247381514026
 31
0.0
  0
ARC
  5
958
330
18
100
AcDbEntity
  8
1
  6
Continuous
 48
0.25
100
AcDbCircle
 10
456.0529587625729
 20
198.7752804690459
 30
0.0
 40
2.45
100
AcDbArc
 50
305.1289999999998
 51
324.871
  0
ARC
  5
959
330
18
100
AcDbEntity
  8
1
  6
Continuous
 48
0.25
100
AcDbCircle
 10
456.0529587625729
 20
198.7752804690459
 30
0.0
 40
2.45
100
AcDbArc
 50
35.12899999999993
 51
54.87089000000293
  0
LINE
  5
95A
330
18
100
AcDbEntity
  8
1
  6
Continuous
 48
0.25
100
AcDbLine
 10
457.3024164449292
 20
198.146662540571
 30
0.0
 11
458.0568993804553
 21
197.3653095473599
 31
0.0
  0
LINE
  5
95B
330
18
100
AcDbEntity
  8
1
  6
Continuous
 48
0.25
100
AcDbLine
 10
457.0740209546061
 20
198.7752804690459
 30
0.0
 11
457.3024164449292
 21
198.146662540571
 31
0.0
  0
LINE
  5
95C
330
18
100
AcDbEntity
  8
1
  6
Continuous
 48
0.25
100
AcDbLine
 10
457.3024164449296
 20
199.4038983975208
 30
0.0
 11
458.0568993804553
 21
200.1852513907319
 31
0.0
  0
LINE
  5
95D
330
18
100
AcDbEntity
  8
1
  6
Continuous
 48
0.25
100
AcDbLine
 10
457.0740209546061
 20
198.7752804690459
 30
0.0
 11
457.3024164449296
 21
199.4038983975208
 31
0.0
  0
LINE
  5
95E
330
18
100
AcDbEntity
  8
4
  6
CENTER
100
AcDbLine
 10
463.3029587625001
 20
309.8573966738551
 30
0.0
 11
448.8029587625002
 21
309.8573966738551
 31
0.0
  0
LINE
  5
95F
330
18
100
AcDbEntity
  8
1
  6
Continuous
 48
0.25
100
AcDbLine
 10
457.0740209545561
 20
309.8573966738551
 30
0.0
 11
457.3024164448793
 21
310.48601460233
 31
0.0
  0
LINE
  5
960
330
18
100
AcDbEntity
  8
1
  6
Continuous
 48
0.25
100
AcDbLine
 10
457.3024164448793
 20
310.48601460233
 30
0.0
 11
458.0568993804051
 21
311.2673675955411
 31
0.0
  0
LINE
  5
961
330
18
100
AcDbEntity
  8
1
  6
Continuous
 48
0.25
100
AcDbLine
 10
457.0740209545561
 20
309.8573966738551
 30
0.0
 11
457.3024164448793
 21
309.2287787453802
 31
0.0
  0
LINE
  5
962
330
18
100
AcDbEntity
  8
1
  6
Continuous
 48
0.25
100
AcDbLine
 10
457.3024164448793
 20
309.2287787453802
 30
0.0
 11
458.0568993804051
 21
308.4474257521691
 31
0.0
  0
ARC
  5
963
330
18
100
AcDbEntity
  8
1
  6
Continuous
 48
0.25
100
AcDbCircle
 10
456.0529587625226
 20
309.8573966738551
 30
0.0
 40
2.45
100
AcDbArc
 50
35.12899999999993
 51
54.87089000000293
  0
ARC
  5
964
330
18
100
AcDbEntity
  8
1
  6
Continuous
 48
0.25
100
AcDbCircle
 10
456.0529587625226
 20
309.8573966738551
 30
0.0
 40
2.45
100
AcDbArc
 50
305.1289999999998
 51
324.871
  0
LINE
  5
965
330
18
100
AcDbEntity
  8
1
  6
Continuous
 48
0.25
100
AcDbLine
 10
456.0529587625226
 20
310.8784588658885
 30
0.0
 11
456.6815766909974
 21
311.1068543562117
 31
0.0
  0
LINE
  5
966
330
18
100
AcDbEntity
  8
1
  6
Continuous
 48
0.25
100
AcDbLine
 10
456.0529587625226
 20
310.8784588658885
 30
0.0
 11
455.4243408340477
 21
311.1068543562117
 31
0.0
  0
LINE
  5
967
330
18
100
AcDbEntity
  8
1
  6
Continuous
 48
0.25
100
AcDbLine
 10
455.0326036772703
 20
309.8581037806362
 30
0.0
 11
454.8035010801658
 21
310.48601460233
 31
0.0
  0
LINE
  5
968
330
18
100
AcDbEntity
  8
1
  6
Continuous
 48
0.25
100
AcDbLine
 10
455.0326036772703
 20
309.8581037806362
 30
0.0
 11
454.8035010801658
 21
309.2287787453802
 31
0.0
  0
LINE
  5
969
330
18
100
AcDbEntity
  8
1
  6
Continuous
 48
0.25
100
AcDbLine
 10
456.0536658693036
 20
308.8370415886029
 30
0.0
 11
455.4243408340477
 21
308.6079389914984
 31
0.0
  0
LINE
  5
96A
330
18
100
AcDbEntity
  8
1
  6
Continuous
 48
0.25
100
AcDbLine
 10
456.0536658693036
 20
308.8370415886029
 30
0.0
 11
456.6815766909974
 21
308.6079389914984
 31
0.0
  0
ARC
  5
96B
330
18
100
AcDbEntity
  8
1
  6
Continuous
 48
0.25
100
AcDbCircle
 10
456.0529587625226
 20
309.8573966738551
 30
0.0
 40
2.45
100
AcDbArc
 50
125.1291000000039
 51
144.8709000000038
  0
ARC
  5
96C
330
18
100
AcDbEntity
  8
1
  6
Continuous
 48
0.25
100
AcDbCircle
 10
456.0529587625226
 20
309.8573966738551
 30
0.0
 40
2.45
100
AcDbArc
 50
215.1289999999999
 51
234.871
  0
LINE
  5
96D
330
18
100
AcDbEntity
  8
1
  6
Continuous
 48
0.25
100
AcDbLine
 10
455.4243408340477
 20
311.1068543562117
 30
0.0
 11
454.6429878408367
 21
311.8613372917377
 31
0.0
  0
LINE
  5
96E
330
18
100
AcDbEntity
  8
1
  6
Continuous
 48
0.25
100
AcDbLine
 10
454.8035010801658
 20
310.48601460233
 30
0.0
 11
454.0490181446398
 21
311.2673675955411
 31
0.0
  0
LINE
  5
96F
330
18
100
AcDbEntity
  8
1
  6
Continuous
 48
0.25
100
AcDbLine
 10
454.8035010801658
 20
309.2287787453802
 30
0.0
 11
454.0490181446398
 21
308.4474257521691
 31
0.0
  0
LINE
  5
970
330
18
100
AcDbEntity
  8
1
  6
Continuous
 48
0.25
100
AcDbLine
 10
455.4243408340477
 20
308.6079389914984
 30
0.0
 11
454.6429878408367
 21
307.8534560559725
 31
0.0
  0
LINE
  5
971
330
18
100
AcDbEntity
  8
1
  6
Continuous
 48
0.25
100
AcDbLine
 10
456.6815766909974
 20
311.1068543562117
 30
0.0
 11
457.4629296842084
 21
311.8613372917377
 31
0.0
  0
LINE
  5
972
330
18
100
AcDbEntity
  8
1
  6
Continuous
 48
0.25
100
AcDbLine
 10
456.6815766909974
 20
308.6079389914984
 30
0.0
 11
457.4629296842084
 21
307.8534560559725
 31
0.0
  0
CIRCLE
  5
973
330
18
100
AcDbEntity
  8
1
  6
Continuous
 48
0.25
100
AcDbCircle
 10
456.0529587625226
 20
309.8573966738551
 30
0.0
 40
4.5
  0
CIRCLE
  5
974
330
18
100
AcDbEntity
  8
1
  6
Continuous
100
AcDbCircle
 10
456.0529587625191
 20
309.8573966738602
 30
0.0
 40
4.600000000071418
  0
LINE
  5
975
330
18
100
AcDbEntity
  8
4
  6
CENTER
100
AcDbLine
 10
456.0529587625
 20
317.107396673855
 30
0.0
 11
456.0529587625
 21
302.607396673855
 31
0.0
  0
CIRCLE
  5
976
330
18
100
AcDbEntity
  8
1
  6
Continuous
100
AcDbCircle
 10
456.0529587625
 20
309.8573966738551
 30
0.0
 40
6.0
  0
LINE
  5
CA4
330
18
100
AcDbEntity
  8
1
  6
Continuous
100
AcDbLine
 10
456.6529587624949
 20
258.7752804693264
 30
0.0
 11
456.6529587624949
 21
260.7752804693264
 31
0.0
  0
LINE
  5
CA5
330
18
100
AcDbEntity
  8
1
  6
Continuous
100
AcDbLine
 10
456.6529587624949
 20
260.7752804693264
 30
0.0
 11
455.452958762495
 21
260.7752804693264
 31
0.0
  0
LINE
  5
CA6
330
18
100
AcDbEntity
  8
1
  6
Continuous
100
AcDbLine
 10
455.7529587624244
 20
279.7752804693264
 30
0.0
 11
456.3529587624233
 21
279.7752804693264
 31
0.0
  0
LINE
  5
CA7
330
18
100
AcDbEntity
  8
1
  6
Continuous
100
AcDbLine
 10
455.7529587624244
 20
278.7752804693264
 30
0.0
 11
456.3529587624233
 21
278.7752804693264
 31
0.0
  0
LINE
  5
CA8
330
18
100
AcDbEntity
  8
1
  6
Continuous
100
AcDbLine
 10
455.7529587624244
 20
279.7752804693264
 30
0.0
 11
455.7529587624244
 21
277.7752804693264
 31
0.0
  0
LINE
  5
CA9
330
18
100
AcDbEntity
  8
1
  6
Continuous
100
AcDbLine
 10
456.0529587624238
 20
278.7752804693264
 30
0.0
 11
456.8529587624233
 21
277.7752804693264
 31
0.0
  0
ARC
  5
CAA
330
18
100
AcDbEntity
  8
1
  6
Continuous
100
AcDbCircle
 10
456.3529587624233
 20
279.2752804693264
 30
0.0
 40
0.5
100
AcDbArc
 50
269.9999999999608
 51
89.99999999996092
  0
LINE
  5
FEA
330
18
100
AcDbEntity
  8
1
  6
Continuous
100
AcDbLine
 10
312.6922571221766
 20
363.5757603170324
 30
0.0
 11
312.6922571221766
 21
351.7757603170537
 31
0.0
  0
LINE
  5
FEC
330
18
100
AcDbEntity
  8
1
  6
Continuous
100
AcDbLine
 10
330.2922571221766
 20
338.875760317051
 30
0.0
 11
330.2922571221766
 21
364.6757603170552
 31
0.0
  0
LINE
  5
FED
330
18
100
AcDbEntity
  8
1
  6
Continuous
100
AcDbLine
 10
318.4922571221767
 20
338.3757603170546
 30
0.0
 11
318.4922571221767
 21
365.175760317053
 31
0.0
  0
LINE
  5
FF0
330
18
100
AcDbEntity
  8
4
  6
CENTER
100
AcDbLine
 10
298.9425244759481
 20
351.7757603170536
 30
0.0
 11
337.7309635294892
 21
351.7757603170537
 31
0.0
  0
LINE
  5
FF2
330
18
100
AcDbEntity
  8
1
  6
Continuous
100
AcDbLine
 10
332.2922571221766
 20
347.7757603173577
 30
0.0
 11
332.2922571221766
 21
355.7757603173578
 31
0.0
  0
LINE
  5
FF3
330
18
100
AcDbEntity
  8
1
  6
Continuous
100
AcDbLine
 10
318.4922571221767
 20
338.3757603170546
 30
0.0
 11
329.7922571221763
 21
338.3757603170506
 31
0.0
  0
ARC
  5
FF5
330
18
100
AcDbEntity
  8
1
  6
Continuous
100
AcDbCircle
 10
329.7922571221767
 20
338.875760317051
 30
0.0
 40
0.5
100
AcDbArc
 50
270.0
 51
0.0
  0
LINE
  5
FF6
330
18
100
AcDbEntity
  8
1
  6
Continuous
100
AcDbLine
 10
332.2922571221766
 20
347.7757603173575
 30
0.0
 11
330.2922571221768
 21
347.7757603173575
 31
0.0
  0
LINE
  5
FF7
330
18
100
AcDbEntity
  8
1
  6
Continuous
100
AcDbLine
 10
332.2922571221766
 20
347.9315801894568
 30
0.0
 11
330.2922571217912
 21
347.9315801894571
 31
0.0
  0
LINE
  5
FF9
330
18
100
AcDbEntity
  8
1
  6
Continuous
100
AcDbLine
 10
330.2922571221766
 20
359.2757603169782
 30
0.0
 11
331.7922571221763
 21
359.2757603169776
 31
0.0
  0
ARC
  5
FFA
330
18
100
AcDbEntity
  8
1
  6
Continuous
100
AcDbCircle
 10
331.7922571221767
 20
359.7757603169776
 30
0.0
 40
0.5
100
AcDbArc
 50
270.0
 51
0.0
  0
ARC
  5
FFB
330
18
100
AcDbEntity
  8
1
  6
Continuous
100
AcDbCircle
 10
331.7922571221767
 20
362.7757603169776
 30
0.0
 40
0.5
100
AcDbArc
 50
0.0
 51
90.0
  0
LINE
  5
FFC
330
18
100
AcDbEntity
  8
1
  6
Continuous
100
AcDbLine
 10
330.292257122178
 20
363.2757603169782
 30
0.0
 11
331.7922571221768
 21
363.2757603169776
 31
0.0
  0
LINE
  5
FFD
330
18
100
AcDbEntity
  8
1
  6
Continuous
100
AcDbLine
 10
332.2922571221766
 20
355.775760317358
 30
0.0
 11
330.2922571221766
 21
355.775760317358
 31
0.0
  0
LINE
  5
FFE
330
18
100
AcDbEntity
  8
1
  6
Continuous
100
AcDbLine
 10
332.2922571221766
 20
355.6199404446499
 30
0.0
 11
330.2922571217912
 21
355.6199404446497
 31
0.0
  0
LINE
  5
1004
330
18
100
AcDbEntity
  8
1
  6
Continuous
100
AcDbLine
 10
317.6922571221764
 20
364.5757603170333
 30
0.0
 11
310.6922571220809
 21
364.5757603170323
 31
0.0
  0
ARC
  5
1007
330
18
100
AcDbEntity
  8
1
  6
Continuous
100
AcDbCircle
 10
311.6922571221766
 20
363.5757603170324
 30
0.0
 40
1.0
100
AcDbArc
 50
0.0
 51
90.0
  0
LINE
  5
100A
330
18
100
AcDbEntity
  8
1
  6
Continuous
100
AcDbLine
 10
318.4922571221767
 20
365.175760317053
 30
0.0
 11
329.7922571221767
 21
365.1757603170552
 31
0.0
  0
ARC
  5
100B
330
18
100
AcDbEntity
  8
1
  6
Continuous
100
AcDbCircle
 10
317.6922571221766
 20
363.5757603170333
 30
0.0
 40
1.0
100
AcDbArc
 50
36.86989764583751
 51
90.0
  0
ARC
  5
100C
330
18
100
AcDbEntity
  8
1
  6
Continuous
100
AcDbCircle
 10
329.7922571221767
 20
364.6757603170552
 30
0.0
 40
0.5
100
AcDbArc
 50
0.0
 51
90.0
  0
LINE
  5
100F
330
18
100
AcDbEntity
  8
1
  6
Continuous
100
AcDbLine
 10
352.2778557280159
 20
365.2757603170527
 30
0.0
 11
352.2778557279918
 21
338.2757603170587
 31
0.0
  0
LINE
  5
1010
330
18
100
AcDbEntity
  8
1
  6
Continuous
100
AcDbLine
 10
348.7778557280226
 20
372.7757603170787
 30
0.0
 11
348.7778557280179
 21
367.5757603170545
 31
0.0
  0
LINE
  5
1011
330
18
100
AcDbEntity
  8
1
  6
Continuous
100
AcDbLine
 10
346.4778557280226
 20
372.7757603170776
 30
0.0
 11
346.4778557280179
 21
367.5757603170565
 31
0.0
  0
LINE
  5
1012
330
18
100
AcDbEntity
  8
1
  6
Continuous
100
AcDbLine
 10
346.477855728021
 20
372.7757603170776
 30
0.0
 11
348.7778557280226
 21
372.7757603170787
 31
0.0
  0
LINE
  5
1013
330
18
100
AcDbEntity
  8
1
  6
Continuous
100
AcDbLine
 10
353.5778557280041
 20
356.3757603170566
 30
0.0
 11
352.2778557280042
 21
356.3757603170566
 31
0.0
  0
LINE
  5
1014
330
18
100
AcDbEntity
  8
1
  6
Continuous
100
AcDbLine
 10
353.5778557280041
 20
347.1757603170567
 30
0.0
 11
352.2778557280042
 21
347.1757603170567
 31
0.0
  0
LINE
  5
1015
330
18
100
AcDbEntity
  8
1
  6
Continuous
100
AcDbLine
 10
353.5778557280043
 20
352.866589837586
 30
0.0
 11
352.2778557280042
 21
351.7757603170555
 31
0.0
  0
LINE
  5
1016
330
18
100
AcDbEntity
  8
1
  6
Continuous
100
AcDbLine
 10
353.5778557280041
 20
351.7757603170559
 30
0.0
 11
352.2778557280038
 21
350.6849307965254
 31
0.0
  0
LINE
  5
1017
330
18
100
AcDbEntity
  8
4
  6
CENTER
100
AcDbLine
 10
343.7185773983336
 20
351.7757603170529
 30
0.0
 11
359.5673932334366
 21
351.7757603170577
 31
0.0
  0
LINE
  5
1018
330
18
100
AcDbEntity
  8
1
  6
Continuous
100
AcDbLine
 10
352.2778557280042
 20
356.3757603170566
 30
0.0
 11
352.2778557280042
 21
347.1757603170567
 31
0.0
  0
ARC
  5
1019
330
18
100
AcDbEntity
  8
1
  6
Continuous
100
AcDbCircle
 10
354.8999050076783
 20
354.553984252377
 30
0.0
 40
1.6
100
AcDbArc
 50
15.49396750052177
 51
85.00000000000019
  0
ARC
  5
101A
330
18
100
AcDbEntity
  8
1
  6
Continuous
100
AcDbCircle
 10
354.8999050076954
 20
348.9975363817324
 30
0.0
 40
1.6
100
AcDbArc
 50
274.9999999999997
 51
344.5060324994781
  0
LINE
  5
101B
330
18
100
AcDbEntity
  8
1
  6
Continuous
100
AcDbLine
 10
353.5778557280041
 20
356.2757603170568
 30
0.0
 11
355.0393541960994
 21
356.147895769338
 31
0.0
  0
LINE
  5
101C
330
18
100
AcDbEntity
  8
1
  6
Continuous
100
AcDbLine
 10
353.5778557280041
 20
347.2757603170567
 30
0.0
 11
355.0393541961405
 21
347.4036248647792
 31
0.0
  0
LINE
  5
101D
330
18
100
AcDbEntity
  8
1
  6
Continuous
100
AcDbLine
 10
353.5778557280041
 20
356.3757603170566
 30
0.0
 11
353.5778557280041
 21
347.1757603170567
 31
0.0
  0
ARC
  5
101E
330
18
100
AcDbEntity
  8
1
  6
Continuous
100
AcDbCircle
 10
344.877855728004
 20
351.7757603170567
 30
0.0
 40
12.0
100
AcDbArc
 50
344.5060324994781
 51
15.49396750052177
  0
LINE
  5
1034
330
18
100
AcDbEntity
  8
1
  6
Continuous
100
AcDbLine
 10
371.3518581287312
 20
352.8665898375883
 30
0.0
 11
370.051858128731
 21
351.7757603170577
 31
0.0
  0
LINE
  5
1035
330
18
100
AcDbEntity
  8
1
  6
Continuous
100
AcDbLine
 10
371.3518581287312
 20
351.7757603170577
 30
0.0
 11
370.051858128731
 21
350.6849307965272
 31
0.0
  0
LINE
  5
1036
330
18
100
AcDbEntity
  8
1
  6
Continuous
100
AcDbLine
 10
371.3518581287312
 20
356.3757603170578
 30
0.0
 11
370.051858128731
 21
356.3757603170578
 31
0.0
  0
LINE
  5
1037
330
18
100
AcDbEntity
  8
4
  6
CENTER
100
AcDbLine
 10
376.2473219567963
 20
351.7757603170577
 30
0.0
 11
366.9034914867552
 21
351.7757603170577
 31
0.0
  0
LINE
  5
1038
330
18
100
AcDbEntity
  8
1
  6
Continuous
100
AcDbLine
 10
371.3518581287312
 20
347.1757603170577
 30
0.0
 11
370.051858128731
 21
347.1757603170577
 31
0.0
  0
LINE
  5
1039
330
18
100
AcDbEntity
  8
1
  6
Continuous
100
AcDbLine
 10
369.251858128731
 20
357.7757603170578
 30
0.0
 11
369.251858128731
 21
345.7757603170579
 31
0.0
  0
LINE
  5
103A
330
18
100
AcDbEntity
  8
1
  6
Continuous
100
AcDbLine
 10
370.051858128731
 20
357.7757603170578
 30
0.0
 11
370.051858128731
 21
345.7757603170579
 31
0.0
  0
LINE
  5
103B
330
18
100
AcDbEntity
  8
1
  6
Continuous
100
AcDbLine
 10
370.051858128731
 20
345.7757603170577
 30
0.0
 11
369.251858128731
 21
345.7757603170577
 31
0.0
  0
LINE
  5
103C
330
18
100
AcDbEntity
  8
1
  6
Continuous
100
AcDbLine
 10
370.051858128731
 20
357.7757603170578
 30
0.0
 11
369.251858128731
 21
357.7757603170578
 31
0.0
  0
ARC
  5
103D
330
18
100
AcDbEntity
  8
1
  6
Continuous
100
AcDbCircle
 10
372.6739074084225
 20
348.9975363817334
 30
0.0
 40
1.6
100
AcDbArc
 50
274.9999999999997
 51
344.5060324994781
  0
LINE
  5
103E
330
18
100
AcDbEntity
  8
1
  6
Continuous
100
AcDbLine
 10
371.3518581287312
 20
356.3757603170578
 30
0.0
 11
371.3518581287312
 21
347.1757603170577
 31
0.0
  0
LINE
  5
103F
330
18
100
AcDbEntity
  8
1
  6
Continuous
100
AcDbLine
 10
371.3518581287312
 20
347.2757603170578
 30
0.0
 11
372.8133565968676
 21
347.4036248647804
 31
0.0
  0
ARC
  5
1040
330
18
100
AcDbEntity
  8
1
  6
Continuous
100
AcDbCircle
 10
372.6739074084052
 20
354.5539842523782
 30
0.0
 40
1.6
100
AcDbArc
 50
15.49396750052177
 51
85.00000000000019
  0
LINE
  5
1041
330
18
100
AcDbEntity
  8
1
  6
Continuous
100
AcDbLine
 10
371.3518581287312
 20
356.275760317058
 30
0.0
 11
372.8133565968264
 21
356.1478957693391
 31
0.0
  0
ARC
  5
1042
330
18
100
AcDbEntity
  8
1
  6
Continuous
100
AcDbCircle
 10
362.6518581287311
 20
351.7757603170577
 30
0.0
 40
12.0
100
AcDbArc
 50
344.5060324994781
 51
15.49396750052177
  0
LINE
  5
1044
330
18
100
AcDbEntity
  8
1
  6
Continuous
100
AcDbLine
 10
346.4778557279852
 20
330.7757603170379
 30
0.0
 11
348.7778557279851
 21
330.7757603170368
 31
0.0
  0
LINE
  5
1045
330
18
100
AcDbEntity
  8
1
  6
Continuous
100
AcDbLine
 10
348.7778557280187
 20
365.2757603170545
 30
0.0
 11
349.9778557280159
 21
365.2757603170549
 31
0.0
  0
LINE
  5
1046
330
18
100
AcDbEntity
  8
1
  6
Continuous
100
AcDbLine
 10
348.7778557279892
 20
338.2757603170545
 30
0.0
 11
349.9778557279918
 21
338.2757603170548
 31
0.0
  0
LINE
  5
1047
330
18
100
AcDbEntity
  8
1
  6
Continuous
100
AcDbLine
 10
348.7778557280179
 20
367.5757603170545
 30
0.0
 11
349.9778557280152
 21
367.5757603170548
 31
0.0
  0
LINE
  5
1049
330
18
100
AcDbEntity
  8
1
  6
Continuous
100
AcDbLine
 10
348.7778557280226
 20
330.7757603170368
 30
0.0
 11
348.7778557280179
 21
335.975760317061
 31
0.0
  0
LINE
  5
104A
330
18
100
AcDbEntity
  8
1
  6
Continuous
100
AcDbLine
 10
348.7778557280179
 20
335.975760317061
 30
0.0
 11
349.9778557279912
 21
335.9757603170608
 31
0.0
  0
LINE
  5
104B
330
18
100
AcDbEntity
  8
1
  6
Continuous
100
AcDbLine
 10
346.4778557279899
 20
335.9757603170566
 30
0.0
 11
346.4778557279852
 21
330.7757603170379
 31
0.0
  0
ARC
  5
104D
330
18
100
AcDbEntity
  8
1
  6
Continuous
100
AcDbCircle
 10
348.7778557280179
 20
367.5757603170545
 30
0.0
 40
2.299999999999998
100
AcDbArc
 50
179.9999999999487
 51
270.0000000000176
  0
ARC
  5
104E
330
18
100
AcDbEntity
  8
1
  6
Continuous
100
AcDbCircle
 10
348.7778557279899
 20
335.9757603170545
 30
0.0
 40
2.299999999999998
100
AcDbArc
 50
90.00000000001767
 51
179.9999999999491
  0
ARC
  5
104F
330
18
100
AcDbEntity
  8
1
  6
Continuous
100
AcDbCircle
 10
349.9778557279918
 20
338.2757603170608
 30
0.0
 40
2.299999999999998
100
AcDbArc
 50
269.9999999999832
 51
359.999999999949
  0
ARC
  5
1050
330
18
100
AcDbEntity
  8
1
  6
Continuous
100
AcDbCircle
 10
349.9778557280159
 20
365.2757603170547
 30
0.0
 40
2.299999999999998
100
AcDbArc
 50
359.999999999949
 51
90.00000000001675
  0
LINE
  5
1051
330
18
100
AcDbEntity
  8
1
  6
Continuous
100
AcDbLine
 10
349.9778557280159
 20
365.2757603170549
 30
0.0
 11
349.9778557279918
 21
338.2757603170548
 31
0.0
  0
LINE
  5
1053
330
18
100
AcDbEntity
  8
1
  6
Continuous
100
AcDbLine
 10
312.6922571221766
 20
339.9757603170748
 30
0.0
 11
312.6922571221766
 21
351.7757603170535
 31
0.0
  0
ARC
  5
1054
330
18
100
AcDbEntity
  8
1
  6
Continuous
100
AcDbCircle
 10
311.6922571221766
 20
339.9757603170748
 30
0.0
 40
1.0
100
AcDbArc
 50
270.0
 51
0.0
  0
LINE
  5
1055
330
18
100
AcDbEntity
  8
1
  6
Continuous
100
AcDbLine
 10
305.6922571221769
 20
363.7757603176727
 30
0.0
 11
305.6922571221781
 21
339.7757603176728
 31
0.0
  0
LINE
  5
1056
330
18
100
AcDbEntity
  8
1
  6
Continuous
100
AcDbLine
 10
310.6922571221768
 20
367.7757603176722
 30
0.0
 11
310.6922571221783
 21
335.7757603176724
 31
0.0
  0
LINE
  5
1057
330
18
100
AcDbEntity
  8
1
  6
Continuous
100
AcDbLine
 10
308.6922571221768
 20
367.7757603176723
 30
0.0
 11
308.6922571221784
 21
335.7757603176725
 31
0.0
  0
LINE
  5
1059
330
18
100
AcDbEntity
  8
1
  6
Continuous
100
AcDbLine
 10
308.6922571221784
 20
335.7757603176725
 30
0.0
 11
310.6922571221783
 21
335.7757603176724
 31
0.0
  0
LINE
  5
105D
330
18
100
AcDbEntity
  8
1
  6
Continuous
100
AcDbLine
 10
310.6922571221768
 20
367.7757603176722
 30
0.0
 11
308.6922571221768
 21
367.7757603176723
 31
0.0
  0
LINE
  5
105E
330
18
100
AcDbEntity
  8
1
  6
Continuous
100
AcDbLine
 10
305.6922571221769
 20
363.7757603176727
 30
0.0
 11
308.6922571221768
 21
367.7757603176723
 31
0.0
  0
LINE
  5
105F
330
18
100
AcDbEntity
  8
1
  6
Continuous
100
AcDbLine
 10
305.6922571221781
 20
339.7757603176728
 30
0.0
 11
308.6922571221784
 21
335.7757603176725
 31
0.0
  0
ARC
  5
1060
330
18
100
AcDbEntity
  8
1
  6
Continuous
100
AcDbCircle
 10
317.6922571221766
 20
339.9757603170739
 30
0.0
 40
1.0
100
AcDbArc
 50
270.0
 51
323.1301023541624
  0
LINE
  5
1061
330
18
100
AcDbEntity
  8
1
  6
Continuous
100
AcDbLine
 10
317.6922571221764
 20
338.9757603170739
 30
0.0
 11
310.6922571220809
 21
338.9757603170749
 31
0.0
  0
LINE
  5
1064
330
18
100
AcDbEntity
  8
1
  6
Continuous
100
AcDbLine
 10
304.2281302849653
 20
361.1757603170536
 30
0.0
 11
305.692257122177
 21
361.1757603170536
 31
0.0
  0
LINE
  5
1065
330
18
100
AcDbEntity
  8
1
  6
Continuous
100
AcDbLine
 10
304.2281302849653
 20
342.3757603170536
 30
0.0
 11
305.6922571221779
 21
342.3757603170536
 31
0.0
  0
ARC
  5
1066
330
18
100
AcDbEntity
  8
1
  6
Continuous
100
AcDbCircle
 10
362.1922571221738
 20
351.7757603170536
 30
0.0
 40
60.0
100
AcDbArc
 50
172.2389089445787
 51
187.7610910554212
  0
ARC
  5
1067
330
18
100
AcDbEntity
  8
1
  6
Continuous
100
AcDbCircle
 10
304.2281302849653
 20
359.6757603170536
 30
0.0
 40
1.5
100
AcDbArc
 50
90.0
 51
172.2389089445785
  0
ARC
  5
1068
330
18
100
AcDbEntity
  8
1
  6
Continuous
100
AcDbCircle
 10
304.2281302849653
 20
343.8757603170536
 30
0.0
 40
1.5
100
AcDbArc
 50
187.7610910554214
 51
270.0
  0
ARC
  5
11BD
330
18
100
AcDbEntity
  8
1
  6
Continuous
100
AcDbCircle
 10
315.3656198810432
 20
351.7757603170703
 30
0.0
 40
15.073362758848
100
AcDbArc
 50
146.5984739120778
 51
213.4015260878131
  0
LINE
  5
1242
330
18
100
AcDbEntity
  8
4
  6
CENTER
100
AcDbLine
 10
307.1804767911499
 20
238.7752804691187
 30
0.0
 11
318.3236278926102
 21
238.7752804691236
 31
0.0
  0
LINE
  5
1243
330
18
100
AcDbEntity
  8
4
  6
CENTER
100
AcDbLine
 10
307.1804767911139
 20
198.7752804691187
 30
0.0
 11
318.4437009062276
 21
198.7752804691236
 31
0.0
  0
LINE
  5
1254
330
18
100
AcDbEntity
  8
4
  6
CENTER
100
AcDbLine
 10
328.6338822566379
 20
361.2757603170536
 30
0.0
 11
333.7191611991769
 21
361.2757603170536
 31
0.0
  0
LINE
  5
1255
330
18
100
AcDbEntity
  8
1
  6
Continuous
100
AcDbLine
 10
332.2922571221766
 20
359.7757603169776
 30
0.0
 11
332.2922571221766
 21
362.7757603169776
 31
0.0
  0
LINE
  5
1256
330
18
100
AcDbEntity
  8
1
  6
Continuous
100
AcDbLine
 10
332.2922571221766
 20
343.7757603171296
 30
0.0
 11
332.2922571221766
 21
340.7757603171297
 31
0.0
  0
LINE
  5
1257
330
18
100
AcDbEntity
  8
4
  6
CENTER
100
AcDbLine
 10
328.6338822566379
 20
342.2757603170536
 30
0.0
 11
333.7191611991769
 21
342.2757603170536
 31
0.0
  0
LINE
  5
1258
330
18
100
AcDbEntity
  8
1
  6
Continuous
100
AcDbLine
 10
330.2922571221766
 20
344.2757603171291
 30
0.0
 11
331.7922571221763
 21
344.2757603171297
 31
0.0
  0
ARC
  5
1259
330
18
100
AcDbEntity
  8
1
  6
Continuous
100
AcDbCircle
 10
331.7922571221767
 20
343.7757603171296
 30
0.0
 40
0.5
100
AcDbArc
 50
0.0
 51
90.00000000000005
  0
ARC
  5
125A
330
18
100
AcDbEntity
  8
1
  6
Continuous
100
AcDbCircle
 10
331.7922571221767
 20
340.7757603171297
 30
0.0
 40
0.5
100
AcDbArc
 50
270.0
 51
0.0
  0
LINE
  5
125B
330
18
100
AcDbEntity
  8
1
  6
Continuous
100
AcDbLine
 10
330.292257122178
 20
340.2757603171291
 30
0.0
 11
331.7922571221768
 21
340.2757603171297
 31
0.0
  0
LINE
  5
126B
330
18
100
AcDbEntity
  8
1
  6
Continuous
100
AcDbLine
 10
332.2922571221766
 20
352.8813276574436
 30
0.0
 11
330.2922571221766
 21
352.8813276574436
 31
0.0
  0
LINE
  5
126C
330
18
100
AcDbEntity
  8
1
  6
Continuous
100
AcDbLine
 10
332.2922571221766
 20
350.6701929766906
 30
0.0
 11
330.2922571221766
 21
350.6701929766906
 31
0.0
  0
LINE
  5
144B
330
18
100
AcDbEntity
  8
4
  6
CENTER
100
AcDbLine
 10
343.7185773983336
 20
63.53449041357055
 30
0.0
 11
359.5673932334366
 21
63.53449041357544
 31
0.0
  0
LINE
  5
1450
330
18
100
AcDbEntity
  8
1
  6
Continuous
100
AcDbLine
 10
330.2922571221766
 20
50.63449041356864
 30
0.0
 11
330.2922571221766
 21
76.43449041357292
 31
0.0
  0
LINE
  5
1451
330
18
100
AcDbEntity
  8
1
  6
Continuous
100
AcDbLine
 10
318.4922571221767
 20
50.13449041357223
 30
0.0
 11
318.4922571221767
 21
50.73449041359143
 31
0.0
  0
LINE
  5
1453
330
18
100
AcDbEntity
  8
1
  6
Continuous
100
AcDbLine
 10
352.2778557280159
 20
77.03449041357038
 30
0.0
 11
352.2778557279918
 21
50.0344904135764
 31
0.0
  0
LINE
  5
1454
330
18
100
AcDbEntity
  8
1
  6
Continuous
100
AcDbLine
 10
349.9778557280159
 20
77.03449041357256
 30
0.0
 11
349.9778557279918
 21
50.03449041357254
 31
0.0
  0
LINE
  5
1455
330
18
100
AcDbEntity
  8
1
  6
Continuous
100
AcDbLine
 10
310.6922571221768
 20
79.53449041418986
 30
0.0
 11
310.6922571221783
 21
47.53449041418996
 31
0.0
  0
LINE
  5
1456
330
18
100
AcDbEntity
  8
1
  6
Continuous
100
AcDbLine
 10
308.6922571221768
 20
79.53449041419003
 30
0.0
 11
308.6922571221784
 21
47.53449041419013
 31
0.0
  0
LINE
  5
1457
330
18
100
AcDbEntity
  8
1
  6
Continuous
100
AcDbLine
 10
305.6922571221769
 20
75.53449041419032
 30
0.0
 11
305.6922571221781
 21
51.53449041419055
 31
0.0
  0
LINE
  5
1458
330
18
100
AcDbEntity
  8
1
  6
Continuous
100
AcDbLine
 10
332.2922571221766
 20
71.53449041349529
 30
0.0
 11
332.2922571221766
 21
74.53449041349529
 31
0.0
  0
LINE
  5
145A
330
18
100
AcDbEntity
  8
4
  6
CENTER
100
AcDbLine
 10
298.9425244759481
 20
63.53449041357129
 30
0.0
 11
337.7309635294892
 21
63.53449041357141
 31
0.0
  0
LINE
  5
145B
330
18
100
AcDbEntity
  8
1
  6
Continuous
100
AcDbLine
 10
304.3281302849677
 20
54.13449041357131
 30
0.0
 11
305.6922571221779
 21
54.13449041357131
 31
0.0
  0
LINE
  5
145C
330
18
100
AcDbEntity
  8
1
  6
Continuous
100
AcDbLine
 10
304.3281302849502
 20
72.93449041357127
 30
0.0
 11
305.692257122177
 21
72.93449041357127
 31
0.0
  0
LINE
  5
1464
330
18
100
AcDbEntity
  8
1
  6
Continuous
100
AcDbLine
 10
323.6922571221843
 20
50.7344904135907
 30
0.0
 11
310.6922571220809
 21
50.73449041359261
 31
0.0
  0
LINE
  5
1466
330
18
100
AcDbEntity
  8
1
  6
Continuous
100
AcDbLine
 10
308.6922571221784
 20
47.53449041419013
 30
0.0
 11
310.6922571221783
 21
47.53449041418996
 31
0.0
  0
LINE
  5
1467
330
18
100
AcDbEntity
  8
1
  6
Continuous
100
AcDbLine
 10
305.6922571221781
 20
51.53449041419055
 30
0.0
 11
308.6922571221784
 21
47.53449041419013
 31
0.0
  0
LINE
  5
1468
330
18
100
AcDbEntity
  8
1
  6
Continuous
100
AcDbLine
 10
318.4922571221767
 20
50.13449041357223
 30
0.0
 11
329.7922571221763
 21
50.13449041356829
 31
0.0
  0
ARC
  5
1469
330
18
100
AcDbEntity
  8
1
  6
Continuous
100
AcDbCircle
 10
329.7922571221767
 20
50.63449041356864
 30
0.0
 40
0.5
100
AcDbArc
 50
270.0
 51
0.0
  0
LINE
  5
146A
330
18
100
AcDbEntity
  8
1
  6
Continuous
100
AcDbLine
 10
346.4778557279852
 20
42.53449041355554
 30
0.0
 11
348.7778557279851
 21
42.53449041355452
 31
0.0
  0
LINE
  5
146B
330
18
100
AcDbEntity
  8
1
  6
Continuous
100
AcDbLine
 10
348.7778557279892
 20
50.03449041357221
 30
0.0
 11
349.9778557279918
 21
50.03449041357254
 31
0.0
  0
LINE
  5
146C
330
18
100
AcDbEntity
  8
1
  6
Continuous
100
AcDbLine
 10
348.7778557280226
 20
42.53449041355445
 30
0.0
 11
348.7778557280179
 21
47.73449041357872
 31
0.0
  0
LINE
  5
146D
330
18
100
AcDbEntity
  8
1
  6
Continuous
100
AcDbLine
 10
348.7778557280179
 20
47.73449041357872
 30
0.0
 11
349.9778557279912
 21
47.73449041357843
 31
0.0
  0
LINE
  5
146E
330
18
100
AcDbEntity
  8
1
  6
Continuous
100
AcDbLine
 10
346.4778557279899
 20
47.73449041357422
 30
0.0
 11
346.4778557279852
 21
42.53449041355554
 31
0.0
  0
ARC
  5
146F
330
18
100
AcDbEntity
  8
1
  6
Continuous
100
AcDbCircle
 10
348.7778557279899
 20
47.73449041357219
 30
0.0
 40
2.299999999999998
100
AcDbArc
 50
90.00000000001767
 51
179.9999999999491
  0
ARC
  5
1470
330
18
100
AcDbEntity
  8
1
  6
Continuous
100
AcDbCircle
 10
349.9778557279918
 20
50.03449041357845
 30
0.0
 40
2.299999999999998
100
AcDbArc
 50
269.9999999999832
 51
359.999999999949
  0
LINE
  5
1471
330
18
100
AcDbEntity
  8
1
  6
Continuous
100
AcDbLine
 10
332.2922571221766
 20
59.53449041387522
 30
0.0
 11
330.2922571221768
 21
59.53449041387522
 31
0.0
  0
LINE
  5
1472
330
18
100
AcDbEntity
  8
1
  6
Continuous
100
AcDbLine
 10
332.2922571221766
 20
59.69031028597453
 30
0.0
 11
330.2922571217912
 21
59.69031028597481
 31
0.0
  0
LINE
  5
1473
330
18
100
AcDbEntity
  8
4
  6
CENTER
100
AcDbLine
 10
328.6338822566379
 20
54.03449041357129
 30
0.0
 11
333.7191611991769
 21
54.03449041357129
 31
0.0
  0
LINE
  5
1474
330
18
100
AcDbEntity
  8
1
  6
Continuous
100
AcDbLine
 10
330.2922571221766
 20
56.03449041364679
 30
0.0
 11
331.7922571221763
 21
56.0344904136474
 31
0.0
  0
LINE
  5
1475
330
18
100
AcDbEntity
  8
1
  6
Continuous
100
AcDbLine
 10
330.292257122178
 20
52.03449041364677
 30
0.0
 11
331.7922571221768
 21
52.0344904136474
 31
0.0
  0
LINE
  5
1476
330
18
100
AcDbEntity
  8
1
  6
Continuous
100
AcDbLine
 10
332.2922571221766
 20
67.53449041387563
 30
0.0
 11
330.2922571221766
 21
67.53449041387563
 31
0.0
  0
LINE
  5
1477
330
18
100
AcDbEntity
  8
1
  6
Continuous
100
AcDbLine
 10
332.2922571221766
 20
67.37867054116759
 30
0.0
 11
330.2922571217912
 21
67.37867054116731
 31
0.0
  0
LINE
  5
1478
330
18
100
AcDbEntity
  8
1
  6
Continuous
100
AcDbLine
 10
330.2922571221766
 20
71.0344904134959
 30
0.0
 11
331.7922571221763
 21
71.03449041349529
 31
0.0
  0
LINE
  5
1479
330
18
100
AcDbEntity
  8
4
  6
CENTER
100
AcDbLine
 10
328.6338822566379
 20
73.0344904135714
 30
0.0
 11
333.7191611991769
 21
73.0344904135714
 31
0.0
  0
LINE
  5
147A
330
18
100
AcDbEntity
  8
1
  6
Continuous
100
AcDbLine
 10
332.2922571221766
 20
64.64005775396127
 30
0.0
 11
330.2922571221766
 21
64.64005775396127
 31
0.0
  0
LINE
  5
147B
330
18
100
AcDbEntity
  8
1
  6
Continuous
100
AcDbLine
 10
332.2922571221766
 20
62.42892307320828
 30
0.0
 11
330.2922571221766
 21
62.42892307320828
 31
0.0
  0
LINE
  5
147D
330
18
100
AcDbEntity
  8
1
  6
Continuous
100
AcDbLine
 10
332.2922571221766
 20
59.53449041387536
 30
0.0
 11
332.2922571221766
 21
67.5344904138755
 31
0.0
  0
LINE
  5
147E
330
18
100
AcDbEntity
  8
1
  6
Continuous
100
AcDbLine
 10
353.5778557280041
 20
63.53449041357356
 30
0.0
 11
352.2778557280038
 21
62.4436608930431
 31
0.0
  0
LINE
  5
147F
330
18
100
AcDbEntity
  8
1
  6
Continuous
100
AcDbLine
 10
352.2778557280042
 20
68.13449041357438
 30
0.0
 11
352.2778557280042
 21
58.93449041357435
 31
0.0
  0
LINE
  5
1480
330
18
100
AcDbEntity
  8
1
  6
Continuous
100
AcDbLine
 10
353.5778557280041
 20
68.13449041357438
 30
0.0
 11
353.5778557280041
 21
58.93449041357435
 31
0.0
  0
ARC
  5
1481
330
18
100
AcDbEntity
  8
1
  6
Continuous
100
AcDbCircle
 10
344.877855728004
 20
63.53449041357436
 30
0.0
 40
12.0
100
AcDbArc
 50
344.5060324994781
 51
15.49396750052177
  0
LINE
  5
1482
330
18
100
AcDbEntity
  8
1
  6
Continuous
100
AcDbLine
 10
332.2922571221766
 20
55.53449041364739
 30
0.0
 11
332.2922571221766
 21
52.53449041364739
 31
0.0
  0
ARC
  5
1483
330
18
100
AcDbEntity
  8
1
  6
Continuous
100
AcDbCircle
 10
331.7922571221767
 20
55.53449041364739
 30
0.0
 40
0.5
100
AcDbArc
 50
0.0
 51
90.00000000000005
  0
ARC
  5
1484
330
18
100
AcDbEntity
  8
1
  6
Continuous
100
AcDbCircle
 10
331.7922571221767
 20
52.53449041364739
 30
0.0
 40
0.5
100
AcDbArc
 50
270.0
 51
0.0
  0
LINE
  5
1485
330
18
100
AcDbEntity
  8
1
  6
Continuous
100
AcDbLine
 10
353.5778557280041
 20
58.93449041357435
 30
0.0
 11
352.2778557280042
 21
58.93449041357435
 31
0.0
  0
ARC
  5
1486
330
18
100
AcDbEntity
  8
1
  6
Continuous
100
AcDbCircle
 10
354.8999050076954
 20
60.75626647824997
 30
0.0
 40
1.6
100
AcDbArc
 50
274.9999999999997
 51
344.5060324994781
  0
LINE
  5
1487
330
18
100
AcDbEntity
  8
1
  6
Continuous
100
AcDbLine
 10
353.5778557280041
 20
59.03449041357436
 30
0.0
 11
355.0393541961405
 21
59.1623549612969
 31
0.0
  0
ARC
  5
1488
330
18
100
AcDbEntity
  8
1
  6
Continuous
100
AcDbCircle
 10
331.7922571221767
 20
71.53449041349529
 30
0.0
 40
0.5
100
AcDbArc
 50
270.0
 51
0.0
  0
LINE
  5
1489
330
18
100
AcDbEntity
  8
1
  6
Continuous
100
AcDbLine
 10
353.5778557280041
 20
68.13449041357438
 30
0.0
 11
352.2778557280042
 21
68.13449041357438
 31
0.0
  0
LINE
  5
148A
330
18
100
AcDbEntity
  8
1
  6
Continuous
100
AcDbLine
 10
353.5778557280043
 20
64.62531993410369
 30
0.0
 11
352.2778557280042
 21
63.53449041357322
 31
0.0
  0
ARC
  5
148B
330
18
100
AcDbEntity
  8
1
  6
Continuous
100
AcDbCircle
 10
354.8999050076783
 20
66.31271434889476
 30
0.0
 40
1.6
100
AcDbArc
 50
15.49396750052177
 51
85.00000000000019
  0
LINE
  5
148C
330
18
100
AcDbEntity
  8
1
  6
Continuous
100
AcDbLine
 10
353.5778557280041
 20
68.03449041357445
 30
0.0
 11
355.0393541960994
 21
67.90662586585568
 31
0.0
  0
LINE
  5
1492
330
18
100
AcDbEntity
  8
1
  6
Continuous
100
AcDbLine
 10
330.292257122178
 20
75.03449041349592
 30
0.0
 11
331.7922571221768
 21
75.03449041349529
 31
0.0
  0
LINE
  5
1494
330
18
100
AcDbEntity
  8
1
  6
Continuous
100
AcDbLine
 10
323.6922571221843
 20
76.33449041355189
 30
0.0
 11
310.6922571220809
 21
76.33449041354999
 31
0.0
  0
LINE
  5
1496
330
18
100
AcDbEntity
  8
1
  6
Continuous
100
AcDbLine
 10
310.6922571221768
 20
79.53449041418986
 30
0.0
 11
308.6922571221768
 21
79.53449041419003
 31
0.0
  0
LINE
  5
1497
330
18
100
AcDbEntity
  8
1
  6
Continuous
100
AcDbLine
 10
305.6922571221769
 20
75.53449041419032
 30
0.0
 11
308.6922571221768
 21
79.53449041419003
 31
0.0
  0
LINE
  5
1498
330
18
100
AcDbEntity
  8
1
  6
Continuous
100
AcDbLine
 10
318.4922571221767
 20
76.93449041357069
 30
0.0
 11
329.7922571221767
 21
76.93449041357292
 31
0.0
  0
ARC
  5
1499
330
18
100
AcDbEntity
  8
1
  6
Continuous
100
AcDbCircle
 10
329.7922571221767
 20
76.43449041357292
 30
0.0
 40
0.5
100
AcDbArc
 50
0.0
 51
90.0
  0
LINE
  5
149A
330
18
100
AcDbEntity
  8
1
  6
Continuous
100
AcDbLine
 10
348.7778557280226
 20
84.53449041359641
 30
0.0
 11
348.7778557280179
 21
79.33449041357215
 31
0.0
  0
LINE
  5
149B
330
18
100
AcDbEntity
  8
1
  6
Continuous
100
AcDbLine
 10
346.4778557280226
 20
84.53449041359531
 30
0.0
 11
346.4778557280179
 21
79.3344904135742
 31
0.0
  0
ARC
  5
149C
330
18
100
AcDbEntity
  8
1
  6
Continuous
100
AcDbCircle
 10
331.7922571221767
 20
74.53449041349529
 30
0.0
 40
0.5
100
AcDbArc
 50
0.0
 51
90.0
  0
LINE
  5
149D
330
18
100
AcDbEntity
  8
1
  6
Continuous
100
AcDbLine
 10
348.7778557280187
 20
77.03449041357214
 30
0.0
 11
349.9778557280159
 21
77.03449041357256
 31
0.0
  0
LINE
  5
149E
330
18
100
AcDbEntity
  8
1
  6
Continuous
100
AcDbLine
 10
348.7778557280179
 20
79.33449041357215
 30
0.0
 11
349.9778557280152
 21
79.33449041357244
 31
0.0
  0
ARC
  5
149F
330
18
100
AcDbEntity
  8
1
  6
Continuous
100
AcDbCircle
 10
348.7778557280179
 20
79.33449041357215
 30
0.0
 40
2.299999999999998
100
AcDbArc
 50
179.9999999999487
 51
270.0000000000176
  0
ARC
  5
14A0
330
18
100
AcDbEntity
  8
1
  6
Continuous
100
AcDbCircle
 10
349.9778557280159
 20
77.03449041357242
 30
0.0
 40
2.299999999999998
100
AcDbArc
 50
359.999999999949
 51
90.00000000001675
  0
LINE
  5
14A1
330
18
100
AcDbEntity
  8
1
  6
Continuous
100
AcDbLine
 10
346.477855728021
 20
84.53449041359531
 30
0.0
 11
348.7778557280226
 21
84.53449041359641
 31
0.0
  0
ARC
  5
14A2
330
18
100
AcDbEntity
  8
1
  6
Continuous
100
AcDbCircle
 10
362.6518581287311
 20
63.53449041357544
 30
0.0
 40
12.0
100
AcDbArc
 50
344.5060324994781
 51
15.49396750052177
  0
LINE
  5
14A3
330
18
100
AcDbEntity
  8
1
  6
Continuous
100
AcDbLine
 10
371.3518581287312
 20
68.13449041357547
 30
0.0
 11
371.3518581287312
 21
58.93449041357541
 31
0.0
  0
LINE
  5
14A4
330
18
100
AcDbEntity
  8
1
  6
Continuous
100
AcDbLine
 10
370.051858128731
 20
69.53449041357544
 30
0.0
 11
370.051858128731
 21
57.53449041357555
 31
0.0
  0
LINE
  5
14A5
330
18
100
AcDbEntity
  8
1
  6
Continuous
100
AcDbLine
 10
369.251858128731
 20
69.53449041357544
 30
0.0
 11
369.251858128731
 21
57.53449041357555
 31
0.0
  0
LINE
  5
14A6
330
18
100
AcDbEntity
  8
1
  6
Continuous
100
AcDbLine
 10
371.3518581287312
 20
63.53449041357544
 30
0.0
 11
370.051858128731
 21
62.44366089304492
 31
0.0
  0
LINE
  5
14A7
330
18
100
AcDbEntity
  8
1
  6
Continuous
100
AcDbLine
 10
371.3518581287312
 20
58.93449041357541
 30
0.0
 11
370.051858128731
 21
58.93449041357541
 31
0.0
  0
LINE
  5
14A8
330
18
100
AcDbEntity
  8
1
  6
Continuous
100
AcDbLine
 10
370.051858128731
 20
57.53449041357544
 30
0.0
 11
369.251858128731
 21
57.53449041357544
 31
0.0
  0
LINE
  5
14A9
330
18
100
AcDbEntity
  8
1
  6
Continuous
100
AcDbLine
 10
371.3518581287312
 20
59.03449041357544
 30
0.0
 11
372.8133565968676
 21
59.16235496129798
 31
0.0
  0
ARC
  5
14AA
330
18
100
AcDbEntity
  8
1
  6
Continuous
100
AcDbCircle
 10
372.6739074084225
 20
60.75626647825107
 30
0.0
 40
1.6
100
AcDbArc
 50
274.9999999999997
 51
344.5060324994781
  0
LINE
  5
14AB
330
18
100
AcDbEntity
  8
1
  6
Continuous
100
AcDbLine
 10
371.3518581287312
 20
68.13449041357547
 30
0.0
 11
370.051858128731
 21
68.13449041357547
 31
0.0
  0
LINE
  5
14AC
330
18
100
AcDbEntity
  8
1
  6
Continuous
100
AcDbLine
 10
371.3518581287312
 20
64.62531993410596
 30
0.0
 11
370.051858128731
 21
63.53449041357544
 31
0.0
  0
LINE
  5
14AD
330
18
100
AcDbEntity
  8
4
  6
CENTER
100
AcDbLine
 10
376.2473219567963
 20
63.53449041357544
 30
0.0
 11
366.9034914867552
 21
63.53449041357544
 31
0.0
  0
LINE
  5
14AE
330
18
100
AcDbEntity
  8
1
  6
Continuous
100
AcDbLine
 10
370.051858128731
 20
69.53449041357544
 30
0.0
 11
369.251858128731
 21
69.53449041357544
 31
0.0
  0
LINE
  5
14AF
330
18
100
AcDbEntity
  8
1
  6
Continuous
100
AcDbLine
 10
371.3518581287312
 20
68.03449041357565
 30
0.0
 11
372.8133565968264
 21
67.90662586585677
 31
0.0
  0
ARC
  5
14B0
330
18
100
AcDbEntity
  8
1
  6
Continuous
100
AcDbCircle
 10
372.6739074084052
 20
66.31271434889582
 30
0.0
 40
1.6
100
AcDbArc
 50
15.49396750052177
 51
85.00000000000019
  0
LINE
  5
161A
330
18
100
AcDbEntity
  8
1
  6
Continuous
100
AcDbLine
 10
305.4922571221977
 20
72.93449041357127
 30
0.0
 11
305.4922571221977
 21
54.13449041357131
 31
0.0
  0
ARC
  5
165F
330
18
100
AcDbEntity
  8
1
  6
Continuous
100
AcDbCircle
 10
304.3281302849677
 20
55.63449041357568
 30
0.0
 40
1.5
100
AcDbArc
 50
215.5929074910205
 51
270.0000000000634
  0
ARC
  5
1660
330
18
100
AcDbEntity
  8
1
  6
Continuous
100
AcDbCircle
 10
304.3281302849502
 20
71.43449041357569
 30
0.0
 40
1.5
100
AcDbArc
 50
90.0000000000635
 51
144.4070925091068
  0
ARC
  5
1662
330
18
100
AcDbEntity
  8
1
  6
Continuous
100
AcDbCircle
 10
315.3656198810257
 20
63.53449041358796
 30
0.0
 40
15.073362758848
100
AcDbArc
 50
144.4070925091068
 51
215.59290749102
  0
LINE
  5
16F5
330
18
100
AcDbEntity
  8
1
  6
Continuous
100
AcDbLine
 10
323.6922571221843
 20
76.33449041355189
 30
0.0
 11
323.6922571221843
 21
50.7344904135907
 31
0.0
  0
LINE
  5
16F7
330
18
100
AcDbEntity
  8
1
  6
Continuous
100
AcDbLine
 10
318.4922571221767
 20
76.33449041355117
 30
0.0
 11
318.4922571221767
 21
76.93449041357069
 31
0.0
  0
LINE
  5
16F8
330
18
100
AcDbEntity
  8
1
  6
Continuous
100
AcDbLine
 10
329.1922571221844
 20
57.03449041357139
 30
0.0
 11
329.1922571221844
 21
70.03449041357136
 31
0.0
  0
LINE
  5
16F9
330
18
100
AcDbEntity
  8
1
  6
Continuous
100
AcDbLine
 10
326.6922571221844
 20
50.8344904135904
 30
0.0
 11
326.6922571221844
 21
76.23449041355219
 31
0.0
  0
LINE
  5
16FA
330
18
100
AcDbEntity
  8
1
  6
Continuous
100
AcDbLine
 10
326.6922571221844
 20
76.23449041355219
 30
0.0
 11
323.6922571221843
 21
76.23449041355186
 31
0.0
  0
LINE
  5
16FB
330
18
100
AcDbEntity
  8
1
  6
Continuous
100
AcDbLine
 10
326.6922571221844
 20
50.8344904135904
 30
0.0
 11
323.6922571221843
 21
50.8344904135907
 31
0.0
  0
LINE
  5
1706
330
18
100
AcDbEntity
  8
1
  6
Continuous
100
AcDbLine
 10
326.6922571221844
 20
71.03449041357137
 30
0.0
 11
328.1922571221843
 21
71.03449041357137
 31
0.0
  0
LINE
  5
1707
330
18
100
AcDbEntity
  8
1
  6
Continuous
100
AcDbLine
 10
326.6922571221844
 20
56.03449041357137
 30
0.0
 11
328.1922571221843
 21
56.03449041357137
 31
0.0
  0
ARC
  5
1708
330
18
100
AcDbEntity
  8
1
  6
Continuous
100
AcDbCircle
 10
328.1922571221843
 20
70.03449041357136
 30
0.0
 40
1.0
100
AcDbArc
 50
0.0
 51
90.00000000000019
  0
ARC
  5
1709
330
18
100
AcDbEntity
  8
1
  6
Continuous
100
AcDbCircle
 10
328.1922571221843
 20
57.03449041357139
 30
0.0
 40
1.0
100
AcDbArc
 50
270.0000000000002
 51
0.0
  0
ARC
  5
1E8E
330
18
100
AcDbEntity
  8
1
  6
Continuous
100
AcDbCircle
 10
539.4320101165948
 20
272.0535044047417
 30
0.0
 40
1.6
100
AcDbArc
 50
94.99999999999982
 51
164.5060324994782
  0
LINE
  5
1E8F
330
18
100
AcDbEntity
  8
1
  6
Continuous
100
AcDbLine
 10
540.7540593962688
 20
273.8752804694213
 30
0.0
 11
540.7540593962688
 21
264.6752804694212
 31
0.0
  0
LINE
  5
1E90
330
18
100
AcDbEntity
  8
1
  6
Continuous
100
AcDbLine
 10
542.0540593962691
 20
275.2752804694213
 30
0.0
 11
542.0540593962691
 21
263.2752804694214
 31
0.0
  0
LINE
  5
1E91
330
18
100
AcDbEntity
  8
1
  6
Continuous
100
AcDbLine
 10
542.8540593962691
 20
275.2752804694213
 30
0.0
 11
542.8540593962691
 21
263.2752804694214
 31
0.0
  0
LINE
  5
1E92
330
18
100
AcDbEntity
  8
1
  6
Continuous
100
AcDbLine
 10
579.8136604028236
 20
265.2752804693261
 30
0.0
 11
579.8136604028236
 21
273.2752804693263
 31
0.0
  0
LINE
  5
1E94
330
18
100
AcDbEntity
  8
5
  6
PHANTOM
100
AcDbLine
 10
579.3136604028236
 20
256.3752804690191
 30
0.0
 11
579.3136604028236
 21
282.2616160695123
 31
0.0
  0
LINE
  5
1E95
330
18
100
AcDbEntity
  8
1
  6
Continuous
100
AcDbLine
 10
593.6136604028234
 20
255.875280469023
 30
0.0
 11
593.6136604028234
 21
282.6752804690215
 31
0.0
  0
LINE
  5
1E96
330
18
100
AcDbEntity
  8
1
  6
Continuous
100
AcDbLine
 10
581.8136604028236
 20
256.3752804690194
 30
0.0
 11
581.8136604028236
 21
282.1752804690238
 31
0.0
  0
LINE
  5
1E97
330
18
100
AcDbEntity
  8
1
  6
Continuous
100
AcDbLine
 10
599.4136604028234
 20
281.0752804690009
 30
0.0
 11
599.4136604028234
 21
269.2752804690222
 31
0.0
  0
LINE
  5
1E9A
330
18
100
AcDbEntity
  8
1
  6
Continuous
100
AcDbLine
 10
609.9136604028272
 20
275.1667997976635
 30
0.0
 11
609.9136604028196
 21
165.7752804690014
 31
0.0
  0
LINE
  5
1E9C
330
18
100
AcDbEntity
  8
1
  6
Continuous
100
AcDbLine
 10
603.4136604028234
 20
293.0752804690222
 30
0.0
 11
603.4136604028158
 21
125.0752804690367
 31
0.0
  0
LINE
  5
1E9D
330
18
100
AcDbEntity
  8
1
  6
Continuous
100
AcDbLine
 10
601.4136604028236
 20
293.0752804690222
 30
0.0
 11
601.4136604028158
 21
125.0752804690367
 31
0.0
  0
LINE
  5
1E9E
330
18
100
AcDbEntity
  8
1
  6
Continuous
100
AcDbLine
 10
606.4136604028234
 20
289.0752804690139
 30
0.0
 11
606.4136604028158
 21
129.0752804690441
 31
0.0
  0
LINE
  5
1EA0
330
18
100
AcDbEntity
  8
5
  6
PHANTOM
100
AcDbLine
 10
606.4136604028234
 20
272.0534550620777
 30
0.0
 11
678.4882995521759
 21
199.9788159127255
 31
0.0
  0
LINE
  5
1EA1
330
18
100
AcDbEntity
  8
5
  6
PHANTOM
100
AcDbLine
 10
610.8136604027257
 20
259.8752804691235
 30
0.0
 11
665.8947199234307
 21
204.7942209484183
 31
0.0
  0
LINE
  5
1EA3
330
18
100
AcDbEntity
  8
1
  6
Continuous
100
AcDbLine
 10
565.6280617969776
 20
259.2752804691435
 30
0.0
 11
565.6280617970496
 21
178.7752804691281
 31
0.0
  0
LINE
  5
1EA4
330
18
100
AcDbEntity
  8
1
  6
Continuous
100
AcDbLine
 10
563.3280617969776
 20
259.2752804691446
 30
0.0
 11
563.3280617970497
 21
178.7752804691291
 31
0.0
  0
LINE
  5
1EA5
330
18
100
AcDbEntity
  8
1
  6
Continuous
100
AcDbLine
 10
559.8280617969776
 20
259.2752804691461
 30
0.0
 11
559.8280617970496
 21
178.7752804691306
 31
0.0
  0
LINE
  5
1EA6
330
18
100
AcDbEntity
  8
1
  6
Continuous
100
AcDbLine
 10
597.9136604028234
 20
264.7752804690223
 30
0.0
 11
597.9136604028158
 21
177.2752804690368
 31
0.0
  0
LINE
  5
1EAA
330
18
100
AcDbEntity
  8
1
  6
Continuous
100
AcDbLine
 10
582.9136604028158
 20
144.575280469089
 30
0.0
 11
582.9136604028158
 21
160.575280469145
 31
0.0
  0
LINE
  5
1EAB
330
18
100
AcDbEntity
  8
1
  6
Continuous
100
AcDbLine
 10
609.813660402815
 20
137.134274916582
 30
0.0
 11
609.8136604028539
 21
162.075280469007
 31
0.0
  0
LINE
  5
1EAC
330
18
100
AcDbEntity
  8
1
  6
Continuous
100
AcDbLine
 10
585.4136604028158
 20
136.0752804690576
 30
0.0
 11
585.4136604028158
 21
172.0752804690576
 31
0.0
  0
LINE
  5
1EAD
330
18
100
AcDbEntity
  8
1
  6
Continuous
100
AcDbLine
 10
588.4136604028157
 20
173.4855099102086
 30
0.0
 11
588.4136604028157
 21
136.0752804690173
 31
0.0
  0
ARC
  5
1EAF
330
18
100
AcDbEntity
  8
1
  6
Continuous
100
AcDbCircle
 10
606.8136604028097
 20
133.8752804690097
 30
0.0
 40
0.2
100
AcDbArc
 50
90.0
 51
180.0
  0
ARC
  5
1EB0
330
18
100
AcDbEntity
  8
1
  6
Continuous
100
AcDbCircle
 10
606.8136604028024
 20
129.2752804690098
 30
0.0
 40
0.2
100
AcDbArc
 50
180.0
 51
270.0
  0
ARC
  5
1EB1
330
18
100
AcDbEntity
  8
1
  6
Continuous
100
AcDbCircle
 10
604.8136604028241
 20
143.0752804690109
 30
0.0
 40
2.0
100
AcDbArc
 50
0.000000000000007
 51
36.86989764624136
  0
LINE
  5
1EB2
330
18
100
AcDbEntity
  8
1
  6
Continuous
100
AcDbLine
 10
609.8136604028152
 20
137.1342749165818
 30
0.0
 11
611.813660402805
 21
130.5752804690077
 31
0.0
  0
LINE
  5
1EB3
330
18
100
AcDbEntity
  8
1
  6
Continuous
100
AcDbLine
 10
606.8136604028023
 20
129.0752804690098
 30
0.0
 11
606.8136604028239
 21
143.0752804690078
 31
0.0
  0
LINE
  5
1EB4
330
18
100
AcDbEntity
  8
1
  6
Continuous
100
AcDbLine
 10
606.8136604028024
 20
129.0752804690098
 30
0.0
 11
610.3136604028036
 21
129.0752804690079
 31
0.0
  0
ARC
  5
1EB5
330
18
100
AcDbEntity
  8
1
  6
Continuous
100
AcDbCircle
 10
610.3136604028045
 20
130.5752804690079
 30
0.0
 40
1.5
100
AcDbArc
 50
270.0
 51
0.000000000000007
  0
LINE
  5
1EB9
330
18
100
AcDbEntity
  8
1
  6
Continuous
100
AcDbLine
 10
606.6136604028023
 20
129.2752804690101
 30
0.0
 11
606.6136604028097
 21
133.87528046901
 31
0.0
  0
LINE
  5
1EBA
330
18
100
AcDbEntity
  8
1
  6
Continuous
100
AcDbLine
 10
603.4136604028126
 20
125.0752804690327
 30
0.0
 11
601.4136604028095
 21
125.0752804690299
 31
0.0
  0
LINE
  5
1EBB
330
18
100
AcDbEntity
  8
1
  6
Continuous
100
AcDbLine
 10
606.4136604028106
 20
129.0752804690369
 30
0.0
 11
603.4136604028162
 21
125.0752804690367
 31
0.0
  0
LINE
  5
1EBC
330
18
100
AcDbEntity
  8
1
  6
Continuous
100
AcDbLine
 10
585.4136604028158
 20
136.0752804690176
 30
0.0
 11
601.4136604029115
 21
136.0752804690153
 31
0.0
  0
ARC
  5
1EBD
330
18
100
AcDbEntity
  8
1
  6
Continuous
100
AcDbCircle
 10
583.9136604028158
 20
144.575280469089
 30
0.0
 40
1.0
100
AcDbArc
 50
180.0
 51
270.0
  0
LINE
  5
1EBE
330
18
100
AcDbEntity
  8
1
  6
Continuous
100
AcDbLine
 10
585.4136604028158
 20
143.5752804690896
 30
0.0
 11
583.9136604028158
 21
143.5752804690896
 31
0.0
  0
LINE
  5
1EBF
330
18
100
AcDbEntity
  8
1
  6
Continuous
100
AcDbLine
 10
606.4136604028158
 20
163.7752804690015
 30
0.0
 11
607.9136604028192
 21
163.7752804690015
 31
0.0
  0
LINE
  5
1EC0
330
18
100
AcDbEntity
  8
1
  6
Continuous
100
AcDbLine
 10
606.4136604028158
 20
163.0752804690099
 30
0.0
 11
608.8136604028545
 21
163.0752804690086
 31
0.0
  0
ARC
  5
1EC1
330
18
100
AcDbEntity
  8
1
  6
Continuous
100
AcDbCircle
 10
607.9136604028192
 20
165.7752804690016
 30
0.0
 40
2.0
100
AcDbArc
 50
270.0
 51
0.000000000000007
  0
ARC
  5
1EC2
330
18
100
AcDbEntity
  8
1
  6
Continuous
100
AcDbCircle
 10
608.8136604028537
 20
162.0752804690087
 30
0.0
 40
1.0
100
AcDbArc
 50
0.000000000000007
 51
90.0
  0
ARC
  5
1EC3
330
18
100
AcDbEntity
  8
1
  6
Continuous
100
AcDbCircle
 10
583.9136604028158
 20
160.575280469145
 30
0.0
 40
1.0
100
AcDbArc
 50
90.0
 51
180.0
  0
LINE
  5
1EC4
330
18
100
AcDbEntity
  8
1
  6
Continuous
100
AcDbLine
 10
583.9136604028158
 20
161.575280469145
 30
0.0
 11
585.4136604028179
 21
161.5752804691436
 31
0.0
  0
LINE
  5
1EC5
330
18
100
AcDbEntity
  8
1
  6
Continuous
100
AcDbLine
 10
597.913660402816
 20
177.2752804690367
 30
0.0
 11
599.9136604027984
 21
175.2752804690415
 31
0.0
  0
LINE
  5
1EC6
330
18
100
AcDbEntity
  8
1
  6
Continuous
100
AcDbLine
 10
597.9136604028158
 20
177.275280469037
 30
0.0
 11
589.9624436115705
 21
175.4339460542223
 31
0.0
  0
LINE
  5
1EC7
330
18
100
AcDbEntity
  8
1
  6
Continuous
100
AcDbLine
 10
588.4136604028163
 20
170.0752804690876
 30
0.0
 11
587.4136604028162
 21
172.0752804690573
 31
0.0
  0
ARC
  5
1EC8
330
18
100
AcDbEntity
  8
1
  6
Continuous
100
AcDbCircle
 10
590.4136604028158
 20
173.4855099102086
 30
0.0
 40
2.0
100
AcDbArc
 50
103.0386565830251
 51
180.0
  0
LINE
  5
1EC9
330
18
100
AcDbEntity
  8
1
  6
Continuous
100
AcDbLine
 10
587.4136604028158
 20
172.0752804690576
 30
0.0
 11
585.4136604028158
 21
172.0752804690576
 31
0.0
  0
LINE
  5
1ECA
330
18
100
AcDbEntity
  8
1
  6
Continuous
100
AcDbLine
 10
585.4136604028207
 20
168.8752804690176
 30
0.0
 11
588.4136604028157
 21
168.8752804690173
 31
0.0
  0
LINE
  5
1ECC
330
18
100
AcDbEntity
  8
1
  6
Continuous
100
AcDbLine
 10
565.6280617970494
 20
178.7752804691281
 30
0.0
 11
559.828061797044
 21
178.7752804691306
 31
0.0
  0
LINE
  5
1ECD
330
18
100
AcDbEntity
  8
4
  6
CENTER
100
AcDbLine
 10
568.3873401266664
 20
238.7752804691187
 30
0.0
 11
552.5385242915636
 21
238.7752804691236
 31
0.0
  0
LINE
  5
1ECE
330
18
100
AcDbEntity
  8
4
  6
CENTER
100
AcDbLine
 10
568.3873401267024
 20
198.7752804691187
 30
0.0
 11
552.4184512779461
 21
198.7752804691236
 31
0.0
  0
LINE
  5
1ECF
330
18
100
AcDbEntity
  8
4
  6
CENTER
100
AcDbLine
 10
604.9254407338862
 20
198.7752804691187
 30
0.0
 11
593.6622166187726
 21
198.7752804691236
 31
0.0
  0
LINE
  5
1ED0
330
18
100
AcDbEntity
  8
1
  6
Continuous
100
AcDbLine
 10
558.5280617970314
 20
198.7752804691155
 30
0.0
 11
559.8280617970317
 21
199.866109989646
 31
0.0
  0
ARC
  5
1ED1
330
18
100
AcDbEntity
  8
1
  6
Continuous
100
AcDbCircle
 10
567.2280617970317
 20
198.7752804691225
 30
0.0
 40
12.0
100
AcDbArc
 50
164.5060324994782
 51
195.4939675005218
  0
LINE
  5
1ED3
330
18
100
AcDbEntity
  8
1
  6
Continuous
100
AcDbLine
 10
558.5280617970318
 20
203.3752804691225
 30
0.0
 11
558.5280617970318
 21
194.1752804691224
 31
0.0
  0
LINE
  5
1ED4
330
18
100
AcDbEntity
  8
1
  6
Continuous
100
AcDbLine
 10
558.5280617970318
 20
194.1752804691224
 30
0.0
 11
559.8280617970317
 21
194.1752804691224
 31
0.0
  0
LINE
  5
1ED5
330
18
100
AcDbEntity
  8
1
  6
Continuous
100
AcDbLine
 10
558.5280617970314
 20
194.2752804691225
 30
0.0
 11
557.0665633288952
 21
194.4031450168449
 31
0.0
  0
ARC
  5
1ED6
330
18
100
AcDbEntity
  8
1
  6
Continuous
100
AcDbCircle
 10
557.2060125173403
 20
195.9970565337981
 30
0.0
 40
1.6
100
AcDbArc
 50
195.4939675005218
 51
265.0000000000002
  0
LINE
  5
1ED7
330
18
100
AcDbEntity
  8
1
  6
Continuous
100
AcDbLine
 10
558.5280617970318
 20
203.3752804691225
 30
0.0
 11
559.8280617970317
 21
203.3752804691225
 31
0.0
  0
LINE
  5
1ED8
330
18
100
AcDbEntity
  8
1
  6
Continuous
100
AcDbLine
 10
558.5280617970314
 20
203.2752804691225
 30
0.0
 11
557.0665633289364
 21
203.1474159214037
 31
0.0
  0
ARC
  5
1ED9
330
18
100
AcDbEntity
  8
1
  6
Continuous
100
AcDbCircle
 10
557.2060125173575
 20
201.5535044044428
 30
0.0
 40
1.6
100
AcDbArc
 50
94.99999999999982
 51
164.5060324994782
  0
LINE
  5
1EDA
330
18
100
AcDbEntity
  8
1
  6
Continuous
100
AcDbLine
 10
558.5280617970314
 20
197.6844509485855
 30
0.0
 11
559.8280617970317
 21
198.7752804691161
 31
0.0
  0
LINE
  5
1EDB
330
18
100
AcDbEntity
  8
5
  6
PHANTOM
100
AcDbLine
 10
609.9136604028272
 20
259.8752804691205
 30
0.0
 11
610.8136604027261
 21
259.8752804691233
 31
0.0
  0
LINE
  5
1EDC
330
18
100
AcDbEntity
  8
4
  6
CENTER
100
AcDbLine
 10
604.9254407338501
 20
238.7752804691187
 30
0.0
 11
593.7822896323901
 21
238.7752804691236
 31
0.0
  0
ARC
  5
1EDE
330
18
100
AcDbEntity
  8
1
  6
Continuous
100
AcDbCircle
 10
567.2280617969961
 20
238.7752804691225
 30
0.0
 40
12.0
100
AcDbArc
 50
164.5060324994782
 51
195.4939675005218
  0
LINE
  5
1EDF
330
18
100
AcDbEntity
  8
1
  6
Continuous
100
AcDbLine
 10
558.5280617969961
 20
243.3752804691225
 30
0.0
 11
558.5280617969961
 21
234.1752804691225
 31
0.0
  0
LINE
  5
1EE0
330
18
100
AcDbEntity
  8
1
  6
Continuous
100
AcDbLine
 10
558.5280617969961
 20
238.7752804691157
 30
0.0
 11
559.8280617969963
 21
239.8661099896461
 31
0.0
  0
LINE
  5
1EE1
330
18
100
AcDbEntity
  8
1
  6
Continuous
100
AcDbLine
 10
558.5280617969958
 20
237.6844509485855
 30
0.0
 11
559.828061796996
 21
238.7752804691161
 31
0.0
  0
LINE
  5
1EE2
330
18
100
AcDbEntity
  8
1
  6
Continuous
100
AcDbLine
 10
558.5280617969961
 20
234.1752804691225
 30
0.0
 11
559.828061796996
 21
234.1752804691225
 31
0.0
  0
LINE
  5
1EE3
330
18
100
AcDbEntity
  8
1
  6
Continuous
100
AcDbLine
 10
558.5280617969961
 20
234.2752804691225
 30
0.0
 11
557.0665633288597
 21
234.403145016845
 31
0.0
  0
ARC
  5
1EE4
330
18
100
AcDbEntity
  8
1
  6
Continuous
100
AcDbCircle
 10
557.2060125173046
 20
235.9970565337981
 30
0.0
 40
1.6
100
AcDbArc
 50
195.4939675005218
 51
265.0000000000002
  0
LINE
  5
1EE5
330
18
100
AcDbEntity
  8
1
  6
Continuous
100
AcDbLine
 10
558.5280617969961
 20
243.3752804691225
 30
0.0
 11
559.828061796996
 21
243.3752804691225
 31
0.0
  0
LINE
  5
1EE6
330
18
100
AcDbEntity
  8
1
  6
Continuous
100
AcDbLine
 10
558.5280617969961
 20
243.2752804691226
 30
0.0
 11
557.0665633289006
 21
243.1474159214038
 31
0.0
  0
ARC
  5
1EE7
330
18
100
AcDbEntity
  8
1
  6
Continuous
100
AcDbCircle
 10
557.2060125173218
 20
241.5535044044429
 30
0.0
 40
1.6
100
AcDbArc
 50
94.99999999999982
 51
164.5060324994782
  0
LINE
  5
1EE8
330
18
100
AcDbEntity
  8
4
  6
CENTER
100
AcDbLine
 10
597.7978683182516
 20
269.2752804690221
 30
0.0
 11
574.3749539955111
 21
269.2752804690222
 31
0.0
  0
LINE
  5
1EE9
330
18
100
AcDbEntity
  8
1
  6
Continuous
100
AcDbLine
 10
579.8136604028236
 20
265.4311003414254
 30
0.0
 11
581.813660403209
 21
265.4311003414256
 31
0.0
  0
LINE
  5
1EEA
330
18
100
AcDbEntity
  8
1
  6
Continuous
100
AcDbLine
 10
579.8136604028236
 20
265.275280469326
 30
0.0
 11
581.8136604028234
 21
265.275280469326
 31
0.0
  0
LINE
  5
1EEB
330
18
100
AcDbEntity
  8
1
  6
Continuous
100
AcDbLine
 10
581.8136604028222
 20
271.2752804689467
 30
0.0
 11
580.3136604028233
 21
271.275280468946
 31
0.0
  0
LINE
  5
1EEC
330
18
100
AcDbEntity
  8
1
  6
Continuous
100
AcDbLine
 10
581.8136604028236
 20
267.2752804689467
 30
0.0
 11
580.3136604028237
 21
267.275280468946
 31
0.0
  0
ARC
  5
1EED
330
18
100
AcDbEntity
  8
1
  6
Continuous
100
AcDbCircle
 10
594.4136604028234
 20
257.7752804690222
 30
0.0
 40
1.0
100
AcDbArc
 50
216.8698976458466
 51
270.0
  0
LINE
  5
1EEE
330
18
100
AcDbEntity
  8
1
  6
Continuous
100
AcDbLine
 10
594.4136604028234
 20
256.7752804690222
 30
0.0
 11
597.9136604028234
 21
256.7752804690222
 31
0.0
  0
LINE
  5
1EEF
330
18
100
AcDbEntity
  8
1
  6
Continuous
100
AcDbLine
 10
593.6136604028234
 20
255.875280469023
 30
0.0
 11
582.3136604028237
 21
255.8752804690191
 31
0.0
  0
ARC
  5
1EF0
330
18
100
AcDbEntity
  8
1
  6
Continuous
100
AcDbCircle
 10
582.3136604028236
 20
256.3752804690194
 30
0.0
 40
0.5
100
AcDbArc
 50
180.0
 51
270.0
  0
ARC
  5
1EF1
330
18
100
AcDbEntity
  8
5
  6
PHANTOM
100
AcDbCircle
 10
579.8136604028236
 20
256.3752804690191
 30
0.0
 40
0.5
100
AcDbArc
 50
180.0
 51
270.0
  0
LINE
  5
1EF2
330
18
100
AcDbEntity
  8
1
  6
Continuous
100
AcDbLine
 10
565.6280617969791
 20
259.2752804691435
 30
0.0
 11
559.8280617969934
 21
259.2752804691461
 31
0.0
  0
LINE
  5
1EF3
330
18
100
AcDbEntity
  8
5
  6
PHANTOM
100
AcDbLine
 10
579.3136604028222
 20
271.2752804689467
 30
0.0
 11
577.8136604028234
 21
271.2752804689462
 31
0.0
  0
LINE
  5
1EF4
330
18
100
AcDbEntity
  8
5
  6
PHANTOM
100
AcDbLine
 10
579.3136604028236
 20
267.2752804689467
 30
0.0
 11
577.8136604028238
 21
267.2752804689462
 31
0.0
  0
ARC
  5
1EF5
330
18
100
AcDbEntity
  8
5
  6
PHANTOM
100
AcDbCircle
 10
577.8136604028236
 20
270.7752804689461
 30
0.0
 40
0.5
100
AcDbArc
 50
90.0
 51
180.0
  0
LINE
  5
1EF6
330
18
100
AcDbEntity
  8
5
  6
PHANTOM
100
AcDbLine
 10
577.3136604028236
 20
267.7752804689461
 30
0.0
 11
577.3136604028236
 21
270.7752804689461
 31
0.0
  0
ARC
  5
1EF7
330
18
100
AcDbEntity
  8
5
  6
PHANTOM
100
AcDbCircle
 10
577.8136604028236
 20
267.7752804689461
 30
0.0
 40
0.5
100
AcDbArc
 50
180.0
 51
270.0
  0
ARC
  5
1EF8
330
18
100
AcDbEntity
  8
1
  6
Continuous
100
AcDbCircle
 10
580.3136604028236
 20
270.7752804689461
 30
0.0
 40
0.5
100
AcDbArc
 50
90.0
 51
180.0
  0
ARC
  5
1EF9
330
18
100
AcDbEntity
  8
1
  6
Continuous
100
AcDbCircle
 10
580.3136604028236
 20
267.7752804689461
 30
0.0
 40
0.5
100
AcDbArc
 50
180.0
 51
270.0
  0
LINE
  5
1EFB
330
18
100
AcDbEntity
  8
4
  6
CENTER
100
AcDbLine
 10
535.8585955682038
 20
269.2752804694213
 30
0.0
 11
545.202426038245
 21
269.2752804694213
 31
0.0
  0
LINE
  5
1EFC
330
18
100
AcDbEntity
  8
1
  6
Continuous
100
AcDbLine
 10
540.7540593962688
 20
269.2752804694213
 30
0.0
 11
542.0540593962691
 21
270.3661099899518
 31
0.0
  0
LINE
  5
1EFD
330
18
100
AcDbEntity
  8
1
  6
Continuous
100
AcDbLine
 10
540.7540593962688
 20
268.1844509488907
 30
0.0
 11
542.0540593962691
 21
269.2752804694213
 31
0.0
  0
LINE
  5
1EFE
330
18
100
AcDbEntity
  8
1
  6
Continuous
100
AcDbLine
 10
540.7540593962688
 20
264.6752804694212
 30
0.0
 11
542.0540593962691
 21
264.6752804694212
 31
0.0
  0
LINE
  5
1EFF
330
18
100
AcDbEntity
  8
1
  6
Continuous
100
AcDbLine
 10
542.0540593962691
 20
263.2752804694213
 30
0.0
 11
542.8540593962691
 21
263.2752804694213
 31
0.0
  0
ARC
  5
1F00
330
18
100
AcDbEntity
  8
1
  6
Continuous
100
AcDbCircle
 10
549.454059396269
 20
269.2752804694213
 30
0.0
 40
12.0
100
AcDbArc
 50
164.5060324994782
 51
195.4939675005218
  0
LINE
  5
1F01
330
18
100
AcDbEntity
  8
1
  6
Continuous
100
AcDbLine
 10
540.7540593962688
 20
264.7752804694213
 30
0.0
 11
539.2925609281326
 21
264.9031450171438
 31
0.0
  0
ARC
  5
1F02
330
18
100
AcDbEntity
  8
1
  6
Continuous
100
AcDbCircle
 10
539.4320101165776
 20
266.4970565340969
 30
0.0
 40
1.6
100
AcDbArc
 50
195.4939675005218
 51
265.0000000000002
  0
ARC
  5
1F03
330
18
100
AcDbEntity
  8
1
  6
Continuous
100
AcDbCircle
 10
604.4136604028271
 20
269.2752804690016
 30
0.0
 40
9.4
100
AcDbArc
 50
67.00660568570215
 51
77.13492800414511
  0
ARC
  5
1F06
330
18
100
AcDbEntity
  8
1
  6
Continuous
100
AcDbCircle
 10
606.9136604028272
 20
275.1667997976637
 30
0.0
 40
3.0
100
AcDbArc
 50
0.000000000000007
 51
67.00660568570249
  0
LINE
  5
1F0C
330
18
100
AcDbEntity
  8
1
  6
Continuous
100
AcDbLine
 10
579.8136604028236
 20
273.1194605966184
 30
0.0
 11
581.813660403209
 21
273.1194605966181
 31
0.0
  0
LINE
  5
1F0D
330
18
100
AcDbEntity
  8
1
  6
Continuous
100
AcDbLine
 10
579.8136604028236
 20
273.2752804693264
 30
0.0
 11
581.8136604028236
 21
273.2752804693264
 31
0.0
  0
ARC
  5
1F0E
330
18
100
AcDbEntity
  8
1
  6
Continuous
100
AcDbCircle
 10
594.4136604028234
 20
281.0752804690018
 30
0.0
 40
1.0
100
AcDbArc
 50
90.0
 51
143.1301023541533
  0
LINE
  5
1F0F
330
18
100
AcDbEntity
  8
1
  6
Continuous
100
AcDbLine
 10
594.4136604028236
 20
282.0752804690018
 30
0.0
 11
601.4136604029192
 21
282.0752804690008
 31
0.0
  0
ARC
  5
1F10
330
18
100
AcDbEntity
  8
1
  6
Continuous
100
AcDbCircle
 10
600.4136604028234
 20
281.0752804690009
 30
0.0
 40
1.0
100
AcDbArc
 50
90.0
 51
180.0
  0
LINE
  5
1F11
330
18
100
AcDbEntity
  8
1
  6
Continuous
100
AcDbLine
 10
606.4136604028234
 20
278.3463482808632
 30
0.0
 11
606.5066254086826
 21
278.4393132867222
 31
0.0
  0
LINE
  5
1F12
330
18
100
AcDbEntity
  8
1
  6
Continuous
100
AcDbLine
 10
593.6136604028234
 20
282.6752804690215
 30
0.0
 11
582.3136604028236
 21
282.6752804690237
 31
0.0
  0
ARC
  5
1F13
330
18
100
AcDbEntity
  8
1
  6
Continuous
100
AcDbCircle
 10
582.3136604028236
 20
282.1752804690238
 30
0.0
 40
0.5
100
AcDbArc
 50
90.0
 51
180.0
  0
LINE
  5
1F14
330
18
100
AcDbEntity
  8
1
  6
Continuous
100
AcDbLine
 10
603.4136604028234
 20
293.0752804690222
 30
0.0
 11
606.4136604028171
 21
289.0752804690222
 31
0.0
  0
LINE
  5
1F15
330
18
100
AcDbEntity
  8
1
  6
Continuous
100
AcDbLine
 10
603.4136604028201
 20
293.0752804690267
 30
0.0
 11
601.4136604028318
 21
293.0752804690299
 31
0.0
  0
ARC
  5
1F16
330
18
100
AcDbEntity
  8
5
  6
PHANTOM
100
AcDbCircle
 10
579.8136604028236
 20
282.2616160695123
 30
0.0
 40
0.5
100
AcDbArc
 50
90.0
 51
180.0
  0
LINE
  5
1F17
330
18
100
AcDbEntity
  8
1
  6
Continuous
100
AcDbLine
 10
540.7540593962688
 20
273.8752804694213
 30
0.0
 11
542.0540593962691
 21
273.8752804694213
 31
0.0
  0
LINE
  5
1F18
330
18
100
AcDbEntity
  8
1
  6
Continuous
100
AcDbLine
 10
542.0540593962691
 20
275.2752804694213
 30
0.0
 11
542.8540593962691
 21
275.2752804694213
 31
0.0
  0
LINE
  5
1F19
330
18
100
AcDbEntity
  8
1
  6
Continuous
100
AcDbLine
 10
540.7540593962688
 20
273.7752804694215
 30
0.0
 11
539.2925609281737
 21
273.6474159217026
 31
0.0
  0
LINE
  5
1F1A
330
18
100
AcDbEntity
  8
5
  6
PHANTOM
100
AcDbLine
 10
666.3739988069708
 20
199.7165537380513
 30
0.0
 11
665.0167222119051
 21
197.7205587453076
 31
0.0
  0
ARC
  5
1F1B
330
18
100
AcDbEntity
  8
5
  6
PHANTOM
100
AcDbCircle
 10
663.0662927986927
 20
201.9657938236803
 30
0.0
 40
4.0
100
AcDbArc
 50
325.7842978675636
 51
45.0
  0
ARC
  5
1F1C
330
18
100
AcDbEntity
  8
5
  6
PHANTOM
100
AcDbCircle
 10
677.0740859898026
 20
198.5646023503524
 30
0.0
 40
2.0
100
AcDbArc
 50
315.0000000000003
 51
44.99999999999972
  0
LINE
  5
1F1D
330
18
100
AcDbEntity
  8
5
  6
PHANTOM
100
AcDbLine
 10
668.9332358675309
 20
188.8266624860302
 30
0.0
 11
676.0134258180308
 21
194.6755150538345
 31
0.0
  0
LINE
  5
1F1E
330
18
100
AcDbEntity
  8
5
  6
PHANTOM
100
AcDbLine
 10
676.0134258180308
 20
194.6755150538344
 30
0.0
 11
678.4882995521757
 21
197.1503887879793
 31
0.0
  0
LINE
  5
1F1F
330
18
100
AcDbEntity
  8
5
  6
PHANTOM
100
AcDbLine
 10
665.7356405372031
 20
190.1040579297445
 30
0.0
 11
666.9172535252567
 21
188.9224449416911
 31
0.0
  0
ARC
  5
1F20
330
18
100
AcDbEntity
  8
5
  6
PHANTOM
100
AcDbCircle
 10
667.9779136970363
 20
189.9831051134709
 30
0.0
 40
1.5
100
AcDbArc
 50
225.0
 51
309.5596679689953
  0
ARC
  5
1F21
330
18
100
AcDbEntity
  8
5
  6
PHANTOM
100
AcDbCircle
 10
669.9782812243223
 20
194.3466986168639
 30
0.0
 40
6.0
100
AcDbArc
 50
145.7842978675639
 51
225.0
  0
ARC
  5
23A2
330
18
100
AcDbEntity
  8
1
  6
Continuous
100
AcDbCircle
 10
116.21619765096
 20
269.5593207944929
 30
0.0
 40
8.542996202187325
100
AcDbArc
 50
31.49470026394256
 51
148.5052997360561
  0
ARC
  5
23A3
330
18
100
AcDbEntity
  8
1
  6
Continuous
100
AcDbCircle
 10
124.3905395279228
 20
266.5396773769967
 30
0.0
 40
17.17459272320375
100
AcDbArc
 50
154.1712570533904
 51
180.3096697147328
  0
ARC
  5
23A8
330
18
100
AcDbEntity
  8
1
  6
Continuous
100
AcDbCircle
 10
108.0418557739962
 20
266.5396773770003
 30
0.0
 40
17.17459272320375
100
AcDbArc
 50
359.6903302852421
 51
25.65060207618502
  0
ENDSEC
  0
SECTION
  2
OBJECTS
  0
DICTIONARY
  5
C
330
0
100
AcDbDictionary
281
     1
  3
ACAD_CIP_PREVIOUS_PRODUCT_INFO
350
2412
  3
ACAD_COLOR
350
23F5
  3
ACAD_DETAILVIEWSTYLE
350
240E
  3
ACAD_GROUP
350
D
  3
ACAD_LAYOUT
350
94
  3
ACAD_MATERIAL
350
23C3
  3
ACAD_MLEADERSTYLE
350
240A
  3
ACAD_MLINESTYLE
350
1B
  3
ACAD_PLOTSETTINGS
350
95
  3
ACAD_PLOTSTYLENAME
350
23C1
  3
ACAD_SCALELIST
350
23F8
  3
ACAD_SECTIONVIEWSTYLE
350
240C
  3
ACAD_TABLESTYLE
350
23F6
  3
ACAD_VISUALSTYLE
350
23DC
  3
ACDB_RECOMPOSE_DATA
350
2430
  3
AcDbVariableDictionary
350
2423
  3
CONTENTDICTIONARY
350
3D
  3
DWGPROPS
350
2431
  0
DICTIONARY
  5
2413
330
E
100
AcDbDictionary
280
     1
281
     1
  3
ADSK_XREC_LAYER_RECONCILED
360
2414
  0
DICTIONARY
  5
2415
330
4E
100
AcDbDictionary
280
     1
281
     1
  3
ADSK_XREC_LAYER_RECONCILED
360
2416
  0
DICTIONARY
  5
2417
330
4F
100
AcDbDictionary
280
     1
281
     1
  3
ADSK_XREC_LAYER_RECONCILED
360
2418
  0
DICTIONARY
  5
2419
330
50
100
AcDbDictionary
280
     1
281
     1
  3
ADSK_XREC_LAYER_RECONCILED
360
241A
  0
DICTIONARY
  5
241B
330
51
100
AcDbDictionary
280
     1
281
     1
  3
ADSK_XREC_LAYER_RECONCILED
360
241C
  0
DICTIONARY
  5
241D
330
52
100
AcDbDictionary
280
     1
281
     1
  3
ADSK_XREC_LAYER_RECONCILED
360
241E
  0
DICTIONARY
  5
241F
330
53
100
AcDbDictionary
280
     1
281
     1
  3
ADSK_XREC_LAYER_RECONCILED
360
2420
  0
DICTIONARY
  5
2421
330
54
100
AcDbDictionary
280
     1
281
     1
  3
ADSK_XREC_LAYER_RECONCILED
360
2422
  0
DICTIONARY
  5
23BC
330
18
100
AcDbDictionary
281
     1
  3
ACAD_LAYOUTSELFREF
350
23BD
  0
DICTIONARY
  5
23BA
330
15
100
AcDbDictionary
281
     1
  3
ACAD_LAYOUTSELFREF
350
23BB
  0
XRECORD
  5
2412
102
{ACAD_REACTORS
330
C
102
}
330
C
100
AcDbXrecord
280
     1
300
ACDLT
300
2014
300
ACDLT_F_S
  0
DICTIONARY
  5
23F5
102
{ACAD_REACTORS
330
C
102
}
330
C
100
AcDbDictionary
281
     1
  0
DICTIONARY
  5
240E
102
{ACAD_REACTORS
330
C
102
}
330
C
100
AcDbDictionary
281
     1
  3
Imperial24
350
240F
  0
DICTIONARY
  5
D
102
{ACAD_REACTORS
330
C
102
}
330
C
100
AcDbDictionary
281
     1
  0
DICTIONARY
  5
94
102
{ACAD_REACTORS
330
C
102
}
330
C
100
AcDbDictionary
281
     1
  3
Model
350
2410
  3
レイアウト1
350
2411
  0
DICTIONARY
  5
23C3
102
{ACAD_REACTORS
330
C
102
}
330
C
100
AcDbDictionary
281
     1
  3
ByBlock
350
23CC
  3
ByLayer
350
23C4
  3
Global
350
23D4
  0
DICTIONARY
  5
240A
102
{ACAD_REACTORS
330
C
102
}
330
C
100
AcDbDictionary
281
     1
  3
Standard
350
240B
  0
DICTIONARY
  5
1B
102
{ACAD_REACTORS
330
C
102
}
330
C
100
AcDbDictionary
281
     1
  3
STANDARD
350
1C
  0
DICTIONARY
  5
95
102
{ACAD_REACTORS
330
C
102
}
330
C
100
AcDbDictionary
281
     1
  0
ACDBDICTIONARYWDFLT
  5
23C1
102
{ACAD_REACTORS
330
C
102
}
330
C
100
AcDbDictionary
281
     1
  3
Normal
350
23C2
100
AcDbDictionaryWithDefault
340
23C2
  0
DICTIONARY
  5
23F8
102
{ACAD_REACTORS
330
C
102
}
330
C
100
AcDbDictionary
281
     1
  3
A0
350
23F9
  3
A1
350
23FA
  3
A2
350
23FB
  3
A3
350
23FC
  3
A4
350
23FD
  3
A5
350
23FE
  3
A6
350
23FF
  3
A7
350
2400
  3
A8
350
2401
  3
A9
350
2402
  3
B0
350
2403
  3
B1
350
2404
  3
B2
350
2405
  3
B3
350
2406
  3
B4
350
2407
  3
B5
350
2408
  3
B6
350
2409
  0
DICTIONARY
  5
240C
102
{ACAD_REACTORS
330
C
102
}
330
C
100
AcDbDictionary
281
     1
  3
Imperial24
350
240D
  0
DICTIONARY
  5
23F6
102
{ACAD_REACTORS
330
C
102
}
330
C
100
AcDbDictionary
281
     1
  3
Standard
350
23F7
  0
DICTIONARY
  5
23DC
102
{ACAD_REACTORS
330
C
102
}
330
C
100
AcDbDictionary
281
     1
  3
2dWireframe
350
23E2
  3
Basic
350
23E1
  3
Brighten
350
23E8
  3
ColorChange
350
23EC
  3
Conceptual
350
23E5
  3
Dim
350
23E7
  3
EdgeColorOff
350
23F4
  3
Facepattern
350
23EB
  3
Flat
350
23DD
  3
FlatWithEdges
350
23DE
  3
Gouraud
350
23DF
  3
GouraudWithEdges
350
23E0
  3
Hidden
350
23E4
  3
JitterOff
350
23F2
  3
Linepattern
350
23EA
  3
OverhangOff
350
23F3
  3
Realistic
350
23E6
  3
Shaded
350
23F1
  3
Shaded with edges
350
23F0
  3
Shades of Gray
350
23ED
  3
Sketchy
350
23EE
  3
Thicken
350
23E9
  3
Wireframe
350
23E3
  3
X-Ray
350
23EF
  0
XRECORD
  5
2430
102
{ACAD_REACTORS
330
C
102
}
330
C
100
AcDbXrecord
280
     1
 90
        1
330
23F7
  0
DICTIONARY
  5
2423
102
{ACAD_REACTORS
330
C
102
}
330
C
100
AcDbDictionary
281
     1
  3
CANNOSCALE
350
2428
  3
CMLEADERSTYLE
350
2425
  3
CTABLESTYLE
350
2424
  3
CVIEWDETAILSTYLE
350
2426
  3
CVIEWSECTIONSTYLE
350
2427
  3
DIMASSOC
350
242B
  3
INDEXCTL
350
242A
  3
SORTENTS
350
2429
  3
XCLIPFRAME
350
242C
  0
DICTIONARY
  5
3D
102
{ACAD_REACTORS
330
C
102
}
330
C
100
AcDbDictionary
281
     1
  0
XRECORD
  5
2431
102
{ACAD_REACTORS
330
C
102
}
330
C
100
AcDbXrecord
280
     1
  1
DWGPROPS COOKIE
  2

  3

  4

  6

  7

  8
Yoshitsune
  9

300
=
301
=
302
=
303
=
304
=
305
=
306
=
307
=
308
=
309
=
 40
0.2748175115740741
 41
2452955.40802463
 42
2457192.643388553
  1

 90
        0
  0
XRECORD
  5
2414
102
{ACAD_REACTORS
330
2413
102
}
330
2413
100
AcDbXrecord
280
     1
290
     1
  0
XRECORD
  5
2416
102
{ACAD_REACTORS
330
2415
102
}
330
2415
100
AcDbXrecord
280
     1
290
     1
  0
XRECORD
  5
2418
102
{ACAD_REACTORS
330
2417
102
}
330
2417
100
AcDbXrecord
280
     1
290
     1
  0
XRECORD
  5
241A
102
{ACAD_REACTORS
330
2419
102
}
330
2419
100
AcDbXrecord
280
     1
290
     1
  0
XRECORD
  5
241C
102
{ACAD_REACTORS
330
241B
102
}
330
241B
100
AcDbXrecord
280
     1
290
     1
  0
XRECORD
  5
241E
102
{ACAD_REACTORS
330
241D
102
}
330
241D
100
AcDbXrecord
280
     1
290
     1
  0
XRECORD
  5
2420
102
{ACAD_REACTORS
330
241F
102
}
330
241F
100
AcDbXrecord
280
     1
290
     1
  0
XRECORD
  5
2422
102
{ACAD_REACTORS
330
2421
102
}
330
2421
100
AcDbXrecord
280
     1
290
     1
  0
XRECORD
  5
23BD
102
{ACAD_REACTORS
330
23BC
102
}
330
23BC
100
AcDbXrecord
280
     1
340
18
  0
XRECORD
  5
23BB
102
{ACAD_REACTORS
330
23BA
102
}
330
23BA
100
AcDbXrecord
280
     1
340
15
  0
ACDBDETAILVIEWSTYLE
  5
240F
102
{ACAD_XDICTIONARY
360
2469
102
}
102
{ACAD_REACTORS
330
240E
102
}
330
240E
100
AcDbModelDocViewStyle
 70
     0
  3
Imperial24
290
     0
100
AcDbDetailViewStyle
 70
     0
 71
     0
 90
        3
 71
     1
340
F
 40
0.24
340
0
 40
0.24
300

 40
0.36
280
     3
 71
     2
340
14
 90
       25
 71
     3
340
F
 40
0.24
 90
        1
 40
0.75
 90
        1
300
%<\AcVar ViewType \f "%tc1">% %<\AcVar ViewDetailId>%\PSCALE %<\AcVar ViewScale \f "%sn">%
 71
     4
340
14
 90
       25
340
14
 90
       25
280
     0
  0
LAYOUT
  5
2410
102
{ACAD_XDICTIONARY
360
246B
102
}
102
{ACAD_REACTORS
330
94
102
}
330
94
100
AcDbPlotSettings
  1

  2
Canon LBP9100C
  4

  6

 40
0.0
 41
0.0
 42
0.0
 43
0.0
 44
0.0
 45
0.0
 46
0.0
 47
0.0
 48
0.0
 49
0.0
140
0.0
141
0.0
142
1.0
143
1.0
 70
  1712
 72
     0
 73
     0
 74
     0
  7

 75
     0
147
1.0
148
0.0
149
0.0
100
AcDbLayout
  1
Model
 70
     1
 71
     0
 10
0.0
 20
0.0
 11
12.0
 21
9.0
 12
0.0
 22
0.0
 32
0.0
 14
0.0
 24
0.0
 34
0.0
 15
0.0
 25
0.0
 35
0.0
146
0.0
 13
0.0
 23
0.0
 33
0.0
 16
1.0
 26
0.0
 36
0.0
 17
0.0
 27
1.0
 37
0.0
 76
     0
330
18
331
23B9
  0
LAYOUT
  5
2411
102
{ACAD_XDICTIONARY
360
246D
102
}
102
{ACAD_REACTORS
330
94
102
}
330
94
100
AcDbPlotSettings
  1

  2
Canon LBP9100C
  4

  6

 40
0.0
 41
0.0
 42
0.0
 43
0.0
 44
0.0
 45
0.0
 46
0.0
 47
0.0
 48
0.0
 49
0.0
140
0.0
141
0.0
142
1.0
143
1.0
 70
   688
 72
     0
 73
     0
 74
     5
  7

 75
    16
147
1.0
148
0.0
149
0.0
100
AcDbLayout
  1
レイアウト1
 70
     1
 71
     1
 10
0.0
 20
0.0
 11
420.0
 21
297.0
 12
0.0
 22
0.0
 32
0.0
 14
1.000000000000000E+20
 24
1.000000000000000E+20
 34
1.000000000000000E+20
 15
-1.000000000000000E+20
 25
-1.000000000000000E+20
 35
-1.000000000000000E+20
146
0.0
 13
0.0
 23
0.0
 33
0.0
 16
1.0
 26
0.0
 36
0.0
 17
0.0
 27
1.0
 37
0.0
 76
     0
330
15
  0
MATERIAL
  5
23CC
102
{ACAD_XDICTIONARY
360
23CD
102
}
102
{ACAD_REACTORS
330
23C3
102
}
330
23C3
100
AcDbMaterial
  1
ByBlock
 72
     0
 43
0.0208333333333333
 43
0.0
 43
0.0
 43
0.0
 43
0.0
 43
0.0208333333333333
 43
0.0
 43
0.0
 43
0.0
 43
0.0
 43
1.0
 43
0.0
 43
0.0
 43
0.0
 43
0.0
 43
1.0
 77
     0
 47
0.0208333333333333
 47
0.0
 47
0.0
 47
0.0
 47
0.0
 47
0.0208333333333333
 47
0.0
 47
0.0
 47
0.0
 47
0.0
 47
1.0
 47
0.0
 47
0.0
 47
0.0
 47
0.0
 47
1.0
171
     0
 49
0.0208333333333333
 49
0.0
 49
0.0
 49
0.0
 49
0.0
 49
0.0208333333333333
 49
0.0
 49
0.0
 49
0.0
 49
0.0
 49
1.0
 49
0.0
 49
0.0
 49
0.0
 49
0.0
 49
1.0
175
     0
142
0.0208333333333333
142
0.0
142
0.0
142
0.0
142
0.0
142
0.0208333333333333
142
0.0
142
0.0
142
0.0
142
0.0
142
1.0
142
0.0
142
0.0
142
0.0
142
0.0
142
1.0
179
     0
144
0.0208333333333333
144
0.0
144
0.0
144
0.0
144
0.0
144
0.0208333333333333
144
0.0
144
0.0
144
0.0
144
0.0
144
1.0
144
0.0
144
0.0
144
0.0
144
0.0
144
1.0
147
0.0208333333333333
147
0.0
147
0.0
147
0.0
147
0.0
147
0.0208333333333333
147
0.0
147
0.0
147
0.0
147
0.0
147
1.0
147
0.0
147
0.0
147
0.0
147
0.0
147
1.0
  0
MATERIAL
  5
23C4
102
{ACAD_XDICTIONARY
360
23C5
102
}
102
{ACAD_REACTORS
330
23C3
102
}
330
23C3
100
AcDbMaterial
  1
ByLayer
 72
     0
 43
0.0208333333333333
 43
0.0
 43
0.0
 43
0.0
 43
0.0
 43
0.0208333333333333
 43
0.0
 43
0.0
 43
0.0
 43
0.0
 43
1.0
 43
0.0
 43
0.0
 43
0.0
 43
0.0
 43
1.0
 77
     0
 47
0.0208333333333333
 47
0.0
 47
0.0
 47
0.0
 47
0.0
 47
0.0208333333333333
 47
0.0
 47
0.0
 47
0.0
 47
0.0
 47
1.0
 47
0.0
 47
0.0
 47
0.0
 47
0.0
 47
1.0
171
     0
 49
0.0208333333333333
 49
0.0
 49
0.0
 49
0.0
 49
0.0
 49
0.0208333333333333
 49
0.0
 49
0.0
 49
0.0
 49
0.0
 49
1.0
 49
0.0
 49
0.0
 49
0.0
 49
0.0
 49
1.0
175
     0
142
0.0208333333333333
142
0.0
142
0.0
142
0.0
142
0.0
142
0.0208333333333333
142
0.0
142
0.0
142
0.0
142
0.0
142
1.0
142
0.0
142
0.0
142
0.0
142
0.0
142
1.0
179
     0
144
0.0208333333333333
144
0.0
144
0.0
144
0.0
144
0.0
144
0.0208333333333333
144
0.0
144
0.0
144
0.0
144
0.0
144
1.0
144
0.0
144
0.0
144
0.0
144
0.0
144
1.0
147
0.0208333333333333
147
0.0
147
0.0
147
0.0
147
0.0
147
0.0208333333333333
147
0.0
147
0.0
147
0.0
147
0.0
147
1.0
147
0.0
147
0.0
147
0.0
147
0.0
147
1.0
  0
MATERIAL
  5
23D4
102
{ACAD_XDICTIONARY
360
23D5
102
}
102
{ACAD_REACTORS
330
23C3
102
}
330
23C3
100
AcDbMaterial
  1
Global
 72
     0
 43
0.0208333333333333
 43
0.0
 43
0.0
 43
0.0
 43
0.0
 43
0.0208333333333333
 43
0.0
 43
0.0
 43
0.0
 43
0.0
 43
1.0
 43
0.0
 43
0.0
 43
0.0
 43
0.0
 43
1.0
 77
     0
 47
0.0208333333333333
 47
0.0
 47
0.0
 47
0.0
 47
0.0
 47
0.0208333333333333
 47
0.0
 47
0.0
 47
0.0
 47
0.0
 47
1.0
 47
0.0
 47
0.0
 47
0.0
 47
0.0
 47
1.0
171
     0
 49
0.0208333333333333
 49
0.0
 49
0.0
 49
0.0
 49
0.0
 49
0.0208333333333333
 49
0.0
 49
0.0
 49
0.0
 49
0.0
 49
1.0
 49
0.0
 49
0.0
 49
0.0
 49
0.0
 49
1.0
175
     0
142
0.0208333333333333
142
0.0
142
0.0
142
0.0
142
0.0
142
0.0208333333333333
142
0.0
142
0.0
142
0.0
142
0.0
142
1.0
142
0.0
142
0.0
142
0.0
142
0.0
142
1.0
179
     0
144
0.0208333333333333
144
0.0
144
0.0
144
0.0
144
0.0
144
0.0208333333333333
144
0.0
144
0.0
144
0.0
144
0.0
144
1.0
144
0.0
144
0.0
144
0.0
144
0.0
144
1.0
147
0.0208333333333333
147
0.0
147
0.0
147
0.0
147
0.0
147
0.0208333333333333
147
0.0
147
0.0
147
0.0
147
0.0
147
1.0
147
0.0
147
0.0
147
0.0
147
0.0
147
1.0
  0
MLEADERSTYLE
  5
240B
102
{ACAD_REACTORS
330
240A
102
}
330
240A
100
AcDbMLeaderStyle
170
     2
171
     1
172
     0
 90
        2
 40
0.0
 41
0.0
173
     1
 91
-1056964608
340
12
 92
       -2
290
     1
 42
0.09
291
     1
 43
0.36
  3
Standard
 44
0.18
300

342
F
174
     1
178
     6
175
     1
176
     0
 93
-1056964608
 45
0.18
292
     0
297
     0
 46
0.18
 94
-1056964608
 47
1.0
 49
1.0
140
1.0
293
     1
141
0.0
294
     1
177
     0
142
1.0
295
     0
296
     0
143
0.125
1001
ACAD_MLEADERVER
1070
     2
  0
MLINESTYLE
  5
1C
102
{ACAD_REACTORS
330
1B
102
}
330
1B
100
AcDbMlineStyle
  2
STANDARD
 70
     0
  3

 62
   256
 51
90.0
 52
90.0
 71
     2
 49
0.5
 62
   256
  6
BYLAYER
 49
-0.5
 62
   256
  6
BYLAYER
  0
ACDBPLACEHOLDER
  5
23C2
102
{ACAD_REACTORS
330
23C1
102
}
330
23C1
  0
SCALE
  5
23F9
102
{ACAD_REACTORS
330
23F8
102
}
330
23F8
100
AcDbScale
 70
     0
300
1:1
140
1.0
141
1.0
290
     1
  0
SCALE
  5
23FA
102
{ACAD_REACTORS
330
23F8
102
}
330
23F8
100
AcDbScale
 70
     0
300
1/128" = 1'-0"
140
0.0078125
141
12.0
290
     0
  0
SCALE
  5
23FB
102
{ACAD_REACTORS
330
23F8
102
}
330
23F8
100
AcDbScale
 70
     0
300
1/64" = 1'-0"
140
0.015625
141
12.0
290
     0
  0
SCALE
  5
23FC
102
{ACAD_REACTORS
330
23F8
102
}
330
23F8
100
AcDbScale
 70
     0
300
1/32" = 1'-0"
140
0.03125
141
12.0
290
     0
  0
SCALE
  5
23FD
102
{ACAD_REACTORS
330
23F8
102
}
330
23F8
100
AcDbScale
 70
     0
300
1/16" = 1'-0"
140
0.0625
141
12.0
290
     0
  0
SCALE
  5
23FE
102
{ACAD_REACTORS
330
23F8
102
}
330
23F8
100
AcDbScale
 70
     0
300
3/32" = 1'-0"
140
0.09375
141
12.0
290
     0
  0
SCALE
  5
23FF
102
{ACAD_REACTORS
330
23F8
102
}
330
23F8
100
AcDbScale
 70
     0
300
1/8" = 1'-0"
140
0.125
141
12.0
290
     0
  0
SCALE
  5
2400
102
{ACAD_REACTORS
330
23F8
102
}
330
23F8
100
AcDbScale
 70
     0
300
3/16" = 1'-0"
140
0.1875
141
12.0
290
     0
  0
SCALE
  5
2401
102
{ACAD_REACTORS
330
23F8
102
}
330
23F8
100
AcDbScale
 70
     0
300
1/4" = 1'-0"
140
0.25
141
12.0
290
     0
  0
SCALE
  5
2402
102
{ACAD_REACTORS
330
23F8
102
}
330
23F8
100
AcDbScale
 70
     0
300
3/8" = 1'-0"
140
0.375
141
12.0
290
     0
  0
SCALE
  5
2403
102
{ACAD_REACTORS
330
23F8
102
}
330
23F8
100
AcDbScale
 70
     0
300
1/2" = 1'-0"
140
0.5
141
12.0
290
     0
  0
SCALE
  5
2404
102
{ACAD_REACTORS
330
23F8
102
}
330
23F8
100
AcDbScale
 70
     0
300
3/4" = 1'-0"
140
0.75
141
12.0
290
     0
  0
SCALE
  5
2405
102
{ACAD_REACTORS
330
23F8
102
}
330
23F8
100
AcDbScale
 70
     0
300
1" = 1'-0"
140
1.0
141
12.0
290
     0
  0
SCALE
  5
2406
102
{ACAD_REACTORS
330
23F8
102
}
330
23F8
100
AcDbScale
 70
     0
300
1-1/2" = 1'-0"
140
1.5
141
12.0
290
     0
  0
SCALE
  5
2407
102
{ACAD_REACTORS
330
23F8
102
}
330
23F8
100
AcDbScale
 70
     0
300
3" = 1'-0"
140
3.0
141
12.0
290
     0
  0
SCALE
  5
2408
102
{ACAD_REACTORS
330
23F8
102
}
330
23F8
100
AcDbScale
 70
     0
300
6" = 1'-0"
140
6.0
141
12.0
290
     0
  0
SCALE
  5
2409
102
{ACAD_REACTORS
330
23F8
102
}
330
23F8
100
AcDbScale
 70
     0
300
1'-0" = 1'-0"
140
12.0
141
12.0
290
     0
  0
ACDBSECTIONVIEWSTYLE
  5
240D
102
{ACAD_XDICTIONARY
360
2467
102
}
102
{ACAD_REACTORS
330
240C
102
}
330
240C
100
AcDbModelDocViewStyle
 70
     0
  3
Imperial24
290
     0
100
AcDbSectionViewStyle
 70
     0
 71
     0
 90
       78
 71
     1
340
F
 40
0.24
340
0
340
0
 40
0.24
300
I, O, Q, S, X, Z
 40
0.48
 90
        3
 40
0.18
 90
        1
 71
     2
340
14
 90
       25
340
14
 90
       50
 40
0.24
 40
0.0
 40
0.24
 71
     3
340
F
 40
0.24
 90
        1
 40
0.75
 90
        1
300
%<\AcVar ViewType \f "%tc1">% %<\AcVar ViewSectionStartId>%-%<\AcVar ViewSectionEndId>%\PSCALE %<\AcVar ViewScale \f "%sn">%
 71
     4
300
ANSI31
 40
1.0
 90
        0
290
     0
290
     0
 90
        6
 40
0.0
 40
1.570796326794896
 40
0.2617993877991494
 40
1.308996938995747
 40
-0.2617993877991494
 40
1.832595714594046
  0
TABLESTYLE
  5
23F7
102
{ACAD_XDICTIONARY
360
242E
102
}
102
{ACAD_REACTORS
330
23F6
102
}
330
23F6
100
AcDbTableStyle
  3
Standard
 70
     0
 71
     0
 40
0.06
 41
0.06
280
     0
281
     0
  7
STANDARD
140
0.18
170
     2
 62
     0
 63
     7
283
     0
274
    -2
284
     1
 64
     0
275
    -2
285
     1
 65
     0
276
    -2
286
     1
 66
     0
277
    -2
287
     1
 67
     0
278
    -2
288
     1
 68
     0
279
    -2
289
     1
 69
     0
  7
STANDARD
140
0.25
170
     5
 62
     0
 63
     7
283
     0
274
    -2
284
     1
 64
     0
275
    -2
285
     1
 65
     0
276
    -2
286
     1
 66
     0
277
    -2
287
     1
 67
     0
278
    -2
288
     1
 68
     0
279
    -2
289
     1
 69
     0
  7
STANDARD
140
0.18
170
     5
 62
     0
 63
     7
283
     0
274
    -2
284
     1
 64
     0
275
    -2
285
     1
 65
     0
276
    -2
286
     1
 66
     0
277
    -2
287
     1
 67
     0
278
    -2
288
     1
 68
     0
279
    -2
289
     1
 69
     0
  0
VISUALSTYLE
  5
23E2
102
{ACAD_XDICTIONARY
360
243F
102
}
102
{ACAD_REACTORS
330
23DC
102
}
330
23DC
100
AcDbVisualStyle
  2
2dWireframe
 70
     4
 71
     0
 72
     2
 73
     0
 90
        0
 40
-0.6
 41
-30.0
 62
     5
 63
     7
 74
     1
 91
        4
 64
     7
 65
   257
 75
     1
175
     1
 42
1.0
 92
        0
 66
   257
 43
1.0
 76
     1
 77
     6
 78
     2
 67
     7
 79
     5
170
     0
171
     0
290
     0
174
     0
 93
        1
 44
0.0
173
     0
291
     0
 45
0.0
1001
ACAD
1000
AcDbSavedByObjectVersion
1070
     0
  0
VISUALSTYLE
  5
23E1
102
{ACAD_XDICTIONARY
360
243D
102
}
102
{ACAD_REACTORS
330
23DC
102
}
330
23DC
100
AcDbVisualStyle
  2
Basic
 70
     7
 71
     1
 72
     0
 73
     1
 90
        0
 40
-0.6
 41
-30.0
 62
     5
 63
     7
 74
     0
 91
        4
 64
     7
 65
   257
 75
     1
175
     1
 42
1.0
 92
        8
 66
     7
 43
1.0
 76
     1
 77
     6
 78
     2
 67
     7
 79
     5
170
     0
171
     0
290
     0
174
     0
 93
        1
 44
0.0
173
     0
291
     1
 45
0.0
1001
ACAD
1000
AcDbSavedByObjectVersion
1070
     0
  0
VISUALSTYLE
  5
23E8
102
{ACAD_XDICTIONARY
360
244B
102
}
102
{ACAD_REACTORS
330
23DC
102
}
330
23DC
100
AcDbVisualStyle
  2
Brighten
 70
    12
 71
     2
 72
     2
 73
     0
 90
        0
 40
-0.6
 41
-30.0
 62
     5
 63
     7
 74
     1
 91
        4
 64
     7
 65
   257
 75
     1
175
     1
 42
1.0
 92
        8
 66
     7
 43
1.0
 76
     1
 77
     6
 78
     2
 67
     7
 79
     5
170
     0
171
     0
290
     0
174
     0
 93
        1
 44
50.0
173
     0
291
     1
 45
0.0
1001
ACAD
1000
AcDbSavedByObjectVersion
1070
     0
  0
VISUALSTYLE
  5
23EC
102
{ACAD_XDICTIONARY
360
2453
102
}
102
{ACAD_REACTORS
330
23DC
102
}
330
23DC
100
AcDbVisualStyle
  2
ColorChange
 70
    16
 71
     2
 72
     2
 73
     3
 90
        0
 40
-0.6
 41
-30.0
 62
     5
 63
     8
 74
     1
 91
        4
 64
     7
 65
   257
 75
     1
175
     1
 42
1.0
 92
        8
 66
     8
 43
1.0
 76
     1
 77
     6
 78
     2
 67
     7
 79
     5
170
     0
171
     0
290
     0
174
     0
 93
        1
 44
0.0
173
     0
291
     1
 45
0.0
1001
ACAD
1000
AcDbSavedByObjectVersion
1070
     0
  0
VISUALSTYLE
  5
23E5
102
{ACAD_XDICTIONARY
360
2445
102
}
102
{ACAD_REACTORS
330
23DC
102
}
330
23DC
100
AcDbVisualStyle
  2
Conceptual
 70
     9
 71
     3
 72
     2
 73
     0
 90
        0
 40
-0.6
 41
-30.0
 62
     5
 63
     7
 74
     2
 91
        2
 64
     7
 65
   257
 75
     1
175
     1
 42
179.0
 92
        8
 66
     7
 43
1.0
 76
     1
 77
     6
 78
     2
 67
     7
 79
     3
170
     0
171
     0
290
     0
174
     0
 93
        1
 44
0.0
173
     0
291
     0
 45
0.0
1001
ACAD
1000
AcDbSavedByObjectVersion
1070
     0
  0
VISUALSTYLE
  5
23E7
102
{ACAD_XDICTIONARY
360
2449
102
}
102
{ACAD_REACTORS
330
23DC
102
}
330
23DC
100
AcDbVisualStyle
  2
Dim
 70
    11
 71
     2
 72
     2
 73
     0
 90
        0
 40
-0.6
 41
-30.0
 62
     5
 63
     7
 74
     1
 91
        4
 64
     7
 65
   257
 75
     1
175
     1
 42
1.0
 92
        8
 66
     7
 43
1.0
 76
     1
 77
     6
 78
     2
 67
     7
 79
     5
170
     0
171
     0
290
     0
174
     0
 93
        1
 44
-50.0
173
     0
291
     1
 45
0.0
1001
ACAD
1000
AcDbSavedByObjectVersion
1070
     0
  0
VISUALSTYLE
  5
23F4
102
{ACAD_XDICTIONARY
360
2463
102
}
102
{ACAD_REACTORS
330
23DC
102
}
330
23DC
100
AcDbVisualStyle
  2
EdgeColorOff
 70
    22
 71
     2
 72
     2
 73
     0
 90
        0
 40
-0.6
 41
-30.0
 62
     5
 63
     7
 74
     1
 91
        4
 64
     7
 65
   257
 75
     1
175
     1
 42
1.0
 92
        8
 66
     7
 43
1.0
 76
     1
 77
     6
 78
     2
 67
     7
 79
     5
170
     0
171
     0
290
     0
174
     0
 93
        1
 44
0.0
173
     0
291
     1
 45
0.0
1001
ACAD
1000
AcDbSavedByObjectVersion
1070
     0
  0
VISUALSTYLE
  5
23EB
102
{ACAD_XDICTIONARY
360
2451
102
}
102
{ACAD_REACTORS
330
23DC
102
}
330
23DC
100
AcDbVisualStyle
  2
Facepattern
 70
    15
 71
     2
 72
     2
 73
     0
 90
        0
 40
-0.6
 41
-30.0
 62
     5
 63
     7
 74
     1
 91
        4
 64
     7
 65
   257
 75
     1
175
     1
 42
1.0
 92
        8
 66
     7
 43
1.0
 76
     1
 77
     6
 78
     2
 67
     7
 79
     5
170
     0
171
     0
290
     0
174
     0
 93
        1
 44
0.0
173
     0
291
     1
 45
0.0
1001
ACAD
1000
AcDbSavedByObjectVersion
1070
     0
  0
VISUALSTYLE
  5
23DD
102
{ACAD_XDICTIONARY
360
2435
102
}
102
{ACAD_REACTORS
330
23DC
102
}
330
23DC
100
AcDbVisualStyle
  2
Flat
 70
     0
 71
     2
 72
     1
 73
     1
 90
        2
 40
-0.6
 41
30.0
 62
     5
 63
     7
 74
     0
 91
        0
 64
     7
 65
   257
 75
     1
175
     1
 42
1.0
 92
        8
 66
     7
 43
1.0
 76
     1
 77
     6
 78
     2
 67
     7
 79
     5
170
     0
171
     0
290
     0
174
     0
 93
       13
 44
0.0
173
     0
291
     1
 45
0.0
1001
ACAD
1000
AcDbSavedByObjectVersion
1070
     0
  0
VISUALSTYLE
  5
23DE
102
{ACAD_XDICTIONARY
360
2437
102
}
102
{ACAD_REACTORS
330
23DC
102
}
330
23DC
100
AcDbVisualStyle
  2
FlatWithEdges
 70
     1
 71
     2
 72
     1
 73
     1
 90
        2
 40
-0.6
 41
30.0
 62
     5
 63
     7
 74
     1
 91
        0
 64
     7
 65
   257
 75
     1
175
     1
 42
1.0
 92
        0
 66
   257
 43
1.0
 76
     1
 77
     6
 78
     2
 67
     7
 79
     5
170
     0
171
     0
290
     0
174
     0
 93
       13
 44
0.0
173
     0
291
     1
 45
0.0
1001
ACAD
1000
AcDbSavedByObjectVersion
1070
     0
  0
VISUALSTYLE
  5
23DF
102
{ACAD_XDICTIONARY
360
2439
102
}
102
{ACAD_REACTORS
330
23DC
102
}
330
23DC
100
AcDbVisualStyle
  2
Gouraud
 70
     2
 71
     2
 72
     2
 73
     1
 90
        2
 40
-0.6
 41
30.0
 62
     5
 63
     7
 74
     0
 91
        0
 64
     7
 65
   257
 75
     1
175
     1
 42
1.0
 92
        0
 66
     7
 43
1.0
 76
     1
 77
     6
 78
     2
 67
     7
 79
     5
170
     0
171
     0
290
     0
174
     0
 93
       13
 44
0.0
173
     0
291
     1
 45
0.0
1001
ACAD
1000
AcDbSavedByObjectVersion
1070
     0
  0
VISUALSTYLE
  5
23E0
102
{ACAD_XDICTIONARY
360
243B
102
}
102
{ACAD_REACTORS
330
23DC
102
}
330
23DC
100
AcDbVisualStyle
  2
GouraudWithEdges
 70
     3
 71
     2
 72
     2
 73
     1
 90
        2
 40
-0.6
 41
30.0
 62
     5
 63
     7
 74
     1
 91
        0
 64
     7
 65
   257
 75
     1
175
     1
 42
1.0
 92
        0
 66
   257
 43
1.0
 76
     1
 77
     6
 78
     2
 67
     7
 79
     5
170
     0
171
     0
290
     0
174
     0
 93
       13
 44
0.0
173
     0
291
     1
 45
0.0
1001
ACAD
1000
AcDbSavedByObjectVersion
1070
     0
  0
VISUALSTYLE
  5
23E4
102
{ACAD_XDICTIONARY
360
2443
102
}
102
{ACAD_REACTORS
330
23DC
102
}
330
23DC
100
AcDbVisualStyle
  2
Hidden
 70
     6
 71
     1
 72
     2
 73
     2
 90
        0
 40
-0.6
 41
-30.0
 62
     5
 63
     7
 74
     2
 91
        2
 64
     7
 65
   257
 75
     2
175
     1
 42
40.0
 92
        0
 66
   257
 43
1.0
 76
     1
 77
     6
 78
     2
 67
     7
 79
     3
170
     0
171
     0
290
     0
174
     0
 93
        1
 44
0.0
173
     0
291
     0
 45
0.0
1001
ACAD
1000
AcDbSavedByObjectVersion
1070
     0
  0
VISUALSTYLE
  5
23F2
102
{ACAD_XDICTIONARY
360
245F
102
}
102
{ACAD_REACTORS
330
23DC
102
}
330
23DC
100
AcDbVisualStyle
  2
JitterOff
 70
    20
 71
     2
 72
     2
 73
     0
 90
        0
 40
-0.6
 41
-30.0
 62
     5
 63
     7
 74
     1
 91
        4
 64
     7
 65
   257
 75
     1
175
     1
 42
1.0
 92
       10
 66
     7
 43
1.0
 76
     1
 77
     6
 78
     2
 67
     7
 79
     5
170
     0
171
     0
290
     0
174
     0
 93
        1
 44
0.0
173
     0
291
     1
 45
0.0
1001
ACAD
1000
AcDbSavedByObjectVersion
1070
     0
  0
VISUALSTYLE
  5
23EA
102
{ACAD_XDICTIONARY
360
244F
102
}
102
{ACAD_REACTORS
330
23DC
102
}
330
23DC
100
AcDbVisualStyle
  2
Linepattern
 70
    14
 71
     2
 72
     2
 73
     0
 90
        0
 40
-0.6
 41
-30.0
 62
     5
 63
     7
 74
     1
 91
        4
 64
     7
 65
   257
 75
     7
175
     7
 42
1.0
 92
        8
 66
     7
 43
1.0
 76
     1
 77
     6
 78
     2
 67
     7
 79
     5
170
     0
171
     0
290
     0
174
     0
 93
        1
 44
0.0
173
     0
291
     1
 45
0.0
1001
ACAD
1000
AcDbSavedByObjectVersion
1070
     0
  0
VISUALSTYLE
  5
23F3
102
{ACAD_XDICTIONARY
360
2461
102
}
102
{ACAD_REACTORS
330
23DC
102
}
330
23DC
100
AcDbVisualStyle
  2
OverhangOff
 70
    21
 71
     2
 72
     2
 73
     0
 90
        0
 40
-0.6
 41
-30.0
 62
     5
 63
     7
 74
     1
 91
        4
 64
     7
 65
   257
 75
     1
175
     1
 42
1.0
 92
        9
 66
     7
 43
1.0
 76
     1
 77
     6
 78
     2
 67
     7
 79
     5
170
     0
171
     0
290
     0
174
     0
 93
        1
 44
0.0
173
     0
291
     1
 45
0.0
1001
ACAD
1000
AcDbSavedByObjectVersion
1070
     0
  0
VISUALSTYLE
  5
23E6
102
{ACAD_XDICTIONARY
360
2447
102
}
102
{ACAD_REACTORS
330
23DC
102
}
330
23DC
100
AcDbVisualStyle
  2
Realistic
 70
     8
 71
     2
 72
     3
 73
     0
 90
        2
 40
-0.6
 41
30.0
 62
     5
 63
     7
 74
     0
 91
        0
 64
     7
 65
   257
 75
     1
175
     1
 42
1.0
 92
        8
 66
   257
 43
1.0
 76
     1
 77
     6
 78
     2
 67
     7
 79
     3
170
     0
171
     0
290
     0
174
     0
 93
       13
 44
0.0
173
     0
291
     0
 45
0.0
1001
ACAD
1000
AcDbSavedByObjectVersion
1070
     0
  0
VISUALSTYLE
  5
23F1
102
{ACAD_XDICTIONARY
360
245D
102
}
102
{ACAD_REACTORS
330
23DC
102
}
330
23DC
100
AcDbVisualStyle
  2
Shaded
 70
    27
 71
     2
 72
     2
 73
     1
 90
        2
 40
-0.6
 41
30.0
 62
     5
 63
     7
 74
     0
 91
        4
 64
     7
 65
   257
 75
     1
175
     1
 42
1.0
 92
        8
 66
   257
 43
1.0
 76
     1
 77
     6
 78
     2
 67
     8
 79
     3
170
     0
171
     0
290
     0
174
     0
 93
        5
 44
0.0
173
     0
291
     0
 45
0.0
1001
ACAD
1000
AcDbSavedByObjectVersion
1070
     0
  0
VISUALSTYLE
  5
23F0
102
{ACAD_XDICTIONARY
360
245B
102
}
102
{ACAD_REACTORS
330
23DC
102
}
330
23DC
100
AcDbVisualStyle
  2
Shaded with edges
 70
    26
 71
     2
 72
     2
 73
     1
 90
        2
 40
-0.6
 41
30.0
 62
     5
 63
     7
 74
     1
 91
       10
 64
     7
 65
   257
 75
     2
175
     1
 42
1.0
 92
        8
 66
   257
 43
1.0
 76
     1
 77
     6
 78
     2
 67
     7
 79
     3
170
     0
171
     0
290
     0
174
     0
 93
        5
 44
0.0
173
     0
291
     0
 45
0.0
1001
ACAD
1000
AcDbSavedByObjectVersion
1070
     0
  0
VISUALSTYLE
  5
23ED
102
{ACAD_XDICTIONARY
360
2455
102
}
102
{ACAD_REACTORS
330
23DC
102
}
330
23DC
100
AcDbVisualStyle
  2
Shades of Gray
 70
    23
 71
     2
 72
     2
 73
     3
 90
        0
 40
-0.6
 41
-30.0
 62
     5
 63
     7
 74
     2
 91
        2
 64
     7
 65
     7
 75
     1
175
     1
 42
40.0
 92
        8
 66
     7
 43
1.0
 76
     1
 77
     6
 78
     2
 67
     7
 79
     3
170
     0
171
     0
290
     0
174
     0
 93
        1
 44
0.0
173
     0
291
     0
 45
0.0
1001
ACAD
1000
AcDbSavedByObjectVersion
1070
     0
  0
VISUALSTYLE
  5
23EE
102
{ACAD_XDICTIONARY
360
2457
102
}
102
{ACAD_REACTORS
330
23DC
102
}
330
23DC
100
AcDbVisualStyle
  2
Sketchy
 70
    24
 71
     1
 72
     2
 73
     2
 90
        0
 40
-0.6
 41
-30.0
 62
     5
 63
     7
 74
     2
 91
        2
 64
     7
 65
     7
 75
     1
175
     1
 42
40.0
 92
       11
 66
     7
 43
1.0
 76
     1
 77
     6
 78
     2
 67
     7
 79
     6
170
     0
171
     0
290
     0
174
     0
 93
        1
 44
0.0
173
     0
291
     0
 45
0.0
1001
ACAD
1000
AcDbSavedByObjectVersion
1070
     0
  0
VISUALSTYLE
  5
23E9
102
{ACAD_XDICTIONARY
360
244D
102
}
102
{ACAD_REACTORS
330
23DC
102
}
330
23DC
100
AcDbVisualStyle
  2
Thicken
 70
    13
 71
     2
 72
     2
 73
     0
 90
        0
 40
-0.6
 41
-30.0
 62
     5
 63
     7
 74
     1
 91
        4
 64
     7
 65
   257
 75
     1
175
     1
 42
1.0
 92
       12
 66
     7
 43
1.0
 76
     1
 77
     6
 78
     2
 67
     7
 79
     5
170
     0
171
     0
290
     0
174
     0
 93
        1
 44
0.0
173
     0
291
     1
 45
0.0
1001
ACAD
1000
AcDbSavedByObjectVersion
1070
     0
  0
VISUALSTYLE
  5
23E3
102
{ACAD_XDICTIONARY
360
2441
102
}
102
{ACAD_REACTORS
330
23DC
102
}
330
23DC
100
AcDbVisualStyle
  2
Wireframe
 70
     5
 71
     0
 72
     2
 73
     0
 90
        0
 40
-0.6
 41
-30.0
 62
     5
 63
     7
 74
     1
 91
        4
 64
     7
 65
   257
 75
     1
175
     1
 42
1.0
 92
        0
 66
   257
 43
1.0
 76
     1
 77
     6
 78
     2
 67
     7
 79
     3
170
     0
171
     0
290
     0
174
     0
 93
        1
 44
0.0
173
     0
291
     0
 45
0.0
1001
ACAD
1000
AcDbSavedByObjectVersion
1070
     0
  0
VISUALSTYLE
  5
23EF
102
{ACAD_XDICTIONARY
360
2459
102
}
102
{ACAD_REACTORS
330
23DC
102
}
330
23DC
100
AcDbVisualStyle
  2
X-Ray
 70
    25
 71
     2
 72
     2
 73
     1
 90
        1
 40
0.5
 41
-30.0
 62
     5
 63
     7
 74
     1
 91
        0
 64
     7
 65
   257
 75
     1
175
     1
 42
1.0
 92
        8
 66
     7
 43
1.0
 76
     1
 77
     6
 78
     2
 67
     7
 79
     3
170
     0
171
     0
290
     0
174
     0
 93
       13
 44
0.0
173
     0
291
     0
 45
0.0
1001
ACAD
1000
AcDbSavedByObjectVersion
1070
     0
  0
DICTIONARYVAR
  5
2428
102
{ACAD_REACTORS
330
2423
102
}
330
2423
100
DictionaryVariables
280
     0
  1
1:1
  0
DICTIONARYVAR
  5
2425
102
{ACAD_REACTORS
330
2423
102
}
330
2423
100
DictionaryVariables
280
     0
  1
STANDARD
  0
DICTIONARYVAR
  5
2424
102
{ACAD_REACTORS
330
2423
102
}
330
2423
100
DictionaryVariables
280
     0
  1
STANDARD
  0
DICTIONARYVAR
  5
2426
102
{ACAD_REACTORS
330
2423
102
}
330
2423
100
DictionaryVariables
280
     0
  1
Imperial24
  0
DICTIONARYVAR
  5
2427
102
{ACAD_REACTORS
330
2423
102
}
330
2423
100
DictionaryVariables
280
     0
  1
Imperial24
  0
DICTIONARYVAR
  5
242B
102
{ACAD_REACTORS
330
2423
102
}
330
2423
100
DictionaryVariables
280
     0
  1
1
  0
DICTIONARYVAR
  5
242A
102
{ACAD_REACTORS
330
2423
102
}
330
2423
100
DictionaryVariables
280
     0
  1
0
  0
DICTIONARYVAR
  5
2429
102
{ACAD_REACTORS
330
2423
102
}
330
2423
100
DictionaryVariables
280
     0
  1
127
  0
DICTIONARYVAR
  5
242C
102
{ACAD_REACTORS
330
2423
102
}
330
2423
100
DictionaryVariables
280
     0
  1
2
  0
DICTIONARY
  5
2469
330
240F
100
AcDbDictionary
280
     1
281
     1
  3
ACAD_XREC_ROUNDTRIP
360
246A
  0
DICTIONARY
  5
246B
330
2410
100
AcDbDictionary
280
     1
281
     1
  3
ACAD_XREC_ROUNDTRIP
360
246C
  0
DICTIONARY
  5
246D
330
2411
100
AcDbDictionary
280
     1
281
     1
  3
ACAD_XREC_ROUNDTRIP
360
246E
  0
DICTIONARY
  5
23CD
330
23CC
100
AcDbDictionary
280
     1
281
     1
  3
ACAD_XREC_ROUNDTRIP
360
2433
  3
BUMPTILE
360
23CF
  3
DIFFUSETILE
360
23CE
  3
OPACITYTILE
360
23D2
  3
REFLECTIONTILE
360
23D1
  3
REFRACTIONTILE
360
23D3
  3
SPECULARTILE
360
23D0
  0
DICTIONARY
  5
23C5
330
23C4
100
AcDbDictionary
280
     1
281
     1
  3
ACAD_XREC_ROUNDTRIP
360
2432
  3
BUMPTILE
360
23C7
  3
DIFFUSETILE
360
23C6
  3
OPACITYTILE
360
23CA
  3
REFLECTIONTILE
360
23C9
  3
REFRACTIONTILE
360
23CB
  3
SPECULARTILE
360
23C8
  0
DICTIONARY
  5
23D5
330
23D4
100
AcDbDictionary
280
     1
281
     1
  3
ACAD_XREC_ROUNDTRIP
360
2434
  3
BUMPTILE
360
23D7
  3
DIFFUSETILE
360
23D6
  3
OPACITYTILE
360
23DA
  3
REFLECTIONTILE
360
23D9
  3
REFRACTIONTILE
360
23DB
  3
SPECULARTILE
360
23D8
  0
DICTIONARY
  5
2467
330
240D
100
AcDbDictionary
280
     1
281
     1
  3
ACAD_XREC_ROUNDTRIP
360
2468
  0
DICTIONARY
  5
242E
330
23F7
100
AcDbDictionary
280
     1
281
     1
  3
ACAD_ROUNDTRIP_2008_TABLESTYLE_CELLSTYLEMAP
360
242F
  3
ACAD_XREC_ROUNDTRIP
360
2465
  0
DICTIONARY
  5
243F
330
23E2
100
AcDbDictionary
280
     1
281
     1
  3
ACAD_XREC_ROUNDTRIP
360
2440
  0
DICTIONARY
  5
243D
330
23E1
100
AcDbDictionary
280
     1
281
     1
  3
ACAD_XREC_ROUNDTRIP
360
243E
  0
DICTIONARY
  5
244B
330
23E8
100
AcDbDictionary
280
     1
281
     1
  3
ACAD_XREC_ROUNDTRIP
360
244C
  0
DICTIONARY
  5
2453
330
23EC
100
AcDbDictionary
280
     1
281
     1
  3
ACAD_XREC_ROUNDTRIP
360
2454
  0
DICTIONARY
  5
2445
330
23E5
100
AcDbDictionary
280
     1
281
     1
  3
ACAD_XREC_ROUNDTRIP
360
2446
  0
DICTIONARY
  5
2449
330
23E7
100
AcDbDictionary
280
     1
281
     1
  3
ACAD_XREC_ROUNDTRIP
360
244A
  0
DICTIONARY
  5
2463
330
23F4
100
AcDbDictionary
280
     1
281
     1
  3
ACAD_XREC_ROUNDTRIP
360
2464
  0
DICTIONARY
  5
2451
330
23EB
100
AcDbDictionary
280
     1
281
     1
  3
ACAD_XREC_ROUNDTRIP
360
2452
  0
DICTIONARY
  5
2435
330
23DD
100
AcDbDictionary
280
     1
281
     1
  3
ACAD_XREC_ROUNDTRIP
360
2436
  0
DICTIONARY
  5
2437
330
23DE
100
AcDbDictionary
280
     1
281
     1
  3
ACAD_XREC_ROUNDTRIP
360
2438
  0
DICTIONARY
  5
2439
330
23DF
100
AcDbDictionary
280
     1
281
     1
  3
ACAD_XREC_ROUNDTRIP
360
243A
  0
DICTIONARY
  5
243B
330
23E0
100
AcDbDictionary
280
     1
281
     1
  3
ACAD_XREC_ROUNDTRIP
360
243C
  0
DICTIONARY
  5
2443
330
23E4
100
AcDbDictionary
280
     1
281
     1
  3
ACAD_XREC_ROUNDTRIP
360
2444
  0
DICTIONARY
  5
245F
330
23F2
100
AcDbDictionary
280
     1
281
     1
  3
ACAD_XREC_ROUNDTRIP
360
2460
  0
DICTIONARY
  5
244F
330
23EA
100
AcDbDictionary
280
     1
281
     1
  3
ACAD_XREC_ROUNDTRIP
360
2450
  0
DICTIONARY
  5
2461
330
23F3
100
AcDbDictionary
280
     1
281
     1
  3
ACAD_XREC_ROUNDTRIP
360
2462
  0
DICTIONARY
  5
2447
330
23E6
100
AcDbDictionary
280
     1
281
     1
  3
ACAD_XREC_ROUNDTRIP
360
2448
  0
DICTIONARY
  5
245D
330
23F1
100
AcDbDictionary
280
     1
281
     1
  3
ACAD_XREC_ROUNDTRIP
360
245E
  0
DICTIONARY
  5
245B
330
23F0
100
AcDbDictionary
280
     1
281
     1
  3
ACAD_XREC_ROUNDTRIP
360
245C
  0
DICTIONARY
  5
2455
330
23ED
100
AcDbDictionary
280
     1
281
     1
  3
ACAD_XREC_ROUNDTRIP
360
2456
  0
DICTIONARY
  5
2457
330
23EE
100
AcDbDictionary
280
     1
281
     1
  3
ACAD_XREC_ROUNDTRIP
360
2458
  0
DICTIONARY
  5
244D
330
23E9
100
AcDbDictionary
280
     1
281
     1
  3
ACAD_XREC_ROUNDTRIP
360
244E
  0
DICTIONARY
  5
2441
330
23E3
100
AcDbDictionary
280
     1
281
     1
  3
ACAD_XREC_ROUNDTRIP
360
2442
  0
DICTIONARY
  5
2459
330
23EF
100
AcDbDictionary
280
     1
281
     1
  3
ACAD_XREC_ROUNDTRIP
360
245A
  0
XRECORD
  5
246A
102
{ACAD_REACTORS
330
2469
102
}
330
2469
100
AcDbXrecord
280
     1
102
DISPLAYNAME
  1
Imperial24
102
FLAGS
 90
        0
  0
XRECORD
  5
246C
102
{ACAD_REACTORS
330
246B
102
}
330
246B
100
AcDbXrecord
280
     1
102
SHADEPLOT
 70
     0
102
SHADEPLOTRESLEVEL
 70
     2
102
SHADEPLOTCUSTOMDPI
 70
   300
  0
XRECORD
  5
246E
102
{ACAD_REACTORS
330
246D
102
}
330
246D
100
AcDbXrecord
280
     1
102
SHADEPLOT
 70
     0
102
SHADEPLOTRESLEVEL
 70
     2
102
SHADEPLOTCUSTOMDPI
 70
   300
  0
XRECORD
  5
2433
102
{ACAD_REACTORS
330
23CD
102
}
330
23CD
100
AcDbXrecord
280
     1
102
MATERIAL
148
0.0
149
0.0
149
0.0
 93
        0
 94
      127
282
     0
 72
     0
 77
     0
171
     0
175
     0
179
     0
273
     0
  0
XRECORD
  5
23CF
102
{ACAD_REACTORS
330
23CD
102
}
330
23CD
100
AcDbXrecord
280
     1
270
     1
271
     1
  0
XRECORD
  5
23CE
102
{ACAD_REACTORS
330
23CD
102
}
330
23CD
100
AcDbXrecord
280
     1
270
     1
271
     1
  0
XRECORD
  5
23D2
102
{ACAD_REACTORS
330
23CD
102
}
330
23CD
100
AcDbXrecord
280
     1
270
     1
271
     1
  0
XRECORD
  5
23D1
102
{ACAD_REACTORS
330
23CD
102
}
330
23CD
100
AcDbXrecord
280
     1
270
     1
271
     1
  0
XRECORD
  5
23D3
102
{ACAD_REACTORS
330
23CD
102
}
330
23CD
100
AcDbXrecord
280
     1
270
     1
271
     1
  0
XRECORD
  5
23D0
102
{ACAD_REACTORS
330
23CD
102
}
330
23CD
100
AcDbXrecord
280
     1
270
     1
271
     1
  0
XRECORD
  5
2432
102
{ACAD_REACTORS
330
23C5
102
}
330
23C5
100
AcDbXrecord
280
     1
102
MATERIAL
148
0.0
149
0.0
149
0.0
 93
        0
 94
      127
282
     0
 72
     0
 77
     0
171
     0
175
     0
179
     0
273
     0
  0
XRECORD
  5
23C7
102
{ACAD_REACTORS
330
23C5
102
}
330
23C5
100
AcDbXrecord
280
     1
270
     1
271
     1
  0
XRECORD
  5
23C6
102
{ACAD_REACTORS
330
23C5
102
}
330
23C5
100
AcDbXrecord
280
     1
270
     1
271
     1
  0
XRECORD
  5
23CA
102
{ACAD_REACTORS
330
23C5
102
}
330
23C5
100
AcDbXrecord
280
     1
270
     1
271
     1
  0
XRECORD
  5
23C9
102
{ACAD_REACTORS
330
23C5
102
}
330
23C5
100
AcDbXrecord
280
     1
270
     1
271
     1
  0
XRECORD
  5
23CB
102
{ACAD_REACTORS
330
23C5
102
}
330
23C5
100
AcDbXrecord
280
     1
270
     1
271
     1
  0
XRECORD
  5
23C8
102
{ACAD_REACTORS
330
23C5
102
}
330
23C5
100
AcDbXrecord
280
     1
270
     1
271
     1
  0
XRECORD
  5
2434
102
{ACAD_REACTORS
330
23D5
102
}
330
23D5
100
AcDbXrecord
280
     1
102
MATERIAL
148
0.0
149
0.0
149
0.0
 93
        0
 94
      127
282
     0
 72
     0
 77
     0
171
     0
175
     0
179
     0
273
     0
  0
XRECORD
  5
23D7
102
{ACAD_REACTORS
330
23D5
102
}
330
23D5
100
AcDbXrecord
280
     1
270
     1
271
     1
  0
XRECORD
  5
23D6
102
{ACAD_REACTORS
330
23D5
102
}
330
23D5
100
AcDbXrecord
280
     1
270
     1
271
     1
  0
XRECORD
  5
23DA
102
{ACAD_REACTORS
330
23D5
102
}
330
23D5
100
AcDbXrecord
280
     1
270
     1
271
     1
  0
XRECORD
  5
23D9
102
{ACAD_REACTORS
330
23D5
102
}
330
23D5
100
AcDbXrecord
280
     1
270
     1
271
     1
  0
XRECORD
  5
23DB
102
{ACAD_REACTORS
330
23D5
102
}
330
23D5
100
AcDbXrecord
280
     1
270
     1
271
     1
  0
XRECORD
  5
23D8
102
{ACAD_REACTORS
330
23D5
102
}
330
23D5
100
AcDbXrecord
280
     1
270
     1
271
     1
  0
XRECORD
  5
2468
102
{ACAD_REACTORS
330
2467
102
}
330
2467
100
AcDbXrecord
280
     1
102
DISPLAYNAME
  1
Imperial24
102
FLAGS
 90
        0
  0
CELLSTYLEMAP
  5
242F
102
{ACAD_REACTORS
330
242E
102
}
330
242E
100
AcDbCellStyleMap
 90
        3
300
CELLSTYLE
  1
TABLEFORMAT_BEGIN
 90
        5
170
     1
 91
        0
 92
    32768
 62
   257
 93
        1
300
CONTENTFORMAT
  1
CONTENTFORMAT_BEGIN
 90
        0
 91
        0
 92
      512
 93
        0
300

 40
0.0
140
1.0
 94
        5
 62
     0
340
F
144
0.25
309
CONTENTFORMAT_END
171
     0
 94
        0
309
TABLEFORMAT_END
  1
CELLSTYLE_BEGIN
 90
        1
 91
        1
300
_TITLE
309
CELLSTYLE_END
300
CELLSTYLE
  1
TABLEFORMAT_BEGIN
 90
        5
170
     1
 91
        0
 92
        0
 62
   257
 93
        1
300
CONTENTFORMAT
  1
CONTENTFORMAT_BEGIN
 90
        0
 91
        0
 92
      512
 93
        0
300

 40
0.0
140
1.0
 94
        5
 62
     0
340
F
144
0.18
309
CONTENTFORMAT_END
171
     0
 94
        0
309
TABLEFORMAT_END
  1
CELLSTYLE_BEGIN
 90
        2
 91
        1
300
_HEADER
309
CELLSTYLE_END
300
CELLSTYLE
  1
TABLEFORMAT_BEGIN
 90
        5
170
     1
 91
        0
 92
        0
 62
   257
 93
        1
300
CONTENTFORMAT
  1
CONTENTFORMAT_BEGIN
 90
        0
 91
        0
 92
      512
 93
        0
300

 40
0.0
140
1.0
 94
        2
 62
     0
340
F
144
0.18
309
CONTENTFORMAT_END
171
     0
 94
        0
309
TABLEFORMAT_END
  1
CELLSTYLE_BEGIN
 90
        3
 91
        2
300
_DATA
309
CELLSTYLE_END
  0
XRECORD
  5
2465
102
{ACAD_REACTORS
330
242E
102
}
330
242E
100
AcDbXrecord
280
     1
102
ACAD_ROUNDTRIP_PRE2007_TABLESTYLE
 90
      512
 91
        0
  1

 92
      512
 93
        0
  2

 94
      512
 95
        0
  3

  0
XRECORD
  5
2440
102
{ACAD_REACTORS
330
243F
102
}
330
243F
100
AcDbXrecord
280
     1
102
RTVSPost2010Prop28
280
     1
102
RTVSPost2010PropOp28
 70
     1
102
RTVSPost2010Prop29
280
     1
102
RTVSPost2010PropOp29
 70
     1
102
RTVSPost2010Prop30
280
     0
102
RTVSPost2010PropOp30
 70
     1
102
RTVSPost2010Prop31
280
     0
102
RTVSPost2010PropOp31
 70
     1
102
RTVSPost2010Prop32
280
     0
102
RTVSPost2010PropOp32
 70
     1
102
RTVSPost2010Prop33
280
     0
102
RTVSPost2010PropOp33
 70
     1
102
RTVSPost2010Prop34
280
     0
102
RTVSPost2010PropOp34
 70
     1
102
RTVSPost2010Prop35
280
     0
102
RTVSPost2010PropOp35
 70
     1
102
RTVSPost2010Prop36
280
     0
102
RTVSPost2010PropOp36
 70
     1
102
RTVSPost2010Prop37
 90
       50
102
RTVSPost2010PropOp37
 70
     1
102
RTVSPost2010Prop38
140
0.0
102
RTVSPost2010PropOp38
 70
     1
102
RTVSPost2010Prop39
140
1.0
102
RTVSPost2010PropOp39
 70
     1
102
RTVSPost2010Prop40
 90
        0
102
RTVSPost2010PropOp40
 70
     1
102
RTVSPost2010Prop41ColorIndex
 90
       18
102
RTVSPost2010Prop41ColorRGB
 90
        0
102
RTVSPost2010PropOp41
 70
     1
102
RTVSPost2010Prop42
 90
       50
102
RTVSPost2010PropOp42
 70
     1
102
RTVSPost2010Prop43
 90
        3
102
RTVSPost2010PropOp43
 70
     1
102
RTVSPost2010Prop44ColorIndex
 90
        5
102
RTVSPost2010Prop44ColorRGB
 90
      255
102
RTVSPost2010PropOp44
 70
     1
102
RTVSPost2010Prop45
280
     0
102
RTVSPost2010PropOp45
 70
     1
102
RTVSPost2010Prop46
 90
       50
102
RTVSPost2010PropOp46
 70
     1
102
RTVSPost2010Prop47
 90
       50
102
RTVSPost2010PropOp47
 70
     1
102
RTVSPost2010Prop48
 90
       50
102
RTVSPost2010PropOp48
 70
     1
102
RTVSPost2010Prop49
280
     0
102
RTVSPost2010PropOp49
 70
     1
102
RTVSPost2010Prop50
 90
       50
102
RTVSPost2010PropOp50
 70
     1
102
RTVSPost2010Prop51ColorIndex
 90
      256
102
RTVSPost2010Prop51ColorRGB
 90
-16777216
102
RTVSPost2010PropOp51
 70
     0
102
RTVSPost2010Prop52
140
1.0
102
RTVSPost2010PropOp52
 70
     0
102
RTVSPost2010Prop53
 90
        2
102
RTVSPost2010PropOp53
 70
     1
102
RTVSPost2010Prop54
  1
strokes_ogs.tif
102
RTVSPost2010PropOp54
 70
     1
102
RTVSPost2010Prop55
280
     0
102
RTVSPost2010PropOp55
 70
     1
102
RTVSPost2010Prop56
140
1.0
102
RTVSPost2010PropOp56
 70
     1
102
RTVSPost2010Prop57
140
1.0
102
RTVSPost2010PropOp57
 70
     1
102
RTVSPropertyOp0
 70
     1
102
RTVSPropertyOp1
 70
     1
102
RTVSPropertyOp2
 70
     1
102
RTVSPropertyOp3
 70
     1
102
RTVSPropertyOp4
 70
     1
102
RTVSPropertyOp5
 70
     1
102
RTVSPropertyOp6
 70
     1
102
RTVSPropertyOp7
 70
     1
102
RTVSPropertyOp8
 70
     1
102
RTVSPropertyOp9
 70
     1
102
RTVSPropertyOp10
 70
     1
102
RTVSPropertyOp11
 70
     1
102
RTVSPropertyOp12
 70
     1
102
RTVSPropertyOp13
 70
     1
102
RTVSPropertyOp14
 70
     1
102
RTVSPropertyOp15
 70
     1
102
RTVSPropertyOp16
 70
     1
102
RTVSPropertyOp17
 70
     1
102
RTVSPropertyOp18
 70
     1
102
RTVSPropertyOp19
 70
     1
102
RTVSPropertyOp20
 70
     1
102
RTVSPropertyOp21
 70
     1
102
RTVSPropertyOp22
 70
     1
102
RTVSPropertyOp23
 70
     1
102
RTVSPropertyOp24
 70
     1
102
RTVSPropertyOp25
 70
     1
102
RTVSPropertyOp26
 70
     1
102
RTVSPropertyOp27
 70
     1
102
RTVSPropertyOp28
 70
     1
102
RTVSPropertyOp29
 70
     1
102
RTVSPropertyOp30
 70
     1
102
RTVSPropertyOp31
 70
     1
102
RTVSPropertyOp32
 70
     1
102
RTVSPropertyOp33
 70
     1
102
RTVSPropertyOp34
 70
     1
102
RTVSPropertyOp35
 70
     1
102
RTVSPropertyOp36
 70
     1
102
RTVSPropertyOp37
 70
     1
102
RTVSPropertyOp38
 70
     1
102
RTVSPropertyOp39
 70
     1
102
RTVSPropertyOp40
 70
     1
102
RTVSPropertyOp41
 70
     1
102
RTVSPropertyOp42
 70
     1
102
RTVSPropertyOp43
 70
     1
102
RTVSPropertyOp44
 70
     1
102
RTVSPropertyOp45
 70
     1
102
RTVSPropertyOp46
 70
     1
102
RTVSPropertyOp47
 70
     1
102
RTVSPropertyOp48
 70
     1
102
RTVSPropertyOp49
 70
     1
102
RTVSPropertyOp50
 70
     1
102
RTVSPropertyOp51
 70
     0
102
RTVSPropertyOp52
 70
     0
102
RTVSPropertyOp53
 70
     1
102
RTVSPropertyOp54
 70
     1
102
RTVSPropertyOp55
 70
     1
102
RTVSPropertyOp56
 70
     1
102
RTVSPropertyOp57
 70
     1
102
RTVSPropertyOp58
 70
     1
102
RTVSPropertyOp59
 70
     1
102
RTVSPropertyOp60
 70
     1
102
RTVSPropertyOp61
 70
     1
102
RTVSPropertyOp62
 70
     1
  0
XRECORD
  5
243E
102
{ACAD_REACTORS
330
243D
102
}
330
243D
100
AcDbXrecord
280
     1
102
RTVSPost2010Prop28
280
     0
102
RTVSPost2010PropOp28
 70
     1
102
RTVSPost2010Prop29
280
     1
102
RTVSPost2010PropOp29
 70
     1
102
RTVSPost2010Prop30
280
     1
102
RTVSPost2010PropOp30
 70
     1
102
RTVSPost2010Prop31
280
     0
102
RTVSPost2010PropOp31
 70
     1
102
RTVSPost2010Prop32
280
     0
102
RTVSPost2010PropOp32
 70
     1
102
RTVSPost2010Prop33
280
     0
102
RTVSPost2010PropOp33
 70
     1
102
RTVSPost2010Prop34
280
     0
102
RTVSPost2010PropOp34
 70
     1
102
RTVSPost2010Prop35
280
     0
102
RTVSPost2010PropOp35
 70
     1
102
RTVSPost2010Prop36
280
     0
102
RTVSPost2010PropOp36
 70
     1
102
RTVSPost2010Prop37
 90
       50
102
RTVSPost2010PropOp37
 70
     1
102
RTVSPost2010Prop38
140
0.0
102
RTVSPost2010PropOp38
 70
     1
102
RTVSPost2010Prop39
140
1.0
102
RTVSPost2010PropOp39
 70
     1
102
RTVSPost2010Prop40
 90
        0
102
RTVSPost2010PropOp40
 70
     1
102
RTVSPost2010Prop41ColorIndex
 90
       18
102
RTVSPost2010Prop41ColorRGB
 90
        0
102
RTVSPost2010PropOp41
 70
     1
102
RTVSPost2010Prop42
 90
       50
102
RTVSPost2010PropOp42
 70
     1
102
RTVSPost2010Prop43
 90
        3
102
RTVSPost2010PropOp43
 70
     1
102
RTVSPost2010Prop44ColorIndex
 90
        5
102
RTVSPost2010Prop44ColorRGB
 90
      255
102
RTVSPost2010PropOp44
 70
     1
102
RTVSPost2010Prop45
280
     0
102
RTVSPost2010PropOp45
 70
     1
102
RTVSPost2010Prop46
 90
       50
102
RTVSPost2010PropOp46
 70
     1
102
RTVSPost2010Prop47
 90
       50
102
RTVSPost2010PropOp47
 70
     1
102
RTVSPost2010Prop48
 90
       50
102
RTVSPost2010PropOp48
 70
     1
102
RTVSPost2010Prop49
280
     0
102
RTVSPost2010PropOp49
 70
     1
102
RTVSPost2010Prop50
 90
       50
102
RTVSPost2010PropOp50
 70
     1
102
RTVSPost2010Prop51ColorIndex
 90
      256
102
RTVSPost2010Prop51ColorRGB
 90
-16777216
102
RTVSPost2010PropOp51
 70
     0
102
RTVSPost2010Prop52
140
1.0
102
RTVSPost2010PropOp52
 70
     0
102
RTVSPost2010Prop53
 90
        2
102
RTVSPost2010PropOp53
 70
     1
102
RTVSPost2010Prop54
  1
strokes_ogs.tif
102
RTVSPost2010PropOp54
 70
     1
102
RTVSPost2010Prop55
280
     0
102
RTVSPost2010PropOp55
 70
     1
102
RTVSPost2010Prop56
140
1.0
102
RTVSPost2010PropOp56
 70
     1
102
RTVSPost2010Prop57
140
1.0
102
RTVSPost2010PropOp57
 70
     1
102
RTVSPropertyOp0
 70
     1
102
RTVSPropertyOp1
 70
     1
102
RTVSPropertyOp2
 70
     1
102
RTVSPropertyOp3
 70
     1
102
RTVSPropertyOp4
 70
     1
102
RTVSPropertyOp5
 70
     1
102
RTVSPropertyOp6
 70
     1
102
RTVSPropertyOp7
 70
     1
102
RTVSPropertyOp8
 70
     1
102
RTVSPropertyOp9
 70
     1
102
RTVSPropertyOp10
 70
     1
102
RTVSPropertyOp11
 70
     1
102
RTVSPropertyOp12
 70
     1
102
RTVSPropertyOp13
 70
     1
102
RTVSPropertyOp14
 70
     1
102
RTVSPropertyOp15
 70
     1
102
RTVSPropertyOp16
 70
     1
102
RTVSPropertyOp17
 70
     1
102
RTVSPropertyOp18
 70
     1
102
RTVSPropertyOp19
 70
     1
102
RTVSPropertyOp20
 70
     1
102
RTVSPropertyOp21
 70
     1
102
RTVSPropertyOp22
 70
     1
102
RTVSPropertyOp23
 70
     1
102
RTVSPropertyOp24
 70
     1
102
RTVSPropertyOp25
 70
     1
102
RTVSPropertyOp26
 70
     1
102
RTVSPropertyOp27
 70
     1
102
RTVSPropertyOp28
 70
     1
102
RTVSPropertyOp29
 70
     1
102
RTVSPropertyOp30
 70
     1
102
RTVSPropertyOp31
 70
     1
102
RTVSPropertyOp32
 70
     1
102
RTVSPropertyOp33
 70
     1
102
RTVSPropertyOp34
 70
     1
102
RTVSPropertyOp35
 70
     1
102
RTVSPropertyOp36
 70
     1
102
RTVSPropertyOp37
 70
     1
102
RTVSPropertyOp38
 70
     1
102
RTVSPropertyOp39
 70
     1
102
RTVSPropertyOp40
 70
     1
102
RTVSPropertyOp41
 70
     1
102
RTVSPropertyOp42
 70
     1
102
RTVSPropertyOp43
 70
     1
102
RTVSPropertyOp44
 70
     1
102
RTVSPropertyOp45
 70
     1
102
RTVSPropertyOp46
 70
     1
102
RTVSPropertyOp47
 70
     1
102
RTVSPropertyOp48
 70
     1
102
RTVSPropertyOp49
 70
     1
102
RTVSPropertyOp50
 70
     1
102
RTVSPropertyOp51
 70
     0
102
RTVSPropertyOp52
 70
     0
102
RTVSPropertyOp53
 70
     1
102
RTVSPropertyOp54
 70
     1
102
RTVSPropertyOp55
 70
     1
102
RTVSPropertyOp56
 70
     1
102
RTVSPropertyOp57
 70
     1
102
RTVSPropertyOp58
 70
     1
102
RTVSPropertyOp59
 70
     1
102
RTVSPropertyOp60
 70
     1
102
RTVSPropertyOp61
 70
     1
102
RTVSPropertyOp62
 70
     1
  0
XRECORD
  5
244C
102
{ACAD_REACTORS
330
244B
102
}
330
244B
100
AcDbXrecord
280
     1
102
RTVSPost2010Prop28
280
     0
102
RTVSPost2010PropOp28
 70
     1
102
RTVSPost2010Prop29
280
     1
102
RTVSPost2010PropOp29
 70
     1
102
RTVSPost2010Prop30
280
     1
102
RTVSPost2010PropOp30
 70
     1
102
RTVSPost2010Prop31
280
     0
102
RTVSPost2010PropOp31
 70
     1
102
RTVSPost2010Prop32
280
     0
102
RTVSPost2010PropOp32
 70
     1
102
RTVSPost2010Prop33
280
     0
102
RTVSPost2010PropOp33
 70
     1
102
RTVSPost2010Prop34
280
     0
102
RTVSPost2010PropOp34
 70
     1
102
RTVSPost2010Prop35
280
     0
102
RTVSPost2010PropOp35
 70
     1
102
RTVSPost2010Prop36
280
     0
102
RTVSPost2010PropOp36
 70
     1
102
RTVSPost2010Prop37
 90
       50
102
RTVSPost2010PropOp37
 70
     1
102
RTVSPost2010Prop38
140
0.0
102
RTVSPost2010PropOp38
 70
     1
102
RTVSPost2010Prop39
140
1.0
102
RTVSPost2010PropOp39
 70
     1
102
RTVSPost2010Prop40
 90
        0
102
RTVSPost2010PropOp40
 70
     1
102
RTVSPost2010Prop41ColorIndex
 90
       18
102
RTVSPost2010Prop41ColorRGB
 90
        0
102
RTVSPost2010PropOp41
 70
     1
102
RTVSPost2010Prop42
 90
       50
102
RTVSPost2010PropOp42
 70
     1
102
RTVSPost2010Prop43
 90
        3
102
RTVSPost2010PropOp43
 70
     1
102
RTVSPost2010Prop44ColorIndex
 90
        5
102
RTVSPost2010Prop44ColorRGB
 90
      255
102
RTVSPost2010PropOp44
 70
     1
102
RTVSPost2010Prop45
280
     0
102
RTVSPost2010PropOp45
 70
     1
102
RTVSPost2010Prop46
 90
       50
102
RTVSPost2010PropOp46
 70
     1
102
RTVSPost2010Prop47
 90
       50
102
RTVSPost2010PropOp47
 70
     1
102
RTVSPost2010Prop48
 90
       50
102
RTVSPost2010PropOp48
 70
     1
102
RTVSPost2010Prop49
280
     0
102
RTVSPost2010PropOp49
 70
     1
102
RTVSPost2010Prop50
 90
       50
102
RTVSPost2010PropOp50
 70
     1
102
RTVSPost2010Prop51ColorIndex
 90
      256
102
RTVSPost2010Prop51ColorRGB
 90
-16777216
102
RTVSPost2010PropOp51
 70
     0
102
RTVSPost2010Prop52
140
1.0
102
RTVSPost2010PropOp52
 70
     0
102
RTVSPost2010Prop53
 90
        2
102
RTVSPost2010PropOp53
 70
     1
102
RTVSPost2010Prop54
  1
strokes_ogs.tif
102
RTVSPost2010PropOp54
 70
     1
102
RTVSPost2010Prop55
280
     0
102
RTVSPost2010PropOp55
 70
     1
102
RTVSPost2010Prop56
140
1.0
102
RTVSPost2010PropOp56
 70
     1
102
RTVSPost2010Prop57
140
1.0
102
RTVSPost2010PropOp57
 70
     1
102
RTVSPropertyOp0
 70
     1
102
RTVSPropertyOp1
 70
     1
102
RTVSPropertyOp2
 70
     1
102
RTVSPropertyOp3
 70
     1
102
RTVSPropertyOp4
 70
     1
102
RTVSPropertyOp5
 70
     1
102
RTVSPropertyOp6
 70
     1
102
RTVSPropertyOp7
 70
     1
102
RTVSPropertyOp8
 70
     1
102
RTVSPropertyOp9
 70
     1
102
RTVSPropertyOp10
 70
     1
102
RTVSPropertyOp11
 70
     1
102
RTVSPropertyOp12
 70
     1
102
RTVSPropertyOp13
 70
     1
102
RTVSPropertyOp14
 70
     1
102
RTVSPropertyOp15
 70
     1
102
RTVSPropertyOp16
 70
     1
102
RTVSPropertyOp17
 70
     1
102
RTVSPropertyOp18
 70
     1
102
RTVSPropertyOp19
 70
     1
102
RTVSPropertyOp20
 70
     1
102
RTVSPropertyOp21
 70
     1
102
RTVSPropertyOp22
 70
     1
102
RTVSPropertyOp23
 70
     1
102
RTVSPropertyOp24
 70
     1
102
RTVSPropertyOp25
 70
     1
102
RTVSPropertyOp26
 70
     1
102
RTVSPropertyOp27
 70
     1
102
RTVSPropertyOp28
 70
     1
102
RTVSPropertyOp29
 70
     1
102
RTVSPropertyOp30
 70
     1
102
RTVSPropertyOp31
 70
     1
102
RTVSPropertyOp32
 70
     1
102
RTVSPropertyOp33
 70
     1
102
RTVSPropertyOp34
 70
     1
102
RTVSPropertyOp35
 70
     1
102
RTVSPropertyOp36
 70
     1
102
RTVSPropertyOp37
 70
     1
102
RTVSPropertyOp38
 70
     1
102
RTVSPropertyOp39
 70
     1
102
RTVSPropertyOp40
 70
     1
102
RTVSPropertyOp41
 70
     1
102
RTVSPropertyOp42
 70
     1
102
RTVSPropertyOp43
 70
     1
102
RTVSPropertyOp44
 70
     1
102
RTVSPropertyOp45
 70
     1
102
RTVSPropertyOp46
 70
     1
102
RTVSPropertyOp47
 70
     1
102
RTVSPropertyOp48
 70
     1
102
RTVSPropertyOp49
 70
     1
102
RTVSPropertyOp50
 70
     1
102
RTVSPropertyOp51
 70
     0
102
RTVSPropertyOp52
 70
     0
102
RTVSPropertyOp53
 70
     1
102
RTVSPropertyOp54
 70
     1
102
RTVSPropertyOp55
 70
     1
102
RTVSPropertyOp56
 70
     1
102
RTVSPropertyOp57
 70
     1
102
RTVSPropertyOp58
 70
     1
102
RTVSPropertyOp59
 70
     1
102
RTVSPropertyOp60
 70
     1
102
RTVSPropertyOp61
 70
     1
102
RTVSPropertyOp62
 70
     1
  0
XRECORD
  5
2454
102
{ACAD_REACTORS
330
2453
102
}
330
2453
100
AcDbXrecord
280
     1
102
RTVSPost2010Prop28
280
     0
102
RTVSPost2010PropOp28
 70
     1
102
RTVSPost2010Prop29
280
     1
102
RTVSPost2010PropOp29
 70
     1
102
RTVSPost2010Prop30
280
     1
102
RTVSPost2010PropOp30
 70
     1
102
RTVSPost2010Prop31
280
     0
102
RTVSPost2010PropOp31
 70
     1
102
RTVSPost2010Prop32
280
     0
102
RTVSPost2010PropOp32
 70
     1
102
RTVSPost2010Prop33
280
     0
102
RTVSPost2010PropOp33
 70
     1
102
RTVSPost2010Prop34
280
     0
102
RTVSPost2010PropOp34
 70
     1
102
RTVSPost2010Prop35
280
     0
102
RTVSPost2010PropOp35
 70
     1
102
RTVSPost2010Prop36
280
     0
102
RTVSPost2010PropOp36
 70
     1
102
RTVSPost2010Prop37
 90
       50
102
RTVSPost2010PropOp37
 70
     1
102
RTVSPost2010Prop38
140
0.0
102
RTVSPost2010PropOp38
 70
     1
102
RTVSPost2010Prop39
140
1.0
102
RTVSPost2010PropOp39
 70
     1
102
RTVSPost2010Prop40
 90
        0
102
RTVSPost2010PropOp40
 70
     1
102
RTVSPost2010Prop41ColorIndex
 90
       18
102
RTVSPost2010Prop41ColorRGB
 90
        0
102
RTVSPost2010PropOp41
 70
     1
102
RTVSPost2010Prop42
 90
       50
102
RTVSPost2010PropOp42
 70
     1
102
RTVSPost2010Prop43
 90
        3
102
RTVSPost2010PropOp43
 70
     1
102
RTVSPost2010Prop44ColorIndex
 90
        5
102
RTVSPost2010Prop44ColorRGB
 90
      255
102
RTVSPost2010PropOp44
 70
     1
102
RTVSPost2010Prop45
280
     0
102
RTVSPost2010PropOp45
 70
     1
102
RTVSPost2010Prop46
 90
       50
102
RTVSPost2010PropOp46
 70
     1
102
RTVSPost2010Prop47
 90
       50
102
RTVSPost2010PropOp47
 70
     1
102
RTVSPost2010Prop48
 90
       50
102
RTVSPost2010PropOp48
 70
     1
102
RTVSPost2010Prop49
280
     0
102
RTVSPost2010PropOp49
 70
     1
102
RTVSPost2010Prop50
 90
       50
102
RTVSPost2010PropOp50
 70
     1
102
RTVSPost2010Prop51ColorIndex
 90
      256
102
RTVSPost2010Prop51ColorRGB
 90
-16777216
102
RTVSPost2010PropOp51
 70
     0
102
RTVSPost2010Prop52
140
1.0
102
RTVSPost2010PropOp52
 70
     0
102
RTVSPost2010Prop53
 90
        2
102
RTVSPost2010PropOp53
 70
     1
102
RTVSPost2010Prop54
  1
strokes_ogs.tif
102
RTVSPost2010PropOp54
 70
     1
102
RTVSPost2010Prop55
280
     0
102
RTVSPost2010PropOp55
 70
     1
102
RTVSPost2010Prop56
140
1.0
102
RTVSPost2010PropOp56
 70
     1
102
RTVSPost2010Prop57
140
1.0
102
RTVSPost2010PropOp57
 70
     1
102
RTVSPropertyOp0
 70
     1
102
RTVSPropertyOp1
 70
     1
102
RTVSPropertyOp2
 70
     1
102
RTVSPropertyOp3
 70
     1
102
RTVSPropertyOp4
 70
     1
102
RTVSPropertyOp5
 70
     1
102
RTVSPropertyOp6
 70
     1
102
RTVSPropertyOp7
 70
     1
102
RTVSPropertyOp8
 70
     1
102
RTVSPropertyOp9
 70
     1
102
RTVSPropertyOp10
 70
     1
102
RTVSPropertyOp11
 70
     1
102
RTVSPropertyOp12
 70
     1
102
RTVSPropertyOp13
 70
     1
102
RTVSPropertyOp14
 70
     1
102
RTVSPropertyOp15
 70
     1
102
RTVSPropertyOp16
 70
     1
102
RTVSPropertyOp17
 70
     1
102
RTVSPropertyOp18
 70
     1
102
RTVSPropertyOp19
 70
     1
102
RTVSPropertyOp20
 70
     1
102
RTVSPropertyOp21
 70
     1
102
RTVSPropertyOp22
 70
     1
102
RTVSPropertyOp23
 70
     1
102
RTVSPropertyOp24
 70
     1
102
RTVSPropertyOp25
 70
     1
102
RTVSPropertyOp26
 70
     1
102
RTVSPropertyOp27
 70
     1
102
RTVSPropertyOp28
 70
     1
102
RTVSPropertyOp29
 70
     1
102
RTVSPropertyOp30
 70
     1
102
RTVSPropertyOp31
 70
     1
102
RTVSPropertyOp32
 70
     1
102
RTVSPropertyOp33
 70
     1
102
RTVSPropertyOp34
 70
     1
102
RTVSPropertyOp35
 70
     1
102
RTVSPropertyOp36
 70
     1
102
RTVSPropertyOp37
 70
     1
102
RTVSPropertyOp38
 70
     1
102
RTVSPropertyOp39
 70
     1
102
RTVSPropertyOp40
 70
     1
102
RTVSPropertyOp41
 70
     1
102
RTVSPropertyOp42
 70
     1
102
RTVSPropertyOp43
 70
     1
102
RTVSPropertyOp44
 70
     1
102
RTVSPropertyOp45
 70
     1
102
RTVSPropertyOp46
 70
     1
102
RTVSPropertyOp47
 70
     1
102
RTVSPropertyOp48
 70
     1
102
RTVSPropertyOp49
 70
     1
102
RTVSPropertyOp50
 70
     1
102
RTVSPropertyOp51
 70
     0
102
RTVSPropertyOp52
 70
     0
102
RTVSPropertyOp53
 70
     1
102
RTVSPropertyOp54
 70
     1
102
RTVSPropertyOp55
 70
     1
102
RTVSPropertyOp56
 70
     1
102
RTVSPropertyOp57
 70
     1
102
RTVSPropertyOp58
 70
     1
102
RTVSPropertyOp59
 70
     1
102
RTVSPropertyOp60
 70
     1
102
RTVSPropertyOp61
 70
     1
102
RTVSPropertyOp62
 70
     1
  0
XRECORD
  5
2446
102
{ACAD_REACTORS
330
2445
102
}
330
2445
100
AcDbXrecord
280
     1
102
RTVSPost2010Prop28
280
     0
102
RTVSPost2010PropOp28
 70
     1
102
RTVSPost2010Prop29
280
     1
102
RTVSPost2010PropOp29
 70
     1
102
RTVSPost2010Prop30
280
     1
102
RTVSPost2010PropOp30
 70
     1
102
RTVSPost2010Prop31
280
     0
102
RTVSPost2010PropOp31
 70
     1
102
RTVSPost2010Prop32
280
     0
102
RTVSPost2010PropOp32
 70
     1
102
RTVSPost2010Prop33
280
     0
102
RTVSPost2010PropOp33
 70
     1
102
RTVSPost2010Prop34
280
     0
102
RTVSPost2010PropOp34
 70
     1
102
RTVSPost2010Prop35
280
     0
102
RTVSPost2010PropOp35
 70
     1
102
RTVSPost2010Prop36
280
     0
102
RTVSPost2010PropOp36
 70
     1
102
RTVSPost2010Prop37
 90
       50
102
RTVSPost2010PropOp37
 70
     1
102
RTVSPost2010Prop38
140
0.0
102
RTVSPost2010PropOp38
 70
     1
102
RTVSPost2010Prop39
140
1.0
102
RTVSPost2010PropOp39
 70
     1
102
RTVSPost2010Prop40
 90
        0
102
RTVSPost2010PropOp40
 70
     1
102
RTVSPost2010Prop41ColorIndex
 90
       18
102
RTVSPost2010Prop41ColorRGB
 90
        0
102
RTVSPost2010PropOp41
 70
     1
102
RTVSPost2010Prop42
 90
       50
102
RTVSPost2010PropOp42
 70
     1
102
RTVSPost2010Prop43
 90
        3
102
RTVSPost2010PropOp43
 70
     1
102
RTVSPost2010Prop44ColorIndex
 90
        5
102
RTVSPost2010Prop44ColorRGB
 90
      255
102
RTVSPost2010PropOp44
 70
     1
102
RTVSPost2010Prop45
280
     0
102
RTVSPost2010PropOp45
 70
     1
102
RTVSPost2010Prop46
 90
       50
102
RTVSPost2010PropOp46
 70
     1
102
RTVSPost2010Prop47
 90
       50
102
RTVSPost2010PropOp47
 70
     1
102
RTVSPost2010Prop48
 90
       50
102
RTVSPost2010PropOp48
 70
     1
102
RTVSPost2010Prop49
280
     0
102
RTVSPost2010PropOp49
 70
     1
102
RTVSPost2010Prop50
 90
       50
102
RTVSPost2010PropOp50
 70
     1
102
RTVSPost2010Prop51ColorIndex
 90
      256
102
RTVSPost2010Prop51ColorRGB
 90
-16777216
102
RTVSPost2010PropOp51
 70
     0
102
RTVSPost2010Prop52
140
1.0
102
RTVSPost2010PropOp52
 70
     0
102
RTVSPost2010Prop53
 90
        2
102
RTVSPost2010PropOp53
 70
     1
102
RTVSPost2010Prop54
  1
strokes_ogs.tif
102
RTVSPost2010PropOp54
 70
     1
102
RTVSPost2010Prop55
280
     0
102
RTVSPost2010PropOp55
 70
     1
102
RTVSPost2010Prop56
140
1.0
102
RTVSPost2010PropOp56
 70
     1
102
RTVSPost2010Prop57
140
1.0
102
RTVSPost2010PropOp57
 70
     1
102
RTVSPropertyOp0
 70
     1
102
RTVSPropertyOp1
 70
     1
102
RTVSPropertyOp2
 70
     1
102
RTVSPropertyOp3
 70
     1
102
RTVSPropertyOp4
 70
     1
102
RTVSPropertyOp5
 70
     1
102
RTVSPropertyOp6
 70
     1
102
RTVSPropertyOp7
 70
     1
102
RTVSPropertyOp8
 70
     1
102
RTVSPropertyOp9
 70
     1
102
RTVSPropertyOp10
 70
     1
102
RTVSPropertyOp11
 70
     1
102
RTVSPropertyOp12
 70
     1
102
RTVSPropertyOp13
 70
     1
102
RTVSPropertyOp14
 70
     1
102
RTVSPropertyOp15
 70
     1
102
RTVSPropertyOp16
 70
     1
102
RTVSPropertyOp17
 70
     1
102
RTVSPropertyOp18
 70
     1
102
RTVSPropertyOp19
 70
     1
102
RTVSPropertyOp20
 70
     1
102
RTVSPropertyOp21
 70
     1
102
RTVSPropertyOp22
 70
     1
102
RTVSPropertyOp23
 70
     1
102
RTVSPropertyOp24
 70
     1
102
RTVSPropertyOp25
 70
     1
102
RTVSPropertyOp26
 70
     1
102
RTVSPropertyOp27
 70
     1
102
RTVSPropertyOp28
 70
     1
102
RTVSPropertyOp29
 70
     1
102
RTVSPropertyOp30
 70
     1
102
RTVSPropertyOp31
 70
     1
102
RTVSPropertyOp32
 70
     1
102
RTVSPropertyOp33
 70
     1
102
RTVSPropertyOp34
 70
     1
102
RTVSPropertyOp35
 70
     1
102
RTVSPropertyOp36
 70
     1
102
RTVSPropertyOp37
 70
     1
102
RTVSPropertyOp38
 70
     1
102
RTVSPropertyOp39
 70
     1
102
RTVSPropertyOp40
 70
     1
102
RTVSPropertyOp41
 70
     1
102
RTVSPropertyOp42
 70
     1
102
RTVSPropertyOp43
 70
     1
102
RTVSPropertyOp44
 70
     1
102
RTVSPropertyOp45
 70
     1
102
RTVSPropertyOp46
 70
     1
102
RTVSPropertyOp47
 70
     1
102
RTVSPropertyOp48
 70
     1
102
RTVSPropertyOp49
 70
     1
102
RTVSPropertyOp50
 70
     1
102
RTVSPropertyOp51
 70
     0
102
RTVSPropertyOp52
 70
     0
102
RTVSPropertyOp53
 70
     1
102
RTVSPropertyOp54
 70
     1
102
RTVSPropertyOp55
 70
     1
102
RTVSPropertyOp56
 70
     1
102
RTVSPropertyOp57
 70
     1
102
RTVSPropertyOp58
 70
     1
102
RTVSPropertyOp59
 70
     1
102
RTVSPropertyOp60
 70
     1
102
RTVSPropertyOp61
 70
     1
102
RTVSPropertyOp62
 70
     1
  0
XRECORD
  5
244A
102
{ACAD_REACTORS
330
2449
102
}
330
2449
100
AcDbXrecord
280
     1
102
RTVSPost2010Prop28
280
     0
102
RTVSPost2010PropOp28
 70
     1
102
RTVSPost2010Prop29
280
     1
102
RTVSPost2010PropOp29
 70
     1
102
RTVSPost2010Prop30
280
     1
102
RTVSPost2010PropOp30
 70
     1
102
RTVSPost2010Prop31
280
     0
102
RTVSPost2010PropOp31
 70
     1
102
RTVSPost2010Prop32
280
     0
102
RTVSPost2010PropOp32
 70
     1
102
RTVSPost2010Prop33
280
     0
102
RTVSPost2010PropOp33
 70
     1
102
RTVSPost2010Prop34
280
     0
102
RTVSPost2010PropOp34
 70
     1
102
RTVSPost2010Prop35
280
     0
102
RTVSPost2010PropOp35
 70
     1
102
RTVSPost2010Prop36
280
     0
102
RTVSPost2010PropOp36
 70
     1
102
RTVSPost2010Prop37
 90
       50
102
RTVSPost2010PropOp37
 70
     1
102
RTVSPost2010Prop38
140
0.0
102
RTVSPost2010PropOp38
 70
     1
102
RTVSPost2010Prop39
140
1.0
102
RTVSPost2010PropOp39
 70
     1
102
RTVSPost2010Prop40
 90
        0
102
RTVSPost2010PropOp40
 70
     1
102
RTVSPost2010Prop41ColorIndex
 90
       18
102
RTVSPost2010Prop41ColorRGB
 90
        0
102
RTVSPost2010PropOp41
 70
     1
102
RTVSPost2010Prop42
 90
       50
102
RTVSPost2010PropOp42
 70
     1
102
RTVSPost2010Prop43
 90
        3
102
RTVSPost2010PropOp43
 70
     1
102
RTVSPost2010Prop44ColorIndex
 90
        5
102
RTVSPost2010Prop44ColorRGB
 90
      255
102
RTVSPost2010PropOp44
 70
     1
102
RTVSPost2010Prop45
280
     0
102
RTVSPost2010PropOp45
 70
     1
102
RTVSPost2010Prop46
 90
       50
102
RTVSPost2010PropOp46
 70
     1
102
RTVSPost2010Prop47
 90
       50
102
RTVSPost2010PropOp47
 70
     1
102
RTVSPost2010Prop48
 90
       50
102
RTVSPost2010PropOp48
 70
     1
102
RTVSPost2010Prop49
280
     0
102
RTVSPost2010PropOp49
 70
     1
102
RTVSPost2010Prop50
 90
       50
102
RTVSPost2010PropOp50
 70
     1
102
RTVSPost2010Prop51ColorIndex
 90
      256
102
RTVSPost2010Prop51ColorRGB
 90
-16777216
102
RTVSPost2010PropOp51
 70
     0
102
RTVSPost2010Prop52
140
1.0
102
RTVSPost2010PropOp52
 70
     0
102
RTVSPost2010Prop53
 90
        2
102
RTVSPost2010PropOp53
 70
     1
102
RTVSPost2010Prop54
  1
strokes_ogs.tif
102
RTVSPost2010PropOp54
 70
     1
102
RTVSPost2010Prop55
280
     0
102
RTVSPost2010PropOp55
 70
     1
102
RTVSPost2010Prop56
140
1.0
102
RTVSPost2010PropOp56
 70
     1
102
RTVSPost2010Prop57
140
1.0
102
RTVSPost2010PropOp57
 70
     1
102
RTVSPropertyOp0
 70
     1
102
RTVSPropertyOp1
 70
     1
102
RTVSPropertyOp2
 70
     1
102
RTVSPropertyOp3
 70
     1
102
RTVSPropertyOp4
 70
     1
102
RTVSPropertyOp5
 70
     1
102
RTVSPropertyOp6
 70
     1
102
RTVSPropertyOp7
 70
     1
102
RTVSPropertyOp8
 70
     1
102
RTVSPropertyOp9
 70
     1
102
RTVSPropertyOp10
 70
     1
102
RTVSPropertyOp11
 70
     1
102
RTVSPropertyOp12
 70
     1
102
RTVSPropertyOp13
 70
     1
102
RTVSPropertyOp14
 70
     1
102
RTVSPropertyOp15
 70
     1
102
RTVSPropertyOp16
 70
     1
102
RTVSPropertyOp17
 70
     1
102
RTVSPropertyOp18
 70
     1
102
RTVSPropertyOp19
 70
     1
102
RTVSPropertyOp20
 70
     1
102
RTVSPropertyOp21
 70
     1
102
RTVSPropertyOp22
 70
     1
102
RTVSPropertyOp23
 70
     1
102
RTVSPropertyOp24
 70
     1
102
RTVSPropertyOp25
 70
     1
102
RTVSPropertyOp26
 70
     1
102
RTVSPropertyOp27
 70
     1
102
RTVSPropertyOp28
 70
     1
102
RTVSPropertyOp29
 70
     1
102
RTVSPropertyOp30
 70
     1
102
RTVSPropertyOp31
 70
     1
102
RTVSPropertyOp32
 70
     1
102
RTVSPropertyOp33
 70
     1
102
RTVSPropertyOp34
 70
     1
102
RTVSPropertyOp35
 70
     1
102
RTVSPropertyOp36
 70
     1
102
RTVSPropertyOp37
 70
     1
102
RTVSPropertyOp38
 70
     1
102
RTVSPropertyOp39
 70
     1
102
RTVSPropertyOp40
 70
     1
102
RTVSPropertyOp41
 70
     1
102
RTVSPropertyOp42
 70
     1
102
RTVSPropertyOp43
 70
     1
102
RTVSPropertyOp44
 70
     1
102
RTVSPropertyOp45
 70
     1
102
RTVSPropertyOp46
 70
     1
102
RTVSPropertyOp47
 70
     1
102
RTVSPropertyOp48
 70
     1
102
RTVSPropertyOp49
 70
     1
102
RTVSPropertyOp50
 70
     1
102
RTVSPropertyOp51
 70
     0
102
RTVSPropertyOp52
 70
     0
102
RTVSPropertyOp53
 70
     1
102
RTVSPropertyOp54
 70
     1
102
RTVSPropertyOp55
 70
     1
102
RTVSPropertyOp56
 70
     1
102
RTVSPropertyOp57
 70
     1
102
RTVSPropertyOp58
 70
     1
102
RTVSPropertyOp59
 70
     1
102
RTVSPropertyOp60
 70
     1
102
RTVSPropertyOp61
 70
     1
102
RTVSPropertyOp62
 70
     1
  0
XRECORD
  5
2464
102
{ACAD_REACTORS
330
2463
102
}
330
2463
100
AcDbXrecord
280
     1
102
RTVSPost2010Prop28
280
     0
102
RTVSPost2010PropOp28
 70
     1
102
RTVSPost2010Prop29
280
     1
102
RTVSPost2010PropOp29
 70
     1
102
RTVSPost2010Prop30
280
     1
102
RTVSPost2010PropOp30
 70
     1
102
RTVSPost2010Prop31
280
     0
102
RTVSPost2010PropOp31
 70
     1
102
RTVSPost2010Prop32
280
     0
102
RTVSPost2010PropOp32
 70
     1
102
RTVSPost2010Prop33
280
     0
102
RTVSPost2010PropOp33
 70
     1
102
RTVSPost2010Prop34
280
     0
102
RTVSPost2010PropOp34
 70
     1
102
RTVSPost2010Prop35
280
     0
102
RTVSPost2010PropOp35
 70
     1
102
RTVSPost2010Prop36
280
     0
102
RTVSPost2010PropOp36
 70
     1
102
RTVSPost2010Prop37
 90
       50
102
RTVSPost2010PropOp37
 70
     0
102
RTVSPost2010Prop38
140
0.0
102
RTVSPost2010PropOp38
 70
     0
102
RTVSPost2010Prop39
140
1.0
102
RTVSPost2010PropOp39
 70
     0
102
RTVSPost2010Prop40
 90
        0
102
RTVSPost2010PropOp40
 70
     0
102
RTVSPost2010Prop41ColorIndex
 90
       18
102
RTVSPost2010Prop41ColorRGB
 90
        0
102
RTVSPost2010PropOp41
 70
     0
102
RTVSPost2010Prop42
 90
       50
102
RTVSPost2010PropOp42
 70
     0
102
RTVSPost2010Prop43
 90
        3
102
RTVSPost2010PropOp43
 70
     0
102
RTVSPost2010Prop44ColorIndex
 90
        5
102
RTVSPost2010Prop44ColorRGB
 90
      255
102
RTVSPost2010PropOp44
 70
     0
102
RTVSPost2010Prop45
280
     0
102
RTVSPost2010PropOp45
 70
     1
102
RTVSPost2010Prop46
 90
       50
102
RTVSPost2010PropOp46
 70
     0
102
RTVSPost2010Prop47
 90
       50
102
RTVSPost2010PropOp47
 70
     0
102
RTVSPost2010Prop48
 90
       50
102
RTVSPost2010PropOp48
 70
     0
102
RTVSPost2010Prop49
280
     0
102
RTVSPost2010PropOp49
 70
     1
102
RTVSPost2010Prop50
 90
       50
102
RTVSPost2010PropOp50
 70
     0
102
RTVSPost2010Prop51ColorIndex
 90
      256
102
RTVSPost2010Prop51ColorRGB
 90
-16777216
102
RTVSPost2010PropOp51
 70
     0
102
RTVSPost2010Prop52
140
1.0
102
RTVSPost2010PropOp52
 70
     0
102
RTVSPost2010Prop53
 90
        2
102
RTVSPost2010PropOp53
 70
     0
102
RTVSPost2010Prop54
  1
strokes_ogs.tif
102
RTVSPost2010PropOp54
 70
     0
102
RTVSPost2010Prop55
280
     0
102
RTVSPost2010PropOp55
 70
     1
102
RTVSPost2010Prop56
140
1.0
102
RTVSPost2010PropOp56
 70
     0
102
RTVSPost2010Prop57
140
1.0
102
RTVSPost2010PropOp57
 70
     0
102
RTVSPropertyOp0
 70
     0
102
RTVSPropertyOp1
 70
     0
102
RTVSPropertyOp2
 70
     0
102
RTVSPropertyOp3
 70
     0
102
RTVSPropertyOp4
 70
     0
102
RTVSPropertyOp5
 70
     0
102
RTVSPropertyOp6
 70
     0
102
RTVSPropertyOp7
 70
     0
102
RTVSPropertyOp8
 70
     0
102
RTVSPropertyOp9
 70
     0
102
RTVSPropertyOp10
 70
     0
102
RTVSPropertyOp11
 70
     0
102
RTVSPropertyOp12
 70
     0
102
RTVSPropertyOp13
 70
     0
102
RTVSPropertyOp14
 70
     2
102
RTVSPropertyOp15
 70
     0
102
RTVSPropertyOp16
 70
     0
102
RTVSPropertyOp17
 70
     0
102
RTVSPropertyOp18
 70
     0
102
RTVSPropertyOp19
 70
     0
102
RTVSPropertyOp20
 70
     0
102
RTVSPropertyOp21
 70
     0
102
RTVSPropertyOp22
 70
     0
102
RTVSPropertyOp23
 70
     0
102
RTVSPropertyOp24
 70
     0
102
RTVSPropertyOp25
 70
     0
102
RTVSPropertyOp26
 70
     0
102
RTVSPropertyOp27
 70
     0
102
RTVSPropertyOp28
 70
     1
102
RTVSPropertyOp29
 70
     1
102
RTVSPropertyOp30
 70
     1
102
RTVSPropertyOp31
 70
     1
102
RTVSPropertyOp32
 70
     1
102
RTVSPropertyOp33
 70
     1
102
RTVSPropertyOp34
 70
     1
102
RTVSPropertyOp35
 70
     1
102
RTVSPropertyOp36
 70
     1
102
RTVSPropertyOp37
 70
     0
102
RTVSPropertyOp38
 70
     0
102
RTVSPropertyOp39
 70
     0
102
RTVSPropertyOp40
 70
     0
102
RTVSPropertyOp41
 70
     0
102
RTVSPropertyOp42
 70
     0
102
RTVSPropertyOp43
 70
     0
102
RTVSPropertyOp44
 70
     0
102
RTVSPropertyOp45
 70
     1
102
RTVSPropertyOp46
 70
     0
102
RTVSPropertyOp47
 70
     0
102
RTVSPropertyOp48
 70
     0
102
RTVSPropertyOp49
 70
     1
102
RTVSPropertyOp50
 70
     0
102
RTVSPropertyOp51
 70
     0
102
RTVSPropertyOp52
 70
     0
102
RTVSPropertyOp53
 70
     0
102
RTVSPropertyOp54
 70
     0
102
RTVSPropertyOp55
 70
     1
102
RTVSPropertyOp56
 70
     0
102
RTVSPropertyOp57
 70
     0
102
RTVSPropertyOp58
 70
     0
102
RTVSPropertyOp59
 70
     0
102
RTVSPropertyOp60
 70
     0
102
RTVSPropertyOp61
 70
     0
102
RTVSPropertyOp62
 70
     0
  0
XRECORD
  5
2452
102
{ACAD_REACTORS
330
2451
102
}
330
2451
100
AcDbXrecord
280
     1
102
RTVSPost2010Prop28
280
     0
102
RTVSPost2010PropOp28
 70
     1
102
RTVSPost2010Prop29
280
     1
102
RTVSPost2010PropOp29
 70
     1
102
RTVSPost2010Prop30
280
     1
102
RTVSPost2010PropOp30
 70
     1
102
RTVSPost2010Prop31
280
     0
102
RTVSPost2010PropOp31
 70
     1
102
RTVSPost2010Prop32
280
     0
102
RTVSPost2010PropOp32
 70
     1
102
RTVSPost2010Prop33
280
     0
102
RTVSPost2010PropOp33
 70
     1
102
RTVSPost2010Prop34
280
     0
102
RTVSPost2010PropOp34
 70
     1
102
RTVSPost2010Prop35
280
     0
102
RTVSPost2010PropOp35
 70
     1
102
RTVSPost2010Prop36
280
     0
102
RTVSPost2010PropOp36
 70
     1
102
RTVSPost2010Prop37
 90
       50
102
RTVSPost2010PropOp37
 70
     1
102
RTVSPost2010Prop38
140
0.0
102
RTVSPost2010PropOp38
 70
     1
102
RTVSPost2010Prop39
140
1.0
102
RTVSPost2010PropOp39
 70
     1
102
RTVSPost2010Prop40
 90
        0
102
RTVSPost2010PropOp40
 70
     1
102
RTVSPost2010Prop41ColorIndex
 90
       18
102
RTVSPost2010Prop41ColorRGB
 90
        0
102
RTVSPost2010PropOp41
 70
     1
102
RTVSPost2010Prop42
 90
       50
102
RTVSPost2010PropOp42
 70
     1
102
RTVSPost2010Prop43
 90
        3
102
RTVSPost2010PropOp43
 70
     1
102
RTVSPost2010Prop44ColorIndex
 90
        5
102
RTVSPost2010Prop44ColorRGB
 90
      255
102
RTVSPost2010PropOp44
 70
     1
102
RTVSPost2010Prop45
280
     0
102
RTVSPost2010PropOp45
 70
     1
102
RTVSPost2010Prop46
 90
       50
102
RTVSPost2010PropOp46
 70
     1
102
RTVSPost2010Prop47
 90
       50
102
RTVSPost2010PropOp47
 70
     1
102
RTVSPost2010Prop48
 90
       50
102
RTVSPost2010PropOp48
 70
     1
102
RTVSPost2010Prop49
280
     0
102
RTVSPost2010PropOp49
 70
     1
102
RTVSPost2010Prop50
 90
       50
102
RTVSPost2010PropOp50
 70
     1
102
RTVSPost2010Prop51ColorIndex
 90
      256
102
RTVSPost2010Prop51ColorRGB
 90
-16777216
102
RTVSPost2010PropOp51
 70
     0
102
RTVSPost2010Prop52
140
1.0
102
RTVSPost2010PropOp52
 70
     0
102
RTVSPost2010Prop53
 90
        2
102
RTVSPost2010PropOp53
 70
     1
102
RTVSPost2010Prop54
  1
strokes_ogs.tif
102
RTVSPost2010PropOp54
 70
     1
102
RTVSPost2010Prop55
280
     0
102
RTVSPost2010PropOp55
 70
     1
102
RTVSPost2010Prop56
140
1.0
102
RTVSPost2010PropOp56
 70
     1
102
RTVSPost2010Prop57
140
1.0
102
RTVSPost2010PropOp57
 70
     1
102
RTVSPropertyOp0
 70
     1
102
RTVSPropertyOp1
 70
     1
102
RTVSPropertyOp2
 70
     1
102
RTVSPropertyOp3
 70
     1
102
RTVSPropertyOp4
 70
     1
102
RTVSPropertyOp5
 70
     1
102
RTVSPropertyOp6
 70
     1
102
RTVSPropertyOp7
 70
     1
102
RTVSPropertyOp8
 70
     1
102
RTVSPropertyOp9
 70
     1
102
RTVSPropertyOp10
 70
     1
102
RTVSPropertyOp11
 70
     1
102
RTVSPropertyOp12
 70
     1
102
RTVSPropertyOp13
 70
     1
102
RTVSPropertyOp14
 70
     1
102
RTVSPropertyOp15
 70
     1
102
RTVSPropertyOp16
 70
     1
102
RTVSPropertyOp17
 70
     1
102
RTVSPropertyOp18
 70
     1
102
RTVSPropertyOp19
 70
     1
102
RTVSPropertyOp20
 70
     1
102
RTVSPropertyOp21
 70
     1
102
RTVSPropertyOp22
 70
     1
102
RTVSPropertyOp23
 70
     1
102
RTVSPropertyOp24
 70
     1
102
RTVSPropertyOp25
 70
     1
102
RTVSPropertyOp26
 70
     1
102
RTVSPropertyOp27
 70
     1
102
RTVSPropertyOp28
 70
     1
102
RTVSPropertyOp29
 70
     1
102
RTVSPropertyOp30
 70
     1
102
RTVSPropertyOp31
 70
     1
102
RTVSPropertyOp32
 70
     1
102
RTVSPropertyOp33
 70
     1
102
RTVSPropertyOp34
 70
     1
102
RTVSPropertyOp35
 70
     1
102
RTVSPropertyOp36
 70
     1
102
RTVSPropertyOp37
 70
     1
102
RTVSPropertyOp38
 70
     1
102
RTVSPropertyOp39
 70
     1
102
RTVSPropertyOp40
 70
     1
102
RTVSPropertyOp41
 70
     1
102
RTVSPropertyOp42
 70
     1
102
RTVSPropertyOp43
 70
     1
102
RTVSPropertyOp44
 70
     1
102
RTVSPropertyOp45
 70
     1
102
RTVSPropertyOp46
 70
     1
102
RTVSPropertyOp47
 70
     1
102
RTVSPropertyOp48
 70
     1
102
RTVSPropertyOp49
 70
     1
102
RTVSPropertyOp50
 70
     1
102
RTVSPropertyOp51
 70
     0
102
RTVSPropertyOp52
 70
     0
102
RTVSPropertyOp53
 70
     1
102
RTVSPropertyOp54
 70
     1
102
RTVSPropertyOp55
 70
     1
102
RTVSPropertyOp56
 70
     1
102
RTVSPropertyOp57
 70
     1
102
RTVSPropertyOp58
 70
     1
102
RTVSPropertyOp59
 70
     1
102
RTVSPropertyOp60
 70
     1
102
RTVSPropertyOp61
 70
     1
102
RTVSPropertyOp62
 70
     1
  0
XRECORD
  5
2436
102
{ACAD_REACTORS
330
2435
102
}
330
2435
100
AcDbXrecord
280
     1
102
RTVSPost2010Prop28
280
     0
102
RTVSPost2010PropOp28
 70
     1
102
RTVSPost2010Prop29
280
     1
102
RTVSPost2010PropOp29
 70
     1
102
RTVSPost2010Prop30
280
     1
102
RTVSPost2010PropOp30
 70
     1
102
RTVSPost2010Prop31
280
     0
102
RTVSPost2010PropOp31
 70
     1
102
RTVSPost2010Prop32
280
     0
102
RTVSPost2010PropOp32
 70
     1
102
RTVSPost2010Prop33
280
     0
102
RTVSPost2010PropOp33
 70
     1
102
RTVSPost2010Prop34
280
     0
102
RTVSPost2010PropOp34
 70
     1
102
RTVSPost2010Prop35
280
     0
102
RTVSPost2010PropOp35
 70
     1
102
RTVSPost2010Prop36
280
     0
102
RTVSPost2010PropOp36
 70
     1
102
RTVSPost2010Prop37
 90
       50
102
RTVSPost2010PropOp37
 70
     1
102
RTVSPost2010Prop38
140
0.0
102
RTVSPost2010PropOp38
 70
     1
102
RTVSPost2010Prop39
140
1.0
102
RTVSPost2010PropOp39
 70
     1
102
RTVSPost2010Prop40
 90
        0
102
RTVSPost2010PropOp40
 70
     1
102
RTVSPost2010Prop41ColorIndex
 90
       18
102
RTVSPost2010Prop41ColorRGB
 90
        0
102
RTVSPost2010PropOp41
 70
     1
102
RTVSPost2010Prop42
 90
       50
102
RTVSPost2010PropOp42
 70
     1
102
RTVSPost2010Prop43
 90
        3
102
RTVSPost2010PropOp43
 70
     1
102
RTVSPost2010Prop44ColorIndex
 90
        5
102
RTVSPost2010Prop44ColorRGB
 90
      255
102
RTVSPost2010PropOp44
 70
     1
102
RTVSPost2010Prop45
280
     0
102
RTVSPost2010PropOp45
 70
     1
102
RTVSPost2010Prop46
 90
       50
102
RTVSPost2010PropOp46
 70
     1
102
RTVSPost2010Prop47
 90
       50
102
RTVSPost2010PropOp47
 70
     1
102
RTVSPost2010Prop48
 90
       50
102
RTVSPost2010PropOp48
 70
     1
102
RTVSPost2010Prop49
280
     0
102
RTVSPost2010PropOp49
 70
     1
102
RTVSPost2010Prop50
 90
       50
102
RTVSPost2010PropOp50
 70
     1
102
RTVSPost2010Prop51ColorIndex
 90
      256
102
RTVSPost2010Prop51ColorRGB
 90
-16777216
102
RTVSPost2010PropOp51
 70
     0
102
RTVSPost2010Prop52
140
1.0
102
RTVSPost2010PropOp52
 70
     0
102
RTVSPost2010Prop53
 90
        2
102
RTVSPost2010PropOp53
 70
     1
102
RTVSPost2010Prop54
  1
strokes_ogs.tif
102
RTVSPost2010PropOp54
 70
     1
102
RTVSPost2010Prop55
280
     0
102
RTVSPost2010PropOp55
 70
     1
102
RTVSPost2010Prop56
140
1.0
102
RTVSPost2010PropOp56
 70
     1
102
RTVSPost2010Prop57
140
1.0
102
RTVSPost2010PropOp57
 70
     1
102
RTVSPropertyOp0
 70
     1
102
RTVSPropertyOp1
 70
     1
102
RTVSPropertyOp2
 70
     1
102
RTVSPropertyOp3
 70
     1
102
RTVSPropertyOp4
 70
     1
102
RTVSPropertyOp5
 70
     1
102
RTVSPropertyOp6
 70
     1
102
RTVSPropertyOp7
 70
     1
102
RTVSPropertyOp8
 70
     1
102
RTVSPropertyOp9
 70
     1
102
RTVSPropertyOp10
 70
     1
102
RTVSPropertyOp11
 70
     1
102
RTVSPropertyOp12
 70
     1
102
RTVSPropertyOp13
 70
     1
102
RTVSPropertyOp14
 70
     1
102
RTVSPropertyOp15
 70
     1
102
RTVSPropertyOp16
 70
     1
102
RTVSPropertyOp17
 70
     1
102
RTVSPropertyOp18
 70
     1
102
RTVSPropertyOp19
 70
     1
102
RTVSPropertyOp20
 70
     1
102
RTVSPropertyOp21
 70
     1
102
RTVSPropertyOp22
 70
     1
102
RTVSPropertyOp23
 70
     1
102
RTVSPropertyOp24
 70
     1
102
RTVSPropertyOp25
 70
     1
102
RTVSPropertyOp26
 70
     1
102
RTVSPropertyOp27
 70
     1
102
RTVSPropertyOp28
 70
     1
102
RTVSPropertyOp29
 70
     1
102
RTVSPropertyOp30
 70
     1
102
RTVSPropertyOp31
 70
     1
102
RTVSPropertyOp32
 70
     1
102
RTVSPropertyOp33
 70
     1
102
RTVSPropertyOp34
 70
     1
102
RTVSPropertyOp35
 70
     1
102
RTVSPropertyOp36
 70
     1
102
RTVSPropertyOp37
 70
     1
102
RTVSPropertyOp38
 70
     1
102
RTVSPropertyOp39
 70
     1
102
RTVSPropertyOp40
 70
     1
102
RTVSPropertyOp41
 70
     1
102
RTVSPropertyOp42
 70
     1
102
RTVSPropertyOp43
 70
     1
102
RTVSPropertyOp44
 70
     1
102
RTVSPropertyOp45
 70
     1
102
RTVSPropertyOp46
 70
     1
102
RTVSPropertyOp47
 70
     1
102
RTVSPropertyOp48
 70
     1
102
RTVSPropertyOp49
 70
     1
102
RTVSPropertyOp50
 70
     1
102
RTVSPropertyOp51
 70
     0
102
RTVSPropertyOp52
 70
     0
102
RTVSPropertyOp53
 70
     1
102
RTVSPropertyOp54
 70
     1
102
RTVSPropertyOp55
 70
     1
102
RTVSPropertyOp56
 70
     1
102
RTVSPropertyOp57
 70
     1
102
RTVSPropertyOp58
 70
     1
102
RTVSPropertyOp59
 70
     1
102
RTVSPropertyOp60
 70
     1
102
RTVSPropertyOp61
 70
     1
102
RTVSPropertyOp62
 70
     1
  0
XRECORD
  5
2438
102
{ACAD_REACTORS
330
2437
102
}
330
2437
100
AcDbXrecord
280
     1
102
RTVSPost2010Prop28
280
     0
102
RTVSPost2010PropOp28
 70
     1
102
RTVSPost2010Prop29
280
     1
102
RTVSPost2010PropOp29
 70
     1
102
RTVSPost2010Prop30
280
     1
102
RTVSPost2010PropOp30
 70
     1
102
RTVSPost2010Prop31
280
     0
102
RTVSPost2010PropOp31
 70
     1
102
RTVSPost2010Prop32
280
     0
102
RTVSPost2010PropOp32
 70
     1
102
RTVSPost2010Prop33
280
     0
102
RTVSPost2010PropOp33
 70
     1
102
RTVSPost2010Prop34
280
     0
102
RTVSPost2010PropOp34
 70
     1
102
RTVSPost2010Prop35
280
     0
102
RTVSPost2010PropOp35
 70
     1
102
RTVSPost2010Prop36
280
     0
102
RTVSPost2010PropOp36
 70
     1
102
RTVSPost2010Prop37
 90
       50
102
RTVSPost2010PropOp37
 70
     1
102
RTVSPost2010Prop38
140
0.0
102
RTVSPost2010PropOp38
 70
     1
102
RTVSPost2010Prop39
140
1.0
102
RTVSPost2010PropOp39
 70
     1
102
RTVSPost2010Prop40
 90
        0
102
RTVSPost2010PropOp40
 70
     1
102
RTVSPost2010Prop41ColorIndex
 90
       18
102
RTVSPost2010Prop41ColorRGB
 90
        0
102
RTVSPost2010PropOp41
 70
     1
102
RTVSPost2010Prop42
 90
       50
102
RTVSPost2010PropOp42
 70
     1
102
RTVSPost2010Prop43
 90
        3
102
RTVSPost2010PropOp43
 70
     1
102
RTVSPost2010Prop44ColorIndex
 90
        5
102
RTVSPost2010Prop44ColorRGB
 90
      255
102
RTVSPost2010PropOp44
 70
     1
102
RTVSPost2010Prop45
280
     0
102
RTVSPost2010PropOp45
 70
     1
102
RTVSPost2010Prop46
 90
       50
102
RTVSPost2010PropOp46
 70
     1
102
RTVSPost2010Prop47
 90
       50
102
RTVSPost2010PropOp47
 70
     1
102
RTVSPost2010Prop48
 90
       50
102
RTVSPost2010PropOp48
 70
     1
102
RTVSPost2010Prop49
280
     0
102
RTVSPost2010PropOp49
 70
     1
102
RTVSPost2010Prop50
 90
       50
102
RTVSPost2010PropOp50
 70
     1
102
RTVSPost2010Prop51ColorIndex
 90
      256
102
RTVSPost2010Prop51ColorRGB
 90
-16777216
102
RTVSPost2010PropOp51
 70
     0
102
RTVSPost2010Prop52
140
1.0
102
RTVSPost2010PropOp52
 70
     0
102
RTVSPost2010Prop53
 90
        2
102
RTVSPost2010PropOp53
 70
     1
102
RTVSPost2010Prop54
  1
strokes_ogs.tif
102
RTVSPost2010PropOp54
 70
     1
102
RTVSPost2010Prop55
280
     0
102
RTVSPost2010PropOp55
 70
     1
102
RTVSPost2010Prop56
140
1.0
102
RTVSPost2010PropOp56
 70
     1
102
RTVSPost2010Prop57
140
1.0
102
RTVSPost2010PropOp57
 70
     1
102
RTVSPropertyOp0
 70
     1
102
RTVSPropertyOp1
 70
     1
102
RTVSPropertyOp2
 70
     1
102
RTVSPropertyOp3
 70
     1
102
RTVSPropertyOp4
 70
     1
102
RTVSPropertyOp5
 70
     1
102
RTVSPropertyOp6
 70
     1
102
RTVSPropertyOp7
 70
     1
102
RTVSPropertyOp8
 70
     1
102
RTVSPropertyOp9
 70
     1
102
RTVSPropertyOp10
 70
     1
102
RTVSPropertyOp11
 70
     1
102
RTVSPropertyOp12
 70
     1
102
RTVSPropertyOp13
 70
     1
102
RTVSPropertyOp14
 70
     1
102
RTVSPropertyOp15
 70
     1
102
RTVSPropertyOp16
 70
     1
102
RTVSPropertyOp17
 70
     1
102
RTVSPropertyOp18
 70
     1
102
RTVSPropertyOp19
 70
     1
102
RTVSPropertyOp20
 70
     1
102
RTVSPropertyOp21
 70
     1
102
RTVSPropertyOp22
 70
     1
102
RTVSPropertyOp23
 70
     1
102
RTVSPropertyOp24
 70
     1
102
RTVSPropertyOp25
 70
     1
102
RTVSPropertyOp26
 70
     1
102
RTVSPropertyOp27
 70
     1
102
RTVSPropertyOp28
 70
     1
102
RTVSPropertyOp29
 70
     1
102
RTVSPropertyOp30
 70
     1
102
RTVSPropertyOp31
 70
     1
102
RTVSPropertyOp32
 70
     1
102
RTVSPropertyOp33
 70
     1
102
RTVSPropertyOp34
 70
     1
102
RTVSPropertyOp35
 70
     1
102
RTVSPropertyOp36
 70
     1
102
RTVSPropertyOp37
 70
     1
102
RTVSPropertyOp38
 70
     1
102
RTVSPropertyOp39
 70
     1
102
RTVSPropertyOp40
 70
     1
102
RTVSPropertyOp41
 70
     1
102
RTVSPropertyOp42
 70
     1
102
RTVSPropertyOp43
 70
     1
102
RTVSPropertyOp44
 70
     1
102
RTVSPropertyOp45
 70
     1
102
RTVSPropertyOp46
 70
     1
102
RTVSPropertyOp47
 70
     1
102
RTVSPropertyOp48
 70
     1
102
RTVSPropertyOp49
 70
     1
102
RTVSPropertyOp50
 70
     1
102
RTVSPropertyOp51
 70
     0
102
RTVSPropertyOp52
 70
     0
102
RTVSPropertyOp53
 70
     1
102
RTVSPropertyOp54
 70
     1
102
RTVSPropertyOp55
 70
     1
102
RTVSPropertyOp56
 70
     1
102
RTVSPropertyOp57
 70
     1
102
RTVSPropertyOp58
 70
     1
102
RTVSPropertyOp59
 70
     1
102
RTVSPropertyOp60
 70
     1
102
RTVSPropertyOp61
 70
     1
102
RTVSPropertyOp62
 70
     1
  0
XRECORD
  5
243A
102
{ACAD_REACTORS
330
2439
102
}
330
2439
100
AcDbXrecord
280
     1
102
RTVSPost2010Prop28
280
     0
102
RTVSPost2010PropOp28
 70
     1
102
RTVSPost2010Prop29
280
     1
102
RTVSPost2010PropOp29
 70
     1
102
RTVSPost2010Prop30
280
     1
102
RTVSPost2010PropOp30
 70
     1
102
RTVSPost2010Prop31
280
     0
102
RTVSPost2010PropOp31
 70
     1
102
RTVSPost2010Prop32
280
     0
102
RTVSPost2010PropOp32
 70
     1
102
RTVSPost2010Prop33
280
     0
102
RTVSPost2010PropOp33
 70
     1
102
RTVSPost2010Prop34
280
     0
102
RTVSPost2010PropOp34
 70
     1
102
RTVSPost2010Prop35
280
     0
102
RTVSPost2010PropOp35
 70
     1
102
RTVSPost2010Prop36
280
     0
102
RTVSPost2010PropOp36
 70
     1
102
RTVSPost2010Prop37
 90
       50
102
RTVSPost2010PropOp37
 70
     1
102
RTVSPost2010Prop38
140
0.0
102
RTVSPost2010PropOp38
 70
     1
102
RTVSPost2010Prop39
140
1.0
102
RTVSPost2010PropOp39
 70
     1
102
RTVSPost2010Prop40
 90
        0
102
RTVSPost2010PropOp40
 70
     1
102
RTVSPost2010Prop41ColorIndex
 90
       18
102
RTVSPost2010Prop41ColorRGB
 90
        0
102
RTVSPost2010PropOp41
 70
     1
102
RTVSPost2010Prop42
 90
       50
102
RTVSPost2010PropOp42
 70
     1
102
RTVSPost2010Prop43
 90
        3
102
RTVSPost2010PropOp43
 70
     1
102
RTVSPost2010Prop44ColorIndex
 90
        5
102
RTVSPost2010Prop44ColorRGB
 90
      255
102
RTVSPost2010PropOp44
 70
     1
102
RTVSPost2010Prop45
280
     0
102
RTVSPost2010PropOp45
 70
     1
102
RTVSPost2010Prop46
 90
       50
102
RTVSPost2010PropOp46
 70
     1
102
RTVSPost2010Prop47
 90
       50
102
RTVSPost2010PropOp47
 70
     1
102
RTVSPost2010Prop48
 90
       50
102
RTVSPost2010PropOp48
 70
     1
102
RTVSPost2010Prop49
280
     0
102
RTVSPost2010PropOp49
 70
     1
102
RTVSPost2010Prop50
 90
       50
102
RTVSPost2010PropOp50
 70
     1
102
RTVSPost2010Prop51ColorIndex
 90
      256
102
RTVSPost2010Prop51ColorRGB
 90
-16777216
102
RTVSPost2010PropOp51
 70
     0
102
RTVSPost2010Prop52
140
1.0
102
RTVSPost2010PropOp52
 70
     0
102
RTVSPost2010Prop53
 90
        2
102
RTVSPost2010PropOp53
 70
     1
102
RTVSPost2010Prop54
  1
strokes_ogs.tif
102
RTVSPost2010PropOp54
 70
     1
102
RTVSPost2010Prop55
280
     0
102
RTVSPost2010PropOp55
 70
     1
102
RTVSPost2010Prop56
140
1.0
102
RTVSPost2010PropOp56
 70
     1
102
RTVSPost2010Prop57
140
1.0
102
RTVSPost2010PropOp57
 70
     1
102
RTVSPropertyOp0
 70
     1
102
RTVSPropertyOp1
 70
     1
102
RTVSPropertyOp2
 70
     1
102
RTVSPropertyOp3
 70
     1
102
RTVSPropertyOp4
 70
     1
102
RTVSPropertyOp5
 70
     1
102
RTVSPropertyOp6
 70
     1
102
RTVSPropertyOp7
 70
     1
102
RTVSPropertyOp8
 70
     1
102
RTVSPropertyOp9
 70
     1
102
RTVSPropertyOp10
 70
     1
102
RTVSPropertyOp11
 70
     1
102
RTVSPropertyOp12
 70
     1
102
RTVSPropertyOp13
 70
     1
102
RTVSPropertyOp14
 70
     1
102
RTVSPropertyOp15
 70
     1
102
RTVSPropertyOp16
 70
     1
102
RTVSPropertyOp17
 70
     1
102
RTVSPropertyOp18
 70
     1
102
RTVSPropertyOp19
 70
     1
102
RTVSPropertyOp20
 70
     1
102
RTVSPropertyOp21
 70
     1
102
RTVSPropertyOp22
 70
     1
102
RTVSPropertyOp23
 70
     1
102
RTVSPropertyOp24
 70
     1
102
RTVSPropertyOp25
 70
     1
102
RTVSPropertyOp26
 70
     1
102
RTVSPropertyOp27
 70
     1
102
RTVSPropertyOp28
 70
     1
102
RTVSPropertyOp29
 70
     1
102
RTVSPropertyOp30
 70
     1
102
RTVSPropertyOp31
 70
     1
102
RTVSPropertyOp32
 70
     1
102
RTVSPropertyOp33
 70
     1
102
RTVSPropertyOp34
 70
     1
102
RTVSPropertyOp35
 70
     1
102
RTVSPropertyOp36
 70
     1
102
RTVSPropertyOp37
 70
     1
102
RTVSPropertyOp38
 70
     1
102
RTVSPropertyOp39
 70
     1
102
RTVSPropertyOp40
 70
     1
102
RTVSPropertyOp41
 70
     1
102
RTVSPropertyOp42
 70
     1
102
RTVSPropertyOp43
 70
     1
102
RTVSPropertyOp44
 70
     1
102
RTVSPropertyOp45
 70
     1
102
RTVSPropertyOp46
 70
     1
102
RTVSPropertyOp47
 70
     1
102
RTVSPropertyOp48
 70
     1
102
RTVSPropertyOp49
 70
     1
102
RTVSPropertyOp50
 70
     1
102
RTVSPropertyOp51
 70
     0
102
RTVSPropertyOp52
 70
     0
102
RTVSPropertyOp53
 70
     1
102
RTVSPropertyOp54
 70
     1
102
RTVSPropertyOp55
 70
     1
102
RTVSPropertyOp56
 70
     1
102
RTVSPropertyOp57
 70
     1
102
RTVSPropertyOp58
 70
     1
102
RTVSPropertyOp59
 70
     1
102
RTVSPropertyOp60
 70
     1
102
RTVSPropertyOp61
 70
     1
102
RTVSPropertyOp62
 70
     1
  0
XRECORD
  5
243C
102
{ACAD_REACTORS
330
243B
102
}
330
243B
100
AcDbXrecord
280
     1
102
RTVSPost2010Prop28
280
     0
102
RTVSPost2010PropOp28
 70
     1
102
RTVSPost2010Prop29
280
     1
102
RTVSPost2010PropOp29
 70
     1
102
RTVSPost2010Prop30
280
     1
102
RTVSPost2010PropOp30
 70
     1
102
RTVSPost2010Prop31
280
     0
102
RTVSPost2010PropOp31
 70
     1
102
RTVSPost2010Prop32
280
     0
102
RTVSPost2010PropOp32
 70
     1
102
RTVSPost2010Prop33
280
     0
102
RTVSPost2010PropOp33
 70
     1
102
RTVSPost2010Prop34
280
     0
102
RTVSPost2010PropOp34
 70
     1
102
RTVSPost2010Prop35
280
     0
102
RTVSPost2010PropOp35
 70
     1
102
RTVSPost2010Prop36
280
     0
102
RTVSPost2010PropOp36
 70
     1
102
RTVSPost2010Prop37
 90
       50
102
RTVSPost2010PropOp37
 70
     1
102
RTVSPost2010Prop38
140
0.0
102
RTVSPost2010PropOp38
 70
     1
102
RTVSPost2010Prop39
140
1.0
102
RTVSPost2010PropOp39
 70
     1
102
RTVSPost2010Prop40
 90
        0
102
RTVSPost2010PropOp40
 70
     1
102
RTVSPost2010Prop41ColorIndex
 90
       18
102
RTVSPost2010Prop41ColorRGB
 90
        0
102
RTVSPost2010PropOp41
 70
     1
102
RTVSPost2010Prop42
 90
       50
102
RTVSPost2010PropOp42
 70
     1
102
RTVSPost2010Prop43
 90
        3
102
RTVSPost2010PropOp43
 70
     1
102
RTVSPost2010Prop44ColorIndex
 90
        5
102
RTVSPost2010Prop44ColorRGB
 90
      255
102
RTVSPost2010PropOp44
 70
     1
102
RTVSPost2010Prop45
280
     0
102
RTVSPost2010PropOp45
 70
     1
102
RTVSPost2010Prop46
 90
       50
102
RTVSPost2010PropOp46
 70
     1
102
RTVSPost2010Prop47
 90
       50
102
RTVSPost2010PropOp47
 70
     1
102
RTVSPost2010Prop48
 90
       50
102
RTVSPost2010PropOp48
 70
     1
102
RTVSPost2010Prop49
280
     0
102
RTVSPost2010PropOp49
 70
     1
102
RTVSPost2010Prop50
 90
       50
102
RTVSPost2010PropOp50
 70
     1
102
RTVSPost2010Prop51ColorIndex
 90
      256
102
RTVSPost2010Prop51ColorRGB
 90
-16777216
102
RTVSPost2010PropOp51
 70
     0
102
RTVSPost2010Prop52
140
1.0
102
RTVSPost2010PropOp52
 70
     0
102
RTVSPost2010Prop53
 90
        2
102
RTVSPost2010PropOp53
 70
     1
102
RTVSPost2010Prop54
  1
strokes_ogs.tif
102
RTVSPost2010PropOp54
 70
     1
102
RTVSPost2010Prop55
280
     0
102
RTVSPost2010PropOp55
 70
     1
102
RTVSPost2010Prop56
140
1.0
102
RTVSPost2010PropOp56
 70
     1
102
RTVSPost2010Prop57
140
1.0
102
RTVSPost2010PropOp57
 70
     1
102
RTVSPropertyOp0
 70
     1
102
RTVSPropertyOp1
 70
     1
102
RTVSPropertyOp2
 70
     1
102
RTVSPropertyOp3
 70
     1
102
RTVSPropertyOp4
 70
     1
102
RTVSPropertyOp5
 70
     1
102
RTVSPropertyOp6
 70
     1
102
RTVSPropertyOp7
 70
     1
102
RTVSPropertyOp8
 70
     1
102
RTVSPropertyOp9
 70
     1
102
RTVSPropertyOp10
 70
     1
102
RTVSPropertyOp11
 70
     1
102
RTVSPropertyOp12
 70
     1
102
RTVSPropertyOp13
 70
     1
102
RTVSPropertyOp14
 70
     1
102
RTVSPropertyOp15
 70
     1
102
RTVSPropertyOp16
 70
     1
102
RTVSPropertyOp17
 70
     1
102
RTVSPropertyOp18
 70
     1
102
RTVSPropertyOp19
 70
     1
102
RTVSPropertyOp20
 70
     1
102
RTVSPropertyOp21
 70
     1
102
RTVSPropertyOp22
 70
     1
102
RTVSPropertyOp23
 70
     1
102
RTVSPropertyOp24
 70
     1
102
RTVSPropertyOp25
 70
     1
102
RTVSPropertyOp26
 70
     1
102
RTVSPropertyOp27
 70
     1
102
RTVSPropertyOp28
 70
     1
102
RTVSPropertyOp29
 70
     1
102
RTVSPropertyOp30
 70
     1
102
RTVSPropertyOp31
 70
     1
102
RTVSPropertyOp32
 70
     1
102
RTVSPropertyOp33
 70
     1
102
RTVSPropertyOp34
 70
     1
102
RTVSPropertyOp35
 70
     1
102
RTVSPropertyOp36
 70
     1
102
RTVSPropertyOp37
 70
     1
102
RTVSPropertyOp38
 70
     1
102
RTVSPropertyOp39
 70
     1
102
RTVSPropertyOp40
 70
     1
102
RTVSPropertyOp41
 70
     1
102
RTVSPropertyOp42
 70
     1
102
RTVSPropertyOp43
 70
     1
102
RTVSPropertyOp44
 70
     1
102
RTVSPropertyOp45
 70
     1
102
RTVSPropertyOp46
 70
     1
102
RTVSPropertyOp47
 70
     1
102
RTVSPropertyOp48
 70
     1
102
RTVSPropertyOp49
 70
     1
102
RTVSPropertyOp50
 70
     1
102
RTVSPropertyOp51
 70
     0
102
RTVSPropertyOp52
 70
     0
102
RTVSPropertyOp53
 70
     1
102
RTVSPropertyOp54
 70
     1
102
RTVSPropertyOp55
 70
     1
102
RTVSPropertyOp56
 70
     1
102
RTVSPropertyOp57
 70
     1
102
RTVSPropertyOp58
 70
     1
102
RTVSPropertyOp59
 70
     1
102
RTVSPropertyOp60
 70
     1
102
RTVSPropertyOp61
 70
     1
102
RTVSPropertyOp62
 70
     1
  0
XRECORD
  5
2444
102
{ACAD_REACTORS
330
2443
102
}
330
2443
100
AcDbXrecord
280
     1
102
RTVSPost2010Prop28
280
     0
102
RTVSPost2010PropOp28
 70
     1
102
RTVSPost2010Prop29
280
     1
102
RTVSPost2010PropOp29
 70
     1
102
RTVSPost2010Prop30
280
     1
102
RTVSPost2010PropOp30
 70
     1
102
RTVSPost2010Prop31
280
     0
102
RTVSPost2010PropOp31
 70
     1
102
RTVSPost2010Prop32
280
     0
102
RTVSPost2010PropOp32
 70
     1
102
RTVSPost2010Prop33
280
     0
102
RTVSPost2010PropOp33
 70
     1
102
RTVSPost2010Prop34
280
     0
102
RTVSPost2010PropOp34
 70
     1
102
RTVSPost2010Prop35
280
     0
102
RTVSPost2010PropOp35
 70
     1
102
RTVSPost2010Prop36
280
     0
102
RTVSPost2010PropOp36
 70
     1
102
RTVSPost2010Prop37
 90
       50
102
RTVSPost2010PropOp37
 70
     1
102
RTVSPost2010Prop38
140
0.0
102
RTVSPost2010PropOp38
 70
     1
102
RTVSPost2010Prop39
140
1.0
102
RTVSPost2010PropOp39
 70
     1
102
RTVSPost2010Prop40
 90
        0
102
RTVSPost2010PropOp40
 70
     1
102
RTVSPost2010Prop41ColorIndex
 90
       18
102
RTVSPost2010Prop41ColorRGB
 90
        0
102
RTVSPost2010PropOp41
 70
     1
102
RTVSPost2010Prop42
 90
       50
102
RTVSPost2010PropOp42
 70
     1
102
RTVSPost2010Prop43
 90
        3
102
RTVSPost2010PropOp43
 70
     1
102
RTVSPost2010Prop44ColorIndex
 90
        5
102
RTVSPost2010Prop44ColorRGB
 90
      255
102
RTVSPost2010PropOp44
 70
     1
102
RTVSPost2010Prop45
280
     0
102
RTVSPost2010PropOp45
 70
     1
102
RTVSPost2010Prop46
 90
       50
102
RTVSPost2010PropOp46
 70
     1
102
RTVSPost2010Prop47
 90
       50
102
RTVSPost2010PropOp47
 70
     1
102
RTVSPost2010Prop48
 90
       50
102
RTVSPost2010PropOp48
 70
     1
102
RTVSPost2010Prop49
280
     0
102
RTVSPost2010PropOp49
 70
     1
102
RTVSPost2010Prop50
 90
       50
102
RTVSPost2010PropOp50
 70
     1
102
RTVSPost2010Prop51ColorIndex
 90
      256
102
RTVSPost2010Prop51ColorRGB
 90
-16777216
102
RTVSPost2010PropOp51
 70
     0
102
RTVSPost2010Prop52
140
1.0
102
RTVSPost2010PropOp52
 70
     0
102
RTVSPost2010Prop53
 90
        2
102
RTVSPost2010PropOp53
 70
     1
102
RTVSPost2010Prop54
  1
strokes_ogs.tif
102
RTVSPost2010PropOp54
 70
     1
102
RTVSPost2010Prop55
280
     0
102
RTVSPost2010PropOp55
 70
     1
102
RTVSPost2010Prop56
140
1.0
102
RTVSPost2010PropOp56
 70
     1
102
RTVSPost2010Prop57
140
1.0
102
RTVSPost2010PropOp57
 70
     1
102
RTVSPropertyOp0
 70
     1
102
RTVSPropertyOp1
 70
     1
102
RTVSPropertyOp2
 70
     1
102
RTVSPropertyOp3
 70
     1
102
RTVSPropertyOp4
 70
     1
102
RTVSPropertyOp5
 70
     1
102
RTVSPropertyOp6
 70
     1
102
RTVSPropertyOp7
 70
     1
102
RTVSPropertyOp8
 70
     1
102
RTVSPropertyOp9
 70
     1
102
RTVSPropertyOp10
 70
     1
102
RTVSPropertyOp11
 70
     1
102
RTVSPropertyOp12
 70
     1
102
RTVSPropertyOp13
 70
     1
102
RTVSPropertyOp14
 70
     1
102
RTVSPropertyOp15
 70
     1
102
RTVSPropertyOp16
 70
     1
102
RTVSPropertyOp17
 70
     1
102
RTVSPropertyOp18
 70
     1
102
RTVSPropertyOp19
 70
     1
102
RTVSPropertyOp20
 70
     1
102
RTVSPropertyOp21
 70
     1
102
RTVSPropertyOp22
 70
     1
102
RTVSPropertyOp23
 70
     1
102
RTVSPropertyOp24
 70
     1
102
RTVSPropertyOp25
 70
     1
102
RTVSPropertyOp26
 70
     1
102
RTVSPropertyOp27
 70
     1
102
RTVSPropertyOp28
 70
     1
102
RTVSPropertyOp29
 70
     1
102
RTVSPropertyOp30
 70
     1
102
RTVSPropertyOp31
 70
     1
102
RTVSPropertyOp32
 70
     1
102
RTVSPropertyOp33
 70
     1
102
RTVSPropertyOp34
 70
     1
102
RTVSPropertyOp35
 70
     1
102
RTVSPropertyOp36
 70
     1
102
RTVSPropertyOp37
 70
     1
102
RTVSPropertyOp38
 70
     1
102
RTVSPropertyOp39
 70
     1
102
RTVSPropertyOp40
 70
     1
102
RTVSPropertyOp41
 70
     1
102
RTVSPropertyOp42
 70
     1
102
RTVSPropertyOp43
 70
     1
102
RTVSPropertyOp44
 70
     1
102
RTVSPropertyOp45
 70
     1
102
RTVSPropertyOp46
 70
     1
102
RTVSPropertyOp47
 70
     1
102
RTVSPropertyOp48
 70
     1
102
RTVSPropertyOp49
 70
     1
102
RTVSPropertyOp50
 70
     1
102
RTVSPropertyOp51
 70
     0
102
RTVSPropertyOp52
 70
     0
102
RTVSPropertyOp53
 70
     1
102
RTVSPropertyOp54
 70
     1
102
RTVSPropertyOp55
 70
     1
102
RTVSPropertyOp56
 70
     1
102
RTVSPropertyOp57
 70
     1
102
RTVSPropertyOp58
 70
     1
102
RTVSPropertyOp59
 70
     1
102
RTVSPropertyOp60
 70
     1
102
RTVSPropertyOp61
 70
     1
102
RTVSPropertyOp62
 70
     1
  0
XRECORD
  5
2460
102
{ACAD_REACTORS
330
245F
102
}
330
245F
100
AcDbXrecord
280
     1
102
RTVSPost2010Prop28
280
     0
102
RTVSPost2010PropOp28
 70
     1
102
RTVSPost2010Prop29
280
     1
102
RTVSPost2010PropOp29
 70
     1
102
RTVSPost2010Prop30
280
     1
102
RTVSPost2010PropOp30
 70
     1
102
RTVSPost2010Prop31
280
     0
102
RTVSPost2010PropOp31
 70
     1
102
RTVSPost2010Prop32
280
     0
102
RTVSPost2010PropOp32
 70
     1
102
RTVSPost2010Prop33
280
     0
102
RTVSPost2010PropOp33
 70
     1
102
RTVSPost2010Prop34
280
     0
102
RTVSPost2010PropOp34
 70
     1
102
RTVSPost2010Prop35
280
     0
102
RTVSPost2010PropOp35
 70
     1
102
RTVSPost2010Prop36
280
     0
102
RTVSPost2010PropOp36
 70
     1
102
RTVSPost2010Prop37
 90
       50
102
RTVSPost2010PropOp37
 70
     0
102
RTVSPost2010Prop38
140
0.0
102
RTVSPost2010PropOp38
 70
     0
102
RTVSPost2010Prop39
140
1.0
102
RTVSPost2010PropOp39
 70
     0
102
RTVSPost2010Prop40
 90
        0
102
RTVSPost2010PropOp40
 70
     0
102
RTVSPost2010Prop41ColorIndex
 90
       18
102
RTVSPost2010Prop41ColorRGB
 90
        0
102
RTVSPost2010PropOp41
 70
     0
102
RTVSPost2010Prop42
 90
       50
102
RTVSPost2010PropOp42
 70
     0
102
RTVSPost2010Prop43
 90
        3
102
RTVSPost2010PropOp43
 70
     0
102
RTVSPost2010Prop44ColorIndex
 90
        5
102
RTVSPost2010Prop44ColorRGB
 90
      255
102
RTVSPost2010PropOp44
 70
     0
102
RTVSPost2010Prop45
280
     0
102
RTVSPost2010PropOp45
 70
     1
102
RTVSPost2010Prop46
 90
       50
102
RTVSPost2010PropOp46
 70
     0
102
RTVSPost2010Prop47
 90
       50
102
RTVSPost2010PropOp47
 70
     0
102
RTVSPost2010Prop48
 90
       50
102
RTVSPost2010PropOp48
 70
     0
102
RTVSPost2010Prop49
280
     0
102
RTVSPost2010PropOp49
 70
     1
102
RTVSPost2010Prop50
 90
       50
102
RTVSPost2010PropOp50
 70
     0
102
RTVSPost2010Prop51ColorIndex
 90
      256
102
RTVSPost2010Prop51ColorRGB
 90
-16777216
102
RTVSPost2010PropOp51
 70
     0
102
RTVSPost2010Prop52
140
1.0
102
RTVSPost2010PropOp52
 70
     0
102
RTVSPost2010Prop53
 90
        2
102
RTVSPost2010PropOp53
 70
     0
102
RTVSPost2010Prop54
  1
strokes_ogs.tif
102
RTVSPost2010PropOp54
 70
     0
102
RTVSPost2010Prop55
280
     0
102
RTVSPost2010PropOp55
 70
     1
102
RTVSPost2010Prop56
140
1.0
102
RTVSPost2010PropOp56
 70
     0
102
RTVSPost2010Prop57
140
1.0
102
RTVSPost2010PropOp57
 70
     0
102
RTVSPropertyOp0
 70
     0
102
RTVSPropertyOp1
 70
     0
102
RTVSPropertyOp2
 70
     0
102
RTVSPropertyOp3
 70
     0
102
RTVSPropertyOp4
 70
     0
102
RTVSPropertyOp5
 70
     0
102
RTVSPropertyOp6
 70
     0
102
RTVSPropertyOp7
 70
     0
102
RTVSPropertyOp8
 70
     0
102
RTVSPropertyOp9
 70
     0
102
RTVSPropertyOp10
 70
     0
102
RTVSPropertyOp11
 70
     0
102
RTVSPropertyOp12
 70
     0
102
RTVSPropertyOp13
 70
     0
102
RTVSPropertyOp14
 70
     2
102
RTVSPropertyOp15
 70
     0
102
RTVSPropertyOp16
 70
     0
102
RTVSPropertyOp17
 70
     0
102
RTVSPropertyOp18
 70
     0
102
RTVSPropertyOp19
 70
     0
102
RTVSPropertyOp20
 70
     0
102
RTVSPropertyOp21
 70
     0
102
RTVSPropertyOp22
 70
     0
102
RTVSPropertyOp23
 70
     0
102
RTVSPropertyOp24
 70
     0
102
RTVSPropertyOp25
 70
     0
102
RTVSPropertyOp26
 70
     0
102
RTVSPropertyOp27
 70
     0
102
RTVSPropertyOp28
 70
     1
102
RTVSPropertyOp29
 70
     1
102
RTVSPropertyOp30
 70
     1
102
RTVSPropertyOp31
 70
     1
102
RTVSPropertyOp32
 70
     1
102
RTVSPropertyOp33
 70
     1
102
RTVSPropertyOp34
 70
     1
102
RTVSPropertyOp35
 70
     1
102
RTVSPropertyOp36
 70
     1
102
RTVSPropertyOp37
 70
     0
102
RTVSPropertyOp38
 70
     0
102
RTVSPropertyOp39
 70
     0
102
RTVSPropertyOp40
 70
     0
102
RTVSPropertyOp41
 70
     0
102
RTVSPropertyOp42
 70
     0
102
RTVSPropertyOp43
 70
     0
102
RTVSPropertyOp44
 70
     0
102
RTVSPropertyOp45
 70
     1
102
RTVSPropertyOp46
 70
     0
102
RTVSPropertyOp47
 70
     0
102
RTVSPropertyOp48
 70
     0
102
RTVSPropertyOp49
 70
     1
102
RTVSPropertyOp50
 70
     0
102
RTVSPropertyOp51
 70
     0
102
RTVSPropertyOp52
 70
     0
102
RTVSPropertyOp53
 70
     0
102
RTVSPropertyOp54
 70
     0
102
RTVSPropertyOp55
 70
     1
102
RTVSPropertyOp56
 70
     0
102
RTVSPropertyOp57
 70
     0
102
RTVSPropertyOp58
 70
     0
102
RTVSPropertyOp59
 70
     0
102
RTVSPropertyOp60
 70
     0
102
RTVSPropertyOp61
 70
     0
102
RTVSPropertyOp62
 70
     0
  0
XRECORD
  5
2450
102
{ACAD_REACTORS
330
244F
102
}
330
244F
100
AcDbXrecord
280
     1
102
RTVSPost2010Prop28
280
     0
102
RTVSPost2010PropOp28
 70
     1
102
RTVSPost2010Prop29
280
     1
102
RTVSPost2010PropOp29
 70
     1
102
RTVSPost2010Prop30
280
     1
102
RTVSPost2010PropOp30
 70
     1
102
RTVSPost2010Prop31
280
     0
102
RTVSPost2010PropOp31
 70
     1
102
RTVSPost2010Prop32
280
     0
102
RTVSPost2010PropOp32
 70
     1
102
RTVSPost2010Prop33
280
     0
102
RTVSPost2010PropOp33
 70
     1
102
RTVSPost2010Prop34
280
     0
102
RTVSPost2010PropOp34
 70
     1
102
RTVSPost2010Prop35
280
     0
102
RTVSPost2010PropOp35
 70
     1
102
RTVSPost2010Prop36
280
     0
102
RTVSPost2010PropOp36
 70
     1
102
RTVSPost2010Prop37
 90
       50
102
RTVSPost2010PropOp37
 70
     1
102
RTVSPost2010Prop38
140
0.0
102
RTVSPost2010PropOp38
 70
     1
102
RTVSPost2010Prop39
140
1.0
102
RTVSPost2010PropOp39
 70
     1
102
RTVSPost2010Prop40
 90
        0
102
RTVSPost2010PropOp40
 70
     1
102
RTVSPost2010Prop41ColorIndex
 90
       18
102
RTVSPost2010Prop41ColorRGB
 90
        0
102
RTVSPost2010PropOp41
 70
     1
102
RTVSPost2010Prop42
 90
       50
102
RTVSPost2010PropOp42
 70
     1
102
RTVSPost2010Prop43
 90
        3
102
RTVSPost2010PropOp43
 70
     1
102
RTVSPost2010Prop44ColorIndex
 90
        5
102
RTVSPost2010Prop44ColorRGB
 90
      255
102
RTVSPost2010PropOp44
 70
     1
102
RTVSPost2010Prop45
280
     0
102
RTVSPost2010PropOp45
 70
     1
102
RTVSPost2010Prop46
 90
       50
102
RTVSPost2010PropOp46
 70
     1
102
RTVSPost2010Prop47
 90
       50
102
RTVSPost2010PropOp47
 70
     1
102
RTVSPost2010Prop48
 90
       50
102
RTVSPost2010PropOp48
 70
     1
102
RTVSPost2010Prop49
280
     0
102
RTVSPost2010PropOp49
 70
     1
102
RTVSPost2010Prop50
 90
       50
102
RTVSPost2010PropOp50
 70
     1
102
RTVSPost2010Prop51ColorIndex
 90
      256
102
RTVSPost2010Prop51ColorRGB
 90
-16777216
102
RTVSPost2010PropOp51
 70
     0
102
RTVSPost2010Prop52
140
1.0
102
RTVSPost2010PropOp52
 70
     0
102
RTVSPost2010Prop53
 90
        2
102
RTVSPost2010PropOp53
 70
     1
102
RTVSPost2010Prop54
  1
strokes_ogs.tif
102
RTVSPost2010PropOp54
 70
     1
102
RTVSPost2010Prop55
280
     0
102
RTVSPost2010PropOp55
 70
     1
102
RTVSPost2010Prop56
140
1.0
102
RTVSPost2010PropOp56
 70
     1
102
RTVSPost2010Prop57
140
1.0
102
RTVSPost2010PropOp57
 70
     1
102
RTVSPropertyOp0
 70
     1
102
RTVSPropertyOp1
 70
     1
102
RTVSPropertyOp2
 70
     1
102
RTVSPropertyOp3
 70
     1
102
RTVSPropertyOp4
 70
     1
102
RTVSPropertyOp5
 70
     1
102
RTVSPropertyOp6
 70
     1
102
RTVSPropertyOp7
 70
     1
102
RTVSPropertyOp8
 70
     1
102
RTVSPropertyOp9
 70
     1
102
RTVSPropertyOp10
 70
     1
102
RTVSPropertyOp11
 70
     1
102
RTVSPropertyOp12
 70
     1
102
RTVSPropertyOp13
 70
     1
102
RTVSPropertyOp14
 70
     1
102
RTVSPropertyOp15
 70
     1
102
RTVSPropertyOp16
 70
     1
102
RTVSPropertyOp17
 70
     1
102
RTVSPropertyOp18
 70
     1
102
RTVSPropertyOp19
 70
     1
102
RTVSPropertyOp20
 70
     1
102
RTVSPropertyOp21
 70
     1
102
RTVSPropertyOp22
 70
     1
102
RTVSPropertyOp23
 70
     1
102
RTVSPropertyOp24
 70
     1
102
RTVSPropertyOp25
 70
     1
102
RTVSPropertyOp26
 70
     1
102
RTVSPropertyOp27
 70
     1
102
RTVSPropertyOp28
 70
     1
102
RTVSPropertyOp29
 70
     1
102
RTVSPropertyOp30
 70
     1
102
RTVSPropertyOp31
 70
     1
102
RTVSPropertyOp32
 70
     1
102
RTVSPropertyOp33
 70
     1
102
RTVSPropertyOp34
 70
     1
102
RTVSPropertyOp35
 70
     1
102
RTVSPropertyOp36
 70
     1
102
RTVSPropertyOp37
 70
     1
102
RTVSPropertyOp38
 70
     1
102
RTVSPropertyOp39
 70
     1
102
RTVSPropertyOp40
 70
     1
102
RTVSPropertyOp41
 70
     1
102
RTVSPropertyOp42
 70
     1
102
RTVSPropertyOp43
 70
     1
102
RTVSPropertyOp44
 70
     1
102
RTVSPropertyOp45
 70
     1
102
RTVSPropertyOp46
 70
     1
102
RTVSPropertyOp47
 70
     1
102
RTVSPropertyOp48
 70
     1
102
RTVSPropertyOp49
 70
     1
102
RTVSPropertyOp50
 70
     1
102
RTVSPropertyOp51
 70
     0
102
RTVSPropertyOp52
 70
     0
102
RTVSPropertyOp53
 70
     1
102
RTVSPropertyOp54
 70
     1
102
RTVSPropertyOp55
 70
     1
102
RTVSPropertyOp56
 70
     1
102
RTVSPropertyOp57
 70
     1
102
RTVSPropertyOp58
 70
     1
102
RTVSPropertyOp59
 70
     1
102
RTVSPropertyOp60
 70
     1
102
RTVSPropertyOp61
 70
     1
102
RTVSPropertyOp62
 70
     1
  0
XRECORD
  5
2462
102
{ACAD_REACTORS
330
2461
102
}
330
2461
100
AcDbXrecord
280
     1
102
RTVSPost2010Prop28
280
     0
102
RTVSPost2010PropOp28
 70
     1
102
RTVSPost2010Prop29
280
     1
102
RTVSPost2010PropOp29
 70
     1
102
RTVSPost2010Prop30
280
     1
102
RTVSPost2010PropOp30
 70
     1
102
RTVSPost2010Prop31
280
     0
102
RTVSPost2010PropOp31
 70
     1
102
RTVSPost2010Prop32
280
     0
102
RTVSPost2010PropOp32
 70
     1
102
RTVSPost2010Prop33
280
     0
102
RTVSPost2010PropOp33
 70
     1
102
RTVSPost2010Prop34
280
     0
102
RTVSPost2010PropOp34
 70
     1
102
RTVSPost2010Prop35
280
     0
102
RTVSPost2010PropOp35
 70
     1
102
RTVSPost2010Prop36
280
     0
102
RTVSPost2010PropOp36
 70
     1
102
RTVSPost2010Prop37
 90
       50
102
RTVSPost2010PropOp37
 70
     0
102
RTVSPost2010Prop38
140
0.0
102
RTVSPost2010PropOp38
 70
     0
102
RTVSPost2010Prop39
140
1.0
102
RTVSPost2010PropOp39
 70
     0
102
RTVSPost2010Prop40
 90
        0
102
RTVSPost2010PropOp40
 70
     0
102
RTVSPost2010Prop41ColorIndex
 90
       18
102
RTVSPost2010Prop41ColorRGB
 90
        0
102
RTVSPost2010PropOp41
 70
     0
102
RTVSPost2010Prop42
 90
       50
102
RTVSPost2010PropOp42
 70
     0
102
RTVSPost2010Prop43
 90
        3
102
RTVSPost2010PropOp43
 70
     0
102
RTVSPost2010Prop44ColorIndex
 90
        5
102
RTVSPost2010Prop44ColorRGB
 90
      255
102
RTVSPost2010PropOp44
 70
     0
102
RTVSPost2010Prop45
280
     0
102
RTVSPost2010PropOp45
 70
     1
102
RTVSPost2010Prop46
 90
       50
102
RTVSPost2010PropOp46
 70
     0
102
RTVSPost2010Prop47
 90
       50
102
RTVSPost2010PropOp47
 70
     0
102
RTVSPost2010Prop48
 90
       50
102
RTVSPost2010PropOp48
 70
     0
102
RTVSPost2010Prop49
280
     0
102
RTVSPost2010PropOp49
 70
     1
102
RTVSPost2010Prop50
 90
       50
102
RTVSPost2010PropOp50
 70
     0
102
RTVSPost2010Prop51ColorIndex
 90
      256
102
RTVSPost2010Prop51ColorRGB
 90
-16777216
102
RTVSPost2010PropOp51
 70
     0
102
RTVSPost2010Prop52
140
1.0
102
RTVSPost2010PropOp52
 70
     0
102
RTVSPost2010Prop53
 90
        2
102
RTVSPost2010PropOp53
 70
     0
102
RTVSPost2010Prop54
  1
strokes_ogs.tif
102
RTVSPost2010PropOp54
 70
     0
102
RTVSPost2010Prop55
280
     0
102
RTVSPost2010PropOp55
 70
     1
102
RTVSPost2010Prop56
140
1.0
102
RTVSPost2010PropOp56
 70
     0
102
RTVSPost2010Prop57
140
1.0
102
RTVSPost2010PropOp57
 70
     0
102
RTVSPropertyOp0
 70
     0
102
RTVSPropertyOp1
 70
     0
102
RTVSPropertyOp2
 70
     0
102
RTVSPropertyOp3
 70
     0
102
RTVSPropertyOp4
 70
     0
102
RTVSPropertyOp5
 70
     0
102
RTVSPropertyOp6
 70
     0
102
RTVSPropertyOp7
 70
     0
102
RTVSPropertyOp8
 70
     0
102
RTVSPropertyOp9
 70
     0
102
RTVSPropertyOp10
 70
     0
102
RTVSPropertyOp11
 70
     0
102
RTVSPropertyOp12
 70
     0
102
RTVSPropertyOp13
 70
     0
102
RTVSPropertyOp14
 70
     2
102
RTVSPropertyOp15
 70
     0
102
RTVSPropertyOp16
 70
     0
102
RTVSPropertyOp17
 70
     0
102
RTVSPropertyOp18
 70
     0
102
RTVSPropertyOp19
 70
     0
102
RTVSPropertyOp20
 70
     0
102
RTVSPropertyOp21
 70
     0
102
RTVSPropertyOp22
 70
     0
102
RTVSPropertyOp23
 70
     0
102
RTVSPropertyOp24
 70
     0
102
RTVSPropertyOp25
 70
     0
102
RTVSPropertyOp26
 70
     0
102
RTVSPropertyOp27
 70
     0
102
RTVSPropertyOp28
 70
     1
102
RTVSPropertyOp29
 70
     1
102
RTVSPropertyOp30
 70
     1
102
RTVSPropertyOp31
 70
     1
102
RTVSPropertyOp32
 70
     1
102
RTVSPropertyOp33
 70
     1
102
RTVSPropertyOp34
 70
     1
102
RTVSPropertyOp35
 70
     1
102
RTVSPropertyOp36
 70
     1
102
RTVSPropertyOp37
 70
     0
102
RTVSPropertyOp38
 70
     0
102
RTVSPropertyOp39
 70
     0
102
RTVSPropertyOp40
 70
     0
102
RTVSPropertyOp41
 70
     0
102
RTVSPropertyOp42
 70
     0
102
RTVSPropertyOp43
 70
     0
102
RTVSPropertyOp44
 70
     0
102
RTVSPropertyOp45
 70
     1
102
RTVSPropertyOp46
 70
     0
102
RTVSPropertyOp47
 70
     0
102
RTVSPropertyOp48
 70
     0
102
RTVSPropertyOp49
 70
     1
102
RTVSPropertyOp50
 70
     0
102
RTVSPropertyOp51
 70
     0
102
RTVSPropertyOp52
 70
     0
102
RTVSPropertyOp53
 70
     0
102
RTVSPropertyOp54
 70
     0
102
RTVSPropertyOp55
 70
     1
102
RTVSPropertyOp56
 70
     0
102
RTVSPropertyOp57
 70
     0
102
RTVSPropertyOp58
 70
     0
102
RTVSPropertyOp59
 70
     0
102
RTVSPropertyOp60
 70
     0
102
RTVSPropertyOp61
 70
     0
102
RTVSPropertyOp62
 70
     0
  0
XRECORD
  5
2448
102
{ACAD_REACTORS
330
2447
102
}
330
2447
100
AcDbXrecord
280
     1
102
RTVSPost2010Prop28
280
     0
102
RTVSPost2010PropOp28
 70
     1
102
RTVSPost2010Prop29
280
     1
102
RTVSPost2010PropOp29
 70
     1
102
RTVSPost2010Prop30
280
     1
102
RTVSPost2010PropOp30
 70
     1
102
RTVSPost2010Prop31
280
     0
102
RTVSPost2010PropOp31
 70
     1
102
RTVSPost2010Prop32
280
     0
102
RTVSPost2010PropOp32
 70
     1
102
RTVSPost2010Prop33
280
     0
102
RTVSPost2010PropOp33
 70
     1
102
RTVSPost2010Prop34
280
     0
102
RTVSPost2010PropOp34
 70
     1
102
RTVSPost2010Prop35
280
     0
102
RTVSPost2010PropOp35
 70
     1
102
RTVSPost2010Prop36
280
     0
102
RTVSPost2010PropOp36
 70
     1
102
RTVSPost2010Prop37
 90
       50
102
RTVSPost2010PropOp37
 70
     1
102
RTVSPost2010Prop38
140
0.0
102
RTVSPost2010PropOp38
 70
     1
102
RTVSPost2010Prop39
140
1.0
102
RTVSPost2010PropOp39
 70
     1
102
RTVSPost2010Prop40
 90
        0
102
RTVSPost2010PropOp40
 70
     1
102
RTVSPost2010Prop41ColorIndex
 90
       18
102
RTVSPost2010Prop41ColorRGB
 90
        0
102
RTVSPost2010PropOp41
 70
     1
102
RTVSPost2010Prop42
 90
       50
102
RTVSPost2010PropOp42
 70
     1
102
RTVSPost2010Prop43
 90
        3
102
RTVSPost2010PropOp43
 70
     1
102
RTVSPost2010Prop44ColorIndex
 90
        5
102
RTVSPost2010Prop44ColorRGB
 90
      255
102
RTVSPost2010PropOp44
 70
     1
102
RTVSPost2010Prop45
280
     0
102
RTVSPost2010PropOp45
 70
     1
102
RTVSPost2010Prop46
 90
       50
102
RTVSPost2010PropOp46
 70
     1
102
RTVSPost2010Prop47
 90
       50
102
RTVSPost2010PropOp47
 70
     1
102
RTVSPost2010Prop48
 90
       50
102
RTVSPost2010PropOp48
 70
     1
102
RTVSPost2010Prop49
280
     0
102
RTVSPost2010PropOp49
 70
     1
102
RTVSPost2010Prop50
 90
       50
102
RTVSPost2010PropOp50
 70
     1
102
RTVSPost2010Prop51ColorIndex
 90
      256
102
RTVSPost2010Prop51ColorRGB
 90
-16777216
102
RTVSPost2010PropOp51
 70
     0
102
RTVSPost2010Prop52
140
1.0
102
RTVSPost2010PropOp52
 70
     0
102
RTVSPost2010Prop53
 90
        2
102
RTVSPost2010PropOp53
 70
     1
102
RTVSPost2010Prop54
  1
strokes_ogs.tif
102
RTVSPost2010PropOp54
 70
     1
102
RTVSPost2010Prop55
280
     0
102
RTVSPost2010PropOp55
 70
     1
102
RTVSPost2010Prop56
140
1.0
102
RTVSPost2010PropOp56
 70
     1
102
RTVSPost2010Prop57
140
1.0
102
RTVSPost2010PropOp57
 70
     1
102
RTVSPropertyOp0
 70
     1
102
RTVSPropertyOp1
 70
     1
102
RTVSPropertyOp2
 70
     1
102
RTVSPropertyOp3
 70
     1
102
RTVSPropertyOp4
 70
     1
102
RTVSPropertyOp5
 70
     1
102
RTVSPropertyOp6
 70
     1
102
RTVSPropertyOp7
 70
     1
102
RTVSPropertyOp8
 70
     1
102
RTVSPropertyOp9
 70
     1
102
RTVSPropertyOp10
 70
     1
102
RTVSPropertyOp11
 70
     1
102
RTVSPropertyOp12
 70
     1
102
RTVSPropertyOp13
 70
     1
102
RTVSPropertyOp14
 70
     1
102
RTVSPropertyOp15
 70
     1
102
RTVSPropertyOp16
 70
     1
102
RTVSPropertyOp17
 70
     1
102
RTVSPropertyOp18
 70
     1
102
RTVSPropertyOp19
 70
     1
102
RTVSPropertyOp20
 70
     1
102
RTVSPropertyOp21
 70
     1
102
RTVSPropertyOp22
 70
     1
102
RTVSPropertyOp23
 70
     1
102
RTVSPropertyOp24
 70
     1
102
RTVSPropertyOp25
 70
     1
102
RTVSPropertyOp26
 70
     1
102
RTVSPropertyOp27
 70
     1
102
RTVSPropertyOp28
 70
     1
102
RTVSPropertyOp29
 70
     1
102
RTVSPropertyOp30
 70
     1
102
RTVSPropertyOp31
 70
     1
102
RTVSPropertyOp32
 70
     1
102
RTVSPropertyOp33
 70
     1
102
RTVSPropertyOp34
 70
     1
102
RTVSPropertyOp35
 70
     1
102
RTVSPropertyOp36
 70
     1
102
RTVSPropertyOp37
 70
     1
102
RTVSPropertyOp38
 70
     1
102
RTVSPropertyOp39
 70
     1
102
RTVSPropertyOp40
 70
     1
102
RTVSPropertyOp41
 70
     1
102
RTVSPropertyOp42
 70
     1
102
RTVSPropertyOp43
 70
     1
102
RTVSPropertyOp44
 70
     1
102
RTVSPropertyOp45
 70
     1
102
RTVSPropertyOp46
 70
     1
102
RTVSPropertyOp47
 70
     1
102
RTVSPropertyOp48
 70
     1
102
RTVSPropertyOp49
 70
     1
102
RTVSPropertyOp50
 70
     1
102
RTVSPropertyOp51
 70
     0
102
RTVSPropertyOp52
 70
     0
102
RTVSPropertyOp53
 70
     1
102
RTVSPropertyOp54
 70
     1
102
RTVSPropertyOp55
 70
     1
102
RTVSPropertyOp56
 70
     1
102
RTVSPropertyOp57
 70
     1
102
RTVSPropertyOp58
 70
     1
102
RTVSPropertyOp59
 70
     1
102
RTVSPropertyOp60
 70
     1
102
RTVSPropertyOp61
 70
     1
102
RTVSPropertyOp62
 70
     1
  0
XRECORD
  5
245E
102
{ACAD_REACTORS
330
245D
102
}
330
245D
100
AcDbXrecord
280
     1
102
RTVSPost2010Prop28
280
     0
102
RTVSPost2010PropOp28
 70
     1
102
RTVSPost2010Prop29
280
     1
102
RTVSPost2010PropOp29
 70
     1
102
RTVSPost2010Prop30
280
     1
102
RTVSPost2010PropOp30
 70
     1
102
RTVSPost2010Prop31
280
     0
102
RTVSPost2010PropOp31
 70
     1
102
RTVSPost2010Prop32
280
     0
102
RTVSPost2010PropOp32
 70
     1
102
RTVSPost2010Prop33
280
     0
102
RTVSPost2010PropOp33
 70
     1
102
RTVSPost2010Prop34
280
     0
102
RTVSPost2010PropOp34
 70
     1
102
RTVSPost2010Prop35
280
     0
102
RTVSPost2010PropOp35
 70
     1
102
RTVSPost2010Prop36
280
     0
102
RTVSPost2010PropOp36
 70
     1
102
RTVSPost2010Prop37
 90
       50
102
RTVSPost2010PropOp37
 70
     1
102
RTVSPost2010Prop38
140
0.0
102
RTVSPost2010PropOp38
 70
     1
102
RTVSPost2010Prop39
140
1.0
102
RTVSPost2010PropOp39
 70
     1
102
RTVSPost2010Prop40
 90
        0
102
RTVSPost2010PropOp40
 70
     1
102
RTVSPost2010Prop41ColorIndex
 90
       18
102
RTVSPost2010Prop41ColorRGB
 90
        0
102
RTVSPost2010PropOp41
 70
     1
102
RTVSPost2010Prop42
 90
       50
102
RTVSPost2010PropOp42
 70
     1
102
RTVSPost2010Prop43
 90
        3
102
RTVSPost2010PropOp43
 70
     1
102
RTVSPost2010Prop44ColorIndex
 90
        5
102
RTVSPost2010Prop44ColorRGB
 90
      255
102
RTVSPost2010PropOp44
 70
     1
102
RTVSPost2010Prop45
280
     0
102
RTVSPost2010PropOp45
 70
     1
102
RTVSPost2010Prop46
 90
       50
102
RTVSPost2010PropOp46
 70
     1
102
RTVSPost2010Prop47
 90
       50
102
RTVSPost2010PropOp47
 70
     1
102
RTVSPost2010Prop48
 90
       50
102
RTVSPost2010PropOp48
 70
     1
102
RTVSPost2010Prop49
280
     0
102
RTVSPost2010PropOp49
 70
     1
102
RTVSPost2010Prop50
 90
       50
102
RTVSPost2010PropOp50
 70
     1
102
RTVSPost2010Prop51ColorIndex
 90
      256
102
RTVSPost2010Prop51ColorRGB
 90
-16777216
102
RTVSPost2010PropOp51
 70
     0
102
RTVSPost2010Prop52
140
1.0
102
RTVSPost2010PropOp52
 70
     0
102
RTVSPost2010Prop53
 90
        2
102
RTVSPost2010PropOp53
 70
     1
102
RTVSPost2010Prop54
  1
strokes_ogs.tif
102
RTVSPost2010PropOp54
 70
     1
102
RTVSPost2010Prop55
280
     0
102
RTVSPost2010PropOp55
 70
     1
102
RTVSPost2010Prop56
140
1.0
102
RTVSPost2010PropOp56
 70
     1
102
RTVSPost2010Prop57
140
1.0
102
RTVSPost2010PropOp57
 70
     1
102
RTVSPropertyOp0
 70
     1
102
RTVSPropertyOp1
 70
     1
102
RTVSPropertyOp2
 70
     1
102
RTVSPropertyOp3
 70
     1
102
RTVSPropertyOp4
 70
     1
102
RTVSPropertyOp5
 70
     1
102
RTVSPropertyOp6
 70
     1
102
RTVSPropertyOp7
 70
     1
102
RTVSPropertyOp8
 70
     1
102
RTVSPropertyOp9
 70
     1
102
RTVSPropertyOp10
 70
     1
102
RTVSPropertyOp11
 70
     1
102
RTVSPropertyOp12
 70
     1
102
RTVSPropertyOp13
 70
     1
102
RTVSPropertyOp14
 70
     1
102
RTVSPropertyOp15
 70
     1
102
RTVSPropertyOp16
 70
     1
102
RTVSPropertyOp17
 70
     1
102
RTVSPropertyOp18
 70
     1
102
RTVSPropertyOp19
 70
     1
102
RTVSPropertyOp20
 70
     1
102
RTVSPropertyOp21
 70
     1
102
RTVSPropertyOp22
 70
     1
102
RTVSPropertyOp23
 70
     1
102
RTVSPropertyOp24
 70
     1
102
RTVSPropertyOp25
 70
     1
102
RTVSPropertyOp26
 70
     1
102
RTVSPropertyOp27
 70
     1
102
RTVSPropertyOp28
 70
     1
102
RTVSPropertyOp29
 70
     1
102
RTVSPropertyOp30
 70
     1
102
RTVSPropertyOp31
 70
     1
102
RTVSPropertyOp32
 70
     1
102
RTVSPropertyOp33
 70
     1
102
RTVSPropertyOp34
 70
     1
102
RTVSPropertyOp35
 70
     1
102
RTVSPropertyOp36
 70
     1
102
RTVSPropertyOp37
 70
     1
102
RTVSPropertyOp38
 70
     1
102
RTVSPropertyOp39
 70
     1
102
RTVSPropertyOp40
 70
     1
102
RTVSPropertyOp41
 70
     1
102
RTVSPropertyOp42
 70
     1
102
RTVSPropertyOp43
 70
     1
102
RTVSPropertyOp44
 70
     1
102
RTVSPropertyOp45
 70
     1
102
RTVSPropertyOp46
 70
     1
102
RTVSPropertyOp47
 70
     1
102
RTVSPropertyOp48
 70
     1
102
RTVSPropertyOp49
 70
     1
102
RTVSPropertyOp50
 70
     1
102
RTVSPropertyOp51
 70
     0
102
RTVSPropertyOp52
 70
     0
102
RTVSPropertyOp53
 70
     1
102
RTVSPropertyOp54
 70
     1
102
RTVSPropertyOp55
 70
     1
102
RTVSPropertyOp56
 70
     1
102
RTVSPropertyOp57
 70
     1
102
RTVSPropertyOp58
 70
     1
102
RTVSPropertyOp59
 70
     1
102
RTVSPropertyOp60
 70
     1
102
RTVSPropertyOp61
 70
     1
102
RTVSPropertyOp62
 70
     1
  0
XRECORD
  5
245C
102
{ACAD_REACTORS
330
245B
102
}
330
245B
100
AcDbXrecord
280
     1
102
RTVSPost2010Prop28
280
     0
102
RTVSPost2010PropOp28
 70
     1
102
RTVSPost2010Prop29
280
     1
102
RTVSPost2010PropOp29
 70
     1
102
RTVSPost2010Prop30
280
     1
102
RTVSPost2010PropOp30
 70
     1
102
RTVSPost2010Prop31
280
     0
102
RTVSPost2010PropOp31
 70
     1
102
RTVSPost2010Prop32
280
     0
102
RTVSPost2010PropOp32
 70
     1
102
RTVSPost2010Prop33
280
     0
102
RTVSPost2010PropOp33
 70
     1
102
RTVSPost2010Prop34
280
     0
102
RTVSPost2010PropOp34
 70
     1
102
RTVSPost2010Prop35
280
     0
102
RTVSPost2010PropOp35
 70
     1
102
RTVSPost2010Prop36
280
     0
102
RTVSPost2010PropOp36
 70
     1
102
RTVSPost2010Prop37
 90
       50
102
RTVSPost2010PropOp37
 70
     1
102
RTVSPost2010Prop38
140
0.0
102
RTVSPost2010PropOp38
 70
     1
102
RTVSPost2010Prop39
140
1.0
102
RTVSPost2010PropOp39
 70
     1
102
RTVSPost2010Prop40
 90
        0
102
RTVSPost2010PropOp40
 70
     1
102
RTVSPost2010Prop41ColorIndex
 90
       18
102
RTVSPost2010Prop41ColorRGB
 90
        0
102
RTVSPost2010PropOp41
 70
     1
102
RTVSPost2010Prop42
 90
       50
102
RTVSPost2010PropOp42
 70
     1
102
RTVSPost2010Prop43
 90
        3
102
RTVSPost2010PropOp43
 70
     1
102
RTVSPost2010Prop44ColorIndex
 90
        5
102
RTVSPost2010Prop44ColorRGB
 90
      255
102
RTVSPost2010PropOp44
 70
     1
102
RTVSPost2010Prop45
280
     0
102
RTVSPost2010PropOp45
 70
     1
102
RTVSPost2010Prop46
 90
       50
102
RTVSPost2010PropOp46
 70
     1
102
RTVSPost2010Prop47
 90
       50
102
RTVSPost2010PropOp47
 70
     1
102
RTVSPost2010Prop48
 90
       50
102
RTVSPost2010PropOp48
 70
     1
102
RTVSPost2010Prop49
280
     0
102
RTVSPost2010PropOp49
 70
     1
102
RTVSPost2010Prop50
 90
       50
102
RTVSPost2010PropOp50
 70
     1
102
RTVSPost2010Prop51ColorIndex
 90
      256
102
RTVSPost2010Prop51ColorRGB
 90
-16777216
102
RTVSPost2010PropOp51
 70
     0
102
RTVSPost2010Prop52
140
1.0
102
RTVSPost2010PropOp52
 70
     0
102
RTVSPost2010Prop53
 90
        2
102
RTVSPost2010PropOp53
 70
     1
102
RTVSPost2010Prop54
  1
strokes_ogs.tif
102
RTVSPost2010PropOp54
 70
     1
102
RTVSPost2010Prop55
280
     0
102
RTVSPost2010PropOp55
 70
     1
102
RTVSPost2010Prop56
140
1.0
102
RTVSPost2010PropOp56
 70
     1
102
RTVSPost2010Prop57
140
1.0
102
RTVSPost2010PropOp57
 70
     1
102
RTVSPropertyOp0
 70
     1
102
RTVSPropertyOp1
 70
     1
102
RTVSPropertyOp2
 70
     1
102
RTVSPropertyOp3
 70
     1
102
RTVSPropertyOp4
 70
     1
102
RTVSPropertyOp5
 70
     1
102
RTVSPropertyOp6
 70
     1
102
RTVSPropertyOp7
 70
     1
102
RTVSPropertyOp8
 70
     1
102
RTVSPropertyOp9
 70
     1
102
RTVSPropertyOp10
 70
     1
102
RTVSPropertyOp11
 70
     1
102
RTVSPropertyOp12
 70
     1
102
RTVSPropertyOp13
 70
     1
102
RTVSPropertyOp14
 70
     1
102
RTVSPropertyOp15
 70
     1
102
RTVSPropertyOp16
 70
     1
102
RTVSPropertyOp17
 70
     1
102
RTVSPropertyOp18
 70
     1
102
RTVSPropertyOp19
 70
     1
102
RTVSPropertyOp20
 70
     1
102
RTVSPropertyOp21
 70
     1
102
RTVSPropertyOp22
 70
     1
102
RTVSPropertyOp23
 70
     1
102
RTVSPropertyOp24
 70
     1
102
RTVSPropertyOp25
 70
     1
102
RTVSPropertyOp26
 70
     1
102
RTVSPropertyOp27
 70
     1
102
RTVSPropertyOp28
 70
     1
102
RTVSPropertyOp29
 70
     1
102
RTVSPropertyOp30
 70
     1
102
RTVSPropertyOp31
 70
     1
102
RTVSPropertyOp32
 70
     1
102
RTVSPropertyOp33
 70
     1
102
RTVSPropertyOp34
 70
     1
102
RTVSPropertyOp35
 70
     1
102
RTVSPropertyOp36
 70
     1
102
RTVSPropertyOp37
 70
     1
102
RTVSPropertyOp38
 70
     1
102
RTVSPropertyOp39
 70
     1
102
RTVSPropertyOp40
 70
     1
102
RTVSPropertyOp41
 70
     1
102
RTVSPropertyOp42
 70
     1
102
RTVSPropertyOp43
 70
     1
102
RTVSPropertyOp44
 70
     1
102
RTVSPropertyOp45
 70
     1
102
RTVSPropertyOp46
 70
     1
102
RTVSPropertyOp47
 70
     1
102
RTVSPropertyOp48
 70
     1
102
RTVSPropertyOp49
 70
     1
102
RTVSPropertyOp50
 70
     1
102
RTVSPropertyOp51
 70
     0
102
RTVSPropertyOp52
 70
     0
102
RTVSPropertyOp53
 70
     1
102
RTVSPropertyOp54
 70
     1
102
RTVSPropertyOp55
 70
     1
102
RTVSPropertyOp56
 70
     1
102
RTVSPropertyOp57
 70
     1
102
RTVSPropertyOp58
 70
     1
102
RTVSPropertyOp59
 70
     1
102
RTVSPropertyOp60
 70
     1
102
RTVSPropertyOp61
 70
     1
102
RTVSPropertyOp62
 70
     1
  0
XRECORD
  5
2456
102
{ACAD_REACTORS
330
2455
102
}
330
2455
100
AcDbXrecord
280
     1
102
RTVSPost2010Prop28
280
     0
102
RTVSPost2010PropOp28
 70
     1
102
RTVSPost2010Prop29
280
     1
102
RTVSPost2010PropOp29
 70
     1
102
RTVSPost2010Prop30
280
     1
102
RTVSPost2010PropOp30
 70
     1
102
RTVSPost2010Prop31
280
     0
102
RTVSPost2010PropOp31
 70
     1
102
RTVSPost2010Prop32
280
     0
102
RTVSPost2010PropOp32
 70
     1
102
RTVSPost2010Prop33
280
     0
102
RTVSPost2010PropOp33
 70
     1
102
RTVSPost2010Prop34
280
     0
102
RTVSPost2010PropOp34
 70
     1
102
RTVSPost2010Prop35
280
     0
102
RTVSPost2010PropOp35
 70
     1
102
RTVSPost2010Prop36
280
     0
102
RTVSPost2010PropOp36
 70
     1
102
RTVSPost2010Prop37
 90
       50
102
RTVSPost2010PropOp37
 70
     1
102
RTVSPost2010Prop38
140
0.0
102
RTVSPost2010PropOp38
 70
     1
102
RTVSPost2010Prop39
140
1.0
102
RTVSPost2010PropOp39
 70
     1
102
RTVSPost2010Prop40
 90
        0
102
RTVSPost2010PropOp40
 70
     1
102
RTVSPost2010Prop41ColorIndex
 90
       18
102
RTVSPost2010Prop41ColorRGB
 90
        0
102
RTVSPost2010PropOp41
 70
     1
102
RTVSPost2010Prop42
 90
       50
102
RTVSPost2010PropOp42
 70
     1
102
RTVSPost2010Prop43
 90
        3
102
RTVSPost2010PropOp43
 70
     1
102
RTVSPost2010Prop44ColorIndex
 90
        5
102
RTVSPost2010Prop44ColorRGB
 90
      255
102
RTVSPost2010PropOp44
 70
     1
102
RTVSPost2010Prop45
280
     0
102
RTVSPost2010PropOp45
 70
     1
102
RTVSPost2010Prop46
 90
       50
102
RTVSPost2010PropOp46
 70
     1
102
RTVSPost2010Prop47
 90
       50
102
RTVSPost2010PropOp47
 70
     1
102
RTVSPost2010Prop48
 90
       50
102
RTVSPost2010PropOp48
 70
     1
102
RTVSPost2010Prop49
280
     0
102
RTVSPost2010PropOp49
 70
     1
102
RTVSPost2010Prop50
 90
       50
102
RTVSPost2010PropOp50
 70
     1
102
RTVSPost2010Prop51ColorIndex
 90
      256
102
RTVSPost2010Prop51ColorRGB
 90
-16777216
102
RTVSPost2010PropOp51
 70
     0
102
RTVSPost2010Prop52
140
1.0
102
RTVSPost2010PropOp52
 70
     0
102
RTVSPost2010Prop53
 90
        2
102
RTVSPost2010PropOp53
 70
     1
102
RTVSPost2010Prop54
  1
strokes_ogs.tif
102
RTVSPost2010PropOp54
 70
     1
102
RTVSPost2010Prop55
280
     0
102
RTVSPost2010PropOp55
 70
     1
102
RTVSPost2010Prop56
140
1.0
102
RTVSPost2010PropOp56
 70
     1
102
RTVSPost2010Prop57
140
1.0
102
RTVSPost2010PropOp57
 70
     1
102
RTVSPropertyOp0
 70
     1
102
RTVSPropertyOp1
 70
     1
102
RTVSPropertyOp2
 70
     1
102
RTVSPropertyOp3
 70
     1
102
RTVSPropertyOp4
 70
     1
102
RTVSPropertyOp5
 70
     1
102
RTVSPropertyOp6
 70
     1
102
RTVSPropertyOp7
 70
     1
102
RTVSPropertyOp8
 70
     1
102
RTVSPropertyOp9
 70
     1
102
RTVSPropertyOp10
 70
     1
102
RTVSPropertyOp11
 70
     1
102
RTVSPropertyOp12
 70
     1
102
RTVSPropertyOp13
 70
     1
102
RTVSPropertyOp14
 70
     1
102
RTVSPropertyOp15
 70
     1
102
RTVSPropertyOp16
 70
     1
102
RTVSPropertyOp17
 70
     1
102
RTVSPropertyOp18
 70
     1
102
RTVSPropertyOp19
 70
     1
102
RTVSPropertyOp20
 70
     1
102
RTVSPropertyOp21
 70
     1
102
RTVSPropertyOp22
 70
     1
102
RTVSPropertyOp23
 70
     1
102
RTVSPropertyOp24
 70
     1
102
RTVSPropertyOp25
 70
     1
102
RTVSPropertyOp26
 70
     1
102
RTVSPropertyOp27
 70
     1
102
RTVSPropertyOp28
 70
     1
102
RTVSPropertyOp29
 70
     1
102
RTVSPropertyOp30
 70
     1
102
RTVSPropertyOp31
 70
     1
102
RTVSPropertyOp32
 70
     1
102
RTVSPropertyOp33
 70
     1
102
RTVSPropertyOp34
 70
     1
102
RTVSPropertyOp35
 70
     1
102
RTVSPropertyOp36
 70
     1
102
RTVSPropertyOp37
 70
     1
102
RTVSPropertyOp38
 70
     1
102
RTVSPropertyOp39
 70
     1
102
RTVSPropertyOp40
 70
     1
102
RTVSPropertyOp41
 70
     1
102
RTVSPropertyOp42
 70
     1
102
RTVSPropertyOp43
 70
     1
102
RTVSPropertyOp44
 70
     1
102
RTVSPropertyOp45
 70
     1
102
RTVSPropertyOp46
 70
     1
102
RTVSPropertyOp47
 70
     1
102
RTVSPropertyOp48
 70
     1
102
RTVSPropertyOp49
 70
     1
102
RTVSPropertyOp50
 70
     1
102
RTVSPropertyOp51
 70
     0
102
RTVSPropertyOp52
 70
     0
102
RTVSPropertyOp53
 70
     1
102
RTVSPropertyOp54
 70
     1
102
RTVSPropertyOp55
 70
     1
102
RTVSPropertyOp56
 70
     1
102
RTVSPropertyOp57
 70
     1
102
RTVSPropertyOp58
 70
     1
102
RTVSPropertyOp59
 70
     1
102
RTVSPropertyOp60
 70
     1
102
RTVSPropertyOp61
 70
     1
102
RTVSPropertyOp62
 70
     1
  0
XRECORD
  5
2458
102
{ACAD_REACTORS
330
2457
102
}
330
2457
100
AcDbXrecord
280
     1
102
RTVSPost2010Prop28
280
     0
102
RTVSPost2010PropOp28
 70
     1
102
RTVSPost2010Prop29
280
     1
102
RTVSPost2010PropOp29
 70
     1
102
RTVSPost2010Prop30
280
     1
102
RTVSPost2010PropOp30
 70
     1
102
RTVSPost2010Prop31
280
     0
102
RTVSPost2010PropOp31
 70
     1
102
RTVSPost2010Prop32
280
     0
102
RTVSPost2010PropOp32
 70
     1
102
RTVSPost2010Prop33
280
     0
102
RTVSPost2010PropOp33
 70
     1
102
RTVSPost2010Prop34
280
     0
102
RTVSPost2010PropOp34
 70
     1
102
RTVSPost2010Prop35
280
     0
102
RTVSPost2010PropOp35
 70
     1
102
RTVSPost2010Prop36
280
     0
102
RTVSPost2010PropOp36
 70
     1
102
RTVSPost2010Prop37
 90
       50
102
RTVSPost2010PropOp37
 70
     1
102
RTVSPost2010Prop38
140
0.0
102
RTVSPost2010PropOp38
 70
     1
102
RTVSPost2010Prop39
140
1.0
102
RTVSPost2010PropOp39
 70
     1
102
RTVSPost2010Prop40
 90
        0
102
RTVSPost2010PropOp40
 70
     1
102
RTVSPost2010Prop41ColorIndex
 90
       18
102
RTVSPost2010Prop41ColorRGB
 90
        0
102
RTVSPost2010PropOp41
 70
     1
102
RTVSPost2010Prop42
 90
       50
102
RTVSPost2010PropOp42
 70
     1
102
RTVSPost2010Prop43
 90
        3
102
RTVSPost2010PropOp43
 70
     1
102
RTVSPost2010Prop44ColorIndex
 90
        5
102
RTVSPost2010Prop44ColorRGB
 90
      255
102
RTVSPost2010PropOp44
 70
     1
102
RTVSPost2010Prop45
280
     0
102
RTVSPost2010PropOp45
 70
     1
102
RTVSPost2010Prop46
 90
       50
102
RTVSPost2010PropOp46
 70
     1
102
RTVSPost2010Prop47
 90
       50
102
RTVSPost2010PropOp47
 70
     1
102
RTVSPost2010Prop48
 90
       50
102
RTVSPost2010PropOp48
 70
     1
102
RTVSPost2010Prop49
280
     0
102
RTVSPost2010PropOp49
 70
     1
102
RTVSPost2010Prop50
 90
       50
102
RTVSPost2010PropOp50
 70
     1
102
RTVSPost2010Prop51ColorIndex
 90
      256
102
RTVSPost2010Prop51ColorRGB
 90
-16777216
102
RTVSPost2010PropOp51
 70
     0
102
RTVSPost2010Prop52
140
1.0
102
RTVSPost2010PropOp52
 70
     0
102
RTVSPost2010Prop53
 90
        2
102
RTVSPost2010PropOp53
 70
     1
102
RTVSPost2010Prop54
  1
strokes_ogs.tif
102
RTVSPost2010PropOp54
 70
     1
102
RTVSPost2010Prop55
280
     0
102
RTVSPost2010PropOp55
 70
     1
102
RTVSPost2010Prop56
140
1.0
102
RTVSPost2010PropOp56
 70
     1
102
RTVSPost2010Prop57
140
1.0
102
RTVSPost2010PropOp57
 70
     1
102
RTVSPropertyOp0
 70
     1
102
RTVSPropertyOp1
 70
     1
102
RTVSPropertyOp2
 70
     1
102
RTVSPropertyOp3
 70
     1
102
RTVSPropertyOp4
 70
     1
102
RTVSPropertyOp5
 70
     1
102
RTVSPropertyOp6
 70
     1
102
RTVSPropertyOp7
 70
     1
102
RTVSPropertyOp8
 70
     1
102
RTVSPropertyOp9
 70
     1
102
RTVSPropertyOp10
 70
     1
102
RTVSPropertyOp11
 70
     1
102
RTVSPropertyOp12
 70
     1
102
RTVSPropertyOp13
 70
     1
102
RTVSPropertyOp14
 70
     1
102
RTVSPropertyOp15
 70
     1
102
RTVSPropertyOp16
 70
     1
102
RTVSPropertyOp17
 70
     1
102
RTVSPropertyOp18
 70
     1
102
RTVSPropertyOp19
 70
     1
102
RTVSPropertyOp20
 70
     1
102
RTVSPropertyOp21
 70
     1
102
RTVSPropertyOp22
 70
     1
102
RTVSPropertyOp23
 70
     1
102
RTVSPropertyOp24
 70
     1
102
RTVSPropertyOp25
 70
     1
102
RTVSPropertyOp26
 70
     1
102
RTVSPropertyOp27
 70
     1
102
RTVSPropertyOp28
 70
     1
102
RTVSPropertyOp29
 70
     1
102
RTVSPropertyOp30
 70
     1
102
RTVSPropertyOp31
 70
     1
102
RTVSPropertyOp32
 70
     1
102
RTVSPropertyOp33
 70
     1
102
RTVSPropertyOp34
 70
     1
102
RTVSPropertyOp35
 70
     1
102
RTVSPropertyOp36
 70
     1
102
RTVSPropertyOp37
 70
     1
102
RTVSPropertyOp38
 70
     1
102
RTVSPropertyOp39
 70
     1
102
RTVSPropertyOp40
 70
     1
102
RTVSPropertyOp41
 70
     1
102
RTVSPropertyOp42
 70
     1
102
RTVSPropertyOp43
 70
     1
102
RTVSPropertyOp44
 70
     1
102
RTVSPropertyOp45
 70
     1
102
RTVSPropertyOp46
 70
     1
102
RTVSPropertyOp47
 70
     1
102
RTVSPropertyOp48
 70
     1
102
RTVSPropertyOp49
 70
     1
102
RTVSPropertyOp50
 70
     1
102
RTVSPropertyOp51
 70
     0
102
RTVSPropertyOp52
 70
     0
102
RTVSPropertyOp53
 70
     1
102
RTVSPropertyOp54
 70
     1
102
RTVSPropertyOp55
 70
     1
102
RTVSPropertyOp56
 70
     1
102
RTVSPropertyOp57
 70
     1
102
RTVSPropertyOp58
 70
     1
102
RTVSPropertyOp59
 70
     1
102
RTVSPropertyOp60
 70
     1
102
RTVSPropertyOp61
 70
     1
102
RTVSPropertyOp62
 70
     1
  0
XRECORD
  5
244E
102
{ACAD_REACTORS
330
244D
102
}
330
244D
100
AcDbXrecord
280
     1
102
RTVSPost2010Prop28
280
     0
102
RTVSPost2010PropOp28
 70
     1
102
RTVSPost2010Prop29
280
     1
102
RTVSPost2010PropOp29
 70
     1
102
RTVSPost2010Prop30
280
     1
102
RTVSPost2010PropOp30
 70
     1
102
RTVSPost2010Prop31
280
     0
102
RTVSPost2010PropOp31
 70
     1
102
RTVSPost2010Prop32
280
     0
102
RTVSPost2010PropOp32
 70
     1
102
RTVSPost2010Prop33
280
     0
102
RTVSPost2010PropOp33
 70
     1
102
RTVSPost2010Prop34
280
     0
102
RTVSPost2010PropOp34
 70
     1
102
RTVSPost2010Prop35
280
     0
102
RTVSPost2010PropOp35
 70
     1
102
RTVSPost2010Prop36
280
     0
102
RTVSPost2010PropOp36
 70
     1
102
RTVSPost2010Prop37
 90
       50
102
RTVSPost2010PropOp37
 70
     1
102
RTVSPost2010Prop38
140
0.0
102
RTVSPost2010PropOp38
 70
     1
102
RTVSPost2010Prop39
140
1.0
102
RTVSPost2010PropOp39
 70
     1
102
RTVSPost2010Prop40
 90
        0
102
RTVSPost2010PropOp40
 70
     1
102
RTVSPost2010Prop41ColorIndex
 90
       18
102
RTVSPost2010Prop41ColorRGB
 90
        0
102
RTVSPost2010PropOp41
 70
     1
102
RTVSPost2010Prop42
 90
       50
102
RTVSPost2010PropOp42
 70
     1
102
RTVSPost2010Prop43
 90
        3
102
RTVSPost2010PropOp43
 70
     1
102
RTVSPost2010Prop44ColorIndex
 90
        5
102
RTVSPost2010Prop44ColorRGB
 90
      255
102
RTVSPost2010PropOp44
 70
     1
102
RTVSPost2010Prop45
280
     0
102
RTVSPost2010PropOp45
 70
     1
102
RTVSPost2010Prop46
 90
       50
102
RTVSPost2010PropOp46
 70
     1
102
RTVSPost2010Prop47
 90
       50
102
RTVSPost2010PropOp47
 70
     1
102
RTVSPost2010Prop48
 90
       50
102
RTVSPost2010PropOp48
 70
     1
102
RTVSPost2010Prop49
280
     0
102
RTVSPost2010PropOp49
 70
     1
102
RTVSPost2010Prop50
 90
       50
102
RTVSPost2010PropOp50
 70
     1
102
RTVSPost2010Prop51ColorIndex
 90
      256
102
RTVSPost2010Prop51ColorRGB
 90
-16777216
102
RTVSPost2010PropOp51
 70
     0
102
RTVSPost2010Prop52
140
1.0
102
RTVSPost2010PropOp52
 70
     0
102
RTVSPost2010Prop53
 90
        2
102
RTVSPost2010PropOp53
 70
     1
102
RTVSPost2010Prop54
  1
strokes_ogs.tif
102
RTVSPost2010PropOp54
 70
     1
102
RTVSPost2010Prop55
280
     0
102
RTVSPost2010PropOp55
 70
     1
102
RTVSPost2010Prop56
140
1.0
102
RTVSPost2010PropOp56
 70
     1
102
RTVSPost2010Prop57
140
1.0
102
RTVSPost2010PropOp57
 70
     1
102
RTVSPropertyOp0
 70
     1
102
RTVSPropertyOp1
 70
     1
102
RTVSPropertyOp2
 70
     1
102
RTVSPropertyOp3
 70
     1
102
RTVSPropertyOp4
 70
     1
102
RTVSPropertyOp5
 70
     1
102
RTVSPropertyOp6
 70
     1
102
RTVSPropertyOp7
 70
     1
102
RTVSPropertyOp8
 70
     1
102
RTVSPropertyOp9
 70
     1
102
RTVSPropertyOp10
 70
     1
102
RTVSPropertyOp11
 70
     1
102
RTVSPropertyOp12
 70
     1
102
RTVSPropertyOp13
 70
     1
102
RTVSPropertyOp14
 70
     1
102
RTVSPropertyOp15
 70
     1
102
RTVSPropertyOp16
 70
     1
102
RTVSPropertyOp17
 70
     1
102
RTVSPropertyOp18
 70
     1
102
RTVSPropertyOp19
 70
     1
102
RTVSPropertyOp20
 70
     1
102
RTVSPropertyOp21
 70
     1
102
RTVSPropertyOp22
 70
     1
102
RTVSPropertyOp23
 70
     1
102
RTVSPropertyOp24
 70
     1
102
RTVSPropertyOp25
 70
     1
102
RTVSPropertyOp26
 70
     1
102
RTVSPropertyOp27
 70
     1
102
RTVSPropertyOp28
 70
     1
102
RTVSPropertyOp29
 70
     1
102
RTVSPropertyOp30
 70
     1
102
RTVSPropertyOp31
 70
     1
102
RTVSPropertyOp32
 70
     1
102
RTVSPropertyOp33
 70
     1
102
RTVSPropertyOp34
 70
     1
102
RTVSPropertyOp35
 70
     1
102
RTVSPropertyOp36
 70
     1
102
RTVSPropertyOp37
 70
     1
102
RTVSPropertyOp38
 70
     1
102
RTVSPropertyOp39
 70
     1
102
RTVSPropertyOp40
 70
     1
102
RTVSPropertyOp41
 70
     1
102
RTVSPropertyOp42
 70
     1
102
RTVSPropertyOp43
 70
     1
102
RTVSPropertyOp44
 70
     1
102
RTVSPropertyOp45
 70
     1
102
RTVSPropertyOp46
 70
     1
102
RTVSPropertyOp47
 70
     1
102
RTVSPropertyOp48
 70
     1
102
RTVSPropertyOp49
 70
     1
102
RTVSPropertyOp50
 70
     1
102
RTVSPropertyOp51
 70
     0
102
RTVSPropertyOp52
 70
     0
102
RTVSPropertyOp53
 70
     1
102
RTVSPropertyOp54
 70
     1
102
RTVSPropertyOp55
 70
     1
102
RTVSPropertyOp56
 70
     1
102
RTVSPropertyOp57
 70
     1
102
RTVSPropertyOp58
 70
     1
102
RTVSPropertyOp59
 70
     1
102
RTVSPropertyOp60
 70
     1
102
RTVSPropertyOp61
 70
     1
102
RTVSPropertyOp62
 70
     1
  0
XRECORD
  5
2442
102
{ACAD_REACTORS
330
2441
102
}
330
2441
100
AcDbXrecord
280
     1
102
RTVSPost2010Prop28
280
     0
102
RTVSPost2010PropOp28
 70
     1
102
RTVSPost2010Prop29
280
     1
102
RTVSPost2010PropOp29
 70
     1
102
RTVSPost2010Prop30
280
     1
102
RTVSPost2010PropOp30
 70
     1
102
RTVSPost2010Prop31
280
     0
102
RTVSPost2010PropOp31
 70
     1
102
RTVSPost2010Prop32
280
     0
102
RTVSPost2010PropOp32
 70
     1
102
RTVSPost2010Prop33
280
     0
102
RTVSPost2010PropOp33
 70
     1
102
RTVSPost2010Prop34
280
     0
102
RTVSPost2010PropOp34
 70
     1
102
RTVSPost2010Prop35
280
     0
102
RTVSPost2010PropOp35
 70
     1
102
RTVSPost2010Prop36
280
     0
102
RTVSPost2010PropOp36
 70
     1
102
RTVSPost2010Prop37
 90
       50
102
RTVSPost2010PropOp37
 70
     1
102
RTVSPost2010Prop38
140
0.0
102
RTVSPost2010PropOp38
 70
     1
102
RTVSPost2010Prop39
140
1.0
102
RTVSPost2010PropOp39
 70
     1
102
RTVSPost2010Prop40
 90
        0
102
RTVSPost2010PropOp40
 70
     1
102
RTVSPost2010Prop41ColorIndex
 90
       18
102
RTVSPost2010Prop41ColorRGB
 90
        0
102
RTVSPost2010PropOp41
 70
     1
102
RTVSPost2010Prop42
 90
       50
102
RTVSPost2010PropOp42
 70
     1
102
RTVSPost2010Prop43
 90
        3
102
RTVSPost2010PropOp43
 70
     1
102
RTVSPost2010Prop44ColorIndex
 90
        5
102
RTVSPost2010Prop44ColorRGB
 90
      255
102
RTVSPost2010PropOp44
 70
     1
102
RTVSPost2010Prop45
280
     0
102
RTVSPost2010PropOp45
 70
     1
102
RTVSPost2010Prop46
 90
       50
102
RTVSPost2010PropOp46
 70
     1
102
RTVSPost2010Prop47
 90
       50
102
RTVSPost2010PropOp47
 70
     1
102
RTVSPost2010Prop48
 90
       50
102
RTVSPost2010PropOp48
 70
     1
102
RTVSPost2010Prop49
280
     0
102
RTVSPost2010PropOp49
 70
     1
102
RTVSPost2010Prop50
 90
       50
102
RTVSPost2010PropOp50
 70
     1
102
RTVSPost2010Prop51ColorIndex
 90
      256
102
RTVSPost2010Prop51ColorRGB
 90
-16777216
102
RTVSPost2010PropOp51
 70
     0
102
RTVSPost2010Prop52
140
1.0
102
RTVSPost2010PropOp52
 70
     0
102
RTVSPost2010Prop53
 90
        2
102
RTVSPost2010PropOp53
 70
     1
102
RTVSPost2010Prop54
  1
strokes_ogs.tif
102
RTVSPost2010PropOp54
 70
     1
102
RTVSPost2010Prop55
280
     0
102
RTVSPost2010PropOp55
 70
     1
102
RTVSPost2010Prop56
140
1.0
102
RTVSPost2010PropOp56
 70
     1
102
RTVSPost2010Prop57
140
1.0
102
RTVSPost2010PropOp57
 70
     1
102
RTVSPropertyOp0
 70
     1
102
RTVSPropertyOp1
 70
     1
102
RTVSPropertyOp2
 70
     1
102
RTVSPropertyOp3
 70
     1
102
RTVSPropertyOp4
 70
     1
102
RTVSPropertyOp5
 70
     1
102
RTVSPropertyOp6
 70
     1
102
RTVSPropertyOp7
 70
     1
102
RTVSPropertyOp8
 70
     1
102
RTVSPropertyOp9
 70
     1
102
RTVSPropertyOp10
 70
     1
102
RTVSPropertyOp11
 70
     1
102
RTVSPropertyOp12
 70
     1
102
RTVSPropertyOp13
 70
     1
102
RTVSPropertyOp14
 70
     1
102
RTVSPropertyOp15
 70
     1
102
RTVSPropertyOp16
 70
     1
102
RTVSPropertyOp17
 70
     1
102
RTVSPropertyOp18
 70
     1
102
RTVSPropertyOp19
 70
     1
102
RTVSPropertyOp20
 70
     1
102
RTVSPropertyOp21
 70
     1
102
RTVSPropertyOp22
 70
     1
102
RTVSPropertyOp23
 70
     1
102
RTVSPropertyOp24
 70
     1
102
RTVSPropertyOp25
 70
     1
102
RTVSPropertyOp26
 70
     1
102
RTVSPropertyOp27
 70
     1
102
RTVSPropertyOp28
 70
     1
102
RTVSPropertyOp29
 70
     1
102
RTVSPropertyOp30
 70
     1
102
RTVSPropertyOp31
 70
     1
102
RTVSPropertyOp32
 70
     1
102
RTVSPropertyOp33
 70
     1
102
RTVSPropertyOp34
 70
     1
102
RTVSPropertyOp35
 70
     1
102
RTVSPropertyOp36
 70
     1
102
RTVSPropertyOp37
 70
     1
102
RTVSPropertyOp38
 70
     1
102
RTVSPropertyOp39
 70
     1
102
RTVSPropertyOp40
 70
     1
102
RTVSPropertyOp41
 70
     1
102
RTVSPropertyOp42
 70
     1
102
RTVSPropertyOp43
 70
     1
102
RTVSPropertyOp44
 70
     1
102
RTVSPropertyOp45
 70
     1
102
RTVSPropertyOp46
 70
     1
102
RTVSPropertyOp47
 70
     1
102
RTVSPropertyOp48
 70
     1
102
RTVSPropertyOp49
 70
     1
102
RTVSPropertyOp50
 70
     1
102
RTVSPropertyOp51
 70
     0
102
RTVSPropertyOp52
 70
     0
102
RTVSPropertyOp53
 70
     1
102
RTVSPropertyOp54
 70
     1
102
RTVSPropertyOp55
 70
     1
102
RTVSPropertyOp56
 70
     1
102
RTVSPropertyOp57
 70
     1
102
RTVSPropertyOp58
 70
     1
102
RTVSPropertyOp59
 70
     1
102
RTVSPropertyOp60
 70
     1
102
RTVSPropertyOp61
 70
     1
102
RTVSPropertyOp62
 70
     1
  0
XRECORD
  5
245A
102
{ACAD_REACTORS
330
2459
102
}
330
2459
100
AcDbXrecord
280
     1
102
RTVSPost2010Prop28
280
     0
102
RTVSPost2010PropOp28
 70
     1
102
RTVSPost2010Prop29
280
     1
102
RTVSPost2010PropOp29
 70
     1
102
RTVSPost2010Prop30
280
     1
102
RTVSPost2010PropOp30
 70
     1
102
RTVSPost2010Prop31
280
     0
102
RTVSPost2010PropOp31
 70
     1
102
RTVSPost2010Prop32
280
     0
102
RTVSPost2010PropOp32
 70
     1
102
RTVSPost2010Prop33
280
     0
102
RTVSPost2010PropOp33
 70
     1
102
RTVSPost2010Prop34
280
     0
102
RTVSPost2010PropOp34
 70
     1
102
RTVSPost2010Prop35
280
     0
102
RTVSPost2010PropOp35
 70
     1
102
RTVSPost2010Prop36
280
     0
102
RTVSPost2010PropOp36
 70
     1
102
RTVSPost2010Prop37
 90
       50
102
RTVSPost2010PropOp37
 70
     1
102
RTVSPost2010Prop38
140
0.0
102
RTVSPost2010PropOp38
 70
     1
102
RTVSPost2010Prop39
140
1.0
102
RTVSPost2010PropOp39
 70
     1
102
RTVSPost2010Prop40
 90
        0
102
RTVSPost2010PropOp40
 70
     1
102
RTVSPost2010Prop41ColorIndex
 90
       18
102
RTVSPost2010Prop41ColorRGB
 90
        0
102
RTVSPost2010PropOp41
 70
     1
102
RTVSPost2010Prop42
 90
       50
102
RTVSPost2010PropOp42
 70
     1
102
RTVSPost2010Prop43
 90
        3
102
RTVSPost2010PropOp43
 70
     1
102
RTVSPost2010Prop44ColorIndex
 90
        5
102
RTVSPost2010Prop44ColorRGB
 90
      255
102
RTVSPost2010PropOp44
 70
     1
102
RTVSPost2010Prop45
280
     0
102
RTVSPost2010PropOp45
 70
     1
102
RTVSPost2010Prop46
 90
       50
102
RTVSPost2010PropOp46
 70
     1
102
RTVSPost2010Prop47
 90
       50
102
RTVSPost2010PropOp47
 70
     1
102
RTVSPost2010Prop48
 90
       50
102
RTVSPost2010PropOp48
 70
     1
102
RTVSPost2010Prop49
280
     0
102
RTVSPost2010PropOp49
 70
     1
102
RTVSPost2010Prop50
 90
       50
102
RTVSPost2010PropOp50
 70
     1
102
RTVSPost2010Prop51ColorIndex
 90
      256
102
RTVSPost2010Prop51ColorRGB
 90
-16777216
102
RTVSPost2010PropOp51
 70
     0
102
RTVSPost2010Prop52
140
1.0
102
RTVSPost2010PropOp52
 70
     0
102
RTVSPost2010Prop53
 90
        2
102
RTVSPost2010PropOp53
 70
     1
102
RTVSPost2010Prop54
  1
strokes_ogs.tif
102
RTVSPost2010PropOp54
 70
     1
102
RTVSPost2010Prop55
280
     0
102
RTVSPost2010PropOp55
 70
     1
102
RTVSPost2010Prop56
140
1.0
102
RTVSPost2010PropOp56
 70
     1
102
RTVSPost2010Prop57
140
1.0
102
RTVSPost2010PropOp57
 70
     1
102
RTVSPropertyOp0
 70
     1
102
RTVSPropertyOp1
 70
     1
102
RTVSPropertyOp2
 70
     1
102
RTVSPropertyOp3
 70
     1
102
RTVSPropertyOp4
 70
     1
102
RTVSPropertyOp5
 70
     1
102
RTVSPropertyOp6
 70
     1
102
RTVSPropertyOp7
 70
     1
102
RTVSPropertyOp8
 70
     1
102
RTVSPropertyOp9
 70
     1
102
RTVSPropertyOp10
 70
     1
102
RTVSPropertyOp11
 70
     1
102
RTVSPropertyOp12
 70
     1
102
RTVSPropertyOp13
 70
     1
102
RTVSPropertyOp14
 70
     1
102
RTVSPropertyOp15
 70
     1
102
RTVSPropertyOp16
 70
     1
102
RTVSPropertyOp17
 70
     1
102
RTVSPropertyOp18
 70
     1
102
RTVSPropertyOp19
 70
     1
102
RTVSPropertyOp20
 70
     1
102
RTVSPropertyOp21
 70
     1
102
RTVSPropertyOp22
 70
     1
102
RTVSPropertyOp23
 70
     1
102
RTVSPropertyOp24
 70
     1
102
RTVSPropertyOp25
 70
     1
102
RTVSPropertyOp26
 70
     1
102
RTVSPropertyOp27
 70
     1
102
RTVSPropertyOp28
 70
     1
102
RTVSPropertyOp29
 70
     1
102
RTVSPropertyOp30
 70
     1
102
RTVSPropertyOp31
 70
     1
102
RTVSPropertyOp32
 70
     1
102
RTVSPropertyOp33
 70
     1
102
RTVSPropertyOp34
 70
     1
102
RTVSPropertyOp35
 70
     1
102
RTVSPropertyOp36
 70
     1
102
RTVSPropertyOp37
 70
     1
102
RTVSPropertyOp38
 70
     1
102
RTVSPropertyOp39
 70
     1
102
RTVSPropertyOp40
 70
     1
102
RTVSPropertyOp41
 70
     1
102
RTVSPropertyOp42
 70
     1
102
RTVSPropertyOp43
 70
     1
102
RTVSPropertyOp44
 70
     1
102
RTVSPropertyOp45
 70
     1
102
RTVSPropertyOp46
 70
     1
102
RTVSPropertyOp47
 70
     1
102
RTVSPropertyOp48
 70
     1
102
RTVSPropertyOp49
 70
     1
102
RTVSPropertyOp50
 70
     1
102
RTVSPropertyOp51
 70
     0
102
RTVSPropertyOp52
 70
     0
102
RTVSPropertyOp53
 70
     1
102
RTVSPropertyOp54
 70
     1
102
RTVSPropertyOp55
 70
     1
102
RTVSPropertyOp56
 70
     1
102
RTVSPropertyOp57
 70
     1
102
RTVSPropertyOp58
 70
     1
102
RTVSPropertyOp59
 70
     1
102
RTVSPropertyOp60
 70
     1
102
RTVSPropertyOp61
 70
     1
102
RTVSPropertyOp62
 70
     1
  0
ENDSEC
  0
EOF
