  0
SECTION
  2
HEADER
  9
$ACADVER
  1
AC1015
  9
$ACADMAINTVER
 70
    20
  9
$DWGCODEPAGE
  3
ANSI_932
  9
$INSBASE
 10
0.0
 20
0.0
 30
0.0
  9
$EXTMIN
 10
9.9999975266385
 20
10.0
 30
0.0
  9
$EXTMAX
 10
635.1747633738317
 20
353.8665079395149
 30
0.0
  9
$LIMMIN
 10
0.0000015376081137
 20
-0.0000001931532552
  9
$LIMMAX
 10
662.0000015376082
 20
456.3787876856345
  9
$ORTHOMODE
 70
     1
  9
$REGENMODE
 70
     1
  9
$FILLMODE
 70
     1
  9
$QTEXTMODE
 70
     0
  9
$MIRRTEXT
 70
     1
  9
$LTSCALE
 40
0.5
  9
$ATTMODE
 70
     1
  9
$TEXTSIZE
 40
2.5
  9
$TRACEWID
 40
1.0
  9
$TEXTSTYLE
  7
STANDARD
  9
$CLAYER
  8
0
  9
$CELTYPE
  6
BYLAYER
  9
$CECOLOR
 62
   256
  9
$CELTSCALE
 40
1.0
  9
$DISPSILH
 70
     0
  9
$DIMSCALE
 40
1.0
  9
$DIMASZ
 40
3.0
  9
$DIMEXO
 40
1.0
  9
$DIMDLI
 40
10.0
  9
$DIMRND
 40
0.0
  9
$DIMDLE
 40
0.0
  9
$DIMEXE
 40
1.0
  9
$DIMTP
 40
0.0
  9
$DIMTM
 40
0.0
  9
$DIMTXT
 40
3.2
  9
$DIMCEN
 40
0.0
  9
$DIMTSZ
 40
0.0
  9
$DIMTOL
 70
     0
  9
$DIMLIM
 70
     0
  9
$DIMTIH
 70
     0
  9
$DIMTOH
 70
     0
  9
$DIMSE1
 70
     0
  9
$DIMSE2
 70
     0
  9
$DIMTAD
 70
     3
  9
$DIMZIN
 70
     8
  9
$DIMBLK
  1

  9
$DIMASO
 70
     1
  9
$DIMSHO
 70
     1
  9
$DIMPOST
  1

  9
$DIMAPOST
  1

  9
$DIMALT
 70
     0
  9
$DIMALTD
 70
     2
  9
$DIMALTF
 40
25.4
  9
$DIMLFAC
 40
1.0
  9
$DIMTOFL
 70
     1
  9
$DIMTVP
 40
0.0
  9
$DIMTIX
 70
     0
  9
$DIMSOXD
 70
     0
  9
$DIMSAH
 70
     1
  9
$DIMBLK1
  1
OPEN
  9
$DIMBLK2
  1
OPEN
  9
$DIMSTYLE
  2
STANDARD
  9
$DIMCLRD
 70
     0
  9
$DIMCLRE
 70
     0
  9
$DIMCLRT
 70
     0
  9
$DIMTFAC
 40
1.0
  9
$DIMGAP
 40
1.0
  9
$DIMJUST
 70
     0
  9
$DIMSD1
 70
     0
  9
$DIMSD2
 70
     0
  9
$DIMTOLJ
 70
     1
  9
$DIMTZIN
 70
     0
  9
$DIMALTZ
 70
     0
  9
$DIMALTTZ
 70
     0
  9
$DIMUPT
 70
     0
  9
$DIMDEC
 70
     4
  9
$DIMTDEC
 70
     4
  9
$DIMALTU
 70
     2
  9
$DIMALTTD
 70
     2
  9
$DIMTXSTY
  7
STANDARD
  9
$DIMAUNIT
 70
     0
  9
$DIMADEC
 70
     0
  9
$DIMALTRND
 40
0.0
  9
$DIMAZIN
 70
     0
  9
$DIMDSEP
 70
    46
  9
$DIMATFIT
 70
     3
  9
$DIMFRAC
 70
     0
  9
$DIMLDRBLK
  1
OPEN
  9
$DIMLUNIT
 70
     2
  9
$DIMLWD
 70
    -2
  9
$DIMLWE
 70
    -2
  9
$DIMTMOVE
 70
     0
  9
$LUNITS
 70
     2
  9
$LUPREC
 70
     4
  9
$SKETCHINC
 40
1.0
  9
$FILLETRAD
 40
0.0
  9
$AUNITS
 70
     0
  9
$AUPREC
 70
     0
  9
$MENU
  1
.
  9
$ELEVATION
 40
0.0
  9
$PELEVATION
 40
0.0
  9
$THICKNESS
 40
0.0
  9
$LIMCHECK
 70
     0
  9
$CHAMFERA
 40
10.0
  9
$CHAMFERB
 40
10.0
  9
$CHAMFERC
 40
20.0
  9
$CHAMFERD
 40
0.0
  9
$SKPOLY
 70
     0
  9
$TDCREATE
 40
2452955.693715093
  9
$TDUCREATE
 40
2452955.318715093
  9
$TDUPDATE
 40
2457192.643400209
  9
$TDUUPDATE
 40
2457192.268400209
  9
$TDINDWG
 40
0.0540919213
  9
$TDUSRTIMER
 40
0.0540919097
  9
$USRTIMER
 70
     1
  9
$ANGBASE
 50
0.0
  9
$ANGDIR
 70
     0
  9
$PDMODE
 70
     0
  9
$PDSIZE
 40
0.0
  9
$PLINEWID
 40
0.0
  9
$SPLFRAME
 70
     0
  9
$SPLINETYPE
 70
     6
  9
$SPLINESEGS
 70
     8
  9
$HANDSEED
  5
3CBA
  9
$SURFTAB1
 70
     6
  9
$SURFTAB2
 70
     6
  9
$SURFTYPE
 70
     6
  9
$SURFU
 70
     6
  9
$SURFV
 70
     6
  9
$UCSBASE
  2

  9
$UCSNAME
  2

  9
$UCSORG
 10
0.0
 20
0.0
 30
0.0
  9
$UCSXDIR
 10
1.0
 20
0.0
 30
0.0
  9
$UCSYDIR
 10
0.0
 20
1.0
 30
0.0
  9
$UCSORTHOREF
  2

  9
$UCSORTHOVIEW
 70
     0
  9
$UCSORGTOP
 10
0.0
 20
0.0
 30
0.0
  9
$UCSORGBOTTOM
 10
0.0
 20
0.0
 30
0.0
  9
$UCSORGLEFT
 10
0.0
 20
0.0
 30
0.0
  9
$UCSORGRIGHT
 10
0.0
 20
0.0
 30
0.0
  9
$UCSORGFRONT
 10
0.0
 20
0.0
 30
0.0
  9
$UCSORGBACK
 10
0.0
 20
0.0
 30
0.0
  9
$PUCSBASE
  2

  9
$PUCSNAME
  2

  9
$PUCSORG
 10
0.0
 20
0.0
 30
0.0
  9
$PUCSXDIR
 10
1.0
 20
0.0
 30
0.0
  9
$PUCSYDIR
 10
0.0
 20
1.0
 30
0.0
  9
$PUCSORTHOREF
  2

  9
$PUCSORTHOVIEW
 70
     0
  9
$PUCSORGTOP
 10
0.0
 20
0.0
 30
0.0
  9
$PUCSORGBOTTOM
 10
0.0
 20
0.0
 30
0.0
  9
$PUCSORGLEFT
 10
0.0
 20
0.0
 30
0.0
  9
$PUCSORGRIGHT
 10
0.0
 20
0.0
 30
0.0
  9
$PUCSORGFRONT
 10
0.0
 20
0.0
 30
0.0
  9
$PUCSORGBACK
 10
0.0
 20
0.0
 30
0.0
  9
$USERI1
 70
     0
  9
$USERI2
 70
     0
  9
$USERI3
 70
     0
  9
$USERI4
 70
     0
  9
$USERI5
 70
     0
  9
$USERR1
 40
0.0
  9
$USERR2
 40
0.0
  9
$USERR3
 40
0.0
  9
$USERR4
 40
0.0
  9
$USERR5
 40
0.0
  9
$WORLDVIEW
 70
     1
  9
$SHADEDGE
 70
     3
  9
$SHADEDIF
 70
    70
  9
$TILEMODE
 70
     1
  9
$MAXACTVP
 70
    48
  9
$PINSBASE
 10
0.0
 20
0.0
 30
0.0
  9
$PLIMCHECK
 70
     0
  9
$PEXTMIN
 10
1.000000000000000E+20
 20
1.000000000000000E+20
 30
1.000000000000000E+20
  9
$PEXTMAX
 10
-1.000000000000000E+20
 20
-1.000000000000000E+20
 30
-1.000000000000000E+20
  9
$PLIMMIN
 10
0.0
 20
0.0
  9
$PLIMMAX
 10
420.0
 20
297.0
  9
$UNITMODE
 70
     0
  9
$VISRETAIN
 70
     1
  9
$PLINEGEN
 70
     0
  9
$PSLTSCALE
 70
     1
  9
$TREEDEPTH
 70
  3020
  9
$CMLSTYLE
  2
STANDARD
  9
$CMLJUST
 70
     0
  9
$CMLSCALE
 40
20.0
  9
$PROXYGRAPHICS
 70
     1
  9
$MEASUREMENT
 70
     0
  9
$CELWEIGHT
370
    -1
  9
$ENDCAPS
280
     0
  9
$JOINSTYLE
280
     0
  9
$LWDISPLAY
290
     0
  9
$INSUNITS
 70
     0
  9
$HYPERLINKBASE
  1

  9
$STYLESHEET
  1

  9
$XEDIT
290
     1
  9
$CEPSNTYPE
380
     0
  9
$PSTYLEMODE
290
     1
  9
$FINGERPRINTGUID
  2
{6D64B7D6-9F5B-4213-B113-655887B5812B}
  9
$VERSIONGUID
  2
{F61F0677-7ED0-49FB-91F2-041A56C62542}
  9
$EXTNAMES
290
     1
  9
$PSVPSCALE
 40
0.0
  9
$OLESTARTUP
290
     0
  0
ENDSEC
  0
SECTION
  2
CLASSES
  0
CLASS
  1
ACDBDICTIONARYWDFLT
  2
AcDbDictionaryWithDefault
  3
ObjectDBX Classes
 90
        0
280
     0
281
     0
  0
CLASS
  1
ACDBPLACEHOLDER
  2
AcDbPlaceHolder
  3
ObjectDBX Classes
 90
        0
280
     0
281
     0
  0
CLASS
  1
LAYOUT
  2
AcDbLayout
  3
ObjectDBX Classes
 90
        0
280
     0
281
     0
  0
CLASS
  1
DICTIONARYVAR
  2
AcDbDictionaryVar
  3
ObjectDBX Classes
 90
        0
280
     0
281
     0
  0
CLASS
  1
MATERIAL
  2
AcDbMaterial
  3
ObjectDBX Classes
 90
     1153
280
     0
281
     0
  0
CLASS
  1
VISUALSTYLE
  2
AcDbVisualStyle
  3
ObjectDBX Classes
 90
     4095
280
     0
281
     0
  0
CLASS
  1
TABLESTYLE
  2
AcDbTableStyle
  3
ObjectDBX Classes
 90
     4095
280
     0
281
     0
  0
CLASS
  1
SCALE
  2
AcDbScale
  3
ObjectDBX Classes
 90
     1153
280
     0
281
     0
  0
CLASS
  1
MLEADERSTYLE
  2
AcDbMLeaderStyle
  3
ACDB_MLEADERSTYLE_CLASS
 90
     4095
280
     0
281
     0
  0
CLASS
  1
ACDBSECTIONVIEWSTYLE
  2
AcDbSectionViewStyle
  3
ObjectDBX Classes
 90
     1025
280
     0
281
     0
  0
CLASS
  1
ACDBDETAILVIEWSTYLE
  2
AcDbDetailViewStyle
  3
ObjectDBX Classes
 90
     1025
280
     0
281
     0
  0
CLASS
  1
CELLSTYLEMAP
  2
AcDbCellStyleMap
  3
ObjectDBX Classes
 90
     1152
280
     0
281
     0
  0
ENDSEC
  0
SECTION
  2
TABLES
  0
TABLE
  2
VPORT
  5
8
330
0
100
AcDbSymbolTable
 70
     1
  0
VPORT
  5
3C04
330
8
100
AcDbSymbolTableRecord
100
AcDbViewportTableRecord
  2
*ACTIVE
 70
     0
 10
0.0
 20
0.0
 11
1.0
 21
1.0
 12
430.2371076129083
 22
181.9324352444081
 13
0.0
 23
0.0
 14
10.0
 24
10.0
 15
10.0
 25
10.0
 16
0.0
 26
0.0
 36
1.0
 17
0.0
 27
0.0
 37
0.0
 40
359.3823034913346
 41
1.899603698811096
 42
50.0
 43
0.0
 44
0.0
 50
0.0
 51
0.0
 71
     0
 72
   100
 73
     1
 74
     0
 75
     0
 76
     0
 77
     0
 78
     0
281
     0
 65
     1
110
0.0
120
0.0
130
0.0
111
1.0
121
0.0
131
0.0
112
0.0
122
1.0
132
0.0
 79
     0
146
0.0
1001
ACAD_NAV_VCDISPLAY
1070
     3
  0
ENDTAB
  0
TABLE
  2
LTYPE
  5
5
330
0
100
AcDbSymbolTable
 70
     4
  0
LTYPE
  5
12
330
5
100
AcDbSymbolTableRecord
100
AcDbLinetypeTableRecord
  2
BYBLOCK
 70
     0
  3

 72
    65
 73
     0
 40
0.0
  0
LTYPE
  5
13
330
5
100
AcDbSymbolTableRecord
100
AcDbLinetypeTableRecord
  2
BYLAYER
 70
     0
  3

 72
    65
 73
     0
 40
0.0
  0
LTYPE
  5
14
330
5
100
AcDbSymbolTableRecord
100
AcDbLinetypeTableRecord
  2
CONTINUOUS
 70
     0
  3
Solid line
 72
    65
 73
     0
 40
0.0
  0
LTYPE
  5
4B
330
5
100
AcDbSymbolTableRecord
100
AcDbLinetypeTableRecord
  2
DASHED
 70
     0
  3
Dashed __ __ __ __ __ __ __ __ __ __ __ __ __ _
 72
    65
 73
     2
 40
19.04999999999999
 49
12.7
 74
     0
 49
-6.349999999999998
 74
     0
  0
LTYPE
  5
4C
330
5
100
AcDbSymbolTableRecord
100
AcDbLinetypeTableRecord
  2
CENTER
 70
     0
  3
Center ____ _ ____ _ ____ _ ____ _ ____ _ ____
 72
    65
 73
     4
 40
50.8
 49
31.75
 74
     0
 49
-6.349999999999998
 74
     0
 49
6.349999999999998
 74
     0
 49
-6.349999999999998
 74
     0
  0
LTYPE
  5
4D
330
5
100
AcDbSymbolTableRecord
100
AcDbLinetypeTableRecord
  2
PHANTOM
 70
     0
  3
Phantom ______  __  __  ______  __  __  ______
 72
    65
 73
     6
 40
63.5
 49
31.75
 74
     0
 49
-6.349999999999998
 74
     0
 49
6.349999999999998
 74
     0
 49
-6.349999999999998
 74
     0
 49
6.349999999999998
 74
     0
 49
-6.349999999999998
 74
     0
  0
ENDTAB
  0
TABLE
  2
LAYER
  5
2
330
0
100
AcDbSymbolTable
 70
     8
  0
LAYER
  5
E
102
{ACAD_XDICTIONARY
360
3C5E
102
}
330
2
100
AcDbSymbolTableRecord
100
AcDbLayerTableRecord
  2
0
 70
     0
 62
     7
  6
CONTINUOUS
370
    -3
390
3C0D
  0
LAYER
  5
4E
102
{ACAD_XDICTIONARY
360
3C60
102
}
330
2
100
AcDbSymbolTableRecord
100
AcDbLayerTableRecord
  2
4
 70
     0
 62
     1
  6
CENTER
370
    -3
390
3C0D
  0
LAYER
  5
4F
102
{ACAD_XDICTIONARY
360
3C62
102
}
330
2
100
AcDbSymbolTableRecord
100
AcDbLayerTableRecord
  2
5
 70
     0
 62
     6
  6
PHANTOM
370
    -3
390
3C0D
  0
LAYER
  5
50
102
{ACAD_XDICTIONARY
360
3C64
102
}
330
2
100
AcDbSymbolTableRecord
100
AcDbLayerTableRecord
  2
1
 70
     0
 62
     7
  6
CONTINUOUS
370
    -3
390
3C0D
  0
LAYER
  5
51
102
{ACAD_XDICTIONARY
360
3C66
102
}
330
2
100
AcDbSymbolTableRecord
100
AcDbLayerTableRecord
  2
2
 70
     0
 62
     4
  6
CONTINUOUS
370
    -3
390
3C0D
  0
LAYER
  5
52
102
{ACAD_XDICTIONARY
360
3C68
102
}
330
2
100
AcDbSymbolTableRecord
100
AcDbLayerTableRecord
  2
3
 70
     0
 62
     2
  6
DASHED
370
    -3
390
3C0D
  0
LAYER
  5
53
102
{ACAD_XDICTIONARY
360
3C6A
102
}
330
2
100
AcDbSymbolTableRecord
100
AcDbLayerTableRecord
  2
6
 70
     0
 62
     5
  6
CONTINUOUS
370
    -3
390
3C0D
  0
LAYER
  5
54
102
{ACAD_XDICTIONARY
360
3C6C
102
}
330
2
100
AcDbSymbolTableRecord
100
AcDbLayerTableRecord
  2
7
 70
     0
 62
     3
  6
CONTINUOUS
370
    -3
390
3C0D
  0
ENDTAB
  0
TABLE
  2
STYLE
  5
3
330
0
100
AcDbSymbolTable
 70
     1
  0
STYLE
  5
F
330
3
100
AcDbSymbolTableRecord
100
AcDbTextStyleTableRecord
  2
STANDARD
 70
     0
 40
0.0
 41
1.0
 50
0.0
 71
     0
 42
2.5
  3
simplex.shx
  4

  0
ENDTAB
  0
TABLE
  2
VIEW
  5
6
330
0
100
AcDbSymbolTable
 70
     0
  0
ENDTAB
  0
TABLE
  2
UCS
  5
7
330
0
100
AcDbSymbolTable
 70
     0
  0
ENDTAB
  0
TABLE
  2
APPID
  5
9
330
0
100
AcDbSymbolTable
 70
     7
  0
APPID
  5
10
330
9
100
AcDbSymbolTableRecord
100
AcDbRegAppTableRecord
  2
ACAD
 70
     0
  0
APPID
  5
3E
330
9
100
AcDbSymbolTableRecord
100
AcDbRegAppTableRecord
  2
CONTENTTABDATA
 70
     0
  0
APPID
  5
3F
330
9
100
AcDbSymbolTableRecord
100
AcDbRegAppTableRecord
  2
CONTENTCURRENTTAB
 70
     0
  0
APPID
  5
28C8
330
9
100
AcDbSymbolTableRecord
100
AcDbRegAppTableRecord
  2
CONTENTBLOCKICON
 70
     0
  0
APPID
  5
28C9
330
9
100
AcDbSymbolTableRecord
100
AcDbRegAppTableRecord
  2
CONTENTBLOCKDESCRIPTION
 70
     0
  0
APPID
  5
3C78
330
9
100
AcDbSymbolTableRecord
100
AcDbRegAppTableRecord
  2
ACAD_NAV_VCDISPLAY
 70
     0
  0
APPID
  5
3CB1
330
9
100
AcDbSymbolTableRecord
100
AcDbRegAppTableRecord
  2
ACAD_MLEADERVER
 70
     0
  0
ENDTAB
  0
TABLE
  2
DIMSTYLE
  5
A
330
0
100
AcDbSymbolTable
 70
     1
100
AcDbDimStyleTable
 71
     0
  0
DIMSTYLE
105
1D
330
A
100
AcDbSymbolTableRecord
100
AcDbDimStyleTableRecord
  2
STANDARD
 70
     0
 41
3.0
 42
1.0
 43
10.0
 44
1.0
 73
     0
 74
     0
 77
     3
 78
     8
140
3.2
141
0.0
147
1.0
172
     1
173
     1
340
F
341
2E
343
2E
344
2E
  0
ENDTAB
  0
TABLE
  2
BLOCK_RECORD
  5
1
330
0
100
AcDbSymbolTable
 70
     1
  0
BLOCK_RECORD
  5
18
102
{ACAD_XDICTIONARY
360
3C07
102
}
330
1
100
AcDbSymbolTableRecord
100
AcDbBlockTableRecord
  2
*MODEL_SPACE
340
3C5B
  0
BLOCK_RECORD
  5
15
102
{ACAD_XDICTIONARY
360
3C05
102
}
330
1
100
AcDbSymbolTableRecord
100
AcDbBlockTableRecord
  2
*PAPER_SPACE
340
3C5C
  0
BLOCK_RECORD
  5
2E
330
1
100
AcDbSymbolTableRecord
100
AcDbBlockTableRecord
  2
_OPEN
340
0
  0
ENDTAB
  0
ENDSEC
  0
SECTION
  2
BLOCKS
  0
BLOCK
  5
19
330
18
100
AcDbEntity
  8
0
100
AcDbBlockBegin
  2
*MODEL_SPACE
 70
     0
 10
0.0
 20
0.0
 30
0.0
  3
*MODEL_SPACE
  1

  0
ENDBLK
  5
1A
330
18
100
AcDbEntity
  8
0
100
AcDbBlockEnd
  0
BLOCK
  5
16
330
15
100
AcDbEntity
 67
     1
  8
0
100
AcDbBlockBegin
  2
*PAPER_SPACE
 70
     0
 10
0.0
 20
0.0
 30
0.0
  3
*PAPER_SPACE
  1

  0
ENDBLK
  5
17
330
15
100
AcDbEntity
 67
     1
  8
0
100
AcDbBlockEnd
  0
BLOCK
  5
2F
330
2E
100
AcDbEntity
  8
0
100
AcDbBlockBegin
  2
_OPEN
 70
     0
 10
0.0
 20
0.0
 30
0.0
  3
_OPEN
  1

  0
LINE
  5
30
330
2E
100
AcDbEntity
  8
0
  6
ByBlock
 62
     0
100
AcDbLine
 10
-1.0
 20
0.1666666666666666
 30
0.0
 11
0.0
 21
0.0
 31
0.0
  0
LINE
  5
31
330
2E
100
AcDbEntity
  8
0
  6
ByBlock
 62
     0
100
AcDbLine
 10
0.0
 20
0.0
 30
0.0
 11
-1.0
 21
-0.1666666666666666
 31
0.0
  0
LINE
  5
32
330
2E
100
AcDbEntity
  8
0
  6
ByBlock
 62
     0
100
AcDbLine
 10
0.0
 20
0.0
 30
0.0
 11
-1.0
 21
0.0
 31
0.0
  0
ENDBLK
  5
33
330
2E
100
AcDbEntity
  8
0
100
AcDbBlockEnd
  0
ENDSEC
  0
SECTION
  2
ENTITIES
  0
TEXT
  5
63
330
18
100
AcDbEntity
  8
4
  6
CENTER
 48
0.25
100
AcDbText
 10
23.97950852663849
 20
10.0
 30
0.0
 40
1.399999999999999
  1
4
100
AcDbText
  0
TEXT
  5
64
330
18
100
AcDbEntity
  8
7
  6
Continuous
 48
0.25
100
AcDbText
 10
9.999997526638502
 20
26.0000007607689
 30
0.0
 40
3.0
  1
CODE No.13232
100
AcDbText
  0
TEXT
  5
65
330
18
100
AcDbEntity
  8
7
  6
Continuous
 48
0.25
100
AcDbText
 10
9.999997526638502
 20
18.00000076076889
 30
0.0
 40
3.0
  1
TYPE No.THA-449B-2K
100
AcDbText
  0
TEXT
  5
66
330
18
100
AcDbEntity
  8
1
  6
Continuous
 48
0.25
100
AcDbText
 10
9.999997526638502
 20
10.00000076076889
 30
0.0
 40
1.399999999999999
  1
LAYER
100
AcDbText
  0
TEXT
  5
67
330
18
100
AcDbEntity
  8
2
  6
Continuous
 48
0.25
100
AcDbText
 10
19.9795085266385
 20
10.0
 30
0.0
 40
1.399999999999999
  1
2
100
AcDbText
  0
TEXT
  5
68
330
18
100
AcDbEntity
  8
3
  6
DASHED
 48
0.25
100
AcDbText
 10
21.9795085266385
 20
10.0
 30
0.0
 40
1.399999999999999
  1
3
100
AcDbText
  0
TEXT
  5
69
330
18
100
AcDbEntity
  8
1
  6
Continuous
 48
0.25
100
AcDbText
 10
17.9795085266385
 20
10.0
 30
0.0
 40
1.399999999999999
  1
1
100
AcDbText
  0
TEXT
  5
6A
330
18
100
AcDbEntity
  8
5
  6
PHANTOM
 48
0.25
100
AcDbText
 10
25.9795085266385
 20
10.0
 30
0.0
 40
1.399999999999999
  1
5
100
AcDbText
  0
TEXT
  5
6B
330
18
100
AcDbEntity
  8
6
  6
Continuous
 48
0.25
100
AcDbText
 10
27.9795085266385
 20
10.0
 30
0.0
 40
1.399999999999999
  1
6
100
AcDbText
  0
TEXT
  5
6C
330
18
100
AcDbEntity
  8
7
  6
Continuous
 48
0.25
100
AcDbText
 10
29.9795085266385
 20
10.0
 30
0.0
 40
1.399999999999999
  1
7
100
AcDbText
  0
LINE
  5
CE7
330
18
100
AcDbEntity
  8
5
  6
PHANTOM
100
AcDbLine
 10
88.72707522404175
 20
245.7786817951464
 30
0.0
 11
152.379987119905
 21
209.0286559773566
 31
0.0
  0
LINE
  5
CE8
330
18
100
AcDbEntity
  8
5
  6
PHANTOM
100
AcDbLine
 10
79.32707522403996
 20
229.497404204
 30
0.0
 11
142.9799424023358
 21
192.7474042046795
 31
0.0
  0
LINE
  5
CE9
330
18
100
AcDbEntity
  8
4
  6
CENTER
100
AcDbLine
 10
84.02707522459946
 20
237.6380429998556
 30
0.0
 11
152.8285405432451
 21
197.9154984775365
 31
0.0
  0
LINE
  5
CEA
330
18
100
AcDbEntity
  8
1
  6
Continuous
 48
0.25
100
AcDbLine
 10
92.62731946836822
 20
338.8665079394928
 30
0.0
 11
97.62731946836822
 21
338.8665079394928
 31
0.0
  0
ARC
  5
CEB
330
18
100
AcDbEntity
  8
1
  6
Continuous
 48
0.25
100
AcDbCircle
 10
90.62731946836823
 20
326.3665079394637
 30
0.0
 40
2.0
100
AcDbArc
 50
306.8698979999997
 51
0.0
  0
LINE
  5
CEC
330
18
100
AcDbEntity
  8
1
  6
Continuous
 48
0.25
100
AcDbLine
 10
92.62731946836822
 20
326.8665079394928
 30
0.0
 11
97.62731946836822
 21
326.8665079394928
 31
0.0
  0
ARC
  5
CF0
330
18
100
AcDbEntity
  8
1
  6
Continuous
 48
0.25
100
AcDbCircle
 10
90.62731946836823
 20
339.3665079394637
 30
0.0
 40
2.0
100
AcDbArc
 50
0.0
 51
53.13010200000036
  0
LINE
  5
CF1
330
18
100
AcDbEntity
  8
4
  6
CENTER
100
AcDbLine
 10
68.30093577657442
 20
332.8665079394937
 30
0.0
 11
122.9265297689352
 21
332.8665079394899
 31
0.0
  0
LINE
  5
D11
330
18
100
AcDbEntity
  8
1
  6
Continuous
100
AcDbLine
 10
74.62707522464871
 20
160.4380430003265
 30
0.0
 11
74.62707522464871
 21
136.8380430003194
 31
0.0
  0
LINE
  5
D12
330
18
100
AcDbEntity
  8
1
  6
Continuous
100
AcDbLine
 10
93.42707522464865
 20
160.4380430003125
 30
0.0
 11
93.42707522464865
 21
136.8380430003194
 31
0.0
  0
LINE
  5
D13
330
18
100
AcDbEntity
  8
4
  6
CENTER
100
AcDbLine
 10
84.02707522460264
 20
266.6625234205532
 30
0.0
 11
84.02707522459389
 21
118.8113104212221
 31
0.0
  0
LINE
  5
D14
330
18
100
AcDbEntity
  8
1
  6
Continuous
100
AcDbLine
 10
93.77704432412338
 20
237.8634959367467
 30
0.0
 11
93.57707205531824
 21
138.4355253525533
 31
0.0
  0
LINE
  5
D15
330
18
100
AcDbEntity
  8
1
  6
Continuous
100
AcDbLine
 10
74.47707839387726
 20
138.4355253525227
 30
0.0
 11
74.27710612507553
 21
237.8634959367468
 31
0.0
  0
LINE
  5
D16
330
18
100
AcDbEntity
  8
1
  6
Continuous
100
AcDbLine
 10
96.02707522398235
 20
245.4380430002969
 30
0.0
 11
96.02707522397327
 21
139.4380430003114
 31
0.0
  0
LINE
  5
D17
330
18
100
AcDbEntity
  8
1
  6
Continuous
100
AcDbLine
 10
72.02707522398259
 20
245.4380430002969
 30
0.0
 11
72.02707522397338
 21
139.4380430003114
 31
0.0
  0
LINE
  5
D18
330
18
100
AcDbEntity
  8
1
  6
Continuous
100
AcDbLine
 10
100.0270752239734
 20
139.4380430003114
 30
0.0
 11
100.0270752239825
 21
245.4380430002969
 31
0.0
  0
LINE
  5
D19
330
18
100
AcDbEntity
  8
1
  6
Continuous
100
AcDbLine
 10
68.02707522398259
 20
245.4380430002969
 30
0.0
 11
68.02707522397338
 21
139.4380430003114
 31
0.0
  0
ARC
  5
D1A
330
18
100
AcDbEntity
  8
5
  6
PHANTOM
100
AcDbCircle
 10
84.02707522458559
 20
132.8380429997131
 30
0.0
 40
9.400000000007819
100
AcDbArc
 50
180.0
 51
0.0
  0
ARC
  5
D1B
330
18
100
AcDbEntity
  8
1
  6
Continuous
100
AcDbCircle
 10
84.02707522464096
 20
136.8380430003194
 30
0.0
 40
9.400000000007819
100
AcDbArc
 50
180.0
 51
0.0
  0
ARC
  5
D1C
330
18
100
AcDbEntity
  8
1
  6
Continuous
100
AcDbCircle
 10
84.02707522397347
 20
139.4380430003114
 30
0.0
 40
11.99999999999993
100
AcDbArc
 50
180.0
 51
0.0
  0
ARC
  5
D1D
330
18
100
AcDbEntity
  8
1
  6
Continuous
100
AcDbCircle
 10
84.02707522397347
 20
139.4380430003114
 30
0.0
 40
15.99999999999994
100
AcDbArc
 50
180.0
 51
0.0
  0
LINE
  5
D1E
330
18
100
AcDbEntity
  8
4
  6
CENTER
100
AcDbLine
 10
76.42707522459591
 20
152.4380430003195
 30
0.0
 11
91.62707522459594
 21
152.4380430003195
 31
0.0
  0
LINE
  5
D1F
330
18
100
AcDbEntity
  8
1
  6
Continuous
100
AcDbLine
 10
91.92707522464571
 20
140.4162832837437
 30
0.0
 11
86.0270752246488
 21
129.1953994785993
 31
0.0
  0
ARC
  5
D20
330
18
100
AcDbEntity
  8
1
  6
Continuous
100
AcDbCircle
 10
84.02707522464096
 20
136.8380430003194
 30
0.0
 40
7.900000000007822
100
AcDbArc
 50
180.0
 51
0.0
  0
LINE
  5
D21
330
18
100
AcDbEntity
  8
1
  6
Continuous
100
AcDbLine
 10
91.92707522464571
 20
140.4162832837437
 30
0.0
 11
76.12707522464472
 21
140.4162832837437
 31
0.0
  0
LINE
  5
D22
330
18
100
AcDbEntity
  8
1
  6
Continuous
100
AcDbLine
 10
90.92118865856448
 20
138.5032432364287
 30
0.0
 11
77.13296179073154
 21
138.5032432364198
 31
0.0
  0
LINE
  5
D23
330
18
100
AcDbEntity
  8
1
  6
Continuous
100
AcDbLine
 10
91.42413194157734
 20
139.4597632600333
 30
0.0
 11
76.63001850771866
 21
139.4597632600239
 31
0.0
  0
LINE
  5
D24
330
18
100
AcDbEntity
  8
1
  6
Continuous
100
AcDbLine
 10
88.40647224350027
 20
133.7206431184052
 30
0.0
 11
79.64767820579584
 21
133.7206431183996
 31
0.0
  0
LINE
  5
D25
330
18
100
AcDbEntity
  8
1
  6
Continuous
100
AcDbLine
 10
88.90941552651316
 20
134.6771631420099
 30
0.0
 11
79.14473492278306
 21
134.6771631420036
 31
0.0
  0
LINE
  5
D26
330
18
100
AcDbEntity
  8
1
  6
Continuous
100
AcDbLine
 10
89.41235880952604
 20
135.6336831656146
 30
0.0
 11
78.64179163977019
 21
135.6336831656077
 31
0.0
  0
LINE
  5
D27
330
18
100
AcDbEntity
  8
1
  6
Continuous
100
AcDbLine
 10
86.89764239446184
 20
130.8510830475912
 30
0.0
 11
81.15650805483447
 21
130.8510830475875
 31
0.0
  0
LINE
  5
D28
330
18
100
AcDbEntity
  8
1
  6
Continuous
100
AcDbLine
 10
87.40058567747473
 20
131.8076030711958
 30
0.0
 11
80.65356477182172
 21
131.8076030711915
 31
0.0
  0
LINE
  5
D29
330
18
100
AcDbEntity
  8
1
  6
Continuous
100
AcDbLine
 10
87.90352896048764
 20
132.7641230948006
 30
0.0
 11
80.15062148880884
 21
132.7641230947956
 31
0.0
  0
LINE
  5
D2A
330
18
100
AcDbEntity
  8
1
  6
Continuous
100
AcDbLine
 10
89.9153020925387
 20
136.5902031892193
 30
0.0
 11
78.13884835675732
 21
136.5902031892117
 31
0.0
  0
LINE
  5
D2B
330
18
100
AcDbEntity
  8
1
  6
Continuous
100
AcDbLine
 10
90.41824537555156
 20
137.546723212824
 30
0.0
 11
77.63590507374442
 21
137.5467232128158
 31
0.0
  0
LINE
  5
D2C
330
18
100
AcDbEntity
  8
1
  6
Continuous
100
AcDbLine
 10
89.92707522464614
 20
143.4380430003146
 30
0.0
 11
78.12707522464961
 21
143.4380430003244
 31
0.0
  0
ARC
  5
D2D
330
18
100
AcDbEntity
  8
1
  6
Continuous
100
AcDbCircle
 10
84.02707522459593
 20
152.4380430002667
 30
0.0
 40
4.5
100
AcDbArc
 50
286.1276202131637
 51
73.87237978683625
  0
ARC
  5
D2E
330
18
100
AcDbEntity
  8
1
  6
Continuous
100
AcDbCircle
 10
84.02707522459593
 20
152.4380430002667
 30
0.0
 40
5.5
100
AcDbArc
 50
291.3051029737895
 51
248.6948970262104
  0
CIRCLE
  5
D2F
330
18
100
AcDbEntity
  8
1
  6
Continuous
100
AcDbCircle
 10
84.02707522459593
 20
152.4380430002667
 30
0.0
 40
5.599999999999998
  0
LINE
  5
D30
330
18
100
AcDbEntity
  8
1
  6
Continuous
100
AcDbLine
 10
76.24172333095906
 20
135.4970374478844
 30
0.0
 11
74.7232209637184
 21
135.4970374478844
 31
0.0
  0
ARC
  5
D31
330
18
100
AcDbEntity
  8
1
  6
Continuous
100
AcDbCircle
 10
75.47707522459768
 20
138.4380430000665
 30
0.0
 40
1.0
100
AcDbArc
 50
180.0
 51
211.7883306226022
  0
ARC
  5
D32
330
18
100
AcDbEntity
  8
1
  6
Continuous
100
AcDbCircle
 10
75.46952225802944
 20
141.4380430000599
 30
0.0
 40
1.0
100
AcDbArc
 50
180.1442507309408
 51
212.6005703924173
  0
LINE
  5
D33
330
18
100
AcDbEntity
  8
1
  6
Continuous
100
AcDbLine
 10
76.12707522463323
 20
136.8380430003194
 30
0.0
 11
76.12707522464802
 21
141.4380430003308
 31
0.0
  0
ARC
  5
D34
330
18
100
AcDbEntity
  8
1
  6
Continuous
100
AcDbCircle
 10
78.12707522464802
 20
141.4380430003244
 30
0.0
 40
2.0
100
AcDbArc
 50
90.0
 51
180.0
  0
LINE
  5
D35
330
18
100
AcDbEntity
  8
1
  6
Continuous
100
AcDbLine
 10
86.394699111449
 20
129.8945630239863
 30
0.0
 11
81.65945133784759
 21
129.8945630239832
 31
0.0
  0
LINE
  5
D36
330
18
100
AcDbEntity
  8
1
  6
Continuous
100
AcDbLine
 10
82.0270752246488
 20
129.195399478595
 30
0.0
 11
76.12707522464484
 21
140.4162832837437
 31
0.0
  0
LINE
  5
D37
330
18
100
AcDbEntity
  8
1
  6
Continuous
100
AcDbLine
 10
74.4292366003749
 20
157.4380430003195
 30
0.0
 11
74.62707522464871
 21
157.4380430003195
 31
0.0
  0
ARC
  5
D38
330
18
100
AcDbEntity
  8
1
  6
Continuous
100
AcDbCircle
 10
84.02707522459593
 20
152.4380430002667
 30
0.0
 40
5.000000000010571
100
AcDbArc
 50
75.52248781410369
 51
104.4775121858962
  0
LINE
  5
D39
330
18
100
AcDbEntity
  8
1
  6
Continuous
100
AcDbLine
 10
85.077075224596
 20
154.2880430002667
 30
0.0
 11
82.97707522459587
 21
154.2880430002667
 31
0.0
  0
LINE
  5
D3A
330
18
100
AcDbEntity
  8
1
  6
Continuous
100
AcDbLine
 10
74.45441315560255
 20
147.4380430003195
 30
0.0
 11
74.62707522464871
 21
147.4380430003195
 31
0.0
  0
LINE
  5
D3B
330
18
100
AcDbEntity
  8
1
  6
Continuous
100
AcDbLine
 10
74.62707522464871
 20
145.438043000435
 30
0.0
 11
74.47707522464873
 21
145.438043000435
 31
0.0
  0
LINE
  5
D3C
330
18
100
AcDbEntity
  8
1
  6
Continuous
100
AcDbLine
 10
74.62707522459345
 20
145.4380429998287
 30
0.0
 11
74.45944846664929
 21
145.4380429998287
 31
0.0
  0
LINE
  5
D3D
330
18
100
AcDbEntity
  8
1
  6
Continuous
100
AcDbLine
 10
82.97707522459587
 20
148.2622573565223
 30
0.0
 11
82.02873707567448
 21
147.3139192076008
 31
0.0
  0
ARC
  5
D3E
330
18
100
AcDbEntity
  8
1
  6
Continuous
100
AcDbCircle
 10
84.02707522459593
 20
152.4380430002667
 30
0.0
 40
4.5
100
AcDbArc
 50
254.417499999944
 51
285.5825000000558
  0
LINE
  5
D3F
330
18
100
AcDbEntity
  8
1
  6
Continuous
100
AcDbLine
 10
85.077075224596
 20
148.2622573565223
 30
0.0
 11
86.0254133735175
 21
147.3139192076008
 31
0.0
  0
LINE
  5
D40
330
18
100
AcDbEntity
  8
1
  6
Continuous
100
AcDbLine
 10
85.077075224596
 20
148.2622573565222
 30
0.0
 11
85.077075224596
 21
154.2880430002667
 31
0.0
  0
LINE
  5
D41
330
18
100
AcDbEntity
  8
1
  6
Continuous
100
AcDbLine
 10
82.97707522459587
 20
148.2622573565222
 30
0.0
 11
82.97707522459587
 21
154.2880430002667
 31
0.0
  0
ARC
  5
D42
330
18
100
AcDbEntity
  8
1
  6
Continuous
100
AcDbCircle
 10
84.02707522459593
 20
152.4380430002667
 30
0.0
 40
4.5
100
AcDbArc
 50
106.1276202131637
 51
253.8723797868362
  0
LINE
  5
D43
330
18
100
AcDbEntity
  8
1
  6
Continuous
100
AcDbLine
 10
85.27707522459593
 20
148.0622573565221
 30
0.0
 11
85.27707522459593
 21
157.2792721830368
 31
0.0
  0
LINE
  5
D44
330
18
100
AcDbEntity
  8
1
  6
Continuous
100
AcDbLine
 10
82.77707522459593
 20
148.0622573565221
 30
0.0
 11
82.77707522459593
 21
157.2792721830368
 31
0.0
  0
ARC
  5
D45
330
18
100
AcDbEntity
  8
1
  6
Continuous
100
AcDbCircle
 10
89.92707522464456
 20
141.4380430003146
 30
0.0
 40
2.0
100
AcDbArc
 50
0.0
 51
90.0
  0
LINE
  5
D46
330
18
100
AcDbEntity
  8
1
  6
Continuous
100
AcDbLine
 10
91.92707522464864
 20
136.8380430003194
 30
0.0
 11
91.92707522464479
 21
141.4380430003164
 31
0.0
  0
LINE
  5
D47
330
18
100
AcDbEntity
  8
1
  6
Continuous
100
AcDbLine
 10
93.33092948556531
 20
135.4970374478844
 30
0.0
 11
91.81242711832259
 21
135.4970374478844
 31
0.0
  0
ARC
  5
D48
330
18
100
AcDbEntity
  8
1
  6
Continuous
100
AcDbCircle
 10
92.57707522459758
 20
138.4380430000969
 30
0.0
 40
1.0
100
AcDbArc
 50
328.2116693884914
 51
0.0
  0
ARC
  5
D49
330
18
100
AcDbEntity
  8
1
  6
Continuous
100
AcDbCircle
 10
92.58462819116585
 20
141.4380430000903
 30
0.0
 40
1.0
100
AcDbArc
 50
327.3994296184385
 51
359.8557492690591
  0
LINE
  5
D4A
330
18
100
AcDbEntity
  8
1
  6
Continuous
100
AcDbLine
 10
93.42707522464865
 20
157.4380430003195
 30
0.0
 11
93.62491384882035
 21
157.4380430003195
 31
0.0
  0
LINE
  5
D4B
330
18
100
AcDbEntity
  8
1
  6
Continuous
100
AcDbLine
 10
93.42707522464865
 20
147.4380430003195
 30
0.0
 11
93.59973729359284
 21
147.4380430003195
 31
0.0
  0
LINE
  5
D4C
330
18
100
AcDbEntity
  8
1
  6
Continuous
100
AcDbLine
 10
93.57707522464876
 20
145.438043000435
 30
0.0
 11
93.42707522464865
 21
145.438043000435
 31
0.0
  0
LINE
  5
D4D
330
18
100
AcDbEntity
  8
1
  6
Continuous
100
AcDbLine
 10
93.59470198254598
 20
145.4380429998287
 30
0.0
 11
93.4270752245934
 21
145.4380429998287
 31
0.0
  0
LINE
  5
D51
330
18
100
AcDbEntity
  8
1
  6
Continuous
100
AcDbLine
 10
93.42707522474279
 20
224.7316101506265
 30
0.0
 11
93.42707522473551
 21
164.1380430004188
 31
0.0
  0
LINE
  5
D52
330
18
100
AcDbEntity
  8
1
  6
Continuous
100
AcDbLine
 10
74.62707522474284
 20
224.7316101570924
 30
0.0
 11
74.62707522473556
 21
164.1380430004189
 31
0.0
  0
LINE
  5
D53
330
18
100
AcDbEntity
  8
4
  6
CENTER
100
AcDbLine
 10
84.02707522460231
 20
237.6380429998556
 30
0.0
 11
15.2256099059565
 21
197.9154984775365
 31
0.0
  0
LINE
  5
D54
330
18
100
AcDbEntity
  8
5
  6
PHANTOM
100
AcDbLine
 10
88.72707522516192
 20
229.497404204
 30
0.0
 11
25.07420804686603
 21
192.7474042046795
 31
0.0
  0
LINE
  5
D55
330
18
100
AcDbEntity
  8
5
  6
PHANTOM
100
AcDbLine
 10
79.32707522516011
 20
245.7786817951464
 30
0.0
 11
15.67416332929679
 21
209.0286559773566
 31
0.0
  0
ARC
  5
D56
330
18
100
AcDbEntity
  8
5
  6
PHANTOM
100
AcDbCircle
 10
16.67420804686594
 20
207.2966309882581
 30
0.0
 40
2.0
100
AcDbArc
 50
120.0000000000001
 51
210.0000000000004
  0
LINE
  5
D57
330
18
100
AcDbEntity
  8
5
  6
PHANTOM
100
AcDbLine
 10
14.9421572392971
 20
206.2966309882581
 30
0.0
 11
22.34215723929708
 21
193.4794550122484
 31
0.0
  0
ARC
  5
D58
330
18
100
AcDbEntity
  8
5
  6
PHANTOM
100
AcDbCircle
 10
24.07420804686603
 20
194.4794550122484
 30
0.0
 40
2.0
100
AcDbArc
 50
210.0000000000004
 51
299.9999999999997
  0
LINE
  5
D59
330
18
100
AcDbEntity
  8
1
  6
Continuous
100
AcDbLine
 10
93.6349844709116
 20
161.4380430003114
 30
0.0
 11
74.41916597828377
 21
161.4380430003274
 31
0.0
  0
LINE
  5
D5A
330
18
100
AcDbEntity
  8
1
  6
Continuous
100
AcDbLine
 10
91.4270752247355
 20
162.1380430004188
 30
0.0
 11
76.62707522473557
 21
162.1380430004188
 31
0.0
  0
LINE
  5
D5B
330
18
100
AcDbEntity
  8
1
  6
Continuous
100
AcDbLine
 10
74.62707522473556
 20
167.5380430000646
 30
0.0
 11
74.47707522477583
 21
167.5380430000644
 31
0.0
  0
ARC
  5
D5C
330
18
100
AcDbEntity
  8
1
  6
Continuous
100
AcDbCircle
 10
75.39372832340359
 20
171.5430092833424
 30
0.0
 40
1.0
100
AcDbArc
 50
140.0542840245019
 51
180.1442507309408
  0
ARC
  5
D5D
330
18
100
AcDbEntity
  8
1
  6
Continuous
100
AcDbCircle
 10
75.38993858930087
 20
173.0482724412487
 30
0.0
 40
1.0
100
AcDbArc
 50
139.7172802086866
 51
180.1442507309408
  0
ARC
  5
D5E
330
18
100
AcDbEntity
  8
1
  6
Continuous
100
AcDbCircle
 10
75.6270752246487
 20
160.4380430003265
 30
0.0
 40
1.0
100
AcDbArc
 50
90.0
 51
180.0
  0
ARC
  5
D5F
330
18
100
AcDbEntity
  8
1
  6
Continuous
100
AcDbCircle
 10
76.62707522473557
 20
164.1380430004188
 30
0.0
 40
2.0
100
AcDbArc
 50
180.0
 51
270.0
  0
LINE
  5
D60
330
18
100
AcDbEntity
  8
1
  6
Continuous
100
AcDbLine
 10
79.5270752246488
 20
162.1380430010251
 30
0.0
 11
79.5270752246488
 21
161.4380430003232
 31
0.0
  0
LINE
  5
D61
330
18
100
AcDbEntity
  8
1
  6
Continuous
100
AcDbLine
 10
82.0270752246488
 20
162.1380430010251
 30
0.0
 11
82.0270752246488
 21
161.4380430003211
 31
0.0
  0
LINE
  5
D62
330
18
100
AcDbEntity
  8
1
  6
Continuous
100
AcDbLine
 10
86.0270752246488
 20
162.1380430010251
 30
0.0
 11
86.0270752246488
 21
161.4380430003178
 31
0.0
  0
LINE
  5
D63
330
18
100
AcDbEntity
  8
1
  6
Continuous
100
AcDbLine
 10
93.57707522460508
 20
167.5380430000984
 30
0.0
 11
93.42707522473551
 21
167.5380430000982
 31
0.0
  0
ARC
  5
D64
330
18
100
AcDbEntity
  8
1
  6
Continuous
100
AcDbCircle
 10
92.66042212579169
 20
171.5430092833731
 30
0.0
 40
1.0
100
AcDbArc
 50
359.8557492690591
 51
39.94571595070346
  0
ARC
  5
D65
330
18
100
AcDbEntity
  8
1
  6
Continuous
100
AcDbCircle
 10
92.66421185989452
 20
173.0482724412794
 30
0.0
 40
1.0
100
AcDbArc
 50
359.8557492690591
 51
40.28271976665268
  0
LINE
  5
D66
330
18
100
AcDbEntity
  8
1
  6
Continuous
100
AcDbLine
 10
88.5270752246488
 20
162.1380430010251
 30
0.0
 11
88.5270752246488
 21
161.4380430003157
 31
0.0
  0
ARC
  5
D67
330
18
100
AcDbEntity
  8
1
  6
Continuous
100
AcDbCircle
 10
92.42707522464868
 20
160.4380430003125
 30
0.0
 40
1.0
100
AcDbArc
 50
0.0
 51
90.0
  0
ARC
  5
D68
330
18
100
AcDbEntity
  8
1
  6
Continuous
100
AcDbCircle
 10
91.4270752247355
 20
164.1380430004188
 30
0.0
 40
2.0
100
AcDbArc
 50
270.0
 51
0.0
  0
ARC
  5
D70
330
18
100
AcDbEntity
  8
1
  6
Continuous
100
AcDbCircle
 10
84.02707522398259
 20
245.4380430002968
 30
0.0
 40
16.0
100
AcDbArc
 50
0.0
 51
180.0
  0
ARC
  5
D71
330
18
100
AcDbEntity
  8
1
  6
Continuous
100
AcDbCircle
 10
84.02707522398259
 20
245.4380430002968
 30
0.0
 40
12.0
100
AcDbArc
 50
0.0
 51
180.0
  0
LINE
  5
D72
330
18
100
AcDbEntity
  8
4
  6
CENTER
100
AcDbLine
 10
103.5326308592143
 20
237.6380430002968
 30
0.0
 11
64.74781689173744
 21
237.6380430002968
 31
0.0
  0
ARC
  5
D73
330
18
100
AcDbEntity
  8
1
  6
Continuous
100
AcDbCircle
 10
84.02707522459946
 20
237.8880430002968
 30
0.0
 40
9.75
100
AcDbArc
 50
359.8557492690591
 51
180.1442507309408
  0
LINE
  5
D76
330
18
100
AcDbEntity
  8
1
  6
Continuous
100
AcDbLine
 10
75.02707522459956
 20
234.8096158751096
 30
0.0
 11
75.02707522459956
 21
233.7489557033411
 31
0.0
  0
ARC
  5
D77
330
18
100
AcDbEntity
  8
1
  6
Continuous
100
AcDbCircle
 10
80.28662222107163
 20
233.1380430002968
 30
0.0
 40
6.0
100
AcDbArc
 50
180.1152346920688
 51
205.7884987792741
  0
LINE
  5
D78
330
18
100
AcDbEntity
  8
1
  6
Continuous
100
AcDbLine
 10
75.02707522459956
 20
233.7489557033411
 30
0.0
 11
74.62707522459959
 21
224.7316101538606
 31
0.0
  0
LINE
  5
D7A
330
18
100
AcDbEntity
  8
1
  6
Continuous
100
AcDbLine
 10
93.02707522459945
 20
234.8096158750983
 30
0.0
 11
93.02707522459945
 21
233.7489557033415
 31
0.0
  0
ARC
  5
D7B
330
18
100
AcDbEntity
  8
1
  6
Continuous
100
AcDbCircle
 10
87.76752822812703
 20
233.1380430002969
 30
0.0
 40
6.0
100
AcDbArc
 50
334.2115012207374
 51
359.8847653079295
  0
LINE
  5
D7C
330
18
100
AcDbEntity
  8
1
  6
Continuous
100
AcDbLine
 10
93.02707522459945
 20
233.7489557033415
 30
0.0
 11
93.42707522459958
 21
224.7316101538607
 31
0.0
  0
LINE
  5
DB8
330
18
100
AcDbEntity
  8
1
  6
Continuous
 48
0.25
100
AcDbLine
 10
91.82731946836829
 20
340.9665079394636
 30
0.0
 11
84.49398646836824
 21
346.4665079394637
 31
0.0
  0
LINE
  5
DB9
330
18
100
AcDbEntity
  8
1
  6
Continuous
 48
0.25
100
AcDbLine
 10
91.22731946836813
 20
340.1665079394637
 30
0.0
 11
83.89398646836809
 21
345.6665079394637
 31
0.0
  0
LINE
  5
DBA
330
18
100
AcDbEntity
  8
1
  6
Continuous
 48
0.25
100
AcDbLine
 10
76.46193596836827
 20
345.4212079394638
 30
0.0
 11
71.46193596836827
 21
337.9212079394637
 31
0.0
  0
LINE
  5
DBB
330
18
100
AcDbEntity
  8
1
  6
Continuous
 48
0.25
100
AcDbLine
 10
75.62988596836828
 20
345.9759084394637
 30
0.0
 11
70.62988596836828
 21
338.4759084394637
 31
0.0
  0
LINE
  5
DBC
330
18
100
AcDbEntity
  8
1
  6
Continuous
 48
0.25
100
AcDbLine
 10
92.62731946836822
 20
326.3665079394637
 30
0.0
 11
92.62731946836822
 21
339.3665079394637
 31
0.0
  0
LINE
  5
DBD
330
18
100
AcDbEntity
  8
1
  6
Continuous
 48
0.25
100
AcDbLine
 10
91.62731946836823
 20
326.3665079394637
 30
0.0
 11
91.62731946836823
 21
339.3665079394637
 31
0.0
  0
ARC
  5
DBE
330
18
100
AcDbEntity
  8
1
  6
Continuous
 48
0.25
100
AcDbCircle
 10
72.29398646836819
 20
328.3665079394637
 30
0.0
 40
1.0
100
AcDbArc
 50
180.0
 51
213.6900679999968
  0
ARC
  5
DBF
330
18
100
AcDbEntity
  8
1
  6
Continuous
 48
0.25
100
AcDbCircle
 10
76.67940196836809
 20
328.8665079394637
 30
0.0
 40
1.0
100
AcDbArc
 50
270.0
 51
0.0
  0
ARC
  5
DC0
330
18
100
AcDbEntity
  8
1
  6
Continuous
 48
0.25
100
AcDbCircle
 10
76.67940196836831
 20
328.8665079394928
 30
0.0
 40
1.0
100
AcDbArc
 50
270.0
 51
0.0
  0
ARC
  5
DC1
330
18
100
AcDbEntity
  8
1
  6
Continuous
 48
0.25
100
AcDbCircle
 10
74.7939864683684
 20
328.8665079394637
 30
0.0
 40
1.0
100
AcDbArc
 50
180.0
 51
270.0
  0
ARC
  5
DC2
330
18
100
AcDbEntity
  8
1
  6
Continuous
 48
0.25
100
AcDbCircle
 10
74.7939864683684
 20
328.8665079394928
 30
0.0
 40
1.0
100
AcDbArc
 50
180.0
 51
270.0
  0
ARC
  5
DC3
330
18
100
AcDbEntity
  8
1
  6
Continuous
 48
0.25
100
AcDbCircle
 10
72.29398646836819
 20
328.3665079394637
 30
0.0
 40
2.0
100
AcDbArc
 50
180.0
 51
213.6900679999968
  0
ARC
  5
DC4
330
18
100
AcDbEntity
  8
1
  6
Continuous
 48
0.25
100
AcDbCircle
 10
91.16511430154821
 20
332.8665079394927
 30
0.0
 40
11.46586083318
100
AcDbArc
 50
144.4620000000018
 51
215.5377000000024
  0
ARC
  5
DC5
330
18
100
AcDbEntity
  8
1
  6
Continuous
 48
0.25
100
AcDbCircle
 10
76.23342295154826
 20
332.8665079394927
 30
0.0
 40
11.46586083318
100
AcDbArc
 50
324.4620000000018
 51
35.53799999999817
  0
LINE
  5
DC6
330
18
100
AcDbEntity
  8
1
  6
Continuous
 48
0.25
100
AcDbLine
 10
77.2939864683684
 20
319.8665079394637
 30
0.0
 11
83.29398646836841
 21
319.8665079394637
 31
0.0
  0
LINE
  5
DC7
330
18
100
AcDbEntity
  8
1
  6
Continuous
 48
0.25
100
AcDbLine
 10
77.2939864683684
 20
318.8665079394637
 30
0.0
 11
83.29398646836841
 21
318.8665079394637
 31
0.0
  0
LINE
  5
DC8
330
18
100
AcDbEntity
  8
1
  6
Continuous
 48
0.25
100
AcDbLine
 10
71.46193596836827
 20
327.8118074394636
 30
0.0
 11
76.46193596836827
 21
320.3118074394637
 31
0.0
  0
ARC
  5
DC9
330
18
100
AcDbEntity
  8
1
  6
Continuous
 48
0.25
100
AcDbCircle
 10
77.2939864683684
 20
320.8665079394637
 30
0.0
 40
2.0
100
AcDbArc
 50
213.6900679999968
 51
270.0
  0
ARC
  5
DCA
330
18
100
AcDbEntity
  8
1
  6
Continuous
 48
0.25
100
AcDbCircle
 10
77.2939864683684
 20
320.8665079394637
 30
0.0
 40
1.0
100
AcDbArc
 50
213.6900679999968
 51
270.0
  0
LINE
  5
DCB
330
18
100
AcDbEntity
  8
1
  6
Continuous
 48
0.25
100
AcDbLine
 10
70.62988596836828
 20
327.2571074394637
 30
0.0
 11
75.62988596836828
 21
319.7571074394637
 31
0.0
  0
ARC
  5
DCC
330
18
100
AcDbEntity
  8
1
  6
Continuous
 48
0.25
100
AcDbCircle
 10
90.62731946836823
 20
326.3665079394637
 30
0.0
 40
1.0
100
AcDbArc
 50
306.8698979999997
 51
0.0
  0
ARC
  5
DCD
330
18
100
AcDbEntity
  8
1
  6
Continuous
 48
0.25
100
AcDbCircle
 10
83.69836640954815
 20
327.5344054694927
 30
0.0
 40
2.2906387413
100
AcDbArc
 50
270.0
 51
324.4620000000018
  0
ARC
  5
DCE
330
18
100
AcDbEntity
  8
1
  6
Continuous
 48
0.25
100
AcDbCircle
 10
83.69836640954815
 20
327.5344054694927
 30
0.0
 40
2.2906387413
100
AcDbArc
 50
215.5377000000024
 51
256.5374000000026
  0
LINE
  5
DCF
330
18
100
AcDbEntity
  8
1
  6
Continuous
 48
0.25
100
AcDbLine
 10
81.26057607554811
 20
327.0905147054928
 30
0.0
 11
85.09319389154814
 21
327.0905147054928
 31
0.0
  0
ARC
  5
DD0
330
18
100
AcDbEntity
  8
1
  6
Continuous
 48
0.25
100
AcDbCircle
 10
83.29398646836841
 20
320.8665079394637
 30
0.0
 40
2.0
100
AcDbArc
 50
270.0
 51
306.8698979999997
  0
ARC
  5
DD1
330
18
100
AcDbEntity
  8
1
  6
Continuous
 48
0.25
100
AcDbCircle
 10
83.29398646836841
 20
320.8665079394637
 30
0.0
 40
1.0
100
AcDbArc
 50
270.0
 51
306.8698979999997
  0
LINE
  5
DD2
330
18
100
AcDbEntity
  8
1
  6
Continuous
 48
0.25
100
AcDbLine
 10
84.49398646836824
 20
319.2665079394637
 30
0.0
 11
91.82731946836829
 21
324.7665079394636
 31
0.0
  0
LINE
  5
DD3
330
18
100
AcDbEntity
  8
1
  6
Continuous
 48
0.25
100
AcDbLine
 10
83.89398646836809
 20
320.0665079394635
 30
0.0
 11
91.22731946836813
 21
325.5665079394635
 31
0.0
  0
LINE
  5
DD4
330
18
100
AcDbEntity
  8
1
  6
Continuous
 48
0.25
100
AcDbLine
 10
77.6794019683681
 20
336.8665079394928
 30
0.0
 11
77.6794019683681
 21
334.6165079394928
 31
0.0
  0
ARC
  5
DD5
330
18
100
AcDbEntity
  8
1
  6
Continuous
 48
0.25
100
AcDbCircle
 10
76.67940196836809
 20
336.8665079394637
 30
0.0
 40
1.0
100
AcDbArc
 50
0.0
 51
90.0
  0
ARC
  5
DD6
330
18
100
AcDbEntity
  8
1
  6
Continuous
 48
0.25
100
AcDbCircle
 10
76.67940196836831
 20
336.8665079394928
 30
0.0
 40
1.0
100
AcDbArc
 50
0.0
 51
90.0
  0
ARC
  5
DD7
330
18
100
AcDbEntity
  8
1
  6
Continuous
 48
0.25
100
AcDbCircle
 10
74.7939864683684
 20
336.8665079394923
 30
0.0
 40
1.0
100
AcDbArc
 50
90.0
 51
180.0
  0
ARC
  5
DD8
330
18
100
AcDbEntity
  8
1
  6
Continuous
 48
0.25
100
AcDbCircle
 10
74.7939864683684
 20
336.8665079395215
 30
0.0
 40
1.0
100
AcDbArc
 50
90.0
 51
180.0
  0
ARC
  5
DD9
330
18
100
AcDbEntity
  8
1
  6
Continuous
 48
0.25
100
AcDbCircle
 10
72.29398646836819
 20
337.3665079395215
 30
0.0
 40
1.0
100
AcDbArc
 50
146.3099320000031
 51
180.0
  0
LINE
  5
DDA
330
18
100
AcDbEntity
  8
1
  6
Continuous
 48
0.25
100
AcDbLine
 10
74.7939864683684
 20
337.866507939493
 30
0.0
 11
76.67940196836831
 21
337.8665079394928
 31
0.0
  0
LINE
  5
DDB
330
18
100
AcDbEntity
  8
1
  6
Continuous
 48
0.25
100
AcDbLine
 10
77.6794019683681
 20
331.1165079394928
 30
0.0
 11
77.6794019683681
 21
328.8665079394928
 31
0.0
  0
LINE
  5
DDC
330
18
100
AcDbEntity
  8
1
  6
Continuous
 48
0.25
100
AcDbLine
 10
77.6794019683681
 20
336.8665079394637
 30
0.0
 11
77.6794019683681
 21
328.8665079394637
 31
0.0
  0
LINE
  5
DDD
330
18
100
AcDbEntity
  8
1
  6
Continuous
 48
0.25
100
AcDbLine
 10
73.79398646836818
 20
336.8665079395215
 30
0.0
 11
73.79398646836818
 21
328.8665079394637
 31
0.0
  0
LINE
  5
DDE
330
18
100
AcDbEntity
  8
1
  6
Continuous
 48
0.25
100
AcDbLine
 10
73.79398646836818
 20
335.7200613300563
 30
0.0
 11
73.79398646836818
 21
328.8665079394931
 31
0.0
  0
LINE
  5
DDF
330
18
100
AcDbEntity
  8
1
  6
Continuous
 48
0.25
100
AcDbLine
 10
74.7939864683684
 20
327.8665079394637
 30
0.0
 11
76.67940196836809
 21
327.8665079394637
 31
0.0
  0
LINE
  5
DE0
330
18
100
AcDbEntity
  8
1
  6
Continuous
 48
0.25
100
AcDbLine
 10
74.7939864683684
 20
327.866507939493
 30
0.0
 11
76.67940196836831
 21
327.8665079394928
 31
0.0
  0
LINE
  5
DE1
330
18
100
AcDbEntity
  8
1
  6
Continuous
 48
0.25
100
AcDbLine
 10
71.29398646836818
 20
337.3665079395215
 30
0.0
 11
71.29398646836818
 21
328.3665079394637
 31
0.0
  0
LINE
  5
DE2
330
18
100
AcDbEntity
  8
1
  6
Continuous
 48
0.25
100
AcDbLine
 10
70.29398646836819
 20
337.3665079395215
 30
0.0
 11
70.29398646836819
 21
328.3665079394637
 31
0.0
  0
ARC
  5
DE3
330
18
100
AcDbEntity
  8
1
  6
Continuous
 48
0.25
100
AcDbCircle
 10
72.29398646836819
 20
337.3665079395215
 30
0.0
 40
2.0
100
AcDbArc
 50
146.3099320000031
 51
180.0
  0
ARC
  5
DE4
330
18
100
AcDbEntity
  8
1
  6
Continuous
 48
0.25
100
AcDbCircle
 10
83.69836640954815
 20
338.2004148434926
 30
0.0
 40
2.2906387413
100
AcDbArc
 50
62.25000000000327
 51
144.4620000000018
  0
ARC
  5
DE5
330
18
100
AcDbEntity
  8
1
  6
Continuous
 48
0.25
100
AcDbCircle
 10
83.69836640954815
 20
338.2004148434926
 30
0.0
 40
2.2906387413
100
AcDbArc
 50
35.53799999999817
 51
45.69900000000278
  0
ARC
  5
DE6
330
18
100
AcDbEntity
  8
1
  6
Continuous
 48
0.25
100
AcDbCircle
 10
86.62515835754822
 20
334.2902063654927
 30
0.0
 40
0.08890446318
100
AcDbArc
 50
270.0
 51
7.793000000000557
  0
ARC
  5
DE7
330
18
100
AcDbEntity
  8
1
  6
Continuous
 48
0.25
100
AcDbCircle
 10
76.23342295154826
 20
332.8665079394927
 30
0.0
 40
10.5770507778
100
AcDbArc
 50
7.793000000000557
 51
10.10400000000033
  0
ARC
  5
DE8
330
18
100
AcDbEntity
  8
1
  6
Continuous
 48
0.25
100
AcDbCircle
 10
86.20833410354828
 20
334.6456798634927
 30
0.0
 40
0.4445223159000001
100
AcDbArc
 50
10.10400000000033
 51
90.0
  0
ARC
  5
DE9
330
18
100
AcDbEntity
  8
1
  6
Continuous
 48
0.25
100
AcDbCircle
 10
85.89075371954811
 20
328.7794649294927
 30
0.0
 40
0.08890446318
100
AcDbArc
 50
337.0560000000019
 51
90.0
  0
ARC
  5
DEA
330
18
100
AcDbEntity
  8
1
  6
Continuous
 48
0.25
100
AcDbCircle
 10
76.23342295154826
 20
332.8665079394927
 30
0.0
 40
10.5770507778
100
AcDbArc
 50
344.7939999999994
 51
347.2710000000012
  0
ARC
  5
DEB
330
18
100
AcDbEntity
  8
1
  6
Continuous
 48
0.25
100
AcDbCircle
 10
76.23342295154826
 20
332.8665079394927
 30
0.0
 40
10.5770507778
100
AcDbArc
 50
344.7419999999996
 51
344.7939999999994
  0
ARC
  5
DEC
330
18
100
AcDbEntity
  8
1
  6
Continuous
 48
0.25
100
AcDbCircle
 10
86.46275929754834
 20
330.5568324194926
 30
0.0
 40
0.08890446318
100
AcDbArc
 50
347.2710000000012
 51
90.0
  0
ARC
  5
DED
330
18
100
AcDbEntity
  8
1
  6
Continuous
 48
0.25
100
AcDbCircle
 10
86.0080419295483
 20
330.2013589214926
 30
0.0
 40
0.4445223159000001
100
AcDbArc
 50
270.0
 51
344.7419999999996
  0
LINE
  5
DEE
330
18
100
AcDbEntity
  8
1
  6
Continuous
 48
0.25
100
AcDbLine
 10
83.69836640954815
 20
335.0895706274926
 30
0.0
 11
83.69836640954815
 21
334.6456798634927
 31
0.0
  0
ARC
  5
DEF
330
18
100
AcDbEntity
  8
1
  6
Continuous
 48
0.25
100
AcDbCircle
 10
83.25447564554826
 20
337.3108288814927
 30
0.0
 40
0.4445223159000001
100
AcDbArc
 50
270.0
 51
90.0
  0
ARC
  5
DF0
330
18
100
AcDbEntity
  8
1
  6
Continuous
 48
0.25
100
AcDbCircle
 10
91.16511430154821
 20
332.8665079394927
 30
0.0
 40
10.5770507778
100
AcDbArc
 50
169.8959999999996
 51
172.2069999999994
  0
ARC
  5
DF1
330
18
100
AcDbEntity
  8
1
  6
Continuous
 48
0.25
100
AcDbCircle
 10
80.77337889554826
 20
334.2902063654927
 30
0.0
 40
0.08890446318
100
AcDbArc
 50
172.2069999999994
 51
270.0
  0
ARC
  5
DF2
330
18
100
AcDbEntity
  8
1
  6
Continuous
 48
0.25
100
AcDbCircle
 10
81.19020314954822
 20
334.6456798634927
 30
0.0
 40
0.4445223159000001
100
AcDbArc
 50
90.0
 51
169.8959999999996
  0
LINE
  5
DF3
330
18
100
AcDbEntity
  8
1
  6
Continuous
 48
0.25
100
AcDbLine
 10
82.63194591554826
 20
335.0895706274926
 30
0.0
 11
81.19020314954822
 21
335.0895706274926
 31
0.0
  0
LINE
  5
DF4
330
18
100
AcDbEntity
  8
1
  6
Continuous
 48
0.25
100
AcDbLine
 10
81.1956164515483
 20
336.8669381174929
 30
0.0
 11
83.25447564554826
 21
336.8669381174929
 31
0.0
  0
LINE
  5
DF5
330
18
100
AcDbEntity
  8
1
  6
Continuous
 48
0.25
100
AcDbLine
 10
83.25447564554826
 20
337.7565240794928
 30
0.0
 11
81.3562110775482
 21
337.7565240794928
 31
0.0
  0
LINE
  5
DF6
330
18
100
AcDbEntity
  8
1
  6
Continuous
 48
0.25
100
AcDbLine
 10
85.3620545575483
 20
338.2076325794927
 30
0.0
 11
81.61604957354837
 21
339.2127023174927
 31
0.0
  0
LINE
  5
DF7
330
18
100
AcDbEntity
  8
1
  6
Continuous
 48
0.25
100
AcDbLine
 10
83.69836640954815
 20
332.4226171754927
 30
0.0
 11
83.69836640954815
 21
331.5348356474927
 31
0.0
  0
ARC
  5
DF8
330
18
100
AcDbEntity
  8
1
  6
Continuous
 48
0.25
100
AcDbCircle
 10
81.50597909954822
 20
328.7794649294927
 30
0.0
 40
0.08890446318
100
AcDbArc
 50
90.0
 51
202.9439999999981
  0
ARC
  5
DF9
330
18
100
AcDbEntity
  8
1
  6
Continuous
 48
0.25
100
AcDbCircle
 10
91.16511430154821
 20
332.8665079394927
 30
0.0
 40
10.5770507778
100
AcDbArc
 50
193.2681000000006
 51
195.2575000000008
  0
ARC
  5
DFA
330
18
100
AcDbEntity
  8
1
  6
Continuous
 48
0.25
100
AcDbCircle
 10
80.93577795554836
 20
330.5568324194926
 30
0.0
 40
0.08890446318
100
AcDbArc
 50
90.0
 51
192.7288999999993
  0
ARC
  5
DFB
330
18
100
AcDbEntity
  8
1
  6
Continuous
 48
0.25
100
AcDbCircle
 10
91.16511430154821
 20
332.8665079394927
 30
0.0
 40
10.5770507778
100
AcDbArc
 50
192.7288999999993
 51
193.2681000000006
  0
ARC
  5
DFC
330
18
100
AcDbEntity
  8
1
  6
Continuous
 48
0.25
100
AcDbCircle
 10
81.39049532354817
 20
330.2013589214926
 30
0.0
 40
0.4445223159000001
100
AcDbArc
 50
195.2575000000008
 51
270.0
  0
LINE
  5
DFD
330
18
100
AcDbEntity
  8
1
  6
Continuous
 48
0.25
100
AcDbLine
 10
82.63194591554826
 20
330.6452496854928
 30
0.0
 11
80.93577795554836
 21
330.6452496854928
 31
0.0
  0
LINE
  5
DFE
330
18
100
AcDbEntity
  8
1
  6
Continuous
 48
0.25
100
AcDbLine
 10
85.33859691554823
 20
327.9782962334926
 30
0.0
 11
82.05994033754825
 21
327.9782962334926
 31
0.0
  0
ARC
  5
DFF
330
18
100
AcDbEntity
  8
1
  6
Continuous
 48
0.25
100
AcDbCircle
 10
85.33859691554823
 20
328.4239914314927
 30
0.0
 40
0.4445223159000001
100
AcDbArc
 50
270.0
 51
333.9859999999999
  0
ARC
  5
E00
330
18
100
AcDbEntity
  8
1
  6
Continuous
 48
0.25
100
AcDbCircle
 10
82.05994033754825
 20
328.4239914314927
 30
0.0
 40
0.4445223159000001
100
AcDbArc
 50
206.0143999999998
 51
270.0
  0
ARC
  5
E01
330
18
100
AcDbEntity
  8
1
  6
Continuous
 48
0.25
100
AcDbCircle
 10
91.16511430154821
 20
332.8665079394927
 30
0.0
 40
10.5770507778
100
AcDbArc
 50
202.9439999999981
 51
206.0143999999998
  0
LINE
  5
E02
330
18
100
AcDbEntity
  8
1
  6
Continuous
 48
0.25
100
AcDbLine
 10
86.20833410354828
 20
335.0895706274926
 30
0.0
 11
83.69836640954815
 21
335.0895706274926
 31
0.0
  0
LINE
  5
E03
330
18
100
AcDbEntity
  8
1
  6
Continuous
 48
0.25
100
AcDbLine
 10
83.69836640954815
 20
337.3108288814927
 30
0.0
 11
85.83120739754837
 21
337.3108288814927
 31
0.0
  0
LINE
  5
E04
330
18
100
AcDbEntity
  8
1
  6
Continuous
 48
0.25
100
AcDbLine
 10
80.77698776354814
 20
335.9773521554926
 30
0.0
 11
86.34186221954825
 21
335.9773521554926
 31
0.0
  0
LINE
  5
E05
330
18
100
AcDbEntity
  8
1
  6
Continuous
 48
0.25
100
AcDbLine
 10
80.59834879754829
 20
333.3122031374927
 30
0.0
 11
86.80018845554821
 21
333.3122031374927
 31
0.0
  0
LINE
  5
E06
330
18
100
AcDbEntity
  8
1
  6
Continuous
 48
0.25
100
AcDbLine
 10
80.59834879754829
 20
332.4226171754927
 30
0.0
 11
86.80018845554821
 21
332.4226171754927
 31
0.0
  0
LINE
  5
E07
330
18
100
AcDbEntity
  8
1
  6
Continuous
 48
0.25
100
AcDbLine
 10
80.77337889554826
 20
334.1999846654926
 30
0.0
 11
86.62515835754822
 21
334.1999846654926
 31
0.0
  0
LINE
  5
E08
330
18
100
AcDbEntity
  8
1
  6
Continuous
 48
0.25
100
AcDbLine
 10
80.6723305915483
 20
331.5348356474927
 30
0.0
 11
86.72620666154818
 21
331.5348356474927
 31
0.0
  0
LINE
  5
E09
330
18
100
AcDbEntity
  8
1
  6
Continuous
 48
0.25
100
AcDbLine
 10
81.50597909954822
 20
328.8678821954925
 30
0.0
 11
85.89075371954811
 21
328.8678821954925
 31
0.0
  0
LINE
  5
E0A
330
18
100
AcDbEntity
  8
1
  6
Continuous
 48
0.25
100
AcDbLine
 10
86.46275929754834
 20
330.6452496854928
 30
0.0
 11
84.76478690354827
 21
330.6452496854928
 31
0.0
  0
LINE
  5
E0B
330
18
100
AcDbEntity
  8
1
  6
Continuous
 48
0.25
100
AcDbLine
 10
81.39049532354817
 20
329.7556637234926
 30
0.0
 11
86.0080419295483
 21
329.7556637234926
 31
0.0
  0
ARC
  5
E0C
330
18
100
AcDbEntity
  8
1
  6
Continuous
 48
0.25
100
AcDbCircle
 10
76.23342295154826
 20
332.8665079394927
 30
0.0
 40
10.5770507778
100
AcDbArc
 50
333.9859999999999
 51
337.0560000000019
  0
ARC
  5
E0D
330
18
100
AcDbEntity
  8
1
  6
Continuous
 48
0.25
100
AcDbCircle
 10
90.62731946836823
 20
339.3665079394637
 30
0.0
 40
1.0
100
AcDbArc
 50
0.0
 51
53.13010200000036
  0
LINE
  5
E0E
330
18
100
AcDbEntity
  8
1
  6
Continuous
 48
0.25
100
AcDbLine
 10
83.69836640954815
 20
340.4902415894927
 30
0.0
 11
83.69836640954815
 21
338.6533277774925
 31
0.0
  0
LINE
  5
E0F
330
18
100
AcDbEntity
  8
1
  6
Continuous
 48
0.25
100
AcDbLine
 10
83.29398646836841
 20
346.8665079394636
 30
0.0
 11
77.2939864683684
 21
346.8665079394636
 31
0.0
  0
LINE
  5
E10
330
18
100
AcDbEntity
  8
1
  6
Continuous
 48
0.25
100
AcDbLine
 10
83.29398646836841
 20
345.8665079394636
 30
0.0
 11
77.2939864683684
 21
345.8665079394636
 31
0.0
  0
ARC
  5
E11
330
18
100
AcDbEntity
  8
1
  6
Continuous
 48
0.25
100
AcDbCircle
 10
77.2939864683684
 20
344.8665079394637
 30
0.0
 40
1.0
100
AcDbArc
 50
90.0
 51
146.3099320000018
  0
ARC
  5
E12
330
18
100
AcDbEntity
  8
1
  6
Continuous
 48
0.25
100
AcDbCircle
 10
77.2939864683684
 20
344.8665079394637
 30
0.0
 40
2.0
100
AcDbArc
 50
90.0
 51
146.3099320000018
  0
ARC
  5
E13
330
18
100
AcDbEntity
  8
1
  6
Continuous
 48
0.25
100
AcDbCircle
 10
83.29398646836841
 20
344.8665079394637
 30
0.0
 40
2.0
100
AcDbArc
 50
53.13010200000036
 51
90.0
  0
ARC
  5
E14
330
18
100
AcDbEntity
  8
1
  6
Continuous
 48
0.25
100
AcDbCircle
 10
83.29398646836841
 20
344.8665079394637
 30
0.0
 40
1.0
100
AcDbArc
 50
53.13010200000036
 51
90.0
  0
ARC
  5
E3C
330
18
100
AcDbEntity
  8
1
  6
Continuous
100
AcDbCircle
 10
434.3266865538708
 20
157.9380430005798
 30
0.0
 40
2.0
100
AcDbArc
 50
0.0
 51
90.0
  0
ARC
  5
E3D
330
18
100
AcDbEntity
  8
1
  6
Continuous
100
AcDbCircle
 10
423.3266865539031
 20
157.9380430005798
 30
0.0
 40
2.0
100
AcDbArc
 50
90.0
 51
180.0
  0
LINE
  5
E3E
330
18
100
AcDbEntity
  8
1
  6
Continuous
100
AcDbLine
 10
412.8266865529924
 20
176.6380430002988
 30
0.0
 11
412.8266865529924
 21
139.4380430005783
 31
0.0
  0
LINE
  5
E3F
330
18
100
AcDbEntity
  8
1
  6
Continuous
100
AcDbLine
 10
441.6266865537773
 20
176.6380430002707
 30
0.0
 11
441.6266865538346
 21
137.4380430005849
 31
0.0
  0
LINE
  5
E40
330
18
100
AcDbEntity
  8
1
  6
Continuous
100
AcDbLine
 10
416.0266865537771
 20
176.6380430002957
 30
0.0
 11
416.0266865538345
 21
137.4380430005716
 31
0.0
  0
LINE
  5
E41
330
18
100
AcDbEntity
  8
1
  6
Continuous
100
AcDbLine
 10
444.8266865529921
 20
139.4380430005783
 30
0.0
 11
444.8266865529921
 21
176.6380430002675
 31
0.0
  0
LINE
  5
E42
330
18
100
AcDbEntity
  8
1
  6
Continuous
100
AcDbLine
 10
416.1266865536396
 20
166.2380430005783
 30
0.0
 11
416.1266865536396
 21
137.4380430005783
 31
0.0
  0
LINE
  5
E43
330
18
100
AcDbEntity
  8
1
  6
Continuous
100
AcDbLine
 10
441.5266865536398
 20
137.4380430005783
 30
0.0
 11
441.5266865536398
 21
166.2380430005783
 31
0.0
  0
ARC
  5
E44
330
18
100
AcDbEntity
  8
1
  6
Continuous
100
AcDbCircle
 10
296.425831884866
 20
158.9380430003823
 30
0.0
 40
1.0
100
AcDbArc
 50
0.0
 51
90.0
  0
LINE
  5
E45
330
18
100
AcDbEntity
  8
1
  6
Continuous
100
AcDbLine
 10
270.5258318848668
 20
135.4970374478193
 30
0.0
 11
270.5258318848277
 21
160.4380430002444
 31
0.0
  0
LINE
  5
E46
330
18
100
AcDbEntity
  8
1
  6
Continuous
100
AcDbLine
 10
294.9258318848658
 20
134.4380430002949
 30
0.0
 11
294.9258318848658
 21
170.4380430002949
 31
0.0
  0
LINE
  5
E47
330
18
100
AcDbEntity
  8
1
  6
Continuous
100
AcDbLine
 10
291.9258318848658
 20
171.8482724414459
 30
0.0
 11
291.9258318848658
 21
134.4380430002546
 31
0.0
  0
LINE
  5
E48
330
18
100
AcDbEntity
  8
1
  6
Continuous
100
AcDbLine
 10
276.9258318848608
 20
261.4380430002595
 30
0.0
 11
276.9258318848658
 21
123.4380430002741
 31
0.0
  0
LINE
  5
E49
330
18
100
AcDbEntity
  8
1
  6
Continuous
100
AcDbLine
 10
278.9258318848608
 20
261.4380430002595
 30
0.0
 11
278.9258318848658
 21
123.4380430002741
 31
0.0
  0
LINE
  5
E4A
330
18
100
AcDbEntity
  8
1
  6
Continuous
100
AcDbLine
 10
273.9258318848608
 20
257.4380430002512
 30
0.0
 11
273.9258318848658
 21
127.4380430002814
 31
0.0
  0
LINE
  5
E4B
330
18
100
AcDbEntity
  8
4
  6
CENTER
100
AcDbLine
 10
428.8266865538735
 20
119.8827030870204
 30
0.0
 11
428.826686553655
 21
263.3605491679929
 31
0.0
  0
LINE
  5
E4C
330
18
100
AcDbEntity
  8
1
  6
Continuous
100
AcDbLine
 10
270.5258318848666
 20
135.4970374478192
 30
0.0
 11
268.5258318848768
 21
128.9380430002451
 31
0.0
  0
ARC
  5
E4D
330
18
100
AcDbEntity
  8
1
  6
Continuous
100
AcDbCircle
 10
270.0258318848771
 20
128.9380430002452
 30
0.0
 40
1.5
100
AcDbArc
 50
180.0
 51
270.0
  0
LINE
  5
E4E
330
18
100
AcDbEntity
  8
1
  6
Continuous
100
AcDbLine
 10
273.7258318848792
 20
127.6380430002474
 30
0.0
 11
273.7258318848719
 21
132.2380430002474
 31
0.0
  0
LINE
  5
E4F
330
18
100
AcDbEntity
  8
1
  6
Continuous
100
AcDbLine
 10
273.5258318848796
 20
127.4380430002471
 30
0.0
 11
273.5258318848577
 21
141.4380430002451
 31
0.0
  0
LINE
  5
E50
330
18
100
AcDbEntity
  8
1
  6
Continuous
100
AcDbLine
 10
273.9258318848712
 20
127.4380430002742
 30
0.0
 11
276.9258318848656
 21
123.4380430002741
 31
0.0
  0
ARC
  5
E51
330
18
100
AcDbEntity
  8
1
  6
Continuous
100
AcDbCircle
 10
273.5258318848791
 20
127.6380430002471
 30
0.0
 40
0.2
100
AcDbArc
 50
270.0
 51
0.0
  0
LINE
  5
E52
330
18
100
AcDbEntity
  8
1
  6
Continuous
100
AcDbLine
 10
273.5258318848791
 20
127.4380430002471
 30
0.0
 11
270.0258318848777
 21
127.4380430002452
 31
0.0
  0
LINE
  5
E53
330
18
100
AcDbEntity
  8
1
  6
Continuous
100
AcDbLine
 10
276.925831884869
 20
123.43804300027
 30
0.0
 11
278.9258318848719
 21
123.4380430002672
 31
0.0
  0
ARC
  5
E54
330
18
100
AcDbEntity
  8
1
  6
Continuous
100
AcDbCircle
 10
296.425831884866
 20
142.9380430003263
 30
0.0
 40
1.0
100
AcDbArc
 50
270.0
 51
0.0
  0
LINE
  5
E55
330
18
100
AcDbEntity
  8
1
  6
Continuous
100
AcDbLine
 10
294.925831884866
 20
134.4380430002549
 30
0.0
 11
278.92583188477
 21
134.4380430002525
 31
0.0
  0
ARC
  5
E56
330
18
100
AcDbEntity
  8
1
  6
Continuous
100
AcDbCircle
 10
275.5258318848575
 20
141.4380430002482
 30
0.0
 40
2.0
100
AcDbArc
 50
143.1301023537599
 51
180.0
  0
ARC
  5
E57
330
18
100
AcDbEntity
  8
1
  6
Continuous
100
AcDbCircle
 10
273.5258318848718
 20
132.238043000247
 30
0.0
 40
0.2
100
AcDbArc
 50
0.0
 51
90.0
  0
LINE
  5
E58
330
18
100
AcDbEntity
  8
1
  6
Continuous
100
AcDbLine
 10
294.925831884866
 20
141.938043000327
 30
0.0
 11
296.425831884866
 21
141.938043000327
 31
0.0
  0
LINE
  5
E59
330
18
100
AcDbEntity
  8
1
  6
Continuous
100
AcDbLine
 10
297.425831884866
 20
142.9380430003263
 30
0.0
 11
297.425831884866
 21
158.9380430003823
 31
0.0
  0
ARC
  5
E5E
330
18
100
AcDbEntity
  8
1
  6
Continuous
100
AcDbCircle
 10
428.8266865529921
 20
139.4380430005783
 30
0.0
 40
15.99999999999994
100
AcDbArc
 50
180.0
 51
0.0
  0
LINE
  5
E5F
330
18
100
AcDbEntity
  8
1
  6
Continuous
100
AcDbLine
 10
419.1266865536396
 20
134.4380430005783
 30
0.0
 11
438.5266865536398
 21
134.4380430005783
 31
0.0
  0
LINE
  5
E60
330
18
100
AcDbEntity
  8
1
  6
Continuous
100
AcDbLine
 10
423.3266865538356
 20
141.9380430005771
 30
0.0
 11
434.3266865538688
 21
141.9380430005771
 31
0.0
  0
LINE
  5
E61
330
18
100
AcDbEntity
  8
1
  6
Continuous
100
AcDbLine
 10
421.3266865538408
 20
143.938043000586
 30
0.0
 11
421.3266865539033
 21
157.9380430005887
 31
0.0
  0
LINE
  5
E62
330
18
100
AcDbEntity
  8
4
  6
CENTER
100
AcDbLine
 10
415.5266865538346
 20
137.4380430005783
 30
0.0
 11
424.1266865538346
 21
137.4380430005783
 31
0.0
  0
CIRCLE
  5
E63
330
18
100
AcDbEntity
  8
1
  6
Continuous
100
AcDbCircle
 10
419.8266865538346
 20
137.4380430005783
 30
0.0
 40
2.6
  0
CIRCLE
  5
E64
330
18
100
AcDbEntity
  8
1
  6
Continuous
100
AcDbCircle
 10
419.8266865538346
 20
137.4380430005783
 30
0.0
 40
2.799999999999998
  0
ARC
  5
E65
330
18
100
AcDbEntity
  8
1
  6
Continuous
100
AcDbCircle
 10
419.1266865536396
 20
137.4380430005783
 30
0.0
 40
3.0
100
AcDbArc
 50
180.0
 51
270.0
  0
ARC
  5
E66
330
18
100
AcDbEntity
  8
1
  6
Continuous
100
AcDbCircle
 10
419.0266865538347
 20
137.4380430005783
 30
0.0
 40
3.0
100
AcDbArc
 50
180.0
 51
270.0
  0
LINE
  5
E67
330
18
100
AcDbEntity
  8
1
  6
Continuous
100
AcDbLine
 10
419.3269360279002
 20
136.9382924746443
 30
0.0
 11
419.0609511611905
 21
137.0567165671615
 31
0.0
  0
LINE
  5
E68
330
18
100
AcDbEntity
  8
1
  6
Continuous
100
AcDbLine
 10
419.3269360279008
 20
137.9377935265122
 30
0.0
 11
419.060951161191
 21
137.819369433995
 31
0.0
  0
ARC
  5
E69
330
18
100
AcDbEntity
  8
1
  6
Continuous
100
AcDbCircle
 10
419.8266865538346
 20
137.4380430005783
 30
0.0
 40
1.3
100
AcDbArc
 50
163.3282509640188
 51
196.6717490359764
  0
LINE
  5
E6A
330
18
100
AcDbEntity
  8
1
  6
Continuous
100
AcDbLine
 10
419.060951161191
 20
137.0567165671615
 30
0.0
 11
418.5813332655254
 21
137.0650883286709
 31
0.0
  0
LINE
  5
E6B
330
18
100
AcDbEntity
  8
1
  6
Continuous
100
AcDbLine
 10
419.0609511611905
 20
137.819369433995
 30
0.0
 11
418.5813332655252
 21
137.8109976724855
 31
0.0
  0
ARC
  5
E6C
330
18
100
AcDbEntity
  8
1
  6
Continuous
100
AcDbCircle
 10
419.8266865538346
 20
137.4380430005783
 30
0.0
 40
1.3
100
AcDbArc
 50
73.32825096401633
 51
106.6717490359836
  0
ARC
  5
E6D
330
18
100
AcDbEntity
  8
1
  6
Continuous
100
AcDbCircle
 10
419.8266865538346
 20
137.4380430005783
 30
0.0
 40
1.3
100
AcDbArc
 50
253.3282509640094
 51
286.6717490359702
  0
ARC
  5
E6E
330
18
100
AcDbEntity
  8
1
  6
Continuous
100
AcDbCircle
 10
419.8266865538346
 20
137.4380430005783
 30
0.0
 40
1.3
100
AcDbArc
 50
343.3282509640044
 51
16.67174903597494
  0
LINE
  5
E6F
330
18
100
AcDbEntity
  8
1
  6
Continuous
100
AcDbLine
 10
419.3269360279003
 20
136.9382924746444
 30
0.0
 11
419.4453601204177
 21
136.6723076079348
 31
0.0
  0
LINE
  5
E70
330
18
100
AcDbEntity
  8
1
  6
Continuous
100
AcDbLine
 10
419.4453601204177
 20
136.6723076079348
 30
0.0
 11
419.4537318819271
 21
136.1926897122691
 31
0.0
  0
LINE
  5
E71
330
18
100
AcDbEntity
  8
1
  6
Continuous
100
AcDbLine
 10
420.2080129872511
 20
136.6723076079344
 30
0.0
 11
420.1996412257416
 21
136.1926897122691
 31
0.0
  0
LINE
  5
E72
330
18
100
AcDbEntity
  8
1
  6
Continuous
100
AcDbLine
 10
420.3264370797685
 20
136.9382924746443
 30
0.0
 11
420.2080129872511
 21
136.6723076079342
 31
0.0
  0
LINE
  5
E73
330
18
100
AcDbEntity
  8
1
  6
Continuous
100
AcDbLine
 10
420.3264370797686
 20
136.9382924746444
 30
0.0
 11
420.5924219464783
 21
137.0567165671615
 31
0.0
  0
LINE
  5
E74
330
18
100
AcDbEntity
  8
1
  6
Continuous
100
AcDbLine
 10
420.5924219464783
 20
137.0567165671614
 30
0.0
 11
421.072039842144
 21
137.065088328671
 31
0.0
  0
LINE
  5
E75
330
18
100
AcDbEntity
  8
1
  6
Continuous
100
AcDbLine
 10
420.5924219464783
 20
137.8193694339947
 30
0.0
 11
421.0720398421434
 21
137.8109976724853
 31
0.0
  0
LINE
  5
E76
330
18
100
AcDbEntity
  8
1
  6
Continuous
100
AcDbLine
 10
420.3264370797685
 20
137.937793526512
 30
0.0
 11
420.5924219464783
 21
137.8193694339949
 31
0.0
  0
LINE
  5
E77
330
18
100
AcDbEntity
  8
1
  6
Continuous
100
AcDbLine
 10
420.3264370797686
 20
137.9377935265123
 30
0.0
 11
420.2080129872515
 21
138.203778393222
 31
0.0
  0
LINE
  5
E78
330
18
100
AcDbEntity
  8
1
  6
Continuous
100
AcDbLine
 10
420.2080129872515
 20
138.203778393222
 30
0.0
 11
420.1996412257422
 21
138.6833962888876
 31
0.0
  0
LINE
  5
E79
330
18
100
AcDbEntity
  8
1
  6
Continuous
100
AcDbLine
 10
419.4453601204177
 20
138.2037783932217
 30
0.0
 11
419.4537318819271
 21
138.6833962888875
 31
0.0
  0
LINE
  5
E7A
330
18
100
AcDbEntity
  8
1
  6
Continuous
100
AcDbLine
 10
419.3269360279008
 20
137.9377935265123
 30
0.0
 11
419.4453601204179
 21
138.2037783932218
 31
0.0
  0
ARC
  5
E7B
330
18
100
AcDbEntity
  8
1
  6
Continuous
100
AcDbCircle
 10
423.3266865538356
 20
143.9380430005771
 30
0.0
 40
2.0
100
AcDbArc
 50
180.0
 51
270.0
  0
LINE
  5
E7C
330
18
100
AcDbEntity
  8
4
  6
CENTER
100
AcDbLine
 10
419.8266865538346
 20
141.7380430005783
 30
0.0
 11
419.8266865538346
 21
133.1380430005782
 31
0.0
  0
LINE
  5
E7D
330
18
100
AcDbEntity
  8
1
  6
Continuous
100
AcDbLine
 10
436.3266865538706
 20
143.9380430005771
 30
0.0
 11
436.3266865538706
 21
157.9380430005798
 31
0.0
  0
LINE
  5
E7E
330
18
100
AcDbEntity
  8
4
  6
CENTER
100
AcDbLine
 10
433.5266865538346
 20
137.4380430005783
 30
0.0
 11
442.1266865538346
 21
137.4380430005783
 31
0.0
  0
ARC
  5
E7F
330
18
100
AcDbEntity
  8
1
  6
Continuous
100
AcDbCircle
 10
437.8266865538346
 20
137.4380430005783
 30
0.0
 40
1.3
100
AcDbArc
 50
163.3282509640188
 51
196.6717490359764
  0
ARC
  5
E80
330
18
100
AcDbEntity
  8
1
  6
Continuous
100
AcDbCircle
 10
437.8266865538346
 20
137.4380430005783
 30
0.0
 40
1.3
100
AcDbArc
 50
73.32825096401633
 51
106.6717490359836
  0
ARC
  5
E81
330
18
100
AcDbEntity
  8
1
  6
Continuous
100
AcDbCircle
 10
437.8266865538346
 20
137.4380430005783
 30
0.0
 40
1.3
100
AcDbArc
 50
253.3282509640094
 51
286.6717490359702
  0
ARC
  5
E82
330
18
100
AcDbEntity
  8
1
  6
Continuous
100
AcDbCircle
 10
437.8266865538346
 20
137.4380430005783
 30
0.0
 40
1.3
100
AcDbArc
 50
343.3282509640044
 51
16.67174903597494
  0
LINE
  5
E83
330
18
100
AcDbEntity
  8
1
  6
Continuous
100
AcDbLine
 10
437.0609511611904
 20
137.0567165671615
 30
0.0
 11
436.5813332655253
 21
137.0650883286709
 31
0.0
  0
LINE
  5
E84
330
18
100
AcDbEntity
  8
1
  6
Continuous
100
AcDbLine
 10
437.3269360279007
 20
136.9382924746444
 30
0.0
 11
437.0609511611908
 21
137.0567165671617
 31
0.0
  0
LINE
  5
E85
330
18
100
AcDbEntity
  8
1
  6
Continuous
100
AcDbLine
 10
437.3269360279007
 20
136.9382924746444
 30
0.0
 11
437.4453601204177
 21
136.6723076079348
 31
0.0
  0
LINE
  5
E86
330
18
100
AcDbEntity
  8
1
  6
Continuous
100
AcDbLine
 10
437.4453601204177
 20
136.6723076079348
 30
0.0
 11
437.4537318819273
 21
136.1926897122691
 31
0.0
  0
LINE
  5
E87
330
18
100
AcDbEntity
  8
1
  6
Continuous
100
AcDbLine
 10
438.2080129872512
 20
136.6723076079344
 30
0.0
 11
438.1996412257416
 21
136.192689712269
 31
0.0
  0
LINE
  5
E88
330
18
100
AcDbEntity
  8
1
  6
Continuous
100
AcDbLine
 10
438.3264370797681
 20
136.9382924746442
 30
0.0
 11
438.2080129872512
 21
136.6723076079341
 31
0.0
  0
LINE
  5
E89
330
18
100
AcDbEntity
  8
1
  6
Continuous
100
AcDbLine
 10
438.3264370797688
 20
136.9382924746443
 30
0.0
 11
438.5924219464781
 21
137.0567165671613
 31
0.0
  0
LINE
  5
E8A
330
18
100
AcDbEntity
  8
1
  6
Continuous
100
AcDbLine
 10
438.5924219464781
 20
137.0567165671614
 30
0.0
 11
439.072039842144
 21
137.065088328671
 31
0.0
  0
LINE
  5
E8B
330
18
100
AcDbEntity
  8
1
  6
Continuous
100
AcDbLine
 10
438.5924219464783
 20
137.8193694339949
 30
0.0
 11
439.0720398421434
 21
137.8109976724854
 31
0.0
  0
LINE
  5
E8C
330
18
100
AcDbEntity
  8
1
  6
Continuous
100
AcDbLine
 10
438.3264370797685
 20
137.9377935265122
 30
0.0
 11
438.5924219464783
 21
137.819369433995
 31
0.0
  0
LINE
  5
E8D
330
18
100
AcDbEntity
  8
1
  6
Continuous
100
AcDbLine
 10
438.3264370797688
 20
137.9377935265122
 30
0.0
 11
438.2080129872514
 21
138.2037783932219
 31
0.0
  0
LINE
  5
E8E
330
18
100
AcDbEntity
  8
1
  6
Continuous
100
AcDbLine
 10
438.2080129872514
 20
138.2037783932219
 30
0.0
 11
438.1996412257421
 21
138.6833962888875
 31
0.0
  0
LINE
  5
E8F
330
18
100
AcDbEntity
  8
1
  6
Continuous
100
AcDbLine
 10
437.0609511611904
 20
137.8193694339949
 30
0.0
 11
436.5813332655251
 21
137.8109976724854
 31
0.0
  0
LINE
  5
E90
330
18
100
AcDbEntity
  8
1
  6
Continuous
100
AcDbLine
 10
437.4453601204177
 20
138.2037783932218
 30
0.0
 11
437.4537318819273
 21
138.6833962888876
 31
0.0
  0
LINE
  5
E91
330
18
100
AcDbEntity
  8
1
  6
Continuous
100
AcDbLine
 10
437.3269360279008
 20
137.9377935265122
 30
0.0
 11
437.0609511611908
 21
137.8193694339949
 31
0.0
  0
LINE
  5
E92
330
18
100
AcDbEntity
  8
1
  6
Continuous
100
AcDbLine
 10
437.3269360279004
 20
137.937793526512
 30
0.0
 11
437.4453601204175
 21
138.2037783932215
 31
0.0
  0
ARC
  5
E93
330
18
100
AcDbEntity
  8
1
  6
Continuous
100
AcDbCircle
 10
434.3266865538688
 20
143.9380430005771
 30
0.0
 40
2.0
100
AcDbArc
 50
270.0
 51
0.0
  0
ARC
  5
E94
330
18
100
AcDbEntity
  8
1
  6
Continuous
100
AcDbCircle
 10
438.5266865536398
 20
137.4380430005783
 30
0.0
 40
3.0
100
AcDbArc
 50
270.0
 51
0.0
  0
ARC
  5
E95
330
18
100
AcDbEntity
  8
1
  6
Continuous
100
AcDbCircle
 10
438.6266865538344
 20
137.4380430005783
 30
0.0
 40
3.0
100
AcDbArc
 50
270.0
 51
0.0
  0
LINE
  5
E96
330
18
100
AcDbEntity
  8
4
  6
CENTER
100
AcDbLine
 10
437.8266865538346
 20
141.7380430005783
 30
0.0
 11
437.8266865538346
 21
133.1380430005782
 31
0.0
  0
CIRCLE
  5
E97
330
18
100
AcDbEntity
  8
1
  6
Continuous
100
AcDbCircle
 10
437.8266865538346
 20
137.4380430005783
 30
0.0
 40
2.6
  0
CIRCLE
  5
E98
330
18
100
AcDbEntity
  8
1
  6
Continuous
100
AcDbCircle
 10
437.8266865538346
 20
137.4380430005783
 30
0.0
 40
2.799999999999998
  0
LINE
  5
E9A
330
18
100
AcDbEntity
  8
1
  6
Continuous
100
AcDbLine
 10
317.8842328356379
 20
226.6380430003659
 30
0.0
 11
323.6842328356235
 21
226.6380430003684
 31
0.0
  0
LINE
  5
E9B
330
18
100
AcDbEntity
  8
4
  6
CENTER
100
AcDbLine
 10
315.1249545059308
 20
184.1380430002558
 30
0.0
 11
331.0938433546871
 21
184.1380430002607
 31
0.0
  0
LINE
  5
E9C
330
18
100
AcDbEntity
  8
1
  6
Continuous
100
AcDbLine
 10
317.8842328355951
 20
176.6380430003504
 30
0.0
 11
323.6842328356003
 21
176.638043000353
 31
0.0
  0
LINE
  5
E9D
330
18
100
AcDbEntity
  8
4
  6
CENTER
100
AcDbLine
 10
315.1249545059558
 20
212.1380430002552
 30
0.0
 11
331.0938433547121
 21
212.13804300026
 31
0.0
  0
LINE
  5
E9F
330
18
100
AcDbEntity
  8
4
  6
CENTER
100
AcDbLine
 10
298.0674570193372
 20
67.90268723312796
 30
0.0
 11
302.1527359618761
 21
67.90268723312796
 31
0.0
  0
LINE
  5
EA0
330
18
100
AcDbEntity
  8
4
  6
CENTER
100
AcDbLine
 10
298.0674570193372
 20
48.90268723312783
 30
0.0
 11
302.1527359618761
 21
48.90268723312783
 31
0.0
  0
LINE
  5
EA1
330
18
100
AcDbEntity
  8
4
  6
CENTER
100
AcDbLine
 10
267.1760992386474
 20
58.40268723312783
 30
0.0
 11
305.9645382921884
 21
58.40268723312796
 31
0.0
  0
ARC
  5
EA6
330
18
100
AcDbEntity
  8
5
  6
PHANTOM
100
AcDbCircle
 10
151.3799424023359
 20
207.2966309882581
 30
0.0
 40
2.0
100
AcDbArc
 50
329.9999999999994
 51
60.00000000000028
  0
LINE
  5
EA7
330
18
100
AcDbEntity
  8
5
  6
PHANTOM
100
AcDbLine
 10
153.1119932099047
 20
206.2966309882581
 30
0.0
 11
145.7119932099046
 21
193.4794550122484
 31
0.0
  0
ARC
  5
EA8
330
18
100
AcDbEntity
  8
5
  6
PHANTOM
100
AcDbCircle
 10
143.9799424023358
 20
194.4794550122484
 30
0.0
 40
2.0
100
AcDbArc
 50
239.9999999999998
 51
329.9999999999994
  0
LINE
  5
EA9
330
18
100
AcDbEntity
  8
5
  6
PHANTOM
100
AcDbLine
 10
269.5258318849587
 20
228.2380430003608
 30
0.0
 11
235.6579757998497
 21
194.3701869152521
 31
0.0
  0
LINE
  5
EAA
330
18
100
AcDbEntity
  8
5
  6
PHANTOM
100
AcDbLine
 10
273.9258318848606
 20
240.416217593315
 30
0.0
 11
223.064396171105
 21
189.5547818795592
 31
0.0
  0
LINE
  5
EAB
330
18
100
AcDbEntity
  8
1
  6
Continuous
100
AcDbLine
 10
270.4258318848574
 20
243.5295623289008
 30
0.0
 11
270.4258318848624
 21
164.1380430002387
 31
0.0
  0
LINE
  5
EAC
330
18
100
AcDbEntity
  8
1
  6
Continuous
100
AcDbLine
 10
317.8842328356395
 20
226.6380430003659
 30
0.0
 11
317.8842328355945
 21
176.6380430003504
 31
0.0
  0
LINE
  5
EAD
330
18
100
AcDbEntity
  8
1
  6
Continuous
100
AcDbLine
 10
320.1842328356397
 20
226.6380430003669
 30
0.0
 11
320.1842328355946
 21
176.6380430003514
 31
0.0
  0
LINE
  5
EAE
330
18
100
AcDbEntity
  8
1
  6
Continuous
100
AcDbLine
 10
282.4258318848608
 20
233.1380430002595
 30
0.0
 11
282.4258318848658
 21
175.6380430002741
 31
0.0
  0
ARC
  5
EAF
330
18
100
AcDbEntity
  8
5
  6
PHANTOM
100
AcDbCircle
 10
238.4864029245879
 20
191.541759790514
 30
0.0
 40
4.0
100
AcDbArc
 50
135.0
 51
214.215702132435
  0
LINE
  5
EB0
330
18
100
AcDbEntity
  8
5
  6
PHANTOM
100
AcDbLine
 10
232.6194598557499
 20
178.4026284528639
 30
0.0
 11
225.5392699052499
 21
184.2514810206682
 31
0.0
  0
LINE
  5
EB1
330
18
100
AcDbEntity
  8
5
  6
PHANTOM
100
AcDbLine
 10
225.5392699052499
 20
184.251481020668
 30
0.0
 11
223.064396171105
 21
186.726354754813
 31
0.0
  0
ARC
  5
EB2
330
18
100
AcDbEntity
  8
5
  6
PHANTOM
100
AcDbCircle
 10
224.4786097334781
 20
188.1405683171861
 30
0.0
 40
2.0
100
AcDbArc
 50
135.0
 51
225.0
  0
LINE
  5
EB3
330
18
100
AcDbEntity
  8
5
  6
PHANTOM
100
AcDbLine
 10
235.1786969163099
 20
189.292519704885
 30
0.0
 11
236.5359735113756
 21
187.2965247121414
 31
0.0
  0
ARC
  5
EB4
330
18
100
AcDbEntity
  8
5
  6
PHANTOM
100
AcDbCircle
 10
233.574782026244
 20
179.5590710803046
 30
0.0
 40
1.5
100
AcDbArc
 50
230.4403320310043
 51
315.0
  0
LINE
  5
EB5
330
18
100
AcDbEntity
  8
5
  6
PHANTOM
100
AcDbLine
 10
235.8170551860776
 20
179.6800238965783
 30
0.0
 11
234.635442198024
 21
178.4984109085248
 31
0.0
  0
ARC
  5
EB6
330
18
100
AcDbEntity
  8
5
  6
PHANTOM
100
AcDbCircle
 10
231.5744144989583
 20
183.9226645836977
 30
0.0
 40
6.0
100
AcDbArc
 50
315.0
 51
34.21570213243504
  0
LINE
  5
EB7
330
18
100
AcDbEntity
  8
1
  6
Continuous
100
AcDbLine
 10
282.425831884866
 20
175.6380430002743
 30
0.0
 11
290.3770486761111
 21
173.7967085854596
 31
0.0
  0
LINE
  5
EB8
330
18
100
AcDbEntity
  8
1
  6
Continuous
100
AcDbLine
 10
282.4258318848658
 20
175.638043000274
 30
0.0
 11
280.425831884883
 21
173.6380430002787
 31
0.0
  0
LINE
  5
EB9
330
18
100
AcDbEntity
  8
1
  6
Continuous
100
AcDbLine
 10
273.925831884866
 20
161.4380430002472
 30
0.0
 11
271.5258318848273
 21
161.4380430002459
 31
0.0
  0
ARC
  5
EBA
330
18
100
AcDbEntity
  8
1
  6
Continuous
100
AcDbCircle
 10
271.5258318848277
 20
160.438043000246
 30
0.0
 40
1.0
100
AcDbArc
 50
90.0
 51
180.0
  0
LINE
  5
EBB
330
18
100
AcDbEntity
  8
1
  6
Continuous
100
AcDbLine
 10
273.9258318848658
 20
162.1380430002388
 30
0.0
 11
272.4258318848624
 21
162.1380430002388
 31
0.0
  0
ARC
  5
EBC
330
18
100
AcDbEntity
  8
1
  6
Continuous
100
AcDbCircle
 10
272.4258318848624
 20
164.1380430002389
 30
0.0
 40
2.0
100
AcDbArc
 50
180.0
 51
270.0
  0
ARC
  5
EBD
330
18
100
AcDbEntity
  8
1
  6
Continuous
100
AcDbCircle
 10
289.9258318848658
 20
171.8482724414459
 30
0.0
 40
2.0
100
AcDbArc
 50
0.0
 51
76.96134341697488
  0
LINE
  5
EBE
330
18
100
AcDbEntity
  8
1
  6
Continuous
100
AcDbLine
 10
291.9258318848656
 20
168.4380430003249
 30
0.0
 11
292.9258318848656
 21
170.4380430002946
 31
0.0
  0
LINE
  5
EBF
330
18
100
AcDbEntity
  8
1
  6
Continuous
100
AcDbLine
 10
294.925831884861
 20
167.2380430002549
 30
0.0
 11
291.925831884866
 21
167.2380430002545
 31
0.0
  0
LINE
  5
EC0
330
18
100
AcDbEntity
  8
1
  6
Continuous
100
AcDbLine
 10
292.9258318848658
 20
170.4380430002949
 30
0.0
 11
294.9258318848658
 21
170.4380430002949
 31
0.0
  0
LINE
  5
EC1
330
18
100
AcDbEntity
  8
1
  6
Continuous
100
AcDbLine
 10
296.425831884866
 20
159.9380430003823
 30
0.0
 11
294.9258318848638
 21
159.9380430003809
 31
0.0
  0
LINE
  5
EC7
330
18
100
AcDbEntity
  8
1
  6
Continuous
100
AcDbLine
 10
286.9258318848606
 20
251.0380430002588
 30
0.0
 11
298.2258318848607
 21
251.038043000261
 31
0.0
  0
LINE
  5
EC8
330
18
100
AcDbEntity
  8
4
  6
CENTER
100
AcDbLine
 10
282.5416239694327
 20
237.6380430002594
 30
0.0
 11
304.1608178077408
 21
237.6380430002595
 31
0.0
  0
LINE
  5
EC9
330
18
100
AcDbEntity
  8
1
  6
Continuous
100
AcDbLine
 10
286.9258318848606
 20
224.2380430002603
 30
0.0
 11
298.2258318848605
 21
224.2380430002564
 31
0.0
  0
LINE
  5
ECA
330
18
100
AcDbEntity
  8
1
  6
Continuous
100
AcDbLine
 10
286.9258318848608
 20
224.2380430002603
 30
0.0
 11
286.9258318848608
 21
251.0380430002588
 31
0.0
  0
LINE
  5
ECB
330
18
100
AcDbEntity
  8
1
  6
Continuous
100
AcDbLine
 10
280.9258318848608
 20
249.4380430002382
 30
0.0
 11
280.9258318848608
 21
237.6380430002595
 31
0.0
  0
LINE
  5
ECC
330
18
100
AcDbEntity
  8
1
  6
Continuous
100
AcDbLine
 10
285.9258318848608
 20
225.1380430002596
 30
0.0
 11
282.4258318848608
 21
225.1380430002596
 31
0.0
  0
LINE
  5
ECD
330
18
100
AcDbEntity
  8
5
  6
PHANTOM
100
AcDbLine
 10
270.4258318848574
 20
228.2380430003578
 30
0.0
 11
269.5258318849582
 21
228.2380430003606
 31
0.0
  0
ARC
  5
ECE
330
18
100
AcDbEntity
  8
1
  6
Continuous
100
AcDbCircle
 10
285.9258318848608
 20
226.1380430002595
 30
0.0
 40
1.0
100
AcDbArc
 50
270.0
 51
0.0
  0
LINE
  5
ECF
330
18
100
AcDbEntity
  8
1
  6
Continuous
100
AcDbLine
 10
285.9258318848606
 20
250.4380430002391
 30
0.0
 11
278.9258318847651
 21
250.4380430002381
 31
0.0
  0
ARC
  5
ED0
330
18
100
AcDbEntity
  8
1
  6
Continuous
100
AcDbCircle
 10
275.9258318848571
 20
237.6380430002389
 30
0.0
 40
9.4
100
AcDbArc
 50
102.8650719958548
 51
112.9933943142978
  0
LINE
  5
ED1
330
18
100
AcDbEntity
  8
1
  6
Continuous
100
AcDbLine
 10
273.9258318848606
 20
246.7091108121005
 30
0.0
 11
273.8328668790018
 21
246.8020758179595
 31
0.0
  0
ARC
  5
ED2
330
18
100
AcDbEntity
  8
1
  6
Continuous
100
AcDbCircle
 10
279.9258318848608
 20
249.4380430002382
 30
0.0
 40
1.0
100
AcDbArc
 50
0.0
 51
90.0
  0
ARC
  5
ED3
330
18
100
AcDbEntity
  8
1
  6
Continuous
100
AcDbCircle
 10
273.4258318848574
 20
243.529562328901
 30
0.0
 40
3.0
100
AcDbArc
 50
112.9933943142978
 51
180.0
  0
ARC
  5
ED4
330
18
100
AcDbEntity
  8
1
  6
Continuous
100
AcDbCircle
 10
285.9258318848608
 20
249.4380430002391
 30
0.0
 40
1.0
100
AcDbArc
 50
0.0
 51
90.0
  0
LINE
  5
ED5
330
18
100
AcDbEntity
  8
5
  6
PHANTOM
100
AcDbLine
 10
303.2258318848608
 20
236.1380430001834
 30
0.0
 11
303.2258318848608
 21
239.1380430001834
 31
0.0
  0
LINE
  5
ED6
330
18
100
AcDbEntity
  8
1
  6
Continuous
100
AcDbLine
 10
300.7258318848607
 20
233.6380430005634
 30
0.0
 11
300.7258318848607
 21
241.6380430005636
 31
0.0
  0
LINE
  5
ED7
330
18
100
AcDbEntity
  8
5
  6
PHANTOM
100
AcDbLine
 10
301.2258318848608
 20
224.7380430002564
 30
0.0
 11
301.2258318848608
 21
250.6243786007497
 31
0.0
  0
LINE
  5
ED8
330
18
100
AcDbEntity
  8
1
  6
Continuous
100
AcDbLine
 10
298.7258318848607
 20
224.7380430002567
 30
0.0
 11
298.7258318848607
 21
250.538043000261
 31
0.0
  0
LINE
  5
ED9
330
18
100
AcDbEntity
  8
1
  6
Continuous
100
AcDbLine
 10
300.7258318848607
 20
233.7938628726626
 30
0.0
 11
298.7258318844753
 21
233.7938628726629
 31
0.0
  0
LINE
  5
EDA
330
18
100
AcDbEntity
  8
1
  6
Continuous
100
AcDbLine
 10
300.7258318848607
 20
233.6380430005633
 30
0.0
 11
298.7258318848607
 21
233.6380430005633
 31
0.0
  0
LINE
  5
EDB
330
18
100
AcDbEntity
  8
1
  6
Continuous
100
AcDbLine
 10
298.7258318848607
 20
235.638043000184
 30
0.0
 11
300.2258318848605
 21
235.6380430001834
 31
0.0
  0
LINE
  5
EDC
330
18
100
AcDbEntity
  8
5
  6
PHANTOM
100
AcDbLine
 10
301.2258318848608
 20
235.638043000184
 30
0.0
 11
302.7258318848605
 21
235.6380430001835
 31
0.0
  0
ARC
  5
EDD
330
18
100
AcDbEntity
  8
5
  6
PHANTOM
100
AcDbCircle
 10
302.7258318848607
 20
236.1380430001834
 30
0.0
 40
0.5
100
AcDbArc
 50
270.0
 51
0.0
  0
ARC
  5
EDE
330
18
100
AcDbEntity
  8
1
  6
Continuous
100
AcDbCircle
 10
300.2258318848607
 20
236.1380430001834
 30
0.0
 40
0.5
100
AcDbArc
 50
270.0
 51
0.0
  0
ARC
  5
EDF
330
18
100
AcDbEntity
  8
1
  6
Continuous
100
AcDbCircle
 10
298.2258318848607
 20
224.7380430002567
 30
0.0
 40
0.5
100
AcDbArc
 50
270.0
 51
0.0
  0
ARC
  5
EE0
330
18
100
AcDbEntity
  8
5
  6
PHANTOM
100
AcDbCircle
 10
300.7258318848607
 20
224.7380430002564
 30
0.0
 40
0.5
100
AcDbArc
 50
270.0
 51
0.0
  0
ARC
  5
EE1
330
18
100
AcDbEntity
  8
1
  6
Continuous
100
AcDbCircle
 10
298.2258318848607
 20
250.538043000261
 30
0.0
 40
0.5
100
AcDbArc
 50
0.0
 51
90.0
  0
ARC
  5
EE2
330
18
100
AcDbEntity
  8
5
  6
PHANTOM
100
AcDbCircle
 10
300.7258318848607
 20
250.6243786007497
 30
0.0
 40
0.5
100
AcDbArc
 50
0.0
 51
90.0
  0
LINE
  5
EE3
330
18
100
AcDbEntity
  8
1
  6
Continuous
100
AcDbLine
 10
300.7258318848607
 20
241.4822231278557
 30
0.0
 11
298.7258318844753
 21
241.4822231278554
 31
0.0
  0
LINE
  5
EE4
330
18
100
AcDbEntity
  8
1
  6
Continuous
100
AcDbLine
 10
300.7258318848607
 20
241.6380430005637
 30
0.0
 11
298.7258318848607
 21
241.6380430005637
 31
0.0
  0
LINE
  5
EE5
330
18
100
AcDbEntity
  8
1
  6
Continuous
100
AcDbLine
 10
298.7258318848621
 20
239.638043000184
 30
0.0
 11
300.2258318848607
 21
239.6380430001834
 31
0.0
  0
LINE
  5
EE6
330
18
100
AcDbEntity
  8
5
  6
PHANTOM
100
AcDbLine
 10
301.2258318848621
 20
239.638043000184
 30
0.0
 11
302.7258318848607
 21
239.6380430001835
 31
0.0
  0
ARC
  5
EE7
330
18
100
AcDbEntity
  8
5
  6
PHANTOM
100
AcDbCircle
 10
302.7258318848607
 20
239.1380430001834
 30
0.0
 40
0.5
100
AcDbArc
 50
0.0
 51
90.0
  0
ARC
  5
EE8
330
18
100
AcDbEntity
  8
1
  6
Continuous
100
AcDbCircle
 10
300.2258318848607
 20
239.1380430001834
 30
0.0
 40
0.5
100
AcDbArc
 50
0.0
 51
90.0
  0
LINE
  5
EE9
330
18
100
AcDbEntity
  8
1
  6
Continuous
100
AcDbLine
 10
276.9258318848642
 20
261.438043000264
 30
0.0
 11
278.9258318848524
 21
261.4380430002672
 31
0.0
  0
LINE
  5
EEA
330
18
100
AcDbEntity
  8
1
  6
Continuous
100
AcDbLine
 10
276.9258318848608
 20
261.4380430002595
 30
0.0
 11
273.9258318848671
 21
257.4380430002595
 31
0.0
  0
LINE
  5
EEC
330
18
100
AcDbEntity
  8
1
  6
Continuous
100
AcDbLine
 10
273.9258318848761
 20
70.40268723374686
 30
0.0
 11
276.9258318848761
 21
74.40268723374656
 31
0.0
  0
LINE
  5
EF1
330
18
100
AcDbEntity
  8
1
  6
Continuous
100
AcDbLine
 10
278.9258318848761
 20
74.4026872337464
 30
0.0
 11
278.9258318848777
 21
42.40268723374652
 31
0.0
  0
LINE
  5
EF2
330
18
100
AcDbEntity
  8
1
  6
Continuous
100
AcDbLine
 10
276.9258318848761
 20
74.40268723374656
 30
0.0
 11
276.9258318848777
 21
42.40268723374668
 31
0.0
  0
LINE
  5
EF8
330
18
100
AcDbEntity
  8
1
  6
Continuous
100
AcDbLine
 10
273.9258318848773
 20
46.40268723374709
 30
0.0
 11
276.9258318848777
 21
42.40268723374668
 31
0.0
  0
LINE
  5
EF9
330
18
100
AcDbEntity
  8
1
  6
Continuous
100
AcDbLine
 10
273.9258318848761
 20
70.40268723374686
 30
0.0
 11
273.9258318848773
 21
46.40268723374709
 31
0.0
  0
LINE
  5
EFA
330
18
100
AcDbEntity
  8
1
  6
Continuous
100
AcDbLine
 10
273.725831884897
 20
67.80268723312781
 30
0.0
 11
273.725831884897
 21
49.00268723312786
 31
0.0
  0
ARC
  5
EFB
330
18
100
AcDbEntity
  8
1
  6
Continuous
100
AcDbCircle
 10
283.5991946437251
 20
58.40268723314449
 30
0.0
 40
15.073362758848
100
AcDbArc
 50
144.407092509107
 51
215.5929074910194
  0
LINE
  5
EFD
330
18
100
AcDbEntity
  8
1
  6
Continuous
100
AcDbLine
 10
272.5617050476671
 20
49.00268723312786
 30
0.0
 11
273.9258318848773
 21
49.00268723312786
 31
0.0
  0
ARC
  5
EFE
330
18
100
AcDbEntity
  8
1
  6
Continuous
100
AcDbCircle
 10
272.5617050476671
 20
50.50268723313223
 30
0.0
 40
1.5
100
AcDbArc
 50
215.5929074910194
 51
270.0000000000651
  0
LINE
  5
EFF
330
18
100
AcDbEntity
  8
1
  6
Continuous
100
AcDbLine
 10
272.5617050476495
 20
67.80268723312781
 30
0.0
 11
273.9258318848764
 21
67.80268723312781
 31
0.0
  0
ARC
  5
F00
330
18
100
AcDbEntity
  8
1
  6
Continuous
100
AcDbCircle
 10
272.5617050476495
 20
66.30268723313225
 30
0.0
 40
1.5
100
AcDbArc
 50
90.00000000006512
 51
144.407092509107
  0
LINE
  5
F01
330
18
100
AcDbEntity
  8
1
  6
Continuous
100
AcDbLine
 10
298.7258318848759
 20
45.50268723312519
 30
0.0
 11
298.7258318848759
 21
71.30268723312944
 31
0.0
  0
LINE
  5
F02
330
18
100
AcDbEntity
  8
1
  6
Continuous
100
AcDbLine
 10
300.7258318848759
 20
54.40268723343189
 30
0.0
 11
300.7258318848759
 21
62.40268723343206
 31
0.0
  0
LINE
  5
F03
330
18
100
AcDbEntity
  8
1
  6
Continuous
100
AcDbLine
 10
291.9258318848836
 20
71.2026872331084
 30
0.0
 11
291.9258318848836
 21
45.60268723314726
 31
0.0
  0
LINE
  5
F04
330
18
100
AcDbEntity
  8
1
  6
Continuous
100
AcDbLine
 10
294.9258318848837
 20
45.70268723314693
 30
0.0
 11
294.9258318848837
 21
71.10268723310873
 31
0.0
  0
LINE
  5
F05
330
18
100
AcDbEntity
  8
1
  6
Continuous
100
AcDbLine
 10
297.4258318848836
 20
51.90268723312789
 30
0.0
 11
297.4258318848836
 21
64.90268723312789
 31
0.0
  0
LINE
  5
F07
330
18
100
AcDbEntity
  8
1
  6
Continuous
100
AcDbLine
 10
286.9258318848759
 20
45.00268723312877
 30
0.0
 11
298.2258318848756
 21
45.00268723312484
 31
0.0
  0
LINE
  5
F08
330
18
100
AcDbEntity
  8
1
  6
Continuous
100
AcDbLine
 10
291.9258318848836
 20
45.60268723314726
 30
0.0
 11
278.9258318847802
 21
45.60268723314914
 31
0.0
  0
LINE
  5
F09
330
18
100
AcDbEntity
  8
1
  6
Continuous
100
AcDbLine
 10
286.9258318848759
 20
45.00268723312877
 30
0.0
 11
286.9258318848759
 21
45.60268723314793
 31
0.0
  0
LINE
  5
F0A
330
18
100
AcDbEntity
  8
1
  6
Continuous
100
AcDbLine
 10
276.9258318848777
 20
42.40268723374668
 30
0.0
 11
278.9258318848777
 21
42.40268723374652
 31
0.0
  0
LINE
  5
F0B
330
18
100
AcDbEntity
  8
1
  6
Continuous
100
AcDbLine
 10
300.7258318848759
 20
54.55850710553107
 30
0.0
 11
298.7258318844904
 21
54.55850710553136
 31
0.0
  0
LINE
  5
F0C
330
18
100
AcDbEntity
  8
1
  6
Continuous
100
AcDbLine
 10
300.7258318848759
 20
50.40268723320393
 30
0.0
 11
300.7258318848759
 21
47.40268723320395
 31
0.0
  0
ARC
  5
F0D
330
18
100
AcDbEntity
  8
1
  6
Continuous
100
AcDbCircle
 10
300.2258318848758
 20
50.40268723320393
 30
0.0
 40
0.5
100
AcDbArc
 50
0.0
 51
90.0
  0
ARC
  5
F0E
330
18
100
AcDbEntity
  8
1
  6
Continuous
100
AcDbCircle
 10
300.2258318848758
 20
47.40268723320395
 30
0.0
 40
0.5
100
AcDbArc
 50
270.0
 51
0.0
  0
ARC
  5
F0F
330
18
100
AcDbEntity
  8
1
  6
Continuous
100
AcDbCircle
 10
296.4258318848836
 20
51.90268723312789
 30
0.0
 40
1.0
100
AcDbArc
 50
270.0
 51
0.0
  0
ARC
  5
F10
330
18
100
AcDbEntity
  8
1
  6
Continuous
100
AcDbCircle
 10
298.2258318848758
 20
45.50268723312519
 30
0.0
 40
0.5
100
AcDbArc
 50
270.0
 51
0.0
  0
LINE
  5
F11
330
18
100
AcDbEntity
  8
1
  6
Continuous
100
AcDbLine
 10
300.7258318848759
 20
54.40268723343177
 30
0.0
 11
298.7258318848761
 21
54.40268723343177
 31
0.0
  0
LINE
  5
F12
330
18
100
AcDbEntity
  8
1
  6
Continuous
100
AcDbLine
 10
298.7258318848759
 20
50.90268723320331
 30
0.0
 11
300.2258318848756
 21
50.90268723320395
 31
0.0
  0
LINE
  5
F13
330
18
100
AcDbEntity
  8
1
  6
Continuous
100
AcDbLine
 10
298.7258318848772
 20
46.90268723320332
 30
0.0
 11
300.2258318848761
 21
46.90268723320396
 31
0.0
  0
LINE
  5
F14
330
18
100
AcDbEntity
  8
1
  6
Continuous
100
AcDbLine
 10
294.9258318848837
 20
45.70268723314693
 30
0.0
 11
291.9258318848836
 21
45.70268723314723
 31
0.0
  0
LINE
  5
F15
330
18
100
AcDbEntity
  8
1
  6
Continuous
100
AcDbLine
 10
294.9258318848837
 20
50.90268723312789
 30
0.0
 11
296.4258318848836
 21
50.90268723312789
 31
0.0
  0
LINE
  5
F17
330
18
100
AcDbEntity
  8
1
  6
Continuous
100
AcDbLine
 10
286.9258318848759
 20
71.80268723312725
 30
0.0
 11
298.2258318848758
 21
71.80268723312945
 31
0.0
  0
LINE
  5
F18
330
18
100
AcDbEntity
  8
1
  6
Continuous
100
AcDbLine
 10
291.9258318848836
 20
71.2026872331084
 30
0.0
 11
278.9258318847802
 21
71.20268723310653
 31
0.0
  0
LINE
  5
F19
330
18
100
AcDbEntity
  8
1
  6
Continuous
100
AcDbLine
 10
286.9258318848759
 20
71.20268723310772
 30
0.0
 11
286.9258318848759
 21
71.80268723312725
 31
0.0
  0
ARC
  5
F1A
330
18
100
AcDbEntity
  8
1
  6
Continuous
100
AcDbCircle
 10
300.2258318848758
 20
69.40268723305185
 30
0.0
 40
0.5
100
AcDbArc
 50
0.0
 51
90.0
  0
LINE
  5
F1B
330
18
100
AcDbEntity
  8
1
  6
Continuous
100
AcDbLine
 10
300.7258318848759
 20
66.40268723305182
 30
0.0
 11
300.7258318848759
 21
69.40268723305185
 31
0.0
  0
ARC
  5
F1C
330
18
100
AcDbEntity
  8
1
  6
Continuous
100
AcDbCircle
 10
298.2258318848758
 20
71.30268723312944
 30
0.0
 40
0.5
100
AcDbArc
 50
0.0
 51
90.0
  0
LINE
  5
F1D
330
18
100
AcDbEntity
  8
1
  6
Continuous
100
AcDbLine
 10
298.7258318848772
 20
69.90268723305246
 30
0.0
 11
300.2258318848761
 21
69.90268723305185
 31
0.0
  0
LINE
  5
F1E
330
18
100
AcDbEntity
  8
1
  6
Continuous
100
AcDbLine
 10
298.7258318848759
 20
65.90268723305246
 30
0.0
 11
300.2258318848756
 21
65.90268723305182
 31
0.0
  0
ARC
  5
F1F
330
18
100
AcDbEntity
  8
1
  6
Continuous
100
AcDbCircle
 10
300.2258318848758
 20
66.40268723305182
 30
0.0
 40
0.5
100
AcDbArc
 50
270.0
 51
0.0
  0
LINE
  5
F20
330
18
100
AcDbEntity
  8
1
  6
Continuous
100
AcDbLine
 10
294.9258318848837
 20
71.10268723310873
 30
0.0
 11
291.9258318848836
 21
71.10268723310844
 31
0.0
  0
LINE
  5
F22
330
18
100
AcDbEntity
  8
1
  6
Continuous
100
AcDbLine
 10
294.9258318848837
 20
65.90268723312789
 30
0.0
 11
296.4258318848836
 21
65.90268723312789
 31
0.0
  0
LINE
  5
F23
330
18
100
AcDbEntity
  8
1
  6
Continuous
100
AcDbLine
 10
300.7258318848759
 20
62.40268723343216
 30
0.0
 11
298.7258318848759
 21
62.40268723343216
 31
0.0
  0
LINE
  5
F24
330
18
100
AcDbEntity
  8
1
  6
Continuous
100
AcDbLine
 10
300.7258318848759
 20
62.24686736072413
 30
0.0
 11
298.7258318844904
 21
62.24686736072385
 31
0.0
  0
LINE
  5
F25
330
18
100
AcDbEntity
  8
1
  6
Continuous
100
AcDbLine
 10
300.7258318848759
 20
59.50825457351783
 30
0.0
 11
298.7258318848759
 21
59.50825457351783
 31
0.0
  0
LINE
  5
F26
330
18
100
AcDbEntity
  8
1
  6
Continuous
100
AcDbLine
 10
300.7258318848759
 20
57.29711989276484
 30
0.0
 11
298.7258318848759
 21
57.29711989276484
 31
0.0
  0
ARC
  5
F27
330
18
100
AcDbEntity
  8
1
  6
Continuous
100
AcDbCircle
 10
296.4258318848836
 20
64.90268723312789
 30
0.0
 40
1.0
100
AcDbArc
 50
0.0
 51
90.0
  0
LINE
  5
F29
330
18
100
AcDbEntity
  8
1
  6
Continuous
100
AcDbLine
 10
278.9258318848761
 20
74.4026872337464
 30
0.0
 11
276.9258318848761
 21
74.40268723374656
 31
0.0
  0
LINE
  5
F3A
330
18
100
AcDbEntity
  8
1
  6
Continuous
100
AcDbLine
 10
323.6842328356396
 20
226.6380430003684
 30
0.0
 11
323.6842328355947
 21
176.638043000353
 31
0.0
  0
LINE
  5
F3D
330
18
100
AcDbEntity
  8
1
  6
Continuous
100
AcDbLine
 10
324.9842328356017
 20
188.6380430002596
 30
0.0
 11
326.4457313036968
 21
188.5101784525408
 31
0.0
  0
LINE
  5
F3E
330
18
100
AcDbEntity
  8
1
  6
Continuous
100
AcDbLine
 10
324.9842328356017
 20
184.138043000259
 30
0.0
 11
323.6842328356015
 21
183.0472134797285
 31
0.0
  0
LINE
  5
F3F
330
18
100
AcDbEntity
  8
1
  6
Continuous
100
AcDbLine
 10
324.9842328356012
 20
188.7380430002595
 30
0.0
 11
323.6842328356015
 21
188.7380430002595
 31
0.0
  0
LINE
  5
F40
330
18
100
AcDbEntity
  8
1
  6
Continuous
100
AcDbLine
 10
324.9842328356017
 20
185.2288725207889
 30
0.0
 11
323.6842328356015
 21
184.1380430002584
 31
0.0
  0
ARC
  5
F41
330
18
100
AcDbEntity
  8
1
  6
Continuous
100
AcDbCircle
 10
326.3062821152757
 20
186.9162669355799
 30
0.0
 40
1.6
100
AcDbArc
 50
15.49396750052098
 51
85.00000000000019
  0
LINE
  5
F42
330
18
100
AcDbEntity
  8
1
  6
Continuous
100
AcDbLine
 10
324.9842328356017
 20
179.6380430002596
 30
0.0
 11
326.4457313037378
 21
179.765907547982
 31
0.0
  0
LINE
  5
F43
330
18
100
AcDbEntity
  8
1
  6
Continuous
100
AcDbLine
 10
324.9842328356012
 20
179.5380430002595
 30
0.0
 11
323.6842328356015
 21
179.5380430002595
 31
0.0
  0
ARC
  5
F44
330
18
100
AcDbEntity
  8
1
  6
Continuous
100
AcDbCircle
 10
326.3062821152925
 20
181.3598190649352
 30
0.0
 40
1.6
100
AcDbArc
 50
274.9999999999997
 51
344.506032499479
  0
LINE
  5
F45
330
18
100
AcDbEntity
  8
1
  6
Continuous
100
AcDbLine
 10
324.9842328356012
 20
188.7380430002595
 30
0.0
 11
324.9842328356012
 21
179.5380430002595
 31
0.0
  0
ARC
  5
F46
330
18
100
AcDbEntity
  8
1
  6
Continuous
100
AcDbCircle
 10
316.2842328356014
 20
184.1380430002596
 30
0.0
 40
12.0
100
AcDbArc
 50
344.506032499479
 51
15.49396750052098
  0
LINE
  5
F47
330
18
100
AcDbEntity
  8
1
  6
Continuous
100
AcDbLine
 10
324.9842328356267
 20
216.638043000259
 30
0.0
 11
326.4457313037219
 21
216.5101784525402
 31
0.0
  0
LINE
  5
F48
330
18
100
AcDbEntity
  8
1
  6
Continuous
100
AcDbLine
 10
324.9842328356264
 20
216.738043000259
 30
0.0
 11
323.6842328356265
 21
216.738043000259
 31
0.0
  0
ARC
  5
F49
330
18
100
AcDbEntity
  8
1
  6
Continuous
100
AcDbCircle
 10
326.3062821153007
 20
214.9162669355793
 30
0.0
 40
1.6
100
AcDbArc
 50
15.49396750052098
 51
85.00000000000019
  0
LINE
  5
F4A
330
18
100
AcDbEntity
  8
1
  6
Continuous
100
AcDbLine
 10
324.9842328356267
 20
207.638043000259
 30
0.0
 11
326.4457313037628
 21
207.7659075479814
 31
0.0
  0
LINE
  5
F4B
330
18
100
AcDbEntity
  8
1
  6
Continuous
100
AcDbLine
 10
324.9842328356264
 20
207.5380430002589
 30
0.0
 11
323.6842328356265
 21
207.5380430002589
 31
0.0
  0
LINE
  5
F4C
330
18
100
AcDbEntity
  8
1
  6
Continuous
100
AcDbLine
 10
324.9842328356267
 20
213.2288725207883
 30
0.0
 11
323.6842328356265
 21
212.1380430002578
 31
0.0
  0
LINE
  5
F4D
330
18
100
AcDbEntity
  8
1
  6
Continuous
100
AcDbLine
 10
324.9842328356267
 20
212.1380430002584
 30
0.0
 11
323.6842328356265
 21
211.0472134797279
 31
0.0
  0
ARC
  5
F4E
330
18
100
AcDbEntity
  8
1
  6
Continuous
100
AcDbCircle
 10
326.3062821153178
 20
209.3598190649346
 30
0.0
 40
1.6
100
AcDbArc
 50
274.9999999999997
 51
344.506032499479
  0
LINE
  5
F4F
330
18
100
AcDbEntity
  8
1
  6
Continuous
100
AcDbLine
 10
324.9842328356264
 20
216.738043000259
 30
0.0
 11
324.9842328356264
 21
207.5380430002589
 31
0.0
  0
ARC
  5
F50
330
18
100
AcDbEntity
  8
1
  6
Continuous
100
AcDbCircle
 10
316.2842328356264
 20
212.138043000259
 30
0.0
 40
12.0
100
AcDbArc
 50
344.506032499479
 51
15.49396750052098
  0
ARC
  5
F51
330
18
100
AcDbEntity
  8
1
  6
Continuous
100
AcDbCircle
 10
335.8850197439201
 20
237.6380430006586
 30
0.0
 40
12.0
100
AcDbArc
 50
344.5060324994774
 51
15.49396750052255
  0
LINE
  5
F52
330
18
100
AcDbEntity
  8
4
  6
CENTER
100
AcDbLine
 10
338.9031687702963
 20
237.6380430006548
 30
0.0
 11
350.6946302630014
 21
237.6380430006597
 31
0.0
  0
LINE
  5
F53
330
18
100
AcDbEntity
  8
1
  6
Continuous
100
AcDbLine
 10
343.2850197439198
 20
243.6380430006586
 30
0.0
 11
343.2850197439198
 21
231.6380430006587
 31
0.0
  0
LINE
  5
F54
330
18
100
AcDbEntity
  8
1
  6
Continuous
100
AcDbLine
 10
344.5850197439199
 20
242.2380430006586
 30
0.0
 11
344.5850197439199
 21
233.0380430006586
 31
0.0
  0
LINE
  5
F55
330
18
100
AcDbEntity
  8
1
  6
Continuous
100
AcDbLine
 10
342.48501974392
 20
243.6380430006586
 30
0.0
 11
342.48501974392
 21
231.6380430006587
 31
0.0
  0
LINE
  5
F56
330
18
100
AcDbEntity
  8
1
  6
Continuous
100
AcDbLine
 10
344.5850197439199
 20
233.1380430006586
 30
0.0
 11
346.0465182120565
 21
233.2659075483811
 31
0.0
  0
LINE
  5
F57
330
18
100
AcDbEntity
  8
1
  6
Continuous
100
AcDbLine
 10
344.5850197439199
 20
233.0380430006586
 30
0.0
 11
343.2850197439198
 21
233.0380430006586
 31
0.0
  0
LINE
  5
F58
330
18
100
AcDbEntity
  8
1
  6
Continuous
100
AcDbLine
 10
343.2850197439198
 20
231.6380430006586
 30
0.0
 11
342.48501974392
 21
231.6380430006586
 31
0.0
  0
ARC
  5
F59
330
18
100
AcDbEntity
  8
1
  6
Continuous
100
AcDbCircle
 10
345.9070690236115
 20
234.8598190653342
 30
0.0
 40
1.6
100
AcDbArc
 50
274.9999999999997
 51
344.5060324994774
  0
LINE
  5
F5A
330
18
100
AcDbEntity
  8
1
  6
Continuous
100
AcDbLine
 10
344.585019743916
 20
237.638043000658
 30
0.0
 11
343.2850197439158
 21
236.5472134801275
 31
0.0
  0
LINE
  5
F5B
330
18
100
AcDbEntity
  8
1
  6
Continuous
100
AcDbLine
 10
344.585019743916
 20
238.7288725211879
 30
0.0
 11
343.2850197439158
 21
237.6380430006574
 31
0.0
  0
LINE
  5
F5C
330
18
100
AcDbEntity
  8
1
  6
Continuous
100
AcDbLine
 10
344.5850197439199
 20
242.1380430006588
 30
0.0
 11
346.0465182120153
 21
242.0101784529399
 31
0.0
  0
LINE
  5
F5D
330
18
100
AcDbEntity
  8
1
  6
Continuous
100
AcDbLine
 10
344.5850197439199
 20
242.2380430006586
 30
0.0
 11
343.2850197439198
 21
242.2380430006586
 31
0.0
  0
LINE
  5
F5E
330
18
100
AcDbEntity
  8
1
  6
Continuous
100
AcDbLine
 10
343.2850197439198
 20
243.6380430006586
 30
0.0
 11
342.48501974392
 21
243.6380430006586
 31
0.0
  0
ARC
  5
F5F
330
18
100
AcDbEntity
  8
1
  6
Continuous
100
AcDbCircle
 10
345.9070690235942
 20
240.416266935979
 30
0.0
 40
1.6
100
AcDbArc
 50
15.49396750052255
 51
85.00000000000019
  0
ARC
  5
F61
330
18
100
AcDbEntity
  8
1
  6
Continuous
100
AcDbCircle
 10
428.826686553717
 20
244.1380430002831
 30
0.0
 40
22.0
100
AcDbArc
 50
232.6982097078001
 51
307.3017902920925
  0
LINE
  5
F62
330
18
100
AcDbEntity
  8
1
  6
Continuous
100
AcDbLine
 10
413.0266865537189
 20
226.6380430002986
 30
0.0
 11
413.0266865537011
 21
176.6380430002986
 31
0.0
  0
LINE
  5
F63
330
18
100
AcDbEntity
  8
1
  6
Continuous
100
AcDbLine
 10
407.8266865537937
 20
223.6380430003008
 30
0.0
 11
407.8266865537953
 21
179.6380430003008
 31
0.0
  0
LINE
  5
F64
330
18
100
AcDbEntity
  8
1
  6
Continuous
100
AcDbLine
 10
413.0266865536848
 20
226.6380430002987
 30
0.0
 11
413.0266865536571
 21
196.1380430009188
 31
0.0
  0
LINE
  5
F65
330
18
100
AcDbEntity
  8
1
  6
Continuous
100
AcDbLine
 10
444.6266865537189
 20
226.6380430002862
 30
0.0
 11
444.6266865537013
 21
176.6380430002678
 31
0.0
  0
LINE
  5
F66
330
18
100
AcDbEntity
  8
1
  6
Continuous
100
AcDbLine
 10
449.8266865537934
 20
223.6380430002656
 30
0.0
 11
449.8266865537953
 21
179.6380430002655
 31
0.0
  0
LINE
  5
F67
330
18
100
AcDbEntity
  8
1
  6
Continuous
100
AcDbLine
 10
444.6266865536848
 20
226.6380430002678
 30
0.0
 11
444.6266865536574
 21
196.1380430008879
 31
0.0
  0
LINE
  5
F6D
330
18
100
AcDbEntity
  8
4
  6
CENTER
100
AcDbLine
 10
435.0766865537551
 20
184.1380430002863
 30
0.0
 11
422.5766865537551
 21
184.1380430002863
 31
0.0
  0
LINE
  5
F6E
330
18
100
AcDbEntity
  8
1
  6
Continuous
100
AcDbLine
 10
423.3266865539031
 20
159.9380430005798
 30
0.0
 11
434.3266865538708
 21
159.9380430005798
 31
0.0
  0
LINE
  5
F6F
330
18
100
AcDbEntity
  8
1
  6
Continuous
100
AcDbLine
 10
434.8266865539056
 20
170.4380430005783
 30
0.0
 11
422.8266865539056
 21
170.4380430005783
 31
0.0
  0
LINE
  5
F70
330
18
100
AcDbEntity
  8
1
  6
Continuous
100
AcDbLine
 10
410.8266865537923
 20
176.6380430003008
 30
0.0
 11
446.8266865537925
 21
176.6380430002655
 31
0.0
  0
LINE
  5
F71
330
18
100
AcDbEntity
  8
1
  6
Continuous
100
AcDbLine
 10
439.6266865537715
 20
175.6380430005782
 30
0.0
 11
418.0266865537713
 21
175.6380430005782
 31
0.0
  0
LINE
  5
F72
330
18
100
AcDbEntity
  8
1
  6
Continuous
100
AcDbLine
 10
439.6266865537755
 20
173.4380430005782
 30
0.0
 11
418.0266865537753
 21
173.4380430005782
 31
0.0
  0
CIRCLE
  5
F73
330
18
100
AcDbEntity
  8
1
  6
Continuous
 48
0.25
100
AcDbCircle
 10
428.8266865537774
 20
184.1380430002863
 30
0.0
 40
4.5
  0
CIRCLE
  5
F74
330
18
100
AcDbEntity
  8
1
  6
Continuous
100
AcDbCircle
 10
428.8266865537742
 20
184.1380430002915
 30
0.0
 40
4.600000000071418
  0
ARC
  5
F75
330
18
100
AcDbEntity
  8
1
  6
Continuous
100
AcDbCircle
 10
418.0266865537713
 20
173.6380430005782
 30
0.0
 40
2.0
100
AcDbArc
 50
90.0
 51
180.0
  0
LINE
  5
F76
330
18
100
AcDbEntity
  8
1
  6
Continuous
100
AcDbLine
 10
421.8266865539011
 20
167.5380430005782
 30
0.0
 11
417.9266865537679
 21
167.5380430005782
 31
0.0
  0
LINE
  5
F77
330
18
100
AcDbEntity
  8
1
  6
Continuous
100
AcDbLine
 10
421.8266865539076
 20
167.2380430005783
 30
0.0
 11
417.1266865536396
 21
167.2380430005783
 31
0.0
  0
ARC
  5
F78
330
18
100
AcDbEntity
  8
1
  6
Continuous
100
AcDbCircle
 10
418.0266865537753
 20
171.4380430005782
 30
0.0
 40
2.0
100
AcDbArc
 50
90.0
 51
180.0
  0
LINE
  5
F79
330
18
100
AcDbEntity
  8
1
  6
Continuous
100
AcDbLine
 10
417.9266865537679
 20
167.5380430005783
 30
0.0
 11
417.9266865537686
 21
167.2380430005783
 31
0.0
  0
ARC
  5
F7A
330
18
100
AcDbEntity
  8
1
  6
Continuous
100
AcDbCircle
 10
417.1266865536396
 20
166.2380430005783
 30
0.0
 40
1.0
100
AcDbArc
 50
90.0
 51
180.0
  0
LINE
  5
F7B
330
18
100
AcDbEntity
  8
1
  6
Continuous
100
AcDbLine
 10
421.8266865539054
 20
169.4380430005805
 30
0.0
 11
421.8266865539008
 21
167.2380430005783
 31
0.0
  0
LINE
  5
F7C
330
18
100
AcDbEntity
  8
1
  6
Continuous
100
AcDbLine
 10
419.2766865537677
 20
167.5380430005783
 30
0.0
 11
419.2766865537683
 21
167.2380430005783
 31
0.0
  0
ARC
  5
F7D
330
18
100
AcDbEntity
  8
1
  6
Continuous
100
AcDbCircle
 10
422.8266865539056
 20
169.4380430005783
 30
0.0
 40
1.0
100
AcDbArc
 50
90.0
 51
180.0
  0
ARC
  5
F7E
330
18
100
AcDbEntity
  8
1
  6
Continuous
100
AcDbCircle
 10
410.8266865537951
 20
179.6380430003008
 30
0.0
 40
3.0
100
AcDbArc
 50
180.0
 51
270.0
  0
LINE
  5
F7F
330
18
100
AcDbEntity
  8
1
  6
Continuous
 48
0.25
100
AcDbLine
 10
430.0761442361345
 20
183.5094250718114
 30
0.0
 11
430.8306271716602
 21
182.7280720786003
 31
0.0
  0
LINE
  5
F80
330
18
100
AcDbEntity
  8
1
  6
Continuous
 48
0.25
100
AcDbLine
 10
428.8273936605587
 20
183.1176879150341
 30
0.0
 11
428.1980686253026
 21
182.8885853179297
 31
0.0
  0
LINE
  5
F81
330
18
100
AcDbEntity
  8
1
  6
Continuous
 48
0.25
100
AcDbLine
 10
428.8273936605587
 20
183.1176879150341
 30
0.0
 11
429.4553044822523
 21
182.8885853179297
 31
0.0
  0
LINE
  5
F82
330
18
100
AcDbEntity
  8
1
  6
Continuous
 48
0.25
100
AcDbLine
 10
427.5772288714209
 20
183.5094250718114
 30
0.0
 11
426.822745935895
 21
182.7280720786004
 31
0.0
  0
LINE
  5
F83
330
18
100
AcDbEntity
  8
1
  6
Continuous
 48
0.25
100
AcDbLine
 10
430.0761442361345
 20
184.7666609287612
 30
0.0
 11
430.8306271716602
 21
185.5480139219723
 31
0.0
  0
LINE
  5
F84
330
18
100
AcDbEntity
  8
1
  6
Continuous
 48
0.25
100
AcDbLine
 10
427.5772288714209
 20
184.7666609287612
 30
0.0
 11
426.822745935895
 21
185.5480139219723
 31
0.0
  0
LINE
  5
F85
330
18
100
AcDbEntity
  8
1
  6
Continuous
 48
0.25
100
AcDbLine
 10
429.8477487458113
 20
184.1380430002863
 30
0.0
 11
430.0761442361345
 21
184.7666609287612
 31
0.0
  0
LINE
  5
F86
330
18
100
AcDbEntity
  8
1
  6
Continuous
 48
0.25
100
AcDbLine
 10
427.8063314685254
 20
184.1387501070675
 30
0.0
 11
427.5772288714209
 21
184.7666609287612
 31
0.0
  0
LINE
  5
F87
330
18
100
AcDbEntity
  8
1
  6
Continuous
 48
0.25
100
AcDbLine
 10
429.8477487458113
 20
184.1380430002863
 30
0.0
 11
430.0761442361345
 21
183.5094250718114
 31
0.0
  0
LINE
  5
F88
330
18
100
AcDbEntity
  8
1
  6
Continuous
 48
0.25
100
AcDbLine
 10
427.8063314685254
 20
184.1387501070675
 30
0.0
 11
427.5772288714209
 21
183.5094250718114
 31
0.0
  0
ARC
  5
F89
330
18
100
AcDbEntity
  8
1
  6
Continuous
 48
0.25
100
AcDbCircle
 10
428.8266865537774
 20
184.1380430002863
 30
0.0
 40
2.45
100
AcDbArc
 50
35.12899999999993
 51
54.87089000000388
  0
LINE
  5
F8A
330
18
100
AcDbEntity
  8
1
  6
Continuous
 48
0.25
100
AcDbLine
 10
428.8266865537774
 20
185.1591051923197
 30
0.0
 11
429.4553044822523
 21
185.387500682643
 31
0.0
  0
LINE
  5
F8B
330
18
100
AcDbEntity
  8
1
  6
Continuous
 48
0.25
100
AcDbLine
 10
428.8266865537774
 20
185.1591051923197
 30
0.0
 11
428.1980686253026
 21
185.3875006826429
 31
0.0
  0
LINE
  5
F8C
330
18
100
AcDbEntity
  8
1
  6
Continuous
 48
0.25
100
AcDbLine
 10
429.4553044822523
 20
185.387500682643
 30
0.0
 11
430.2366574754636
 21
186.141983618169
 31
0.0
  0
ARC
  5
F8D
330
18
100
AcDbEntity
  8
1
  6
Continuous
 48
0.25
100
AcDbCircle
 10
428.8266865537774
 20
184.1380430002863
 30
0.0
 40
2.45
100
AcDbArc
 50
125.1291000000048
 51
144.8709000000027
  0
LINE
  5
F8E
330
18
100
AcDbEntity
  8
1
  6
Continuous
 48
0.25
100
AcDbLine
 10
428.1980686253026
 20
185.3875006826429
 30
0.0
 11
427.4167156320918
 21
186.141983618169
 31
0.0
  0
ARC
  5
F8F
330
18
100
AcDbEntity
  8
1
  6
Continuous
 48
0.25
100
AcDbCircle
 10
428.8266865537774
 20
184.1380430002863
 30
0.0
 40
2.45
100
AcDbArc
 50
305.1289999999998
 51
324.871
  0
LINE
  5
F90
330
18
100
AcDbEntity
  8
1
  6
Continuous
 48
0.25
100
AcDbLine
 10
429.4553044822523
 20
182.8885853179297
 30
0.0
 11
430.2366574754636
 21
182.1341023824037
 31
0.0
  0
ARC
  5
F91
330
18
100
AcDbEntity
  8
1
  6
Continuous
 48
0.25
100
AcDbCircle
 10
428.8266865537774
 20
184.1380430002863
 30
0.0
 40
2.45
100
AcDbArc
 50
215.1289999999999
 51
234.871
  0
LINE
  5
F92
330
18
100
AcDbEntity
  8
1
  6
Continuous
 48
0.25
100
AcDbLine
 10
428.1980686253026
 20
182.8885853179297
 30
0.0
 11
427.4167156320918
 21
182.1341023824037
 31
0.0
  0
ARC
  5
F93
330
18
100
AcDbEntity
  8
1
  6
Continuous
100
AcDbCircle
 10
439.6266865537715
 20
173.6380430005782
 30
0.0
 40
2.0
100
AcDbArc
 50
0.0
 51
90.0
  0
ARC
  5
F94
330
18
100
AcDbEntity
  8
1
  6
Continuous
100
AcDbCircle
 10
439.6266865537755
 20
171.4380430005782
 30
0.0
 40
2.0
100
AcDbArc
 50
0.0
 51
90.0
  0
LINE
  5
F95
330
18
100
AcDbEntity
  8
1
  6
Continuous
100
AcDbLine
 10
439.7266865537678
 20
167.5380430005782
 30
0.0
 11
435.8266865539012
 21
167.5380430005782
 31
0.0
  0
LINE
  5
F96
330
18
100
AcDbEntity
  8
1
  6
Continuous
100
AcDbLine
 10
440.5266865536398
 20
167.2380430005783
 30
0.0
 11
435.8266865539076
 21
167.2380430005783
 31
0.0
  0
LINE
  5
F97
330
18
100
AcDbEntity
  8
1
  6
Continuous
100
AcDbLine
 10
435.8266865539055
 20
169.438043000576
 30
0.0
 11
435.8266865539007
 21
167.2380430005783
 31
0.0
  0
ARC
  5
F98
330
18
100
AcDbEntity
  8
1
  6
Continuous
100
AcDbCircle
 10
434.8266865539056
 20
169.4380430005783
 30
0.0
 40
1.0
100
AcDbArc
 50
0.0
 51
90.0
  0
LINE
  5
F99
330
18
100
AcDbEntity
  8
1
  6
Continuous
100
AcDbLine
 10
438.3766865537676
 20
167.5380430005783
 30
0.0
 11
438.3766865537686
 21
167.2380430005783
 31
0.0
  0
LINE
  5
F9A
330
18
100
AcDbEntity
  8
1
  6
Continuous
100
AcDbLine
 10
439.7266865537678
 20
167.5380430005783
 30
0.0
 11
439.7266865537686
 21
167.2380430005783
 31
0.0
  0
ARC
  5
F9B
330
18
100
AcDbEntity
  8
1
  6
Continuous
100
AcDbCircle
 10
440.5266865536398
 20
166.2380430005783
 30
0.0
 40
1.0
100
AcDbArc
 50
0.0
 51
90.0
  0
ARC
  5
F9C
330
18
100
AcDbEntity
  8
1
  6
Continuous
100
AcDbCircle
 10
446.8266865537953
 20
179.6380430002655
 30
0.0
 40
3.0
100
AcDbArc
 50
270.0
 51
0.0
  0
LINE
  5
F9D
330
18
100
AcDbEntity
  8
4
  6
CENTER
100
AcDbLine
 10
435.0766865537133
 20
212.1380430002863
 30
0.0
 11
422.5766865537133
 21
212.1380430002863
 31
0.0
  0
CIRCLE
  5
F9E
330
18
100
AcDbEntity
  8
1
  6
Continuous
100
AcDbCircle
 10
428.8266865537325
 20
212.1380430002915
 30
0.0
 40
4.600000000071418
  0
CIRCLE
  5
F9F
330
18
100
AcDbEntity
  8
1
  6
Continuous
 48
0.25
100
AcDbCircle
 10
428.8266865537359
 20
212.1380430002863
 30
0.0
 40
4.5
  0
LINE
  5
FA0
330
18
100
AcDbEntity
  8
1
  6
Continuous
 48
0.25
100
AcDbLine
 10
427.8063314684836
 20
212.1387501070675
 30
0.0
 11
427.5772288713792
 21
211.5094250718115
 31
0.0
  0
LINE
  5
FA1
330
18
100
AcDbEntity
  8
1
  6
Continuous
 48
0.25
100
AcDbLine
 10
429.8477487457693
 20
212.1380430002863
 30
0.0
 11
430.0761442360927
 21
211.5094250718115
 31
0.0
  0
LINE
  5
FA2
330
18
100
AcDbEntity
  8
1
  6
Continuous
 48
0.25
100
AcDbLine
 10
428.1980686252611
 20
210.8885853179297
 30
0.0
 11
427.4167156320499
 21
210.1341023824037
 31
0.0
  0
LINE
  5
FA3
330
18
100
AcDbEntity
  8
1
  6
Continuous
 48
0.25
100
AcDbLine
 10
427.5772288713792
 20
211.5094250718115
 30
0.0
 11
426.8227459358532
 21
210.7280720786004
 31
0.0
  0
ARC
  5
FA4
330
18
100
AcDbEntity
  8
1
  6
Continuous
 48
0.25
100
AcDbCircle
 10
428.8266865537359
 20
212.1380430002863
 30
0.0
 40
2.45
100
AcDbArc
 50
215.1289999999999
 51
234.871
  0
LINE
  5
FA5
330
18
100
AcDbEntity
  8
1
  6
Continuous
 48
0.25
100
AcDbLine
 10
429.4553044822107
 20
210.8885853179297
 30
0.0
 11
430.2366574754219
 21
210.1341023824037
 31
0.0
  0
LINE
  5
FA6
330
18
100
AcDbEntity
  8
1
  6
Continuous
 48
0.25
100
AcDbLine
 10
428.8273936605171
 20
211.1176879150341
 30
0.0
 11
429.4553044822107
 21
210.8885853179297
 31
0.0
  0
LINE
  5
FA7
330
18
100
AcDbEntity
  8
1
  6
Continuous
 48
0.25
100
AcDbLine
 10
428.8273936605171
 20
211.1176879150341
 30
0.0
 11
428.1980686252611
 21
210.8885853179297
 31
0.0
  0
LINE
  5
FA8
330
18
100
AcDbEntity
  8
1
  6
Continuous
 48
0.25
100
AcDbLine
 10
427.5772288713792
 20
212.7666609287612
 30
0.0
 11
426.8227459358532
 21
213.5480139219724
 31
0.0
  0
LINE
  5
FA9
330
18
100
AcDbEntity
  8
1
  6
Continuous
 48
0.25
100
AcDbLine
 10
427.8063314684836
 20
212.1387501070675
 30
0.0
 11
427.5772288713792
 21
212.7666609287612
 31
0.0
  0
LINE
  5
FAA
330
18
100
AcDbEntity
  8
1
  6
Continuous
 48
0.25
100
AcDbLine
 10
428.8266865537359
 20
213.1591051923197
 30
0.0
 11
428.1980686252611
 21
213.3875006826429
 31
0.0
  0
LINE
  5
FAB
330
18
100
AcDbEntity
  8
1
  6
Continuous
 48
0.25
100
AcDbLine
 10
428.8266865537359
 20
213.1591051923197
 30
0.0
 11
429.4553044822107
 21
213.387500682643
 31
0.0
  0
LINE
  5
FAC
330
18
100
AcDbEntity
  8
1
  6
Continuous
 48
0.25
100
AcDbLine
 10
429.8477487457693
 20
212.1380430002863
 30
0.0
 11
430.0761442360927
 21
212.7666609287612
 31
0.0
  0
ARC
  5
FAD
330
18
100
AcDbEntity
  8
1
  6
Continuous
 48
0.25
100
AcDbCircle
 10
428.8266865537359
 20
212.1380430002863
 30
0.0
 40
2.45
100
AcDbArc
 50
305.1289999999998
 51
324.871
  0
LINE
  5
FAE
330
18
100
AcDbEntity
  8
1
  6
Continuous
 48
0.25
100
AcDbLine
 10
430.0761442360927
 20
211.5094250718115
 30
0.0
 11
430.8306271716185
 21
210.7280720786003
 31
0.0
  0
LINE
  5
FAF
330
18
100
AcDbEntity
  8
1
  6
Continuous
 48
0.25
100
AcDbLine
 10
430.0761442360927
 20
212.7666609287612
 30
0.0
 11
430.8306271716185
 21
213.5480139219723
 31
0.0
  0
LINE
  5
FB0
330
18
100
AcDbEntity
  8
1
  6
Continuous
 48
0.25
100
AcDbLine
 10
428.1980686252611
 20
213.3875006826429
 30
0.0
 11
427.4167156320499
 21
214.141983618169
 31
0.0
  0
ARC
  5
FB1
330
18
100
AcDbEntity
  8
1
  6
Continuous
 48
0.25
100
AcDbCircle
 10
428.8266865537359
 20
212.1380430002863
 30
0.0
 40
2.45
100
AcDbArc
 50
125.1291000000048
 51
144.8709000000027
  0
LINE
  5
FB2
330
18
100
AcDbEntity
  8
1
  6
Continuous
 48
0.25
100
AcDbLine
 10
429.4553044822107
 20
213.387500682643
 30
0.0
 11
430.2366574754219
 21
214.141983618169
 31
0.0
  0
ARC
  5
FB3
330
18
100
AcDbEntity
  8
1
  6
Continuous
 48
0.25
100
AcDbCircle
 10
428.8266865537359
 20
212.1380430002863
 30
0.0
 40
2.45
100
AcDbArc
 50
35.12899999999993
 51
54.87089000000388
  0
ARC
  5
FB8
330
18
100
AcDbEntity
  8
1
  6
Continuous
100
AcDbCircle
 10
428.8266865529997
 20
245.4380430005637
 30
0.0
 40
16.0
100
AcDbArc
 50
0.0
 51
180.0
  0
LINE
  5
FB9
330
18
100
AcDbEntity
  8
4
  6
CENTER
100
AcDbLine
 10
441.826686553628
 20
237.6380430005637
 30
0.0
 11
415.8266865536278
 21
237.6380430005637
 31
0.0
  0
CIRCLE
  5
FBA
330
18
100
AcDbEntity
  8
2
  6
Continuous
100
AcDbCircle
 10
428.8266865536093
 20
237.6380430005636
 30
0.0
 40
2.5
  0
LINE
  5
FBB
330
18
100
AcDbEntity
  8
1
  6
Continuous
100
AcDbLine
 10
433.0693272407475
 20
236.9309362193772
 30
0.0
 11
429.5337933348146
 21
233.3954023134446
 31
0.0
  0
CIRCLE
  5
FBC
330
18
100
AcDbEntity
  8
1
  6
Continuous
100
AcDbCircle
 10
428.8266865536093
 20
237.6380430005636
 30
0.0
 40
3.0
  0
LINE
  5
FBD
330
18
100
AcDbEntity
  8
1
  6
Continuous
100
AcDbLine
 10
433.0693272407471
 20
238.3451497817502
 30
0.0
 11
429.5337933348146
 21
241.8806836876829
 31
0.0
  0
CIRCLE
  5
FBE
330
18
100
AcDbEntity
  8
1
  6
Continuous
100
AcDbCircle
 10
428.8266865536278
 20
237.6380430005637
 30
0.0
 40
13.4
  0
CIRCLE
  5
FBF
330
18
100
AcDbEntity
  8
1
  6
Continuous
100
AcDbCircle
 10
428.8266865536093
 20
237.6380430005636
 30
0.0
 40
2.066999999999999
  0
LINE
  5
FC0
330
18
100
AcDbEntity
  8
1
  6
Continuous
100
AcDbLine
 10
428.1195797724417
 20
241.880683687683
 30
0.0
 11
424.5840458665088
 21
238.3451497817503
 31
0.0
  0
LINE
  5
FC1
330
18
100
AcDbEntity
  8
4
  6
CENTER
100
AcDbLine
 10
419.3266865536278
 20
241.1380430005638
 30
0.0
 11
419.3266865536278
 21
234.1380430005638
 31
0.0
  0
CIRCLE
  5
FC2
330
18
100
AcDbEntity
  8
1
  6
Continuous
100
AcDbCircle
 10
419.3266865536278
 20
237.6380430005638
 30
0.0
 40
2.0
  0
LINE
  5
FC3
330
18
100
AcDbEntity
  8
1
  6
Continuous
100
AcDbLine
 10
412.8266865529996
 20
245.4380430005637
 30
0.0
 11
412.8266865529996
 21
226.6380430002988
 31
0.0
  0
ARC
  5
FC4
330
18
100
AcDbEntity
  8
1
  6
Continuous
100
AcDbCircle
 10
410.8266865537935
 20
223.6380430003008
 30
0.0
 40
3.0
100
AcDbArc
 50
90.0
 51
180.0
  0
LINE
  5
FC5
330
18
100
AcDbEntity
  8
1
  6
Continuous
100
AcDbLine
 10
410.8266865537967
 20
226.6380430003008
 30
0.0
 11
415.4943949277265
 21
226.6380430002961
 31
0.0
  0
LINE
  5
FC6
330
18
100
AcDbEntity
  8
1
  6
Continuous
100
AcDbLine
 10
416.0266865536287
 20
233.6731974802426
 30
0.0
 11
416.0266865536449
 21
226.2450276032587
 31
0.0
  0
LINE
  5
FC7
330
18
100
AcDbEntity
  8
1
  6
Continuous
100
AcDbLine
 10
428.1195797724417
 20
233.3954023134446
 30
0.0
 11
424.5840458665088
 21
236.9309362193774
 31
0.0
  0
ARC
  5
FC8
330
18
100
AcDbEntity
  8
1
  6
Continuous
100
AcDbCircle
 10
428.8266865536093
 20
237.6380430005636
 30
0.0
 40
4.0
100
AcDbArc
 50
163.9550243718611
 51
196.0449756281404
  0
ARC
  5
FC9
330
18
100
AcDbEntity
  8
1
  6
Continuous
100
AcDbCircle
 10
425.2911526476954
 20
237.6380430005638
 30
0.0
 40
1.0
100
AcDbArc
 50
135.0
 51
225.0
  0
ARC
  5
FCA
330
18
100
AcDbEntity
  8
1
  6
Continuous
100
AcDbCircle
 10
428.8266865536281
 20
234.1025090946311
 30
0.0
 40
1.0
100
AcDbArc
 50
224.9999999999988
 51
315.0
  0
ARC
  5
FCB
330
18
100
AcDbEntity
  8
1
  6
Continuous
100
AcDbCircle
 10
428.8266865536093
 20
237.6380430005636
 30
0.0
 40
4.0
100
AcDbArc
 50
253.9550243718624
 51
286.0449756281442
  0
LINE
  5
FCC
330
18
100
AcDbEntity
  8
1
  6
Continuous
100
AcDbLine
 10
429.4266865536989
 20
227.1380430005637
 30
0.0
 11
429.4266865536989
 21
229.1380430005637
 31
0.0
  0
LINE
  5
FCD
330
18
100
AcDbEntity
  8
1
  6
Continuous
100
AcDbLine
 10
429.4266865536989
 20
229.1380430005637
 30
0.0
 11
428.2266865536988
 21
229.1380430005637
 31
0.0
  0
CIRCLE
  5
FCE
330
18
100
AcDbEntity
  8
1
  6
Continuous
100
AcDbCircle
 10
428.8266865536278
 20
228.1380430005637
 30
0.0
 40
2.0
  0
ARC
  5
FCF
330
18
100
AcDbEntity
  8
1
  6
Continuous
100
AcDbCircle
 10
419.026686553598
 20
247.4380430005637
 30
0.0
 40
3.0
100
AcDbArc
 50
90.0
 51
180.0
  0
LINE
  5
FD0
330
18
100
AcDbEntity
  8
1
  6
Continuous
100
AcDbLine
 10
416.0266865535978
 20
247.438043000557
 30
0.0
 11
416.0266865536108
 21
241.6028885208283
 31
0.0
  0
LINE
  5
FD1
330
18
100
AcDbEntity
  8
1
  6
Continuous
100
AcDbLine
 10
424.8618410333083
 20
250.4380430005637
 30
0.0
 11
419.026686553598
 21
250.4380430005637
 31
0.0
  0
LINE
  5
FD2
330
18
100
AcDbEntity
  8
1
  6
Continuous
100
AcDbLine
 10
428.5266865536284
 20
248.1380430005637
 30
0.0
 11
428.5266865536284
 21
246.1380430005637
 31
0.0
  0
LINE
  5
FD3
330
18
100
AcDbEntity
  8
1
  6
Continuous
100
AcDbLine
 10
428.8266865536278
 20
247.1380430005637
 30
0.0
 11
429.6266865536273
 21
246.1380430005637
 31
0.0
  0
LINE
  5
FD4
330
18
100
AcDbEntity
  8
1
  6
Continuous
100
AcDbLine
 10
428.5266865536284
 20
248.1380430005637
 30
0.0
 11
429.1266865536274
 21
248.1380430005637
 31
0.0
  0
LINE
  5
FD5
330
18
100
AcDbEntity
  8
1
  6
Continuous
100
AcDbLine
 10
428.5266865536284
 20
247.1380430005637
 30
0.0
 11
429.1266865536274
 21
247.1380430005637
 31
0.0
  0
ARC
  5
FD6
330
18
100
AcDbEntity
  8
1
  6
Continuous
100
AcDbCircle
 10
429.1266865536274
 20
247.6380430005637
 30
0.0
 40
0.5
100
AcDbArc
 50
269.9999999999608
 51
89.99999999996092
  0
ARC
  5
FD7
330
18
100
AcDbEntity
  8
1
  6
Continuous
100
AcDbCircle
 10
428.8266865536278
 20
241.1735769064965
 30
0.0
 40
1.0
100
AcDbArc
 50
45.0
 51
135.0
  0
ARC
  5
FD8
330
18
100
AcDbEntity
  8
1
  6
Continuous
100
AcDbCircle
 10
428.8266865536093
 20
237.6380430005636
 30
0.0
 40
4.0
100
AcDbArc
 50
73.95502437186245
 51
106.0449756281375
  0
CIRCLE
  5
FD9
330
18
100
AcDbEntity
  8
1
  6
Continuous
100
AcDbCircle
 10
428.8266865536278
 20
247.1380430005637
 30
0.0
 40
2.0
  0
LINE
  5
FDA
330
18
100
AcDbEntity
  8
4
  6
CENTER
100
AcDbLine
 10
438.3266865536278
 20
241.1380430005637
 30
0.0
 11
438.3266865536278
 21
234.1380430005637
 31
0.0
  0
CIRCLE
  5
FDB
330
18
100
AcDbEntity
  8
1
  6
Continuous
100
AcDbCircle
 10
438.3266865536278
 20
237.6380430005637
 30
0.0
 40
2.0
  0
LINE
  5
FDC
330
18
100
AcDbEntity
  8
1
  6
Continuous
100
AcDbLine
 10
444.8266865529997
 20
226.6380430002675
 30
0.0
 11
444.8266865529997
 21
245.4380430005637
 31
0.0
  0
LINE
  5
FDD
330
18
100
AcDbEntity
  8
1
  6
Continuous
100
AcDbLine
 10
442.1589781796738
 20
226.6380430002702
 30
0.0
 11
446.8266865537966
 21
226.6380430002656
 31
0.0
  0
ARC
  5
FDE
330
18
100
AcDbEntity
  8
1
  6
Continuous
100
AcDbCircle
 10
432.3622204595607
 20
237.6380430005637
 30
0.0
 40
1.0
100
AcDbArc
 50
315.0
 51
45.0
  0
ARC
  5
FDF
330
18
100
AcDbEntity
  8
1
  6
Continuous
100
AcDbCircle
 10
428.8266865536093
 20
237.6380430005636
 30
0.0
 40
4.0
100
AcDbArc
 50
343.9550243718579
 51
16.04497562814046
  0
LINE
  5
FE0
330
18
100
AcDbEntity
  8
1
  6
Continuous
100
AcDbLine
 10
441.6266865536284
 20
233.6731974802453
 30
0.0
 11
441.6266865536448
 21
226.2450276031555
 31
0.0
  0
ARC
  5
FE1
330
18
100
AcDbEntity
  8
1
  6
Continuous
100
AcDbCircle
 10
446.8266865537934
 20
223.6380430002656
 30
0.0
 40
3.0
100
AcDbArc
 50
0.0
 51
90.0
  0
ARC
  5
FE2
330
18
100
AcDbEntity
  8
1
  6
Continuous
100
AcDbCircle
 10
438.6266865535981
 20
247.4380430005637
 30
0.0
 40
3.0
100
AcDbArc
 50
0.0
 51
90.0
  0
LINE
  5
FE3
330
18
100
AcDbEntity
  8
1
  6
Continuous
100
AcDbLine
 10
438.6266865535981
 20
250.4380430005637
 30
0.0
 11
432.7915320739476
 21
250.4380430005637
 31
0.0
  0
LINE
  5
FE4
330
18
100
AcDbEntity
  8
1
  6
Continuous
100
AcDbLine
 10
441.626686553598
 20
247.4380430005703
 30
0.0
 11
441.6266865536109
 21
241.6028885209387
 31
0.0
  0
LINE
  5
FE5
330
18
100
AcDbEntity
  8
4
  6
CENTER
100
AcDbLine
 10
436.0766865537076
 20
278.2201592050923
 30
0.0
 11
421.5766865537076
 21
278.2201592050923
 31
0.0
  0
CIRCLE
  5
FE6
330
18
100
AcDbEntity
  8
1
  6
Continuous
100
AcDbCircle
 10
428.8266865537076
 20
278.2201592050923
 30
0.0
 40
6.0
  0
CIRCLE
  5
FE7
330
18
100
AcDbEntity
  8
1
  6
Continuous
100
AcDbCircle
 10
428.8266865537267
 20
278.2201592050975
 30
0.0
 40
4.600000000071418
  0
CIRCLE
  5
FE8
330
18
100
AcDbEntity
  8
1
  6
Continuous
 48
0.25
100
AcDbCircle
 10
428.8266865537301
 20
278.2201592050923
 30
0.0
 40
4.5
  0
LINE
  5
FE9
330
18
100
AcDbEntity
  8
1
  6
Continuous
 48
0.25
100
AcDbLine
 10
429.4553044822049
 20
279.469616887449
 30
0.0
 11
430.2366574754161
 21
280.224099822975
 31
0.0
  0
LINE
  5
FEA
330
18
100
AcDbEntity
  8
1
  6
Continuous
 48
0.25
100
AcDbLine
 10
428.8266865537301
 20
279.2412213971258
 30
0.0
 11
428.1980686252555
 21
279.469616887449
 31
0.0
  0
LINE
  5
FEB
330
18
100
AcDbEntity
  8
1
  6
Continuous
 48
0.25
100
AcDbLine
 10
428.8266865537301
 20
279.2412213971258
 30
0.0
 11
429.4553044822049
 21
279.469616887449
 31
0.0
  0
LINE
  5
FEC
330
18
100
AcDbEntity
  8
1
  6
Continuous
 48
0.25
100
AcDbLine
 10
429.8477487457637
 20
278.2201592050923
 30
0.0
 11
430.076144236087
 21
277.5915412766175
 31
0.0
  0
LINE
  5
FED
330
18
100
AcDbEntity
  8
1
  6
Continuous
 48
0.25
100
AcDbLine
 10
429.8477487457637
 20
278.2201592050923
 30
0.0
 11
430.076144236087
 21
278.8487771335673
 31
0.0
  0
LINE
  5
FEE
330
18
100
AcDbEntity
  8
1
  6
Continuous
 48
0.25
100
AcDbLine
 10
427.5772288713735
 20
278.8487771335673
 30
0.0
 11
426.8227459358475
 21
279.6301301267784
 31
0.0
  0
ARC
  5
FEF
330
18
100
AcDbEntity
  8
1
  6
Continuous
 48
0.25
100
AcDbCircle
 10
428.8266865537301
 20
278.2201592050923
 30
0.0
 40
2.45
100
AcDbArc
 50
125.1291000000048
 51
144.8709000000027
  0
LINE
  5
FF0
330
18
100
AcDbEntity
  8
1
  6
Continuous
 48
0.25
100
AcDbLine
 10
427.8063314684779
 20
278.2208663118735
 30
0.0
 11
427.5772288713735
 21
277.5915412766175
 31
0.0
  0
LINE
  5
FF1
330
18
100
AcDbEntity
  8
1
  6
Continuous
 48
0.25
100
AcDbLine
 10
427.8063314684779
 20
278.2208663118735
 30
0.0
 11
427.5772288713735
 21
278.8487771335673
 31
0.0
  0
LINE
  5
FF2
330
18
100
AcDbEntity
  8
1
  6
Continuous
 48
0.25
100
AcDbLine
 10
428.1980686252555
 20
279.469616887449
 30
0.0
 11
427.4167156320443
 21
280.224099822975
 31
0.0
  0
ARC
  5
FF3
330
18
100
AcDbEntity
  8
1
  6
Continuous
 48
0.25
100
AcDbCircle
 10
428.8266865537301
 20
278.2201592050923
 30
0.0
 40
2.45
100
AcDbArc
 50
35.12899999999993
 51
54.87089000000388
  0
LINE
  5
FF4
330
18
100
AcDbEntity
  8
1
  6
Continuous
 48
0.25
100
AcDbLine
 10
430.076144236087
 20
278.8487771335673
 30
0.0
 11
430.8306271716127
 21
279.6301301267784
 31
0.0
  0
LINE
  5
FF5
330
18
100
AcDbEntity
  8
1
  6
Continuous
 48
0.25
100
AcDbLine
 10
428.8273936605114
 20
277.1998041198402
 30
0.0
 11
429.4553044822049
 21
276.9707015227357
 31
0.0
  0
LINE
  5
FF6
330
18
100
AcDbEntity
  8
1
  6
Continuous
 48
0.25
100
AcDbLine
 10
428.8273936605114
 20
277.1998041198402
 30
0.0
 11
428.1980686252555
 21
276.9707015227357
 31
0.0
  0
LINE
  5
FF7
330
18
100
AcDbEntity
  8
1
  6
Continuous
 48
0.25
100
AcDbLine
 10
429.4553044822049
 20
276.9707015227357
 30
0.0
 11
430.2366574754161
 21
276.2162185872098
 31
0.0
  0
ARC
  5
FF8
330
18
100
AcDbEntity
  8
1
  6
Continuous
 48
0.25
100
AcDbCircle
 10
428.8266865537301
 20
278.2201592050923
 30
0.0
 40
2.45
100
AcDbArc
 50
215.1289999999999
 51
234.871
  0
LINE
  5
FF9
330
18
100
AcDbEntity
  8
1
  6
Continuous
 48
0.25
100
AcDbLine
 10
428.1980686252555
 20
276.9707015227357
 30
0.0
 11
427.4167156320443
 21
276.2162185872098
 31
0.0
  0
ARC
  5
FFA
330
18
100
AcDbEntity
  8
1
  6
Continuous
 48
0.25
100
AcDbCircle
 10
428.8266865537301
 20
278.2201592050923
 30
0.0
 40
2.45
100
AcDbArc
 50
305.1289999999998
 51
324.871
  0
LINE
  5
FFB
330
18
100
AcDbEntity
  8
4
  6
CENTER
100
AcDbLine
 10
428.8266865537076
 20
285.4701592050923
 30
0.0
 11
428.8266865537076
 21
270.9701592050923
 31
0.0
  0
LINE
  5
FFC
330
18
100
AcDbEntity
  8
1
  6
Continuous
 48
0.25
100
AcDbLine
 10
427.5772288713735
 20
277.5915412766175
 30
0.0
 11
426.8227459358475
 21
276.8101882834064
 31
0.0
  0
LINE
  5
FFD
330
18
100
AcDbEntity
  8
1
  6
Continuous
 48
0.25
100
AcDbLine
 10
430.076144236087
 20
277.5915412766175
 30
0.0
 11
430.8306271716127
 21
276.8101882834064
 31
0.0
  0
ARC
  5
FFE
330
18
100
AcDbEntity
  8
1
  6
Continuous
100
AcDbCircle
 10
321.3842328355879
 20
71.90268723312897
 30
0.0
 40
2.299999999999998
100
AcDbArc
 50
359.9999999999495
 51
90.00000000001952
  0
ARC
  5
FFF
330
18
100
AcDbEntity
  8
1
  6
Continuous
100
AcDbCircle
 10
320.1842328355898
 20
74.2026872331287
 30
0.0
 40
2.299999999999998
100
AcDbArc
 50
179.9999999999495
 51
270.0000000000195
  0
LINE
  5
1002
330
18
100
AcDbEntity
  8
1
  6
Continuous
100
AcDbLine
 10
320.1842328355943
 20
37.40268723311101
 30
0.0
 11
320.1842328355898
 21
42.60268723313527
 31
0.0
  0
LINE
  5
1003
330
18
100
AcDbEntity
  8
1
  6
Continuous
100
AcDbLine
 10
317.8842328355617
 20
42.60268723313077
 30
0.0
 11
317.8842328355572
 21
37.40268723311209
 31
0.0
  0
LINE
  5
1006
330
18
100
AcDbEntity
  8
1
  6
Continuous
100
AcDbLine
 10
317.8842328355572
 20
37.40268723311209
 30
0.0
 11
320.1842328355571
 21
37.40268723311106
 31
0.0
  0
LINE
  5
1007
330
18
100
AcDbEntity
  8
4
  6
CENTER
100
AcDbLine
 10
315.1249545059056
 20
58.4026872331271
 30
0.0
 11
330.9737703410084
 21
58.40268723313197
 31
0.0
  0
ARC
  5
1008
330
18
100
AcDbEntity
  8
1
  6
Continuous
100
AcDbCircle
 10
316.2842328355759
 20
58.40268723313091
 30
0.0
 40
12.0
100
AcDbArc
 50
344.506032499479
 51
15.49396750052098
  0
LINE
  5
1009
330
18
100
AcDbEntity
  8
1
  6
Continuous
100
AcDbLine
 10
323.6842328355878
 20
71.90268723312692
 30
0.0
 11
323.6842328355637
 21
44.90268723313294
 31
0.0
  0
LINE
  5
100A
330
18
100
AcDbEntity
  8
1
  6
Continuous
100
AcDbLine
 10
321.3842328355879
 20
71.90268723312908
 30
0.0
 11
321.3842328355638
 21
44.90268723312907
 31
0.0
  0
LINE
  5
100B
330
18
100
AcDbEntity
  8
1
  6
Continuous
100
AcDbLine
 10
323.684232835576
 20
63.00268723313092
 30
0.0
 11
323.684232835576
 21
53.80268723313088
 31
0.0
  0
LINE
  5
100C
330
18
100
AcDbEntity
  8
1
  6
Continuous
100
AcDbLine
 10
324.984232835576
 20
63.00268723313092
 30
0.0
 11
324.984232835576
 21
53.80268723313088
 31
0.0
  0
ARC
  5
100D
330
18
100
AcDbEntity
  8
1
  6
Continuous
100
AcDbCircle
 10
320.1842328355616
 20
42.60268723312872
 30
0.0
 40
2.299999999999998
100
AcDbArc
 50
90.00000000001952
 51
179.9999999999495
  0
LINE
  5
100E
330
18
100
AcDbEntity
  8
1
  6
Continuous
100
AcDbLine
 10
324.984232835576
 20
53.80268723313088
 30
0.0
 11
323.684232835576
 21
53.80268723313088
 31
0.0
  0
LINE
  5
100F
330
18
100
AcDbEntity
  8
1
  6
Continuous
100
AcDbLine
 10
324.984232835576
 20
53.90268723313091
 30
0.0
 11
326.4457313037123
 21
54.03055178085343
 31
0.0
  0
ARC
  5
1010
330
18
100
AcDbEntity
  8
1
  6
Continuous
100
AcDbCircle
 10
321.3842328355638
 20
44.90268723313501
 30
0.0
 40
2.299999999999998
100
AcDbArc
 50
269.9999999999804
 51
359.9999999999495
  0
LINE
  5
1011
330
18
100
AcDbEntity
  8
1
  6
Continuous
100
AcDbLine
 10
320.184232835561
 20
44.90268723312873
 30
0.0
 11
321.3842328355638
 21
44.90268723312907
 31
0.0
  0
LINE
  5
1012
330
18
100
AcDbEntity
  8
1
  6
Continuous
100
AcDbLine
 10
320.1842328355898
 20
42.60268723313527
 30
0.0
 11
321.3842328355631
 21
42.60268723313497
 31
0.0
  0
ARC
  5
1013
330
18
100
AcDbEntity
  8
1
  6
Continuous
100
AcDbCircle
 10
326.3062821152673
 20
55.62446329780653
 30
0.0
 40
1.6
100
AcDbArc
 50
274.9999999999997
 51
344.506032499479
  0
LINE
  5
1014
330
18
100
AcDbEntity
  8
1
  6
Continuous
100
AcDbLine
 10
324.984232835576
 20
63.00268723313092
 30
0.0
 11
323.684232835576
 21
63.00268723313092
 31
0.0
  0
LINE
  5
1015
330
18
100
AcDbEntity
  8
1
  6
Continuous
100
AcDbLine
 10
324.9842328355762
 20
59.49351675366023
 30
0.0
 11
323.684232835576
 21
58.40268723312977
 31
0.0
  0
ARC
  5
1016
330
18
100
AcDbEntity
  8
1
  6
Continuous
100
AcDbCircle
 10
326.3062821152502
 20
61.1809111684513
 30
0.0
 40
1.6
100
AcDbArc
 50
15.49396750052098
 51
85.00000000000019
  0
LINE
  5
1017
330
18
100
AcDbEntity
  8
1
  6
Continuous
100
AcDbLine
 10
324.984232835576
 20
62.90268723313102
 30
0.0
 11
326.4457313036714
 21
62.77482268541223
 31
0.0
  0
LINE
  5
1018
330
18
100
AcDbEntity
  8
1
  6
Continuous
100
AcDbLine
 10
324.984232835576
 20
58.40268723313011
 30
0.0
 11
323.6842328355758
 21
57.31185771259965
 31
0.0
  0
LINE
  5
1019
330
18
100
AcDbEntity
  8
1
  6
Continuous
100
AcDbLine
 10
320.1842328355903
 20
71.90268723312868
 30
0.0
 11
321.3842328355879
 21
71.90268723312908
 31
0.0
  0
ARC
  5
101A
330
18
100
AcDbEntity
  8
1
  6
Continuous
100
AcDbCircle
 10
335.8850197439201
 20
58.40268723313197
 30
0.0
 40
12.0
100
AcDbArc
 50
344.506032499479
 51
15.49396750052098
  0
LINE
  5
101B
330
18
100
AcDbEntity
  8
1
  6
Continuous
100
AcDbLine
 10
344.5850197439201
 20
63.00268723313201
 30
0.0
 11
344.5850197439201
 21
53.80268723313196
 31
0.0
  0
LINE
  5
101C
330
18
100
AcDbEntity
  8
1
  6
Continuous
100
AcDbLine
 10
343.2850197439198
 20
64.40268723313199
 30
0.0
 11
343.2850197439198
 21
52.4026872331321
 31
0.0
  0
LINE
  5
101D
330
18
100
AcDbEntity
  8
1
  6
Continuous
100
AcDbLine
 10
342.48501974392
 20
64.40268723313199
 30
0.0
 11
342.48501974392
 21
52.4026872331321
 31
0.0
  0
LINE
  5
101E
330
18
100
AcDbEntity
  8
1
  6
Continuous
100
AcDbLine
 10
344.5850197439201
 20
53.90268723313198
 30
0.0
 11
346.0465182120565
 21
54.03055178085452
 31
0.0
  0
LINE
  5
101F
330
18
100
AcDbEntity
  8
1
  6
Continuous
100
AcDbLine
 10
343.2850197439198
 20
52.40268723313199
 30
0.0
 11
342.48501974392
 21
52.40268723313199
 31
0.0
  0
LINE
  5
1020
330
18
100
AcDbEntity
  8
1
  6
Continuous
100
AcDbLine
 10
344.5850197439201
 20
53.80268723313196
 30
0.0
 11
343.2850197439198
 21
53.80268723313196
 31
0.0
  0
ARC
  5
1021
330
18
100
AcDbEntity
  8
1
  6
Continuous
100
AcDbCircle
 10
345.9070690236115
 20
55.62446329780761
 30
0.0
 40
1.6
100
AcDbArc
 50
274.9999999999997
 51
344.506032499479
  0
LINE
  5
1022
330
18
100
AcDbEntity
  8
1
  6
Continuous
100
AcDbLine
 10
344.5850197439201
 20
62.90268723313221
 30
0.0
 11
346.0465182120153
 21
62.77482268541331
 31
0.0
  0
LINE
  5
1023
330
18
100
AcDbEntity
  8
4
  6
CENTER
100
AcDbLine
 10
349.4804835719853
 20
58.40268723313197
 30
0.0
 11
340.1366531019442
 21
58.40268723313197
 31
0.0
  0
LINE
  5
1024
330
18
100
AcDbEntity
  8
1
  6
Continuous
100
AcDbLine
 10
343.2850197439198
 20
64.40268723313199
 30
0.0
 11
342.48501974392
 21
64.40268723313199
 31
0.0
  0
LINE
  5
1025
330
18
100
AcDbEntity
  8
1
  6
Continuous
100
AcDbLine
 10
344.5850197439201
 20
63.00268723313201
 30
0.0
 11
343.2850197439198
 21
63.00268723313201
 31
0.0
  0
LINE
  5
1026
330
18
100
AcDbEntity
  8
1
  6
Continuous
100
AcDbLine
 10
344.5850197439201
 20
59.4935167536625
 30
0.0
 11
343.2850197439198
 21
58.40268723313197
 31
0.0
  0
LINE
  5
1027
330
18
100
AcDbEntity
  8
1
  6
Continuous
100
AcDbLine
 10
344.5850197439201
 20
58.40268723313197
 30
0.0
 11
343.2850197439198
 21
57.31185771260147
 31
0.0
  0
ARC
  5
1028
330
18
100
AcDbEntity
  8
1
  6
Continuous
100
AcDbCircle
 10
345.9070690235942
 20
61.18091116845238
 30
0.0
 40
1.6
100
AcDbArc
 50
15.49396750052098
 51
85.00000000000019
  0
LINE
  5
1029
330
18
100
AcDbEntity
  8
1
  6
Continuous
100
AcDbLine
 10
317.8842328355929
 20
79.40268723315188
 30
0.0
 11
320.1842328355943
 21
79.40268723315295
 31
0.0
  0
LINE
  5
102A
330
18
100
AcDbEntity
  8
1
  6
Continuous
100
AcDbLine
 10
320.1842328355898
 20
74.2026872331287
 30
0.0
 11
321.384232835587
 21
74.20268723312898
 31
0.0
  0
LINE
  5
102B
330
18
100
AcDbEntity
  8
1
  6
Continuous
100
AcDbLine
 10
320.1842328355943
 20
79.40268723315295
 30
0.0
 11
320.1842328355898
 21
74.2026872331287
 31
0.0
  0
LINE
  5
102C
330
18
100
AcDbEntity
  8
1
  6
Continuous
100
AcDbLine
 10
317.8842328355945
 20
79.40268723315188
 30
0.0
 11
317.8842328355897
 21
74.20268723313075
 31
0.0
  0
LINE
  5
1074
330
18
100
AcDbEntity
  8
4
  6
CENTER
100
AcDbLine
 10
297.0674570193212
 20
342.3665079394898
 30
0.0
 11
302.1527359618602
 21
342.3665079394898
 31
0.0
  0
LINE
  5
1076
330
18
100
AcDbEntity
  8
4
  6
CENTER
100
AcDbLine
 10
297.0674570193212
 20
323.3665079394898
 30
0.0
 11
302.1527359618602
 21
323.3665079394898
 31
0.0
  0
LINE
  5
1078
330
18
100
AcDbEntity
  8
4
  6
CENTER
100
AcDbLine
 10
267.1760992386315
 20
332.8665079394899
 30
0.0
 11
305.9645382921725
 21
332.8665079394899
 31
0.0
  0
LINE
  5
10C0
330
18
100
AcDbEntity
  8
1
  6
Continuous
 48
0.25
100
AcDbLine
 10
120.0991608872553
 20
334.5665079394644
 30
0.0
 11
118.1273194683682
 21
335.9415079395017
 31
0.0
  0
LINE
  5
10C1
330
18
100
AcDbEntity
  8
1
  6
Continuous
 48
0.25
100
AcDbLine
 10
120.0991608872042
 20
331.1665079394646
 30
0.0
 11
118.1273194683682
 21
329.7915079395019
 31
0.0
  0
LINE
  5
10C2
330
18
100
AcDbEntity
  8
1
  6
Continuous
 48
0.25
100
AcDbLine
 10
98.12731946836823
 20
330.0915079395018
 30
0.0
 11
98.12731946836823
 21
327.3665079394928
 31
0.0
  0
ARC
  5
10C3
330
18
100
AcDbEntity
  8
1
  6
Continuous
 48
0.25
100
AcDbCircle
 10
97.62731946836822
 20
327.3665079394928
 30
0.0
 40
0.5
100
AcDbArc
 50
270.0
 51
0.0
  0
LINE
  5
10C4
330
18
100
AcDbEntity
  8
1
  6
Continuous
 48
0.25
100
AcDbLine
 10
99.2273194683679
 20
329.7915079395019
 30
0.0
 11
118.1273194683682
 21
329.7915079395019
 31
0.0
  0
LINE
  5
10C5
330
18
100
AcDbEntity
  8
1
  6
Continuous
 48
0.25
100
AcDbLine
 10
99.22731946836815
 20
335.9415079395017
 30
0.0
 11
118.1273194683682
 21
335.9415079395017
 31
0.0
  0
LINE
  5
10C6
330
18
100
AcDbEntity
  8
1
  6
Continuous
 48
0.25
100
AcDbLine
 10
98.12731946836823
 20
338.3665079394928
 30
0.0
 11
98.12731946836823
 21
335.6415079395018
 31
0.0
  0
LINE
  5
10C7
330
18
100
AcDbEntity
  8
1
  6
Continuous
 48
0.25
100
AcDbLine
 10
98.92731946836818
 20
335.6415079395018
 30
0.0
 11
99.22731946836837
 21
335.9415079395018
 31
0.0
  0
LINE
  5
10C8
330
18
100
AcDbEntity
  8
1
  6
Continuous
 48
0.25
100
AcDbLine
 10
98.12731946836823
 20
335.6415079395018
 30
0.0
 11
98.92731946836818
 21
335.6415079395018
 31
0.0
  0
ARC
  5
10C9
330
18
100
AcDbEntity
  8
1
  6
Continuous
 48
0.25
100
AcDbCircle
 10
97.62731946836822
 20
338.3665079394928
 30
0.0
 40
0.5
100
AcDbArc
 50
0.0
 51
90.0
  0
LINE
  5
10CA
330
18
100
AcDbEntity
  8
1
  6
Continuous
 48
0.25
100
AcDbLine
 10
98.12731946836823
 20
330.0915079395018
 30
0.0
 11
98.92731946836818
 21
330.0915079395018
 31
0.0
  0
LINE
  5
10CB
330
18
100
AcDbEntity
  8
1
  6
Continuous
 48
0.25
100
AcDbLine
 10
98.92731946836818
 20
330.0915079395017
 30
0.0
 11
99.22731946836815
 21
329.7915079395014
 31
0.0
  0
ARC
  5
10CC
330
18
100
AcDbEntity
  8
1
  6
Continuous
 48
0.25
100
AcDbCircle
 10
117.6273194683682
 20
332.8665079395018
 30
0.0
 40
3.0
100
AcDbArc
 50
325.4818921580722
 51
34.518107840195
  0
LINE
  5
10CD
330
18
100
AcDbEntity
  8
1
  6
Continuous
 48
0.25
100
AcDbLine
 10
119.1550762819466
 20
335.224834881936
 30
0.0
 11
119.1550762819466
 21
330.5081809970473
 31
0.0
  0
LINE
  5
10E7
330
18
100
AcDbEntity
  8
1
  6
Continuous
100
AcDbLine
 10
300.7258318848599
 20
340.8665079394138
 30
0.0
 11
300.7258318848599
 21
343.8665079394139
 31
0.0
  0
LINE
  5
10E8
330
18
100
AcDbEntity
  8
1
  6
Continuous
100
AcDbLine
 10
280.92583188486
 20
344.6665079394687
 30
0.0
 11
280.92583188486
 21
332.8665079394899
 31
0.0
  0
LINE
  5
10EA
330
18
100
AcDbEntity
  8
1
  6
Continuous
100
AcDbLine
 10
273.9258318848602
 20
344.8665079401088
 30
0.0
 11
273.9258318848614
 21
320.866507940109
 31
0.0
  0
LINE
  5
10EB
330
18
100
AcDbEntity
  8
1
  6
Continuous
100
AcDbLine
 10
276.9258318848602
 20
348.8665079401085
 30
0.0
 11
276.9258318848618
 21
316.8665079401087
 31
0.0
  0
LINE
  5
10EC
330
18
100
AcDbEntity
  8
1
  6
Continuous
100
AcDbLine
 10
278.9258318848602
 20
348.8665079401084
 30
0.0
 11
278.9258318848618
 21
316.8665079401085
 31
0.0
  0
LINE
  5
10ED
330
18
100
AcDbEntity
  8
1
  6
Continuous
100
AcDbLine
 10
286.92583188486
 20
319.4665079394907
 30
0.0
 11
286.92583188486
 21
346.2665079394893
 31
0.0
  0
LINE
  5
10EE
330
18
100
AcDbEntity
  8
1
  6
Continuous
100
AcDbLine
 10
298.7258318848599
 20
319.9665079394871
 30
0.0
 11
298.7258318848599
 21
345.7665079394914
 31
0.0
  0
LINE
  5
10EF
330
18
100
AcDbEntity
  8
1
  6
Continuous
100
AcDbLine
 10
273.9258318848614
 20
320.866507940109
 30
0.0
 11
276.9258318848618
 21
316.8665079401087
 31
0.0
  0
ARC
  5
10F0
330
18
100
AcDbEntity
  8
1
  6
Continuous
100
AcDbCircle
 10
283.5991946437264
 20
332.8665079395065
 30
0.0
 40
15.073362758848
100
AcDbArc
 50
146.5984739120792
 51
213.4015260878123
  0
ARC
  5
10F1
330
18
100
AcDbEntity
  8
1
  6
Continuous
100
AcDbCircle
 10
330.4258318848573
 20
332.8665079394899
 30
0.0
 40
60.0
100
AcDbArc
 50
172.238908944579
 51
187.7610910554209
  0
LINE
  5
10F3
330
18
100
AcDbEntity
  8
1
  6
Continuous
100
AcDbLine
 10
272.4617050476487
 20
323.4665079394898
 30
0.0
 11
273.9258318848614
 21
323.4665079394898
 31
0.0
  0
ARC
  5
10F4
330
18
100
AcDbEntity
  8
1
  6
Continuous
100
AcDbCircle
 10
272.4617050476487
 20
324.9665079394898
 30
0.0
 40
1.5
100
AcDbArc
 50
187.7610910554209
 51
270.0
  0
LINE
  5
10F5
330
18
100
AcDbEntity
  8
1
  6
Continuous
100
AcDbLine
 10
272.4617050476487
 20
342.2665079394897
 30
0.0
 11
273.9258318848604
 21
342.2665079394897
 31
0.0
  0
ARC
  5
10F6
330
18
100
AcDbEntity
  8
1
  6
Continuous
100
AcDbCircle
 10
272.4617050476487
 20
340.7665079394897
 30
0.0
 40
1.5
100
AcDbArc
 50
90.0
 51
172.238908944579
  0
LINE
  5
10F7
330
18
100
AcDbEntity
  8
1
  6
Continuous
100
AcDbLine
 10
280.92583188486
 20
321.0665079395111
 30
0.0
 11
280.92583188486
 21
332.8665079394896
 31
0.0
  0
LINE
  5
10F8
330
18
100
AcDbEntity
  8
1
  6
Continuous
100
AcDbLine
 10
286.92583188486
 20
319.4665079394907
 30
0.0
 11
298.2258318848597
 21
319.4665079394868
 31
0.0
  0
ARC
  5
10F9
330
18
100
AcDbEntity
  8
1
  6
Continuous
100
AcDbCircle
 10
279.92583188486
 20
321.0665079395111
 30
0.0
 40
1.0
100
AcDbArc
 50
270.0
 51
0.0
  0
LINE
  5
10FA
330
18
100
AcDbEntity
  8
1
  6
Continuous
100
AcDbLine
 10
285.9258318848598
 20
320.0665079395101
 30
0.0
 11
278.9258318847643
 21
320.0665079395111
 31
0.0
  0
ARC
  5
10FB
330
18
100
AcDbEntity
  8
1
  6
Continuous
100
AcDbCircle
 10
285.9258318848599
 20
321.0665079395102
 30
0.0
 40
1.0
100
AcDbArc
 50
270.0
 51
0.0
  0
LINE
  5
10FC
330
18
100
AcDbEntity
  8
1
  6
Continuous
100
AcDbLine
 10
276.9258318848618
 20
316.8665079401087
 30
0.0
 11
278.9258318848618
 21
316.8665079401085
 31
0.0
  0
ARC
  5
10FD
330
18
100
AcDbEntity
  8
1
  6
Continuous
100
AcDbCircle
 10
300.2258318848599
 20
321.8665079395659
 30
0.0
 40
0.5
100
AcDbArc
 50
270.0
 51
0.0
  0
ARC
  5
10FE
330
18
100
AcDbEntity
  8
1
  6
Continuous
100
AcDbCircle
 10
300.2258318848599
 20
324.8665079395659
 30
0.0
 40
0.5
100
AcDbArc
 50
0.0
 51
90.0
  0
LINE
  5
10FF
330
18
100
AcDbEntity
  8
1
  6
Continuous
100
AcDbLine
 10
300.7258318848599
 20
324.8665079395659
 30
0.0
 11
300.7258318848599
 21
321.8665079395659
 31
0.0
  0
LINE
  5
1100
330
18
100
AcDbEntity
  8
1
  6
Continuous
100
AcDbLine
 10
298.7258318848613
 20
321.3665079395653
 30
0.0
 11
300.2258318848602
 21
321.3665079395659
 31
0.0
  0
LINE
  5
1101
330
18
100
AcDbEntity
  8
1
  6
Continuous
100
AcDbLine
 10
298.7258318848599
 20
325.3665079395653
 30
0.0
 11
300.2258318848597
 21
325.3665079395659
 31
0.0
  0
ARC
  5
1102
330
18
100
AcDbEntity
  8
1
  6
Continuous
100
AcDbCircle
 10
298.2258318848599
 20
319.9665079394871
 30
0.0
 40
0.5
100
AcDbArc
 50
270.0
 51
0.0
  0
ARC
  5
1103
330
18
100
AcDbEntity
  8
1
  6
Continuous
100
AcDbCircle
 10
300.2258318848599
 20
340.8665079394138
 30
0.0
 40
0.5
100
AcDbArc
 50
270.0
 51
0.0
  0
LINE
  5
1104
330
18
100
AcDbEntity
  8
1
  6
Continuous
100
AcDbLine
 10
298.7258318848599
 20
340.3665079394144
 30
0.0
 11
300.2258318848597
 21
340.3665079394138
 31
0.0
  0
LINE
  5
1105
330
18
100
AcDbEntity
  8
1
  6
Continuous
100
AcDbLine
 10
300.7258318848599
 20
331.7609405991269
 30
0.0
 11
298.7258318848599
 21
331.7609405991269
 31
0.0
  0
LINE
  5
1106
330
18
100
AcDbEntity
  8
1
  6
Continuous
100
AcDbLine
 10
300.7258318848599
 20
333.9720752798798
 30
0.0
 11
298.7258318848599
 21
333.9720752798798
 31
0.0
  0
LINE
  5
1107
330
18
100
AcDbEntity
  8
1
  6
Continuous
100
AcDbLine
 10
300.7258318848599
 20
336.7106880670862
 30
0.0
 11
298.7258318844745
 21
336.7106880670859
 31
0.0
  0
LINE
  5
1108
330
18
100
AcDbEntity
  8
1
  6
Continuous
100
AcDbLine
 10
300.7258318848599
 20
336.8665079397942
 30
0.0
 11
298.7258318848599
 21
336.8665079397942
 31
0.0
  0
LINE
  5
1109
330
18
100
AcDbEntity
  8
1
  6
Continuous
100
AcDbLine
 10
300.7258318848599
 20
329.0223278118931
 30
0.0
 11
298.7258318844745
 21
329.0223278118934
 31
0.0
  0
LINE
  5
110A
330
18
100
AcDbEntity
  8
1
  6
Continuous
100
AcDbLine
 10
300.7258318848599
 20
328.8665079397937
 30
0.0
 11
298.7258318848602
 21
328.8665079397937
 31
0.0
  0
LINE
  5
110B
330
18
100
AcDbEntity
  8
1
  6
Continuous
100
AcDbLine
 10
300.7258318848599
 20
328.8665079397939
 30
0.0
 11
300.7258318848599
 21
336.8665079397942
 31
0.0
  0
LINE
  5
110C
330
18
100
AcDbEntity
  8
1
  6
Continuous
100
AcDbLine
 10
273.9258318848602
 20
344.8665079401088
 30
0.0
 11
276.9258318848602
 21
348.8665079401085
 31
0.0
  0
LINE
  5
1111
330
18
100
AcDbEntity
  8
1
  6
Continuous
100
AcDbLine
 10
286.92583188486
 20
346.2665079394893
 30
0.0
 11
298.2258318848599
 21
346.2665079394914
 31
0.0
  0
ARC
  5
1112
330
18
100
AcDbEntity
  8
1
  6
Continuous
100
AcDbCircle
 10
279.92583188486
 20
344.6665079394687
 30
0.0
 40
1.0
100
AcDbArc
 50
0.0
 51
90.0
  0
LINE
  5
1113
330
18
100
AcDbEntity
  8
1
  6
Continuous
100
AcDbLine
 10
278.9258318848602
 20
348.8665079401084
 30
0.0
 11
276.9258318848602
 21
348.8665079401085
 31
0.0
  0
LINE
  5
1114
330
18
100
AcDbEntity
  8
1
  6
Continuous
100
AcDbLine
 10
285.9258318848598
 20
345.6665079394696
 30
0.0
 11
278.9258318847643
 21
345.6665079394686
 31
0.0
  0
ARC
  5
1115
330
18
100
AcDbEntity
  8
1
  6
Continuous
100
AcDbCircle
 10
285.9258318848599
 20
344.6665079394696
 30
0.0
 40
1.0
100
AcDbArc
 50
0.0
 51
90.0
  0
ARC
  5
1116
330
18
100
AcDbEntity
  8
1
  6
Continuous
100
AcDbCircle
 10
300.2258318848599
 20
343.8665079394139
 30
0.0
 40
0.5
100
AcDbArc
 50
0.0
 51
90.0
  0
ARC
  5
1117
330
18
100
AcDbEntity
  8
1
  6
Continuous
100
AcDbCircle
 10
298.2258318848599
 20
345.7665079394914
 30
0.0
 40
0.5
100
AcDbArc
 50
0.0
 51
90.0
  0
LINE
  5
1118
330
18
100
AcDbEntity
  8
1
  6
Continuous
100
AcDbLine
 10
298.7258318848613
 20
344.3665079394144
 30
0.0
 11
300.2258318848602
 21
344.3665079394139
 31
0.0
  0
LINE
  5
11B8
330
18
100
AcDbEntity
  8
1
  6
Continuous
100
AcDbLine
 10
317.884232835644
 20
317.0665079394928
 30
0.0
 11
317.8842328356395
 21
311.8665079394741
 31
0.0
  0
LINE
  5
11B9
330
18
100
AcDbEntity
  8
1
  6
Continuous
100
AcDbLine
 10
320.1842328356767
 20
311.866507939473
 30
0.0
 11
320.1842328356722
 21
317.0665079394972
 31
0.0
  0
LINE
  5
11C6
330
18
100
AcDbEntity
  8
1
  6
Continuous
100
AcDbLine
 10
317.8842328356395
 20
311.8665079394741
 30
0.0
 11
320.1842328356395
 21
311.866507939473
 31
0.0
  0
LINE
  5
11C7
330
18
100
AcDbEntity
  8
1
  6
Continuous
100
AcDbLine
 10
321.3842328356702
 20
346.366507939491
 30
0.0
 11
321.3842328356461
 21
319.366507939491
 31
0.0
  0
LINE
  5
11C8
330
18
100
AcDbEntity
  8
1
  6
Continuous
100
AcDbLine
 10
323.6842328356701
 20
346.3665079394889
 30
0.0
 11
323.684232835646
 21
319.3665079394949
 31
0.0
  0
LINE
  5
11CA
330
18
100
AcDbEntity
  8
4
  6
CENTER
100
AcDbLine
 10
315.1249545059879
 20
332.8665079394891
 30
0.0
 11
330.9737703410908
 21
332.8665079394939
 31
0.0
  0
ARC
  5
11CC
330
18
100
AcDbEntity
  8
1
  6
Continuous
100
AcDbCircle
 10
320.184232835644
 20
317.0665079394907
 30
0.0
 40
2.299999999999998
100
AcDbArc
 50
90.00000000001952
 51
179.9999999999495
  0
LINE
  5
11CD
330
18
100
AcDbEntity
  8
1
  6
Continuous
100
AcDbLine
 10
320.1842328356433
 20
319.3665079394908
 30
0.0
 11
321.3842328356461
 21
319.366507939491
 31
0.0
  0
LINE
  5
11CE
330
18
100
AcDbEntity
  8
1
  6
Continuous
100
AcDbLine
 10
320.1842328356722
 20
317.0665079394972
 30
0.0
 11
321.3842328356454
 21
317.066507939497
 31
0.0
  0
ARC
  5
11CF
330
18
100
AcDbEntity
  8
1
  6
Continuous
100
AcDbCircle
 10
321.3842328356461
 20
319.3665079394969
 30
0.0
 40
2.299999999999998
100
AcDbArc
 50
269.9999999999804
 51
359.9999999999495
  0
LINE
  5
11D0
330
18
100
AcDbEntity
  8
1
  6
Continuous
100
AcDbLine
 10
324.9842328356582
 20
337.366507939493
 30
0.0
 11
326.4457313037537
 21
337.2386433917741
 31
0.0
  0
ARC
  5
11D1
330
18
100
AcDbEntity
  8
1
  6
Continuous
100
AcDbCircle
 10
326.3062821153325
 20
335.6447318748133
 30
0.0
 40
1.6
100
AcDbArc
 50
15.49396750052098
 51
85.00000000000019
  0
LINE
  5
11D2
330
18
100
AcDbEntity
  8
1
  6
Continuous
100
AcDbLine
 10
324.9842328356585
 20
333.9573374600222
 30
0.0
 11
323.6842328356583
 21
332.8665079394917
 31
0.0
  0
LINE
  5
11D3
330
18
100
AcDbEntity
  8
1
  6
Continuous
100
AcDbLine
 10
324.9842328356582
 20
337.4665079394929
 30
0.0
 11
323.6842328356583
 21
337.4665079394929
 31
0.0
  0
LINE
  5
11D4
330
18
100
AcDbEntity
  8
1
  6
Continuous
100
AcDbLine
 10
324.9842328356582
 20
332.8665079394921
 30
0.0
 11
323.6842328356581
 21
331.7756784189616
 31
0.0
  0
ARC
  5
11D5
330
18
100
AcDbEntity
  8
1
  6
Continuous
100
AcDbCircle
 10
316.2842328356582
 20
332.8665079394928
 30
0.0
 40
12.0
100
AcDbArc
 50
344.506032499479
 51
15.49396750052098
  0
LINE
  5
11D6
330
18
100
AcDbEntity
  8
1
  6
Continuous
100
AcDbLine
 10
324.9842328356582
 20
328.3665079394928
 30
0.0
 11
326.4457313037946
 21
328.4943724872154
 31
0.0
  0
LINE
  5
11D7
330
18
100
AcDbEntity
  8
1
  6
Continuous
100
AcDbLine
 10
324.9842328356582
 20
328.2665079394929
 30
0.0
 11
323.6842328356583
 21
328.2665079394929
 31
0.0
  0
ARC
  5
11D8
330
18
100
AcDbEntity
  8
1
  6
Continuous
100
AcDbCircle
 10
326.3062821153496
 20
330.0882840041684
 30
0.0
 40
1.6
100
AcDbArc
 50
274.9999999999997
 51
344.506032499479
  0
LINE
  5
11D9
330
18
100
AcDbEntity
  8
1
  6
Continuous
100
AcDbLine
 10
324.9842328356582
 20
337.4665079394929
 30
0.0
 11
324.9842328356582
 21
328.2665079394929
 31
0.0
  0
LINE
  5
11DA
330
18
100
AcDbEntity
  8
1
  6
Continuous
100
AcDbLine
 10
323.6842328356583
 20
337.4665079394929
 30
0.0
 11
323.6842328356583
 21
328.2665079394929
 31
0.0
  0
LINE
  5
11DB
330
18
100
AcDbEntity
  8
1
  6
Continuous
100
AcDbLine
 10
342.48501974392
 20
338.8665079394939
 30
0.0
 11
342.48501974392
 21
326.8665079394941
 31
0.0
  0
LINE
  5
11DC
330
18
100
AcDbEntity
  8
1
  6
Continuous
100
AcDbLine
 10
343.2850197439198
 20
338.8665079394939
 30
0.0
 11
343.2850197439198
 21
326.8665079394941
 31
0.0
  0
LINE
  5
11DD
330
18
100
AcDbEntity
  8
1
  6
Continuous
100
AcDbLine
 10
343.2850197439198
 20
326.8665079394939
 30
0.0
 11
342.48501974392
 21
326.8665079394939
 31
0.0
  0
LINE
  5
11DE
330
18
100
AcDbEntity
  8
1
  6
Continuous
100
AcDbLine
 10
344.5850197439201
 20
337.3665079394942
 30
0.0
 11
346.0465182120153
 21
337.2386433917753
 31
0.0
  0
LINE
  5
11DF
330
18
100
AcDbEntity
  8
4
  6
CENTER
100
AcDbLine
 10
349.4804835719853
 20
332.8665079394939
 30
0.0
 11
340.1366531019442
 21
332.8665079394939
 31
0.0
  0
LINE
  5
11E0
330
18
100
AcDbEntity
  8
1
  6
Continuous
100
AcDbLine
 10
344.5850197439201
 20
328.366507939494
 30
0.0
 11
346.0465182120565
 21
328.4943724872165
 31
0.0
  0
LINE
  5
11E1
330
18
100
AcDbEntity
  8
1
  6
Continuous
100
AcDbLine
 10
343.2850197439198
 20
338.8665079394939
 30
0.0
 11
342.48501974392
 21
338.8665079394939
 31
0.0
  0
LINE
  5
11E2
330
18
100
AcDbEntity
  8
1
  6
Continuous
100
AcDbLine
 10
344.5850197439201
 20
333.9573374600245
 30
0.0
 11
343.2850197439198
 21
332.8665079394939
 31
0.0
  0
LINE
  5
11E3
330
18
100
AcDbEntity
  8
1
  6
Continuous
100
AcDbLine
 10
344.5850197439201
 20
337.466507939494
 30
0.0
 11
343.2850197439198
 21
337.466507939494
 31
0.0
  0
LINE
  5
11E4
330
18
100
AcDbEntity
  8
1
  6
Continuous
100
AcDbLine
 10
344.5850197439201
 20
332.8665079394939
 30
0.0
 11
343.2850197439198
 21
331.7756784189634
 31
0.0
  0
LINE
  5
11E5
330
18
100
AcDbEntity
  8
1
  6
Continuous
100
AcDbLine
 10
344.5850197439201
 20
328.2665079394939
 30
0.0
 11
343.2850197439198
 21
328.2665079394939
 31
0.0
  0
LINE
  5
11E6
330
18
100
AcDbEntity
  8
1
  6
Continuous
100
AcDbLine
 10
344.5850197439201
 20
337.466507939494
 30
0.0
 11
344.5850197439201
 21
328.2665079394939
 31
0.0
  0
ARC
  5
11E7
330
18
100
AcDbEntity
  8
1
  6
Continuous
100
AcDbCircle
 10
345.9070690235942
 20
335.6447318748144
 30
0.0
 40
1.6
100
AcDbArc
 50
15.49396750052098
 51
85.00000000000019
  0
ARC
  5
11E8
330
18
100
AcDbEntity
  8
1
  6
Continuous
100
AcDbCircle
 10
335.8850197439201
 20
332.8665079394939
 30
0.0
 40
12.0
100
AcDbArc
 50
344.506032499479
 51
15.49396750052098
  0
ARC
  5
11E9
330
18
100
AcDbEntity
  8
1
  6
Continuous
100
AcDbCircle
 10
345.9070690236115
 20
330.0882840041696
 30
0.0
 40
1.6
100
AcDbArc
 50
274.9999999999997
 51
344.506032499479
  0
ARC
  5
11EA
330
18
100
AcDbEntity
  8
1
  6
Continuous
100
AcDbCircle
 10
320.1842328356722
 20
348.6665079394906
 30
0.0
 40
2.299999999999998
100
AcDbArc
 50
179.9999999999495
 51
270.0000000000195
  0
ARC
  5
11EB
330
18
100
AcDbEntity
  8
1
  6
Continuous
100
AcDbCircle
 10
321.3842328356702
 20
346.366507939491
 30
0.0
 40
2.299999999999998
100
AcDbArc
 50
359.9999999999495
 51
90.00000000001952
  0
LINE
  5
11EC
330
18
100
AcDbEntity
  8
1
  6
Continuous
100
AcDbLine
 10
317.8842328356768
 20
353.8665079395138
 30
0.0
 11
320.1842328356783
 21
353.8665079395149
 31
0.0
  0
LINE
  5
11ED
330
18
100
AcDbEntity
  8
1
  6
Continuous
100
AcDbLine
 10
317.8842328356768
 20
353.8665079395138
 30
0.0
 11
317.884232835672
 21
348.6665079394928
 31
0.0
  0
LINE
  5
11EE
330
18
100
AcDbEntity
  8
1
  6
Continuous
100
AcDbLine
 10
320.1842328356767
 20
353.8665079395149
 30
0.0
 11
320.1842328356722
 21
348.6665079394906
 31
0.0
  0
LINE
  5
11EF
330
18
100
AcDbEntity
  8
1
  6
Continuous
100
AcDbLine
 10
320.1842328356722
 20
348.6665079394906
 30
0.0
 11
321.3842328356693
 21
348.666507939491
 31
0.0
  0
LINE
  5
11F0
330
18
100
AcDbEntity
  8
1
  6
Continuous
100
AcDbLine
 10
320.1842328356726
 20
346.3665079394906
 30
0.0
 11
321.3842328356702
 21
346.366507939491
 31
0.0
  0
LINE
  5
2A12
330
18
100
AcDbEntity
  8
4
  6
CENTER
100
AcDbLine
 10
277.8780680416393
 20
184.1380430002558
 30
0.0
 11
286.6840981387549
 21
184.1380430002607
 31
0.0
  0
LINE
  5
2A13
330
18
100
AcDbEntity
  8
4
  6
CENTER
100
AcDbLine
 10
277.8780680416644
 20
212.1380430002552
 30
0.0
 11
286.6840981387549
 21
212.13804300026
 31
0.0
  0
ARC
  5
3839
330
18
100
AcDbEntity
  8
1
  6
Continuous
100
AcDbCircle
 10
581.7275412224528
 20
237.6380430002389
 30
0.0
 40
9.4
100
AcDbArc
 50
67.00660568570215
 51
77.13492800414511
  0
LINE
  5
383A
330
18
100
AcDbEntity
  8
1
  6
Continuous
100
AcDbLine
 10
583.7275412224438
 20
161.4380430002472
 30
0.0
 11
586.1275412224825
 21
161.4380430002459
 31
0.0
  0
ARC
  5
383B
330
18
100
AcDbEntity
  8
1
  6
Continuous
100
AcDbCircle
 10
585.2275412224477
 20
164.1380430002389
 30
0.0
 40
2.0
100
AcDbArc
 50
270.0
 51
0.000000000000007
  0
LINE
  5
383D
330
18
100
AcDbEntity
  8
5
  6
PHANTOM
100
AcDbLine
 10
583.7275412224492
 20
240.416217593315
 30
0.0
 11
634.588976936205
 21
189.5547818795592
 31
0.0
  0
LINE
  5
383E
330
18
100
AcDbEntity
  8
1
  6
Continuous
100
AcDbLine
 10
584.1275412224307
 20
127.4380430002471
 30
0.0
 11
587.6275412224322
 21
127.4380430002452
 31
0.0
  0
ARC
  5
3844
330
18
100
AcDbEntity
  8
1
  6
Continuous
100
AcDbCircle
 10
584.2275412224526
 20
243.529562328901
 30
0.0
 40
3.0
100
AcDbArc
 50
0.000000000000007
 51
67.00660568570215
  0
LINE
  5
3845
330
18
100
AcDbEntity
  8
5
  6
PHANTOM
100
AcDbLine
 10
622.4746761909999
 20
189.292519704885
 30
0.0
 11
621.1173995959342
 21
187.2965247121414
 31
0.0
  0
ARC
  5
3846
330
18
100
AcDbEntity
  8
5
  6
PHANTOM
100
AcDbCircle
 10
633.1747633738317
 20
188.1405683171861
 30
0.0
 40
2.0
100
AcDbArc
 50
315.0
 51
45.0
  0
LINE
  5
3847
330
18
100
AcDbEntity
  8
1
  6
Continuous
100
AcDbLine
 10
587.2275412224524
 20
243.5295623289008
 30
0.0
 11
587.2275412224476
 21
164.1380430002387
 31
0.0
  0
LINE
  5
3848
330
18
100
AcDbEntity
  8
1
  6
Continuous
100
AcDbLine
 10
587.1275412224431
 20
135.4970374478193
 30
0.0
 11
587.1275412224822
 21
160.4380430002444
 31
0.0
  0
LINE
  5
3849
330
18
100
AcDbEntity
  8
1
  6
Continuous
100
AcDbLine
 10
587.1275412224433
 20
135.4970374478192
 30
0.0
 11
589.1275412224331
 21
128.9380430002451
 31
0.0
  0
ARC
  5
384A
330
18
100
AcDbEntity
  8
1
  6
Continuous
100
AcDbCircle
 10
587.6275412224329
 20
128.9380430002452
 30
0.0
 40
1.5
100
AcDbArc
 50
270.0
 51
0.000000000000007
  0
LINE
  5
384B
330
18
100
AcDbEntity
  8
5
  6
PHANTOM
100
AcDbLine
 10
625.0339132515599
 20
178.4026284528639
 30
0.0
 11
632.1141032020599
 21
184.2514810206682
 31
0.0
  0
LINE
  5
384C
330
18
100
AcDbEntity
  8
5
  6
PHANTOM
100
AcDbLine
 10
632.1141032020599
 20
184.251481020668
 30
0.0
 11
634.588976936205
 21
186.726354754813
 31
0.0
  0
ARC
  5
384D
330
18
100
AcDbEntity
  8
5
  6
PHANTOM
100
AcDbCircle
 10
624.0785910810659
 20
179.5590710803046
 30
0.0
 40
1.5
100
AcDbArc
 50
225.0
 51
309.5596679689957
  0
LINE
  5
384E
330
18
100
AcDbEntity
  8
5
  6
PHANTOM
100
AcDbLine
 10
621.8363179212324
 20
179.6800238965783
 30
0.0
 11
623.0179309092858
 21
178.4984109085248
 31
0.0
  0
ARC
  5
384F
330
18
100
AcDbEntity
  8
5
  6
PHANTOM
100
AcDbCircle
 10
626.0789586083517
 20
183.9226645836977
 30
0.0
 40
6.0
100
AcDbArc
 50
145.7842978675649
 51
225.0
  0
ARC
  5
3850
330
18
100
AcDbEntity
  8
1
  6
Continuous
100
AcDbCircle
 10
586.1275412224822
 20
160.438043000246
 30
0.0
 40
1.0
100
AcDbArc
 50
0.000000000000007
 51
90.0
  0
LINE
  5
3851
330
18
100
AcDbEntity
  8
5
  6
PHANTOM
100
AcDbLine
 10
588.1275412223512
 20
228.2380430003608
 30
0.0
 11
621.9953973074602
 21
194.3701869152521
 31
0.0
  0
ARC
  5
3852
330
18
100
AcDbEntity
  8
5
  6
PHANTOM
100
AcDbCircle
 10
619.166970182722
 20
191.541759790514
 30
0.0
 40
4.0
100
AcDbArc
 50
325.7842978675649
 51
45.0
  0
LINE
  5
3853
330
18
100
AcDbEntity
  8
5
  6
PHANTOM
100
AcDbLine
 10
587.2275412224524
 20
228.2380430003578
 30
0.0
 11
588.1275412223517
 21
228.2380430003606
 31
0.0
  0
ARC
  5
3854
330
18
100
AcDbEntity
  8
1
  6
Continuous
100
AcDbCircle
 10
531.3470909920343
 20
186.9162669355799
 30
0.0
 40
1.6
100
AcDbArc
 50
94.99999999999982
 51
164.506032499479
  0
LINE
  5
3855
330
18
100
AcDbEntity
  8
1
  6
Continuous
100
AcDbLine
 10
532.6691402717086
 20
188.7380430002595
 30
0.0
 11
532.6691402717086
 21
179.5380430002595
 31
0.0
  0
LINE
  5
3856
330
18
100
AcDbEntity
  8
1
  6
Continuous
100
AcDbLine
 10
575.2275412224491
 20
233.1380430002595
 30
0.0
 11
575.2275412224442
 21
175.6380430002741
 31
0.0
  0
LINE
  5
3857
330
18
100
AcDbEntity
  8
1
  6
Continuous
100
AcDbLine
 10
539.7691402716705
 20
226.6380430003659
 30
0.0
 11
539.7691402717155
 21
176.6380430003504
 31
0.0
  0
LINE
  5
3858
330
18
100
AcDbEntity
  8
1
  6
Continuous
100
AcDbLine
 10
537.4691402716702
 20
226.6380430003669
 30
0.0
 11
537.4691402717153
 21
176.6380430003514
 31
0.0
  0
LINE
  5
3859
330
18
100
AcDbEntity
  8
1
  6
Continuous
100
AcDbLine
 10
533.9691402716701
 20
226.6380430003684
 30
0.0
 11
533.9691402717153
 21
176.638043000353
 31
0.0
  0
LINE
  5
385D
330
18
100
AcDbEntity
  8
1
  6
Continuous
100
AcDbLine
 10
580.727541222449
 20
261.4380430002595
 30
0.0
 11
580.7275412224441
 21
123.4380430002741
 31
0.0
  0
LINE
  5
385E
330
18
100
AcDbEntity
  8
1
  6
Continuous
100
AcDbLine
 10
578.7275412224492
 20
261.4380430002595
 30
0.0
 11
578.7275412224442
 21
123.4380430002741
 31
0.0
  0
LINE
  5
385F
330
18
100
AcDbEntity
  8
1
  6
Continuous
100
AcDbLine
 10
583.727541222449
 20
257.4380430002512
 30
0.0
 11
583.7275412224442
 21
127.4380430002814
 31
0.0
  0
LINE
  5
3860
330
18
100
AcDbEntity
  8
1
  6
Continuous
100
AcDbLine
 10
560.227541222444
 20
142.9380430003263
 30
0.0
 11
560.227541222444
 21
158.9380430003823
 31
0.0
  0
LINE
  5
3861
330
18
100
AcDbEntity
  8
1
  6
Continuous
100
AcDbLine
 10
562.7275412224442
 20
134.4380430002949
 30
0.0
 11
562.7275412224442
 21
170.4380430002949
 31
0.0
  0
LINE
  5
3862
330
18
100
AcDbEntity
  8
1
  6
Continuous
100
AcDbLine
 10
565.7275412224442
 20
171.8482724414459
 30
0.0
 11
565.7275412224442
 21
134.4380430002546
 31
0.0
  0
LINE
  5
3866
330
18
100
AcDbEntity
  8
1
  6
Continuous
100
AcDbLine
 10
583.7275412224387
 20
127.4380430002742
 30
0.0
 11
580.7275412224444
 21
123.4380430002741
 31
0.0
  0
LINE
  5
3867
330
18
100
AcDbEntity
  8
1
  6
Continuous
100
AcDbLine
 10
580.7275412224409
 20
123.43804300027
 30
0.0
 11
578.7275412224381
 21
123.4380430002672
 31
0.0
  0
LINE
  5
3868
330
18
100
AcDbEntity
  8
1
  6
Continuous
100
AcDbLine
 10
562.7275412224438
 20
134.4380430002549
 30
0.0
 11
578.7275412225397
 21
134.4380430002525
 31
0.0
  0
LINE
  5
3869
330
18
100
AcDbEntity
  8
1
  6
Continuous
100
AcDbLine
 10
584.1275412224303
 20
127.4380430002471
 30
0.0
 11
584.1275412224522
 21
141.4380430002451
 31
0.0
  0
ARC
  5
386A
330
18
100
AcDbEntity
  8
1
  6
Continuous
100
AcDbCircle
 10
584.1275412224381
 20
132.238043000247
 30
0.0
 40
0.2
100
AcDbArc
 50
90.0
 51
180.0
  0
ARC
  5
386B
330
18
100
AcDbEntity
  8
1
  6
Continuous
100
AcDbCircle
 10
584.1275412224307
 20
127.6380430002471
 30
0.0
 40
0.2
100
AcDbArc
 50
180.0
 51
270.0
  0
LINE
  5
386C
330
18
100
AcDbEntity
  8
1
  6
Continuous
100
AcDbLine
 10
583.9275412224306
 20
127.6380430002474
 30
0.0
 11
583.9275412224379
 21
132.2380430002474
 31
0.0
  0
ARC
  5
386D
330
18
100
AcDbEntity
  8
1
  6
Continuous
100
AcDbCircle
 10
582.1275412224523
 20
141.4380430002482
 30
0.0
 40
2.0
100
AcDbArc
 50
0.000000000000007
 51
36.86989764624006
  0
ARC
  5
386E
330
18
100
AcDbEntity
  8
1
  6
Continuous
100
AcDbCircle
 10
561.2275412224438
 20
142.9380430003263
 30
0.0
 40
1.0
100
AcDbArc
 50
180.0
 51
270.0
  0
LINE
  5
386F
330
18
100
AcDbEntity
  8
1
  6
Continuous
100
AcDbLine
 10
562.7275412224438
 20
141.938043000327
 30
0.0
 11
561.2275412224438
 21
141.938043000327
 31
0.0
  0
LINE
  5
3872
330
18
100
AcDbEntity
  8
1
  6
Continuous
100
AcDbLine
 10
583.7275412224442
 20
162.1380430002388
 30
0.0
 11
585.2275412224477
 21
162.1380430002388
 31
0.0
  0
ARC
  5
3873
330
18
100
AcDbEntity
  8
1
  6
Continuous
100
AcDbCircle
 10
561.2275412224438
 20
158.9380430003823
 30
0.0
 40
1.0
100
AcDbArc
 50
90.0
 51
180.0
  0
LINE
  5
3874
330
18
100
AcDbEntity
  8
1
  6
Continuous
100
AcDbLine
 10
561.2275412224438
 20
159.9380430003823
 30
0.0
 11
562.7275412224462
 21
159.9380430003809
 31
0.0
  0
LINE
  5
3875
330
18
100
AcDbEntity
  8
1
  6
Continuous
100
AcDbLine
 10
575.2275412224438
 20
175.6380430002743
 30
0.0
 11
567.2763244311989
 21
173.7967085854596
 31
0.0
  0
LINE
  5
3876
330
18
100
AcDbEntity
  8
1
  6
Continuous
100
AcDbLine
 10
575.2275412224442
 20
175.638043000274
 30
0.0
 11
577.2275412224269
 21
173.6380430002787
 31
0.0
  0
LINE
  5
3877
330
18
100
AcDbEntity
  8
4
  6
CENTER
100
AcDbLine
 10
579.7753050656706
 20
184.1380430002558
 30
0.0
 11
570.9692749685549
 21
184.1380430002607
 31
0.0
  0
ARC
  5
3878
330
18
100
AcDbEntity
  8
1
  6
Continuous
100
AcDbCircle
 10
567.7275412224441
 20
171.8482724414459
 30
0.0
 40
2.0
100
AcDbArc
 50
103.0386565830251
 51
180.0
  0
LINE
  5
3879
330
18
100
AcDbEntity
  8
1
  6
Continuous
100
AcDbLine
 10
565.7275412224444
 20
168.4380430003249
 30
0.0
 11
564.7275412224444
 21
170.4380430002946
 31
0.0
  0
LINE
  5
387A
330
18
100
AcDbEntity
  8
1
  6
Continuous
100
AcDbLine
 10
562.7275412224491
 20
167.2380430002549
 30
0.0
 11
565.7275412224438
 21
167.2380430002545
 31
0.0
  0
LINE
  5
387B
330
18
100
AcDbEntity
  8
1
  6
Continuous
100
AcDbLine
 10
564.7275412224441
 20
170.4380430002949
 30
0.0
 11
562.7275412224442
 21
170.4380430002949
 31
0.0
  0
LINE
  5
387C
330
18
100
AcDbEntity
  8
4
  6
CENTER
100
AcDbLine
 10
542.5284186013791
 20
184.1380430002558
 30
0.0
 11
526.5595297526227
 21
184.1380430002607
 31
0.0
  0
LINE
  5
387D
330
18
100
AcDbEntity
  8
1
  6
Continuous
100
AcDbLine
 10
539.7691402717148
 20
176.6380430003504
 30
0.0
 11
533.9691402717096
 21
176.638043000353
 31
0.0
  0
LINE
  5
387E
330
18
100
AcDbEntity
  8
1
  6
Continuous
100
AcDbLine
 10
532.6691402717083
 20
179.6380430002596
 30
0.0
 11
531.2076418035721
 21
179.765907547982
 31
0.0
  0
LINE
  5
387F
330
18
100
AcDbEntity
  8
1
  6
Continuous
100
AcDbLine
 10
532.6691402717083
 20
184.1380430002526
 30
0.0
 11
533.9691402717085
 21
185.2288725207831
 31
0.0
  0
LINE
  5
3880
330
18
100
AcDbEntity
  8
1
  6
Continuous
100
AcDbLine
 10
532.6691402717083
 20
183.0472134797227
 30
0.0
 11
533.9691402717085
 21
184.1380430002532
 31
0.0
  0
LINE
  5
3881
330
18
100
AcDbEntity
  8
1
  6
Continuous
100
AcDbLine
 10
532.6691402717086
 20
179.5380430002595
 30
0.0
 11
533.9691402717085
 21
179.5380430002595
 31
0.0
  0
ARC
  5
3882
330
18
100
AcDbEntity
  8
1
  6
Continuous
100
AcDbCircle
 10
531.3470909920173
 20
181.3598190649352
 30
0.0
 40
1.6
100
AcDbArc
 50
195.493967500521
 51
265.0000000000002
  0
ARC
  5
3883
330
18
100
AcDbEntity
  8
1
  6
Continuous
100
AcDbCircle
 10
541.3691402717086
 20
184.1380430002596
 30
0.0
 40
12.0
100
AcDbArc
 50
164.506032499479
 51
195.493967500521
  0
LINE
  5
3885
330
18
100
AcDbEntity
  8
1
  6
Continuous
100
AcDbLine
 10
570.7275412224491
 20
224.2380430002603
 30
0.0
 11
570.7275412224491
 21
251.0380430002588
 31
0.0
  0
LINE
  5
3886
330
18
100
AcDbEntity
  8
5
  6
PHANTOM
100
AcDbLine
 10
556.4275412224492
 20
224.7380430002564
 30
0.0
 11
556.4275412224492
 21
250.6243786007497
 31
0.0
  0
LINE
  5
3887
330
18
100
AcDbEntity
  8
1
  6
Continuous
100
AcDbLine
 10
558.9275412224492
 20
224.7380430002567
 30
0.0
 11
558.9275412224492
 21
250.538043000261
 31
0.0
  0
LINE
  5
3888
330
18
100
AcDbEntity
  8
1
  6
Continuous
100
AcDbLine
 10
570.7275412224492
 20
224.2380430002603
 30
0.0
 11
559.4275412224495
 21
224.2380430002564
 31
0.0
  0
LINE
  5
3889
330
18
100
AcDbEntity
  8
4
  6
CENTER
100
AcDbLine
 10
579.7753050656456
 20
212.1380430002552
 30
0.0
 11
570.9692749685549
 21
212.13804300026
 31
0.0
  0
ARC
  5
388A
330
18
100
AcDbEntity
  8
1
  6
Continuous
100
AcDbCircle
 10
571.727541222449
 20
226.1380430002595
 30
0.0
 40
1.0
100
AcDbArc
 50
180.0
 51
270.0
  0
LINE
  5
388B
330
18
100
AcDbEntity
  8
1
  6
Continuous
100
AcDbLine
 10
571.727541222449
 20
225.1380430002596
 30
0.0
 11
575.2275412224491
 21
225.1380430002596
 31
0.0
  0
ARC
  5
388C
330
18
100
AcDbEntity
  8
1
  6
Continuous
100
AcDbCircle
 10
559.4275412224492
 20
224.7380430002567
 30
0.0
 40
0.5
100
AcDbArc
 50
180.0
 51
270.0
  0
ARC
  5
388D
330
18
100
AcDbEntity
  8
5
  6
PHANTOM
100
AcDbCircle
 10
556.9275412224492
 20
224.7380430002564
 30
0.0
 40
0.5
100
AcDbArc
 50
180.0
 51
270.0
  0
ARC
  5
388E
330
18
100
AcDbEntity
  8
1
  6
Continuous
100
AcDbCircle
 10
541.3691402716835
 20
212.138043000259
 30
0.0
 40
12.0
100
AcDbArc
 50
164.506032499479
 51
195.493967500521
  0
LINE
  5
388F
330
18
100
AcDbEntity
  8
1
  6
Continuous
100
AcDbLine
 10
532.6691402716835
 20
216.738043000259
 30
0.0
 11
532.6691402716835
 21
207.5380430002589
 31
0.0
  0
LINE
  5
3890
330
18
100
AcDbEntity
  8
1
  6
Continuous
100
AcDbLine
 10
532.6691402717083
 20
188.6380430002596
 30
0.0
 11
531.2076418036131
 21
188.5101784525408
 31
0.0
  0
LINE
  5
3891
330
18
100
AcDbEntity
  8
1
  6
Continuous
100
AcDbLine
 10
532.6691402717086
 20
188.7380430002595
 30
0.0
 11
533.9691402717085
 21
188.7380430002595
 31
0.0
  0
LINE
  5
3892
330
18
100
AcDbEntity
  8
1
  6
Continuous
100
AcDbLine
 10
532.6691402716833
 20
207.638043000259
 30
0.0
 11
531.2076418035472
 21
207.7659075479814
 31
0.0
  0
LINE
  5
3893
330
18
100
AcDbEntity
  8
1
  6
Continuous
100
AcDbLine
 10
532.6691402716835
 20
207.5380430002589
 30
0.0
 11
533.9691402716835
 21
207.5380430002589
 31
0.0
  0
ARC
  5
3894
330
18
100
AcDbEntity
  8
1
  6
Continuous
100
AcDbCircle
 10
531.3470909919922
 20
209.3598190649346
 30
0.0
 40
1.6
100
AcDbArc
 50
195.493967500521
 51
265.0000000000002
  0
LINE
  5
3895
330
18
100
AcDbEntity
  8
1
  6
Continuous
100
AcDbLine
 10
539.7691402716721
 20
226.6380430003659
 30
0.0
 11
533.9691402716864
 21
226.6380430003684
 31
0.0
  0
LINE
  5
3896
330
18
100
AcDbEntity
  8
4
  6
CENTER
100
AcDbLine
 10
542.5284186013541
 20
212.1380430002552
 30
0.0
 11
526.5595297525979
 21
212.13804300026
 31
0.0
  0
LINE
  5
3897
330
18
100
AcDbEntity
  8
1
  6
Continuous
100
AcDbLine
 10
532.6691402716833
 20
216.638043000259
 30
0.0
 11
531.2076418035879
 21
216.5101784525402
 31
0.0
  0
LINE
  5
3898
330
18
100
AcDbEntity
  8
1
  6
Continuous
100
AcDbLine
 10
532.6691402716833
 20
211.047213479722
 30
0.0
 11
533.9691402716835
 21
212.1380430002525
 31
0.0
  0
LINE
  5
3899
330
18
100
AcDbEntity
  8
1
  6
Continuous
100
AcDbLine
 10
532.6691402716833
 20
212.1380430002519
 30
0.0
 11
533.9691402716835
 21
213.2288725207824
 31
0.0
  0
LINE
  5
389A
330
18
100
AcDbEntity
  8
1
  6
Continuous
100
AcDbLine
 10
532.6691402716835
 20
216.738043000259
 30
0.0
 11
533.9691402716835
 21
216.738043000259
 31
0.0
  0
ARC
  5
389B
330
18
100
AcDbEntity
  8
1
  6
Continuous
100
AcDbCircle
 10
531.3470909920091
 20
214.9162669355793
 30
0.0
 40
1.6
100
AcDbArc
 50
94.99999999999982
 51
164.506032499479
  0
ARC
  5
389C
330
18
100
AcDbEntity
  8
5
  6
PHANTOM
100
AcDbCircle
 10
554.9275412224492
 20
239.1380430001834
 30
0.0
 40
0.5
100
AcDbArc
 50
90.0
 51
180.0
  0
ARC
  5
389D
330
18
100
AcDbEntity
  8
5
  6
PHANTOM
100
AcDbCircle
 10
554.9275412224492
 20
236.1380430001834
 30
0.0
 40
0.5
100
AcDbArc
 50
180.0
 51
270.0
  0
LINE
  5
389E
330
18
100
AcDbEntity
  8
4
  6
CENTER
100
AcDbLine
 10
575.1117491378773
 20
237.6380430002594
 30
0.0
 11
553.4925552995692
 21
237.6380430002595
 31
0.0
  0
LINE
  5
389F
330
18
100
AcDbEntity
  8
1
  6
Continuous
100
AcDbLine
 10
570.7275412224492
 20
251.0380430002588
 30
0.0
 11
559.4275412224492
 21
251.038043000261
 31
0.0
  0
LINE
  5
38A0
330
18
100
AcDbEntity
  8
1
  6
Continuous
100
AcDbLine
 10
576.727541222449
 20
249.4380430002382
 30
0.0
 11
576.727541222449
 21
237.6380430002595
 31
0.0
  0
ARC
  5
38A1
330
18
100
AcDbEntity
  8
1
  6
Continuous
100
AcDbCircle
 10
577.7275412224493
 20
249.4380430002382
 30
0.0
 40
1.0
100
AcDbArc
 50
90.0
 51
180.0
  0
LINE
  5
38A2
330
18
100
AcDbEntity
  8
1
  6
Continuous
100
AcDbLine
 10
571.7275412224493
 20
250.4380430002391
 30
0.0
 11
578.7275412225449
 21
250.4380430002381
 31
0.0
  0
LINE
  5
38A3
330
18
100
AcDbEntity
  8
1
  6
Continuous
100
AcDbLine
 10
583.7275412224492
 20
246.7091108121005
 30
0.0
 11
583.8205062283082
 21
246.8020758179595
 31
0.0
  0
ARC
  5
38A4
330
18
100
AcDbEntity
  8
1
  6
Continuous
100
AcDbCircle
 10
571.727541222449
 20
249.4380430002391
 30
0.0
 40
1.0
100
AcDbArc
 50
90.0
 51
180.0
  0
LINE
  5
38A5
330
18
100
AcDbEntity
  8
1
  6
Continuous
100
AcDbLine
 10
556.9275412224492
 20
233.6380430005634
 30
0.0
 11
556.9275412224492
 21
241.6380430005636
 31
0.0
  0
LINE
  5
38A6
330
18
100
AcDbEntity
  8
1
  6
Continuous
100
AcDbLine
 10
558.9275412224479
 20
239.638043000184
 30
0.0
 11
557.4275412224492
 21
239.6380430001834
 31
0.0
  0
ARC
  5
38A7
330
18
100
AcDbEntity
  8
1
  6
Continuous
100
AcDbCircle
 10
557.4275412224492
 20
239.1380430001834
 30
0.0
 40
0.5
100
AcDbArc
 50
90.0
 51
180.0
  0
LINE
  5
38A8
330
18
100
AcDbEntity
  8
1
  6
Continuous
100
AcDbLine
 10
558.9275412224492
 20
235.638043000184
 30
0.0
 11
557.4275412224493
 21
235.6380430001834
 31
0.0
  0
ARC
  5
38A9
330
18
100
AcDbEntity
  8
1
  6
Continuous
100
AcDbCircle
 10
557.4275412224492
 20
236.1380430001834
 30
0.0
 40
0.5
100
AcDbArc
 50
180.0
 51
270.0
  0
LINE
  5
38AA
330
18
100
AcDbEntity
  8
5
  6
PHANTOM
100
AcDbLine
 10
556.4275412224478
 20
239.638043000184
 30
0.0
 11
554.9275412224492
 21
239.6380430001835
 31
0.0
  0
LINE
  5
38AB
330
18
100
AcDbEntity
  8
5
  6
PHANTOM
100
AcDbLine
 10
556.4275412224492
 20
235.638043000184
 30
0.0
 11
554.9275412224495
 21
235.6380430001835
 31
0.0
  0
LINE
  5
38AC
330
18
100
AcDbEntity
  8
1
  6
Continuous
100
AcDbLine
 10
556.9275412224492
 20
233.7938628726626
 30
0.0
 11
558.9275412228346
 21
233.7938628726629
 31
0.0
  0
LINE
  5
38AD
330
18
100
AcDbEntity
  8
1
  6
Continuous
100
AcDbLine
 10
556.9275412224492
 20
233.6380430005633
 30
0.0
 11
558.9275412224492
 21
233.6380430005633
 31
0.0
  0
ARC
  5
38AE
330
18
100
AcDbEntity
  8
1
  6
Continuous
100
AcDbCircle
 10
559.4275412224492
 20
250.538043000261
 30
0.0
 40
0.5
100
AcDbArc
 50
90.0
 51
180.0
  0
ARC
  5
38AF
330
18
100
AcDbEntity
  8
5
  6
PHANTOM
100
AcDbCircle
 10
556.9275412224492
 20
250.6243786007497
 30
0.0
 40
0.5
100
AcDbArc
 50
90.0
 51
180.0
  0
LINE
  5
38B0
330
18
100
AcDbEntity
  8
1
  6
Continuous
100
AcDbLine
 10
556.9275412224492
 20
241.4822231278557
 30
0.0
 11
558.9275412228346
 21
241.4822231278554
 31
0.0
  0
LINE
  5
38B1
330
18
100
AcDbEntity
  8
1
  6
Continuous
100
AcDbLine
 10
556.9275412224492
 20
241.6380430005637
 30
0.0
 11
558.9275412224492
 21
241.6380430005637
 31
0.0
  0
LINE
  5
38B2
330
18
100
AcDbEntity
  8
1
  6
Continuous
100
AcDbLine
 10
580.727541222449
 20
261.4380430002595
 30
0.0
 11
583.7275412224427
 21
257.4380430002595
 31
0.0
  0
LINE
  5
38B3
330
18
100
AcDbEntity
  8
1
  6
Continuous
100
AcDbLine
 10
580.7275412224457
 20
261.438043000264
 30
0.0
 11
578.7275412224576
 21
261.4380430002672
 31
0.0
  0
LINE
  5
38B4
330
18
100
AcDbEntity
  8
5
  6
PHANTOM
100
AcDbLine
 10
554.4275412224492
 20
236.1380430001834
 30
0.0
 11
554.4275412224492
 21
239.1380430001834
 31
0.0
  0
LINE
  5
38B5
330
18
100
AcDbEntity
  8
4
  6
CENTER
100
AcDbLine
 10
518.7502043370137
 20
237.6380430006548
 30
0.0
 11
506.9587428443083
 21
237.6380430006597
 31
0.0
  0
ARC
  5
38B6
330
18
100
AcDbEntity
  8
1
  6
Continuous
100
AcDbCircle
 10
511.7463040837158
 20
240.416266935979
 30
0.0
 40
1.6
100
AcDbArc
 50
94.99999999999982
 51
164.5060324994774
  0
LINE
  5
38B7
330
18
100
AcDbEntity
  8
1
  6
Continuous
100
AcDbLine
 10
514.36835336339
 20
243.6380430006586
 30
0.0
 11
514.36835336339
 21
231.6380430006587
 31
0.0
  0
LINE
  5
38B8
330
18
100
AcDbEntity
  8
1
  6
Continuous
100
AcDbLine
 10
513.06835336339
 20
242.2380430006586
 30
0.0
 11
513.06835336339
 21
233.0380430006586
 31
0.0
  0
LINE
  5
38B9
330
18
100
AcDbEntity
  8
1
  6
Continuous
100
AcDbLine
 10
515.1683533633899
 20
243.6380430006586
 30
0.0
 11
515.1683533633899
 21
231.6380430006587
 31
0.0
  0
LINE
  5
38BA
330
18
100
AcDbEntity
  8
1
  6
Continuous
100
AcDbLine
 10
513.068353363394
 20
237.6380430006515
 30
0.0
 11
514.3683533633941
 21
238.7288725211821
 31
0.0
  0
LINE
  5
38BB
330
18
100
AcDbEntity
  8
1
  6
Continuous
100
AcDbLine
 10
513.068353363394
 20
236.5472134801216
 30
0.0
 11
514.3683533633941
 21
237.6380430006522
 31
0.0
  0
ARC
  5
38BC
330
18
100
AcDbEntity
  8
1
  6
Continuous
100
AcDbCircle
 10
511.7463040836985
 20
234.8598190653342
 30
0.0
 40
1.6
100
AcDbArc
 50
195.4939675005226
 51
265.0000000000002
  0
LINE
  5
38BD
330
18
100
AcDbEntity
  8
1
  6
Continuous
100
AcDbLine
 10
513.06835336339
 20
233.0380430006586
 30
0.0
 11
514.36835336339
 21
233.0380430006586
 31
0.0
  0
LINE
  5
38BE
330
18
100
AcDbEntity
  8
1
  6
Continuous
100
AcDbLine
 10
514.36835336339
 20
231.6380430006586
 30
0.0
 11
515.1683533633899
 21
231.6380430006586
 31
0.0
  0
LINE
  5
38BF
330
18
100
AcDbEntity
  8
1
  6
Continuous
100
AcDbLine
 10
513.06835336339
 20
233.1380430006586
 30
0.0
 11
511.6068548952535
 21
233.2659075483811
 31
0.0
  0
ARC
  5
38C0
330
18
100
AcDbEntity
  8
1
  6
Continuous
100
AcDbCircle
 10
521.7683533633898
 20
237.6380430006586
 30
0.0
 40
12.0
100
AcDbArc
 50
164.5060324994774
 51
195.4939675005226
  0
LINE
  5
38C1
330
18
100
AcDbEntity
  8
1
  6
Continuous
100
AcDbLine
 10
513.06835336339
 20
242.2380430006586
 30
0.0
 11
514.36835336339
 21
242.2380430006586
 31
0.0
  0
LINE
  5
38C2
330
18
100
AcDbEntity
  8
1
  6
Continuous
100
AcDbLine
 10
514.36835336339
 20
243.6380430006586
 30
0.0
 11
515.1683533633899
 21
243.6380430006586
 31
0.0
  0
LINE
  5
38C3
330
18
100
AcDbEntity
  8
1
  6
Continuous
100
AcDbLine
 10
513.06835336339
 20
242.1380430006588
 30
0.0
 11
511.6068548952946
 21
242.0101784529399
 31
0.0
  0
ARC
  5
3BEF
330
18
100
AcDbEntity
  8
1
  6
Continuous
100
AcDbCircle
 10
84.02707522459941
 20
237.9220833257304
 30
0.0
 40
8.542996202187241
100
AcDbArc
 50
31.4947002639418
 51
148.5052997360574
  0
ARC
  5
3BF0
330
18
100
AcDbEntity
  8
1
  6
Continuous
100
AcDbCircle
 10
92.20141710155976
 20
234.9024399082349
 30
0.0
 40
17.17459272320124
100
AcDbArc
 50
154.1712570533898
 51
180.309669714698
  0
ARC
  5
3BF1
330
18
100
AcDbEntity
  8
1
  6
Continuous
100
AcDbCircle
 10
75.85273334764538
 20
234.9024399082333
 30
0.0
 40
17.17459272320124
100
AcDbArc
 50
359.6903302853131
 51
25.82874294662127
  0
ENDSEC
  0
SECTION
  2
OBJECTS
  0
DICTIONARY
  5
C
330
0
100
AcDbDictionary
281
     1
  3
ACAD_CIP_PREVIOUS_PRODUCT_INFO
350
3C5D
  3
ACAD_COLOR
350
3C40
  3
ACAD_DETAILVIEWSTYLE
350
3C59
  3
ACAD_GROUP
350
D
  3
ACAD_LAYOUT
350
94
  3
ACAD_MATERIAL
350
3C0E
  3
ACAD_MLEADERSTYLE
350
3C55
  3
ACAD_MLINESTYLE
350
1B
  3
ACAD_PLOTSETTINGS
350
95
  3
ACAD_PLOTSTYLENAME
350
3C0C
  3
ACAD_SCALELIST
350
3C43
  3
ACAD_SECTIONVIEWSTYLE
350
3C57
  3
ACAD_TABLESTYLE
350
3C41
  3
ACAD_VISUALSTYLE
350
3C27
  3
ACDB_RECOMPOSE_DATA
350
3C7B
  3
AcDbVariableDictionary
350
3C6E
  3
CONTENTDICTIONARY
350
3D
  3
DWGPROPS
350
3C7C
  0
DICTIONARY
  5
3C5E
330
E
100
AcDbDictionary
280
     1
281
     1
  3
ADSK_XREC_LAYER_RECONCILED
360
3C5F
  0
DICTIONARY
  5
3C60
330
4E
100
AcDbDictionary
280
     1
281
     1
  3
ADSK_XREC_LAYER_RECONCILED
360
3C61
  0
DICTIONARY
  5
3C62
330
4F
100
AcDbDictionary
280
     1
281
     1
  3
ADSK_XREC_LAYER_RECONCILED
360
3C63
  0
DICTIONARY
  5
3C64
330
50
100
AcDbDictionary
280
     1
281
     1
  3
ADSK_XREC_LAYER_RECONCILED
360
3C65
  0
DICTIONARY
  5
3C66
330
51
100
AcDbDictionary
280
     1
281
     1
  3
ADSK_XREC_LAYER_RECONCILED
360
3C67
  0
DICTIONARY
  5
3C68
330
52
100
AcDbDictionary
280
     1
281
     1
  3
ADSK_XREC_LAYER_RECONCILED
360
3C69
  0
DICTIONARY
  5
3C6A
330
53
100
AcDbDictionary
280
     1
281
     1
  3
ADSK_XREC_LAYER_RECONCILED
360
3C6B
  0
DICTIONARY
  5
3C6C
330
54
100
AcDbDictionary
280
     1
281
     1
  3
ADSK_XREC_LAYER_RECONCILED
360
3C6D
  0
DICTIONARY
  5
3C07
330
18
100
AcDbDictionary
281
     1
  3
ACAD_LAYOUTSELFREF
350
3C08
  0
DICTIONARY
  5
3C05
330
15
100
AcDbDictionary
281
     1
  3
ACAD_LAYOUTSELFREF
350
3C06
  0
XRECORD
  5
3C5D
102
{ACAD_REACTORS
330
C
102
}
330
C
100
AcDbXrecord
280
     1
300
ACDLT
300
2014
300
ACDLT_F_S
  0
DICTIONARY
  5
3C40
102
{ACAD_REACTORS
330
C
102
}
330
C
100
AcDbDictionary
281
     1
  0
DICTIONARY
  5
3C59
102
{ACAD_REACTORS
330
C
102
}
330
C
100
AcDbDictionary
281
     1
  3
Imperial24
350
3C5A
  0
DICTIONARY
  5
D
102
{ACAD_REACTORS
330
C
102
}
330
C
100
AcDbDictionary
281
     1
  0
DICTIONARY
  5
94
102
{ACAD_REACTORS
330
C
102
}
330
C
100
AcDbDictionary
281
     1
  3
Model
350
3C5B
  3
レイアウト1
350
3C5C
  0
DICTIONARY
  5
3C0E
102
{ACAD_REACTORS
330
C
102
}
330
C
100
AcDbDictionary
281
     1
  3
ByBlock
350
3C17
  3
ByLayer
350
3C0F
  3
Global
350
3C1F
  0
DICTIONARY
  5
3C55
102
{ACAD_REACTORS
330
C
102
}
330
C
100
AcDbDictionary
281
     1
  3
Standard
350
3C56
  0
DICTIONARY
  5
1B
102
{ACAD_REACTORS
330
C
102
}
330
C
100
AcDbDictionary
281
     1
  3
STANDARD
350
1C
  0
DICTIONARY
  5
95
102
{ACAD_REACTORS
330
C
102
}
330
C
100
AcDbDictionary
281
     1
  0
ACDBDICTIONARYWDFLT
  5
3C0C
102
{ACAD_REACTORS
330
C
102
}
330
C
100
AcDbDictionary
281
     1
  3
Normal
350
3C0D
100
AcDbDictionaryWithDefault
340
3C0D
  0
DICTIONARY
  5
3C43
102
{ACAD_REACTORS
330
C
102
}
330
C
100
AcDbDictionary
281
     1
  3
A0
350
3C44
  3
A1
350
3C45
  3
A2
350
3C46
  3
A3
350
3C47
  3
A4
350
3C48
  3
A5
350
3C49
  3
A6
350
3C4A
  3
A7
350
3C4B
  3
A8
350
3C4C
  3
A9
350
3C4D
  3
B0
350
3C4E
  3
B1
350
3C4F
  3
B2
350
3C50
  3
B3
350
3C51
  3
B4
350
3C52
  3
B5
350
3C53
  3
B6
350
3C54
  0
DICTIONARY
  5
3C57
102
{ACAD_REACTORS
330
C
102
}
330
C
100
AcDbDictionary
281
     1
  3
Imperial24
350
3C58
  0
DICTIONARY
  5
3C41
102
{ACAD_REACTORS
330
C
102
}
330
C
100
AcDbDictionary
281
     1
  3
Standard
350
3C42
  0
DICTIONARY
  5
3C27
102
{ACAD_REACTORS
330
C
102
}
330
C
100
AcDbDictionary
281
     1
  3
2dWireframe
350
3C2D
  3
Basic
350
3C2C
  3
Brighten
350
3C33
  3
ColorChange
350
3C37
  3
Conceptual
350
3C30
  3
Dim
350
3C32
  3
EdgeColorOff
350
3C3F
  3
Facepattern
350
3C36
  3
Flat
350
3C28
  3
FlatWithEdges
350
3C29
  3
Gouraud
350
3C2A
  3
GouraudWithEdges
350
3C2B
  3
Hidden
350
3C2F
  3
JitterOff
350
3C3D
  3
Linepattern
350
3C35
  3
OverhangOff
350
3C3E
  3
Realistic
350
3C31
  3
Shaded
350
3C3C
  3
Shaded with edges
350
3C3B
  3
Shades of Gray
350
3C38
  3
Sketchy
350
3C39
  3
Thicken
350
3C34
  3
Wireframe
350
3C2E
  3
X-Ray
350
3C3A
  0
XRECORD
  5
3C7B
102
{ACAD_REACTORS
330
C
102
}
330
C
100
AcDbXrecord
280
     1
 90
        1
330
3C42
  0
DICTIONARY
  5
3C6E
102
{ACAD_REACTORS
330
C
102
}
330
C
100
AcDbDictionary
281
     1
  3
CANNOSCALE
350
3C73
  3
CMLEADERSTYLE
350
3C70
  3
CTABLESTYLE
350
3C6F
  3
CVIEWDETAILSTYLE
350
3C71
  3
CVIEWSECTIONSTYLE
350
3C72
  3
DIMASSOC
350
3C76
  3
INDEXCTL
350
3C75
  3
SORTENTS
350
3C74
  3
XCLIPFRAME
350
3C77
  0
DICTIONARY
  5
3D
102
{ACAD_REACTORS
330
C
102
}
330
C
100
AcDbDictionary
281
     1
  0
XRECORD
  5
3C7C
102
{ACAD_REACTORS
330
C
102
}
330
C
100
AcDbXrecord
280
     1
  1
DWGPROPS COOKIE
  2

  3

  4

  6

  7

  8
Yoshitsune
  9

300
=
301
=
302
=
303
=
304
=
305
=
306
=
307
=
308
=
309
=
 40
0.0540912152777778
 41
2452955.693715093
 42
2457192.643400209
  1

 90
        0
  0
XRECORD
  5
3C5F
102
{ACAD_REACTORS
330
3C5E
102
}
330
3C5E
100
AcDbXrecord
280
     1
290
     1
  0
XRECORD
  5
3C61
102
{ACAD_REACTORS
330
3C60
102
}
330
3C60
100
AcDbXrecord
280
     1
290
     1
  0
XRECORD
  5
3C63
102
{ACAD_REACTORS
330
3C62
102
}
330
3C62
100
AcDbXrecord
280
     1
290
     1
  0
XRECORD
  5
3C65
102
{ACAD_REACTORS
330
3C64
102
}
330
3C64
100
AcDbXrecord
280
     1
290
     1
  0
XRECORD
  5
3C67
102
{ACAD_REACTORS
330
3C66
102
}
330
3C66
100
AcDbXrecord
280
     1
290
     1
  0
XRECORD
  5
3C69
102
{ACAD_REACTORS
330
3C68
102
}
330
3C68
100
AcDbXrecord
280
     1
290
     1
  0
XRECORD
  5
3C6B
102
{ACAD_REACTORS
330
3C6A
102
}
330
3C6A
100
AcDbXrecord
280
     1
290
     1
  0
XRECORD
  5
3C6D
102
{ACAD_REACTORS
330
3C6C
102
}
330
3C6C
100
AcDbXrecord
280
     1
290
     1
  0
XRECORD
  5
3C08
102
{ACAD_REACTORS
330
3C07
102
}
330
3C07
100
AcDbXrecord
280
     1
340
18
  0
XRECORD
  5
3C06
102
{ACAD_REACTORS
330
3C05
102
}
330
3C05
100
AcDbXrecord
280
     1
340
15
  0
ACDBDETAILVIEWSTYLE
  5
3C5A
102
{ACAD_XDICTIONARY
360
3CB4
102
}
102
{ACAD_REACTORS
330
3C59
102
}
330
3C59
100
AcDbModelDocViewStyle
 70
     0
  3
Imperial24
290
     0
100
AcDbDetailViewStyle
 70
     0
 71
     0
 90
        3
 71
     1
340
F
 40
0.24
340
0
 40
0.24
300

 40
0.36
280
     3
 71
     2
340
14
 90
       25
 71
     3
340
F
 40
0.24
 90
        1
 40
0.75
 90
        1
300
%<\AcVar ViewType \f "%tc1">% %<\AcVar ViewDetailId>%\PSCALE %<\AcVar ViewScale \f "%sn">%
 71
     4
340
14
 90
       25
340
14
 90
       25
280
     0
  0
LAYOUT
  5
3C5B
102
{ACAD_XDICTIONARY
360
3CB6
102
}
102
{ACAD_REACTORS
330
94
102
}
330
94
100
AcDbPlotSettings
  1

  2
Canon LBP9100C
  4

  6

 40
0.0
 41
0.0
 42
0.0
 43
0.0
 44
0.0
 45
0.0
 46
0.0
 47
0.0
 48
0.0
 49
0.0
140
0.0
141
0.0
142
1.0
143
1.0
 70
  1712
 72
     0
 73
     0
 74
     0
  7

 75
     0
147
1.0
148
0.0
149
0.0
100
AcDbLayout
  1
Model
 70
     1
 71
     0
 10
0.0
 20
0.0
 11
12.0
 21
9.0
 12
0.0
 22
0.0
 32
0.0
 14
0.0
 24
0.0
 34
0.0
 15
0.0
 25
0.0
 35
0.0
146
0.0
 13
0.0
 23
0.0
 33
0.0
 16
1.0
 26
0.0
 36
0.0
 17
0.0
 27
1.0
 37
0.0
 76
     0
330
18
331
3C04
  0
LAYOUT
  5
3C5C
102
{ACAD_XDICTIONARY
360
3CB8
102
}
102
{ACAD_REACTORS
330
94
102
}
330
94
100
AcDbPlotSettings
  1

  2
Canon LBP9100C
  4

  6

 40
0.0
 41
0.0
 42
0.0
 43
0.0
 44
0.0
 45
0.0
 46
0.0
 47
0.0
 48
0.0
 49
0.0
140
0.0
141
0.0
142
1.0
143
1.0
 70
   688
 72
     0
 73
     0
 74
     5
  7

 75
    16
147
1.0
148
0.0
149
0.0
100
AcDbLayout
  1
レイアウト1
 70
     1
 71
     1
 10
0.0
 20
0.0
 11
420.0
 21
297.0
 12
0.0
 22
0.0
 32
0.0
 14
1.000000000000000E+20
 24
1.000000000000000E+20
 34
1.000000000000000E+20
 15
-1.000000000000000E+20
 25
-1.000000000000000E+20
 35
-1.000000000000000E+20
146
0.0
 13
0.0
 23
0.0
 33
0.0
 16
1.0
 26
0.0
 36
0.0
 17
0.0
 27
1.0
 37
0.0
 76
     0
330
15
  0
MATERIAL
  5
3C17
102
{ACAD_XDICTIONARY
360
3C18
102
}
102
{ACAD_REACTORS
330
3C0E
102
}
330
3C0E
100
AcDbMaterial
  1
ByBlock
 72
     0
 43
0.0208333333333333
 43
0.0
 43
0.0
 43
0.0
 43
0.0
 43
0.0208333333333333
 43
0.0
 43
0.0
 43
0.0
 43
0.0
 43
1.0
 43
0.0
 43
0.0
 43
0.0
 43
0.0
 43
1.0
 77
     0
 47
0.0208333333333333
 47
0.0
 47
0.0
 47
0.0
 47
0.0
 47
0.0208333333333333
 47
0.0
 47
0.0
 47
0.0
 47
0.0
 47
1.0
 47
0.0
 47
0.0
 47
0.0
 47
0.0
 47
1.0
171
     0
 49
0.0208333333333333
 49
0.0
 49
0.0
 49
0.0
 49
0.0
 49
0.0208333333333333
 49
0.0
 49
0.0
 49
0.0
 49
0.0
 49
1.0
 49
0.0
 49
0.0
 49
0.0
 49
0.0
 49
1.0
175
     0
142
0.0208333333333333
142
0.0
142
0.0
142
0.0
142
0.0
142
0.0208333333333333
142
0.0
142
0.0
142
0.0
142
0.0
142
1.0
142
0.0
142
0.0
142
0.0
142
0.0
142
1.0
179
     0
144
0.0208333333333333
144
0.0
144
0.0
144
0.0
144
0.0
144
0.0208333333333333
144
0.0
144
0.0
144
0.0
144
0.0
144
1.0
144
0.0
144
0.0
144
0.0
144
0.0
144
1.0
147
0.0208333333333333
147
0.0
147
0.0
147
0.0
147
0.0
147
0.0208333333333333
147
0.0
147
0.0
147
0.0
147
0.0
147
1.0
147
0.0
147
0.0
147
0.0
147
0.0
147
1.0
  0
MATERIAL
  5
3C0F
102
{ACAD_XDICTIONARY
360
3C10
102
}
102
{ACAD_REACTORS
330
3C0E
102
}
330
3C0E
100
AcDbMaterial
  1
ByLayer
 72
     0
 43
0.0208333333333333
 43
0.0
 43
0.0
 43
0.0
 43
0.0
 43
0.0208333333333333
 43
0.0
 43
0.0
 43
0.0
 43
0.0
 43
1.0
 43
0.0
 43
0.0
 43
0.0
 43
0.0
 43
1.0
 77
     0
 47
0.0208333333333333
 47
0.0
 47
0.0
 47
0.0
 47
0.0
 47
0.0208333333333333
 47
0.0
 47
0.0
 47
0.0
 47
0.0
 47
1.0
 47
0.0
 47
0.0
 47
0.0
 47
0.0
 47
1.0
171
     0
 49
0.0208333333333333
 49
0.0
 49
0.0
 49
0.0
 49
0.0
 49
0.0208333333333333
 49
0.0
 49
0.0
 49
0.0
 49
0.0
 49
1.0
 49
0.0
 49
0.0
 49
0.0
 49
0.0
 49
1.0
175
     0
142
0.0208333333333333
142
0.0
142
0.0
142
0.0
142
0.0
142
0.0208333333333333
142
0.0
142
0.0
142
0.0
142
0.0
142
1.0
142
0.0
142
0.0
142
0.0
142
0.0
142
1.0
179
     0
144
0.0208333333333333
144
0.0
144
0.0
144
0.0
144
0.0
144
0.0208333333333333
144
0.0
144
0.0
144
0.0
144
0.0
144
1.0
144
0.0
144
0.0
144
0.0
144
0.0
144
1.0
147
0.0208333333333333
147
0.0
147
0.0
147
0.0
147
0.0
147
0.0208333333333333
147
0.0
147
0.0
147
0.0
147
0.0
147
1.0
147
0.0
147
0.0
147
0.0
147
0.0
147
1.0
  0
MATERIAL
  5
3C1F
102
{ACAD_XDICTIONARY
360
3C20
102
}
102
{ACAD_REACTORS
330
3C0E
102
}
330
3C0E
100
AcDbMaterial
  1
Global
 72
     0
 43
0.0208333333333333
 43
0.0
 43
0.0
 43
0.0
 43
0.0
 43
0.0208333333333333
 43
0.0
 43
0.0
 43
0.0
 43
0.0
 43
1.0
 43
0.0
 43
0.0
 43
0.0
 43
0.0
 43
1.0
 77
     0
 47
0.0208333333333333
 47
0.0
 47
0.0
 47
0.0
 47
0.0
 47
0.0208333333333333
 47
0.0
 47
0.0
 47
0.0
 47
0.0
 47
1.0
 47
0.0
 47
0.0
 47
0.0
 47
0.0
 47
1.0
171
     0
 49
0.0208333333333333
 49
0.0
 49
0.0
 49
0.0
 49
0.0
 49
0.0208333333333333
 49
0.0
 49
0.0
 49
0.0
 49
0.0
 49
1.0
 49
0.0
 49
0.0
 49
0.0
 49
0.0
 49
1.0
175
     0
142
0.0208333333333333
142
0.0
142
0.0
142
0.0
142
0.0
142
0.0208333333333333
142
0.0
142
0.0
142
0.0
142
0.0
142
1.0
142
0.0
142
0.0
142
0.0
142
0.0
142
1.0
179
     0
144
0.0208333333333333
144
0.0
144
0.0
144
0.0
144
0.0
144
0.0208333333333333
144
0.0
144
0.0
144
0.0
144
0.0
144
1.0
144
0.0
144
0.0
144
0.0
144
0.0
144
1.0
147
0.0208333333333333
147
0.0
147
0.0
147
0.0
147
0.0
147
0.0208333333333333
147
0.0
147
0.0
147
0.0
147
0.0
147
1.0
147
0.0
147
0.0
147
0.0
147
0.0
147
1.0
  0
MLEADERSTYLE
  5
3C56
102
{ACAD_REACTORS
330
3C55
102
}
330
3C55
100
AcDbMLeaderStyle
170
     2
171
     1
172
     0
 90
        2
 40
0.0
 41
0.0
173
     1
 91
-1056964608
340
12
 92
       -2
290
     1
 42
0.09
291
     1
 43
0.36
  3
Standard
 44
0.18
300

342
F
174
     1
178
     6
175
     1
176
     0
 93
-1056964608
 45
0.18
292
     0
297
     0
 46
0.18
 94
-1056964608
 47
1.0
 49
1.0
140
1.0
293
     1
141
0.0
294
     1
177
     0
142
1.0
295
     0
296
     0
143
0.125
1001
ACAD_MLEADERVER
1070
     2
  0
MLINESTYLE
  5
1C
102
{ACAD_REACTORS
330
1B
102
}
330
1B
100
AcDbMlineStyle
  2
STANDARD
 70
     0
  3

 62
   256
 51
90.0
 52
90.0
 71
     2
 49
0.5
 62
   256
  6
BYLAYER
 49
-0.5
 62
   256
  6
BYLAYER
  0
ACDBPLACEHOLDER
  5
3C0D
102
{ACAD_REACTORS
330
3C0C
102
}
330
3C0C
  0
SCALE
  5
3C44
102
{ACAD_REACTORS
330
3C43
102
}
330
3C43
100
AcDbScale
 70
     0
300
1:1
140
1.0
141
1.0
290
     1
  0
SCALE
  5
3C45
102
{ACAD_REACTORS
330
3C43
102
}
330
3C43
100
AcDbScale
 70
     0
300
1/128" = 1'-0"
140
0.0078125
141
12.0
290
     0
  0
SCALE
  5
3C46
102
{ACAD_REACTORS
330
3C43
102
}
330
3C43
100
AcDbScale
 70
     0
300
1/64" = 1'-0"
140
0.015625
141
12.0
290
     0
  0
SCALE
  5
3C47
102
{ACAD_REACTORS
330
3C43
102
}
330
3C43
100
AcDbScale
 70
     0
300
1/32" = 1'-0"
140
0.03125
141
12.0
290
     0
  0
SCALE
  5
3C48
102
{ACAD_REACTORS
330
3C43
102
}
330
3C43
100
AcDbScale
 70
     0
300
1/16" = 1'-0"
140
0.0625
141
12.0
290
     0
  0
SCALE
  5
3C49
102
{ACAD_REACTORS
330
3C43
102
}
330
3C43
100
AcDbScale
 70
     0
300
3/32" = 1'-0"
140
0.09375
141
12.0
290
     0
  0
SCALE
  5
3C4A
102
{ACAD_REACTORS
330
3C43
102
}
330
3C43
100
AcDbScale
 70
     0
300
1/8" = 1'-0"
140
0.125
141
12.0
290
     0
  0
SCALE
  5
3C4B
102
{ACAD_REACTORS
330
3C43
102
}
330
3C43
100
AcDbScale
 70
     0
300
3/16" = 1'-0"
140
0.1875
141
12.0
290
     0
  0
SCALE
  5
3C4C
102
{ACAD_REACTORS
330
3C43
102
}
330
3C43
100
AcDbScale
 70
     0
300
1/4" = 1'-0"
140
0.25
141
12.0
290
     0
  0
SCALE
  5
3C4D
102
{ACAD_REACTORS
330
3C43
102
}
330
3C43
100
AcDbScale
 70
     0
300
3/8" = 1'-0"
140
0.375
141
12.0
290
     0
  0
SCALE
  5
3C4E
102
{ACAD_REACTORS
330
3C43
102
}
330
3C43
100
AcDbScale
 70
     0
300
1/2" = 1'-0"
140
0.5
141
12.0
290
     0
  0
SCALE
  5
3C4F
102
{ACAD_REACTORS
330
3C43
102
}
330
3C43
100
AcDbScale
 70
     0
300
3/4" = 1'-0"
140
0.75
141
12.0
290
     0
  0
SCALE
  5
3C50
102
{ACAD_REACTORS
330
3C43
102
}
330
3C43
100
AcDbScale
 70
     0
300
1" = 1'-0"
140
1.0
141
12.0
290
     0
  0
SCALE
  5
3C51
102
{ACAD_REACTORS
330
3C43
102
}
330
3C43
100
AcDbScale
 70
     0
300
1-1/2" = 1'-0"
140
1.5
141
12.0
290
     0
  0
SCALE
  5
3C52
102
{ACAD_REACTORS
330
3C43
102
}
330
3C43
100
AcDbScale
 70
     0
300
3" = 1'-0"
140
3.0
141
12.0
290
     0
  0
SCALE
  5
3C53
102
{ACAD_REACTORS
330
3C43
102
}
330
3C43
100
AcDbScale
 70
     0
300
6" = 1'-0"
140
6.0
141
12.0
290
     0
  0
SCALE
  5
3C54
102
{ACAD_REACTORS
330
3C43
102
}
330
3C43
100
AcDbScale
 70
     0
300
1'-0" = 1'-0"
140
12.0
141
12.0
290
     0
  0
ACDBSECTIONVIEWSTYLE
  5
3C58
102
{ACAD_XDICTIONARY
360
3CB2
102
}
102
{ACAD_REACTORS
330
3C57
102
}
330
3C57
100
AcDbModelDocViewStyle
 70
     0
  3
Imperial24
290
     0
100
AcDbSectionViewStyle
 70
     0
 71
     0
 90
       78
 71
     1
340
F
 40
0.24
340
0
340
0
 40
0.24
300
I, O, Q, S, X, Z
 40
0.48
 90
        3
 40
0.18
 90
        1
 71
     2
340
14
 90
       25
340
14
 90
       50
 40
0.24
 40
0.0
 40
0.24
 71
     3
340
F
 40
0.24
 90
        1
 40
0.75
 90
        1
300
%<\AcVar ViewType \f "%tc1">% %<\AcVar ViewSectionStartId>%-%<\AcVar ViewSectionEndId>%\PSCALE %<\AcVar ViewScale \f "%sn">%
 71
     4
300
ANSI31
 40
1.0
 90
        0
290
     0
290
     0
 90
        6
 40
0.0
 40
1.570796326794896
 40
0.2617993877991494
 40
1.308996938995747
 40
-0.2617993877991494
 40
1.832595714594046
  0
TABLESTYLE
  5
3C42
102
{ACAD_XDICTIONARY
360
3C79
102
}
102
{ACAD_REACTORS
330
3C41
102
}
330
3C41
100
AcDbTableStyle
  3
Standard
 70
     0
 71
     0
 40
0.06
 41
0.06
280
     0
281
     0
  7
STANDARD
140
0.18
170
     2
 62
     0
 63
     7
283
     0
274
    -2
284
     1
 64
     0
275
    -2
285
     1
 65
     0
276
    -2
286
     1
 66
     0
277
    -2
287
     1
 67
     0
278
    -2
288
     1
 68
     0
279
    -2
289
     1
 69
     0
  7
STANDARD
140
0.25
170
     5
 62
     0
 63
     7
283
     0
274
    -2
284
     1
 64
     0
275
    -2
285
     1
 65
     0
276
    -2
286
     1
 66
     0
277
    -2
287
     1
 67
     0
278
    -2
288
     1
 68
     0
279
    -2
289
     1
 69
     0
  7
STANDARD
140
0.18
170
     5
 62
     0
 63
     7
283
     0
274
    -2
284
     1
 64
     0
275
    -2
285
     1
 65
     0
276
    -2
286
     1
 66
     0
277
    -2
287
     1
 67
     0
278
    -2
288
     1
 68
     0
279
    -2
289
     1
 69
     0
  0
VISUALSTYLE
  5
3C2D
102
{ACAD_XDICTIONARY
360
3C8A
102
}
102
{ACAD_REACTORS
330
3C27
102
}
330
3C27
100
AcDbVisualStyle
  2
2dWireframe
 70
     4
 71
     0
 72
     2
 73
     0
 90
        0
 40
-0.6
 41
-30.0
 62
     5
 63
     7
 74
     1
 91
        4
 64
     7
 65
   257
 75
     1
175
     1
 42
1.0
 92
        0
 66
   257
 43
1.0
 76
     1
 77
     6
 78
     2
 67
     7
 79
     5
170
     0
171
     0
290
     0
174
     0
 93
        1
 44
0.0
173
     0
291
     0
 45
0.0
1001
ACAD
1000
AcDbSavedByObjectVersion
1070
     0
  0
VISUALSTYLE
  5
3C2C
102
{ACAD_XDICTIONARY
360
3C88
102
}
102
{ACAD_REACTORS
330
3C27
102
}
330
3C27
100
AcDbVisualStyle
  2
Basic
 70
     7
 71
     1
 72
     0
 73
     1
 90
        0
 40
-0.6
 41
-30.0
 62
     5
 63
     7
 74
     0
 91
        4
 64
     7
 65
   257
 75
     1
175
     1
 42
1.0
 92
        8
 66
     7
 43
1.0
 76
     1
 77
     6
 78
     2
 67
     7
 79
     5
170
     0
171
     0
290
     0
174
     0
 93
        1
 44
0.0
173
     0
291
     1
 45
0.0
1001
ACAD
1000
AcDbSavedByObjectVersion
1070
     0
  0
VISUALSTYLE
  5
3C33
102
{ACAD_XDICTIONARY
360
3C96
102
}
102
{ACAD_REACTORS
330
3C27
102
}
330
3C27
100
AcDbVisualStyle
  2
Brighten
 70
    12
 71
     2
 72
     2
 73
     0
 90
        0
 40
-0.6
 41
-30.0
 62
     5
 63
     7
 74
     1
 91
        4
 64
     7
 65
   257
 75
     1
175
     1
 42
1.0
 92
        8
 66
     7
 43
1.0
 76
     1
 77
     6
 78
     2
 67
     7
 79
     5
170
     0
171
     0
290
     0
174
     0
 93
        1
 44
50.0
173
     0
291
     1
 45
0.0
1001
ACAD
1000
AcDbSavedByObjectVersion
1070
     0
  0
VISUALSTYLE
  5
3C37
102
{ACAD_XDICTIONARY
360
3C9E
102
}
102
{ACAD_REACTORS
330
3C27
102
}
330
3C27
100
AcDbVisualStyle
  2
ColorChange
 70
    16
 71
     2
 72
     2
 73
     3
 90
        0
 40
-0.6
 41
-30.0
 62
     5
 63
     8
 74
     1
 91
        4
 64
     7
 65
   257
 75
     1
175
     1
 42
1.0
 92
        8
 66
     8
 43
1.0
 76
     1
 77
     6
 78
     2
 67
     7
 79
     5
170
     0
171
     0
290
     0
174
     0
 93
        1
 44
0.0
173
     0
291
     1
 45
0.0
1001
ACAD
1000
AcDbSavedByObjectVersion
1070
     0
  0
VISUALSTYLE
  5
3C30
102
{ACAD_XDICTIONARY
360
3C90
102
}
102
{ACAD_REACTORS
330
3C27
102
}
330
3C27
100
AcDbVisualStyle
  2
Conceptual
 70
     9
 71
     3
 72
     2
 73
     0
 90
        0
 40
-0.6
 41
-30.0
 62
     5
 63
     7
 74
     2
 91
        2
 64
     7
 65
   257
 75
     1
175
     1
 42
179.0
 92
        8
 66
     7
 43
1.0
 76
     1
 77
     6
 78
     2
 67
     7
 79
     3
170
     0
171
     0
290
     0
174
     0
 93
        1
 44
0.0
173
     0
291
     0
 45
0.0
1001
ACAD
1000
AcDbSavedByObjectVersion
1070
     0
  0
VISUALSTYLE
  5
3C32
102
{ACAD_XDICTIONARY
360
3C94
102
}
102
{ACAD_REACTORS
330
3C27
102
}
330
3C27
100
AcDbVisualStyle
  2
Dim
 70
    11
 71
     2
 72
     2
 73
     0
 90
        0
 40
-0.6
 41
-30.0
 62
     5
 63
     7
 74
     1
 91
        4
 64
     7
 65
   257
 75
     1
175
     1
 42
1.0
 92
        8
 66
     7
 43
1.0
 76
     1
 77
     6
 78
     2
 67
     7
 79
     5
170
     0
171
     0
290
     0
174
     0
 93
        1
 44
-50.0
173
     0
291
     1
 45
0.0
1001
ACAD
1000
AcDbSavedByObjectVersion
1070
     0
  0
VISUALSTYLE
  5
3C3F
102
{ACAD_XDICTIONARY
360
3CAE
102
}
102
{ACAD_REACTORS
330
3C27
102
}
330
3C27
100
AcDbVisualStyle
  2
EdgeColorOff
 70
    22
 71
     2
 72
     2
 73
     0
 90
        0
 40
-0.6
 41
-30.0
 62
     5
 63
     7
 74
     1
 91
        4
 64
     7
 65
   257
 75
     1
175
     1
 42
1.0
 92
        8
 66
     7
 43
1.0
 76
     1
 77
     6
 78
     2
 67
     7
 79
     5
170
     0
171
     0
290
     0
174
     0
 93
        1
 44
0.0
173
     0
291
     1
 45
0.0
1001
ACAD
1000
AcDbSavedByObjectVersion
1070
     0
  0
VISUALSTYLE
  5
3C36
102
{ACAD_XDICTIONARY
360
3C9C
102
}
102
{ACAD_REACTORS
330
3C27
102
}
330
3C27
100
AcDbVisualStyle
  2
Facepattern
 70
    15
 71
     2
 72
     2
 73
     0
 90
        0
 40
-0.6
 41
-30.0
 62
     5
 63
     7
 74
     1
 91
        4
 64
     7
 65
   257
 75
     1
175
     1
 42
1.0
 92
        8
 66
     7
 43
1.0
 76
     1
 77
     6
 78
     2
 67
     7
 79
     5
170
     0
171
     0
290
     0
174
     0
 93
        1
 44
0.0
173
     0
291
     1
 45
0.0
1001
ACAD
1000
AcDbSavedByObjectVersion
1070
     0
  0
VISUALSTYLE
  5
3C28
102
{ACAD_XDICTIONARY
360
3C80
102
}
102
{ACAD_REACTORS
330
3C27
102
}
330
3C27
100
AcDbVisualStyle
  2
Flat
 70
     0
 71
     2
 72
     1
 73
     1
 90
        2
 40
-0.6
 41
30.0
 62
     5
 63
     7
 74
     0
 91
        0
 64
     7
 65
   257
 75
     1
175
     1
 42
1.0
 92
        8
 66
     7
 43
1.0
 76
     1
 77
     6
 78
     2
 67
     7
 79
     5
170
     0
171
     0
290
     0
174
     0
 93
       13
 44
0.0
173
     0
291
     1
 45
0.0
1001
ACAD
1000
AcDbSavedByObjectVersion
1070
     0
  0
VISUALSTYLE
  5
3C29
102
{ACAD_XDICTIONARY
360
3C82
102
}
102
{ACAD_REACTORS
330
3C27
102
}
330
3C27
100
AcDbVisualStyle
  2
FlatWithEdges
 70
     1
 71
     2
 72
     1
 73
     1
 90
        2
 40
-0.6
 41
30.0
 62
     5
 63
     7
 74
     1
 91
        0
 64
     7
 65
   257
 75
     1
175
     1
 42
1.0
 92
        0
 66
   257
 43
1.0
 76
     1
 77
     6
 78
     2
 67
     7
 79
     5
170
     0
171
     0
290
     0
174
     0
 93
       13
 44
0.0
173
     0
291
     1
 45
0.0
1001
ACAD
1000
AcDbSavedByObjectVersion
1070
     0
  0
VISUALSTYLE
  5
3C2A
102
{ACAD_XDICTIONARY
360
3C84
102
}
102
{ACAD_REACTORS
330
3C27
102
}
330
3C27
100
AcDbVisualStyle
  2
Gouraud
 70
     2
 71
     2
 72
     2
 73
     1
 90
        2
 40
-0.6
 41
30.0
 62
     5
 63
     7
 74
     0
 91
        0
 64
     7
 65
   257
 75
     1
175
     1
 42
1.0
 92
        0
 66
     7
 43
1.0
 76
     1
 77
     6
 78
     2
 67
     7
 79
     5
170
     0
171
     0
290
     0
174
     0
 93
       13
 44
0.0
173
     0
291
     1
 45
0.0
1001
ACAD
1000
AcDbSavedByObjectVersion
1070
     0
  0
VISUALSTYLE
  5
3C2B
102
{ACAD_XDICTIONARY
360
3C86
102
}
102
{ACAD_REACTORS
330
3C27
102
}
330
3C27
100
AcDbVisualStyle
  2
GouraudWithEdges
 70
     3
 71
     2
 72
     2
 73
     1
 90
        2
 40
-0.6
 41
30.0
 62
     5
 63
     7
 74
     1
 91
        0
 64
     7
 65
   257
 75
     1
175
     1
 42
1.0
 92
        0
 66
   257
 43
1.0
 76
     1
 77
     6
 78
     2
 67
     7
 79
     5
170
     0
171
     0
290
     0
174
     0
 93
       13
 44
0.0
173
     0
291
     1
 45
0.0
1001
ACAD
1000
AcDbSavedByObjectVersion
1070
     0
  0
VISUALSTYLE
  5
3C2F
102
{ACAD_XDICTIONARY
360
3C8E
102
}
102
{ACAD_REACTORS
330
3C27
102
}
330
3C27
100
AcDbVisualStyle
  2
Hidden
 70
     6
 71
     1
 72
     2
 73
     2
 90
        0
 40
-0.6
 41
-30.0
 62
     5
 63
     7
 74
     2
 91
        2
 64
     7
 65
   257
 75
     2
175
     1
 42
40.0
 92
        0
 66
   257
 43
1.0
 76
     1
 77
     6
 78
     2
 67
     7
 79
     3
170
     0
171
     0
290
     0
174
     0
 93
        1
 44
0.0
173
     0
291
     0
 45
0.0
1001
ACAD
1000
AcDbSavedByObjectVersion
1070
     0
  0
VISUALSTYLE
  5
3C3D
102
{ACAD_XDICTIONARY
360
3CAA
102
}
102
{ACAD_REACTORS
330
3C27
102
}
330
3C27
100
AcDbVisualStyle
  2
JitterOff
 70
    20
 71
     2
 72
     2
 73
     0
 90
        0
 40
-0.6
 41
-30.0
 62
     5
 63
     7
 74
     1
 91
        4
 64
     7
 65
   257
 75
     1
175
     1
 42
1.0
 92
       10
 66
     7
 43
1.0
 76
     1
 77
     6
 78
     2
 67
     7
 79
     5
170
     0
171
     0
290
     0
174
     0
 93
        1
 44
0.0
173
     0
291
     1
 45
0.0
1001
ACAD
1000
AcDbSavedByObjectVersion
1070
     0
  0
VISUALSTYLE
  5
3C35
102
{ACAD_XDICTIONARY
360
3C9A
102
}
102
{ACAD_REACTORS
330
3C27
102
}
330
3C27
100
AcDbVisualStyle
  2
Linepattern
 70
    14
 71
     2
 72
     2
 73
     0
 90
        0
 40
-0.6
 41
-30.0
 62
     5
 63
     7
 74
     1
 91
        4
 64
     7
 65
   257
 75
     7
175
     7
 42
1.0
 92
        8
 66
     7
 43
1.0
 76
     1
 77
     6
 78
     2
 67
     7
 79
     5
170
     0
171
     0
290
     0
174
     0
 93
        1
 44
0.0
173
     0
291
     1
 45
0.0
1001
ACAD
1000
AcDbSavedByObjectVersion
1070
     0
  0
VISUALSTYLE
  5
3C3E
102
{ACAD_XDICTIONARY
360
3CAC
102
}
102
{ACAD_REACTORS
330
3C27
102
}
330
3C27
100
AcDbVisualStyle
  2
OverhangOff
 70
    21
 71
     2
 72
     2
 73
     0
 90
        0
 40
-0.6
 41
-30.0
 62
     5
 63
     7
 74
     1
 91
        4
 64
     7
 65
   257
 75
     1
175
     1
 42
1.0
 92
        9
 66
     7
 43
1.0
 76
     1
 77
     6
 78
     2
 67
     7
 79
     5
170
     0
171
     0
290
     0
174
     0
 93
        1
 44
0.0
173
     0
291
     1
 45
0.0
1001
ACAD
1000
AcDbSavedByObjectVersion
1070
     0
  0
VISUALSTYLE
  5
3C31
102
{ACAD_XDICTIONARY
360
3C92
102
}
102
{ACAD_REACTORS
330
3C27
102
}
330
3C27
100
AcDbVisualStyle
  2
Realistic
 70
     8
 71
     2
 72
     3
 73
     0
 90
        2
 40
-0.6
 41
30.0
 62
     5
 63
     7
 74
     0
 91
        0
 64
     7
 65
   257
 75
     1
175
     1
 42
1.0
 92
        8
 66
   257
 43
1.0
 76
     1
 77
     6
 78
     2
 67
     7
 79
     3
170
     0
171
     0
290
     0
174
     0
 93
       13
 44
0.0
173
     0
291
     0
 45
0.0
1001
ACAD
1000
AcDbSavedByObjectVersion
1070
     0
  0
VISUALSTYLE
  5
3C3C
102
{ACAD_XDICTIONARY
360
3CA8
102
}
102
{ACAD_REACTORS
330
3C27
102
}
330
3C27
100
AcDbVisualStyle
  2
Shaded
 70
    27
 71
     2
 72
     2
 73
     1
 90
        2
 40
-0.6
 41
30.0
 62
     5
 63
     7
 74
     0
 91
        4
 64
     7
 65
   257
 75
     1
175
     1
 42
1.0
 92
        8
 66
   257
 43
1.0
 76
     1
 77
     6
 78
     2
 67
     8
 79
     3
170
     0
171
     0
290
     0
174
     0
 93
        5
 44
0.0
173
     0
291
     0
 45
0.0
1001
ACAD
1000
AcDbSavedByObjectVersion
1070
     0
  0
VISUALSTYLE
  5
3C3B
102
{ACAD_XDICTIONARY
360
3CA6
102
}
102
{ACAD_REACTORS
330
3C27
102
}
330
3C27
100
AcDbVisualStyle
  2
Shaded with edges
 70
    26
 71
     2
 72
     2
 73
     1
 90
        2
 40
-0.6
 41
30.0
 62
     5
 63
     7
 74
     1
 91
       10
 64
     7
 65
   257
 75
     2
175
     1
 42
1.0
 92
        8
 66
   257
 43
1.0
 76
     1
 77
     6
 78
     2
 67
     7
 79
     3
170
     0
171
     0
290
     0
174
     0
 93
        5
 44
0.0
173
     0
291
     0
 45
0.0
1001
ACAD
1000
AcDbSavedByObjectVersion
1070
     0
  0
VISUALSTYLE
  5
3C38
102
{ACAD_XDICTIONARY
360
3CA0
102
}
102
{ACAD_REACTORS
330
3C27
102
}
330
3C27
100
AcDbVisualStyle
  2
Shades of Gray
 70
    23
 71
     2
 72
     2
 73
     3
 90
        0
 40
-0.6
 41
-30.0
 62
     5
 63
     7
 74
     2
 91
        2
 64
     7
 65
     7
 75
     1
175
     1
 42
40.0
 92
        8
 66
     7
 43
1.0
 76
     1
 77
     6
 78
     2
 67
     7
 79
     3
170
     0
171
     0
290
     0
174
     0
 93
        1
 44
0.0
173
     0
291
     0
 45
0.0
1001
ACAD
1000
AcDbSavedByObjectVersion
1070
     0
  0
VISUALSTYLE
  5
3C39
102
{ACAD_XDICTIONARY
360
3CA2
102
}
102
{ACAD_REACTORS
330
3C27
102
}
330
3C27
100
AcDbVisualStyle
  2
Sketchy
 70
    24
 71
     1
 72
     2
 73
     2
 90
        0
 40
-0.6
 41
-30.0
 62
     5
 63
     7
 74
     2
 91
        2
 64
     7
 65
     7
 75
     1
175
     1
 42
40.0
 92
       11
 66
     7
 43
1.0
 76
     1
 77
     6
 78
     2
 67
     7
 79
     6
170
     0
171
     0
290
     0
174
     0
 93
        1
 44
0.0
173
     0
291
     0
 45
0.0
1001
ACAD
1000
AcDbSavedByObjectVersion
1070
     0
  0
VISUALSTYLE
  5
3C34
102
{ACAD_XDICTIONARY
360
3C98
102
}
102
{ACAD_REACTORS
330
3C27
102
}
330
3C27
100
AcDbVisualStyle
  2
Thicken
 70
    13
 71
     2
 72
     2
 73
     0
 90
        0
 40
-0.6
 41
-30.0
 62
     5
 63
     7
 74
     1
 91
        4
 64
     7
 65
   257
 75
     1
175
     1
 42
1.0
 92
       12
 66
     7
 43
1.0
 76
     1
 77
     6
 78
     2
 67
     7
 79
     5
170
     0
171
     0
290
     0
174
     0
 93
        1
 44
0.0
173
     0
291
     1
 45
0.0
1001
ACAD
1000
AcDbSavedByObjectVersion
1070
     0
  0
VISUALSTYLE
  5
3C2E
102
{ACAD_XDICTIONARY
360
3C8C
102
}
102
{ACAD_REACTORS
330
3C27
102
}
330
3C27
100
AcDbVisualStyle
  2
Wireframe
 70
     5
 71
     0
 72
     2
 73
     0
 90
        0
 40
-0.6
 41
-30.0
 62
     5
 63
     7
 74
     1
 91
        4
 64
     7
 65
   257
 75
     1
175
     1
 42
1.0
 92
        0
 66
   257
 43
1.0
 76
     1
 77
     6
 78
     2
 67
     7
 79
     3
170
     0
171
     0
290
     0
174
     0
 93
        1
 44
0.0
173
     0
291
     0
 45
0.0
1001
ACAD
1000
AcDbSavedByObjectVersion
1070
     0
  0
VISUALSTYLE
  5
3C3A
102
{ACAD_XDICTIONARY
360
3CA4
102
}
102
{ACAD_REACTORS
330
3C27
102
}
330
3C27
100
AcDbVisualStyle
  2
X-Ray
 70
    25
 71
     2
 72
     2
 73
     1
 90
        1
 40
0.5
 41
-30.0
 62
     5
 63
     7
 74
     1
 91
        0
 64
     7
 65
   257
 75
     1
175
     1
 42
1.0
 92
        8
 66
     7
 43
1.0
 76
     1
 77
     6
 78
     2
 67
     7
 79
     3
170
     0
171
     0
290
     0
174
     0
 93
       13
 44
0.0
173
     0
291
     0
 45
0.0
1001
ACAD
1000
AcDbSavedByObjectVersion
1070
     0
  0
DICTIONARYVAR
  5
3C73
102
{ACAD_REACTORS
330
3C6E
102
}
330
3C6E
100
DictionaryVariables
280
     0
  1
1:1
  0
DICTIONARYVAR
  5
3C70
102
{ACAD_REACTORS
330
3C6E
102
}
330
3C6E
100
DictionaryVariables
280
     0
  1
STANDARD
  0
DICTIONARYVAR
  5
3C6F
102
{ACAD_REACTORS
330
3C6E
102
}
330
3C6E
100
DictionaryVariables
280
     0
  1
STANDARD
  0
DICTIONARYVAR
  5
3C71
102
{ACAD_REACTORS
330
3C6E
102
}
330
3C6E
100
DictionaryVariables
280
     0
  1
Imperial24
  0
DICTIONARYVAR
  5
3C72
102
{ACAD_REACTORS
330
3C6E
102
}
330
3C6E
100
DictionaryVariables
280
     0
  1
Imperial24
  0
DICTIONARYVAR
  5
3C76
102
{ACAD_REACTORS
330
3C6E
102
}
330
3C6E
100
DictionaryVariables
280
     0
  1
1
  0
DICTIONARYVAR
  5
3C75
102
{ACAD_REACTORS
330
3C6E
102
}
330
3C6E
100
DictionaryVariables
280
     0
  1
0
  0
DICTIONARYVAR
  5
3C74
102
{ACAD_REACTORS
330
3C6E
102
}
330
3C6E
100
DictionaryVariables
280
     0
  1
127
  0
DICTIONARYVAR
  5
3C77
102
{ACAD_REACTORS
330
3C6E
102
}
330
3C6E
100
DictionaryVariables
280
     0
  1
2
  0
DICTIONARY
  5
3CB4
330
3C5A
100
AcDbDictionary
280
     1
281
     1
  3
ACAD_XREC_ROUNDTRIP
360
3CB5
  0
DICTIONARY
  5
3CB6
330
3C5B
100
AcDbDictionary
280
     1
281
     1
  3
ACAD_XREC_ROUNDTRIP
360
3CB7
  0
DICTIONARY
  5
3CB8
330
3C5C
100
AcDbDictionary
280
     1
281
     1
  3
ACAD_XREC_ROUNDTRIP
360
3CB9
  0
DICTIONARY
  5
3C18
330
3C17
100
AcDbDictionary
280
     1
281
     1
  3
ACAD_XREC_ROUNDTRIP
360
3C7E
  3
BUMPTILE
360
3C1A
  3
DIFFUSETILE
360
3C19
  3
OPACITYTILE
360
3C1D
  3
REFLECTIONTILE
360
3C1C
  3
REFRACTIONTILE
360
3C1E
  3
SPECULARTILE
360
3C1B
  0
DICTIONARY
  5
3C10
330
3C0F
100
AcDbDictionary
280
     1
281
     1
  3
ACAD_XREC_ROUNDTRIP
360
3C7D
  3
BUMPTILE
360
3C12
  3
DIFFUSETILE
360
3C11
  3
OPACITYTILE
360
3C15
  3
REFLECTIONTILE
360
3C14
  3
REFRACTIONTILE
360
3C16
  3
SPECULARTILE
360
3C13
  0
DICTIONARY
  5
3C20
330
3C1F
100
AcDbDictionary
280
     1
281
     1
  3
ACAD_XREC_ROUNDTRIP
360
3C7F
  3
BUMPTILE
360
3C22
  3
DIFFUSETILE
360
3C21
  3
OPACITYTILE
360
3C25
  3
REFLECTIONTILE
360
3C24
  3
REFRACTIONTILE
360
3C26
  3
SPECULARTILE
360
3C23
  0
DICTIONARY
  5
3CB2
330
3C58
100
AcDbDictionary
280
     1
281
     1
  3
ACAD_XREC_ROUNDTRIP
360
3CB3
  0
DICTIONARY
  5
3C79
330
3C42
100
AcDbDictionary
280
     1
281
     1
  3
ACAD_ROUNDTRIP_2008_TABLESTYLE_CELLSTYLEMAP
360
3C7A
  3
ACAD_XREC_ROUNDTRIP
360
3CB0
  0
DICTIONARY
  5
3C8A
330
3C2D
100
AcDbDictionary
280
     1
281
     1
  3
ACAD_XREC_ROUNDTRIP
360
3C8B
  0
DICTIONARY
  5
3C88
330
3C2C
100
AcDbDictionary
280
     1
281
     1
  3
ACAD_XREC_ROUNDTRIP
360
3C89
  0
DICTIONARY
  5
3C96
330
3C33
100
AcDbDictionary
280
     1
281
     1
  3
ACAD_XREC_ROUNDTRIP
360
3C97
  0
DICTIONARY
  5
3C9E
330
3C37
100
AcDbDictionary
280
     1
281
     1
  3
ACAD_XREC_ROUNDTRIP
360
3C9F
  0
DICTIONARY
  5
3C90
330
3C30
100
AcDbDictionary
280
     1
281
     1
  3
ACAD_XREC_ROUNDTRIP
360
3C91
  0
DICTIONARY
  5
3C94
330
3C32
100
AcDbDictionary
280
     1
281
     1
  3
ACAD_XREC_ROUNDTRIP
360
3C95
  0
DICTIONARY
  5
3CAE
330
3C3F
100
AcDbDictionary
280
     1
281
     1
  3
ACAD_XREC_ROUNDTRIP
360
3CAF
  0
DICTIONARY
  5
3C9C
330
3C36
100
AcDbDictionary
280
     1
281
     1
  3
ACAD_XREC_ROUNDTRIP
360
3C9D
  0
DICTIONARY
  5
3C80
330
3C28
100
AcDbDictionary
280
     1
281
     1
  3
ACAD_XREC_ROUNDTRIP
360
3C81
  0
DICTIONARY
  5
3C82
330
3C29
100
AcDbDictionary
280
     1
281
     1
  3
ACAD_XREC_ROUNDTRIP
360
3C83
  0
DICTIONARY
  5
3C84
330
3C2A
100
AcDbDictionary
280
     1
281
     1
  3
ACAD_XREC_ROUNDTRIP
360
3C85
  0
DICTIONARY
  5
3C86
330
3C2B
100
AcDbDictionary
280
     1
281
     1
  3
ACAD_XREC_ROUNDTRIP
360
3C87
  0
DICTIONARY
  5
3C8E
330
3C2F
100
AcDbDictionary
280
     1
281
     1
  3
ACAD_XREC_ROUNDTRIP
360
3C8F
  0
DICTIONARY
  5
3CAA
330
3C3D
100
AcDbDictionary
280
     1
281
     1
  3
ACAD_XREC_ROUNDTRIP
360
3CAB
  0
DICTIONARY
  5
3C9A
330
3C35
100
AcDbDictionary
280
     1
281
     1
  3
ACAD_XREC_ROUNDTRIP
360
3C9B
  0
DICTIONARY
  5
3CAC
330
3C3E
100
AcDbDictionary
280
     1
281
     1
  3
ACAD_XREC_ROUNDTRIP
360
3CAD
  0
DICTIONARY
  5
3C92
330
3C31
100
AcDbDictionary
280
     1
281
     1
  3
ACAD_XREC_ROUNDTRIP
360
3C93
  0
DICTIONARY
  5
3CA8
330
3C3C
100
AcDbDictionary
280
     1
281
     1
  3
ACAD_XREC_ROUNDTRIP
360
3CA9
  0
DICTIONARY
  5
3CA6
330
3C3B
100
AcDbDictionary
280
     1
281
     1
  3
ACAD_XREC_ROUNDTRIP
360
3CA7
  0
DICTIONARY
  5
3CA0
330
3C38
100
AcDbDictionary
280
     1
281
     1
  3
ACAD_XREC_ROUNDTRIP
360
3CA1
  0
DICTIONARY
  5
3CA2
330
3C39
100
AcDbDictionary
280
     1
281
     1
  3
ACAD_XREC_ROUNDTRIP
360
3CA3
  0
DICTIONARY
  5
3C98
330
3C34
100
AcDbDictionary
280
     1
281
     1
  3
ACAD_XREC_ROUNDTRIP
360
3C99
  0
DICTIONARY
  5
3C8C
330
3C2E
100
AcDbDictionary
280
     1
281
     1
  3
ACAD_XREC_ROUNDTRIP
360
3C8D
  0
DICTIONARY
  5
3CA4
330
3C3A
100
AcDbDictionary
280
     1
281
     1
  3
ACAD_XREC_ROUNDTRIP
360
3CA5
  0
XRECORD
  5
3CB5
102
{ACAD_REACTORS
330
3CB4
102
}
330
3CB4
100
AcDbXrecord
280
     1
102
DISPLAYNAME
  1
Imperial24
102
FLAGS
 90
        0
  0
XRECORD
  5
3CB7
102
{ACAD_REACTORS
330
3CB6
102
}
330
3CB6
100
AcDbXrecord
280
     1
102
SHADEPLOT
 70
     0
102
SHADEPLOTRESLEVEL
 70
     2
102
SHADEPLOTCUSTOMDPI
 70
   300
  0
XRECORD
  5
3CB9
102
{ACAD_REACTORS
330
3CB8
102
}
330
3CB8
100
AcDbXrecord
280
     1
102
SHADEPLOT
 70
     0
102
SHADEPLOTRESLEVEL
 70
     2
102
SHADEPLOTCUSTOMDPI
 70
   300
  0
XRECORD
  5
3C7E
102
{ACAD_REACTORS
330
3C18
102
}
330
3C18
100
AcDbXrecord
280
     1
102
MATERIAL
148
0.0
149
0.0
149
0.0
 93
        0
 94
      127
282
     0
 72
     0
 77
     0
171
     0
175
     0
179
     0
273
     0
  0
XRECORD
  5
3C1A
102
{ACAD_REACTORS
330
3C18
102
}
330
3C18
100
AcDbXrecord
280
     1
270
     1
271
     1
  0
XRECORD
  5
3C19
102
{ACAD_REACTORS
330
3C18
102
}
330
3C18
100
AcDbXrecord
280
     1
270
     1
271
     1
  0
XRECORD
  5
3C1D
102
{ACAD_REACTORS
330
3C18
102
}
330
3C18
100
AcDbXrecord
280
     1
270
     1
271
     1
  0
XRECORD
  5
3C1C
102
{ACAD_REACTORS
330
3C18
102
}
330
3C18
100
AcDbXrecord
280
     1
270
     1
271
     1
  0
XRECORD
  5
3C1E
102
{ACAD_REACTORS
330
3C18
102
}
330
3C18
100
AcDbXrecord
280
     1
270
     1
271
     1
  0
XRECORD
  5
3C1B
102
{ACAD_REACTORS
330
3C18
102
}
330
3C18
100
AcDbXrecord
280
     1
270
     1
271
     1
  0
XRECORD
  5
3C7D
102
{ACAD_REACTORS
330
3C10
102
}
330
3C10
100
AcDbXrecord
280
     1
102
MATERIAL
148
0.0
149
0.0
149
0.0
 93
        0
 94
      127
282
     0
 72
     0
 77
     0
171
     0
175
     0
179
     0
273
     0
  0
XRECORD
  5
3C12
102
{ACAD_REACTORS
330
3C10
102
}
330
3C10
100
AcDbXrecord
280
     1
270
     1
271
     1
  0
XRECORD
  5
3C11
102
{ACAD_REACTORS
330
3C10
102
}
330
3C10
100
AcDbXrecord
280
     1
270
     1
271
     1
  0
XRECORD
  5
3C15
102
{ACAD_REACTORS
330
3C10
102
}
330
3C10
100
AcDbXrecord
280
     1
270
     1
271
     1
  0
XRECORD
  5
3C14
102
{ACAD_REACTORS
330
3C10
102
}
330
3C10
100
AcDbXrecord
280
     1
270
     1
271
     1
  0
XRECORD
  5
3C16
102
{ACAD_REACTORS
330
3C10
102
}
330
3C10
100
AcDbXrecord
280
     1
270
     1
271
     1
  0
XRECORD
  5
3C13
102
{ACAD_REACTORS
330
3C10
102
}
330
3C10
100
AcDbXrecord
280
     1
270
     1
271
     1
  0
XRECORD
  5
3C7F
102
{ACAD_REACTORS
330
3C20
102
}
330
3C20
100
AcDbXrecord
280
     1
102
MATERIAL
148
0.0
149
0.0
149
0.0
 93
        0
 94
      127
282
     0
 72
     0
 77
     0
171
     0
175
     0
179
     0
273
     0
  0
XRECORD
  5
3C22
102
{ACAD_REACTORS
330
3C20
102
}
330
3C20
100
AcDbXrecord
280
     1
270
     1
271
     1
  0
XRECORD
  5
3C21
102
{ACAD_REACTORS
330
3C20
102
}
330
3C20
100
AcDbXrecord
280
     1
270
     1
271
     1
  0
XRECORD
  5
3C25
102
{ACAD_REACTORS
330
3C20
102
}
330
3C20
100
AcDbXrecord
280
     1
270
     1
271
     1
  0
XRECORD
  5
3C24
102
{ACAD_REACTORS
330
3C20
102
}
330
3C20
100
AcDbXrecord
280
     1
270
     1
271
     1
  0
XRECORD
  5
3C26
102
{ACAD_REACTORS
330
3C20
102
}
330
3C20
100
AcDbXrecord
280
     1
270
     1
271
     1
  0
XRECORD
  5
3C23
102
{ACAD_REACTORS
330
3C20
102
}
330
3C20
100
AcDbXrecord
280
     1
270
     1
271
     1
  0
XRECORD
  5
3CB3
102
{ACAD_REACTORS
330
3CB2
102
}
330
3CB2
100
AcDbXrecord
280
     1
102
DISPLAYNAME
  1
Imperial24
102
FLAGS
 90
        0
  0
CELLSTYLEMAP
  5
3C7A
102
{ACAD_REACTORS
330
3C79
102
}
330
3C79
100
AcDbCellStyleMap
 90
        3
300
CELLSTYLE
  1
TABLEFORMAT_BEGIN
 90
        5
170
     1
 91
        0
 92
    32768
 62
   257
 93
        1
300
CONTENTFORMAT
  1
CONTENTFORMAT_BEGIN
 90
        0
 91
        0
 92
      512
 93
        0
300

 40
0.0
140
1.0
 94
        5
 62
     0
340
F
144
0.25
309
CONTENTFORMAT_END
171
     0
 94
        0
309
TABLEFORMAT_END
  1
CELLSTYLE_BEGIN
 90
        1
 91
        1
300
_TITLE
309
CELLSTYLE_END
300
CELLSTYLE
  1
TABLEFORMAT_BEGIN
 90
        5
170
     1
 91
        0
 92
        0
 62
   257
 93
        1
300
CONTENTFORMAT
  1
CONTENTFORMAT_BEGIN
 90
        0
 91
        0
 92
      512
 93
        0
300

 40
0.0
140
1.0
 94
        5
 62
     0
340
F
144
0.18
309
CONTENTFORMAT_END
171
     0
 94
        0
309
TABLEFORMAT_END
  1
CELLSTYLE_BEGIN
 90
        2
 91
        1
300
_HEADER
309
CELLSTYLE_END
300
CELLSTYLE
  1
TABLEFORMAT_BEGIN
 90
        5
170
     1
 91
        0
 92
        0
 62
   257
 93
        1
300
CONTENTFORMAT
  1
CONTENTFORMAT_BEGIN
 90
        0
 91
        0
 92
      512
 93
        0
300

 40
0.0
140
1.0
 94
        2
 62
     0
340
F
144
0.18
309
CONTENTFORMAT_END
171
     0
 94
        0
309
TABLEFORMAT_END
  1
CELLSTYLE_BEGIN
 90
        3
 91
        2
300
_DATA
309
CELLSTYLE_END
  0
XRECORD
  5
3CB0
102
{ACAD_REACTORS
330
3C79
102
}
330
3C79
100
AcDbXrecord
280
     1
102
ACAD_ROUNDTRIP_PRE2007_TABLESTYLE
 90
      512
 91
        0
  1

 92
      512
 93
        0
  2

 94
      512
 95
        0
  3

  0
XRECORD
  5
3C8B
102
{ACAD_REACTORS
330
3C8A
102
}
330
3C8A
100
AcDbXrecord
280
     1
102
RTVSPost2010Prop28
280
     1
102
RTVSPost2010PropOp28
 70
     1
102
RTVSPost2010Prop29
280
     1
102
RTVSPost2010PropOp29
 70
     1
102
RTVSPost2010Prop30
280
     0
102
RTVSPost2010PropOp30
 70
     1
102
RTVSPost2010Prop31
280
     0
102
RTVSPost2010PropOp31
 70
     1
102
RTVSPost2010Prop32
280
     0
102
RTVSPost2010PropOp32
 70
     1
102
RTVSPost2010Prop33
280
     0
102
RTVSPost2010PropOp33
 70
     1
102
RTVSPost2010Prop34
280
     0
102
RTVSPost2010PropOp34
 70
     1
102
RTVSPost2010Prop35
280
     0
102
RTVSPost2010PropOp35
 70
     1
102
RTVSPost2010Prop36
280
     0
102
RTVSPost2010PropOp36
 70
     1
102
RTVSPost2010Prop37
 90
       50
102
RTVSPost2010PropOp37
 70
     1
102
RTVSPost2010Prop38
140
0.0
102
RTVSPost2010PropOp38
 70
     1
102
RTVSPost2010Prop39
140
1.0
102
RTVSPost2010PropOp39
 70
     1
102
RTVSPost2010Prop40
 90
        0
102
RTVSPost2010PropOp40
 70
     1
102
RTVSPost2010Prop41ColorIndex
 90
       18
102
RTVSPost2010Prop41ColorRGB
 90
        0
102
RTVSPost2010PropOp41
 70
     1
102
RTVSPost2010Prop42
 90
       50
102
RTVSPost2010PropOp42
 70
     1
102
RTVSPost2010Prop43
 90
        3
102
RTVSPost2010PropOp43
 70
     1
102
RTVSPost2010Prop44ColorIndex
 90
        5
102
RTVSPost2010Prop44ColorRGB
 90
      255
102
RTVSPost2010PropOp44
 70
     1
102
RTVSPost2010Prop45
280
     0
102
RTVSPost2010PropOp45
 70
     1
102
RTVSPost2010Prop46
 90
       50
102
RTVSPost2010PropOp46
 70
     1
102
RTVSPost2010Prop47
 90
       50
102
RTVSPost2010PropOp47
 70
     1
102
RTVSPost2010Prop48
 90
       50
102
RTVSPost2010PropOp48
 70
     1
102
RTVSPost2010Prop49
280
     0
102
RTVSPost2010PropOp49
 70
     1
102
RTVSPost2010Prop50
 90
       50
102
RTVSPost2010PropOp50
 70
     1
102
RTVSPost2010Prop51ColorIndex
 90
      256
102
RTVSPost2010Prop51ColorRGB
 90
-16777216
102
RTVSPost2010PropOp51
 70
     0
102
RTVSPost2010Prop52
140
1.0
102
RTVSPost2010PropOp52
 70
     0
102
RTVSPost2010Prop53
 90
        2
102
RTVSPost2010PropOp53
 70
     1
102
RTVSPost2010Prop54
  1
strokes_ogs.tif
102
RTVSPost2010PropOp54
 70
     1
102
RTVSPost2010Prop55
280
     0
102
RTVSPost2010PropOp55
 70
     1
102
RTVSPost2010Prop56
140
1.0
102
RTVSPost2010PropOp56
 70
     1
102
RTVSPost2010Prop57
140
1.0
102
RTVSPost2010PropOp57
 70
     1
102
RTVSPropertyOp0
 70
     1
102
RTVSPropertyOp1
 70
     1
102
RTVSPropertyOp2
 70
     1
102
RTVSPropertyOp3
 70
     1
102
RTVSPropertyOp4
 70
     1
102
RTVSPropertyOp5
 70
     1
102
RTVSPropertyOp6
 70
     1
102
RTVSPropertyOp7
 70
     1
102
RTVSPropertyOp8
 70
     1
102
RTVSPropertyOp9
 70
     1
102
RTVSPropertyOp10
 70
     1
102
RTVSPropertyOp11
 70
     1
102
RTVSPropertyOp12
 70
     1
102
RTVSPropertyOp13
 70
     1
102
RTVSPropertyOp14
 70
     1
102
RTVSPropertyOp15
 70
     1
102
RTVSPropertyOp16
 70
     1
102
RTVSPropertyOp17
 70
     1
102
RTVSPropertyOp18
 70
     1
102
RTVSPropertyOp19
 70
     1
102
RTVSPropertyOp20
 70
     1
102
RTVSPropertyOp21
 70
     1
102
RTVSPropertyOp22
 70
     1
102
RTVSPropertyOp23
 70
     1
102
RTVSPropertyOp24
 70
     1
102
RTVSPropertyOp25
 70
     1
102
RTVSPropertyOp26
 70
     1
102
RTVSPropertyOp27
 70
     1
102
RTVSPropertyOp28
 70
     1
102
RTVSPropertyOp29
 70
     1
102
RTVSPropertyOp30
 70
     1
102
RTVSPropertyOp31
 70
     1
102
RTVSPropertyOp32
 70
     1
102
RTVSPropertyOp33
 70
     1
102
RTVSPropertyOp34
 70
     1
102
RTVSPropertyOp35
 70
     1
102
RTVSPropertyOp36
 70
     1
102
RTVSPropertyOp37
 70
     1
102
RTVSPropertyOp38
 70
     1
102
RTVSPropertyOp39
 70
     1
102
RTVSPropertyOp40
 70
     1
102
RTVSPropertyOp41
 70
     1
102
RTVSPropertyOp42
 70
     1
102
RTVSPropertyOp43
 70
     1
102
RTVSPropertyOp44
 70
     1
102
RTVSPropertyOp45
 70
     1
102
RTVSPropertyOp46
 70
     1
102
RTVSPropertyOp47
 70
     1
102
RTVSPropertyOp48
 70
     1
102
RTVSPropertyOp49
 70
     1
102
RTVSPropertyOp50
 70
     1
102
RTVSPropertyOp51
 70
     0
102
RTVSPropertyOp52
 70
     0
102
RTVSPropertyOp53
 70
     1
102
RTVSPropertyOp54
 70
     1
102
RTVSPropertyOp55
 70
     1
102
RTVSPropertyOp56
 70
     1
102
RTVSPropertyOp57
 70
     1
102
RTVSPropertyOp58
 70
     1
102
RTVSPropertyOp59
 70
     1
102
RTVSPropertyOp60
 70
     1
102
RTVSPropertyOp61
 70
     1
102
RTVSPropertyOp62
 70
     1
  0
XRECORD
  5
3C89
102
{ACAD_REACTORS
330
3C88
102
}
330
3C88
100
AcDbXrecord
280
     1
102
RTVSPost2010Prop28
280
     0
102
RTVSPost2010PropOp28
 70
     1
102
RTVSPost2010Prop29
280
     1
102
RTVSPost2010PropOp29
 70
     1
102
RTVSPost2010Prop30
280
     1
102
RTVSPost2010PropOp30
 70
     1
102
RTVSPost2010Prop31
280
     0
102
RTVSPost2010PropOp31
 70
     1
102
RTVSPost2010Prop32
280
     0
102
RTVSPost2010PropOp32
 70
     1
102
RTVSPost2010Prop33
280
     0
102
RTVSPost2010PropOp33
 70
     1
102
RTVSPost2010Prop34
280
     0
102
RTVSPost2010PropOp34
 70
     1
102
RTVSPost2010Prop35
280
     0
102
RTVSPost2010PropOp35
 70
     1
102
RTVSPost2010Prop36
280
     0
102
RTVSPost2010PropOp36
 70
     1
102
RTVSPost2010Prop37
 90
       50
102
RTVSPost2010PropOp37
 70
     1
102
RTVSPost2010Prop38
140
0.0
102
RTVSPost2010PropOp38
 70
     1
102
RTVSPost2010Prop39
140
1.0
102
RTVSPost2010PropOp39
 70
     1
102
RTVSPost2010Prop40
 90
        0
102
RTVSPost2010PropOp40
 70
     1
102
RTVSPost2010Prop41ColorIndex
 90
       18
102
RTVSPost2010Prop41ColorRGB
 90
        0
102
RTVSPost2010PropOp41
 70
     1
102
RTVSPost2010Prop42
 90
       50
102
RTVSPost2010PropOp42
 70
     1
102
RTVSPost2010Prop43
 90
        3
102
RTVSPost2010PropOp43
 70
     1
102
RTVSPost2010Prop44ColorIndex
 90
        5
102
RTVSPost2010Prop44ColorRGB
 90
      255
102
RTVSPost2010PropOp44
 70
     1
102
RTVSPost2010Prop45
280
     0
102
RTVSPost2010PropOp45
 70
     1
102
RTVSPost2010Prop46
 90
       50
102
RTVSPost2010PropOp46
 70
     1
102
RTVSPost2010Prop47
 90
       50
102
RTVSPost2010PropOp47
 70
     1
102
RTVSPost2010Prop48
 90
       50
102
RTVSPost2010PropOp48
 70
     1
102
RTVSPost2010Prop49
280
     0
102
RTVSPost2010PropOp49
 70
     1
102
RTVSPost2010Prop50
 90
       50
102
RTVSPost2010PropOp50
 70
     1
102
RTVSPost2010Prop51ColorIndex
 90
      256
102
RTVSPost2010Prop51ColorRGB
 90
-16777216
102
RTVSPost2010PropOp51
 70
     0
102
RTVSPost2010Prop52
140
1.0
102
RTVSPost2010PropOp52
 70
     0
102
RTVSPost2010Prop53
 90
        2
102
RTVSPost2010PropOp53
 70
     1
102
RTVSPost2010Prop54
  1
strokes_ogs.tif
102
RTVSPost2010PropOp54
 70
     1
102
RTVSPost2010Prop55
280
     0
102
RTVSPost2010PropOp55
 70
     1
102
RTVSPost2010Prop56
140
1.0
102
RTVSPost2010PropOp56
 70
     1
102
RTVSPost2010Prop57
140
1.0
102
RTVSPost2010PropOp57
 70
     1
102
RTVSPropertyOp0
 70
     1
102
RTVSPropertyOp1
 70
     1
102
RTVSPropertyOp2
 70
     1
102
RTVSPropertyOp3
 70
     1
102
RTVSPropertyOp4
 70
     1
102
RTVSPropertyOp5
 70
     1
102
RTVSPropertyOp6
 70
     1
102
RTVSPropertyOp7
 70
     1
102
RTVSPropertyOp8
 70
     1
102
RTVSPropertyOp9
 70
     1
102
RTVSPropertyOp10
 70
     1
102
RTVSPropertyOp11
 70
     1
102
RTVSPropertyOp12
 70
     1
102
RTVSPropertyOp13
 70
     1
102
RTVSPropertyOp14
 70
     1
102
RTVSPropertyOp15
 70
     1
102
RTVSPropertyOp16
 70
     1
102
RTVSPropertyOp17
 70
     1
102
RTVSPropertyOp18
 70
     1
102
RTVSPropertyOp19
 70
     1
102
RTVSPropertyOp20
 70
     1
102
RTVSPropertyOp21
 70
     1
102
RTVSPropertyOp22
 70
     1
102
RTVSPropertyOp23
 70
     1
102
RTVSPropertyOp24
 70
     1
102
RTVSPropertyOp25
 70
     1
102
RTVSPropertyOp26
 70
     1
102
RTVSPropertyOp27
 70
     1
102
RTVSPropertyOp28
 70
     1
102
RTVSPropertyOp29
 70
     1
102
RTVSPropertyOp30
 70
     1
102
RTVSPropertyOp31
 70
     1
102
RTVSPropertyOp32
 70
     1
102
RTVSPropertyOp33
 70
     1
102
RTVSPropertyOp34
 70
     1
102
RTVSPropertyOp35
 70
     1
102
RTVSPropertyOp36
 70
     1
102
RTVSPropertyOp37
 70
     1
102
RTVSPropertyOp38
 70
     1
102
RTVSPropertyOp39
 70
     1
102
RTVSPropertyOp40
 70
     1
102
RTVSPropertyOp41
 70
     1
102
RTVSPropertyOp42
 70
     1
102
RTVSPropertyOp43
 70
     1
102
RTVSPropertyOp44
 70
     1
102
RTVSPropertyOp45
 70
     1
102
RTVSPropertyOp46
 70
     1
102
RTVSPropertyOp47
 70
     1
102
RTVSPropertyOp48
 70
     1
102
RTVSPropertyOp49
 70
     1
102
RTVSPropertyOp50
 70
     1
102
RTVSPropertyOp51
 70
     0
102
RTVSPropertyOp52
 70
     0
102
RTVSPropertyOp53
 70
     1
102
RTVSPropertyOp54
 70
     1
102
RTVSPropertyOp55
 70
     1
102
RTVSPropertyOp56
 70
     1
102
RTVSPropertyOp57
 70
     1
102
RTVSPropertyOp58
 70
     1
102
RTVSPropertyOp59
 70
     1
102
RTVSPropertyOp60
 70
     1
102
RTVSPropertyOp61
 70
     1
102
RTVSPropertyOp62
 70
     1
  0
XRECORD
  5
3C97
102
{ACAD_REACTORS
330
3C96
102
}
330
3C96
100
AcDbXrecord
280
     1
102
RTVSPost2010Prop28
280
     0
102
RTVSPost2010PropOp28
 70
     1
102
RTVSPost2010Prop29
280
     1
102
RTVSPost2010PropOp29
 70
     1
102
RTVSPost2010Prop30
280
     1
102
RTVSPost2010PropOp30
 70
     1
102
RTVSPost2010Prop31
280
     0
102
RTVSPost2010PropOp31
 70
     1
102
RTVSPost2010Prop32
280
     0
102
RTVSPost2010PropOp32
 70
     1
102
RTVSPost2010Prop33
280
     0
102
RTVSPost2010PropOp33
 70
     1
102
RTVSPost2010Prop34
280
     0
102
RTVSPost2010PropOp34
 70
     1
102
RTVSPost2010Prop35
280
     0
102
RTVSPost2010PropOp35
 70
     1
102
RTVSPost2010Prop36
280
     0
102
RTVSPost2010PropOp36
 70
     1
102
RTVSPost2010Prop37
 90
       50
102
RTVSPost2010PropOp37
 70
     1
102
RTVSPost2010Prop38
140
0.0
102
RTVSPost2010PropOp38
 70
     1
102
RTVSPost2010Prop39
140
1.0
102
RTVSPost2010PropOp39
 70
     1
102
RTVSPost2010Prop40
 90
        0
102
RTVSPost2010PropOp40
 70
     1
102
RTVSPost2010Prop41ColorIndex
 90
       18
102
RTVSPost2010Prop41ColorRGB
 90
        0
102
RTVSPost2010PropOp41
 70
     1
102
RTVSPost2010Prop42
 90
       50
102
RTVSPost2010PropOp42
 70
     1
102
RTVSPost2010Prop43
 90
        3
102
RTVSPost2010PropOp43
 70
     1
102
RTVSPost2010Prop44ColorIndex
 90
        5
102
RTVSPost2010Prop44ColorRGB
 90
      255
102
RTVSPost2010PropOp44
 70
     1
102
RTVSPost2010Prop45
280
     0
102
RTVSPost2010PropOp45
 70
     1
102
RTVSPost2010Prop46
 90
       50
102
RTVSPost2010PropOp46
 70
     1
102
RTVSPost2010Prop47
 90
       50
102
RTVSPost2010PropOp47
 70
     1
102
RTVSPost2010Prop48
 90
       50
102
RTVSPost2010PropOp48
 70
     1
102
RTVSPost2010Prop49
280
     0
102
RTVSPost2010PropOp49
 70
     1
102
RTVSPost2010Prop50
 90
       50
102
RTVSPost2010PropOp50
 70
     1
102
RTVSPost2010Prop51ColorIndex
 90
      256
102
RTVSPost2010Prop51ColorRGB
 90
-16777216
102
RTVSPost2010PropOp51
 70
     0
102
RTVSPost2010Prop52
140
1.0
102
RTVSPost2010PropOp52
 70
     0
102
RTVSPost2010Prop53
 90
        2
102
RTVSPost2010PropOp53
 70
     1
102
RTVSPost2010Prop54
  1
strokes_ogs.tif
102
RTVSPost2010PropOp54
 70
     1
102
RTVSPost2010Prop55
280
     0
102
RTVSPost2010PropOp55
 70
     1
102
RTVSPost2010Prop56
140
1.0
102
RTVSPost2010PropOp56
 70
     1
102
RTVSPost2010Prop57
140
1.0
102
RTVSPost2010PropOp57
 70
     1
102
RTVSPropertyOp0
 70
     1
102
RTVSPropertyOp1
 70
     1
102
RTVSPropertyOp2
 70
     1
102
RTVSPropertyOp3
 70
     1
102
RTVSPropertyOp4
 70
     1
102
RTVSPropertyOp5
 70
     1
102
RTVSPropertyOp6
 70
     1
102
RTVSPropertyOp7
 70
     1
102
RTVSPropertyOp8
 70
     1
102
RTVSPropertyOp9
 70
     1
102
RTVSPropertyOp10
 70
     1
102
RTVSPropertyOp11
 70
     1
102
RTVSPropertyOp12
 70
     1
102
RTVSPropertyOp13
 70
     1
102
RTVSPropertyOp14
 70
     1
102
RTVSPropertyOp15
 70
     1
102
RTVSPropertyOp16
 70
     1
102
RTVSPropertyOp17
 70
     1
102
RTVSPropertyOp18
 70
     1
102
RTVSPropertyOp19
 70
     1
102
RTVSPropertyOp20
 70
     1
102
RTVSPropertyOp21
 70
     1
102
RTVSPropertyOp22
 70
     1
102
RTVSPropertyOp23
 70
     1
102
RTVSPropertyOp24
 70
     1
102
RTVSPropertyOp25
 70
     1
102
RTVSPropertyOp26
 70
     1
102
RTVSPropertyOp27
 70
     1
102
RTVSPropertyOp28
 70
     1
102
RTVSPropertyOp29
 70
     1
102
RTVSPropertyOp30
 70
     1
102
RTVSPropertyOp31
 70
     1
102
RTVSPropertyOp32
 70
     1
102
RTVSPropertyOp33
 70
     1
102
RTVSPropertyOp34
 70
     1
102
RTVSPropertyOp35
 70
     1
102
RTVSPropertyOp36
 70
     1
102
RTVSPropertyOp37
 70
     1
102
RTVSPropertyOp38
 70
     1
102
RTVSPropertyOp39
 70
     1
102
RTVSPropertyOp40
 70
     1
102
RTVSPropertyOp41
 70
     1
102
RTVSPropertyOp42
 70
     1
102
RTVSPropertyOp43
 70
     1
102
RTVSPropertyOp44
 70
     1
102
RTVSPropertyOp45
 70
     1
102
RTVSPropertyOp46
 70
     1
102
RTVSPropertyOp47
 70
     1
102
RTVSPropertyOp48
 70
     1
102
RTVSPropertyOp49
 70
     1
102
RTVSPropertyOp50
 70
     1
102
RTVSPropertyOp51
 70
     0
102
RTVSPropertyOp52
 70
     0
102
RTVSPropertyOp53
 70
     1
102
RTVSPropertyOp54
 70
     1
102
RTVSPropertyOp55
 70
     1
102
RTVSPropertyOp56
 70
     1
102
RTVSPropertyOp57
 70
     1
102
RTVSPropertyOp58
 70
     1
102
RTVSPropertyOp59
 70
     1
102
RTVSPropertyOp60
 70
     1
102
RTVSPropertyOp61
 70
     1
102
RTVSPropertyOp62
 70
     1
  0
XRECORD
  5
3C9F
102
{ACAD_REACTORS
330
3C9E
102
}
330
3C9E
100
AcDbXrecord
280
     1
102
RTVSPost2010Prop28
280
     0
102
RTVSPost2010PropOp28
 70
     1
102
RTVSPost2010Prop29
280
     1
102
RTVSPost2010PropOp29
 70
     1
102
RTVSPost2010Prop30
280
     1
102
RTVSPost2010PropOp30
 70
     1
102
RTVSPost2010Prop31
280
     0
102
RTVSPost2010PropOp31
 70
     1
102
RTVSPost2010Prop32
280
     0
102
RTVSPost2010PropOp32
 70
     1
102
RTVSPost2010Prop33
280
     0
102
RTVSPost2010PropOp33
 70
     1
102
RTVSPost2010Prop34
280
     0
102
RTVSPost2010PropOp34
 70
     1
102
RTVSPost2010Prop35
280
     0
102
RTVSPost2010PropOp35
 70
     1
102
RTVSPost2010Prop36
280
     0
102
RTVSPost2010PropOp36
 70
     1
102
RTVSPost2010Prop37
 90
       50
102
RTVSPost2010PropOp37
 70
     1
102
RTVSPost2010Prop38
140
0.0
102
RTVSPost2010PropOp38
 70
     1
102
RTVSPost2010Prop39
140
1.0
102
RTVSPost2010PropOp39
 70
     1
102
RTVSPost2010Prop40
 90
        0
102
RTVSPost2010PropOp40
 70
     1
102
RTVSPost2010Prop41ColorIndex
 90
       18
102
RTVSPost2010Prop41ColorRGB
 90
        0
102
RTVSPost2010PropOp41
 70
     1
102
RTVSPost2010Prop42
 90
       50
102
RTVSPost2010PropOp42
 70
     1
102
RTVSPost2010Prop43
 90
        3
102
RTVSPost2010PropOp43
 70
     1
102
RTVSPost2010Prop44ColorIndex
 90
        5
102
RTVSPost2010Prop44ColorRGB
 90
      255
102
RTVSPost2010PropOp44
 70
     1
102
RTVSPost2010Prop45
280
     0
102
RTVSPost2010PropOp45
 70
     1
102
RTVSPost2010Prop46
 90
       50
102
RTVSPost2010PropOp46
 70
     1
102
RTVSPost2010Prop47
 90
       50
102
RTVSPost2010PropOp47
 70
     1
102
RTVSPost2010Prop48
 90
       50
102
RTVSPost2010PropOp48
 70
     1
102
RTVSPost2010Prop49
280
     0
102
RTVSPost2010PropOp49
 70
     1
102
RTVSPost2010Prop50
 90
       50
102
RTVSPost2010PropOp50
 70
     1
102
RTVSPost2010Prop51ColorIndex
 90
      256
102
RTVSPost2010Prop51ColorRGB
 90
-16777216
102
RTVSPost2010PropOp51
 70
     0
102
RTVSPost2010Prop52
140
1.0
102
RTVSPost2010PropOp52
 70
     0
102
RTVSPost2010Prop53
 90
        2
102
RTVSPost2010PropOp53
 70
     1
102
RTVSPost2010Prop54
  1
strokes_ogs.tif
102
RTVSPost2010PropOp54
 70
     1
102
RTVSPost2010Prop55
280
     0
102
RTVSPost2010PropOp55
 70
     1
102
RTVSPost2010Prop56
140
1.0
102
RTVSPost2010PropOp56
 70
     1
102
RTVSPost2010Prop57
140
1.0
102
RTVSPost2010PropOp57
 70
     1
102
RTVSPropertyOp0
 70
     1
102
RTVSPropertyOp1
 70
     1
102
RTVSPropertyOp2
 70
     1
102
RTVSPropertyOp3
 70
     1
102
RTVSPropertyOp4
 70
     1
102
RTVSPropertyOp5
 70
     1
102
RTVSPropertyOp6
 70
     1
102
RTVSPropertyOp7
 70
     1
102
RTVSPropertyOp8
 70
     1
102
RTVSPropertyOp9
 70
     1
102
RTVSPropertyOp10
 70
     1
102
RTVSPropertyOp11
 70
     1
102
RTVSPropertyOp12
 70
     1
102
RTVSPropertyOp13
 70
     1
102
RTVSPropertyOp14
 70
     1
102
RTVSPropertyOp15
 70
     1
102
RTVSPropertyOp16
 70
     1
102
RTVSPropertyOp17
 70
     1
102
RTVSPropertyOp18
 70
     1
102
RTVSPropertyOp19
 70
     1
102
RTVSPropertyOp20
 70
     1
102
RTVSPropertyOp21
 70
     1
102
RTVSPropertyOp22
 70
     1
102
RTVSPropertyOp23
 70
     1
102
RTVSPropertyOp24
 70
     1
102
RTVSPropertyOp25
 70
     1
102
RTVSPropertyOp26
 70
     1
102
RTVSPropertyOp27
 70
     1
102
RTVSPropertyOp28
 70
     1
102
RTVSPropertyOp29
 70
     1
102
RTVSPropertyOp30
 70
     1
102
RTVSPropertyOp31
 70
     1
102
RTVSPropertyOp32
 70
     1
102
RTVSPropertyOp33
 70
     1
102
RTVSPropertyOp34
 70
     1
102
RTVSPropertyOp35
 70
     1
102
RTVSPropertyOp36
 70
     1
102
RTVSPropertyOp37
 70
     1
102
RTVSPropertyOp38
 70
     1
102
RTVSPropertyOp39
 70
     1
102
RTVSPropertyOp40
 70
     1
102
RTVSPropertyOp41
 70
     1
102
RTVSPropertyOp42
 70
     1
102
RTVSPropertyOp43
 70
     1
102
RTVSPropertyOp44
 70
     1
102
RTVSPropertyOp45
 70
     1
102
RTVSPropertyOp46
 70
     1
102
RTVSPropertyOp47
 70
     1
102
RTVSPropertyOp48
 70
     1
102
RTVSPropertyOp49
 70
     1
102
RTVSPropertyOp50
 70
     1
102
RTVSPropertyOp51
 70
     0
102
RTVSPropertyOp52
 70
     0
102
RTVSPropertyOp53
 70
     1
102
RTVSPropertyOp54
 70
     1
102
RTVSPropertyOp55
 70
     1
102
RTVSPropertyOp56
 70
     1
102
RTVSPropertyOp57
 70
     1
102
RTVSPropertyOp58
 70
     1
102
RTVSPropertyOp59
 70
     1
102
RTVSPropertyOp60
 70
     1
102
RTVSPropertyOp61
 70
     1
102
RTVSPropertyOp62
 70
     1
  0
XRECORD
  5
3C91
102
{ACAD_REACTORS
330
3C90
102
}
330
3C90
100
AcDbXrecord
280
     1
102
RTVSPost2010Prop28
280
     0
102
RTVSPost2010PropOp28
 70
     1
102
RTVSPost2010Prop29
280
     1
102
RTVSPost2010PropOp29
 70
     1
102
RTVSPost2010Prop30
280
     1
102
RTVSPost2010PropOp30
 70
     1
102
RTVSPost2010Prop31
280
     0
102
RTVSPost2010PropOp31
 70
     1
102
RTVSPost2010Prop32
280
     0
102
RTVSPost2010PropOp32
 70
     1
102
RTVSPost2010Prop33
280
     0
102
RTVSPost2010PropOp33
 70
     1
102
RTVSPost2010Prop34
280
     0
102
RTVSPost2010PropOp34
 70
     1
102
RTVSPost2010Prop35
280
     0
102
RTVSPost2010PropOp35
 70
     1
102
RTVSPost2010Prop36
280
     0
102
RTVSPost2010PropOp36
 70
     1
102
RTVSPost2010Prop37
 90
       50
102
RTVSPost2010PropOp37
 70
     1
102
RTVSPost2010Prop38
140
0.0
102
RTVSPost2010PropOp38
 70
     1
102
RTVSPost2010Prop39
140
1.0
102
RTVSPost2010PropOp39
 70
     1
102
RTVSPost2010Prop40
 90
        0
102
RTVSPost2010PropOp40
 70
     1
102
RTVSPost2010Prop41ColorIndex
 90
       18
102
RTVSPost2010Prop41ColorRGB
 90
        0
102
RTVSPost2010PropOp41
 70
     1
102
RTVSPost2010Prop42
 90
       50
102
RTVSPost2010PropOp42
 70
     1
102
RTVSPost2010Prop43
 90
        3
102
RTVSPost2010PropOp43
 70
     1
102
RTVSPost2010Prop44ColorIndex
 90
        5
102
RTVSPost2010Prop44ColorRGB
 90
      255
102
RTVSPost2010PropOp44
 70
     1
102
RTVSPost2010Prop45
280
     0
102
RTVSPost2010PropOp45
 70
     1
102
RTVSPost2010Prop46
 90
       50
102
RTVSPost2010PropOp46
 70
     1
102
RTVSPost2010Prop47
 90
       50
102
RTVSPost2010PropOp47
 70
     1
102
RTVSPost2010Prop48
 90
       50
102
RTVSPost2010PropOp48
 70
     1
102
RTVSPost2010Prop49
280
     0
102
RTVSPost2010PropOp49
 70
     1
102
RTVSPost2010Prop50
 90
       50
102
RTVSPost2010PropOp50
 70
     1
102
RTVSPost2010Prop51ColorIndex
 90
      256
102
RTVSPost2010Prop51ColorRGB
 90
-16777216
102
RTVSPost2010PropOp51
 70
     0
102
RTVSPost2010Prop52
140
1.0
102
RTVSPost2010PropOp52
 70
     0
102
RTVSPost2010Prop53
 90
        2
102
RTVSPost2010PropOp53
 70
     1
102
RTVSPost2010Prop54
  1
strokes_ogs.tif
102
RTVSPost2010PropOp54
 70
     1
102
RTVSPost2010Prop55
280
     0
102
RTVSPost2010PropOp55
 70
     1
102
RTVSPost2010Prop56
140
1.0
102
RTVSPost2010PropOp56
 70
     1
102
RTVSPost2010Prop57
140
1.0
102
RTVSPost2010PropOp57
 70
     1
102
RTVSPropertyOp0
 70
     1
102
RTVSPropertyOp1
 70
     1
102
RTVSPropertyOp2
 70
     1
102
RTVSPropertyOp3
 70
     1
102
RTVSPropertyOp4
 70
     1
102
RTVSPropertyOp5
 70
     1
102
RTVSPropertyOp6
 70
     1
102
RTVSPropertyOp7
 70
     1
102
RTVSPropertyOp8
 70
     1
102
RTVSPropertyOp9
 70
     1
102
RTVSPropertyOp10
 70
     1
102
RTVSPropertyOp11
 70
     1
102
RTVSPropertyOp12
 70
     1
102
RTVSPropertyOp13
 70
     1
102
RTVSPropertyOp14
 70
     1
102
RTVSPropertyOp15
 70
     1
102
RTVSPropertyOp16
 70
     1
102
RTVSPropertyOp17
 70
     1
102
RTVSPropertyOp18
 70
     1
102
RTVSPropertyOp19
 70
     1
102
RTVSPropertyOp20
 70
     1
102
RTVSPropertyOp21
 70
     1
102
RTVSPropertyOp22
 70
     1
102
RTVSPropertyOp23
 70
     1
102
RTVSPropertyOp24
 70
     1
102
RTVSPropertyOp25
 70
     1
102
RTVSPropertyOp26
 70
     1
102
RTVSPropertyOp27
 70
     1
102
RTVSPropertyOp28
 70
     1
102
RTVSPropertyOp29
 70
     1
102
RTVSPropertyOp30
 70
     1
102
RTVSPropertyOp31
 70
     1
102
RTVSPropertyOp32
 70
     1
102
RTVSPropertyOp33
 70
     1
102
RTVSPropertyOp34
 70
     1
102
RTVSPropertyOp35
 70
     1
102
RTVSPropertyOp36
 70
     1
102
RTVSPropertyOp37
 70
     1
102
RTVSPropertyOp38
 70
     1
102
RTVSPropertyOp39
 70
     1
102
RTVSPropertyOp40
 70
     1
102
RTVSPropertyOp41
 70
     1
102
RTVSPropertyOp42
 70
     1
102
RTVSPropertyOp43
 70
     1
102
RTVSPropertyOp44
 70
     1
102
RTVSPropertyOp45
 70
     1
102
RTVSPropertyOp46
 70
     1
102
RTVSPropertyOp47
 70
     1
102
RTVSPropertyOp48
 70
     1
102
RTVSPropertyOp49
 70
     1
102
RTVSPropertyOp50
 70
     1
102
RTVSPropertyOp51
 70
     0
102
RTVSPropertyOp52
 70
     0
102
RTVSPropertyOp53
 70
     1
102
RTVSPropertyOp54
 70
     1
102
RTVSPropertyOp55
 70
     1
102
RTVSPropertyOp56
 70
     1
102
RTVSPropertyOp57
 70
     1
102
RTVSPropertyOp58
 70
     1
102
RTVSPropertyOp59
 70
     1
102
RTVSPropertyOp60
 70
     1
102
RTVSPropertyOp61
 70
     1
102
RTVSPropertyOp62
 70
     1
  0
XRECORD
  5
3C95
102
{ACAD_REACTORS
330
3C94
102
}
330
3C94
100
AcDbXrecord
280
     1
102
RTVSPost2010Prop28
280
     0
102
RTVSPost2010PropOp28
 70
     1
102
RTVSPost2010Prop29
280
     1
102
RTVSPost2010PropOp29
 70
     1
102
RTVSPost2010Prop30
280
     1
102
RTVSPost2010PropOp30
 70
     1
102
RTVSPost2010Prop31
280
     0
102
RTVSPost2010PropOp31
 70
     1
102
RTVSPost2010Prop32
280
     0
102
RTVSPost2010PropOp32
 70
     1
102
RTVSPost2010Prop33
280
     0
102
RTVSPost2010PropOp33
 70
     1
102
RTVSPost2010Prop34
280
     0
102
RTVSPost2010PropOp34
 70
     1
102
RTVSPost2010Prop35
280
     0
102
RTVSPost2010PropOp35
 70
     1
102
RTVSPost2010Prop36
280
     0
102
RTVSPost2010PropOp36
 70
     1
102
RTVSPost2010Prop37
 90
       50
102
RTVSPost2010PropOp37
 70
     1
102
RTVSPost2010Prop38
140
0.0
102
RTVSPost2010PropOp38
 70
     1
102
RTVSPost2010Prop39
140
1.0
102
RTVSPost2010PropOp39
 70
     1
102
RTVSPost2010Prop40
 90
        0
102
RTVSPost2010PropOp40
 70
     1
102
RTVSPost2010Prop41ColorIndex
 90
       18
102
RTVSPost2010Prop41ColorRGB
 90
        0
102
RTVSPost2010PropOp41
 70
     1
102
RTVSPost2010Prop42
 90
       50
102
RTVSPost2010PropOp42
 70
     1
102
RTVSPost2010Prop43
 90
        3
102
RTVSPost2010PropOp43
 70
     1
102
RTVSPost2010Prop44ColorIndex
 90
        5
102
RTVSPost2010Prop44ColorRGB
 90
      255
102
RTVSPost2010PropOp44
 70
     1
102
RTVSPost2010Prop45
280
     0
102
RTVSPost2010PropOp45
 70
     1
102
RTVSPost2010Prop46
 90
       50
102
RTVSPost2010PropOp46
 70
     1
102
RTVSPost2010Prop47
 90
       50
102
RTVSPost2010PropOp47
 70
     1
102
RTVSPost2010Prop48
 90
       50
102
RTVSPost2010PropOp48
 70
     1
102
RTVSPost2010Prop49
280
     0
102
RTVSPost2010PropOp49
 70
     1
102
RTVSPost2010Prop50
 90
       50
102
RTVSPost2010PropOp50
 70
     1
102
RTVSPost2010Prop51ColorIndex
 90
      256
102
RTVSPost2010Prop51ColorRGB
 90
-16777216
102
RTVSPost2010PropOp51
 70
     0
102
RTVSPost2010Prop52
140
1.0
102
RTVSPost2010PropOp52
 70
     0
102
RTVSPost2010Prop53
 90
        2
102
RTVSPost2010PropOp53
 70
     1
102
RTVSPost2010Prop54
  1
strokes_ogs.tif
102
RTVSPost2010PropOp54
 70
     1
102
RTVSPost2010Prop55
280
     0
102
RTVSPost2010PropOp55
 70
     1
102
RTVSPost2010Prop56
140
1.0
102
RTVSPost2010PropOp56
 70
     1
102
RTVSPost2010Prop57
140
1.0
102
RTVSPost2010PropOp57
 70
     1
102
RTVSPropertyOp0
 70
     1
102
RTVSPropertyOp1
 70
     1
102
RTVSPropertyOp2
 70
     1
102
RTVSPropertyOp3
 70
     1
102
RTVSPropertyOp4
 70
     1
102
RTVSPropertyOp5
 70
     1
102
RTVSPropertyOp6
 70
     1
102
RTVSPropertyOp7
 70
     1
102
RTVSPropertyOp8
 70
     1
102
RTVSPropertyOp9
 70
     1
102
RTVSPropertyOp10
 70
     1
102
RTVSPropertyOp11
 70
     1
102
RTVSPropertyOp12
 70
     1
102
RTVSPropertyOp13
 70
     1
102
RTVSPropertyOp14
 70
     1
102
RTVSPropertyOp15
 70
     1
102
RTVSPropertyOp16
 70
     1
102
RTVSPropertyOp17
 70
     1
102
RTVSPropertyOp18
 70
     1
102
RTVSPropertyOp19
 70
     1
102
RTVSPropertyOp20
 70
     1
102
RTVSPropertyOp21
 70
     1
102
RTVSPropertyOp22
 70
     1
102
RTVSPropertyOp23
 70
     1
102
RTVSPropertyOp24
 70
     1
102
RTVSPropertyOp25
 70
     1
102
RTVSPropertyOp26
 70
     1
102
RTVSPropertyOp27
 70
     1
102
RTVSPropertyOp28
 70
     1
102
RTVSPropertyOp29
 70
     1
102
RTVSPropertyOp30
 70
     1
102
RTVSPropertyOp31
 70
     1
102
RTVSPropertyOp32
 70
     1
102
RTVSPropertyOp33
 70
     1
102
RTVSPropertyOp34
 70
     1
102
RTVSPropertyOp35
 70
     1
102
RTVSPropertyOp36
 70
     1
102
RTVSPropertyOp37
 70
     1
102
RTVSPropertyOp38
 70
     1
102
RTVSPropertyOp39
 70
     1
102
RTVSPropertyOp40
 70
     1
102
RTVSPropertyOp41
 70
     1
102
RTVSPropertyOp42
 70
     1
102
RTVSPropertyOp43
 70
     1
102
RTVSPropertyOp44
 70
     1
102
RTVSPropertyOp45
 70
     1
102
RTVSPropertyOp46
 70
     1
102
RTVSPropertyOp47
 70
     1
102
RTVSPropertyOp48
 70
     1
102
RTVSPropertyOp49
 70
     1
102
RTVSPropertyOp50
 70
     1
102
RTVSPropertyOp51
 70
     0
102
RTVSPropertyOp52
 70
     0
102
RTVSPropertyOp53
 70
     1
102
RTVSPropertyOp54
 70
     1
102
RTVSPropertyOp55
 70
     1
102
RTVSPropertyOp56
 70
     1
102
RTVSPropertyOp57
 70
     1
102
RTVSPropertyOp58
 70
     1
102
RTVSPropertyOp59
 70
     1
102
RTVSPropertyOp60
 70
     1
102
RTVSPropertyOp61
 70
     1
102
RTVSPropertyOp62
 70
     1
  0
XRECORD
  5
3CAF
102
{ACAD_REACTORS
330
3CAE
102
}
330
3CAE
100
AcDbXrecord
280
     1
102
RTVSPost2010Prop28
280
     0
102
RTVSPost2010PropOp28
 70
     1
102
RTVSPost2010Prop29
280
     1
102
RTVSPost2010PropOp29
 70
     1
102
RTVSPost2010Prop30
280
     1
102
RTVSPost2010PropOp30
 70
     1
102
RTVSPost2010Prop31
280
     0
102
RTVSPost2010PropOp31
 70
     1
102
RTVSPost2010Prop32
280
     0
102
RTVSPost2010PropOp32
 70
     1
102
RTVSPost2010Prop33
280
     0
102
RTVSPost2010PropOp33
 70
     1
102
RTVSPost2010Prop34
280
     0
102
RTVSPost2010PropOp34
 70
     1
102
RTVSPost2010Prop35
280
     0
102
RTVSPost2010PropOp35
 70
     1
102
RTVSPost2010Prop36
280
     0
102
RTVSPost2010PropOp36
 70
     1
102
RTVSPost2010Prop37
 90
       50
102
RTVSPost2010PropOp37
 70
     0
102
RTVSPost2010Prop38
140
0.0
102
RTVSPost2010PropOp38
 70
     0
102
RTVSPost2010Prop39
140
1.0
102
RTVSPost2010PropOp39
 70
     0
102
RTVSPost2010Prop40
 90
        0
102
RTVSPost2010PropOp40
 70
     0
102
RTVSPost2010Prop41ColorIndex
 90
       18
102
RTVSPost2010Prop41ColorRGB
 90
        0
102
RTVSPost2010PropOp41
 70
     0
102
RTVSPost2010Prop42
 90
       50
102
RTVSPost2010PropOp42
 70
     0
102
RTVSPost2010Prop43
 90
        3
102
RTVSPost2010PropOp43
 70
     0
102
RTVSPost2010Prop44ColorIndex
 90
        5
102
RTVSPost2010Prop44ColorRGB
 90
      255
102
RTVSPost2010PropOp44
 70
     0
102
RTVSPost2010Prop45
280
     0
102
RTVSPost2010PropOp45
 70
     1
102
RTVSPost2010Prop46
 90
       50
102
RTVSPost2010PropOp46
 70
     0
102
RTVSPost2010Prop47
 90
       50
102
RTVSPost2010PropOp47
 70
     0
102
RTVSPost2010Prop48
 90
       50
102
RTVSPost2010PropOp48
 70
     0
102
RTVSPost2010Prop49
280
     0
102
RTVSPost2010PropOp49
 70
     1
102
RTVSPost2010Prop50
 90
       50
102
RTVSPost2010PropOp50
 70
     0
102
RTVSPost2010Prop51ColorIndex
 90
      256
102
RTVSPost2010Prop51ColorRGB
 90
-16777216
102
RTVSPost2010PropOp51
 70
     0
102
RTVSPost2010Prop52
140
1.0
102
RTVSPost2010PropOp52
 70
     0
102
RTVSPost2010Prop53
 90
        2
102
RTVSPost2010PropOp53
 70
     0
102
RTVSPost2010Prop54
  1
strokes_ogs.tif
102
RTVSPost2010PropOp54
 70
     0
102
RTVSPost2010Prop55
280
     0
102
RTVSPost2010PropOp55
 70
     1
102
RTVSPost2010Prop56
140
1.0
102
RTVSPost2010PropOp56
 70
     0
102
RTVSPost2010Prop57
140
1.0
102
RTVSPost2010PropOp57
 70
     0
102
RTVSPropertyOp0
 70
     0
102
RTVSPropertyOp1
 70
     0
102
RTVSPropertyOp2
 70
     0
102
RTVSPropertyOp3
 70
     0
102
RTVSPropertyOp4
 70
     0
102
RTVSPropertyOp5
 70
     0
102
RTVSPropertyOp6
 70
     0
102
RTVSPropertyOp7
 70
     0
102
RTVSPropertyOp8
 70
     0
102
RTVSPropertyOp9
 70
     0
102
RTVSPropertyOp10
 70
     0
102
RTVSPropertyOp11
 70
     0
102
RTVSPropertyOp12
 70
     0
102
RTVSPropertyOp13
 70
     0
102
RTVSPropertyOp14
 70
     2
102
RTVSPropertyOp15
 70
     0
102
RTVSPropertyOp16
 70
     0
102
RTVSPropertyOp17
 70
     0
102
RTVSPropertyOp18
 70
     0
102
RTVSPropertyOp19
 70
     0
102
RTVSPropertyOp20
 70
     0
102
RTVSPropertyOp21
 70
     0
102
RTVSPropertyOp22
 70
     0
102
RTVSPropertyOp23
 70
     0
102
RTVSPropertyOp24
 70
     0
102
RTVSPropertyOp25
 70
     0
102
RTVSPropertyOp26
 70
     0
102
RTVSPropertyOp27
 70
     0
102
RTVSPropertyOp28
 70
     1
102
RTVSPropertyOp29
 70
     1
102
RTVSPropertyOp30
 70
     1
102
RTVSPropertyOp31
 70
     1
102
RTVSPropertyOp32
 70
     1
102
RTVSPropertyOp33
 70
     1
102
RTVSPropertyOp34
 70
     1
102
RTVSPropertyOp35
 70
     1
102
RTVSPropertyOp36
 70
     1
102
RTVSPropertyOp37
 70
     0
102
RTVSPropertyOp38
 70
     0
102
RTVSPropertyOp39
 70
     0
102
RTVSPropertyOp40
 70
     0
102
RTVSPropertyOp41
 70
     0
102
RTVSPropertyOp42
 70
     0
102
RTVSPropertyOp43
 70
     0
102
RTVSPropertyOp44
 70
     0
102
RTVSPropertyOp45
 70
     1
102
RTVSPropertyOp46
 70
     0
102
RTVSPropertyOp47
 70
     0
102
RTVSPropertyOp48
 70
     0
102
RTVSPropertyOp49
 70
     1
102
RTVSPropertyOp50
 70
     0
102
RTVSPropertyOp51
 70
     0
102
RTVSPropertyOp52
 70
     0
102
RTVSPropertyOp53
 70
     0
102
RTVSPropertyOp54
 70
     0
102
RTVSPropertyOp55
 70
     1
102
RTVSPropertyOp56
 70
     0
102
RTVSPropertyOp57
 70
     0
102
RTVSPropertyOp58
 70
     0
102
RTVSPropertyOp59
 70
     0
102
RTVSPropertyOp60
 70
     0
102
RTVSPropertyOp61
 70
     0
102
RTVSPropertyOp62
 70
     0
  0
XRECORD
  5
3C9D
102
{ACAD_REACTORS
330
3C9C
102
}
330
3C9C
100
AcDbXrecord
280
     1
102
RTVSPost2010Prop28
280
     0
102
RTVSPost2010PropOp28
 70
     1
102
RTVSPost2010Prop29
280
     1
102
RTVSPost2010PropOp29
 70
     1
102
RTVSPost2010Prop30
280
     1
102
RTVSPost2010PropOp30
 70
     1
102
RTVSPost2010Prop31
280
     0
102
RTVSPost2010PropOp31
 70
     1
102
RTVSPost2010Prop32
280
     0
102
RTVSPost2010PropOp32
 70
     1
102
RTVSPost2010Prop33
280
     0
102
RTVSPost2010PropOp33
 70
     1
102
RTVSPost2010Prop34
280
     0
102
RTVSPost2010PropOp34
 70
     1
102
RTVSPost2010Prop35
280
     0
102
RTVSPost2010PropOp35
 70
     1
102
RTVSPost2010Prop36
280
     0
102
RTVSPost2010PropOp36
 70
     1
102
RTVSPost2010Prop37
 90
       50
102
RTVSPost2010PropOp37
 70
     1
102
RTVSPost2010Prop38
140
0.0
102
RTVSPost2010PropOp38
 70
     1
102
RTVSPost2010Prop39
140
1.0
102
RTVSPost2010PropOp39
 70
     1
102
RTVSPost2010Prop40
 90
        0
102
RTVSPost2010PropOp40
 70
     1
102
RTVSPost2010Prop41ColorIndex
 90
       18
102
RTVSPost2010Prop41ColorRGB
 90
        0
102
RTVSPost2010PropOp41
 70
     1
102
RTVSPost2010Prop42
 90
       50
102
RTVSPost2010PropOp42
 70
     1
102
RTVSPost2010Prop43
 90
        3
102
RTVSPost2010PropOp43
 70
     1
102
RTVSPost2010Prop44ColorIndex
 90
        5
102
RTVSPost2010Prop44ColorRGB
 90
      255
102
RTVSPost2010PropOp44
 70
     1
102
RTVSPost2010Prop45
280
     0
102
RTVSPost2010PropOp45
 70
     1
102
RTVSPost2010Prop46
 90
       50
102
RTVSPost2010PropOp46
 70
     1
102
RTVSPost2010Prop47
 90
       50
102
RTVSPost2010PropOp47
 70
     1
102
RTVSPost2010Prop48
 90
       50
102
RTVSPost2010PropOp48
 70
     1
102
RTVSPost2010Prop49
280
     0
102
RTVSPost2010PropOp49
 70
     1
102
RTVSPost2010Prop50
 90
       50
102
RTVSPost2010PropOp50
 70
     1
102
RTVSPost2010Prop51ColorIndex
 90
      256
102
RTVSPost2010Prop51ColorRGB
 90
-16777216
102
RTVSPost2010PropOp51
 70
     0
102
RTVSPost2010Prop52
140
1.0
102
RTVSPost2010PropOp52
 70
     0
102
RTVSPost2010Prop53
 90
        2
102
RTVSPost2010PropOp53
 70
     1
102
RTVSPost2010Prop54
  1
strokes_ogs.tif
102
RTVSPost2010PropOp54
 70
     1
102
RTVSPost2010Prop55
280
     0
102
RTVSPost2010PropOp55
 70
     1
102
RTVSPost2010Prop56
140
1.0
102
RTVSPost2010PropOp56
 70
     1
102
RTVSPost2010Prop57
140
1.0
102
RTVSPost2010PropOp57
 70
     1
102
RTVSPropertyOp0
 70
     1
102
RTVSPropertyOp1
 70
     1
102
RTVSPropertyOp2
 70
     1
102
RTVSPropertyOp3
 70
     1
102
RTVSPropertyOp4
 70
     1
102
RTVSPropertyOp5
 70
     1
102
RTVSPropertyOp6
 70
     1
102
RTVSPropertyOp7
 70
     1
102
RTVSPropertyOp8
 70
     1
102
RTVSPropertyOp9
 70
     1
102
RTVSPropertyOp10
 70
     1
102
RTVSPropertyOp11
 70
     1
102
RTVSPropertyOp12
 70
     1
102
RTVSPropertyOp13
 70
     1
102
RTVSPropertyOp14
 70
     1
102
RTVSPropertyOp15
 70
     1
102
RTVSPropertyOp16
 70
     1
102
RTVSPropertyOp17
 70
     1
102
RTVSPropertyOp18
 70
     1
102
RTVSPropertyOp19
 70
     1
102
RTVSPropertyOp20
 70
     1
102
RTVSPropertyOp21
 70
     1
102
RTVSPropertyOp22
 70
     1
102
RTVSPropertyOp23
 70
     1
102
RTVSPropertyOp24
 70
     1
102
RTVSPropertyOp25
 70
     1
102
RTVSPropertyOp26
 70
     1
102
RTVSPropertyOp27
 70
     1
102
RTVSPropertyOp28
 70
     1
102
RTVSPropertyOp29
 70
     1
102
RTVSPropertyOp30
 70
     1
102
RTVSPropertyOp31
 70
     1
102
RTVSPropertyOp32
 70
     1
102
RTVSPropertyOp33
 70
     1
102
RTVSPropertyOp34
 70
     1
102
RTVSPropertyOp35
 70
     1
102
RTVSPropertyOp36
 70
     1
102
RTVSPropertyOp37
 70
     1
102
RTVSPropertyOp38
 70
     1
102
RTVSPropertyOp39
 70
     1
102
RTVSPropertyOp40
 70
     1
102
RTVSPropertyOp41
 70
     1
102
RTVSPropertyOp42
 70
     1
102
RTVSPropertyOp43
 70
     1
102
RTVSPropertyOp44
 70
     1
102
RTVSPropertyOp45
 70
     1
102
RTVSPropertyOp46
 70
     1
102
RTVSPropertyOp47
 70
     1
102
RTVSPropertyOp48
 70
     1
102
RTVSPropertyOp49
 70
     1
102
RTVSPropertyOp50
 70
     1
102
RTVSPropertyOp51
 70
     0
102
RTVSPropertyOp52
 70
     0
102
RTVSPropertyOp53
 70
     1
102
RTVSPropertyOp54
 70
     1
102
RTVSPropertyOp55
 70
     1
102
RTVSPropertyOp56
 70
     1
102
RTVSPropertyOp57
 70
     1
102
RTVSPropertyOp58
 70
     1
102
RTVSPropertyOp59
 70
     1
102
RTVSPropertyOp60
 70
     1
102
RTVSPropertyOp61
 70
     1
102
RTVSPropertyOp62
 70
     1
  0
XRECORD
  5
3C81
102
{ACAD_REACTORS
330
3C80
102
}
330
3C80
100
AcDbXrecord
280
     1
102
RTVSPost2010Prop28
280
     0
102
RTVSPost2010PropOp28
 70
     1
102
RTVSPost2010Prop29
280
     1
102
RTVSPost2010PropOp29
 70
     1
102
RTVSPost2010Prop30
280
     1
102
RTVSPost2010PropOp30
 70
     1
102
RTVSPost2010Prop31
280
     0
102
RTVSPost2010PropOp31
 70
     1
102
RTVSPost2010Prop32
280
     0
102
RTVSPost2010PropOp32
 70
     1
102
RTVSPost2010Prop33
280
     0
102
RTVSPost2010PropOp33
 70
     1
102
RTVSPost2010Prop34
280
     0
102
RTVSPost2010PropOp34
 70
     1
102
RTVSPost2010Prop35
280
     0
102
RTVSPost2010PropOp35
 70
     1
102
RTVSPost2010Prop36
280
     0
102
RTVSPost2010PropOp36
 70
     1
102
RTVSPost2010Prop37
 90
       50
102
RTVSPost2010PropOp37
 70
     1
102
RTVSPost2010Prop38
140
0.0
102
RTVSPost2010PropOp38
 70
     1
102
RTVSPost2010Prop39
140
1.0
102
RTVSPost2010PropOp39
 70
     1
102
RTVSPost2010Prop40
 90
        0
102
RTVSPost2010PropOp40
 70
     1
102
RTVSPost2010Prop41ColorIndex
 90
       18
102
RTVSPost2010Prop41ColorRGB
 90
        0
102
RTVSPost2010PropOp41
 70
     1
102
RTVSPost2010Prop42
 90
       50
102
RTVSPost2010PropOp42
 70
     1
102
RTVSPost2010Prop43
 90
        3
102
RTVSPost2010PropOp43
 70
     1
102
RTVSPost2010Prop44ColorIndex
 90
        5
102
RTVSPost2010Prop44ColorRGB
 90
      255
102
RTVSPost2010PropOp44
 70
     1
102
RTVSPost2010Prop45
280
     0
102
RTVSPost2010PropOp45
 70
     1
102
RTVSPost2010Prop46
 90
       50
102
RTVSPost2010PropOp46
 70
     1
102
RTVSPost2010Prop47
 90
       50
102
RTVSPost2010PropOp47
 70
     1
102
RTVSPost2010Prop48
 90
       50
102
RTVSPost2010PropOp48
 70
     1
102
RTVSPost2010Prop49
280
     0
102
RTVSPost2010PropOp49
 70
     1
102
RTVSPost2010Prop50
 90
       50
102
RTVSPost2010PropOp50
 70
     1
102
RTVSPost2010Prop51ColorIndex
 90
      256
102
RTVSPost2010Prop51ColorRGB
 90
-16777216
102
RTVSPost2010PropOp51
 70
     0
102
RTVSPost2010Prop52
140
1.0
102
RTVSPost2010PropOp52
 70
     0
102
RTVSPost2010Prop53
 90
        2
102
RTVSPost2010PropOp53
 70
     1
102
RTVSPost2010Prop54
  1
strokes_ogs.tif
102
RTVSPost2010PropOp54
 70
     1
102
RTVSPost2010Prop55
280
     0
102
RTVSPost2010PropOp55
 70
     1
102
RTVSPost2010Prop56
140
1.0
102
RTVSPost2010PropOp56
 70
     1
102
RTVSPost2010Prop57
140
1.0
102
RTVSPost2010PropOp57
 70
     1
102
RTVSPropertyOp0
 70
     1
102
RTVSPropertyOp1
 70
     1
102
RTVSPropertyOp2
 70
     1
102
RTVSPropertyOp3
 70
     1
102
RTVSPropertyOp4
 70
     1
102
RTVSPropertyOp5
 70
     1
102
RTVSPropertyOp6
 70
     1
102
RTVSPropertyOp7
 70
     1
102
RTVSPropertyOp8
 70
     1
102
RTVSPropertyOp9
 70
     1
102
RTVSPropertyOp10
 70
     1
102
RTVSPropertyOp11
 70
     1
102
RTVSPropertyOp12
 70
     1
102
RTVSPropertyOp13
 70
     1
102
RTVSPropertyOp14
 70
     1
102
RTVSPropertyOp15
 70
     1
102
RTVSPropertyOp16
 70
     1
102
RTVSPropertyOp17
 70
     1
102
RTVSPropertyOp18
 70
     1
102
RTVSPropertyOp19
 70
     1
102
RTVSPropertyOp20
 70
     1
102
RTVSPropertyOp21
 70
     1
102
RTVSPropertyOp22
 70
     1
102
RTVSPropertyOp23
 70
     1
102
RTVSPropertyOp24
 70
     1
102
RTVSPropertyOp25
 70
     1
102
RTVSPropertyOp26
 70
     1
102
RTVSPropertyOp27
 70
     1
102
RTVSPropertyOp28
 70
     1
102
RTVSPropertyOp29
 70
     1
102
RTVSPropertyOp30
 70
     1
102
RTVSPropertyOp31
 70
     1
102
RTVSPropertyOp32
 70
     1
102
RTVSPropertyOp33
 70
     1
102
RTVSPropertyOp34
 70
     1
102
RTVSPropertyOp35
 70
     1
102
RTVSPropertyOp36
 70
     1
102
RTVSPropertyOp37
 70
     1
102
RTVSPropertyOp38
 70
     1
102
RTVSPropertyOp39
 70
     1
102
RTVSPropertyOp40
 70
     1
102
RTVSPropertyOp41
 70
     1
102
RTVSPropertyOp42
 70
     1
102
RTVSPropertyOp43
 70
     1
102
RTVSPropertyOp44
 70
     1
102
RTVSPropertyOp45
 70
     1
102
RTVSPropertyOp46
 70
     1
102
RTVSPropertyOp47
 70
     1
102
RTVSPropertyOp48
 70
     1
102
RTVSPropertyOp49
 70
     1
102
RTVSPropertyOp50
 70
     1
102
RTVSPropertyOp51
 70
     0
102
RTVSPropertyOp52
 70
     0
102
RTVSPropertyOp53
 70
     1
102
RTVSPropertyOp54
 70
     1
102
RTVSPropertyOp55
 70
     1
102
RTVSPropertyOp56
 70
     1
102
RTVSPropertyOp57
 70
     1
102
RTVSPropertyOp58
 70
     1
102
RTVSPropertyOp59
 70
     1
102
RTVSPropertyOp60
 70
     1
102
RTVSPropertyOp61
 70
     1
102
RTVSPropertyOp62
 70
     1
  0
XRECORD
  5
3C83
102
{ACAD_REACTORS
330
3C82
102
}
330
3C82
100
AcDbXrecord
280
     1
102
RTVSPost2010Prop28
280
     0
102
RTVSPost2010PropOp28
 70
     1
102
RTVSPost2010Prop29
280
     1
102
RTVSPost2010PropOp29
 70
     1
102
RTVSPost2010Prop30
280
     1
102
RTVSPost2010PropOp30
 70
     1
102
RTVSPost2010Prop31
280
     0
102
RTVSPost2010PropOp31
 70
     1
102
RTVSPost2010Prop32
280
     0
102
RTVSPost2010PropOp32
 70
     1
102
RTVSPost2010Prop33
280
     0
102
RTVSPost2010PropOp33
 70
     1
102
RTVSPost2010Prop34
280
     0
102
RTVSPost2010PropOp34
 70
     1
102
RTVSPost2010Prop35
280
     0
102
RTVSPost2010PropOp35
 70
     1
102
RTVSPost2010Prop36
280
     0
102
RTVSPost2010PropOp36
 70
     1
102
RTVSPost2010Prop37
 90
       50
102
RTVSPost2010PropOp37
 70
     1
102
RTVSPost2010Prop38
140
0.0
102
RTVSPost2010PropOp38
 70
     1
102
RTVSPost2010Prop39
140
1.0
102
RTVSPost2010PropOp39
 70
     1
102
RTVSPost2010Prop40
 90
        0
102
RTVSPost2010PropOp40
 70
     1
102
RTVSPost2010Prop41ColorIndex
 90
       18
102
RTVSPost2010Prop41ColorRGB
 90
        0
102
RTVSPost2010PropOp41
 70
     1
102
RTVSPost2010Prop42
 90
       50
102
RTVSPost2010PropOp42
 70
     1
102
RTVSPost2010Prop43
 90
        3
102
RTVSPost2010PropOp43
 70
     1
102
RTVSPost2010Prop44ColorIndex
 90
        5
102
RTVSPost2010Prop44ColorRGB
 90
      255
102
RTVSPost2010PropOp44
 70
     1
102
RTVSPost2010Prop45
280
     0
102
RTVSPost2010PropOp45
 70
     1
102
RTVSPost2010Prop46
 90
       50
102
RTVSPost2010PropOp46
 70
     1
102
RTVSPost2010Prop47
 90
       50
102
RTVSPost2010PropOp47
 70
     1
102
RTVSPost2010Prop48
 90
       50
102
RTVSPost2010PropOp48
 70
     1
102
RTVSPost2010Prop49
280
     0
102
RTVSPost2010PropOp49
 70
     1
102
RTVSPost2010Prop50
 90
       50
102
RTVSPost2010PropOp50
 70
     1
102
RTVSPost2010Prop51ColorIndex
 90
      256
102
RTVSPost2010Prop51ColorRGB
 90
-16777216
102
RTVSPost2010PropOp51
 70
     0
102
RTVSPost2010Prop52
140
1.0
102
RTVSPost2010PropOp52
 70
     0
102
RTVSPost2010Prop53
 90
        2
102
RTVSPost2010PropOp53
 70
     1
102
RTVSPost2010Prop54
  1
strokes_ogs.tif
102
RTVSPost2010PropOp54
 70
     1
102
RTVSPost2010Prop55
280
     0
102
RTVSPost2010PropOp55
 70
     1
102
RTVSPost2010Prop56
140
1.0
102
RTVSPost2010PropOp56
 70
     1
102
RTVSPost2010Prop57
140
1.0
102
RTVSPost2010PropOp57
 70
     1
102
RTVSPropertyOp0
 70
     1
102
RTVSPropertyOp1
 70
     1
102
RTVSPropertyOp2
 70
     1
102
RTVSPropertyOp3
 70
     1
102
RTVSPropertyOp4
 70
     1
102
RTVSPropertyOp5
 70
     1
102
RTVSPropertyOp6
 70
     1
102
RTVSPropertyOp7
 70
     1
102
RTVSPropertyOp8
 70
     1
102
RTVSPropertyOp9
 70
     1
102
RTVSPropertyOp10
 70
     1
102
RTVSPropertyOp11
 70
     1
102
RTVSPropertyOp12
 70
     1
102
RTVSPropertyOp13
 70
     1
102
RTVSPropertyOp14
 70
     1
102
RTVSPropertyOp15
 70
     1
102
RTVSPropertyOp16
 70
     1
102
RTVSPropertyOp17
 70
     1
102
RTVSPropertyOp18
 70
     1
102
RTVSPropertyOp19
 70
     1
102
RTVSPropertyOp20
 70
     1
102
RTVSPropertyOp21
 70
     1
102
RTVSPropertyOp22
 70
     1
102
RTVSPropertyOp23
 70
     1
102
RTVSPropertyOp24
 70
     1
102
RTVSPropertyOp25
 70
     1
102
RTVSPropertyOp26
 70
     1
102
RTVSPropertyOp27
 70
     1
102
RTVSPropertyOp28
 70
     1
102
RTVSPropertyOp29
 70
     1
102
RTVSPropertyOp30
 70
     1
102
RTVSPropertyOp31
 70
     1
102
RTVSPropertyOp32
 70
     1
102
RTVSPropertyOp33
 70
     1
102
RTVSPropertyOp34
 70
     1
102
RTVSPropertyOp35
 70
     1
102
RTVSPropertyOp36
 70
     1
102
RTVSPropertyOp37
 70
     1
102
RTVSPropertyOp38
 70
     1
102
RTVSPropertyOp39
 70
     1
102
RTVSPropertyOp40
 70
     1
102
RTVSPropertyOp41
 70
     1
102
RTVSPropertyOp42
 70
     1
102
RTVSPropertyOp43
 70
     1
102
RTVSPropertyOp44
 70
     1
102
RTVSPropertyOp45
 70
     1
102
RTVSPropertyOp46
 70
     1
102
RTVSPropertyOp47
 70
     1
102
RTVSPropertyOp48
 70
     1
102
RTVSPropertyOp49
 70
     1
102
RTVSPropertyOp50
 70
     1
102
RTVSPropertyOp51
 70
     0
102
RTVSPropertyOp52
 70
     0
102
RTVSPropertyOp53
 70
     1
102
RTVSPropertyOp54
 70
     1
102
RTVSPropertyOp55
 70
     1
102
RTVSPropertyOp56
 70
     1
102
RTVSPropertyOp57
 70
     1
102
RTVSPropertyOp58
 70
     1
102
RTVSPropertyOp59
 70
     1
102
RTVSPropertyOp60
 70
     1
102
RTVSPropertyOp61
 70
     1
102
RTVSPropertyOp62
 70
     1
  0
XRECORD
  5
3C85
102
{ACAD_REACTORS
330
3C84
102
}
330
3C84
100
AcDbXrecord
280
     1
102
RTVSPost2010Prop28
280
     0
102
RTVSPost2010PropOp28
 70
     1
102
RTVSPost2010Prop29
280
     1
102
RTVSPost2010PropOp29
 70
     1
102
RTVSPost2010Prop30
280
     1
102
RTVSPost2010PropOp30
 70
     1
102
RTVSPost2010Prop31
280
     0
102
RTVSPost2010PropOp31
 70
     1
102
RTVSPost2010Prop32
280
     0
102
RTVSPost2010PropOp32
 70
     1
102
RTVSPost2010Prop33
280
     0
102
RTVSPost2010PropOp33
 70
     1
102
RTVSPost2010Prop34
280
     0
102
RTVSPost2010PropOp34
 70
     1
102
RTVSPost2010Prop35
280
     0
102
RTVSPost2010PropOp35
 70
     1
102
RTVSPost2010Prop36
280
     0
102
RTVSPost2010PropOp36
 70
     1
102
RTVSPost2010Prop37
 90
       50
102
RTVSPost2010PropOp37
 70
     1
102
RTVSPost2010Prop38
140
0.0
102
RTVSPost2010PropOp38
 70
     1
102
RTVSPost2010Prop39
140
1.0
102
RTVSPost2010PropOp39
 70
     1
102
RTVSPost2010Prop40
 90
        0
102
RTVSPost2010PropOp40
 70
     1
102
RTVSPost2010Prop41ColorIndex
 90
       18
102
RTVSPost2010Prop41ColorRGB
 90
        0
102
RTVSPost2010PropOp41
 70
     1
102
RTVSPost2010Prop42
 90
       50
102
RTVSPost2010PropOp42
 70
     1
102
RTVSPost2010Prop43
 90
        3
102
RTVSPost2010PropOp43
 70
     1
102
RTVSPost2010Prop44ColorIndex
 90
        5
102
RTVSPost2010Prop44ColorRGB
 90
      255
102
RTVSPost2010PropOp44
 70
     1
102
RTVSPost2010Prop45
280
     0
102
RTVSPost2010PropOp45
 70
     1
102
RTVSPost2010Prop46
 90
       50
102
RTVSPost2010PropOp46
 70
     1
102
RTVSPost2010Prop47
 90
       50
102
RTVSPost2010PropOp47
 70
     1
102
RTVSPost2010Prop48
 90
       50
102
RTVSPost2010PropOp48
 70
     1
102
RTVSPost2010Prop49
280
     0
102
RTVSPost2010PropOp49
 70
     1
102
RTVSPost2010Prop50
 90
       50
102
RTVSPost2010PropOp50
 70
     1
102
RTVSPost2010Prop51ColorIndex
 90
      256
102
RTVSPost2010Prop51ColorRGB
 90
-16777216
102
RTVSPost2010PropOp51
 70
     0
102
RTVSPost2010Prop52
140
1.0
102
RTVSPost2010PropOp52
 70
     0
102
RTVSPost2010Prop53
 90
        2
102
RTVSPost2010PropOp53
 70
     1
102
RTVSPost2010Prop54
  1
strokes_ogs.tif
102
RTVSPost2010PropOp54
 70
     1
102
RTVSPost2010Prop55
280
     0
102
RTVSPost2010PropOp55
 70
     1
102
RTVSPost2010Prop56
140
1.0
102
RTVSPost2010PropOp56
 70
     1
102
RTVSPost2010Prop57
140
1.0
102
RTVSPost2010PropOp57
 70
     1
102
RTVSPropertyOp0
 70
     1
102
RTVSPropertyOp1
 70
     1
102
RTVSPropertyOp2
 70
     1
102
RTVSPropertyOp3
 70
     1
102
RTVSPropertyOp4
 70
     1
102
RTVSPropertyOp5
 70
     1
102
RTVSPropertyOp6
 70
     1
102
RTVSPropertyOp7
 70
     1
102
RTVSPropertyOp8
 70
     1
102
RTVSPropertyOp9
 70
     1
102
RTVSPropertyOp10
 70
     1
102
RTVSPropertyOp11
 70
     1
102
RTVSPropertyOp12
 70
     1
102
RTVSPropertyOp13
 70
     1
102
RTVSPropertyOp14
 70
     1
102
RTVSPropertyOp15
 70
     1
102
RTVSPropertyOp16
 70
     1
102
RTVSPropertyOp17
 70
     1
102
RTVSPropertyOp18
 70
     1
102
RTVSPropertyOp19
 70
     1
102
RTVSPropertyOp20
 70
     1
102
RTVSPropertyOp21
 70
     1
102
RTVSPropertyOp22
 70
     1
102
RTVSPropertyOp23
 70
     1
102
RTVSPropertyOp24
 70
     1
102
RTVSPropertyOp25
 70
     1
102
RTVSPropertyOp26
 70
     1
102
RTVSPropertyOp27
 70
     1
102
RTVSPropertyOp28
 70
     1
102
RTVSPropertyOp29
 70
     1
102
RTVSPropertyOp30
 70
     1
102
RTVSPropertyOp31
 70
     1
102
RTVSPropertyOp32
 70
     1
102
RTVSPropertyOp33
 70
     1
102
RTVSPropertyOp34
 70
     1
102
RTVSPropertyOp35
 70
     1
102
RTVSPropertyOp36
 70
     1
102
RTVSPropertyOp37
 70
     1
102
RTVSPropertyOp38
 70
     1
102
RTVSPropertyOp39
 70
     1
102
RTVSPropertyOp40
 70
     1
102
RTVSPropertyOp41
 70
     1
102
RTVSPropertyOp42
 70
     1
102
RTVSPropertyOp43
 70
     1
102
RTVSPropertyOp44
 70
     1
102
RTVSPropertyOp45
 70
     1
102
RTVSPropertyOp46
 70
     1
102
RTVSPropertyOp47
 70
     1
102
RTVSPropertyOp48
 70
     1
102
RTVSPropertyOp49
 70
     1
102
RTVSPropertyOp50
 70
     1
102
RTVSPropertyOp51
 70
     0
102
RTVSPropertyOp52
 70
     0
102
RTVSPropertyOp53
 70
     1
102
RTVSPropertyOp54
 70
     1
102
RTVSPropertyOp55
 70
     1
102
RTVSPropertyOp56
 70
     1
102
RTVSPropertyOp57
 70
     1
102
RTVSPropertyOp58
 70
     1
102
RTVSPropertyOp59
 70
     1
102
RTVSPropertyOp60
 70
     1
102
RTVSPropertyOp61
 70
     1
102
RTVSPropertyOp62
 70
     1
  0
XRECORD
  5
3C87
102
{ACAD_REACTORS
330
3C86
102
}
330
3C86
100
AcDbXrecord
280
     1
102
RTVSPost2010Prop28
280
     0
102
RTVSPost2010PropOp28
 70
     1
102
RTVSPost2010Prop29
280
     1
102
RTVSPost2010PropOp29
 70
     1
102
RTVSPost2010Prop30
280
     1
102
RTVSPost2010PropOp30
 70
     1
102
RTVSPost2010Prop31
280
     0
102
RTVSPost2010PropOp31
 70
     1
102
RTVSPost2010Prop32
280
     0
102
RTVSPost2010PropOp32
 70
     1
102
RTVSPost2010Prop33
280
     0
102
RTVSPost2010PropOp33
 70
     1
102
RTVSPost2010Prop34
280
     0
102
RTVSPost2010PropOp34
 70
     1
102
RTVSPost2010Prop35
280
     0
102
RTVSPost2010PropOp35
 70
     1
102
RTVSPost2010Prop36
280
     0
102
RTVSPost2010PropOp36
 70
     1
102
RTVSPost2010Prop37
 90
       50
102
RTVSPost2010PropOp37
 70
     1
102
RTVSPost2010Prop38
140
0.0
102
RTVSPost2010PropOp38
 70
     1
102
RTVSPost2010Prop39
140
1.0
102
RTVSPost2010PropOp39
 70
     1
102
RTVSPost2010Prop40
 90
        0
102
RTVSPost2010PropOp40
 70
     1
102
RTVSPost2010Prop41ColorIndex
 90
       18
102
RTVSPost2010Prop41ColorRGB
 90
        0
102
RTVSPost2010PropOp41
 70
     1
102
RTVSPost2010Prop42
 90
       50
102
RTVSPost2010PropOp42
 70
     1
102
RTVSPost2010Prop43
 90
        3
102
RTVSPost2010PropOp43
 70
     1
102
RTVSPost2010Prop44ColorIndex
 90
        5
102
RTVSPost2010Prop44ColorRGB
 90
      255
102
RTVSPost2010PropOp44
 70
     1
102
RTVSPost2010Prop45
280
     0
102
RTVSPost2010PropOp45
 70
     1
102
RTVSPost2010Prop46
 90
       50
102
RTVSPost2010PropOp46
 70
     1
102
RTVSPost2010Prop47
 90
       50
102
RTVSPost2010PropOp47
 70
     1
102
RTVSPost2010Prop48
 90
       50
102
RTVSPost2010PropOp48
 70
     1
102
RTVSPost2010Prop49
280
     0
102
RTVSPost2010PropOp49
 70
     1
102
RTVSPost2010Prop50
 90
       50
102
RTVSPost2010PropOp50
 70
     1
102
RTVSPost2010Prop51ColorIndex
 90
      256
102
RTVSPost2010Prop51ColorRGB
 90
-16777216
102
RTVSPost2010PropOp51
 70
     0
102
RTVSPost2010Prop52
140
1.0
102
RTVSPost2010PropOp52
 70
     0
102
RTVSPost2010Prop53
 90
        2
102
RTVSPost2010PropOp53
 70
     1
102
RTVSPost2010Prop54
  1
strokes_ogs.tif
102
RTVSPost2010PropOp54
 70
     1
102
RTVSPost2010Prop55
280
     0
102
RTVSPost2010PropOp55
 70
     1
102
RTVSPost2010Prop56
140
1.0
102
RTVSPost2010PropOp56
 70
     1
102
RTVSPost2010Prop57
140
1.0
102
RTVSPost2010PropOp57
 70
     1
102
RTVSPropertyOp0
 70
     1
102
RTVSPropertyOp1
 70
     1
102
RTVSPropertyOp2
 70
     1
102
RTVSPropertyOp3
 70
     1
102
RTVSPropertyOp4
 70
     1
102
RTVSPropertyOp5
 70
     1
102
RTVSPropertyOp6
 70
     1
102
RTVSPropertyOp7
 70
     1
102
RTVSPropertyOp8
 70
     1
102
RTVSPropertyOp9
 70
     1
102
RTVSPropertyOp10
 70
     1
102
RTVSPropertyOp11
 70
     1
102
RTVSPropertyOp12
 70
     1
102
RTVSPropertyOp13
 70
     1
102
RTVSPropertyOp14
 70
     1
102
RTVSPropertyOp15
 70
     1
102
RTVSPropertyOp16
 70
     1
102
RTVSPropertyOp17
 70
     1
102
RTVSPropertyOp18
 70
     1
102
RTVSPropertyOp19
 70
     1
102
RTVSPropertyOp20
 70
     1
102
RTVSPropertyOp21
 70
     1
102
RTVSPropertyOp22
 70
     1
102
RTVSPropertyOp23
 70
     1
102
RTVSPropertyOp24
 70
     1
102
RTVSPropertyOp25
 70
     1
102
RTVSPropertyOp26
 70
     1
102
RTVSPropertyOp27
 70
     1
102
RTVSPropertyOp28
 70
     1
102
RTVSPropertyOp29
 70
     1
102
RTVSPropertyOp30
 70
     1
102
RTVSPropertyOp31
 70
     1
102
RTVSPropertyOp32
 70
     1
102
RTVSPropertyOp33
 70
     1
102
RTVSPropertyOp34
 70
     1
102
RTVSPropertyOp35
 70
     1
102
RTVSPropertyOp36
 70
     1
102
RTVSPropertyOp37
 70
     1
102
RTVSPropertyOp38
 70
     1
102
RTVSPropertyOp39
 70
     1
102
RTVSPropertyOp40
 70
     1
102
RTVSPropertyOp41
 70
     1
102
RTVSPropertyOp42
 70
     1
102
RTVSPropertyOp43
 70
     1
102
RTVSPropertyOp44
 70
     1
102
RTVSPropertyOp45
 70
     1
102
RTVSPropertyOp46
 70
     1
102
RTVSPropertyOp47
 70
     1
102
RTVSPropertyOp48
 70
     1
102
RTVSPropertyOp49
 70
     1
102
RTVSPropertyOp50
 70
     1
102
RTVSPropertyOp51
 70
     0
102
RTVSPropertyOp52
 70
     0
102
RTVSPropertyOp53
 70
     1
102
RTVSPropertyOp54
 70
     1
102
RTVSPropertyOp55
 70
     1
102
RTVSPropertyOp56
 70
     1
102
RTVSPropertyOp57
 70
     1
102
RTVSPropertyOp58
 70
     1
102
RTVSPropertyOp59
 70
     1
102
RTVSPropertyOp60
 70
     1
102
RTVSPropertyOp61
 70
     1
102
RTVSPropertyOp62
 70
     1
  0
XRECORD
  5
3C8F
102
{ACAD_REACTORS
330
3C8E
102
}
330
3C8E
100
AcDbXrecord
280
     1
102
RTVSPost2010Prop28
280
     0
102
RTVSPost2010PropOp28
 70
     1
102
RTVSPost2010Prop29
280
     1
102
RTVSPost2010PropOp29
 70
     1
102
RTVSPost2010Prop30
280
     1
102
RTVSPost2010PropOp30
 70
     1
102
RTVSPost2010Prop31
280
     0
102
RTVSPost2010PropOp31
 70
     1
102
RTVSPost2010Prop32
280
     0
102
RTVSPost2010PropOp32
 70
     1
102
RTVSPost2010Prop33
280
     0
102
RTVSPost2010PropOp33
 70
     1
102
RTVSPost2010Prop34
280
     0
102
RTVSPost2010PropOp34
 70
     1
102
RTVSPost2010Prop35
280
     0
102
RTVSPost2010PropOp35
 70
     1
102
RTVSPost2010Prop36
280
     0
102
RTVSPost2010PropOp36
 70
     1
102
RTVSPost2010Prop37
 90
       50
102
RTVSPost2010PropOp37
 70
     1
102
RTVSPost2010Prop38
140
0.0
102
RTVSPost2010PropOp38
 70
     1
102
RTVSPost2010Prop39
140
1.0
102
RTVSPost2010PropOp39
 70
     1
102
RTVSPost2010Prop40
 90
        0
102
RTVSPost2010PropOp40
 70
     1
102
RTVSPost2010Prop41ColorIndex
 90
       18
102
RTVSPost2010Prop41ColorRGB
 90
        0
102
RTVSPost2010PropOp41
 70
     1
102
RTVSPost2010Prop42
 90
       50
102
RTVSPost2010PropOp42
 70
     1
102
RTVSPost2010Prop43
 90
        3
102
RTVSPost2010PropOp43
 70
     1
102
RTVSPost2010Prop44ColorIndex
 90
        5
102
RTVSPost2010Prop44ColorRGB
 90
      255
102
RTVSPost2010PropOp44
 70
     1
102
RTVSPost2010Prop45
280
     0
102
RTVSPost2010PropOp45
 70
     1
102
RTVSPost2010Prop46
 90
       50
102
RTVSPost2010PropOp46
 70
     1
102
RTVSPost2010Prop47
 90
       50
102
RTVSPost2010PropOp47
 70
     1
102
RTVSPost2010Prop48
 90
       50
102
RTVSPost2010PropOp48
 70
     1
102
RTVSPost2010Prop49
280
     0
102
RTVSPost2010PropOp49
 70
     1
102
RTVSPost2010Prop50
 90
       50
102
RTVSPost2010PropOp50
 70
     1
102
RTVSPost2010Prop51ColorIndex
 90
      256
102
RTVSPost2010Prop51ColorRGB
 90
-16777216
102
RTVSPost2010PropOp51
 70
     0
102
RTVSPost2010Prop52
140
1.0
102
RTVSPost2010PropOp52
 70
     0
102
RTVSPost2010Prop53
 90
        2
102
RTVSPost2010PropOp53
 70
     1
102
RTVSPost2010Prop54
  1
strokes_ogs.tif
102
RTVSPost2010PropOp54
 70
     1
102
RTVSPost2010Prop55
280
     0
102
RTVSPost2010PropOp55
 70
     1
102
RTVSPost2010Prop56
140
1.0
102
RTVSPost2010PropOp56
 70
     1
102
RTVSPost2010Prop57
140
1.0
102
RTVSPost2010PropOp57
 70
     1
102
RTVSPropertyOp0
 70
     1
102
RTVSPropertyOp1
 70
     1
102
RTVSPropertyOp2
 70
     1
102
RTVSPropertyOp3
 70
     1
102
RTVSPropertyOp4
 70
     1
102
RTVSPropertyOp5
 70
     1
102
RTVSPropertyOp6
 70
     1
102
RTVSPropertyOp7
 70
     1
102
RTVSPropertyOp8
 70
     1
102
RTVSPropertyOp9
 70
     1
102
RTVSPropertyOp10
 70
     1
102
RTVSPropertyOp11
 70
     1
102
RTVSPropertyOp12
 70
     1
102
RTVSPropertyOp13
 70
     1
102
RTVSPropertyOp14
 70
     1
102
RTVSPropertyOp15
 70
     1
102
RTVSPropertyOp16
 70
     1
102
RTVSPropertyOp17
 70
     1
102
RTVSPropertyOp18
 70
     1
102
RTVSPropertyOp19
 70
     1
102
RTVSPropertyOp20
 70
     1
102
RTVSPropertyOp21
 70
     1
102
RTVSPropertyOp22
 70
     1
102
RTVSPropertyOp23
 70
     1
102
RTVSPropertyOp24
 70
     1
102
RTVSPropertyOp25
 70
     1
102
RTVSPropertyOp26
 70
     1
102
RTVSPropertyOp27
 70
     1
102
RTVSPropertyOp28
 70
     1
102
RTVSPropertyOp29
 70
     1
102
RTVSPropertyOp30
 70
     1
102
RTVSPropertyOp31
 70
     1
102
RTVSPropertyOp32
 70
     1
102
RTVSPropertyOp33
 70
     1
102
RTVSPropertyOp34
 70
     1
102
RTVSPropertyOp35
 70
     1
102
RTVSPropertyOp36
 70
     1
102
RTVSPropertyOp37
 70
     1
102
RTVSPropertyOp38
 70
     1
102
RTVSPropertyOp39
 70
     1
102
RTVSPropertyOp40
 70
     1
102
RTVSPropertyOp41
 70
     1
102
RTVSPropertyOp42
 70
     1
102
RTVSPropertyOp43
 70
     1
102
RTVSPropertyOp44
 70
     1
102
RTVSPropertyOp45
 70
     1
102
RTVSPropertyOp46
 70
     1
102
RTVSPropertyOp47
 70
     1
102
RTVSPropertyOp48
 70
     1
102
RTVSPropertyOp49
 70
     1
102
RTVSPropertyOp50
 70
     1
102
RTVSPropertyOp51
 70
     0
102
RTVSPropertyOp52
 70
     0
102
RTVSPropertyOp53
 70
     1
102
RTVSPropertyOp54
 70
     1
102
RTVSPropertyOp55
 70
     1
102
RTVSPropertyOp56
 70
     1
102
RTVSPropertyOp57
 70
     1
102
RTVSPropertyOp58
 70
     1
102
RTVSPropertyOp59
 70
     1
102
RTVSPropertyOp60
 70
     1
102
RTVSPropertyOp61
 70
     1
102
RTVSPropertyOp62
 70
     1
  0
XRECORD
  5
3CAB
102
{ACAD_REACTORS
330
3CAA
102
}
330
3CAA
100
AcDbXrecord
280
     1
102
RTVSPost2010Prop28
280
     0
102
RTVSPost2010PropOp28
 70
     1
102
RTVSPost2010Prop29
280
     1
102
RTVSPost2010PropOp29
 70
     1
102
RTVSPost2010Prop30
280
     1
102
RTVSPost2010PropOp30
 70
     1
102
RTVSPost2010Prop31
280
     0
102
RTVSPost2010PropOp31
 70
     1
102
RTVSPost2010Prop32
280
     0
102
RTVSPost2010PropOp32
 70
     1
102
RTVSPost2010Prop33
280
     0
102
RTVSPost2010PropOp33
 70
     1
102
RTVSPost2010Prop34
280
     0
102
RTVSPost2010PropOp34
 70
     1
102
RTVSPost2010Prop35
280
     0
102
RTVSPost2010PropOp35
 70
     1
102
RTVSPost2010Prop36
280
     0
102
RTVSPost2010PropOp36
 70
     1
102
RTVSPost2010Prop37
 90
       50
102
RTVSPost2010PropOp37
 70
     0
102
RTVSPost2010Prop38
140
0.0
102
RTVSPost2010PropOp38
 70
     0
102
RTVSPost2010Prop39
140
1.0
102
RTVSPost2010PropOp39
 70
     0
102
RTVSPost2010Prop40
 90
        0
102
RTVSPost2010PropOp40
 70
     0
102
RTVSPost2010Prop41ColorIndex
 90
       18
102
RTVSPost2010Prop41ColorRGB
 90
        0
102
RTVSPost2010PropOp41
 70
     0
102
RTVSPost2010Prop42
 90
       50
102
RTVSPost2010PropOp42
 70
     0
102
RTVSPost2010Prop43
 90
        3
102
RTVSPost2010PropOp43
 70
     0
102
RTVSPost2010Prop44ColorIndex
 90
        5
102
RTVSPost2010Prop44ColorRGB
 90
      255
102
RTVSPost2010PropOp44
 70
     0
102
RTVSPost2010Prop45
280
     0
102
RTVSPost2010PropOp45
 70
     1
102
RTVSPost2010Prop46
 90
       50
102
RTVSPost2010PropOp46
 70
     0
102
RTVSPost2010Prop47
 90
       50
102
RTVSPost2010PropOp47
 70
     0
102
RTVSPost2010Prop48
 90
       50
102
RTVSPost2010PropOp48
 70
     0
102
RTVSPost2010Prop49
280
     0
102
RTVSPost2010PropOp49
 70
     1
102
RTVSPost2010Prop50
 90
       50
102
RTVSPost2010PropOp50
 70
     0
102
RTVSPost2010Prop51ColorIndex
 90
      256
102
RTVSPost2010Prop51ColorRGB
 90
-16777216
102
RTVSPost2010PropOp51
 70
     0
102
RTVSPost2010Prop52
140
1.0
102
RTVSPost2010PropOp52
 70
     0
102
RTVSPost2010Prop53
 90
        2
102
RTVSPost2010PropOp53
 70
     0
102
RTVSPost2010Prop54
  1
strokes_ogs.tif
102
RTVSPost2010PropOp54
 70
     0
102
RTVSPost2010Prop55
280
     0
102
RTVSPost2010PropOp55
 70
     1
102
RTVSPost2010Prop56
140
1.0
102
RTVSPost2010PropOp56
 70
     0
102
RTVSPost2010Prop57
140
1.0
102
RTVSPost2010PropOp57
 70
     0
102
RTVSPropertyOp0
 70
     0
102
RTVSPropertyOp1
 70
     0
102
RTVSPropertyOp2
 70
     0
102
RTVSPropertyOp3
 70
     0
102
RTVSPropertyOp4
 70
     0
102
RTVSPropertyOp5
 70
     0
102
RTVSPropertyOp6
 70
     0
102
RTVSPropertyOp7
 70
     0
102
RTVSPropertyOp8
 70
     0
102
RTVSPropertyOp9
 70
     0
102
RTVSPropertyOp10
 70
     0
102
RTVSPropertyOp11
 70
     0
102
RTVSPropertyOp12
 70
     0
102
RTVSPropertyOp13
 70
     0
102
RTVSPropertyOp14
 70
     2
102
RTVSPropertyOp15
 70
     0
102
RTVSPropertyOp16
 70
     0
102
RTVSPropertyOp17
 70
     0
102
RTVSPropertyOp18
 70
     0
102
RTVSPropertyOp19
 70
     0
102
RTVSPropertyOp20
 70
     0
102
RTVSPropertyOp21
 70
     0
102
RTVSPropertyOp22
 70
     0
102
RTVSPropertyOp23
 70
     0
102
RTVSPropertyOp24
 70
     0
102
RTVSPropertyOp25
 70
     0
102
RTVSPropertyOp26
 70
     0
102
RTVSPropertyOp27
 70
     0
102
RTVSPropertyOp28
 70
     1
102
RTVSPropertyOp29
 70
     1
102
RTVSPropertyOp30
 70
     1
102
RTVSPropertyOp31
 70
     1
102
RTVSPropertyOp32
 70
     1
102
RTVSPropertyOp33
 70
     1
102
RTVSPropertyOp34
 70
     1
102
RTVSPropertyOp35
 70
     1
102
RTVSPropertyOp36
 70
     1
102
RTVSPropertyOp37
 70
     0
102
RTVSPropertyOp38
 70
     0
102
RTVSPropertyOp39
 70
     0
102
RTVSPropertyOp40
 70
     0
102
RTVSPropertyOp41
 70
     0
102
RTVSPropertyOp42
 70
     0
102
RTVSPropertyOp43
 70
     0
102
RTVSPropertyOp44
 70
     0
102
RTVSPropertyOp45
 70
     1
102
RTVSPropertyOp46
 70
     0
102
RTVSPropertyOp47
 70
     0
102
RTVSPropertyOp48
 70
     0
102
RTVSPropertyOp49
 70
     1
102
RTVSPropertyOp50
 70
     0
102
RTVSPropertyOp51
 70
     0
102
RTVSPropertyOp52
 70
     0
102
RTVSPropertyOp53
 70
     0
102
RTVSPropertyOp54
 70
     0
102
RTVSPropertyOp55
 70
     1
102
RTVSPropertyOp56
 70
     0
102
RTVSPropertyOp57
 70
     0
102
RTVSPropertyOp58
 70
     0
102
RTVSPropertyOp59
 70
     0
102
RTVSPropertyOp60
 70
     0
102
RTVSPropertyOp61
 70
     0
102
RTVSPropertyOp62
 70
     0
  0
XRECORD
  5
3C9B
102
{ACAD_REACTORS
330
3C9A
102
}
330
3C9A
100
AcDbXrecord
280
     1
102
RTVSPost2010Prop28
280
     0
102
RTVSPost2010PropOp28
 70
     1
102
RTVSPost2010Prop29
280
     1
102
RTVSPost2010PropOp29
 70
     1
102
RTVSPost2010Prop30
280
     1
102
RTVSPost2010PropOp30
 70
     1
102
RTVSPost2010Prop31
280
     0
102
RTVSPost2010PropOp31
 70
     1
102
RTVSPost2010Prop32
280
     0
102
RTVSPost2010PropOp32
 70
     1
102
RTVSPost2010Prop33
280
     0
102
RTVSPost2010PropOp33
 70
     1
102
RTVSPost2010Prop34
280
     0
102
RTVSPost2010PropOp34
 70
     1
102
RTVSPost2010Prop35
280
     0
102
RTVSPost2010PropOp35
 70
     1
102
RTVSPost2010Prop36
280
     0
102
RTVSPost2010PropOp36
 70
     1
102
RTVSPost2010Prop37
 90
       50
102
RTVSPost2010PropOp37
 70
     1
102
RTVSPost2010Prop38
140
0.0
102
RTVSPost2010PropOp38
 70
     1
102
RTVSPost2010Prop39
140
1.0
102
RTVSPost2010PropOp39
 70
     1
102
RTVSPost2010Prop40
 90
        0
102
RTVSPost2010PropOp40
 70
     1
102
RTVSPost2010Prop41ColorIndex
 90
       18
102
RTVSPost2010Prop41ColorRGB
 90
        0
102
RTVSPost2010PropOp41
 70
     1
102
RTVSPost2010Prop42
 90
       50
102
RTVSPost2010PropOp42
 70
     1
102
RTVSPost2010Prop43
 90
        3
102
RTVSPost2010PropOp43
 70
     1
102
RTVSPost2010Prop44ColorIndex
 90
        5
102
RTVSPost2010Prop44ColorRGB
 90
      255
102
RTVSPost2010PropOp44
 70
     1
102
RTVSPost2010Prop45
280
     0
102
RTVSPost2010PropOp45
 70
     1
102
RTVSPost2010Prop46
 90
       50
102
RTVSPost2010PropOp46
 70
     1
102
RTVSPost2010Prop47
 90
       50
102
RTVSPost2010PropOp47
 70
     1
102
RTVSPost2010Prop48
 90
       50
102
RTVSPost2010PropOp48
 70
     1
102
RTVSPost2010Prop49
280
     0
102
RTVSPost2010PropOp49
 70
     1
102
RTVSPost2010Prop50
 90
       50
102
RTVSPost2010PropOp50
 70
     1
102
RTVSPost2010Prop51ColorIndex
 90
      256
102
RTVSPost2010Prop51ColorRGB
 90
-16777216
102
RTVSPost2010PropOp51
 70
     0
102
RTVSPost2010Prop52
140
1.0
102
RTVSPost2010PropOp52
 70
     0
102
RTVSPost2010Prop53
 90
        2
102
RTVSPost2010PropOp53
 70
     1
102
RTVSPost2010Prop54
  1
strokes_ogs.tif
102
RTVSPost2010PropOp54
 70
     1
102
RTVSPost2010Prop55
280
     0
102
RTVSPost2010PropOp55
 70
     1
102
RTVSPost2010Prop56
140
1.0
102
RTVSPost2010PropOp56
 70
     1
102
RTVSPost2010Prop57
140
1.0
102
RTVSPost2010PropOp57
 70
     1
102
RTVSPropertyOp0
 70
     1
102
RTVSPropertyOp1
 70
     1
102
RTVSPropertyOp2
 70
     1
102
RTVSPropertyOp3
 70
     1
102
RTVSPropertyOp4
 70
     1
102
RTVSPropertyOp5
 70
     1
102
RTVSPropertyOp6
 70
     1
102
RTVSPropertyOp7
 70
     1
102
RTVSPropertyOp8
 70
     1
102
RTVSPropertyOp9
 70
     1
102
RTVSPropertyOp10
 70
     1
102
RTVSPropertyOp11
 70
     1
102
RTVSPropertyOp12
 70
     1
102
RTVSPropertyOp13
 70
     1
102
RTVSPropertyOp14
 70
     1
102
RTVSPropertyOp15
 70
     1
102
RTVSPropertyOp16
 70
     1
102
RTVSPropertyOp17
 70
     1
102
RTVSPropertyOp18
 70
     1
102
RTVSPropertyOp19
 70
     1
102
RTVSPropertyOp20
 70
     1
102
RTVSPropertyOp21
 70
     1
102
RTVSPropertyOp22
 70
     1
102
RTVSPropertyOp23
 70
     1
102
RTVSPropertyOp24
 70
     1
102
RTVSPropertyOp25
 70
     1
102
RTVSPropertyOp26
 70
     1
102
RTVSPropertyOp27
 70
     1
102
RTVSPropertyOp28
 70
     1
102
RTVSPropertyOp29
 70
     1
102
RTVSPropertyOp30
 70
     1
102
RTVSPropertyOp31
 70
     1
102
RTVSPropertyOp32
 70
     1
102
RTVSPropertyOp33
 70
     1
102
RTVSPropertyOp34
 70
     1
102
RTVSPropertyOp35
 70
     1
102
RTVSPropertyOp36
 70
     1
102
RTVSPropertyOp37
 70
     1
102
RTVSPropertyOp38
 70
     1
102
RTVSPropertyOp39
 70
     1
102
RTVSPropertyOp40
 70
     1
102
RTVSPropertyOp41
 70
     1
102
RTVSPropertyOp42
 70
     1
102
RTVSPropertyOp43
 70
     1
102
RTVSPropertyOp44
 70
     1
102
RTVSPropertyOp45
 70
     1
102
RTVSPropertyOp46
 70
     1
102
RTVSPropertyOp47
 70
     1
102
RTVSPropertyOp48
 70
     1
102
RTVSPropertyOp49
 70
     1
102
RTVSPropertyOp50
 70
     1
102
RTVSPropertyOp51
 70
     0
102
RTVSPropertyOp52
 70
     0
102
RTVSPropertyOp53
 70
     1
102
RTVSPropertyOp54
 70
     1
102
RTVSPropertyOp55
 70
     1
102
RTVSPropertyOp56
 70
     1
102
RTVSPropertyOp57
 70
     1
102
RTVSPropertyOp58
 70
     1
102
RTVSPropertyOp59
 70
     1
102
RTVSPropertyOp60
 70
     1
102
RTVSPropertyOp61
 70
     1
102
RTVSPropertyOp62
 70
     1
  0
XRECORD
  5
3CAD
102
{ACAD_REACTORS
330
3CAC
102
}
330
3CAC
100
AcDbXrecord
280
     1
102
RTVSPost2010Prop28
280
     0
102
RTVSPost2010PropOp28
 70
     1
102
RTVSPost2010Prop29
280
     1
102
RTVSPost2010PropOp29
 70
     1
102
RTVSPost2010Prop30
280
     1
102
RTVSPost2010PropOp30
 70
     1
102
RTVSPost2010Prop31
280
     0
102
RTVSPost2010PropOp31
 70
     1
102
RTVSPost2010Prop32
280
     0
102
RTVSPost2010PropOp32
 70
     1
102
RTVSPost2010Prop33
280
     0
102
RTVSPost2010PropOp33
 70
     1
102
RTVSPost2010Prop34
280
     0
102
RTVSPost2010PropOp34
 70
     1
102
RTVSPost2010Prop35
280
     0
102
RTVSPost2010PropOp35
 70
     1
102
RTVSPost2010Prop36
280
     0
102
RTVSPost2010PropOp36
 70
     1
102
RTVSPost2010Prop37
 90
       50
102
RTVSPost2010PropOp37
 70
     0
102
RTVSPost2010Prop38
140
0.0
102
RTVSPost2010PropOp38
 70
     0
102
RTVSPost2010Prop39
140
1.0
102
RTVSPost2010PropOp39
 70
     0
102
RTVSPost2010Prop40
 90
        0
102
RTVSPost2010PropOp40
 70
     0
102
RTVSPost2010Prop41ColorIndex
 90
       18
102
RTVSPost2010Prop41ColorRGB
 90
        0
102
RTVSPost2010PropOp41
 70
     0
102
RTVSPost2010Prop42
 90
       50
102
RTVSPost2010PropOp42
 70
     0
102
RTVSPost2010Prop43
 90
        3
102
RTVSPost2010PropOp43
 70
     0
102
RTVSPost2010Prop44ColorIndex
 90
        5
102
RTVSPost2010Prop44ColorRGB
 90
      255
102
RTVSPost2010PropOp44
 70
     0
102
RTVSPost2010Prop45
280
     0
102
RTVSPost2010PropOp45
 70
     1
102
RTVSPost2010Prop46
 90
       50
102
RTVSPost2010PropOp46
 70
     0
102
RTVSPost2010Prop47
 90
       50
102
RTVSPost2010PropOp47
 70
     0
102
RTVSPost2010Prop48
 90
       50
102
RTVSPost2010PropOp48
 70
     0
102
RTVSPost2010Prop49
280
     0
102
RTVSPost2010PropOp49
 70
     1
102
RTVSPost2010Prop50
 90
       50
102
RTVSPost2010PropOp50
 70
     0
102
RTVSPost2010Prop51ColorIndex
 90
      256
102
RTVSPost2010Prop51ColorRGB
 90
-16777216
102
RTVSPost2010PropOp51
 70
     0
102
RTVSPost2010Prop52
140
1.0
102
RTVSPost2010PropOp52
 70
     0
102
RTVSPost2010Prop53
 90
        2
102
RTVSPost2010PropOp53
 70
     0
102
RTVSPost2010Prop54
  1
strokes_ogs.tif
102
RTVSPost2010PropOp54
 70
     0
102
RTVSPost2010Prop55
280
     0
102
RTVSPost2010PropOp55
 70
     1
102
RTVSPost2010Prop56
140
1.0
102
RTVSPost2010PropOp56
 70
     0
102
RTVSPost2010Prop57
140
1.0
102
RTVSPost2010PropOp57
 70
     0
102
RTVSPropertyOp0
 70
     0
102
RTVSPropertyOp1
 70
     0
102
RTVSPropertyOp2
 70
     0
102
RTVSPropertyOp3
 70
     0
102
RTVSPropertyOp4
 70
     0
102
RTVSPropertyOp5
 70
     0
102
RTVSPropertyOp6
 70
     0
102
RTVSPropertyOp7
 70
     0
102
RTVSPropertyOp8
 70
     0
102
RTVSPropertyOp9
 70
     0
102
RTVSPropertyOp10
 70
     0
102
RTVSPropertyOp11
 70
     0
102
RTVSPropertyOp12
 70
     0
102
RTVSPropertyOp13
 70
     0
102
RTVSPropertyOp14
 70
     2
102
RTVSPropertyOp15
 70
     0
102
RTVSPropertyOp16
 70
     0
102
RTVSPropertyOp17
 70
     0
102
RTVSPropertyOp18
 70
     0
102
RTVSPropertyOp19
 70
     0
102
RTVSPropertyOp20
 70
     0
102
RTVSPropertyOp21
 70
     0
102
RTVSPropertyOp22
 70
     0
102
RTVSPropertyOp23
 70
     0
102
RTVSPropertyOp24
 70
     0
102
RTVSPropertyOp25
 70
     0
102
RTVSPropertyOp26
 70
     0
102
RTVSPropertyOp27
 70
     0
102
RTVSPropertyOp28
 70
     1
102
RTVSPropertyOp29
 70
     1
102
RTVSPropertyOp30
 70
     1
102
RTVSPropertyOp31
 70
     1
102
RTVSPropertyOp32
 70
     1
102
RTVSPropertyOp33
 70
     1
102
RTVSPropertyOp34
 70
     1
102
RTVSPropertyOp35
 70
     1
102
RTVSPropertyOp36
 70
     1
102
RTVSPropertyOp37
 70
     0
102
RTVSPropertyOp38
 70
     0
102
RTVSPropertyOp39
 70
     0
102
RTVSPropertyOp40
 70
     0
102
RTVSPropertyOp41
 70
     0
102
RTVSPropertyOp42
 70
     0
102
RTVSPropertyOp43
 70
     0
102
RTVSPropertyOp44
 70
     0
102
RTVSPropertyOp45
 70
     1
102
RTVSPropertyOp46
 70
     0
102
RTVSPropertyOp47
 70
     0
102
RTVSPropertyOp48
 70
     0
102
RTVSPropertyOp49
 70
     1
102
RTVSPropertyOp50
 70
     0
102
RTVSPropertyOp51
 70
     0
102
RTVSPropertyOp52
 70
     0
102
RTVSPropertyOp53
 70
     0
102
RTVSPropertyOp54
 70
     0
102
RTVSPropertyOp55
 70
     1
102
RTVSPropertyOp56
 70
     0
102
RTVSPropertyOp57
 70
     0
102
RTVSPropertyOp58
 70
     0
102
RTVSPropertyOp59
 70
     0
102
RTVSPropertyOp60
 70
     0
102
RTVSPropertyOp61
 70
     0
102
RTVSPropertyOp62
 70
     0
  0
XRECORD
  5
3C93
102
{ACAD_REACTORS
330
3C92
102
}
330
3C92
100
AcDbXrecord
280
     1
102
RTVSPost2010Prop28
280
     0
102
RTVSPost2010PropOp28
 70
     1
102
RTVSPost2010Prop29
280
     1
102
RTVSPost2010PropOp29
 70
     1
102
RTVSPost2010Prop30
280
     1
102
RTVSPost2010PropOp30
 70
     1
102
RTVSPost2010Prop31
280
     0
102
RTVSPost2010PropOp31
 70
     1
102
RTVSPost2010Prop32
280
     0
102
RTVSPost2010PropOp32
 70
     1
102
RTVSPost2010Prop33
280
     0
102
RTVSPost2010PropOp33
 70
     1
102
RTVSPost2010Prop34
280
     0
102
RTVSPost2010PropOp34
 70
     1
102
RTVSPost2010Prop35
280
     0
102
RTVSPost2010PropOp35
 70
     1
102
RTVSPost2010Prop36
280
     0
102
RTVSPost2010PropOp36
 70
     1
102
RTVSPost2010Prop37
 90
       50
102
RTVSPost2010PropOp37
 70
     1
102
RTVSPost2010Prop38
140
0.0
102
RTVSPost2010PropOp38
 70
     1
102
RTVSPost2010Prop39
140
1.0
102
RTVSPost2010PropOp39
 70
     1
102
RTVSPost2010Prop40
 90
        0
102
RTVSPost2010PropOp40
 70
     1
102
RTVSPost2010Prop41ColorIndex
 90
       18
102
RTVSPost2010Prop41ColorRGB
 90
        0
102
RTVSPost2010PropOp41
 70
     1
102
RTVSPost2010Prop42
 90
       50
102
RTVSPost2010PropOp42
 70
     1
102
RTVSPost2010Prop43
 90
        3
102
RTVSPost2010PropOp43
 70
     1
102
RTVSPost2010Prop44ColorIndex
 90
        5
102
RTVSPost2010Prop44ColorRGB
 90
      255
102
RTVSPost2010PropOp44
 70
     1
102
RTVSPost2010Prop45
280
     0
102
RTVSPost2010PropOp45
 70
     1
102
RTVSPost2010Prop46
 90
       50
102
RTVSPost2010PropOp46
 70
     1
102
RTVSPost2010Prop47
 90
       50
102
RTVSPost2010PropOp47
 70
     1
102
RTVSPost2010Prop48
 90
       50
102
RTVSPost2010PropOp48
 70
     1
102
RTVSPost2010Prop49
280
     0
102
RTVSPost2010PropOp49
 70
     1
102
RTVSPost2010Prop50
 90
       50
102
RTVSPost2010PropOp50
 70
     1
102
RTVSPost2010Prop51ColorIndex
 90
      256
102
RTVSPost2010Prop51ColorRGB
 90
-16777216
102
RTVSPost2010PropOp51
 70
     0
102
RTVSPost2010Prop52
140
1.0
102
RTVSPost2010PropOp52
 70
     0
102
RTVSPost2010Prop53
 90
        2
102
RTVSPost2010PropOp53
 70
     1
102
RTVSPost2010Prop54
  1
strokes_ogs.tif
102
RTVSPost2010PropOp54
 70
     1
102
RTVSPost2010Prop55
280
     0
102
RTVSPost2010PropOp55
 70
     1
102
RTVSPost2010Prop56
140
1.0
102
RTVSPost2010PropOp56
 70
     1
102
RTVSPost2010Prop57
140
1.0
102
RTVSPost2010PropOp57
 70
     1
102
RTVSPropertyOp0
 70
     1
102
RTVSPropertyOp1
 70
     1
102
RTVSPropertyOp2
 70
     1
102
RTVSPropertyOp3
 70
     1
102
RTVSPropertyOp4
 70
     1
102
RTVSPropertyOp5
 70
     1
102
RTVSPropertyOp6
 70
     1
102
RTVSPropertyOp7
 70
     1
102
RTVSPropertyOp8
 70
     1
102
RTVSPropertyOp9
 70
     1
102
RTVSPropertyOp10
 70
     1
102
RTVSPropertyOp11
 70
     1
102
RTVSPropertyOp12
 70
     1
102
RTVSPropertyOp13
 70
     1
102
RTVSPropertyOp14
 70
     1
102
RTVSPropertyOp15
 70
     1
102
RTVSPropertyOp16
 70
     1
102
RTVSPropertyOp17
 70
     1
102
RTVSPropertyOp18
 70
     1
102
RTVSPropertyOp19
 70
     1
102
RTVSPropertyOp20
 70
     1
102
RTVSPropertyOp21
 70
     1
102
RTVSPropertyOp22
 70
     1
102
RTVSPropertyOp23
 70
     1
102
RTVSPropertyOp24
 70
     1
102
RTVSPropertyOp25
 70
     1
102
RTVSPropertyOp26
 70
     1
102
RTVSPropertyOp27
 70
     1
102
RTVSPropertyOp28
 70
     1
102
RTVSPropertyOp29
 70
     1
102
RTVSPropertyOp30
 70
     1
102
RTVSPropertyOp31
 70
     1
102
RTVSPropertyOp32
 70
     1
102
RTVSPropertyOp33
 70
     1
102
RTVSPropertyOp34
 70
     1
102
RTVSPropertyOp35
 70
     1
102
RTVSPropertyOp36
 70
     1
102
RTVSPropertyOp37
 70
     1
102
RTVSPropertyOp38
 70
     1
102
RTVSPropertyOp39
 70
     1
102
RTVSPropertyOp40
 70
     1
102
RTVSPropertyOp41
 70
     1
102
RTVSPropertyOp42
 70
     1
102
RTVSPropertyOp43
 70
     1
102
RTVSPropertyOp44
 70
     1
102
RTVSPropertyOp45
 70
     1
102
RTVSPropertyOp46
 70
     1
102
RTVSPropertyOp47
 70
     1
102
RTVSPropertyOp48
 70
     1
102
RTVSPropertyOp49
 70
     1
102
RTVSPropertyOp50
 70
     1
102
RTVSPropertyOp51
 70
     0
102
RTVSPropertyOp52
 70
     0
102
RTVSPropertyOp53
 70
     1
102
RTVSPropertyOp54
 70
     1
102
RTVSPropertyOp55
 70
     1
102
RTVSPropertyOp56
 70
     1
102
RTVSPropertyOp57
 70
     1
102
RTVSPropertyOp58
 70
     1
102
RTVSPropertyOp59
 70
     1
102
RTVSPropertyOp60
 70
     1
102
RTVSPropertyOp61
 70
     1
102
RTVSPropertyOp62
 70
     1
  0
XRECORD
  5
3CA9
102
{ACAD_REACTORS
330
3CA8
102
}
330
3CA8
100
AcDbXrecord
280
     1
102
RTVSPost2010Prop28
280
     0
102
RTVSPost2010PropOp28
 70
     1
102
RTVSPost2010Prop29
280
     1
102
RTVSPost2010PropOp29
 70
     1
102
RTVSPost2010Prop30
280
     1
102
RTVSPost2010PropOp30
 70
     1
102
RTVSPost2010Prop31
280
     0
102
RTVSPost2010PropOp31
 70
     1
102
RTVSPost2010Prop32
280
     0
102
RTVSPost2010PropOp32
 70
     1
102
RTVSPost2010Prop33
280
     0
102
RTVSPost2010PropOp33
 70
     1
102
RTVSPost2010Prop34
280
     0
102
RTVSPost2010PropOp34
 70
     1
102
RTVSPost2010Prop35
280
     0
102
RTVSPost2010PropOp35
 70
     1
102
RTVSPost2010Prop36
280
     0
102
RTVSPost2010PropOp36
 70
     1
102
RTVSPost2010Prop37
 90
       50
102
RTVSPost2010PropOp37
 70
     1
102
RTVSPost2010Prop38
140
0.0
102
RTVSPost2010PropOp38
 70
     1
102
RTVSPost2010Prop39
140
1.0
102
RTVSPost2010PropOp39
 70
     1
102
RTVSPost2010Prop40
 90
        0
102
RTVSPost2010PropOp40
 70
     1
102
RTVSPost2010Prop41ColorIndex
 90
       18
102
RTVSPost2010Prop41ColorRGB
 90
        0
102
RTVSPost2010PropOp41
 70
     1
102
RTVSPost2010Prop42
 90
       50
102
RTVSPost2010PropOp42
 70
     1
102
RTVSPost2010Prop43
 90
        3
102
RTVSPost2010PropOp43
 70
     1
102
RTVSPost2010Prop44ColorIndex
 90
        5
102
RTVSPost2010Prop44ColorRGB
 90
      255
102
RTVSPost2010PropOp44
 70
     1
102
RTVSPost2010Prop45
280
     0
102
RTVSPost2010PropOp45
 70
     1
102
RTVSPost2010Prop46
 90
       50
102
RTVSPost2010PropOp46
 70
     1
102
RTVSPost2010Prop47
 90
       50
102
RTVSPost2010PropOp47
 70
     1
102
RTVSPost2010Prop48
 90
       50
102
RTVSPost2010PropOp48
 70
     1
102
RTVSPost2010Prop49
280
     0
102
RTVSPost2010PropOp49
 70
     1
102
RTVSPost2010Prop50
 90
       50
102
RTVSPost2010PropOp50
 70
     1
102
RTVSPost2010Prop51ColorIndex
 90
      256
102
RTVSPost2010Prop51ColorRGB
 90
-16777216
102
RTVSPost2010PropOp51
 70
     0
102
RTVSPost2010Prop52
140
1.0
102
RTVSPost2010PropOp52
 70
     0
102
RTVSPost2010Prop53
 90
        2
102
RTVSPost2010PropOp53
 70
     1
102
RTVSPost2010Prop54
  1
strokes_ogs.tif
102
RTVSPost2010PropOp54
 70
     1
102
RTVSPost2010Prop55
280
     0
102
RTVSPost2010PropOp55
 70
     1
102
RTVSPost2010Prop56
140
1.0
102
RTVSPost2010PropOp56
 70
     1
102
RTVSPost2010Prop57
140
1.0
102
RTVSPost2010PropOp57
 70
     1
102
RTVSPropertyOp0
 70
     1
102
RTVSPropertyOp1
 70
     1
102
RTVSPropertyOp2
 70
     1
102
RTVSPropertyOp3
 70
     1
102
RTVSPropertyOp4
 70
     1
102
RTVSPropertyOp5
 70
     1
102
RTVSPropertyOp6
 70
     1
102
RTVSPropertyOp7
 70
     1
102
RTVSPropertyOp8
 70
     1
102
RTVSPropertyOp9
 70
     1
102
RTVSPropertyOp10
 70
     1
102
RTVSPropertyOp11
 70
     1
102
RTVSPropertyOp12
 70
     1
102
RTVSPropertyOp13
 70
     1
102
RTVSPropertyOp14
 70
     1
102
RTVSPropertyOp15
 70
     1
102
RTVSPropertyOp16
 70
     1
102
RTVSPropertyOp17
 70
     1
102
RTVSPropertyOp18
 70
     1
102
RTVSPropertyOp19
 70
     1
102
RTVSPropertyOp20
 70
     1
102
RTVSPropertyOp21
 70
     1
102
RTVSPropertyOp22
 70
     1
102
RTVSPropertyOp23
 70
     1
102
RTVSPropertyOp24
 70
     1
102
RTVSPropertyOp25
 70
     1
102
RTVSPropertyOp26
 70
     1
102
RTVSPropertyOp27
 70
     1
102
RTVSPropertyOp28
 70
     1
102
RTVSPropertyOp29
 70
     1
102
RTVSPropertyOp30
 70
     1
102
RTVSPropertyOp31
 70
     1
102
RTVSPropertyOp32
 70
     1
102
RTVSPropertyOp33
 70
     1
102
RTVSPropertyOp34
 70
     1
102
RTVSPropertyOp35
 70
     1
102
RTVSPropertyOp36
 70
     1
102
RTVSPropertyOp37
 70
     1
102
RTVSPropertyOp38
 70
     1
102
RTVSPropertyOp39
 70
     1
102
RTVSPropertyOp40
 70
     1
102
RTVSPropertyOp41
 70
     1
102
RTVSPropertyOp42
 70
     1
102
RTVSPropertyOp43
 70
     1
102
RTVSPropertyOp44
 70
     1
102
RTVSPropertyOp45
 70
     1
102
RTVSPropertyOp46
 70
     1
102
RTVSPropertyOp47
 70
     1
102
RTVSPropertyOp48
 70
     1
102
RTVSPropertyOp49
 70
     1
102
RTVSPropertyOp50
 70
     1
102
RTVSPropertyOp51
 70
     0
102
RTVSPropertyOp52
 70
     0
102
RTVSPropertyOp53
 70
     1
102
RTVSPropertyOp54
 70
     1
102
RTVSPropertyOp55
 70
     1
102
RTVSPropertyOp56
 70
     1
102
RTVSPropertyOp57
 70
     1
102
RTVSPropertyOp58
 70
     1
102
RTVSPropertyOp59
 70
     1
102
RTVSPropertyOp60
 70
     1
102
RTVSPropertyOp61
 70
     1
102
RTVSPropertyOp62
 70
     1
  0
XRECORD
  5
3CA7
102
{ACAD_REACTORS
330
3CA6
102
}
330
3CA6
100
AcDbXrecord
280
     1
102
RTVSPost2010Prop28
280
     0
102
RTVSPost2010PropOp28
 70
     1
102
RTVSPost2010Prop29
280
     1
102
RTVSPost2010PropOp29
 70
     1
102
RTVSPost2010Prop30
280
     1
102
RTVSPost2010PropOp30
 70
     1
102
RTVSPost2010Prop31
280
     0
102
RTVSPost2010PropOp31
 70
     1
102
RTVSPost2010Prop32
280
     0
102
RTVSPost2010PropOp32
 70
     1
102
RTVSPost2010Prop33
280
     0
102
RTVSPost2010PropOp33
 70
     1
102
RTVSPost2010Prop34
280
     0
102
RTVSPost2010PropOp34
 70
     1
102
RTVSPost2010Prop35
280
     0
102
RTVSPost2010PropOp35
 70
     1
102
RTVSPost2010Prop36
280
     0
102
RTVSPost2010PropOp36
 70
     1
102
RTVSPost2010Prop37
 90
       50
102
RTVSPost2010PropOp37
 70
     1
102
RTVSPost2010Prop38
140
0.0
102
RTVSPost2010PropOp38
 70
     1
102
RTVSPost2010Prop39
140
1.0
102
RTVSPost2010PropOp39
 70
     1
102
RTVSPost2010Prop40
 90
        0
102
RTVSPost2010PropOp40
 70
     1
102
RTVSPost2010Prop41ColorIndex
 90
       18
102
RTVSPost2010Prop41ColorRGB
 90
        0
102
RTVSPost2010PropOp41
 70
     1
102
RTVSPost2010Prop42
 90
       50
102
RTVSPost2010PropOp42
 70
     1
102
RTVSPost2010Prop43
 90
        3
102
RTVSPost2010PropOp43
 70
     1
102
RTVSPost2010Prop44ColorIndex
 90
        5
102
RTVSPost2010Prop44ColorRGB
 90
      255
102
RTVSPost2010PropOp44
 70
     1
102
RTVSPost2010Prop45
280
     0
102
RTVSPost2010PropOp45
 70
     1
102
RTVSPost2010Prop46
 90
       50
102
RTVSPost2010PropOp46
 70
     1
102
RTVSPost2010Prop47
 90
       50
102
RTVSPost2010PropOp47
 70
     1
102
RTVSPost2010Prop48
 90
       50
102
RTVSPost2010PropOp48
 70
     1
102
RTVSPost2010Prop49
280
     0
102
RTVSPost2010PropOp49
 70
     1
102
RTVSPost2010Prop50
 90
       50
102
RTVSPost2010PropOp50
 70
     1
102
RTVSPost2010Prop51ColorIndex
 90
      256
102
RTVSPost2010Prop51ColorRGB
 90
-16777216
102
RTVSPost2010PropOp51
 70
     0
102
RTVSPost2010Prop52
140
1.0
102
RTVSPost2010PropOp52
 70
     0
102
RTVSPost2010Prop53
 90
        2
102
RTVSPost2010PropOp53
 70
     1
102
RTVSPost2010Prop54
  1
strokes_ogs.tif
102
RTVSPost2010PropOp54
 70
     1
102
RTVSPost2010Prop55
280
     0
102
RTVSPost2010PropOp55
 70
     1
102
RTVSPost2010Prop56
140
1.0
102
RTVSPost2010PropOp56
 70
     1
102
RTVSPost2010Prop57
140
1.0
102
RTVSPost2010PropOp57
 70
     1
102
RTVSPropertyOp0
 70
     1
102
RTVSPropertyOp1
 70
     1
102
RTVSPropertyOp2
 70
     1
102
RTVSPropertyOp3
 70
     1
102
RTVSPropertyOp4
 70
     1
102
RTVSPropertyOp5
 70
     1
102
RTVSPropertyOp6
 70
     1
102
RTVSPropertyOp7
 70
     1
102
RTVSPropertyOp8
 70
     1
102
RTVSPropertyOp9
 70
     1
102
RTVSPropertyOp10
 70
     1
102
RTVSPropertyOp11
 70
     1
102
RTVSPropertyOp12
 70
     1
102
RTVSPropertyOp13
 70
     1
102
RTVSPropertyOp14
 70
     1
102
RTVSPropertyOp15
 70
     1
102
RTVSPropertyOp16
 70
     1
102
RTVSPropertyOp17
 70
     1
102
RTVSPropertyOp18
 70
     1
102
RTVSPropertyOp19
 70
     1
102
RTVSPropertyOp20
 70
     1
102
RTVSPropertyOp21
 70
     1
102
RTVSPropertyOp22
 70
     1
102
RTVSPropertyOp23
 70
     1
102
RTVSPropertyOp24
 70
     1
102
RTVSPropertyOp25
 70
     1
102
RTVSPropertyOp26
 70
     1
102
RTVSPropertyOp27
 70
     1
102
RTVSPropertyOp28
 70
     1
102
RTVSPropertyOp29
 70
     1
102
RTVSPropertyOp30
 70
     1
102
RTVSPropertyOp31
 70
     1
102
RTVSPropertyOp32
 70
     1
102
RTVSPropertyOp33
 70
     1
102
RTVSPropertyOp34
 70
     1
102
RTVSPropertyOp35
 70
     1
102
RTVSPropertyOp36
 70
     1
102
RTVSPropertyOp37
 70
     1
102
RTVSPropertyOp38
 70
     1
102
RTVSPropertyOp39
 70
     1
102
RTVSPropertyOp40
 70
     1
102
RTVSPropertyOp41
 70
     1
102
RTVSPropertyOp42
 70
     1
102
RTVSPropertyOp43
 70
     1
102
RTVSPropertyOp44
 70
     1
102
RTVSPropertyOp45
 70
     1
102
RTVSPropertyOp46
 70
     1
102
RTVSPropertyOp47
 70
     1
102
RTVSPropertyOp48
 70
     1
102
RTVSPropertyOp49
 70
     1
102
RTVSPropertyOp50
 70
     1
102
RTVSPropertyOp51
 70
     0
102
RTVSPropertyOp52
 70
     0
102
RTVSPropertyOp53
 70
     1
102
RTVSPropertyOp54
 70
     1
102
RTVSPropertyOp55
 70
     1
102
RTVSPropertyOp56
 70
     1
102
RTVSPropertyOp57
 70
     1
102
RTVSPropertyOp58
 70
     1
102
RTVSPropertyOp59
 70
     1
102
RTVSPropertyOp60
 70
     1
102
RTVSPropertyOp61
 70
     1
102
RTVSPropertyOp62
 70
     1
  0
XRECORD
  5
3CA1
102
{ACAD_REACTORS
330
3CA0
102
}
330
3CA0
100
AcDbXrecord
280
     1
102
RTVSPost2010Prop28
280
     0
102
RTVSPost2010PropOp28
 70
     1
102
RTVSPost2010Prop29
280
     1
102
RTVSPost2010PropOp29
 70
     1
102
RTVSPost2010Prop30
280
     1
102
RTVSPost2010PropOp30
 70
     1
102
RTVSPost2010Prop31
280
     0
102
RTVSPost2010PropOp31
 70
     1
102
RTVSPost2010Prop32
280
     0
102
RTVSPost2010PropOp32
 70
     1
102
RTVSPost2010Prop33
280
     0
102
RTVSPost2010PropOp33
 70
     1
102
RTVSPost2010Prop34
280
     0
102
RTVSPost2010PropOp34
 70
     1
102
RTVSPost2010Prop35
280
     0
102
RTVSPost2010PropOp35
 70
     1
102
RTVSPost2010Prop36
280
     0
102
RTVSPost2010PropOp36
 70
     1
102
RTVSPost2010Prop37
 90
       50
102
RTVSPost2010PropOp37
 70
     1
102
RTVSPost2010Prop38
140
0.0
102
RTVSPost2010PropOp38
 70
     1
102
RTVSPost2010Prop39
140
1.0
102
RTVSPost2010PropOp39
 70
     1
102
RTVSPost2010Prop40
 90
        0
102
RTVSPost2010PropOp40
 70
     1
102
RTVSPost2010Prop41ColorIndex
 90
       18
102
RTVSPost2010Prop41ColorRGB
 90
        0
102
RTVSPost2010PropOp41
 70
     1
102
RTVSPost2010Prop42
 90
       50
102
RTVSPost2010PropOp42
 70
     1
102
RTVSPost2010Prop43
 90
        3
102
RTVSPost2010PropOp43
 70
     1
102
RTVSPost2010Prop44ColorIndex
 90
        5
102
RTVSPost2010Prop44ColorRGB
 90
      255
102
RTVSPost2010PropOp44
 70
     1
102
RTVSPost2010Prop45
280
     0
102
RTVSPost2010PropOp45
 70
     1
102
RTVSPost2010Prop46
 90
       50
102
RTVSPost2010PropOp46
 70
     1
102
RTVSPost2010Prop47
 90
       50
102
RTVSPost2010PropOp47
 70
     1
102
RTVSPost2010Prop48
 90
       50
102
RTVSPost2010PropOp48
 70
     1
102
RTVSPost2010Prop49
280
     0
102
RTVSPost2010PropOp49
 70
     1
102
RTVSPost2010Prop50
 90
       50
102
RTVSPost2010PropOp50
 70
     1
102
RTVSPost2010Prop51ColorIndex
 90
      256
102
RTVSPost2010Prop51ColorRGB
 90
-16777216
102
RTVSPost2010PropOp51
 70
     0
102
RTVSPost2010Prop52
140
1.0
102
RTVSPost2010PropOp52
 70
     0
102
RTVSPost2010Prop53
 90
        2
102
RTVSPost2010PropOp53
 70
     1
102
RTVSPost2010Prop54
  1
strokes_ogs.tif
102
RTVSPost2010PropOp54
 70
     1
102
RTVSPost2010Prop55
280
     0
102
RTVSPost2010PropOp55
 70
     1
102
RTVSPost2010Prop56
140
1.0
102
RTVSPost2010PropOp56
 70
     1
102
RTVSPost2010Prop57
140
1.0
102
RTVSPost2010PropOp57
 70
     1
102
RTVSPropertyOp0
 70
     1
102
RTVSPropertyOp1
 70
     1
102
RTVSPropertyOp2
 70
     1
102
RTVSPropertyOp3
 70
     1
102
RTVSPropertyOp4
 70
     1
102
RTVSPropertyOp5
 70
     1
102
RTVSPropertyOp6
 70
     1
102
RTVSPropertyOp7
 70
     1
102
RTVSPropertyOp8
 70
     1
102
RTVSPropertyOp9
 70
     1
102
RTVSPropertyOp10
 70
     1
102
RTVSPropertyOp11
 70
     1
102
RTVSPropertyOp12
 70
     1
102
RTVSPropertyOp13
 70
     1
102
RTVSPropertyOp14
 70
     1
102
RTVSPropertyOp15
 70
     1
102
RTVSPropertyOp16
 70
     1
102
RTVSPropertyOp17
 70
     1
102
RTVSPropertyOp18
 70
     1
102
RTVSPropertyOp19
 70
     1
102
RTVSPropertyOp20
 70
     1
102
RTVSPropertyOp21
 70
     1
102
RTVSPropertyOp22
 70
     1
102
RTVSPropertyOp23
 70
     1
102
RTVSPropertyOp24
 70
     1
102
RTVSPropertyOp25
 70
     1
102
RTVSPropertyOp26
 70
     1
102
RTVSPropertyOp27
 70
     1
102
RTVSPropertyOp28
 70
     1
102
RTVSPropertyOp29
 70
     1
102
RTVSPropertyOp30
 70
     1
102
RTVSPropertyOp31
 70
     1
102
RTVSPropertyOp32
 70
     1
102
RTVSPropertyOp33
 70
     1
102
RTVSPropertyOp34
 70
     1
102
RTVSPropertyOp35
 70
     1
102
RTVSPropertyOp36
 70
     1
102
RTVSPropertyOp37
 70
     1
102
RTVSPropertyOp38
 70
     1
102
RTVSPropertyOp39
 70
     1
102
RTVSPropertyOp40
 70
     1
102
RTVSPropertyOp41
 70
     1
102
RTVSPropertyOp42
 70
     1
102
RTVSPropertyOp43
 70
     1
102
RTVSPropertyOp44
 70
     1
102
RTVSPropertyOp45
 70
     1
102
RTVSPropertyOp46
 70
     1
102
RTVSPropertyOp47
 70
     1
102
RTVSPropertyOp48
 70
     1
102
RTVSPropertyOp49
 70
     1
102
RTVSPropertyOp50
 70
     1
102
RTVSPropertyOp51
 70
     0
102
RTVSPropertyOp52
 70
     0
102
RTVSPropertyOp53
 70
     1
102
RTVSPropertyOp54
 70
     1
102
RTVSPropertyOp55
 70
     1
102
RTVSPropertyOp56
 70
     1
102
RTVSPropertyOp57
 70
     1
102
RTVSPropertyOp58
 70
     1
102
RTVSPropertyOp59
 70
     1
102
RTVSPropertyOp60
 70
     1
102
RTVSPropertyOp61
 70
     1
102
RTVSPropertyOp62
 70
     1
  0
XRECORD
  5
3CA3
102
{ACAD_REACTORS
330
3CA2
102
}
330
3CA2
100
AcDbXrecord
280
     1
102
RTVSPost2010Prop28
280
     0
102
RTVSPost2010PropOp28
 70
     1
102
RTVSPost2010Prop29
280
     1
102
RTVSPost2010PropOp29
 70
     1
102
RTVSPost2010Prop30
280
     1
102
RTVSPost2010PropOp30
 70
     1
102
RTVSPost2010Prop31
280
     0
102
RTVSPost2010PropOp31
 70
     1
102
RTVSPost2010Prop32
280
     0
102
RTVSPost2010PropOp32
 70
     1
102
RTVSPost2010Prop33
280
     0
102
RTVSPost2010PropOp33
 70
     1
102
RTVSPost2010Prop34
280
     0
102
RTVSPost2010PropOp34
 70
     1
102
RTVSPost2010Prop35
280
     0
102
RTVSPost2010PropOp35
 70
     1
102
RTVSPost2010Prop36
280
     0
102
RTVSPost2010PropOp36
 70
     1
102
RTVSPost2010Prop37
 90
       50
102
RTVSPost2010PropOp37
 70
     1
102
RTVSPost2010Prop38
140
0.0
102
RTVSPost2010PropOp38
 70
     1
102
RTVSPost2010Prop39
140
1.0
102
RTVSPost2010PropOp39
 70
     1
102
RTVSPost2010Prop40
 90
        0
102
RTVSPost2010PropOp40
 70
     1
102
RTVSPost2010Prop41ColorIndex
 90
       18
102
RTVSPost2010Prop41ColorRGB
 90
        0
102
RTVSPost2010PropOp41
 70
     1
102
RTVSPost2010Prop42
 90
       50
102
RTVSPost2010PropOp42
 70
     1
102
RTVSPost2010Prop43
 90
        3
102
RTVSPost2010PropOp43
 70
     1
102
RTVSPost2010Prop44ColorIndex
 90
        5
102
RTVSPost2010Prop44ColorRGB
 90
      255
102
RTVSPost2010PropOp44
 70
     1
102
RTVSPost2010Prop45
280
     0
102
RTVSPost2010PropOp45
 70
     1
102
RTVSPost2010Prop46
 90
       50
102
RTVSPost2010PropOp46
 70
     1
102
RTVSPost2010Prop47
 90
       50
102
RTVSPost2010PropOp47
 70
     1
102
RTVSPost2010Prop48
 90
       50
102
RTVSPost2010PropOp48
 70
     1
102
RTVSPost2010Prop49
280
     0
102
RTVSPost2010PropOp49
 70
     1
102
RTVSPost2010Prop50
 90
       50
102
RTVSPost2010PropOp50
 70
     1
102
RTVSPost2010Prop51ColorIndex
 90
      256
102
RTVSPost2010Prop51ColorRGB
 90
-16777216
102
RTVSPost2010PropOp51
 70
     0
102
RTVSPost2010Prop52
140
1.0
102
RTVSPost2010PropOp52
 70
     0
102
RTVSPost2010Prop53
 90
        2
102
RTVSPost2010PropOp53
 70
     1
102
RTVSPost2010Prop54
  1
strokes_ogs.tif
102
RTVSPost2010PropOp54
 70
     1
102
RTVSPost2010Prop55
280
     0
102
RTVSPost2010PropOp55
 70
     1
102
RTVSPost2010Prop56
140
1.0
102
RTVSPost2010PropOp56
 70
     1
102
RTVSPost2010Prop57
140
1.0
102
RTVSPost2010PropOp57
 70
     1
102
RTVSPropertyOp0
 70
     1
102
RTVSPropertyOp1
 70
     1
102
RTVSPropertyOp2
 70
     1
102
RTVSPropertyOp3
 70
     1
102
RTVSPropertyOp4
 70
     1
102
RTVSPropertyOp5
 70
     1
102
RTVSPropertyOp6
 70
     1
102
RTVSPropertyOp7
 70
     1
102
RTVSPropertyOp8
 70
     1
102
RTVSPropertyOp9
 70
     1
102
RTVSPropertyOp10
 70
     1
102
RTVSPropertyOp11
 70
     1
102
RTVSPropertyOp12
 70
     1
102
RTVSPropertyOp13
 70
     1
102
RTVSPropertyOp14
 70
     1
102
RTVSPropertyOp15
 70
     1
102
RTVSPropertyOp16
 70
     1
102
RTVSPropertyOp17
 70
     1
102
RTVSPropertyOp18
 70
     1
102
RTVSPropertyOp19
 70
     1
102
RTVSPropertyOp20
 70
     1
102
RTVSPropertyOp21
 70
     1
102
RTVSPropertyOp22
 70
     1
102
RTVSPropertyOp23
 70
     1
102
RTVSPropertyOp24
 70
     1
102
RTVSPropertyOp25
 70
     1
102
RTVSPropertyOp26
 70
     1
102
RTVSPropertyOp27
 70
     1
102
RTVSPropertyOp28
 70
     1
102
RTVSPropertyOp29
 70
     1
102
RTVSPropertyOp30
 70
     1
102
RTVSPropertyOp31
 70
     1
102
RTVSPropertyOp32
 70
     1
102
RTVSPropertyOp33
 70
     1
102
RTVSPropertyOp34
 70
     1
102
RTVSPropertyOp35
 70
     1
102
RTVSPropertyOp36
 70
     1
102
RTVSPropertyOp37
 70
     1
102
RTVSPropertyOp38
 70
     1
102
RTVSPropertyOp39
 70
     1
102
RTVSPropertyOp40
 70
     1
102
RTVSPropertyOp41
 70
     1
102
RTVSPropertyOp42
 70
     1
102
RTVSPropertyOp43
 70
     1
102
RTVSPropertyOp44
 70
     1
102
RTVSPropertyOp45
 70
     1
102
RTVSPropertyOp46
 70
     1
102
RTVSPropertyOp47
 70
     1
102
RTVSPropertyOp48
 70
     1
102
RTVSPropertyOp49
 70
     1
102
RTVSPropertyOp50
 70
     1
102
RTVSPropertyOp51
 70
     0
102
RTVSPropertyOp52
 70
     0
102
RTVSPropertyOp53
 70
     1
102
RTVSPropertyOp54
 70
     1
102
RTVSPropertyOp55
 70
     1
102
RTVSPropertyOp56
 70
     1
102
RTVSPropertyOp57
 70
     1
102
RTVSPropertyOp58
 70
     1
102
RTVSPropertyOp59
 70
     1
102
RTVSPropertyOp60
 70
     1
102
RTVSPropertyOp61
 70
     1
102
RTVSPropertyOp62
 70
     1
  0
XRECORD
  5
3C99
102
{ACAD_REACTORS
330
3C98
102
}
330
3C98
100
AcDbXrecord
280
     1
102
RTVSPost2010Prop28
280
     0
102
RTVSPost2010PropOp28
 70
     1
102
RTVSPost2010Prop29
280
     1
102
RTVSPost2010PropOp29
 70
     1
102
RTVSPost2010Prop30
280
     1
102
RTVSPost2010PropOp30
 70
     1
102
RTVSPost2010Prop31
280
     0
102
RTVSPost2010PropOp31
 70
     1
102
RTVSPost2010Prop32
280
     0
102
RTVSPost2010PropOp32
 70
     1
102
RTVSPost2010Prop33
280
     0
102
RTVSPost2010PropOp33
 70
     1
102
RTVSPost2010Prop34
280
     0
102
RTVSPost2010PropOp34
 70
     1
102
RTVSPost2010Prop35
280
     0
102
RTVSPost2010PropOp35
 70
     1
102
RTVSPost2010Prop36
280
     0
102
RTVSPost2010PropOp36
 70
     1
102
RTVSPost2010Prop37
 90
       50
102
RTVSPost2010PropOp37
 70
     1
102
RTVSPost2010Prop38
140
0.0
102
RTVSPost2010PropOp38
 70
     1
102
RTVSPost2010Prop39
140
1.0
102
RTVSPost2010PropOp39
 70
     1
102
RTVSPost2010Prop40
 90
        0
102
RTVSPost2010PropOp40
 70
     1
102
RTVSPost2010Prop41ColorIndex
 90
       18
102
RTVSPost2010Prop41ColorRGB
 90
        0
102
RTVSPost2010PropOp41
 70
     1
102
RTVSPost2010Prop42
 90
       50
102
RTVSPost2010PropOp42
 70
     1
102
RTVSPost2010Prop43
 90
        3
102
RTVSPost2010PropOp43
 70
     1
102
RTVSPost2010Prop44ColorIndex
 90
        5
102
RTVSPost2010Prop44ColorRGB
 90
      255
102
RTVSPost2010PropOp44
 70
     1
102
RTVSPost2010Prop45
280
     0
102
RTVSPost2010PropOp45
 70
     1
102
RTVSPost2010Prop46
 90
       50
102
RTVSPost2010PropOp46
 70
     1
102
RTVSPost2010Prop47
 90
       50
102
RTVSPost2010PropOp47
 70
     1
102
RTVSPost2010Prop48
 90
       50
102
RTVSPost2010PropOp48
 70
     1
102
RTVSPost2010Prop49
280
     0
102
RTVSPost2010PropOp49
 70
     1
102
RTVSPost2010Prop50
 90
       50
102
RTVSPost2010PropOp50
 70
     1
102
RTVSPost2010Prop51ColorIndex
 90
      256
102
RTVSPost2010Prop51ColorRGB
 90
-16777216
102
RTVSPost2010PropOp51
 70
     0
102
RTVSPost2010Prop52
140
1.0
102
RTVSPost2010PropOp52
 70
     0
102
RTVSPost2010Prop53
 90
        2
102
RTVSPost2010PropOp53
 70
     1
102
RTVSPost2010Prop54
  1
strokes_ogs.tif
102
RTVSPost2010PropOp54
 70
     1
102
RTVSPost2010Prop55
280
     0
102
RTVSPost2010PropOp55
 70
     1
102
RTVSPost2010Prop56
140
1.0
102
RTVSPost2010PropOp56
 70
     1
102
RTVSPost2010Prop57
140
1.0
102
RTVSPost2010PropOp57
 70
     1
102
RTVSPropertyOp0
 70
     1
102
RTVSPropertyOp1
 70
     1
102
RTVSPropertyOp2
 70
     1
102
RTVSPropertyOp3
 70
     1
102
RTVSPropertyOp4
 70
     1
102
RTVSPropertyOp5
 70
     1
102
RTVSPropertyOp6
 70
     1
102
RTVSPropertyOp7
 70
     1
102
RTVSPropertyOp8
 70
     1
102
RTVSPropertyOp9
 70
     1
102
RTVSPropertyOp10
 70
     1
102
RTVSPropertyOp11
 70
     1
102
RTVSPropertyOp12
 70
     1
102
RTVSPropertyOp13
 70
     1
102
RTVSPropertyOp14
 70
     1
102
RTVSPropertyOp15
 70
     1
102
RTVSPropertyOp16
 70
     1
102
RTVSPropertyOp17
 70
     1
102
RTVSPropertyOp18
 70
     1
102
RTVSPropertyOp19
 70
     1
102
RTVSPropertyOp20
 70
     1
102
RTVSPropertyOp21
 70
     1
102
RTVSPropertyOp22
 70
     1
102
RTVSPropertyOp23
 70
     1
102
RTVSPropertyOp24
 70
     1
102
RTVSPropertyOp25
 70
     1
102
RTVSPropertyOp26
 70
     1
102
RTVSPropertyOp27
 70
     1
102
RTVSPropertyOp28
 70
     1
102
RTVSPropertyOp29
 70
     1
102
RTVSPropertyOp30
 70
     1
102
RTVSPropertyOp31
 70
     1
102
RTVSPropertyOp32
 70
     1
102
RTVSPropertyOp33
 70
     1
102
RTVSPropertyOp34
 70
     1
102
RTVSPropertyOp35
 70
     1
102
RTVSPropertyOp36
 70
     1
102
RTVSPropertyOp37
 70
     1
102
RTVSPropertyOp38
 70
     1
102
RTVSPropertyOp39
 70
     1
102
RTVSPropertyOp40
 70
     1
102
RTVSPropertyOp41
 70
     1
102
RTVSPropertyOp42
 70
     1
102
RTVSPropertyOp43
 70
     1
102
RTVSPropertyOp44
 70
     1
102
RTVSPropertyOp45
 70
     1
102
RTVSPropertyOp46
 70
     1
102
RTVSPropertyOp47
 70
     1
102
RTVSPropertyOp48
 70
     1
102
RTVSPropertyOp49
 70
     1
102
RTVSPropertyOp50
 70
     1
102
RTVSPropertyOp51
 70
     0
102
RTVSPropertyOp52
 70
     0
102
RTVSPropertyOp53
 70
     1
102
RTVSPropertyOp54
 70
     1
102
RTVSPropertyOp55
 70
     1
102
RTVSPropertyOp56
 70
     1
102
RTVSPropertyOp57
 70
     1
102
RTVSPropertyOp58
 70
     1
102
RTVSPropertyOp59
 70
     1
102
RTVSPropertyOp60
 70
     1
102
RTVSPropertyOp61
 70
     1
102
RTVSPropertyOp62
 70
     1
  0
XRECORD
  5
3C8D
102
{ACAD_REACTORS
330
3C8C
102
}
330
3C8C
100
AcDbXrecord
280
     1
102
RTVSPost2010Prop28
280
     0
102
RTVSPost2010PropOp28
 70
     1
102
RTVSPost2010Prop29
280
     1
102
RTVSPost2010PropOp29
 70
     1
102
RTVSPost2010Prop30
280
     1
102
RTVSPost2010PropOp30
 70
     1
102
RTVSPost2010Prop31
280
     0
102
RTVSPost2010PropOp31
 70
     1
102
RTVSPost2010Prop32
280
     0
102
RTVSPost2010PropOp32
 70
     1
102
RTVSPost2010Prop33
280
     0
102
RTVSPost2010PropOp33
 70
     1
102
RTVSPost2010Prop34
280
     0
102
RTVSPost2010PropOp34
 70
     1
102
RTVSPost2010Prop35
280
     0
102
RTVSPost2010PropOp35
 70
     1
102
RTVSPost2010Prop36
280
     0
102
RTVSPost2010PropOp36
 70
     1
102
RTVSPost2010Prop37
 90
       50
102
RTVSPost2010PropOp37
 70
     1
102
RTVSPost2010Prop38
140
0.0
102
RTVSPost2010PropOp38
 70
     1
102
RTVSPost2010Prop39
140
1.0
102
RTVSPost2010PropOp39
 70
     1
102
RTVSPost2010Prop40
 90
        0
102
RTVSPost2010PropOp40
 70
     1
102
RTVSPost2010Prop41ColorIndex
 90
       18
102
RTVSPost2010Prop41ColorRGB
 90
        0
102
RTVSPost2010PropOp41
 70
     1
102
RTVSPost2010Prop42
 90
       50
102
RTVSPost2010PropOp42
 70
     1
102
RTVSPost2010Prop43
 90
        3
102
RTVSPost2010PropOp43
 70
     1
102
RTVSPost2010Prop44ColorIndex
 90
        5
102
RTVSPost2010Prop44ColorRGB
 90
      255
102
RTVSPost2010PropOp44
 70
     1
102
RTVSPost2010Prop45
280
     0
102
RTVSPost2010PropOp45
 70
     1
102
RTVSPost2010Prop46
 90
       50
102
RTVSPost2010PropOp46
 70
     1
102
RTVSPost2010Prop47
 90
       50
102
RTVSPost2010PropOp47
 70
     1
102
RTVSPost2010Prop48
 90
       50
102
RTVSPost2010PropOp48
 70
     1
102
RTVSPost2010Prop49
280
     0
102
RTVSPost2010PropOp49
 70
     1
102
RTVSPost2010Prop50
 90
       50
102
RTVSPost2010PropOp50
 70
     1
102
RTVSPost2010Prop51ColorIndex
 90
      256
102
RTVSPost2010Prop51ColorRGB
 90
-16777216
102
RTVSPost2010PropOp51
 70
     0
102
RTVSPost2010Prop52
140
1.0
102
RTVSPost2010PropOp52
 70
     0
102
RTVSPost2010Prop53
 90
        2
102
RTVSPost2010PropOp53
 70
     1
102
RTVSPost2010Prop54
  1
strokes_ogs.tif
102
RTVSPost2010PropOp54
 70
     1
102
RTVSPost2010Prop55
280
     0
102
RTVSPost2010PropOp55
 70
     1
102
RTVSPost2010Prop56
140
1.0
102
RTVSPost2010PropOp56
 70
     1
102
RTVSPost2010Prop57
140
1.0
102
RTVSPost2010PropOp57
 70
     1
102
RTVSPropertyOp0
 70
     1
102
RTVSPropertyOp1
 70
     1
102
RTVSPropertyOp2
 70
     1
102
RTVSPropertyOp3
 70
     1
102
RTVSPropertyOp4
 70
     1
102
RTVSPropertyOp5
 70
     1
102
RTVSPropertyOp6
 70
     1
102
RTVSPropertyOp7
 70
     1
102
RTVSPropertyOp8
 70
     1
102
RTVSPropertyOp9
 70
     1
102
RTVSPropertyOp10
 70
     1
102
RTVSPropertyOp11
 70
     1
102
RTVSPropertyOp12
 70
     1
102
RTVSPropertyOp13
 70
     1
102
RTVSPropertyOp14
 70
     1
102
RTVSPropertyOp15
 70
     1
102
RTVSPropertyOp16
 70
     1
102
RTVSPropertyOp17
 70
     1
102
RTVSPropertyOp18
 70
     1
102
RTVSPropertyOp19
 70
     1
102
RTVSPropertyOp20
 70
     1
102
RTVSPropertyOp21
 70
     1
102
RTVSPropertyOp22
 70
     1
102
RTVSPropertyOp23
 70
     1
102
RTVSPropertyOp24
 70
     1
102
RTVSPropertyOp25
 70
     1
102
RTVSPropertyOp26
 70
     1
102
RTVSPropertyOp27
 70
     1
102
RTVSPropertyOp28
 70
     1
102
RTVSPropertyOp29
 70
     1
102
RTVSPropertyOp30
 70
     1
102
RTVSPropertyOp31
 70
     1
102
RTVSPropertyOp32
 70
     1
102
RTVSPropertyOp33
 70
     1
102
RTVSPropertyOp34
 70
     1
102
RTVSPropertyOp35
 70
     1
102
RTVSPropertyOp36
 70
     1
102
RTVSPropertyOp37
 70
     1
102
RTVSPropertyOp38
 70
     1
102
RTVSPropertyOp39
 70
     1
102
RTVSPropertyOp40
 70
     1
102
RTVSPropertyOp41
 70
     1
102
RTVSPropertyOp42
 70
     1
102
RTVSPropertyOp43
 70
     1
102
RTVSPropertyOp44
 70
     1
102
RTVSPropertyOp45
 70
     1
102
RTVSPropertyOp46
 70
     1
102
RTVSPropertyOp47
 70
     1
102
RTVSPropertyOp48
 70
     1
102
RTVSPropertyOp49
 70
     1
102
RTVSPropertyOp50
 70
     1
102
RTVSPropertyOp51
 70
     0
102
RTVSPropertyOp52
 70
     0
102
RTVSPropertyOp53
 70
     1
102
RTVSPropertyOp54
 70
     1
102
RTVSPropertyOp55
 70
     1
102
RTVSPropertyOp56
 70
     1
102
RTVSPropertyOp57
 70
     1
102
RTVSPropertyOp58
 70
     1
102
RTVSPropertyOp59
 70
     1
102
RTVSPropertyOp60
 70
     1
102
RTVSPropertyOp61
 70
     1
102
RTVSPropertyOp62
 70
     1
  0
XRECORD
  5
3CA5
102
{ACAD_REACTORS
330
3CA4
102
}
330
3CA4
100
AcDbXrecord
280
     1
102
RTVSPost2010Prop28
280
     0
102
RTVSPost2010PropOp28
 70
     1
102
RTVSPost2010Prop29
280
     1
102
RTVSPost2010PropOp29
 70
     1
102
RTVSPost2010Prop30
280
     1
102
RTVSPost2010PropOp30
 70
     1
102
RTVSPost2010Prop31
280
     0
102
RTVSPost2010PropOp31
 70
     1
102
RTVSPost2010Prop32
280
     0
102
RTVSPost2010PropOp32
 70
     1
102
RTVSPost2010Prop33
280
     0
102
RTVSPost2010PropOp33
 70
     1
102
RTVSPost2010Prop34
280
     0
102
RTVSPost2010PropOp34
 70
     1
102
RTVSPost2010Prop35
280
     0
102
RTVSPost2010PropOp35
 70
     1
102
RTVSPost2010Prop36
280
     0
102
RTVSPost2010PropOp36
 70
     1
102
RTVSPost2010Prop37
 90
       50
102
RTVSPost2010PropOp37
 70
     1
102
RTVSPost2010Prop38
140
0.0
102
RTVSPost2010PropOp38
 70
     1
102
RTVSPost2010Prop39
140
1.0
102
RTVSPost2010PropOp39
 70
     1
102
RTVSPost2010Prop40
 90
        0
102
RTVSPost2010PropOp40
 70
     1
102
RTVSPost2010Prop41ColorIndex
 90
       18
102
RTVSPost2010Prop41ColorRGB
 90
        0
102
RTVSPost2010PropOp41
 70
     1
102
RTVSPost2010Prop42
 90
       50
102
RTVSPost2010PropOp42
 70
     1
102
RTVSPost2010Prop43
 90
        3
102
RTVSPost2010PropOp43
 70
     1
102
RTVSPost2010Prop44ColorIndex
 90
        5
102
RTVSPost2010Prop44ColorRGB
 90
      255
102
RTVSPost2010PropOp44
 70
     1
102
RTVSPost2010Prop45
280
     0
102
RTVSPost2010PropOp45
 70
     1
102
RTVSPost2010Prop46
 90
       50
102
RTVSPost2010PropOp46
 70
     1
102
RTVSPost2010Prop47
 90
       50
102
RTVSPost2010PropOp47
 70
     1
102
RTVSPost2010Prop48
 90
       50
102
RTVSPost2010PropOp48
 70
     1
102
RTVSPost2010Prop49
280
     0
102
RTVSPost2010PropOp49
 70
     1
102
RTVSPost2010Prop50
 90
       50
102
RTVSPost2010PropOp50
 70
     1
102
RTVSPost2010Prop51ColorIndex
 90
      256
102
RTVSPost2010Prop51ColorRGB
 90
-16777216
102
RTVSPost2010PropOp51
 70
     0
102
RTVSPost2010Prop52
140
1.0
102
RTVSPost2010PropOp52
 70
     0
102
RTVSPost2010Prop53
 90
        2
102
RTVSPost2010PropOp53
 70
     1
102
RTVSPost2010Prop54
  1
strokes_ogs.tif
102
RTVSPost2010PropOp54
 70
     1
102
RTVSPost2010Prop55
280
     0
102
RTVSPost2010PropOp55
 70
     1
102
RTVSPost2010Prop56
140
1.0
102
RTVSPost2010PropOp56
 70
     1
102
RTVSPost2010Prop57
140
1.0
102
RTVSPost2010PropOp57
 70
     1
102
RTVSPropertyOp0
 70
     1
102
RTVSPropertyOp1
 70
     1
102
RTVSPropertyOp2
 70
     1
102
RTVSPropertyOp3
 70
     1
102
RTVSPropertyOp4
 70
     1
102
RTVSPropertyOp5
 70
     1
102
RTVSPropertyOp6
 70
     1
102
RTVSPropertyOp7
 70
     1
102
RTVSPropertyOp8
 70
     1
102
RTVSPropertyOp9
 70
     1
102
RTVSPropertyOp10
 70
     1
102
RTVSPropertyOp11
 70
     1
102
RTVSPropertyOp12
 70
     1
102
RTVSPropertyOp13
 70
     1
102
RTVSPropertyOp14
 70
     1
102
RTVSPropertyOp15
 70
     1
102
RTVSPropertyOp16
 70
     1
102
RTVSPropertyOp17
 70
     1
102
RTVSPropertyOp18
 70
     1
102
RTVSPropertyOp19
 70
     1
102
RTVSPropertyOp20
 70
     1
102
RTVSPropertyOp21
 70
     1
102
RTVSPropertyOp22
 70
     1
102
RTVSPropertyOp23
 70
     1
102
RTVSPropertyOp24
 70
     1
102
RTVSPropertyOp25
 70
     1
102
RTVSPropertyOp26
 70
     1
102
RTVSPropertyOp27
 70
     1
102
RTVSPropertyOp28
 70
     1
102
RTVSPropertyOp29
 70
     1
102
RTVSPropertyOp30
 70
     1
102
RTVSPropertyOp31
 70
     1
102
RTVSPropertyOp32
 70
     1
102
RTVSPropertyOp33
 70
     1
102
RTVSPropertyOp34
 70
     1
102
RTVSPropertyOp35
 70
     1
102
RTVSPropertyOp36
 70
     1
102
RTVSPropertyOp37
 70
     1
102
RTVSPropertyOp38
 70
     1
102
RTVSPropertyOp39
 70
     1
102
RTVSPropertyOp40
 70
     1
102
RTVSPropertyOp41
 70
     1
102
RTVSPropertyOp42
 70
     1
102
RTVSPropertyOp43
 70
     1
102
RTVSPropertyOp44
 70
     1
102
RTVSPropertyOp45
 70
     1
102
RTVSPropertyOp46
 70
     1
102
RTVSPropertyOp47
 70
     1
102
RTVSPropertyOp48
 70
     1
102
RTVSPropertyOp49
 70
     1
102
RTVSPropertyOp50
 70
     1
102
RTVSPropertyOp51
 70
     0
102
RTVSPropertyOp52
 70
     0
102
RTVSPropertyOp53
 70
     1
102
RTVSPropertyOp54
 70
     1
102
RTVSPropertyOp55
 70
     1
102
RTVSPropertyOp56
 70
     1
102
RTVSPropertyOp57
 70
     1
102
RTVSPropertyOp58
 70
     1
102
RTVSPropertyOp59
 70
     1
102
RTVSPropertyOp60
 70
     1
102
RTVSPropertyOp61
 70
     1
102
RTVSPropertyOp62
 70
     1
  0
ENDSEC
  0
EOF
