  0
SECTION
  2
HEADER
  9
$ACADVER
  1
AC1015
  9
$ACADMAINTVER
 70
    20
  9
$DWGCODEPAGE
  3
ANSI_932
  9
$INSBASE
 10
0.0
 20
0.0
 30
0.0
  9
$EXTMIN
 10
2.927251896827556
 20
10.0
 30
0.0
  9
$EXTMAX
 10
519.3019359677875
 20
354.3887167847371
 30
0.0
  9
$LIMMIN
 10
0.0000015376081137
 20
-0.0000001931532552
  9
$LIMMAX
 10
555.0000015376081
 20
382.6136361704829
  9
$ORTHOMODE
 70
     1
  9
$REGENMODE
 70
     1
  9
$FILLMODE
 70
     1
  9
$QTEXTMODE
 70
     0
  9
$MIRRTEXT
 70
     1
  9
$LTSCALE
 40
0.5
  9
$ATTMODE
 70
     1
  9
$TEXTSIZE
 40
2.5
  9
$TRACEWID
 40
1.0
  9
$TEXTSTYLE
  7
STANDARD
  9
$CLAYER
  8
0
  9
$CELTYPE
  6
BYLAYER
  9
$CECOLOR
 62
   256
  9
$CELTSCALE
 40
1.0
  9
$DISPSILH
 70
     0
  9
$DIMSCALE
 40
1.0
  9
$DIMASZ
 40
3.0
  9
$DIMEXO
 40
1.0
  9
$DIMDLI
 40
10.0
  9
$DIMRND
 40
0.0
  9
$DIMDLE
 40
0.0
  9
$DIMEXE
 40
1.0
  9
$DIMTP
 40
0.0
  9
$DIMTM
 40
0.0
  9
$DIMTXT
 40
3.2
  9
$DIMCEN
 40
0.0
  9
$DIMTSZ
 40
0.0
  9
$DIMTOL
 70
     0
  9
$DIMLIM
 70
     0
  9
$DIMTIH
 70
     0
  9
$DIMTOH
 70
     0
  9
$DIMSE1
 70
     0
  9
$DIMSE2
 70
     0
  9
$DIMTAD
 70
     3
  9
$DIMZIN
 70
     8
  9
$DIMBLK
  1

  9
$DIMASO
 70
     1
  9
$DIMSHO
 70
     1
  9
$DIMPOST
  1

  9
$DIMAPOST
  1

  9
$DIMALT
 70
     0
  9
$DIMALTD
 70
     2
  9
$DIMALTF
 40
25.4
  9
$DIMLFAC
 40
1.0
  9
$DIMTOFL
 70
     1
  9
$DIMTVP
 40
0.0
  9
$DIMTIX
 70
     0
  9
$DIMSOXD
 70
     0
  9
$DIMSAH
 70
     1
  9
$DIMBLK1
  1
OPEN
  9
$DIMBLK2
  1
OPEN
  9
$DIMSTYLE
  2
STANDARD
  9
$DIMCLRD
 70
     0
  9
$DIMCLRE
 70
     0
  9
$DIMCLRT
 70
     0
  9
$DIMTFAC
 40
1.0
  9
$DIMGAP
 40
1.0
  9
$DIMJUST
 70
     0
  9
$DIMSD1
 70
     0
  9
$DIMSD2
 70
     0
  9
$DIMTOLJ
 70
     1
  9
$DIMTZIN
 70
     0
  9
$DIMALTZ
 70
     0
  9
$DIMALTTZ
 70
     0
  9
$DIMUPT
 70
     0
  9
$DIMDEC
 70
     4
  9
$DIMTDEC
 70
     4
  9
$DIMALTU
 70
     2
  9
$DIMALTTD
 70
     2
  9
$DIMTXSTY
  7
STANDARD
  9
$DIMAUNIT
 70
     0
  9
$DIMADEC
 70
     0
  9
$DIMALTRND
 40
0.0
  9
$DIMAZIN
 70
     0
  9
$DIMDSEP
 70
    46
  9
$DIMATFIT
 70
     3
  9
$DIMFRAC
 70
     0
  9
$DIMLDRBLK
  1
OPEN
  9
$DIMLUNIT
 70
     2
  9
$DIMLWD
 70
    -2
  9
$DIMLWE
 70
    -2
  9
$DIMTMOVE
 70
     0
  9
$LUNITS
 70
     2
  9
$LUPREC
 70
     4
  9
$SKETCHINC
 40
1.0
  9
$FILLETRAD
 40
0.0
  9
$AUNITS
 70
     0
  9
$AUPREC
 70
     0
  9
$MENU
  1
.
  9
$ELEVATION
 40
0.0
  9
$PELEVATION
 40
0.0
  9
$THICKNESS
 40
0.0
  9
$LIMCHECK
 70
     0
  9
$CHAMFERA
 40
10.0
  9
$CHAMFERB
 40
10.0
  9
$CHAMFERC
 40
20.0
  9
$CHAMFERD
 40
0.0
  9
$SKPOLY
 70
     0
  9
$TDCREATE
 40
2452956.415086077
  9
$TDUCREATE
 40
2452956.040086077
  9
$TDUPDATE
 40
2457192.643410417
  9
$TDUUPDATE
 40
2457192.268410417
  9
$TDINDWG
 40
0.0970253935
  9
$TDUSRTIMER
 40
0.0970253935
  9
$USRTIMER
 70
     1
  9
$ANGBASE
 50
0.0
  9
$ANGDIR
 70
     0
  9
$PDMODE
 70
     0
  9
$PDSIZE
 40
0.0
  9
$PLINEWID
 40
0.0
  9
$SPLFRAME
 70
     0
  9
$SPLINETYPE
 70
     6
  9
$SPLINESEGS
 70
     8
  9
$HANDSEED
  5
4D50
  9
$SURFTAB1
 70
     6
  9
$SURFTAB2
 70
     6
  9
$SURFTYPE
 70
     6
  9
$SURFU
 70
     6
  9
$SURFV
 70
     6
  9
$UCSBASE
  2

  9
$UCSNAME
  2

  9
$UCSORG
 10
0.0
 20
0.0
 30
0.0
  9
$UCSXDIR
 10
1.0
 20
0.0
 30
0.0
  9
$UCSYDIR
 10
0.0
 20
1.0
 30
0.0
  9
$UCSORTHOREF
  2

  9
$UCSORTHOVIEW
 70
     0
  9
$UCSORGTOP
 10
0.0
 20
0.0
 30
0.0
  9
$UCSORGBOTTOM
 10
0.0
 20
0.0
 30
0.0
  9
$UCSORGLEFT
 10
0.0
 20
0.0
 30
0.0
  9
$UCSORGRIGHT
 10
0.0
 20
0.0
 30
0.0
  9
$UCSORGFRONT
 10
0.0
 20
0.0
 30
0.0
  9
$UCSORGBACK
 10
0.0
 20
0.0
 30
0.0
  9
$PUCSBASE
  2

  9
$PUCSNAME
  2

  9
$PUCSORG
 10
0.0
 20
0.0
 30
0.0
  9
$PUCSXDIR
 10
1.0
 20
0.0
 30
0.0
  9
$PUCSYDIR
 10
0.0
 20
1.0
 30
0.0
  9
$PUCSORTHOREF
  2

  9
$PUCSORTHOVIEW
 70
     0
  9
$PUCSORGTOP
 10
0.0
 20
0.0
 30
0.0
  9
$PUCSORGBOTTOM
 10
0.0
 20
0.0
 30
0.0
  9
$PUCSORGLEFT
 10
0.0
 20
0.0
 30
0.0
  9
$PUCSORGRIGHT
 10
0.0
 20
0.0
 30
0.0
  9
$PUCSORGFRONT
 10
0.0
 20
0.0
 30
0.0
  9
$PUCSORGBACK
 10
0.0
 20
0.0
 30
0.0
  9
$USERI1
 70
     0
  9
$USERI2
 70
     0
  9
$USERI3
 70
     0
  9
$USERI4
 70
     0
  9
$USERI5
 70
     0
  9
$USERR1
 40
0.0
  9
$USERR2
 40
0.0
  9
$USERR3
 40
0.0
  9
$USERR4
 40
0.0
  9
$USERR5
 40
0.0
  9
$WORLDVIEW
 70
     1
  9
$SHADEDGE
 70
     3
  9
$SHADEDIF
 70
    70
  9
$TILEMODE
 70
     1
  9
$MAXACTVP
 70
    48
  9
$PINSBASE
 10
0.0
 20
0.0
 30
0.0
  9
$PLIMCHECK
 70
     0
  9
$PEXTMIN
 10
1.000000000000000E+20
 20
1.000000000000000E+20
 30
1.000000000000000E+20
  9
$PEXTMAX
 10
-1.000000000000000E+20
 20
-1.000000000000000E+20
 30
-1.000000000000000E+20
  9
$PLIMMIN
 10
0.0
 20
0.0
  9
$PLIMMAX
 10
420.0
 20
297.0
  9
$UNITMODE
 70
     0
  9
$VISRETAIN
 70
     1
  9
$PLINEGEN
 70
     0
  9
$PSLTSCALE
 70
     1
  9
$TREEDEPTH
 70
  3020
  9
$CMLSTYLE
  2
STANDARD
  9
$CMLJUST
 70
     0
  9
$CMLSCALE
 40
20.0
  9
$PROXYGRAPHICS
 70
     1
  9
$MEASUREMENT
 70
     0
  9
$CELWEIGHT
370
    -1
  9
$ENDCAPS
280
     0
  9
$JOINSTYLE
280
     0
  9
$LWDISPLAY
290
     0
  9
$INSUNITS
 70
     0
  9
$HYPERLINKBASE
  1

  9
$STYLESHEET
  1

  9
$XEDIT
290
     1
  9
$CEPSNTYPE
380
     0
  9
$PSTYLEMODE
290
     1
  9
$FINGERPRINTGUID
  2
{ED6D9AF5-CBC7-4906-81B0-FE8AD1DE7736}
  9
$VERSIONGUID
  2
{F476C2D6-B28F-416E-AFBD-FE788117D4EF}
  9
$EXTNAMES
290
     1
  9
$PSVPSCALE
 40
0.0
  9
$OLESTARTUP
290
     0
  0
ENDSEC
  0
SECTION
  2
CLASSES
  0
CLASS
  1
ACDBDICTIONARYWDFLT
  2
AcDbDictionaryWithDefault
  3
ObjectDBX Classes
 90
        0
280
     0
281
     0
  0
CLASS
  1
ACDBPLACEHOLDER
  2
AcDbPlaceHolder
  3
ObjectDBX Classes
 90
        0
280
     0
281
     0
  0
CLASS
  1
LAYOUT
  2
AcDbLayout
  3
ObjectDBX Classes
 90
        0
280
     0
281
     0
  0
CLASS
  1
DICTIONARYVAR
  2
AcDbDictionaryVar
  3
ObjectDBX Classes
 90
        0
280
     0
281
     0
  0
CLASS
  1
MATERIAL
  2
AcDbMaterial
  3
ObjectDBX Classes
 90
     1153
280
     0
281
     0
  0
CLASS
  1
VISUALSTYLE
  2
AcDbVisualStyle
  3
ObjectDBX Classes
 90
     4095
280
     0
281
     0
  0
CLASS
  1
TABLESTYLE
  2
AcDbTableStyle
  3
ObjectDBX Classes
 90
     4095
280
     0
281
     0
  0
CLASS
  1
SCALE
  2
AcDbScale
  3
ObjectDBX Classes
 90
     1153
280
     0
281
     0
  0
CLASS
  1
MLEADERSTYLE
  2
AcDbMLeaderStyle
  3
ACDB_MLEADERSTYLE_CLASS
 90
     4095
280
     0
281
     0
  0
CLASS
  1
ACDBSECTIONVIEWSTYLE
  2
AcDbSectionViewStyle
  3
ObjectDBX Classes
 90
     1025
280
     0
281
     0
  0
CLASS
  1
ACDBDETAILVIEWSTYLE
  2
AcDbDetailViewStyle
  3
ObjectDBX Classes
 90
     1025
280
     0
281
     0
  0
CLASS
  1
CELLSTYLEMAP
  2
AcDbCellStyleMap
  3
ObjectDBX Classes
 90
     1152
280
     0
281
     0
  0
ENDSEC
  0
SECTION
  2
TABLES
  0
TABLE
  2
VPORT
  5
8
330
0
100
AcDbSymbolTable
 70
     1
  0
VPORT
  5
4C9A
330
8
100
AcDbSymbolTableRecord
100
AcDbViewportTableRecord
  2
*ACTIVE
 70
     0
 10
0.0
 20
0.0
 11
1.0
 21
1.0
 12
365.4759212151205
 22
182.1845989162168
 13
0.0
 23
0.0
 14
10.0
 24
10.0
 15
10.0
 25
10.0
 16
0.0
 26
0.0
 36
1.0
 17
0.0
 27
0.0
 37
0.0
 40
348.2780366550465
 41
1.899603698811096
 42
50.0
 43
0.0
 44
0.0
 50
0.0
 51
0.0
 71
     0
 72
   100
 73
     1
 74
     0
 75
     0
 76
     0
 77
     0
 78
     0
281
     0
 65
     1
110
0.0
120
0.0
130
0.0
111
1.0
121
0.0
131
0.0
112
0.0
122
1.0
132
0.0
 79
     0
146
0.0
1001
ACAD_NAV_VCDISPLAY
1070
     3
  0
ENDTAB
  0
TABLE
  2
LTYPE
  5
5
330
0
100
AcDbSymbolTable
 70
     4
  0
LTYPE
  5
12
330
5
100
AcDbSymbolTableRecord
100
AcDbLinetypeTableRecord
  2
BYBLOCK
 70
     0
  3

 72
    65
 73
     0
 40
0.0
  0
LTYPE
  5
13
330
5
100
AcDbSymbolTableRecord
100
AcDbLinetypeTableRecord
  2
BYLAYER
 70
     0
  3

 72
    65
 73
     0
 40
0.0
  0
LTYPE
  5
14
330
5
100
AcDbSymbolTableRecord
100
AcDbLinetypeTableRecord
  2
CONTINUOUS
 70
     0
  3
Solid line
 72
    65
 73
     0
 40
0.0
  0
LTYPE
  5
4B
330
5
100
AcDbSymbolTableRecord
100
AcDbLinetypeTableRecord
  2
DASHED
 70
     0
  3
Dashed __ __ __ __ __ __ __ __ __ __ __ __ __ _
 72
    65
 73
     2
 40
19.04999999999999
 49
12.7
 74
     0
 49
-6.349999999999998
 74
     0
  0
LTYPE
  5
4C
330
5
100
AcDbSymbolTableRecord
100
AcDbLinetypeTableRecord
  2
CENTER
 70
     0
  3
Center ____ _ ____ _ ____ _ ____ _ ____ _ ____
 72
    65
 73
     4
 40
50.8
 49
31.75
 74
     0
 49
-6.349999999999998
 74
     0
 49
6.349999999999998
 74
     0
 49
-6.349999999999998
 74
     0
  0
LTYPE
  5
4D
330
5
100
AcDbSymbolTableRecord
100
AcDbLinetypeTableRecord
  2
PHANTOM
 70
     0
  3
Phantom ______  __  __  ______  __  __  ______
 72
    65
 73
     6
 40
63.5
 49
31.75
 74
     0
 49
-6.349999999999998
 74
     0
 49
6.349999999999998
 74
     0
 49
-6.349999999999998
 74
     0
 49
6.349999999999998
 74
     0
 49
-6.349999999999998
 74
     0
  0
ENDTAB
  0
TABLE
  2
LAYER
  5
2
330
0
100
AcDbSymbolTable
 70
     8
  0
LAYER
  5
E
102
{ACAD_XDICTIONARY
360
4CF4
102
}
330
2
100
AcDbSymbolTableRecord
100
AcDbLayerTableRecord
  2
0
 70
     0
 62
     7
  6
CONTINUOUS
370
    -3
390
4CA3
  0
LAYER
  5
4E
102
{ACAD_XDICTIONARY
360
4CF6
102
}
330
2
100
AcDbSymbolTableRecord
100
AcDbLayerTableRecord
  2
4
 70
     0
 62
     1
  6
CENTER
370
    -3
390
4CA3
  0
LAYER
  5
4F
102
{ACAD_XDICTIONARY
360
4CF8
102
}
330
2
100
AcDbSymbolTableRecord
100
AcDbLayerTableRecord
  2
5
 70
     0
 62
     6
  6
PHANTOM
370
    -3
390
4CA3
  0
LAYER
  5
50
102
{ACAD_XDICTIONARY
360
4CFA
102
}
330
2
100
AcDbSymbolTableRecord
100
AcDbLayerTableRecord
  2
1
 70
     0
 62
     7
  6
CONTINUOUS
370
    -3
390
4CA3
  0
LAYER
  5
51
102
{ACAD_XDICTIONARY
360
4CFC
102
}
330
2
100
AcDbSymbolTableRecord
100
AcDbLayerTableRecord
  2
2
 70
     0
 62
     4
  6
CONTINUOUS
370
    -3
390
4CA3
  0
LAYER
  5
52
102
{ACAD_XDICTIONARY
360
4CFE
102
}
330
2
100
AcDbSymbolTableRecord
100
AcDbLayerTableRecord
  2
3
 70
     0
 62
     2
  6
DASHED
370
    -3
390
4CA3
  0
LAYER
  5
53
102
{ACAD_XDICTIONARY
360
4D00
102
}
330
2
100
AcDbSymbolTableRecord
100
AcDbLayerTableRecord
  2
6
 70
     0
 62
     5
  6
CONTINUOUS
370
    -3
390
4CA3
  0
LAYER
  5
54
102
{ACAD_XDICTIONARY
360
4D02
102
}
330
2
100
AcDbSymbolTableRecord
100
AcDbLayerTableRecord
  2
7
 70
     0
 62
     3
  6
CONTINUOUS
370
    -3
390
4CA3
  0
ENDTAB
  0
TABLE
  2
STYLE
  5
3
330
0
100
AcDbSymbolTable
 70
     1
  0
STYLE
  5
F
330
3
100
AcDbSymbolTableRecord
100
AcDbTextStyleTableRecord
  2
STANDARD
 70
     0
 40
0.0
 41
1.0
 50
0.0
 71
     0
 42
2.5
  3
simplex.shx
  4

  0
ENDTAB
  0
TABLE
  2
VIEW
  5
6
330
0
100
AcDbSymbolTable
 70
     0
  0
ENDTAB
  0
TABLE
  2
UCS
  5
7
330
0
100
AcDbSymbolTable
 70
     0
  0
ENDTAB
  0
TABLE
  2
APPID
  5
9
330
0
100
AcDbSymbolTable
 70
     7
  0
APPID
  5
10
330
9
100
AcDbSymbolTableRecord
100
AcDbRegAppTableRecord
  2
ACAD
 70
     0
  0
APPID
  5
3E
330
9
100
AcDbSymbolTableRecord
100
AcDbRegAppTableRecord
  2
CONTENTTABDATA
 70
     0
  0
APPID
  5
3F
330
9
100
AcDbSymbolTableRecord
100
AcDbRegAppTableRecord
  2
CONTENTCURRENTTAB
 70
     0
  0
APPID
  5
25D5
330
9
100
AcDbSymbolTableRecord
100
AcDbRegAppTableRecord
  2
CONTENTBLOCKICON
 70
     0
  0
APPID
  5
25D6
330
9
100
AcDbSymbolTableRecord
100
AcDbRegAppTableRecord
  2
CONTENTBLOCKDESCRIPTION
 70
     0
  0
APPID
  5
4D0E
330
9
100
AcDbSymbolTableRecord
100
AcDbRegAppTableRecord
  2
ACAD_NAV_VCDISPLAY
 70
     0
  0
APPID
  5
4D47
330
9
100
AcDbSymbolTableRecord
100
AcDbRegAppTableRecord
  2
ACAD_MLEADERVER
 70
     0
  0
ENDTAB
  0
TABLE
  2
DIMSTYLE
  5
A
330
0
100
AcDbSymbolTable
 70
     1
100
AcDbDimStyleTable
 71
     0
  0
DIMSTYLE
105
1D
330
A
100
AcDbSymbolTableRecord
100
AcDbDimStyleTableRecord
  2
STANDARD
 70
     0
 41
3.0
 42
1.0
 43
10.0
 44
1.0
 73
     0
 74
     0
 77
     3
 78
     8
140
3.2
141
0.0
147
1.0
172
     1
173
     1
340
F
341
2E
343
2E
344
2E
  0
ENDTAB
  0
TABLE
  2
BLOCK_RECORD
  5
1
330
0
100
AcDbSymbolTable
 70
     1
  0
BLOCK_RECORD
  5
18
102
{ACAD_XDICTIONARY
360
4C9D
102
}
330
1
100
AcDbSymbolTableRecord
100
AcDbBlockTableRecord
  2
*MODEL_SPACE
340
4CF1
  0
BLOCK_RECORD
  5
15
102
{ACAD_XDICTIONARY
360
4C9B
102
}
330
1
100
AcDbSymbolTableRecord
100
AcDbBlockTableRecord
  2
*PAPER_SPACE
340
4CF2
  0
BLOCK_RECORD
  5
2E
330
1
100
AcDbSymbolTableRecord
100
AcDbBlockTableRecord
  2
_OPEN
340
0
  0
ENDTAB
  0
ENDSEC
  0
SECTION
  2
BLOCKS
  0
BLOCK
  5
19
330
18
100
AcDbEntity
  8
0
100
AcDbBlockBegin
  2
*MODEL_SPACE
 70
     0
 10
0.0
 20
0.0
 30
0.0
  3
*MODEL_SPACE
  1

  0
ENDBLK
  5
1A
330
18
100
AcDbEntity
  8
0
100
AcDbBlockEnd
  0
BLOCK
  5
16
330
15
100
AcDbEntity
 67
     1
  8
0
100
AcDbBlockBegin
  2
*PAPER_SPACE
 70
     0
 10
0.0
 20
0.0
 30
0.0
  3
*PAPER_SPACE
  1

  0
ENDBLK
  5
17
330
15
100
AcDbEntity
 67
     1
  8
0
100
AcDbBlockEnd
  0
BLOCK
  5
2F
330
2E
100
AcDbEntity
  8
0
100
AcDbBlockBegin
  2
_OPEN
 70
     0
 10
0.0
 20
0.0
 30
0.0
  3
_OPEN
  1

  0
LINE
  5
30
330
2E
100
AcDbEntity
  8
0
  6
ByBlock
 62
     0
100
AcDbLine
 10
-1.0
 20
0.1666666666666666
 30
0.0
 11
0.0
 21
0.0
 31
0.0
  0
LINE
  5
31
330
2E
100
AcDbEntity
  8
0
  6
ByBlock
 62
     0
100
AcDbLine
 10
0.0
 20
0.0
 30
0.0
 11
-1.0
 21
-0.1666666666666666
 31
0.0
  0
LINE
  5
32
330
2E
100
AcDbEntity
  8
0
  6
ByBlock
 62
     0
100
AcDbLine
 10
0.0
 20
0.0
 30
0.0
 11
-1.0
 21
0.0
 31
0.0
  0
ENDBLK
  5
33
330
2E
100
AcDbEntity
  8
0
100
AcDbBlockEnd
  0
ENDSEC
  0
SECTION
  2
ENTITIES
  0
TEXT
  5
63
330
18
100
AcDbEntity
  8
4
  6
CENTER
 48
0.25
100
AcDbText
 10
23.97950852663849
 20
10.0
 30
0.0
 40
1.399999999999999
  1
4
100
AcDbText
  0
TEXT
  5
64
330
18
100
AcDbEntity
  8
7
  6
Continuous
 48
0.25
100
AcDbText
 10
9.999997526638502
 20
26.0000007607689
 30
0.0
 40
3.0
  1
CODE No.13200
100
AcDbText
  0
TEXT
  5
65
330
18
100
AcDbEntity
  8
7
  6
Continuous
 48
0.25
100
AcDbText
 10
9.999997526638502
 20
18.00000076076889
 30
0.0
 40
3.0
  1
TYPE No.THA-449B-3K
100
AcDbText
  0
TEXT
  5
66
330
18
100
AcDbEntity
  8
1
  6
Continuous
 48
0.25
100
AcDbText
 10
9.999997526638502
 20
10.00000076076889
 30
0.0
 40
1.399999999999999
  1
LAYER
100
AcDbText
  0
TEXT
  5
67
330
18
100
AcDbEntity
  8
2
  6
Continuous
 48
0.25
100
AcDbText
 10
19.9795085266385
 20
10.0
 30
0.0
 40
1.399999999999999
  1
2
100
AcDbText
  0
TEXT
  5
68
330
18
100
AcDbEntity
  8
3
  6
DASHED
 48
0.25
100
AcDbText
 10
21.9795085266385
 20
10.0
 30
0.0
 40
1.399999999999999
  1
3
100
AcDbText
  0
TEXT
  5
69
330
18
100
AcDbEntity
  8
1
  6
Continuous
 48
0.25
100
AcDbText
 10
17.9795085266385
 20
10.0
 30
0.0
 40
1.399999999999999
  1
1
100
AcDbText
  0
TEXT
  5
6A
330
18
100
AcDbEntity
  8
5
  6
PHANTOM
 48
0.25
100
AcDbText
 10
25.9795085266385
 20
10.0
 30
0.0
 40
1.399999999999999
  1
5
100
AcDbText
  0
TEXT
  5
6B
330
18
100
AcDbEntity
  8
6
  6
Continuous
 48
0.25
100
AcDbText
 10
27.9795085266385
 20
10.0
 30
0.0
 40
1.399999999999999
  1
6
100
AcDbText
  0
TEXT
  5
6C
330
18
100
AcDbEntity
  8
7
  6
Continuous
 48
0.25
100
AcDbText
 10
29.9795085266385
 20
10.0
 30
0.0
 40
1.399999999999999
  1
7
100
AcDbText
  0
ARC
  5
E51
330
18
100
AcDbEntity
  8
1
  6
Continuous
100
AcDbCircle
 10
206.0310292433935
 20
73.78216915813073
 30
0.0
 40
1.5
100
AcDbArc
 50
90.00000000006512
 51
144.4070925091068
  0
ARC
  5
E52
330
18
100
AcDbEntity
  8
1
  6
Continuous
100
AcDbCircle
 10
206.0310292434112
 20
57.98216915813071
 30
0.0
 40
1.5
100
AcDbArc
 50
215.5929074910184
 51
270.0000000000651
  0
LINE
  5
E55
330
18
100
AcDbEntity
  8
4
  6
CENTER
100
AcDbLine
 10
200.6454234343916
 20
65.88216915812632
 30
0.0
 11
239.4338624879326
 21
65.88216915812643
 31
0.0
  0
ARC
  5
E56
330
18
100
AcDbEntity
  8
1
  6
Continuous
100
AcDbCircle
 10
217.0685188394693
 20
65.88216915814297
 30
0.0
 40
15.073362758848
100
AcDbArc
 50
144.4070925091068
 51
215.5929074910184
  0
LINE
  5
E5B
330
18
100
AcDbEntity
  8
1
  6
Continuous
100
AcDbLine
 10
251.3535570313058
 20
50.08216915812925
 30
0.0
 11
251.3535570313013
 21
44.88216915811057
 31
0.0
  0
LINE
  5
E5C
330
18
100
AcDbEntity
  8
1
  6
Continuous
100
AcDbLine
 10
253.6535570313385
 20
44.88216915810949
 30
0.0
 11
253.6535570313339
 21
50.08216915813375
 31
0.0
  0
LINE
  5
E60
330
18
100
AcDbEntity
  8
1
  6
Continuous
100
AcDbLine
 10
251.3535570313013
 20
44.88216915811057
 30
0.0
 11
253.6535570313012
 21
44.88216915810954
 31
0.0
  0
ARC
  5
E63
330
18
100
AcDbEntity
  8
1
  6
Continuous
100
AcDbCircle
 10
234.0951560806198
 20
73.8821691580503
 30
0.0
 40
0.5
100
AcDbArc
 50
270.0
 51
0.0
  0
LINE
  5
E64
330
18
100
AcDbEntity
  8
1
  6
Continuous
100
AcDbLine
 10
228.3951560806278
 20
53.18216915814542
 30
0.0
 11
228.3951560806278
 21
78.58216915810721
 31
0.0
  0
LINE
  5
E65
330
18
100
AcDbEntity
  8
1
  6
Continuous
100
AcDbLine
 10
225.3951560806279
 20
78.68216915810688
 30
0.0
 11
225.3951560806279
 21
53.08216915814575
 31
0.0
  0
LINE
  5
E66
330
18
100
AcDbEntity
  8
1
  6
Continuous
100
AcDbLine
 10
232.5951560806198
 20
52.98216915812368
 30
0.0
 11
232.5951560806198
 21
78.78216915812794
 31
0.0
  0
LINE
  5
E67
330
18
100
AcDbEntity
  8
1
  6
Continuous
100
AcDbLine
 10
207.1951560806412
 20
75.28216915812629
 30
0.0
 11
207.1951560806412
 21
56.48216915812635
 31
0.0
  0
LINE
  5
E68
330
18
100
AcDbEntity
  8
1
  6
Continuous
100
AcDbLine
 10
207.3951560806201
 20
77.88216915874534
 30
0.0
 11
207.3951560806215
 21
53.88216915874558
 31
0.0
  0
LINE
  5
E69
330
18
100
AcDbEntity
  8
1
  6
Continuous
100
AcDbLine
 10
210.3951560806201
 20
81.88216915874505
 30
0.0
 11
210.3951560806219
 21
49.88216915874517
 31
0.0
  0
LINE
  5
E6A
330
18
100
AcDbEntity
  8
1
  6
Continuous
100
AcDbLine
 10
212.39515608062
 20
81.88216915874489
 30
0.0
 11
212.3951560806219
 21
49.882169158745
 31
0.0
  0
LINE
  5
E6B
330
18
100
AcDbEntity
  8
1
  6
Continuous
100
AcDbLine
 10
225.3951560806279
 20
53.08216915814575
 30
0.0
 11
212.3951560805242
 21
53.08216915814762
 31
0.0
  0
LINE
  5
E6C
330
18
100
AcDbEntity
  8
1
  6
Continuous
100
AcDbLine
 10
220.7951560806201
 20
52.48216915812725
 30
0.0
 11
232.0951560806198
 21
52.48216915812331
 31
0.0
  0
LINE
  5
E6E
330
18
100
AcDbEntity
  8
1
  6
Continuous
100
AcDbLine
 10
210.3951560806219
 20
49.88216915874517
 30
0.0
 11
212.3951560806219
 21
49.882169158745
 31
0.0
  0
LINE
  5
E6F
330
18
100
AcDbEntity
  8
1
  6
Continuous
100
AcDbLine
 10
206.0310292434112
 20
56.48216915812635
 30
0.0
 11
207.3951560806215
 21
56.48216915812635
 31
0.0
  0
LINE
  5
E70
330
18
100
AcDbEntity
  8
1
  6
Continuous
100
AcDbLine
 10
207.3951560806215
 20
53.88216915874558
 30
0.0
 11
210.3951560806219
 21
49.88216915874517
 31
0.0
  0
LINE
  5
E71
330
18
100
AcDbEntity
  8
1
  6
Continuous
100
AcDbLine
 10
220.7951560806201
 20
52.48216915812725
 30
0.0
 11
220.7951560806201
 21
53.08216915814643
 31
0.0
  0
LINE
  5
E72
330
18
100
AcDbEntity
  8
1
  6
Continuous
100
AcDbLine
 10
230.8951560806278
 20
59.38216915812636
 30
0.0
 11
230.8951560806278
 21
72.38216915812637
 31
0.0
  0
ARC
  5
E73
330
18
100
AcDbEntity
  8
1
  6
Continuous
100
AcDbCircle
 10
229.8951560806278
 20
59.38216915812636
 30
0.0
 40
1.0
100
AcDbArc
 50
270.0
 51
0.0
  0
LINE
  5
E74
330
18
100
AcDbEntity
  8
1
  6
Continuous
100
AcDbLine
 10
228.3951560806278
 20
58.38216915812637
 30
0.0
 11
229.8951560806278
 21
58.38216915812637
 31
0.0
  0
LINE
  5
E75
330
18
100
AcDbEntity
  8
1
  6
Continuous
100
AcDbLine
 10
228.3951560806278
 20
53.18216915814542
 30
0.0
 11
225.3951560806279
 21
53.18216915814571
 31
0.0
  0
LINE
  5
E76
330
18
100
AcDbEntity
  8
1
  6
Continuous
100
AcDbLine
 10
232.5951560806212
 20
54.38216915820181
 30
0.0
 11
234.0951560806203
 21
54.38216915820243
 31
0.0
  0
LINE
  5
E77
330
18
100
AcDbEntity
  8
1
  6
Continuous
100
AcDbLine
 10
232.5951560806198
 20
58.38216915820179
 30
0.0
 11
234.0951560806198
 21
58.38216915820243
 31
0.0
  0
ARC
  5
E78
330
18
100
AcDbEntity
  8
1
  6
Continuous
100
AcDbCircle
 10
232.0951560806198
 20
52.98216915812368
 30
0.0
 40
0.5
100
AcDbArc
 50
270.0
 51
0.0
  0
ARC
  5
E79
330
18
100
AcDbEntity
  8
1
  6
Continuous
100
AcDbCircle
 10
234.0951560806198
 20
54.88216915820243
 30
0.0
 40
0.5
100
AcDbArc
 50
270.0
 51
0.0
  0
ARC
  5
E7A
330
18
100
AcDbEntity
  8
1
  6
Continuous
100
AcDbCircle
 10
234.0951560806198
 20
57.88216915820243
 30
0.0
 40
0.5
100
AcDbArc
 50
0.0
 51
90.0
  0
LINE
  5
E7B
330
18
100
AcDbEntity
  8
1
  6
Continuous
100
AcDbLine
 10
234.5951560806198
 20
57.88216915820243
 30
0.0
 11
234.5951560806198
 21
54.88216915820243
 31
0.0
  0
LINE
  5
E7C
330
18
100
AcDbEntity
  8
4
  6
CENTER
100
AcDbLine
 10
230.9367812150814
 20
56.38216915812631
 30
0.0
 11
236.0220601576203
 21
56.38216915812631
 31
0.0
  0
ARC
  5
E7D
330
18
100
AcDbEntity
  8
1
  6
Continuous
100
AcDbCircle
 10
229.8951560806278
 20
72.38216915812637
 30
0.0
 40
1.0
100
AcDbArc
 50
0.0
 51
90.0
  0
LINE
  5
E7E
330
18
100
AcDbEntity
  8
1
  6
Continuous
100
AcDbLine
 10
228.3951560806278
 20
73.38216915812637
 30
0.0
 11
229.8951560806278
 21
73.38216915812637
 31
0.0
  0
LINE
  5
E7F
330
18
100
AcDbEntity
  8
1
  6
Continuous
100
AcDbLine
 10
234.5951560806198
 20
64.77660181776332
 30
0.0
 11
232.5951560806198
 21
64.77660181776332
 31
0.0
  0
LINE
  5
E80
330
18
100
AcDbEntity
  8
1
  6
Continuous
100
AcDbLine
 10
234.5951560806198
 20
66.98773649851631
 30
0.0
 11
232.5951560806198
 21
66.98773649851631
 31
0.0
  0
LINE
  5
E81
330
18
100
AcDbEntity
  8
1
  6
Continuous
100
AcDbLine
 10
234.5951560806198
 20
69.72634928572261
 30
0.0
 11
232.5951560802347
 21
69.72634928572233
 31
0.0
  0
LINE
  5
E82
330
18
100
AcDbEntity
  8
1
  6
Continuous
100
AcDbLine
 10
234.5951560806198
 20
69.88216915843065
 30
0.0
 11
232.5951560806198
 21
69.88216915843065
 31
0.0
  0
LINE
  5
E83
330
18
100
AcDbEntity
  8
1
  6
Continuous
100
AcDbLine
 10
232.5951560806198
 20
73.38216915805094
 30
0.0
 11
234.0951560806198
 21
73.3821691580503
 31
0.0
  0
LINE
  5
E84
330
18
100
AcDbEntity
  8
1
  6
Continuous
100
AcDbLine
 10
234.5951560806198
 20
61.88216915843026
 30
0.0
 11
232.5951560806203
 21
61.88216915843026
 31
0.0
  0
LINE
  5
E85
330
18
100
AcDbEntity
  8
1
  6
Continuous
100
AcDbLine
 10
234.5951560806198
 20
62.03798903052955
 30
0.0
 11
232.5951560802347
 21
62.03798903052984
 31
0.0
  0
LINE
  5
E86
330
18
100
AcDbEntity
  8
1
  6
Continuous
100
AcDbLine
 10
234.5951560806198
 20
61.88216915843036
 30
0.0
 11
234.5951560806198
 21
69.88216915843054
 31
0.0
  0
LINE
  5
E87
330
18
100
AcDbEntity
  8
1
  6
Continuous
100
AcDbLine
 10
225.3951560806279
 20
78.68216915810688
 30
0.0
 11
212.3951560805242
 21
78.68216915810501
 31
0.0
  0
LINE
  5
E88
330
18
100
AcDbEntity
  8
1
  6
Continuous
100
AcDbLine
 10
220.7951560806201
 20
79.28216915812574
 30
0.0
 11
232.0951560806198
 21
79.28216915812794
 31
0.0
  0
LINE
  5
E8B
330
18
100
AcDbEntity
  8
1
  6
Continuous
100
AcDbLine
 10
212.39515608062
 20
81.88216915874489
 30
0.0
 11
210.3951560806201
 21
81.88216915874505
 31
0.0
  0
LINE
  5
E8C
330
18
100
AcDbEntity
  8
1
  6
Continuous
100
AcDbLine
 10
206.0310292433935
 20
75.28216915812629
 30
0.0
 11
207.3951560806206
 21
75.28216915812629
 31
0.0
  0
LINE
  5
E8D
330
18
100
AcDbEntity
  8
1
  6
Continuous
100
AcDbLine
 10
207.3951560806201
 20
77.88216915874534
 30
0.0
 11
210.3951560806201
 21
81.88216915874505
 31
0.0
  0
LINE
  5
E8E
330
18
100
AcDbEntity
  8
1
  6
Continuous
100
AcDbLine
 10
220.7951560806201
 20
78.6821691581062
 30
0.0
 11
220.7951560806201
 21
79.28216915812574
 31
0.0
  0
LINE
  5
E8F
330
18
100
AcDbEntity
  8
1
  6
Continuous
100
AcDbLine
 10
228.3951560806278
 20
78.58216915810721
 30
0.0
 11
225.3951560806279
 21
78.58216915810692
 31
0.0
  0
LINE
  5
E90
330
18
100
AcDbEntity
  8
1
  6
Continuous
100
AcDbLine
 10
232.5951560806212
 20
77.38216915805094
 30
0.0
 11
234.0951560806203
 21
77.3821691580503
 31
0.0
  0
ARC
  5
E91
330
18
100
AcDbEntity
  8
1
  6
Continuous
100
AcDbCircle
 10
232.0951560806198
 20
78.78216915812794
 30
0.0
 40
0.5
100
AcDbArc
 50
0.0
 51
90.0
  0
LINE
  5
E92
330
18
100
AcDbEntity
  8
1
  6
Continuous
100
AcDbLine
 10
234.5951560806198
 20
73.8821691580503
 30
0.0
 11
234.5951560806198
 21
76.8821691580503
 31
0.0
  0
ARC
  5
E93
330
18
100
AcDbEntity
  8
1
  6
Continuous
100
AcDbCircle
 10
234.0951560806198
 20
76.8821691580503
 30
0.0
 40
0.5
100
AcDbArc
 50
0.0
 51
90.0
  0
LINE
  5
E94
330
18
100
AcDbEntity
  8
4
  6
CENTER
100
AcDbLine
 10
230.9367812150814
 20
75.38216915812644
 30
0.0
 11
236.0220601576203
 21
75.38216915812644
 31
0.0
  0
LINE
  5
E95
330
18
100
AcDbEntity
  8
1
  6
Continuous
100
AcDbLine
 10
254.8535570313319
 20
79.38216915812756
 30
0.0
 11
254.8535570313079
 21
52.38216915812756
 31
0.0
  0
LINE
  5
E96
330
18
100
AcDbEntity
  8
1
  6
Continuous
100
AcDbLine
 10
257.1535570313319
 20
79.38216915812541
 30
0.0
 11
257.1535570313078
 21
52.38216915813143
 31
0.0
  0
ARC
  5
E97
330
18
100
AcDbEntity
  8
1
  6
Continuous
100
AcDbCircle
 10
253.6535570313058
 20
50.08216915812721
 30
0.0
 40
2.299999999999998
100
AcDbArc
 50
90.00000000001952
 51
179.9999999999495
  0
LINE
  5
E98
330
18
100
AcDbEntity
  8
4
  6
CENTER
100
AcDbLine
 10
248.5942787016497
 20
65.88216915812558
 30
0.0
 11
264.4430945367525
 21
65.88216915813046
 31
0.0
  0
LINE
  5
E99
330
18
100
AcDbEntity
  8
1
  6
Continuous
100
AcDbLine
 10
253.6535570313339
 20
50.08216915813375
 30
0.0
 11
254.8535570313072
 21
50.08216915813346
 31
0.0
  0
LINE
  5
E9A
330
18
100
AcDbEntity
  8
1
  6
Continuous
100
AcDbLine
 10
253.6535570313051
 20
52.38216915812722
 30
0.0
 11
254.8535570313079
 21
52.38216915812756
 31
0.0
  0
ARC
  5
E9B
330
18
100
AcDbEntity
  8
1
  6
Continuous
100
AcDbCircle
 10
254.8535570313079
 20
52.38216915813348
 30
0.0
 40
2.299999999999998
100
AcDbArc
 50
269.9999999999804
 51
359.9999999999495
  0
LINE
  5
E9C
330
18
100
AcDbEntity
  8
1
  6
Continuous
100
AcDbLine
 10
258.45355703132
 20
70.3821691581295
 30
0.0
 11
259.9150554994155
 21
70.25430461041072
 31
0.0
  0
LINE
  5
E9D
330
18
100
AcDbEntity
  8
1
  6
Continuous
100
AcDbLine
 10
258.45355703132
 20
61.38216915812939
 30
0.0
 11
259.9150554994564
 21
61.51003370585192
 31
0.0
  0
LINE
  5
E9E
330
18
100
AcDbEntity
  8
1
  6
Continuous
100
AcDbLine
 10
258.45355703132
 20
65.88216915812859
 30
0.0
 11
257.1535570313199
 21
64.79133963759813
 31
0.0
  0
LINE
  5
E9F
330
18
100
AcDbEntity
  8
1
  6
Continuous
100
AcDbLine
 10
258.4535570313203
 20
66.97299867865871
 30
0.0
 11
257.1535570313201
 21
65.88216915812825
 31
0.0
  0
LINE
  5
EA0
330
18
100
AcDbEntity
  8
1
  6
Continuous
100
AcDbLine
 10
258.45355703132
 20
70.48216915812941
 30
0.0
 11
257.1535570313201
 21
70.48216915812941
 31
0.0
  0
LINE
  5
EA1
330
18
100
AcDbEntity
  8
1
  6
Continuous
100
AcDbLine
 10
258.45355703132
 20
61.28216915812935
 30
0.0
 11
257.1535570313201
 21
61.28216915812935
 31
0.0
  0
LINE
  5
EA2
330
18
100
AcDbEntity
  8
1
  6
Continuous
100
AcDbLine
 10
258.45355703132
 20
70.48216915812941
 30
0.0
 11
258.45355703132
 21
61.28216915812935
 31
0.0
  0
LINE
  5
EA3
330
18
100
AcDbEntity
  8
1
  6
Continuous
100
AcDbLine
 10
257.1535570313201
 20
70.48216915812941
 30
0.0
 11
257.1535570313201
 21
61.28216915812935
 31
0.0
  0
ARC
  5
EA4
330
18
100
AcDbEntity
  8
1
  6
Continuous
100
AcDbCircle
 10
259.7756063109943
 20
68.66039309344978
 30
0.0
 40
1.6
100
AcDbArc
 50
15.49396750052079
 51
85.00000000000019
  0
ARC
  5
EA5
330
18
100
AcDbEntity
  8
1
  6
Continuous
100
AcDbCircle
 10
259.7756063110114
 20
63.103945222805
 30
0.0
 40
1.6
100
AcDbArc
 50
274.9999999999997
 51
344.5060324994792
  0
ARC
  5
EA6
330
18
100
AcDbEntity
  8
1
  6
Continuous
100
AcDbCircle
 10
249.75355703132
 20
65.88216915812939
 30
0.0
 40
12.0
100
AcDbArc
 50
344.5060324994792
 51
15.49396750052079
  0
LINE
  5
EA7
330
18
100
AcDbEntity
  8
1
  6
Continuous
100
AcDbLine
 10
251.3535570313369
 20
86.88216915815036
 30
0.0
 11
253.6535570313385
 21
86.88216915815145
 31
0.0
  0
ARC
  5
EA8
330
18
100
AcDbEntity
  8
1
  6
Continuous
100
AcDbCircle
 10
253.6535570313339
 20
81.68216915812719
 30
0.0
 40
2.299999999999998
100
AcDbArc
 50
179.9999999999495
 51
270.0000000000195
  0
LINE
  5
EA9
330
18
100
AcDbEntity
  8
1
  6
Continuous
100
AcDbLine
 10
251.3535570313385
 20
86.88216915815036
 30
0.0
 11
251.3535570313338
 21
81.68216915812925
 31
0.0
  0
LINE
  5
EAA
330
18
100
AcDbEntity
  8
1
  6
Continuous
100
AcDbLine
 10
253.6535570313385
 20
86.88216915815145
 30
0.0
 11
253.6535570313339
 21
81.68216915812719
 31
0.0
  0
LINE
  5
EAB
330
18
100
AcDbEntity
  8
1
  6
Continuous
100
AcDbLine
 10
253.6535570313339
 20
81.68216915812719
 30
0.0
 11
254.8535570313311
 21
81.68216915812747
 31
0.0
  0
LINE
  5
EAC
330
18
100
AcDbEntity
  8
1
  6
Continuous
100
AcDbLine
 10
253.6535570313344
 20
79.38216915812716
 30
0.0
 11
254.8535570313319
 21
79.38216915812756
 31
0.0
  0
ARC
  5
EAD
330
18
100
AcDbEntity
  8
1
  6
Continuous
100
AcDbCircle
 10
254.8535570313319
 20
79.38216915812745
 30
0.0
 40
2.299999999999998
100
AcDbArc
 50
359.9999999999495
 51
90.00000000001952
  0
LINE
  5
EAE
330
18
100
AcDbEntity
  8
1
  6
Continuous
100
AcDbLine
 10
275.9543439396641
 20
71.88216915813047
 30
0.0
 11
275.9543439396641
 21
59.88216915813058
 31
0.0
  0
LINE
  5
EAF
330
18
100
AcDbEntity
  8
1
  6
Continuous
100
AcDbLine
 10
276.754343939664
 20
71.88216915813047
 30
0.0
 11
276.754343939664
 21
59.88216915813058
 31
0.0
  0
LINE
  5
EB0
330
18
100
AcDbEntity
  8
1
  6
Continuous
100
AcDbLine
 10
276.754343939664
 20
59.88216915813047
 30
0.0
 11
275.9543439396641
 21
59.88216915813047
 31
0.0
  0
LINE
  5
EB1
330
18
100
AcDbEntity
  8
4
  6
CENTER
100
AcDbLine
 10
282.9498077677294
 20
65.88216915813046
 30
0.0
 11
273.6059772976882
 21
65.88216915813046
 31
0.0
  0
ARC
  5
EB2
330
18
100
AcDbEntity
  8
1
  6
Continuous
100
AcDbCircle
 10
279.3763932193383
 20
68.66039309345087
 30
0.0
 40
1.6
100
AcDbArc
 50
15.49396750052079
 51
85.00000000000019
  0
LINE
  5
EB3
330
18
100
AcDbEntity
  8
1
  6
Continuous
100
AcDbLine
 10
278.0543439396642
 20
65.88216915813046
 30
0.0
 11
276.754343939664
 21
64.79133963759996
 31
0.0
  0
LINE
  5
EB4
330
18
100
AcDbEntity
  8
1
  6
Continuous
100
AcDbLine
 10
278.0543439396642
 20
66.97299867866099
 30
0.0
 11
276.754343939664
 21
65.88216915813046
 31
0.0
  0
LINE
  5
EB5
330
18
100
AcDbEntity
  8
1
  6
Continuous
100
AcDbLine
 10
278.0543439396642
 20
70.48216915813049
 30
0.0
 11
276.754343939664
 21
70.48216915813049
 31
0.0
  0
LINE
  5
EB6
330
18
100
AcDbEntity
  8
1
  6
Continuous
100
AcDbLine
 10
276.754343939664
 20
71.88216915813047
 30
0.0
 11
275.9543439396641
 21
71.88216915813047
 31
0.0
  0
LINE
  5
EB7
330
18
100
AcDbEntity
  8
1
  6
Continuous
100
AcDbLine
 10
278.0543439396642
 20
70.3821691581307
 30
0.0
 11
279.5158424077594
 21
70.25430461041179
 31
0.0
  0
ARC
  5
EB8
330
18
100
AcDbEntity
  8
1
  6
Continuous
100
AcDbCircle
 10
279.3763932193555
 20
63.10394522280609
 30
0.0
 40
1.6
100
AcDbArc
 50
274.9999999999997
 51
344.5060324994792
  0
LINE
  5
EB9
330
18
100
AcDbEntity
  8
1
  6
Continuous
100
AcDbLine
 10
278.0543439396642
 20
61.28216915813045
 30
0.0
 11
276.754343939664
 21
61.28216915813045
 31
0.0
  0
LINE
  5
EBA
330
18
100
AcDbEntity
  8
1
  6
Continuous
100
AcDbLine
 10
278.0543439396642
 20
61.38216915813046
 30
0.0
 11
279.5158424078006
 21
61.510033705853
 31
0.0
  0
LINE
  5
EBB
330
18
100
AcDbEntity
  8
1
  6
Continuous
100
AcDbLine
 10
278.0543439396642
 20
70.48216915813049
 30
0.0
 11
278.0543439396642
 21
61.28216915813045
 31
0.0
  0
ARC
  5
EBC
330
18
100
AcDbEntity
  8
1
  6
Continuous
100
AcDbCircle
 10
269.3543439396642
 20
65.88216915813046
 30
0.0
 40
12.0
100
AcDbArc
 50
344.5060324994792
 51
15.49396750052079
  0
LINE
  5
F56
330
18
100
AcDbEntity
  8
1
  6
Continuous
100
AcDbLine
 10
45.55961099892066
 20
176.7938343594873
 30
0.0
 11
45.55961099892066
 21
153.1938343594803
 31
0.0
  0
CIRCLE
  5
F57
330
18
100
AcDbEntity
  8
1
  6
Continuous
100
AcDbCircle
 10
54.95961099886779
 20
168.7938343594274
 30
0.0
 40
5.599999999999998
  0
ARC
  5
F58
330
18
100
AcDbEntity
  8
1
  6
Continuous
100
AcDbCircle
 10
54.95961099886779
 20
168.7938343594274
 30
0.0
 40
5.5
100
AcDbArc
 50
291.3051029737896
 51
248.6948970262103
  0
LINE
  5
F59
330
18
100
AcDbEntity
  8
1
  6
Continuous
100
AcDbLine
 10
53.70961099886779
 20
164.4180487156829
 30
0.0
 11
53.70961099886779
 21
173.6350635421976
 31
0.0
  0
LINE
  5
F5A
330
18
100
AcDbEntity
  8
1
  6
Continuous
100
AcDbLine
 10
56.20961099886779
 20
164.4180487156829
 30
0.0
 11
56.20961099886779
 21
173.6350635421976
 31
0.0
  0
ARC
  5
F5B
330
18
100
AcDbEntity
  8
1
  6
Continuous
100
AcDbCircle
 10
54.95961099886779
 20
168.7938343594274
 30
0.0
 40
4.5
100
AcDbArc
 50
106.1276202131635
 51
253.8723797868364
  0
ARC
  5
F5C
330
18
100
AcDbEntity
  8
1
  6
Continuous
100
AcDbCircle
 10
54.95961099886779
 20
168.7938343594274
 30
0.0
 40
4.5
100
AcDbArc
 50
286.1276202131635
 51
73.87237978683643
  0
LINE
  5
F5D
330
18
100
AcDbEntity
  8
1
  6
Continuous
100
AcDbLine
 10
53.90961099886772
 20
164.618048715683
 30
0.0
 11
53.90961099886772
 21
170.6438343594275
 31
0.0
  0
LINE
  5
F5E
330
18
100
AcDbEntity
  8
1
  6
Continuous
100
AcDbLine
 10
56.00961099886774
 20
164.618048715683
 30
0.0
 11
56.00961099886774
 21
170.6438343594275
 31
0.0
  0
LINE
  5
F5F
330
18
100
AcDbEntity
  8
1
  6
Continuous
100
AcDbLine
 10
38.95961099825285
 20
241.7938343594578
 30
0.0
 11
38.95961099824535
 21
155.7938343594723
 31
0.0
  0
LINE
  5
F60
330
18
100
AcDbEntity
  8
1
  6
Continuous
100
AcDbLine
 10
70.95961099824534
 20
155.7938343594723
 30
0.0
 11
70.95961099825273
 21
241.7938343594578
 31
0.0
  0
LINE
  5
F61
330
18
100
AcDbEntity
  8
1
  6
Continuous
100
AcDbLine
 10
42.95961099825285
 20
241.7938343594578
 30
0.0
 11
42.95961099824535
 21
155.7938343594723
 31
0.0
  0
LINE
  5
F62
330
18
100
AcDbEntity
  8
1
  6
Continuous
100
AcDbLine
 10
66.95961099825263
 20
241.7938343594578
 30
0.0
 11
66.95961099824524
 21
155.7938343594723
 31
0.0
  0
LINE
  5
F63
330
18
100
AcDbEntity
  8
4
  6
CENTER
100
AcDbLine
 10
54.95961099887289
 20
263.0183147797141
 30
0.0
 11
54.95961099886597
 21
135.167101780383
 31
0.0
  0
LINE
  5
F65
330
18
100
AcDbEntity
  8
1
  6
Continuous
100
AcDbLine
 10
45.40961416814922
 20
154.7913167116836
 30
0.0
 11
45.2096418993458
 21
234.2192872959077
 31
0.0
  0
LINE
  5
F66
330
18
100
AcDbEntity
  8
1
  6
Continuous
100
AcDbLine
 10
64.70958009839364
 20
234.2192872959074
 30
0.0
 11
64.50960782959009
 21
154.7913167117142
 31
0.0
  0
LINE
  5
F69
330
18
100
AcDbEntity
  8
1
  6
Continuous
100
AcDbLine
 10
64.35961099892074
 20
176.7938343594734
 30
0.0
 11
64.35961099892074
 21
153.1938343594803
 31
0.0
  0
LINE
  5
F6C
330
18
100
AcDbEntity
  8
1
  6
Continuous
 48
0.25
100
AcDbLine
 10
43.65028350882879
 20
332.057044492715
 30
0.0
 11
49.70415957882869
 21
332.057044492715
 31
0.0
  0
LINE
  5
F6D
330
18
100
AcDbEntity
  8
1
  6
Continuous
 48
0.25
100
AcDbLine
 10
43.75133181282875
 20
334.722193510715
 30
0.0
 11
49.60311127482873
 21
334.722193510715
 31
0.0
  0
LINE
  5
F6E
330
18
100
AcDbEntity
  8
1
  6
Continuous
 48
0.25
100
AcDbLine
 10
43.57630171482878
 20
332.944826020715
 30
0.0
 11
49.77814137282871
 21
332.944826020715
 31
0.0
  0
LINE
  5
F6F
330
18
100
AcDbEntity
  8
1
  6
Continuous
 48
0.25
100
AcDbLine
 10
43.57630171482878
 20
333.8344119827149
 30
0.0
 11
49.77814137282871
 21
333.8344119827149
 31
0.0
  0
ARC
  5
F70
330
18
100
AcDbEntity
  8
1
  6
Continuous
 48
0.25
100
AcDbCircle
 10
49.18628702082878
 20
335.167888708715
 30
0.0
 40
0.4445223159000001
100
AcDbArc
 50
10.10400000000023
 51
90.0
  0
LINE
  5
F71
330
18
100
AcDbEntity
  8
1
  6
Continuous
 48
0.25
100
AcDbLine
 10
46.8719393856486
 20
320.5887167846858
 30
0.0
 11
54.20527238564864
 21
326.0887167846858
 31
0.0
  0
LINE
  5
F72
330
18
100
AcDbEntity
  8
1
  6
Continuous
 48
0.25
100
AcDbLine
 10
47.47193938564874
 20
319.788716784686
 30
0.0
 11
54.80527238564878
 21
325.2887167846858
 31
0.0
  0
ARC
  5
F73
330
18
100
AcDbEntity
  8
1
  6
Continuous
 48
0.25
100
AcDbCircle
 10
39.21137586882878
 20
333.3887167847149
 30
0.0
 40
11.46586083318
100
AcDbArc
 50
324.4620000000023
 51
35.53799999999768
  0
LINE
  5
F74
330
18
100
AcDbEntity
  8
1
  6
Continuous
 48
0.25
100
AcDbLine
 10
54.20527238564864
 20
340.688716784686
 30
0.0
 11
46.8719393856486
 21
346.1887167846859
 31
0.0
  0
LINE
  5
F75
330
18
100
AcDbEntity
  8
1
  6
Continuous
 48
0.25
100
AcDbLine
 10
54.80527238564878
 20
341.4887167846858
 30
0.0
 11
47.47193938564874
 21
346.9887167846859
 31
0.0
  0
LINE
  5
F76
330
18
100
AcDbEntity
  8
4
  6
CENTER
100
AcDbLine
 10
31.27888869385492
 20
333.388716784716
 30
0.0
 11
85.90448268621569
 21
333.3887167847121
 31
0.0
  0
LINE
  5
F77
330
18
100
AcDbEntity
  8
1
  6
Continuous
 48
0.25
100
AcDbLine
 10
38.60783888564879
 20
346.498117284686
 30
0.0
 11
33.60783888564879
 21
338.998117284686
 31
0.0
  0
LINE
  5
F78
330
18
100
AcDbEntity
  8
1
  6
Continuous
 48
0.25
100
AcDbLine
 10
39.43988888564878
 20
345.9434167846859
 30
0.0
 11
34.43988888564877
 21
338.443416784686
 31
0.0
  0
LINE
  5
F79
330
18
100
AcDbEntity
  8
1
  6
Continuous
 48
0.25
100
AcDbLine
 10
33.60783888564879
 20
327.779316284686
 30
0.0
 11
38.60783888564879
 21
320.279316284686
 31
0.0
  0
LINE
  5
F7A
330
18
100
AcDbEntity
  8
1
  6
Continuous
 48
0.25
100
AcDbLine
 10
33.27193938564869
 20
337.8887167847437
 30
0.0
 11
33.27193938564869
 21
328.888716784686
 31
0.0
  0
ARC
  5
F7B
330
18
100
AcDbEntity
  8
1
  6
Continuous
 48
0.25
100
AcDbCircle
 10
35.27193938564869
 20
328.888716784686
 30
0.0
 40
2.0
100
AcDbArc
 50
180.0
 51
213.6900679999964
  0
ARC
  5
F7C
330
18
100
AcDbEntity
  8
1
  6
Continuous
 48
0.25
100
AcDbCircle
 10
35.27193938564869
 20
337.8887167847437
 30
0.0
 40
2.0
100
AcDbArc
 50
146.3099320000036
 51
180.0
  0
LINE
  5
F7D
330
18
100
AcDbEntity
  8
1
  6
Continuous
 48
0.25
100
AcDbLine
 10
34.27193938564869
 20
337.8887167847437
 30
0.0
 11
34.27193938564869
 21
328.888716784686
 31
0.0
  0
LINE
  5
F7E
330
18
100
AcDbEntity
  8
1
  6
Continuous
 48
0.25
100
AcDbLine
 10
36.77193938564869
 20
336.2422701752787
 30
0.0
 11
36.77193938564869
 21
329.3887167847153
 31
0.0
  0
LINE
  5
F7F
330
18
100
AcDbEntity
  8
1
  6
Continuous
 48
0.25
100
AcDbLine
 10
36.77193938564869
 20
337.3887167847438
 30
0.0
 11
36.77193938564869
 21
329.3887167846861
 31
0.0
  0
LINE
  5
F80
330
18
100
AcDbEntity
  8
1
  6
Continuous
 48
0.25
100
AcDbLine
 10
40.6573548856486
 20
337.388716784686
 30
0.0
 11
40.6573548856486
 21
329.3887167846861
 31
0.0
  0
ARC
  5
F81
330
18
100
AcDbEntity
  8
1
  6
Continuous
 48
0.25
100
AcDbCircle
 10
54.14306721882872
 20
333.3887167847149
 30
0.0
 40
11.46586083318
100
AcDbArc
 50
144.4620000000023
 51
215.5377000000031
  0
LINE
  5
F82
330
18
100
AcDbEntity
  8
1
  6
Continuous
 48
0.25
100
AcDbLine
 10
40.27193938564892
 20
319.388716784686
 30
0.0
 11
46.27193938564892
 21
319.388716784686
 31
0.0
  0
LINE
  5
F83
330
18
100
AcDbEntity
  8
1
  6
Continuous
 48
0.25
100
AcDbLine
 10
40.27193938564892
 20
320.388716784686
 30
0.0
 11
46.27193938564892
 21
320.388716784686
 31
0.0
  0
LINE
  5
F84
330
18
100
AcDbEntity
  8
1
  6
Continuous
 48
0.25
100
AcDbLine
 10
37.77193938564892
 20
328.3887167847153
 30
0.0
 11
39.65735488564883
 21
328.3887167847151
 31
0.0
  0
LINE
  5
F85
330
18
100
AcDbEntity
  8
1
  6
Continuous
 48
0.25
100
AcDbLine
 10
37.77193938564892
 20
328.388716784686
 30
0.0
 11
39.6573548856486
 21
328.388716784686
 31
0.0
  0
LINE
  5
F86
330
18
100
AcDbEntity
  8
1
  6
Continuous
 48
0.25
100
AcDbLine
 10
40.6573548856486
 20
331.6387167847151
 30
0.0
 11
40.6573548856486
 21
329.3887167847151
 31
0.0
  0
ARC
  5
F87
330
18
100
AcDbEntity
  8
1
  6
Continuous
 48
0.25
100
AcDbCircle
 10
40.27193938564892
 20
321.3887167846861
 30
0.0
 40
1.0
100
AcDbArc
 50
213.6900679999964
 51
270.0
  0
ARC
  5
F88
330
18
100
AcDbEntity
  8
1
  6
Continuous
 48
0.25
100
AcDbCircle
 10
40.27193938564892
 20
321.3887167846861
 30
0.0
 40
2.0
100
AcDbArc
 50
213.6900679999964
 51
270.0
  0
LINE
  5
F89
330
18
100
AcDbEntity
  8
1
  6
Continuous
 48
0.25
100
AcDbLine
 10
34.43988888564877
 20
328.3340162846859
 30
0.0
 11
39.43988888564878
 21
320.8340162846858
 31
0.0
  0
ARC
  5
F8A
330
18
100
AcDbEntity
  8
1
  6
Continuous
 48
0.25
100
AcDbCircle
 10
37.77193938564892
 20
329.3887167847151
 30
0.0
 40
1.0
100
AcDbArc
 50
180.0
 51
270.0
  0
ARC
  5
F8B
330
18
100
AcDbEntity
  8
1
  6
Continuous
 48
0.25
100
AcDbCircle
 10
37.77193938564892
 20
329.3887167846861
 30
0.0
 40
1.0
100
AcDbArc
 50
180.0
 51
270.0
  0
ARC
  5
F8C
330
18
100
AcDbEntity
  8
1
  6
Continuous
 48
0.25
100
AcDbCircle
 10
39.65735488564883
 20
329.3887167847151
 30
0.0
 40
1.0
100
AcDbArc
 50
270.0
 51
0.0
  0
ARC
  5
F8D
330
18
100
AcDbEntity
  8
1
  6
Continuous
 48
0.25
100
AcDbCircle
 10
39.6573548856486
 20
329.3887167846861
 30
0.0
 40
1.0
100
AcDbArc
 50
270.0
 51
0.0
  0
ARC
  5
F8E
330
18
100
AcDbEntity
  8
1
  6
Continuous
 48
0.25
100
AcDbCircle
 10
35.27193938564869
 20
328.888716784686
 30
0.0
 40
1.0
100
AcDbArc
 50
180.0
 51
213.6900679999964
  0
ARC
  5
F8F
330
18
100
AcDbEntity
  8
1
  6
Continuous
 48
0.25
100
AcDbCircle
 10
39.21137586882878
 20
333.3887167847149
 30
0.0
 40
10.5770507778
100
AcDbArc
 50
333.9859999999998
 51
337.0560000000029
  0
LINE
  5
F90
330
18
100
AcDbEntity
  8
1
  6
Continuous
 48
0.25
100
AcDbLine
 10
44.36844824082867
 20
330.2778725687149
 30
0.0
 11
48.98599484682883
 21
330.2778725687149
 31
0.0
  0
LINE
  5
F91
330
18
100
AcDbEntity
  8
1
  6
Continuous
 48
0.25
100
AcDbLine
 10
49.44071221482886
 20
331.167458530715
 30
0.0
 11
47.74273982082877
 21
331.167458530715
 31
0.0
  0
LINE
  5
F92
330
18
100
AcDbEntity
  8
1
  6
Continuous
 48
0.25
100
AcDbLine
 10
44.48393201682869
 20
329.3900910407149
 30
0.0
 11
48.86870663682861
 21
329.3900910407149
 31
0.0
  0
ARC
  5
F93
330
18
100
AcDbEntity
  8
1
  6
Continuous
 48
0.25
100
AcDbCircle
 10
54.14306721882872
 20
333.3887167847149
 30
0.0
 40
10.5770507778
100
AcDbArc
 50
202.9439999999971
 51
206.0143999999998
  0
ARC
  5
F94
330
18
100
AcDbEntity
  8
1
  6
Continuous
 48
0.25
100
AcDbCircle
 10
45.03789325482876
 20
328.9462002767149
 30
0.0
 40
0.4445223159000001
100
AcDbArc
 50
206.0143999999998
 51
270.0
  0
ARC
  5
F95
330
18
100
AcDbEntity
  8
1
  6
Continuous
 48
0.25
100
AcDbCircle
 10
48.31654983282874
 20
328.9462002767149
 30
0.0
 40
0.4445223159000001
100
AcDbArc
 50
270.0
 51
333.9859999999998
  0
LINE
  5
F96
330
18
100
AcDbEntity
  8
1
  6
Continuous
 48
0.25
100
AcDbLine
 10
48.31654983282874
 20
328.5005050787149
 30
0.0
 11
45.03789325482876
 21
328.5005050787149
 31
0.0
  0
LINE
  5
F97
330
18
100
AcDbEntity
  8
1
  6
Continuous
 48
0.25
100
AcDbLine
 10
45.60989883282878
 20
331.167458530715
 30
0.0
 11
43.91373087282885
 21
331.167458530715
 31
0.0
  0
ARC
  5
F98
330
18
100
AcDbEntity
  8
1
  6
Continuous
 48
0.25
100
AcDbCircle
 10
44.36844824082867
 20
330.7235677667148
 30
0.0
 40
0.4445223159000001
100
AcDbArc
 50
195.2575000000015
 51
270.0
  0
ARC
  5
F99
330
18
100
AcDbEntity
  8
1
  6
Continuous
 48
0.25
100
AcDbCircle
 10
54.14306721882872
 20
333.3887167847149
 30
0.0
 40
10.5770507778
100
AcDbArc
 50
192.7288999999992
 51
193.2681000000005
  0
ARC
  5
F9A
330
18
100
AcDbEntity
  8
1
  6
Continuous
 48
0.25
100
AcDbCircle
 10
43.91373087282885
 20
331.079041264715
 30
0.0
 40
0.08890446318
100
AcDbArc
 50
90.0
 51
192.7288999999992
  0
ARC
  5
F9B
330
18
100
AcDbEntity
  8
1
  6
Continuous
 48
0.25
100
AcDbCircle
 10
54.14306721882872
 20
333.3887167847149
 30
0.0
 40
10.5770507778
100
AcDbArc
 50
193.2681000000005
 51
195.2575000000015
  0
ARC
  5
F9C
330
18
100
AcDbEntity
  8
1
  6
Continuous
 48
0.25
100
AcDbCircle
 10
44.48393201682869
 20
329.301673774715
 30
0.0
 40
0.08890446318
100
AcDbArc
 50
90.0
 51
202.9439999999971
  0
ARC
  5
F9D
330
18
100
AcDbEntity
  8
1
  6
Continuous
 48
0.25
100
AcDbCircle
 10
48.98599484682883
 20
330.7235677667148
 30
0.0
 40
0.4445223159000001
100
AcDbArc
 50
270.0
 51
344.7419999999993
  0
ARC
  5
F9E
330
18
100
AcDbEntity
  8
1
  6
Continuous
 48
0.25
100
AcDbCircle
 10
49.44071221482886
 20
331.079041264715
 30
0.0
 40
0.08890446318
100
AcDbArc
 50
347.2710000000012
 51
90.0
  0
ARC
  5
F9F
330
18
100
AcDbEntity
  8
1
  6
Continuous
 48
0.25
100
AcDbCircle
 10
39.21137586882878
 20
333.3887167847149
 30
0.0
 40
10.5770507778
100
AcDbArc
 50
344.7419999999993
 51
344.7939999999999
  0
ARC
  5
FA0
330
18
100
AcDbEntity
  8
1
  6
Continuous
 48
0.25
100
AcDbCircle
 10
39.21137586882878
 20
333.3887167847149
 30
0.0
 40
10.5770507778
100
AcDbArc
 50
344.7939999999999
 51
347.2710000000012
  0
ARC
  5
FA1
330
18
100
AcDbEntity
  8
1
  6
Continuous
 48
0.25
100
AcDbCircle
 10
48.86870663682861
 20
329.301673774715
 30
0.0
 40
0.08890446318
100
AcDbArc
 50
337.0560000000029
 51
90.0
  0
ARC
  5
FA2
330
18
100
AcDbEntity
  8
1
  6
Continuous
 48
0.25
100
AcDbCircle
 10
46.27193938564892
 20
321.3887167846861
 30
0.0
 40
1.0
100
AcDbArc
 50
270.0
 51
306.8698979999997
  0
ARC
  5
FA3
330
18
100
AcDbEntity
  8
1
  6
Continuous
 48
0.25
100
AcDbCircle
 10
46.27193938564892
 20
321.3887167846861
 30
0.0
 40
2.0
100
AcDbArc
 50
270.0
 51
306.8698979999997
  0
LINE
  5
FA4
330
18
100
AcDbEntity
  8
1
  6
Continuous
 48
0.25
100
AcDbLine
 10
44.23852899282859
 20
327.6127235507151
 30
0.0
 11
48.07114680882865
 21
327.6127235507151
 31
0.0
  0
ARC
  5
FA5
330
18
100
AcDbEntity
  8
1
  6
Continuous
 48
0.25
100
AcDbCircle
 10
46.67631932682866
 20
328.056614314715
 30
0.0
 40
2.2906387413
100
AcDbArc
 50
215.5377000000031
 51
256.5374000000026
  0
ARC
  5
FA6
330
18
100
AcDbEntity
  8
1
  6
Continuous
 48
0.25
100
AcDbCircle
 10
46.67631932682866
 20
328.056614314715
 30
0.0
 40
2.2906387413
100
AcDbArc
 50
270.0
 51
324.4620000000023
  0
LINE
  5
FA7
330
18
100
AcDbEntity
  8
1
  6
Continuous
 48
0.25
100
AcDbLine
 10
37.77193938564892
 20
338.3887167847153
 30
0.0
 11
39.65735488564883
 21
338.3887167847151
 31
0.0
  0
ARC
  5
FA8
330
18
100
AcDbEntity
  8
1
  6
Continuous
 48
0.25
100
AcDbCircle
 10
35.27193938564869
 20
337.8887167847437
 30
0.0
 40
1.0
100
AcDbArc
 50
146.3099320000036
 51
180.0
  0
ARC
  5
FA9
330
18
100
AcDbEntity
  8
1
  6
Continuous
 48
0.25
100
AcDbCircle
 10
37.77193938564892
 20
337.3887167847438
 30
0.0
 40
1.0
100
AcDbArc
 50
90.0
 51
180.0
  0
ARC
  5
FAA
330
18
100
AcDbEntity
  8
1
  6
Continuous
 48
0.25
100
AcDbCircle
 10
37.77193938564892
 20
337.3887167847147
 30
0.0
 40
1.0
100
AcDbArc
 50
90.0
 51
180.0
  0
ARC
  5
FAB
330
18
100
AcDbEntity
  8
1
  6
Continuous
 48
0.25
100
AcDbCircle
 10
39.65735488564883
 20
337.3887167847152
 30
0.0
 40
1.0
100
AcDbArc
 50
0.0
 51
90.0
  0
ARC
  5
FAC
330
18
100
AcDbEntity
  8
1
  6
Continuous
 48
0.25
100
AcDbCircle
 10
39.6573548856486
 20
337.388716784686
 30
0.0
 40
1.0
100
AcDbArc
 50
0.0
 51
90.0
  0
LINE
  5
FAD
330
18
100
AcDbEntity
  8
1
  6
Continuous
 48
0.25
100
AcDbLine
 10
40.6573548856486
 20
337.3887167847152
 30
0.0
 11
40.6573548856486
 21
335.1387167847152
 31
0.0
  0
LINE
  5
FAE
330
18
100
AcDbEntity
  8
1
  6
Continuous
 48
0.25
100
AcDbLine
 10
46.67631932682866
 20
341.0124504347149
 30
0.0
 11
46.67631932682866
 21
339.1755366227148
 31
0.0
  0
LINE
  5
FAF
330
18
100
AcDbEntity
  8
1
  6
Continuous
 48
0.25
100
AcDbLine
 10
43.75494068082868
 20
336.4995610007149
 30
0.0
 11
49.31981513682877
 21
336.4995610007149
 31
0.0
  0
LINE
  5
FB0
330
18
100
AcDbEntity
  8
1
  6
Continuous
 48
0.25
100
AcDbLine
 10
46.67631932682866
 20
337.833037726715
 30
0.0
 11
48.8091603148289
 21
337.833037726715
 31
0.0
  0
LINE
  5
FB1
330
18
100
AcDbEntity
  8
1
  6
Continuous
 48
0.25
100
AcDbLine
 10
49.18628702082878
 20
335.6117794727149
 30
0.0
 11
46.67631932682866
 21
335.6117794727149
 31
0.0
  0
LINE
  5
FB2
330
18
100
AcDbEntity
  8
1
  6
Continuous
 48
0.25
100
AcDbLine
 10
46.67631932682866
 20
332.944826020715
 30
0.0
 11
46.67631932682866
 21
332.057044492715
 31
0.0
  0
LINE
  5
FB3
330
18
100
AcDbEntity
  8
1
  6
Continuous
 48
0.25
100
AcDbLine
 10
48.34000747482878
 20
338.729841424715
 30
0.0
 11
44.59400249082886
 21
339.7349111627149
 31
0.0
  0
LINE
  5
FB4
330
18
100
AcDbEntity
  8
1
  6
Continuous
 48
0.25
100
AcDbLine
 10
46.23242856282877
 20
338.278732924715
 30
0.0
 11
44.33416399482871
 21
338.278732924715
 31
0.0
  0
LINE
  5
FB5
330
18
100
AcDbEntity
  8
1
  6
Continuous
 48
0.25
100
AcDbLine
 10
44.17356936882879
 20
337.3891469627151
 30
0.0
 11
46.23242856282877
 21
337.3891469627151
 31
0.0
  0
LINE
  5
FB6
330
18
100
AcDbEntity
  8
1
  6
Continuous
 48
0.25
100
AcDbLine
 10
45.60989883282878
 20
335.6117794727149
 30
0.0
 11
44.1681560668287
 21
335.6117794727149
 31
0.0
  0
ARC
  5
FB7
330
18
100
AcDbEntity
  8
1
  6
Continuous
 48
0.25
100
AcDbCircle
 10
44.1681560668287
 20
335.167888708715
 30
0.0
 40
0.4445223159000001
100
AcDbArc
 50
90.0
 51
169.8959999999997
  0
ARC
  5
FB8
330
18
100
AcDbEntity
  8
1
  6
Continuous
 48
0.25
100
AcDbCircle
 10
43.75133181282875
 20
334.812415210715
 30
0.0
 40
0.08890446318
100
AcDbArc
 50
172.2069999999992
 51
270.0
  0
ARC
  5
FB9
330
18
100
AcDbEntity
  8
1
  6
Continuous
 48
0.25
100
AcDbCircle
 10
54.14306721882872
 20
333.3887167847149
 30
0.0
 40
10.5770507778
100
AcDbArc
 50
169.8959999999997
 51
172.2069999999992
  0
ARC
  5
FBA
330
18
100
AcDbEntity
  8
1
  6
Continuous
 48
0.25
100
AcDbCircle
 10
46.23242856282877
 20
337.833037726715
 30
0.0
 40
0.4445223159000001
100
AcDbArc
 50
270.0
 51
90.0
  0
LINE
  5
FBB
330
18
100
AcDbEntity
  8
1
  6
Continuous
 48
0.25
100
AcDbLine
 10
46.67631932682866
 20
335.6117794727149
 30
0.0
 11
46.67631932682866
 21
335.167888708715
 31
0.0
  0
ARC
  5
FBC
330
18
100
AcDbEntity
  8
1
  6
Continuous
 48
0.25
100
AcDbCircle
 10
46.67631932682866
 20
338.7226236887149
 30
0.0
 40
2.2906387413
100
AcDbArc
 50
35.53799999999768
 51
45.69900000000306
  0
ARC
  5
FBD
330
18
100
AcDbEntity
  8
1
  6
Continuous
 48
0.25
100
AcDbCircle
 10
46.67631932682866
 20
338.7226236887149
 30
0.0
 40
2.2906387413
100
AcDbArc
 50
62.25000000000321
 51
144.4620000000023
  0
LINE
  5
FBE
330
18
100
AcDbEntity
  8
1
  6
Continuous
 48
0.25
100
AcDbLine
 10
46.27193938564892
 20
346.388716784686
 30
0.0
 11
40.27193938564892
 21
346.388716784686
 31
0.0
  0
LINE
  5
FBF
330
18
100
AcDbEntity
  8
1
  6
Continuous
 48
0.25
100
AcDbLine
 10
46.27193938564892
 20
347.388716784686
 30
0.0
 11
40.27193938564892
 21
347.388716784686
 31
0.0
  0
ARC
  5
FC0
330
18
100
AcDbEntity
  8
1
  6
Continuous
 48
0.25
100
AcDbCircle
 10
40.27193938564892
 20
345.388716784686
 30
0.0
 40
2.0
100
AcDbArc
 50
90.0
 51
146.3099320000027
  0
ARC
  5
FC1
330
18
100
AcDbEntity
  8
1
  6
Continuous
 48
0.25
100
AcDbCircle
 10
40.27193938564892
 20
345.388716784686
 30
0.0
 40
1.0
100
AcDbArc
 50
90.0
 51
146.3099320000027
  0
ARC
  5
FC2
330
18
100
AcDbEntity
  8
1
  6
Continuous
 48
0.25
100
AcDbCircle
 10
46.27193938564892
 20
345.388716784686
 30
0.0
 40
1.0
100
AcDbArc
 50
53.13010200000036
 51
90.0
  0
ARC
  5
FC3
330
18
100
AcDbEntity
  8
1
  6
Continuous
 48
0.25
100
AcDbCircle
 10
46.27193938564892
 20
345.388716784686
 30
0.0
 40
2.0
100
AcDbArc
 50
53.13010200000036
 51
90.0
  0
LINE
  5
FC4
330
18
100
AcDbEntity
  8
1
  6
Continuous
 48
0.25
100
AcDbLine
 10
62.20527238564864
 20
336.463716784724
 30
0.0
 11
81.10527238564873
 21
336.463716784724
 31
0.0
  0
LINE
  5
FC5
330
18
100
AcDbEntity
  8
1
  6
Continuous
 48
0.25
100
AcDbLine
 10
62.20527238564841
 20
330.3137167847241
 30
0.0
 11
81.10527238564873
 21
330.3137167847241
 31
0.0
  0
LINE
  5
FC6
330
18
100
AcDbEntity
  8
1
  6
Continuous
 48
0.25
100
AcDbLine
 10
54.60527238564872
 20
326.888716784686
 30
0.0
 11
54.60527238564872
 21
339.8887167846861
 31
0.0
  0
LINE
  5
FC7
330
18
100
AcDbEntity
  8
1
  6
Continuous
 48
0.25
100
AcDbLine
 10
55.60527238564873
 20
326.888716784686
 30
0.0
 11
55.60527238564873
 21
339.8887167846861
 31
0.0
  0
LINE
  5
FC8
330
18
100
AcDbEntity
  8
1
  6
Continuous
 48
0.25
100
AcDbLine
 10
55.60527238564873
 20
327.3887167847151
 30
0.0
 11
60.60527238564873
 21
327.3887167847151
 31
0.0
  0
ARC
  5
FC9
330
18
100
AcDbEntity
  8
1
  6
Continuous
 48
0.25
100
AcDbCircle
 10
53.60527238564873
 20
326.888716784686
 30
0.0
 40
1.0
100
AcDbArc
 50
306.8698979999997
 51
0.0
  0
ARC
  5
FCA
330
18
100
AcDbEntity
  8
1
  6
Continuous
 48
0.25
100
AcDbCircle
 10
53.60527238564873
 20
326.888716784686
 30
0.0
 40
2.0
100
AcDbArc
 50
306.8698979999997
 51
0.0
  0
LINE
  5
FCB
330
18
100
AcDbEntity
  8
1
  6
Continuous
 48
0.25
100
AcDbLine
 10
61.90527238564868
 20
330.613716784724
 30
0.0
 11
62.20527238564864
 21
330.3137167847237
 31
0.0
  0
LINE
  5
FCC
330
18
100
AcDbEntity
  8
1
  6
Continuous
 48
0.25
100
AcDbLine
 10
61.10527238564873
 20
330.6137167847241
 30
0.0
 11
61.90527238564868
 21
330.6137167847241
 31
0.0
  0
ARC
  5
FCD
330
18
100
AcDbEntity
  8
1
  6
Continuous
 48
0.25
100
AcDbCircle
 10
60.60527238564873
 20
327.8887167847151
 30
0.0
 40
0.5
100
AcDbArc
 50
270.0
 51
0.0
  0
LINE
  5
FCE
330
18
100
AcDbEntity
  8
1
  6
Continuous
 48
0.25
100
AcDbLine
 10
61.10527238564873
 20
330.6137167847241
 30
0.0
 11
61.10527238564873
 21
327.8887167847151
 31
0.0
  0
LINE
  5
FCF
330
18
100
AcDbEntity
  8
1
  6
Continuous
 48
0.25
100
AcDbLine
 10
55.60527238564873
 20
339.3887167847152
 30
0.0
 11
60.60527238564873
 21
339.3887167847152
 31
0.0
  0
ARC
  5
FD0
330
18
100
AcDbEntity
  8
1
  6
Continuous
 48
0.25
100
AcDbCircle
 10
53.60527238564873
 20
339.8887167846861
 30
0.0
 40
1.0
100
AcDbArc
 50
0.0
 51
53.13010200000036
  0
ARC
  5
FD1
330
18
100
AcDbEntity
  8
1
  6
Continuous
 48
0.25
100
AcDbCircle
 10
39.21137586882878
 20
333.3887167847149
 30
0.0
 40
10.5770507778
100
AcDbArc
 50
7.793000000000759
 51
10.10400000000023
  0
ARC
  5
FD2
330
18
100
AcDbEntity
  8
1
  6
Continuous
 48
0.25
100
AcDbCircle
 10
49.60311127482873
 20
334.812415210715
 30
0.0
 40
0.08890446318
100
AcDbArc
 50
270.0
 51
7.793000000000759
  0
ARC
  5
FD3
330
18
100
AcDbEntity
  8
1
  6
Continuous
 48
0.25
100
AcDbCircle
 10
53.60527238564873
 20
339.8887167846861
 30
0.0
 40
2.0
100
AcDbArc
 50
0.0
 51
53.13010200000036
  0
ARC
  5
FD4
330
18
100
AcDbEntity
  8
1
  6
Continuous
 48
0.25
100
AcDbCircle
 10
60.60527238564873
 20
338.8887167847152
 30
0.0
 40
0.5
100
AcDbArc
 50
0.0
 51
90.0
  0
LINE
  5
FD5
330
18
100
AcDbEntity
  8
1
  6
Continuous
 48
0.25
100
AcDbLine
 10
61.10527238564873
 20
336.163716784724
 30
0.0
 11
61.90527238564868
 21
336.163716784724
 31
0.0
  0
LINE
  5
FD6
330
18
100
AcDbEntity
  8
1
  6
Continuous
 48
0.25
100
AcDbLine
 10
61.90527238564868
 20
336.163716784724
 30
0.0
 11
62.20527238564887
 21
336.4637167847241
 31
0.0
  0
LINE
  5
FD7
330
18
100
AcDbEntity
  8
1
  6
Continuous
 48
0.25
100
AcDbLine
 10
61.10527238564873
 20
338.8887167847152
 30
0.0
 11
61.10527238564873
 21
336.163716784724
 31
0.0
  0
LINE
  5
FD8
330
18
100
AcDbEntity
  8
1
  6
Continuous
 48
0.25
100
AcDbLine
 10
82.13302919922716
 20
335.7470437271583
 30
0.0
 11
82.13302919922716
 21
331.0303898422696
 31
0.0
  0
LINE
  5
FD9
330
18
100
AcDbEntity
  8
1
  6
Continuous
 48
0.25
100
AcDbLine
 10
83.07711380448472
 20
331.6887167846869
 30
0.0
 11
81.10527238564873
 21
330.3137167847241
 31
0.0
  0
ARC
  5
FDA
330
18
100
AcDbEntity
  8
1
  6
Continuous
 48
0.25
100
AcDbCircle
 10
80.60527238564873
 20
333.3887167847241
 30
0.0
 40
3.0
100
AcDbArc
 50
325.4818921580715
 51
34.51810784019474
  0
LINE
  5
FDB
330
18
100
AcDbEntity
  8
1
  6
Continuous
 48
0.25
100
AcDbLine
 10
83.07711380453588
 20
335.0887167846867
 30
0.0
 11
81.10527238564873
 21
336.463716784724
 31
0.0
  0
ARC
  5
FDC
330
18
100
AcDbEntity
  8
1
  6
Continuous
100
AcDbCircle
 10
54.95961099824535
 20
155.7938343594723
 30
0.0
 40
15.99999999999994
100
AcDbArc
 50
180.0
 51
0.0
  0
ARC
  5
FDD
330
18
100
AcDbEntity
  8
1
  6
Continuous
100
AcDbCircle
 10
54.95961099824535
 20
155.7938343594723
 30
0.0
 40
11.99999999999993
100
AcDbArc
 50
180.0
 51
0.0
  0
ARC
  5
FDE
330
18
100
AcDbEntity
  8
5
  6
PHANTOM
100
AcDbCircle
 10
54.95961099885755
 20
149.193834358874
 30
0.0
 40
9.400000000007819
100
AcDbArc
 50
180.0
 51
0.0
  0
ARC
  5
FE1
330
18
100
AcDbEntity
  8
1
  6
Continuous
100
AcDbCircle
 10
54.95961099891292
 20
153.1938343594803
 30
0.0
 40
9.400000000007819
100
AcDbArc
 50
180.0
 51
0.0
  0
ARC
  5
FE2
330
18
100
AcDbEntity
  8
1
  6
Continuous
100
AcDbCircle
 10
54.95961099891292
 20
153.1938343594803
 30
0.0
 40
7.900000000007822
100
AcDbArc
 50
180.0
 51
0.0
  0
ARC
  5
FE3
330
18
100
AcDbEntity
  8
1
  6
Continuous
100
AcDbCircle
 10
60.85961099891664
 20
157.7938343594755
 30
0.0
 40
2.0
100
AcDbArc
 50
0.0
 51
90.0
  0
LINE
  5
FE4
330
18
100
AcDbEntity
  8
1
  6
Continuous
100
AcDbLine
 10
62.85961099891756
 20
156.7720746429046
 30
0.0
 11
47.05961099891668
 21
156.7720746429046
 31
0.0
  0
LINE
  5
FE5
330
18
100
AcDbEntity
  8
1
  6
Continuous
100
AcDbLine
 10
62.85961099891756
 20
156.7720746429046
 30
0.0
 11
56.95961099892065
 21
145.5511908377603
 31
0.0
  0
LINE
  5
FE7
330
18
100
AcDbEntity
  8
1
  6
Continuous
100
AcDbLine
 10
62.3566677158492
 20
155.8155546191943
 30
0.0
 11
47.56255428199064
 21
155.8155546191848
 31
0.0
  0
LINE
  5
FE9
330
18
100
AcDbEntity
  8
1
  6
Continuous
100
AcDbLine
 10
61.85372443283643
 20
154.8590345955896
 30
0.0
 11
48.06549756500351
 21
154.8590345955807
 31
0.0
  0
LINE
  5
FEA
330
18
100
AcDbEntity
  8
1
  6
Continuous
100
AcDbLine
 10
47.17425910523115
 20
151.8528288070452
 30
0.0
 11
45.65575673799037
 21
151.8528288070452
 31
0.0
  0
ARC
  5
FEB
330
18
100
AcDbEntity
  8
1
  6
Continuous
100
AcDbCircle
 10
46.40961099886964
 20
154.7938343592275
 30
0.0
 40
1.0
100
AcDbArc
 50
180.0
 51
211.7883306226035
  0
LINE
  5
FEC
330
18
100
AcDbEntity
  8
1
  6
Continuous
100
AcDbLine
 10
45.55961099886554
 20
161.7938343589896
 30
0.0
 11
45.39198424092126
 21
161.7938343589896
 31
0.0
  0
ARC
  5
FED
330
18
100
AcDbEntity
  8
1
  6
Continuous
100
AcDbCircle
 10
46.4020580323014
 20
157.7938343592208
 30
0.0
 40
1.0
100
AcDbArc
 50
180.1442507309392
 51
212.6005703924171
  0
LINE
  5
FEE
330
18
100
AcDbEntity
  8
1
  6
Continuous
100
AcDbLine
 10
45.55961099892066
 20
161.793834359596
 30
0.0
 11
45.40961099892069
 21
161.793834359596
 31
0.0
  0
LINE
  5
FEF
330
18
100
AcDbEntity
  8
1
  6
Continuous
100
AcDbLine
 10
45.38694892987449
 20
163.7938343594804
 30
0.0
 11
45.55961099892066
 21
163.7938343594804
 31
0.0
  0
LINE
  5
FF0
330
18
100
AcDbEntity
  8
1
  6
Continuous
100
AcDbLine
 10
52.95961099892075
 20
145.5511908377559
 30
0.0
 11
47.0596109989168
 21
156.7720746429046
 31
0.0
  0
LINE
  5
FF1
330
18
100
AcDbEntity
  8
1
  6
Continuous
100
AcDbLine
 10
47.05961099890521
 20
153.1938343594803
 30
0.0
 11
47.0596109989201
 21
157.7938343594917
 31
0.0
  0
LINE
  5
FF2
330
18
100
AcDbEntity
  8
1
  6
Continuous
100
AcDbLine
 10
61.35078114982356
 20
153.9025145719849
 30
0.0
 11
48.5684408480164
 21
153.9025145719767
 31
0.0
  0
LINE
  5
FF4
330
18
100
AcDbEntity
  8
1
  6
Continuous
100
AcDbLine
 10
60.84783786681065
 20
152.9459945483802
 30
0.0
 11
49.07138413102927
 21
152.9459945483726
 31
0.0
  0
LINE
  5
FF6
330
18
100
AcDbEntity
  8
1
  6
Continuous
100
AcDbLine
 10
60.34489458379801
 20
151.9894745247755
 30
0.0
 11
49.57432741404216
 21
151.9894745247686
 31
0.0
  0
LINE
  5
FF8
330
18
100
AcDbEntity
  8
1
  6
Continuous
100
AcDbLine
 10
59.84195130078513
 20
151.0329545011708
 30
0.0
 11
50.07727069705503
 21
151.0329545011645
 31
0.0
  0
LINE
  5
FFA
330
18
100
AcDbEntity
  8
1
  6
Continuous
100
AcDbLine
 10
59.33900801777224
 20
150.0764344775661
 30
0.0
 11
50.58021398006792
 21
150.0764344775604
 31
0.0
  0
LINE
  5
FFC
330
18
100
AcDbEntity
  8
1
  6
Continuous
100
AcDbLine
 10
58.33312145174669
 20
148.1633944303566
 30
0.0
 11
51.58610054609368
 21
148.1633944303524
 31
0.0
  0
LINE
  5
FFE
330
18
100
AcDbEntity
  8
1
  6
Continuous
100
AcDbLine
 10
57.83017816873393
 20
147.2068744067521
 30
0.0
 11
52.08904382910657
 21
147.2068744067484
 31
0.0
  0
LINE
  5
1001
330
18
100
AcDbEntity
  8
1
  6
Continuous
100
AcDbLine
 10
57.32723488572094
 20
146.2503543831471
 30
0.0
 11
52.59198711211957
 21
146.2503543831441
 31
0.0
  0
LINE
  5
1002
330
18
100
AcDbEntity
  8
1
  6
Continuous
100
AcDbLine
 10
58.8360647347596
 20
149.1199144539615
 30
0.0
 11
51.08315726308081
 21
149.1199144539565
 31
0.0
  0
ARC
  5
1005
330
18
100
AcDbEntity
  8
1
  6
Continuous
100
AcDbCircle
 10
54.95961099886779
 20
168.7938343594274
 30
0.0
 40
4.5
100
AcDbArc
 50
254.4174999999442
 51
285.5825000000558
  0
LINE
  5
1006
330
18
100
AcDbEntity
  8
1
  6
Continuous
100
AcDbLine
 10
60.85961099891823
 20
159.7938343594755
 30
0.0
 11
49.0596109989217
 21
159.7938343594853
 31
0.0
  0
LINE
  5
1007
330
18
100
AcDbEntity
  8
1
  6
Continuous
100
AcDbLine
 10
53.90961099886772
 20
164.618048715683
 30
0.0
 11
52.96127284994621
 21
163.6697105667616
 31
0.0
  0
ARC
  5
1008
330
18
100
AcDbEntity
  8
1
  6
Continuous
100
AcDbCircle
 10
49.05961099892
 20
157.7938343594853
 30
0.0
 40
2.0
100
AcDbArc
 50
90.0
 51
180.0
  0
LINE
  5
1009
330
18
100
AcDbEntity
  8
1
  6
Continuous
100
AcDbLine
 10
56.00961099886774
 20
164.6180487156831
 30
0.0
 11
56.95794914778923
 21
163.6697105667615
 31
0.0
  0
ARC
  5
100A
330
18
100
AcDbEntity
  8
1
  6
Continuous
100
AcDbCircle
 10
63.50961099886967
 20
154.7938343592578
 30
0.0
 40
1.0
100
AcDbArc
 50
328.2116693884912
 51
0.0
  0
LINE
  5
100B
330
18
100
AcDbEntity
  8
1
  6
Continuous
100
AcDbLine
 10
62.85961099892074
 20
153.1938343594803
 30
0.0
 11
62.85961099891665
 21
157.7938343594773
 31
0.0
  0
LINE
  5
100C
330
18
100
AcDbEntity
  8
1
  6
Continuous
100
AcDbLine
 10
64.26346525983729
 20
151.8528288070452
 30
0.0
 11
62.74496289259456
 21
151.8528288070452
 31
0.0
  0
LINE
  5
100D
330
18
100
AcDbEntity
  8
1
  6
Continuous
100
AcDbLine
 10
64.52723775681795
 20
161.7938343589896
 30
0.0
 11
64.35961099886549
 21
161.7938343589896
 31
0.0
  0
ARC
  5
100E
330
18
100
AcDbEntity
  8
1
  6
Continuous
100
AcDbCircle
 10
63.51716396543793
 20
157.7938343592512
 30
0.0
 40
1.0
100
AcDbArc
 50
327.3994296184385
 51
359.8557492690575
  0
LINE
  5
100F
330
18
100
AcDbEntity
  8
1
  6
Continuous
100
AcDbLine
 10
64.50961099892072
 20
161.793834359596
 30
0.0
 11
64.35961099892074
 21
161.793834359596
 31
0.0
  0
LINE
  5
1010
330
18
100
AcDbEntity
  8
1
  6
Continuous
100
AcDbLine
 10
64.35961099892074
 20
163.7938343594804
 30
0.0
 11
64.53227306786482
 21
163.7938343594804
 31
0.0
  0
LINE
  5
1014
330
18
100
AcDbEntity
  8
1
  6
Continuous
100
AcDbLine
 10
64.56752024518346
 20
177.7938343594723
 30
0.0
 11
45.35170175255575
 21
177.7938343594883
 31
0.0
  0
LINE
  5
1015
330
18
100
AcDbEntity
  8
4
  6
CENTER
100
AcDbLine
 10
44.10961099892074
 20
168.7938343594804
 30
0.0
 11
65.80961099892068
 21
168.7938343594804
 31
0.0
  0
ARC
  5
1019
330
18
100
AcDbEntity
  8
1
  6
Continuous
100
AcDbCircle
 10
54.95961099825286
 20
241.7938343594577
 30
0.0
 40
16.0
100
AcDbArc
 50
0.0
 51
180.0
  0
ARC
  5
101A
330
18
100
AcDbEntity
  8
1
  6
Continuous
100
AcDbCircle
 10
54.95961099825286
 20
241.7938343594577
 30
0.0
 40
12.0
100
AcDbArc
 50
0.0
 51
180.0
  0
LINE
  5
101B
330
18
100
AcDbEntity
  8
4
  6
CENTER
100
AcDbLine
 10
74.4651666334845
 20
233.9938343594576
 30
0.0
 11
35.68035266600771
 21
233.9938343594576
 31
0.0
  0
LINE
  5
101C
330
18
100
AcDbEntity
  8
5
  6
PHANTOM
100
AcDbLine
 10
59.65961099831202
 20
242.1344731543073
 30
0.0
 11
105.9920148528871
 21
215.384447316659
 31
0.0
  0
LINE
  5
101D
330
18
100
AcDbEntity
  8
5
  6
PHANTOM
100
AcDbLine
 10
50.25961099831022
 20
225.8531955631609
 30
0.0
 11
96.5919701009184
 21
199.1031955638438
 31
0.0
  0
LINE
  5
101E
330
18
100
AcDbEntity
  8
4
  6
CENTER
100
AcDbLine
 10
54.95961099886971
 20
233.9938343590165
 30
0.0
 11
105.8340842726681
 21
204.6214435195394
 31
0.0
  0
ARC
  5
101F
330
18
100
AcDbEntity
  8
1
  6
Continuous
100
AcDbCircle
 10
54.95961099886971
 20
234.2438343594576
 30
0.0
 40
9.75
100
AcDbArc
 50
359.8557492690575
 51
180.1442507309392
  0
LINE
  5
1020
330
18
100
AcDbEntity
  8
5
  6
PHANTOM
100
AcDbLine
 10
106.7240209084872
 20
212.6524223474222
 30
0.0
 11
99.32402090848725
 21
199.8352463714127
 31
0.0
  0
LINE
  5
1021
330
18
100
AcDbEntity
  8
1
  6
Continuous
100
AcDbLine
 10
45.5596109990131
 20
221.0874015162533
 30
0.0
 11
45.55961099900753
 21
180.4938343595798
 31
0.0
  0
ARC
  5
1025
330
18
100
AcDbEntity
  8
5
  6
PHANTOM
100
AcDbCircle
 10
97.59197010091838
 20
200.8352463714127
 30
0.0
 40
2.0
100
AcDbArc
 50
239.9999999999999
 51
330.0
  0
ARC
  5
1026
330
18
100
AcDbEntity
  8
1
  6
Continuous
100
AcDbCircle
 10
46.55961099892066
 20
176.7938343594873
 30
0.0
 40
1.0
100
AcDbArc
 50
90.0
 51
180.0
  0
LINE
  5
1027
330
18
100
AcDbEntity
  8
1
  6
Continuous
100
AcDbLine
 10
45.36177237464686
 20
173.7938343594804
 30
0.0
 11
45.55961099892066
 21
173.7938343594804
 31
0.0
  0
LINE
  5
1028
330
18
100
AcDbEntity
  8
1
  6
Continuous
100
AcDbLine
 10
45.55961099900753
 20
183.8938343592255
 30
0.0
 11
45.40961099904778
 21
183.8938343592253
 31
0.0
  0
ARC
  5
1029
330
18
100
AcDbEntity
  8
1
  6
Continuous
100
AcDbCircle
 10
46.32626409767556
 20
187.8988006425033
 30
0.0
 40
1.0
100
AcDbArc
 50
140.0542840245011
 51
180.1442507309392
  0
ARC
  5
102A
330
18
100
AcDbEntity
  8
1
  6
Continuous
100
AcDbCircle
 10
46.32247436357284
 20
189.4040638004095
 30
0.0
 40
1.0
100
AcDbArc
 50
139.7172802086879
 51
180.1442507309392
  0
ARC
  5
102B
330
18
100
AcDbEntity
  8
1
  6
Continuous
100
AcDbCircle
 10
54.95961099886779
 20
168.7938343594274
 30
0.0
 40
5.000000000010571
100
AcDbArc
 50
75.5224878141036
 51
104.4775121858964
  0
LINE
  5
102C
330
18
100
AcDbEntity
  8
1
  6
Continuous
100
AcDbLine
 10
56.00961099886774
 20
170.6438343594275
 30
0.0
 11
53.90961099886772
 21
170.6438343594275
 31
0.0
  0
LINE
  5
102D
330
18
100
AcDbEntity
  8
1
  6
Continuous
100
AcDbLine
 10
52.95961099892065
 20
178.493834360186
 30
0.0
 11
52.95961099892065
 21
177.793834359482
 31
0.0
  0
LINE
  5
102E
330
18
100
AcDbEntity
  8
1
  6
Continuous
100
AcDbLine
 10
50.45961099892065
 20
178.493834360186
 30
0.0
 11
50.45961099892065
 21
177.7938343594841
 31
0.0
  0
LINE
  5
102F
330
18
100
AcDbEntity
  8
1
  6
Continuous
100
AcDbLine
 10
59.45961099892065
 20
178.493834360186
 30
0.0
 11
59.45961099892065
 21
177.7938343594767
 31
0.0
  0
LINE
  5
1030
330
18
100
AcDbEntity
  8
1
  6
Continuous
100
AcDbLine
 10
56.95961099892065
 20
178.493834360186
 30
0.0
 11
56.95961099892065
 21
177.7938343594787
 31
0.0
  0
LINE
  5
1033
330
18
100
AcDbEntity
  8
1
  6
Continuous
100
AcDbLine
 10
45.95961099886983
 20
231.1654072347708
 30
0.0
 11
45.95961099886983
 21
230.1047470625021
 31
0.0
  0
ARC
  5
1034
330
18
100
AcDbEntity
  8
1
  6
Continuous
100
AcDbCircle
 10
51.22155797776668
 20
229.4938343594576
 30
0.0
 40
6.0
100
AcDbArc
 50
180.1442507309392
 51
205.7402114348615
  0
LINE
  5
1035
330
18
100
AcDbEntity
  8
1
  6
Continuous
100
AcDbLine
 10
45.95961099886983
 20
230.1047470625019
 30
0.0
 11
45.55961099886984
 21
221.0874015130215
 31
0.0
  0
LINE
  5
1038
330
18
100
AcDbEntity
  8
1
  6
Continuous
100
AcDbLine
 10
64.35961099901304
 20
221.0874015097874
 30
0.0
 11
64.35961099900747
 21
180.4938343595797
 31
0.0
  0
ARC
  5
103B
330
18
100
AcDbEntity
  8
5
  6
PHANTOM
100
AcDbCircle
 10
104.9919701009183
 20
213.6524223474223
 30
0.0
 40
2.0
100
AcDbArc
 50
330.0
 51
60.0
  0
ARC
  5
103C
330
18
100
AcDbEntity
  8
1
  6
Continuous
100
AcDbCircle
 10
63.35961099892074
 20
176.7938343594734
 30
0.0
 40
1.0
100
AcDbArc
 50
0.0
 51
90.0
  0
LINE
  5
103D
330
18
100
AcDbEntity
  8
1
  6
Continuous
100
AcDbLine
 10
64.35961099892074
 20
173.7938343594804
 30
0.0
 11
64.55744962309245
 21
173.7938343594804
 31
0.0
  0
LINE
  5
103E
330
18
100
AcDbEntity
  8
1
  6
Continuous
100
AcDbLine
 10
64.50961099887706
 20
183.8938343592593
 30
0.0
 11
64.35961099900747
 21
183.8938343592591
 31
0.0
  0
ARC
  5
103F
330
18
100
AcDbEntity
  8
1
  6
Continuous
100
AcDbCircle
 10
63.59295790006378
 20
187.898800642534
 30
0.0
 40
1.0
100
AcDbArc
 50
359.8557492690575
 51
39.94571595070393
  0
ARC
  5
1040
330
18
100
AcDbEntity
  8
1
  6
Continuous
100
AcDbCircle
 10
63.59674763416649
 20
189.4040638004403
 30
0.0
 40
1.0
100
AcDbArc
 50
359.8557492690575
 51
40.28271976665346
  0
LINE
  5
104B
330
18
100
AcDbEntity
  8
1
  6
Continuous
100
AcDbLine
 10
63.95961099886971
 20
231.1654072342533
 30
0.0
 11
63.95961099886971
 21
230.1047470625025
 31
0.0
  0
ARC
  5
104C
330
18
100
AcDbEntity
  8
1
  6
Continuous
100
AcDbCircle
 10
58.69766401997265
 20
229.4938343594576
 30
0.0
 40
6.0
100
AcDbArc
 50
334.2597885651418
 51
359.8557492690575
  0
LINE
  5
104D
330
18
100
AcDbEntity
  8
1
  6
Continuous
100
AcDbLine
 10
63.95961099886971
 20
230.1047470625025
 30
0.0
 11
64.35961099886992
 21
221.0874015130216
 31
0.0
  0
LINE
  5
114B
330
18
100
AcDbEntity
  8
1
  6
Continuous
100
AcDbLine
 10
207.3951560806158
 20
253.7938343594121
 30
0.0
 11
207.3951560806201
 21
143.7938343594423
 31
0.0
  0
LINE
  5
114C
330
18
100
AcDbEntity
  8
1
  6
Continuous
100
AcDbLine
 10
212.3951560806158
 20
257.7938343594205
 30
0.0
 11
212.39515608062
 21
139.7938343594349
 31
0.0
  0
LINE
  5
114D
330
18
100
AcDbEntity
  8
1
  6
Continuous
100
AcDbLine
 10
210.3951560806158
 20
257.7938343594205
 30
0.0
 11
210.3951560806201
 21
139.7938343594349
 31
0.0
  0
LINE
  5
114E
330
18
100
AcDbEntity
  8
1
  6
Continuous
100
AcDbLine
 10
225.3951560806201
 20
188.2040638006068
 30
0.0
 11
225.3951560806201
 21
150.7938343594155
 31
0.0
  0
LINE
  5
114F
330
18
100
AcDbEntity
  8
1
  6
Continuous
100
AcDbLine
 10
228.3951560806201
 20
150.7938343594557
 30
0.0
 11
228.3951560806201
 21
186.7938343594556
 31
0.0
  0
LINE
  5
1152
330
18
100
AcDbEntity
  8
1
  6
Continuous
100
AcDbLine
 10
338.6279058158934
 20
160.2938343597469
 30
0.0
 11
338.6279058159557
 21
174.2938343597496
 31
0.0
  0
LINE
  5
1153
330
18
100
AcDbEntity
  8
1
  6
Continuous
100
AcDbLine
 10
353.6279058159232
 20
160.2938343597379
 30
0.0
 11
353.6279058159232
 21
174.2938343597406
 31
0.0
  0
LINE
  5
1155
330
18
100
AcDbEntity
  8
1
  6
Continuous
100
AcDbLine
 10
358.8279058156922
 20
153.7938343597392
 30
0.0
 11
358.8279058156922
 21
182.5938343597392
 31
0.0
  0
LINE
  5
1156
330
18
100
AcDbEntity
  8
1
  6
Continuous
100
AcDbLine
 10
333.4279058156921
 20
182.5938343597392
 30
0.0
 11
333.4279058156921
 21
153.7938343597392
 31
0.0
  0
LINE
  5
1157
330
18
100
AcDbEntity
  8
1
  6
Continuous
100
AcDbLine
 10
330.1279058150448
 20
192.4938343600799
 30
0.0
 11
330.1279058150448
 21
155.7938343597392
 31
0.0
  0
LINE
  5
1158
330
18
100
AcDbEntity
  8
1
  6
Continuous
100
AcDbLine
 10
362.1279058150448
 20
155.7938343597392
 30
0.0
 11
362.1279058150448
 21
192.4938343600486
 31
0.0
  0
LINE
  5
1159
330
18
100
AcDbEntity
  8
1
  6
Continuous
100
AcDbLine
 10
333.3279058158011
 20
192.4938343600766
 30
0.0
 11
333.3279058158868
 21
153.7938343597325
 31
0.0
  0
LINE
  5
115A
330
18
100
AcDbEntity
  8
1
  6
Continuous
100
AcDbLine
 10
358.9279058158012
 20
192.4938343600517
 30
0.0
 11
358.927905815887
 21
153.7938343597458
 31
0.0
  0
LINE
  5
115B
330
18
100
AcDbEntity
  8
4
  6
CENTER
100
AcDbLine
 10
346.1279058159259
 20
136.2384944461813
 30
0.0
 11
346.1279058157074
 21
260.4276565553305
 31
0.0
  0
LINE
  5
115C
330
18
100
AcDbEntity
  8
1
  6
Continuous
100
AcDbLine
 10
230.8951560806201
 20
159.2938343594871
 30
0.0
 11
230.8951560806201
 21
175.2938343595431
 31
0.0
  0
LINE
  5
115D
330
18
100
AcDbEntity
  8
1
  6
Continuous
100
AcDbLine
 10
203.9951560806211
 20
151.8528288069802
 30
0.0
 11
203.995156080582
 21
176.7938343594053
 31
0.0
  0
LINE
  5
1169
330
18
100
AcDbEntity
  8
1
  6
Continuous
100
AcDbLine
 10
228.3951560806201
 20
150.7938343594158
 30
0.0
 11
212.3951560805244
 21
150.7938343594134
 31
0.0
  0
LINE
  5
116C
330
18
100
AcDbEntity
  8
1
  6
Continuous
100
AcDbLine
 10
207.3951560806253
 20
143.793834359435
 30
0.0
 11
210.3951560806199
 21
139.7938343594349
 31
0.0
  0
LINE
  5
116E
330
18
100
AcDbEntity
  8
1
  6
Continuous
100
AcDbLine
 10
210.3951560806233
 20
139.7938343594308
 30
0.0
 11
212.3951560806263
 21
139.7938343594281
 31
0.0
  0
LINE
  5
116F
330
18
100
AcDbEntity
  8
1
  6
Continuous
100
AcDbLine
 10
206.9951560806339
 20
143.793834359408
 30
0.0
 11
206.9951560806118
 21
157.7938343594059
 31
0.0
  0
LINE
  5
1170
330
18
100
AcDbEntity
  8
1
  6
Continuous
100
AcDbLine
 10
206.9951560806337
 20
143.793834359408
 30
0.0
 11
203.4951560806321
 21
143.7938343594062
 31
0.0
  0
ARC
  5
1171
330
18
100
AcDbEntity
  8
1
  6
Continuous
100
AcDbCircle
 10
203.4951560806314
 20
145.2938343594062
 30
0.0
 40
1.5
100
AcDbArc
 50
180.0
 51
270.0
  0
LINE
  5
1172
330
18
100
AcDbEntity
  8
1
  6
Continuous
100
AcDbLine
 10
203.9951560806209
 20
151.85282880698
 30
0.0
 11
201.9951560806311
 21
145.2938343594059
 31
0.0
  0
LINE
  5
1173
330
18
100
AcDbEntity
  8
1
  6
Continuous
100
AcDbLine
 10
207.1951560806332
 20
143.9938343594083
 30
0.0
 11
207.1951560806262
 21
148.5938343594083
 31
0.0
  0
ARC
  5
1174
330
18
100
AcDbEntity
  8
1
  6
Continuous
100
AcDbCircle
 10
206.9951560806334
 20
143.993834359408
 30
0.0
 40
0.2
100
AcDbArc
 50
270.0
 51
0.0
  0
ARC
  5
1175
330
18
100
AcDbEntity
  8
1
  6
Continuous
100
AcDbCircle
 10
206.9951560806261
 20
148.5938343594078
 30
0.0
 40
0.2
100
AcDbArc
 50
0.0
 51
90.0
  0
ARC
  5
1176
330
18
100
AcDbEntity
  8
1
  6
Continuous
100
AcDbCircle
 10
208.9951560806118
 20
157.7938343594091
 30
0.0
 40
2.0
100
AcDbArc
 50
143.1301023537578
 51
180.0
  0
ARC
  5
1178
330
18
100
AcDbEntity
  8
1
  6
Continuous
100
AcDbCircle
 10
229.8951560806201
 20
159.2938343594871
 30
0.0
 40
1.0
100
AcDbArc
 50
270.0
 51
0.0
  0
LINE
  5
1179
330
18
100
AcDbEntity
  8
1
  6
Continuous
100
AcDbLine
 10
228.3951560806201
 20
158.2938343594878
 30
0.0
 11
229.8951560806201
 21
158.2938343594878
 31
0.0
  0
LINE
  5
11DA
330
18
100
AcDbEntity
  8
1
  6
Continuous
100
AcDbLine
 10
340.6279058158882
 20
158.2938343597379
 30
0.0
 11
351.6279058159213
 21
158.2938343597379
 31
0.0
  0
LINE
  5
11DB
330
18
100
AcDbEntity
  8
1
  6
Continuous
100
AcDbLine
 10
336.4279058156922
 20
150.7938343597392
 30
0.0
 11
355.8279058156922
 21
150.7938343597392
 31
0.0
  0
ARC
  5
11DC
330
18
100
AcDbEntity
  8
1
  6
Continuous
100
AcDbCircle
 10
346.1279058150448
 20
155.7938343597392
 30
0.0
 40
15.99999999999994
100
AcDbArc
 50
180.0
 51
0.0
  0
LINE
  5
11DD
330
18
100
AcDbEntity
  8
1
  6
Continuous
100
AcDbLine
 10
336.6281552899534
 20
154.2935848856731
 30
0.0
 11
336.7465793824703
 21
154.5595697523826
 31
0.0
  0
LINE
  5
11DE
330
18
100
AcDbEntity
  8
1
  6
Continuous
100
AcDbLine
 10
337.6276563418211
 20
154.2935848856731
 30
0.0
 11
337.5092322493042
 21
154.5595697523828
 31
0.0
  0
CIRCLE
  5
11DF
330
18
100
AcDbEntity
  8
1
  6
Continuous
100
AcDbCircle
 10
337.127905815887
 20
153.7938343597392
 30
0.0
 40
2.799999999999998
  0
CIRCLE
  5
11E0
330
18
100
AcDbEntity
  8
1
  6
Continuous
100
AcDbCircle
 10
337.127905815887
 20
153.7938343597392
 30
0.0
 40
2.6
  0
LINE
  5
11E1
330
18
100
AcDbEntity
  8
4
  6
CENTER
100
AcDbLine
 10
337.127905815887
 20
158.0938343597392
 30
0.0
 11
337.127905815887
 21
149.4938343597391
 31
0.0
  0
LINE
  5
11E2
330
18
100
AcDbEntity
  8
1
  6
Continuous
100
AcDbLine
 10
337.6276563418209
 20
154.2935848856729
 30
0.0
 11
337.8936412085308
 21
154.1751607931558
 31
0.0
  0
LINE
  5
11E3
330
18
100
AcDbEntity
  8
1
  6
Continuous
100
AcDbLine
 10
337.6276563418211
 20
153.294083833805
 30
0.0
 11
337.8936412085306
 21
153.4125079263223
 31
0.0
  0
LINE
  5
11E4
330
18
100
AcDbEntity
  8
4
  6
CENTER
100
AcDbLine
 10
332.8279058158869
 20
153.7938343597392
 30
0.0
 11
341.427905815887
 21
153.7938343597392
 31
0.0
  0
LINE
  5
11E5
330
18
100
AcDbEntity
  8
1
  6
Continuous
100
AcDbLine
 10
337.6276563418209
 20
153.2940838338053
 30
0.0
 11
337.5092322493037
 21
153.0280989670951
 31
0.0
  0
LINE
  5
11E6
330
18
100
AcDbEntity
  8
1
  6
Continuous
100
AcDbLine
 10
337.5092322493037
 20
153.0280989670952
 30
0.0
 11
337.5008604877941
 21
152.5484810714299
 31
0.0
  0
LINE
  5
11E7
330
18
100
AcDbEntity
  8
1
  6
Continuous
100
AcDbLine
 10
336.7465793824702
 20
153.0280989670957
 30
0.0
 11
336.7549511439797
 21
152.54848107143
 31
0.0
  0
LINE
  5
11E8
330
18
100
AcDbEntity
  8
1
  6
Continuous
100
AcDbLine
 10
336.6281552899531
 20
153.2940838338053
 30
0.0
 11
336.7465793824702
 21
153.0280989670957
 31
0.0
  0
ARC
  5
11E9
330
18
100
AcDbEntity
  8
1
  6
Continuous
100
AcDbCircle
 10
337.127905815887
 20
153.7938343597392
 30
0.0
 40
1.3
100
AcDbArc
 50
253.3282509640092
 51
286.6717490359704
  0
ARC
  5
11EA
330
18
100
AcDbEntity
  8
1
  6
Continuous
100
AcDbCircle
 10
336.3279058158868
 20
153.7938343597392
 30
0.0
 40
3.0
100
AcDbArc
 50
180.0
 51
270.0
  0
ARC
  5
11EB
330
18
100
AcDbEntity
  8
1
  6
Continuous
100
AcDbCircle
 10
336.4279058156922
 20
153.7938343597392
 30
0.0
 40
3.0
100
AcDbArc
 50
180.0
 51
270.0
  0
LINE
  5
11EC
330
18
100
AcDbEntity
  8
1
  6
Continuous
100
AcDbLine
 10
336.362170423243
 20
154.1751607931558
 30
0.0
 11
335.8825525275776
 21
154.1667890316464
 31
0.0
  0
LINE
  5
11ED
330
18
100
AcDbEntity
  8
1
  6
Continuous
100
AcDbLine
 10
336.3621704232432
 20
153.4125079263224
 30
0.0
 11
335.8825525275778
 21
153.4208796878318
 31
0.0
  0
ARC
  5
11EE
330
18
100
AcDbEntity
  8
1
  6
Continuous
100
AcDbCircle
 10
337.127905815887
 20
153.7938343597392
 30
0.0
 40
1.3
100
AcDbArc
 50
163.3282509640155
 51
196.6717490359764
  0
LINE
  5
11EF
330
18
100
AcDbEntity
  8
1
  6
Continuous
100
AcDbLine
 10
336.6281552899534
 20
154.2935848856731
 30
0.0
 11
336.3621704232432
 21
154.1751607931558
 31
0.0
  0
LINE
  5
11F0
330
18
100
AcDbEntity
  8
1
  6
Continuous
100
AcDbLine
 10
336.6281552899526
 20
153.294083833805
 30
0.0
 11
336.362170423243
 21
153.4125079263224
 31
0.0
  0
LINE
  5
11F1
330
18
100
AcDbEntity
  8
1
  6
Continuous
100
AcDbLine
 10
337.8936412085308
 20
154.1751607931557
 30
0.0
 11
338.3732591041962
 21
154.1667890316463
 31
0.0
  0
LINE
  5
11F2
330
18
100
AcDbEntity
  8
1
  6
Continuous
100
AcDbLine
 10
337.8936412085306
 20
153.4125079263223
 30
0.0
 11
338.3732591041962
 21
153.4208796878318
 31
0.0
  0
ARC
  5
11F3
330
18
100
AcDbEntity
  8
1
  6
Continuous
100
AcDbCircle
 10
337.127905815887
 20
153.7938343597392
 30
0.0
 40
1.3
100
AcDbArc
 50
343.3282509640058
 51
16.6717490359764
  0
LINE
  5
11F4
330
18
100
AcDbEntity
  8
1
  6
Continuous
100
AcDbLine
 10
336.7465793824703
 20
154.5595697523826
 30
0.0
 11
336.7549511439799
 21
155.0391876480484
 31
0.0
  0
LINE
  5
11F5
330
18
100
AcDbEntity
  8
1
  6
Continuous
100
AcDbLine
 10
337.5092322493042
 20
154.5595697523828
 30
0.0
 11
337.5008604877943
 21
155.0391876480484
 31
0.0
  0
ARC
  5
11F6
330
18
100
AcDbEntity
  8
1
  6
Continuous
100
AcDbCircle
 10
337.127905815887
 20
153.7938343597392
 30
0.0
 40
1.3
100
AcDbArc
 50
73.32825096401617
 51
106.6717490359839
  0
ARC
  5
11F7
330
18
100
AcDbEntity
  8
1
  6
Continuous
100
AcDbCircle
 10
340.6279058158882
 20
160.2938343597379
 30
0.0
 40
2.0
100
AcDbArc
 50
180.0
 51
270.0
  0
LINE
  5
11F8
330
18
100
AcDbEntity
  8
1
  6
Continuous
100
AcDbLine
 10
354.6281552899529
 20
154.2935848856729
 30
0.0
 11
354.7465793824699
 21
154.5595697523824
 31
0.0
  0
LINE
  5
11F9
330
18
100
AcDbEntity
  8
1
  6
Continuous
100
AcDbLine
 10
355.6276563418212
 20
154.2935848856731
 30
0.0
 11
355.5092322493042
 21
154.5595697523828
 31
0.0
  0
LINE
  5
11FA
330
18
100
AcDbEntity
  8
4
  6
CENTER
100
AcDbLine
 10
355.127905815887
 20
158.0938343597392
 30
0.0
 11
355.127905815887
 21
149.4938343597391
 31
0.0
  0
CIRCLE
  5
11FB
330
18
100
AcDbEntity
  8
1
  6
Continuous
100
AcDbCircle
 10
355.127905815887
 20
153.7938343597392
 30
0.0
 40
2.799999999999998
  0
CIRCLE
  5
11FC
330
18
100
AcDbEntity
  8
1
  6
Continuous
100
AcDbCircle
 10
355.127905815887
 20
153.7938343597392
 30
0.0
 40
2.6
  0
LINE
  5
11FD
330
18
100
AcDbEntity
  8
4
  6
CENTER
100
AcDbLine
 10
350.8279058158868
 20
153.7938343597392
 30
0.0
 11
359.427905815887
 21
153.7938343597392
 31
0.0
  0
ARC
  5
11FE
330
18
100
AcDbEntity
  8
1
  6
Continuous
100
AcDbCircle
 10
355.9279058158872
 20
153.7938343597392
 30
0.0
 40
3.0
100
AcDbArc
 50
270.0
 51
0.0
  0
ARC
  5
11FF
330
18
100
AcDbEntity
  8
1
  6
Continuous
100
AcDbCircle
 10
355.8279058156922
 20
153.7938343597392
 30
0.0
 40
3.0
100
AcDbArc
 50
270.0
 51
0.0
  0
LINE
  5
1200
330
18
100
AcDbEntity
  8
1
  6
Continuous
100
AcDbLine
 10
354.6281552899533
 20
154.2935848856731
 30
0.0
 11
354.3621704232432
 21
154.1751607931558
 31
0.0
  0
LINE
  5
1201
330
18
100
AcDbEntity
  8
1
  6
Continuous
100
AcDbLine
 10
354.362170423243
 20
154.1751607931557
 30
0.0
 11
353.8825525275778
 21
154.1667890316463
 31
0.0
  0
LINE
  5
1202
330
18
100
AcDbEntity
  8
1
  6
Continuous
100
AcDbLine
 10
355.6276563418209
 20
154.2935848856731
 30
0.0
 11
355.8936412085309
 21
154.1751607931558
 31
0.0
  0
LINE
  5
1203
330
18
100
AcDbEntity
  8
1
  6
Continuous
100
AcDbLine
 10
355.8936412085309
 20
154.1751607931557
 30
0.0
 11
356.373259104196
 21
154.1667890316463
 31
0.0
  0
LINE
  5
1204
330
18
100
AcDbEntity
  8
1
  6
Continuous
100
AcDbLine
 10
355.8936412085306
 20
153.4125079263223
 30
0.0
 11
356.3732591041964
 21
153.4208796878318
 31
0.0
  0
LINE
  5
1205
330
18
100
AcDbEntity
  8
1
  6
Continuous
100
AcDbLine
 10
355.6276563418212
 20
153.294083833805
 30
0.0
 11
355.8936412085306
 21
153.4125079263221
 31
0.0
  0
LINE
  5
1206
330
18
100
AcDbEntity
  8
1
  6
Continuous
100
AcDbLine
 10
355.6276563418209
 20
153.294083833805
 30
0.0
 11
355.5092322493035
 21
153.0280989670951
 31
0.0
  0
LINE
  5
1207
330
18
100
AcDbEntity
  8
1
  6
Continuous
100
AcDbLine
 10
355.5092322493035
 20
153.0280989670952
 30
0.0
 11
355.5008604877941
 21
152.5484810714299
 31
0.0
  0
LINE
  5
1208
330
18
100
AcDbEntity
  8
1
  6
Continuous
100
AcDbLine
 10
354.7465793824701
 20
153.0280989670957
 30
0.0
 11
354.7549511439797
 21
152.54848107143
 31
0.0
  0
LINE
  5
1209
330
18
100
AcDbEntity
  8
1
  6
Continuous
100
AcDbLine
 10
354.6281552899529
 20
153.2940838338053
 30
0.0
 11
354.7465793824701
 21
153.0280989670957
 31
0.0
  0
LINE
  5
120A
330
18
100
AcDbEntity
  8
1
  6
Continuous
100
AcDbLine
 10
354.6281552899533
 20
153.2940838338053
 30
0.0
 11
354.3621704232432
 21
153.4125079263226
 31
0.0
  0
LINE
  5
120B
330
18
100
AcDbEntity
  8
1
  6
Continuous
100
AcDbLine
 10
354.362170423243
 20
153.4125079263224
 30
0.0
 11
353.8825525275778
 21
153.4208796878318
 31
0.0
  0
ARC
  5
120C
330
18
100
AcDbEntity
  8
1
  6
Continuous
100
AcDbCircle
 10
355.127905815887
 20
153.7938343597392
 30
0.0
 40
1.3
100
AcDbArc
 50
343.3282509640058
 51
16.6717490359764
  0
ARC
  5
120D
330
18
100
AcDbEntity
  8
1
  6
Continuous
100
AcDbCircle
 10
355.127905815887
 20
153.7938343597392
 30
0.0
 40
1.3
100
AcDbArc
 50
253.3282509640092
 51
286.6717490359704
  0
ARC
  5
120E
330
18
100
AcDbEntity
  8
1
  6
Continuous
100
AcDbCircle
 10
355.127905815887
 20
153.7938343597392
 30
0.0
 40
1.3
100
AcDbArc
 50
163.3282509640155
 51
196.6717490359764
  0
ARC
  5
120F
330
18
100
AcDbEntity
  8
1
  6
Continuous
100
AcDbCircle
 10
351.6279058159213
 20
160.2938343597379
 30
0.0
 40
2.0
100
AcDbArc
 50
270.0
 51
0.0
  0
LINE
  5
1210
330
18
100
AcDbEntity
  8
1
  6
Continuous
100
AcDbLine
 10
354.7465793824701
 20
154.5595697523826
 30
0.0
 11
354.7549511439797
 21
155.0391876480484
 31
0.0
  0
LINE
  5
1211
330
18
100
AcDbEntity
  8
1
  6
Continuous
100
AcDbLine
 10
355.5092322493042
 20
154.5595697523828
 30
0.0
 11
355.5008604877946
 21
155.0391876480484
 31
0.0
  0
ARC
  5
1212
330
18
100
AcDbEntity
  8
1
  6
Continuous
100
AcDbCircle
 10
355.127905815887
 20
153.7938343597392
 30
0.0
 40
1.3
100
AcDbArc
 50
73.32825096401617
 51
106.6717490359839
  0
ARC
  5
1216
330
18
100
AcDbEntity
  8
1
  6
Continuous
100
AcDbCircle
 10
259.7756063110574
 20
209.7720582950858
 30
0.0
 40
1.6
100
AcDbArc
 50
15.49396750052108
 51
85.00000000000019
  0
ARC
  5
1217
330
18
100
AcDbEntity
  8
1
  6
Continuous
100
AcDbCircle
 10
259.7756063110744
 20
204.2156104244411
 30
0.0
 40
1.6
100
AcDbArc
 50
274.9999999999997
 51
344.5060324994789
  0
ARC
  5
121C
330
18
100
AcDbEntity
  8
1
  6
Continuous
100
AcDbCircle
 10
213.3951560806158
 20
245.7938343593991
 30
0.0
 40
1.0
100
AcDbArc
 50
0.0
 51
90.0
  0
LINE
  5
121D
330
18
100
AcDbEntity
  8
1
  6
Continuous
100
AcDbLine
 10
219.3951560806155
 20
246.7938343594
 30
0.0
 11
212.3951560805201
 21
246.7938343593989
 31
0.0
  0
LINE
  5
121E
330
18
100
AcDbEntity
  8
1
  6
Continuous
100
AcDbLine
 10
215.8951560806199
 20
191.9938343594349
 30
0.0
 11
213.8951560806372
 21
189.9938343594395
 31
0.0
  0
LINE
  5
121F
330
18
100
AcDbEntity
  8
1
  6
Continuous
100
AcDbLine
 10
203.8951560806121
 20
239.8853536880617
 30
0.0
 11
203.8951560806165
 21
181.4938343593997
 31
0.0
  0
LINE
  5
1220
330
18
100
AcDbEntity
  8
5
  6
PHANTOM
100
AcDbLine
 10
207.3951560806158
 20
236.7720089524759
 30
0.0
 11
171.3829627717775
 21
200.7598156436376
 31
0.0
  0
LINE
  5
1221
330
18
100
AcDbEntity
  8
5
  6
PHANTOM
100
AcDbLine
 10
202.9951560807135
 20
224.5938343595216
 30
0.0
 11
183.2694356193358
 21
204.8681138981439
 31
0.0
  0
LINE
  5
1223
330
18
100
AcDbEntity
  8
5
  6
PHANTOM
100
AcDbLine
 10
183.4285150055636
 20
190.1779508794701
 30
0.0
 11
182.2469020175098
 21
188.9963378914167
 31
0.0
  0
LINE
  5
1224
330
18
100
AcDbEntity
  8
5
  6
PHANTOM
100
AcDbLine
 10
182.7901567357957
 20
199.7904466877768
 30
0.0
 11
184.1474333308615
 21
197.7944516950332
 31
0.0
  0
LINE
  5
1225
330
18
100
AcDbEntity
  8
5
  6
PHANTOM
100
AcDbLine
 10
180.2309196752356
 20
188.9005554357557
 30
0.0
 11
173.1507297247358
 21
194.74940800356
 31
0.0
  0
ARC
  5
1226
330
18
100
AcDbEntity
  8
5
  6
PHANTOM
100
AcDbCircle
 10
181.1862418457301
 20
190.0569980631964
 30
0.0
 40
1.5
100
AcDbArc
 50
230.4403320310048
 51
315.0
  0
LINE
  5
1227
330
18
100
AcDbEntity
  8
5
  6
PHANTOM
100
AcDbLine
 10
173.1507297247358
 20
194.7494080035598
 30
0.0
 11
171.3829627717696
 21
196.5171749565263
 31
0.0
  0
ARC
  5
1228
330
18
100
AcDbEntity
  8
5
  6
PHANTOM
100
AcDbCircle
 10
173.5042831153291
 20
198.6384953000861
 30
0.0
 40
3.0
100
AcDbArc
 50
135.0
 51
224.9999999999999
  0
ARC
  5
1229
330
18
100
AcDbEntity
  8
5
  6
PHANTOM
100
AcDbCircle
 10
186.097862744074
 20
202.0396867734058
 30
0.0
 40
4.0
100
AcDbArc
 50
134.9999999999999
 51
214.2157021324354
  0
ARC
  5
122A
330
18
100
AcDbEntity
  8
5
  6
PHANTOM
100
AcDbCircle
 10
179.1858743184443
 20
194.4205915665895
 30
0.0
 40
6.0
100
AcDbArc
 50
315.0
 51
34.21570213243545
  0
ARC
  5
122B
330
18
100
AcDbEntity
  8
1
  6
Continuous
100
AcDbCircle
 10
206.8951560806165
 20
181.4938343593997
 30
0.0
 40
3.0
100
AcDbArc
 50
180.0
 51
270.0
  0
LINE
  5
122C
330
18
100
AcDbEntity
  8
1
  6
Continuous
100
AcDbLine
 10
207.3951560806201
 20
177.7938343594081
 30
0.0
 11
204.9951560805814
 21
177.7938343594068
 31
0.0
  0
ARC
  5
122D
330
18
100
AcDbEntity
  8
1
  6
Continuous
100
AcDbCircle
 10
204.995156080582
 20
176.7938343594068
 30
0.0
 40
1.0
100
AcDbArc
 50
90.0
 51
180.0
  0
LINE
  5
122E
330
18
100
AcDbEntity
  8
1
  6
Continuous
100
AcDbLine
 10
207.3951560806201
 20
178.4938343593996
 30
0.0
 11
206.8951560806165
 21
178.4938343593996
 31
0.0
  0
ARC
  5
122F
330
18
100
AcDbEntity
  8
1
  6
Continuous
100
AcDbCircle
 10
206.8951560806122
 20
239.8853536880619
 30
0.0
 40
3.0
100
AcDbArc
 50
112.9933943142976
 51
180.0
  0
ARC
  5
1230
330
18
100
AcDbEntity
  8
1
  6
Continuous
100
AcDbCircle
 10
209.3951560806122
 20
233.9938343593999
 30
0.0
 40
9.4
100
AcDbArc
 50
102.8650719958548
 51
112.9933943142976
  0
LINE
  5
1232
330
18
100
AcDbEntity
  8
5
  6
PHANTOM
100
AcDbLine
 10
203.8951560806121
 20
224.5938343595187
 30
0.0
 11
202.9951560807132
 21
224.5938343595214
 31
0.0
  0
LINE
  5
1233
330
18
100
AcDbEntity
  8
1
  6
Continuous
100
AcDbLine
 10
210.3951560806158
 20
257.7938343594205
 30
0.0
 11
207.3951560806222
 21
253.7938343594205
 31
0.0
  0
LINE
  5
1234
330
18
100
AcDbEntity
  8
1
  6
Continuous
100
AcDbLine
 10
207.3951560806158
 20
243.0649021712614
 30
0.0
 11
207.3021910747568
 21
243.1578671771203
 31
0.0
  0
LINE
  5
1235
330
18
100
AcDbEntity
  8
1
  6
Continuous
100
AcDbLine
 10
210.3951560806192
 20
257.793834359425
 30
0.0
 11
212.3951560806074
 21
257.793834359428
 31
0.0
  0
LINE
  5
1236
330
18
100
AcDbEntity
  8
1
  6
Continuous
100
AcDbLine
 10
257.153557031399
 20
224.7438343601654
 30
0.0
 11
257.1535570313701
 21
192.4938343601501
 31
0.0
  0
LINE
  5
1237
330
18
100
AcDbEntity
  8
1
  6
Continuous
100
AcDbLine
 10
253.653557031399
 20
224.7438343601639
 30
0.0
 11
253.6535570313701
 21
192.4938343601485
 31
0.0
  0
LINE
  5
1238
330
18
100
AcDbEntity
  8
1
  6
Continuous
100
AcDbLine
 10
251.353557031399
 20
224.7438343601629
 30
0.0
 11
251.3535570313699
 21
192.4938343601475
 31
0.0
  0
LINE
  5
1239
330
18
100
AcDbEntity
  8
1
  6
Continuous
100
AcDbLine
 10
215.8951560806158
 20
229.4938343594204
 30
0.0
 11
215.8951560806201
 21
191.993834359435
 31
0.0
  0
LINE
  5
123A
330
18
100
AcDbEntity
  8
4
  6
CENTER
100
AcDbLine
 10
248.5942787017127
 20
206.9938343597616
 30
0.0
 11
263.9365956213084
 21
206.9938343597665
 31
0.0
  0
LINE
  5
123B
330
18
100
AcDbEntity
  8
1
  6
Continuous
100
AcDbLine
 10
251.3535570313706
 20
192.4938343601475
 30
0.0
 11
257.153557031376
 21
192.4938343601501
 31
0.0
  0
ARC
  5
123C
330
18
100
AcDbEntity
  8
1
  6
Continuous
100
AcDbCircle
 10
229.8951560806201
 20
175.2938343595431
 30
0.0
 40
1.0
100
AcDbArc
 50
0.0
 51
90.0
  0
LINE
  5
123D
330
18
100
AcDbEntity
  8
1
  6
Continuous
100
AcDbLine
 10
229.8951560806201
 20
176.2938343595432
 30
0.0
 11
228.3951560806181
 21
176.2938343595418
 31
0.0
  0
LINE
  5
123E
330
18
100
AcDbEntity
  8
1
  6
Continuous
100
AcDbLine
 10
215.8951560806201
 20
191.9938343594352
 30
0.0
 11
223.8463728718652
 21
190.1524999446205
 31
0.0
  0
LINE
  5
123F
330
18
100
AcDbEntity
  8
1
  6
Continuous
100
AcDbLine
 10
226.3951560806201
 20
186.7938343594556
 30
0.0
 11
228.3951560806201
 21
186.7938343594556
 31
0.0
  0
LINE
  5
1240
330
18
100
AcDbEntity
  8
1
  6
Continuous
100
AcDbLine
 10
225.3951560806199
 20
184.7938343594859
 30
0.0
 11
226.3951560806199
 21
186.7938343594556
 31
0.0
  0
LINE
  5
1241
330
18
100
AcDbEntity
  8
1
  6
Continuous
100
AcDbLine
 10
228.3951560806154
 20
183.5938343594158
 30
0.0
 11
225.3951560806201
 21
183.5938343594154
 31
0.0
  0
ARC
  5
1242
330
18
100
AcDbEntity
  8
1
  6
Continuous
100
AcDbCircle
 10
223.3951560806201
 20
188.2040638006068
 30
0.0
 40
2.0
100
AcDbArc
 50
0.0
 51
76.96134341697494
  0
LINE
  5
1244
330
18
100
AcDbEntity
  8
1
  6
Continuous
100
AcDbLine
 10
258.453557031383
 20
211.5938343597655
 30
0.0
 11
258.453557031383
 21
202.3938343597655
 31
0.0
  0
LINE
  5
1248
330
18
100
AcDbEntity
  8
1
  6
Continuous
100
AcDbLine
 10
258.453557031383
 20
202.4938343597655
 30
0.0
 11
259.9150554995195
 21
202.621698907488
 31
0.0
  0
LINE
  5
1249
330
18
100
AcDbEntity
  8
1
  6
Continuous
100
AcDbLine
 10
258.453557031383
 20
202.3938343597655
 30
0.0
 11
257.1535570313831
 21
202.3938343597655
 31
0.0
  0
LINE
  5
124C
330
18
100
AcDbEntity
  8
1
  6
Continuous
100
AcDbLine
 10
258.453557031383
 20
211.4938343597656
 30
0.0
 11
259.9150554994782
 21
211.3659698120467
 31
0.0
  0
LINE
  5
124D
330
18
100
AcDbEntity
  8
1
  6
Continuous
100
AcDbLine
 10
258.453557031383
 20
211.5938343597655
 30
0.0
 11
257.1535570313831
 21
211.5938343597655
 31
0.0
  0
LINE
  5
124E
330
18
100
AcDbEntity
  8
1
  6
Continuous
100
AcDbLine
 10
258.453557031383
 20
206.9938343597648
 30
0.0
 11
257.1535570313831
 21
205.9030048392344
 31
0.0
  0
LINE
  5
124F
330
18
100
AcDbEntity
  8
1
  6
Continuous
100
AcDbLine
 10
251.3535570313974
 20
224.7438343601629
 30
0.0
 11
257.1535570313831
 21
224.7438343601654
 31
0.0
  0
LINE
  5
1250
330
18
100
AcDbEntity
  8
5
  6
PHANTOM
100
AcDbLine
 10
235.0951560806158
 20
221.0938343594171
 30
0.0
 11
235.0951560806158
 21
246.8938343594219
 31
0.0
  0
LINE
  5
1251
330
18
100
AcDbEntity
  8
1
  6
Continuous
100
AcDbLine
 10
232.5951560806156
 20
221.0938343594176
 30
0.0
 11
232.5951560806158
 21
246.8938343594219
 31
0.0
  0
LINE
  5
1252
330
18
100
AcDbEntity
  8
1
  6
Continuous
100
AcDbLine
 10
214.3951560806158
 20
245.7938343593991
 30
0.0
 11
214.3951560806158
 21
233.9938343594203
 31
0.0
  0
LINE
  5
1253
330
18
100
AcDbEntity
  8
1
  6
Continuous
100
AcDbLine
 10
220.3951560806158
 20
245.7938343594
 30
0.0
 11
220.3951560806158
 21
222.4938343594203
 31
0.0
  0
LINE
  5
1254
330
18
100
AcDbEntity
  8
1
  6
Continuous
100
AcDbLine
 10
220.7951560806159
 20
220.5938343594211
 30
0.0
 11
220.7951560806159
 21
247.3938343594197
 31
0.0
  0
LINE
  5
1255
330
18
100
AcDbEntity
  8
1
  6
Continuous
100
AcDbLine
 10
220.7951560806157
 20
220.5938343594211
 30
0.0
 11
232.0951560806156
 21
220.5938343594173
 31
0.0
  0
LINE
  5
1256
330
18
100
AcDbEntity
  8
4
  6
CENTER
100
AcDbLine
 10
216.0109481651877
 20
233.9938343594203
 30
0.0
 11
239.1573593640095
 21
233.9938343594203
 31
0.0
  0
LINE
  5
1257
330
18
100
AcDbEntity
  8
1
  6
Continuous
100
AcDbLine
 10
220.7951560806159
 20
224.9938343599838
 30
0.0
 11
220.39515608052
 21
224.9938343599842
 31
0.0
  0
ARC
  5
1258
330
18
100
AcDbEntity
  8
1
  6
Continuous
100
AcDbCircle
 10
219.3951560806158
 20
222.4938343594203
 30
0.0
 40
1.0
100
AcDbArc
 50
270.0
 51
0.0
  0
LINE
  5
1259
330
18
100
AcDbEntity
  8
1
  6
Continuous
100
AcDbLine
 10
219.3951560806158
 20
221.4938343594204
 30
0.0
 11
215.8951560806158
 21
221.4938343594204
 31
0.0
  0
LINE
  5
125A
330
18
100
AcDbEntity
  8
1
  6
Continuous
100
AcDbLine
 10
220.7951560806159
 20
242.635064237591
 30
0.0
 11
220.3951560805587
 21
242.63506423759
 31
0.0
  0
LINE
  5
125B
330
18
100
AcDbEntity
  8
1
  6
Continuous
100
AcDbLine
 10
220.7951560806159
 20
236.1304064876337
 30
0.0
 11
220.395156080616
 21
236.1304064876337
 31
0.0
  0
LINE
  5
125C
330
18
100
AcDbEntity
  8
1
  6
Continuous
100
AcDbLine
 10
234.5951560806158
 20
229.9938343597243
 30
0.0
 11
234.5951560806158
 21
237.9938343597245
 31
0.0
  0
LINE
  5
125D
330
18
100
AcDbEntity
  8
1
  6
Continuous
100
AcDbLine
 10
234.5951560806158
 20
229.9938343597242
 30
0.0
 11
232.5951560806158
 21
229.9938343597242
 31
0.0
  0
LINE
  5
125E
330
18
100
AcDbEntity
  8
1
  6
Continuous
100
AcDbLine
 10
234.5951560806158
 20
230.1496542318235
 30
0.0
 11
232.5951560802304
 21
230.1496542318238
 31
0.0
  0
ARC
  5
125F
330
18
100
AcDbEntity
  8
5
  6
PHANTOM
100
AcDbCircle
 10
234.5951560806158
 20
221.0938343594171
 30
0.0
 40
0.5
100
AcDbArc
 50
270.0
 51
0.0
  0
ARC
  5
1260
330
18
100
AcDbEntity
  8
1
  6
Continuous
100
AcDbCircle
 10
232.0951560806156
 20
221.0938343594176
 30
0.0
 40
0.5
100
AcDbArc
 50
270.0
 51
0.0
  0
ARC
  5
1261
330
18
100
AcDbEntity
  8
5
  6
PHANTOM
100
AcDbCircle
 10
236.5951560806158
 20
235.4938343593441
 30
0.0
 40
0.5
100
AcDbArc
 50
0.0
 51
90.0
  0
LINE
  5
1262
330
18
100
AcDbEntity
  8
5
  6
PHANTOM
100
AcDbLine
 10
237.0951560806158
 20
232.4938343593442
 30
0.0
 11
237.0951560806158
 21
235.4938343593441
 31
0.0
  0
ARC
  5
1263
330
18
100
AcDbEntity
  8
5
  6
PHANTOM
100
AcDbCircle
 10
236.5951560806158
 20
232.4938343593442
 30
0.0
 40
0.5
100
AcDbArc
 50
270.0
 51
0.0
  0
LINE
  5
1264
330
18
100
AcDbEntity
  8
1
  6
Continuous
100
AcDbLine
 10
232.5951560806158
 20
231.9938343593448
 30
0.0
 11
234.0951560806156
 21
231.9938343593443
 31
0.0
  0
ARC
  5
1265
330
18
100
AcDbEntity
  8
1
  6
Continuous
100
AcDbCircle
 10
234.0951560806158
 20
232.4938343593442
 30
0.0
 40
0.5
100
AcDbArc
 50
270.0
 51
0.0
  0
ARC
  5
1266
330
18
100
AcDbEntity
  8
1
  6
Continuous
100
AcDbCircle
 10
234.0951560806158
 20
235.4938343593443
 30
0.0
 40
0.5
100
AcDbArc
 50
0.0
 51
90.0
  0
LINE
  5
1267
330
18
100
AcDbEntity
  8
1
  6
Continuous
100
AcDbLine
 10
232.5951560806172
 20
235.9938343593448
 30
0.0
 11
234.0951560806161
 21
235.9938343593444
 31
0.0
  0
LINE
  5
1268
330
18
100
AcDbEntity
  8
1
  6
Continuous
100
AcDbLine
 10
234.5951560806158
 20
237.9938343597245
 30
0.0
 11
232.5951560806156
 21
237.9938343597245
 31
0.0
  0
LINE
  5
1269
330
18
100
AcDbEntity
  8
1
  6
Continuous
100
AcDbLine
 10
234.5951560806158
 20
237.8380144870166
 30
0.0
 11
232.5951560802304
 21
237.8380144870163
 31
0.0
  0
LINE
  5
126A
330
18
100
AcDbEntity
  8
5
  6
PHANTOM
100
AcDbLine
 10
235.0951560806172
 20
235.9938343593447
 30
0.0
 11
236.5951560806158
 21
235.9938343593441
 31
0.0
  0
LINE
  5
126B
330
18
100
AcDbEntity
  8
5
  6
PHANTOM
100
AcDbLine
 10
235.0951560806158
 20
231.9938343593447
 30
0.0
 11
236.5951560806154
 21
231.9938343593441
 31
0.0
  0
LINE
  5
126C
330
18
100
AcDbEntity
  8
1
  6
Continuous
100
AcDbLine
 10
220.7951560806157
 20
247.3938343594197
 30
0.0
 11
232.0951560806156
 21
247.3938343594219
 31
0.0
  0
ARC
  5
126D
330
18
100
AcDbEntity
  8
1
  6
Continuous
100
AcDbCircle
 10
219.3951560806158
 20
245.7938343594
 30
0.0
 40
1.0
100
AcDbArc
 50
0.0
 51
90.0
  0
ARC
  5
126F
330
18
100
AcDbEntity
  8
5
  6
PHANTOM
100
AcDbCircle
 10
234.5951560806158
 20
246.8938343594219
 30
0.0
 40
0.5
100
AcDbArc
 50
0.0
 51
90.0
  0
LINE
  5
1274
330
18
100
AcDbEntity
  8
4
  6
CENTER
100
AcDbLine
 10
283.0543439396752
 20
233.9938343598195
 30
0.0
 11
273.1824821782183
 21
233.9938343598195
 31
0.0
  0
LINE
  5
1276
330
18
100
AcDbEntity
  8
1
  6
Continuous
100
AcDbLine
 10
275.954343939675
 20
239.9938343598195
 30
0.0
 11
275.954343939675
 21
227.9938343598196
 31
0.0
  0
ARC
  5
1277
330
18
100
AcDbEntity
  8
1
  6
Continuous
100
AcDbCircle
 10
279.3763932193665
 20
231.2156104244951
 30
0.0
 40
1.6
100
AcDbArc
 50
274.9999999999997
 51
344.5060324994789
  0
LINE
  5
1278
330
18
100
AcDbEntity
  8
1
  6
Continuous
100
AcDbLine
 10
278.0543439396751
 20
238.5938343598195
 30
0.0
 11
278.0543439396751
 21
229.3938343598195
 31
0.0
  0
LINE
  5
1279
330
18
100
AcDbEntity
  8
1
  6
Continuous
100
AcDbLine
 10
276.7543439396749
 20
239.9938343598195
 30
0.0
 11
276.7543439396749
 21
227.9938343598196
 31
0.0
  0
LINE
  5
127A
330
18
100
AcDbEntity
  8
1
  6
Continuous
100
AcDbLine
 10
278.0543439396751
 20
229.4938343598195
 30
0.0
 11
279.5158424078115
 21
229.621698907542
 31
0.0
  0
LINE
  5
127B
330
18
100
AcDbEntity
  8
1
  6
Continuous
100
AcDbLine
 10
276.7543439396749
 20
227.9938343598195
 30
0.0
 11
275.954343939675
 21
227.9938343598195
 31
0.0
  0
LINE
  5
127C
330
18
100
AcDbEntity
  8
1
  6
Continuous
100
AcDbLine
 10
278.0543439396751
 20
229.3938343598195
 30
0.0
 11
276.7543439396749
 21
229.3938343598195
 31
0.0
  0
ARC
  5
127D
330
18
100
AcDbEntity
  8
1
  6
Continuous
100
AcDbCircle
 10
279.3763932193491
 20
236.7720582951398
 30
0.0
 40
1.6
100
AcDbArc
 50
15.49396750052108
 51
85.00000000000019
  0
LINE
  5
127E
330
18
100
AcDbEntity
  8
1
  6
Continuous
100
AcDbLine
 10
278.0543439396751
 20
238.4938343598197
 30
0.0
 11
279.5158424077703
 21
238.3659698121008
 31
0.0
  0
LINE
  5
127F
330
18
100
AcDbEntity
  8
1
  6
Continuous
100
AcDbLine
 10
276.7543439396749
 20
239.9938343598195
 30
0.0
 11
275.954343939675
 21
239.9938343598195
 31
0.0
  0
LINE
  5
1280
330
18
100
AcDbEntity
  8
1
  6
Continuous
100
AcDbLine
 10
278.0543439396751
 20
238.5938343598195
 30
0.0
 11
276.7543439396749
 21
238.5938343598195
 31
0.0
  0
LINE
  5
1281
330
18
100
AcDbEntity
  8
1
  6
Continuous
100
AcDbLine
 10
278.0543439396751
 20
235.08466388035
 30
0.0
 11
276.7543439396749
 21
233.9938343598195
 31
0.0
  0
ARC
  5
1282
330
18
100
AcDbEntity
  8
1
  6
Continuous
100
AcDbCircle
 10
269.3543439396751
 20
233.9938343598195
 30
0.0
 40
12.0
100
AcDbArc
 50
344.5060324994789
 51
15.49396750052108
  0
CIRCLE
  5
1292
330
18
100
AcDbEntity
  8
1
  6
Continuous
100
AcDbCircle
 10
346.1279058156804
 20
243.4938343597246
 30
0.0
 40
2.0
  0
ARC
  5
1294
330
18
100
AcDbEntity
  8
1
  6
Continuous
100
AcDbCircle
 10
346.1279058156617
 20
233.9938343597245
 30
0.0
 40
4.0
100
AcDbArc
 50
73.95502437186229
 51
106.0449756281375
  0
ARC
  5
1295
330
18
100
AcDbEntity
  8
1
  6
Continuous
100
AcDbCircle
 10
346.1279058156804
 20
237.5293682656574
 30
0.0
 40
1.0
100
AcDbArc
 50
44.99999999999992
 51
135.0
  0
CIRCLE
  5
1296
330
18
100
AcDbEntity
  8
1
  6
Continuous
100
AcDbCircle
 10
346.1279058156617
 20
233.9938343597245
 30
0.0
 40
3.0
  0
CIRCLE
  5
1297
330
18
100
AcDbEntity
  8
2
  6
Continuous
100
AcDbCircle
 10
346.1279058156617
 20
233.9938343597245
 30
0.0
 40
2.5
  0
CIRCLE
  5
1298
330
18
100
AcDbEntity
  8
1
  6
Continuous
100
AcDbCircle
 10
346.1279058156617
 20
233.9938343597245
 30
0.0
 40
2.066999999999999
  0
ARC
  5
129A
330
18
100
AcDbEntity
  8
1
  6
Continuous
100
AcDbCircle
 10
346.1279058156617
 20
233.9938343597245
 30
0.0
 40
4.0
100
AcDbArc
 50
253.9550243718558
 51
286.0449756281441
  0
ARC
  5
129B
330
18
100
AcDbEntity
  8
1
  6
Continuous
100
AcDbCircle
 10
346.1279058156806
 20
230.458300453792
 30
0.0
 40
1.0
100
AcDbArc
 50
224.9999999999996
 51
315.0
  0
CIRCLE
  5
129C
330
18
100
AcDbEntity
  8
1
  6
Continuous
100
AcDbCircle
 10
346.1279058156804
 20
224.4938343597246
 30
0.0
 40
2.0
  0
ARC
  5
129D
330
18
100
AcDbEntity
  8
1
  6
Continuous
100
AcDbCircle
 10
346.1279058157336
 20
242.2438343603519
 30
0.0
 40
22.0
100
AcDbArc
 50
232.6982097077991
 51
307.3017902920923
  0
LINE
  5
12A2
330
18
100
AcDbEntity
  8
1
  6
Continuous
100
AcDbLine
 10
352.127905815958
 20
186.7938343597391
 30
0.0
 11
340.1279058159579
 21
186.7938343597391
 31
0.0
  0
LINE
  5
12A3
330
18
100
AcDbEntity
  8
1
  6
Continuous
100
AcDbLine
 10
356.9279058158276
 20
189.793834359739
 30
0.0
 11
335.3279058158276
 21
189.793834359739
 31
0.0
  0
LINE
  5
12A4
330
18
100
AcDbEntity
  8
1
  6
Continuous
100
AcDbLine
 10
356.927905815824
 20
191.9938343597391
 30
0.0
 11
335.3279058158238
 21
191.9938343597391
 31
0.0
  0
LINE
  5
12A5
330
18
100
AcDbEntity
  8
1
  6
Continuous
100
AcDbLine
 10
328.1279058158014
 20
192.4938343600819
 30
0.0
 11
364.1279058158013
 21
192.4938343600467
 31
0.0
  0
ARC
  5
12A7
330
18
100
AcDbEntity
  8
1
  6
Continuous
100
AcDbCircle
 10
346.1279058150521
 20
241.7938343597246
 30
0.0
 40
16.0
100
AcDbArc
 50
0.0
 51
180.0
  0
CIRCLE
  5
12A9
330
18
100
AcDbEntity
  8
1
  6
Continuous
100
AcDbCircle
 10
346.1279058156804
 20
233.9938343597245
 30
0.0
 40
13.4
  0
LINE
  5
12AA
330
18
100
AcDbEntity
  8
1
  6
Continuous
100
AcDbLine
 10
340.6279058159557
 20
176.2938343597406
 30
0.0
 11
351.6279058159232
 21
176.2938343597406
 31
0.0
  0
LINE
  5
12AB
330
18
100
AcDbEntity
  8
1
  6
Continuous
100
AcDbLine
 10
325.127905815815
 20
221.7438343603704
 30
0.0
 11
325.1279058158065
 21
195.4938343600828
 31
0.0
  0
LINE
  5
12AC
330
18
100
AcDbEntity
  8
1
  6
Continuous
100
AcDbLine
 10
330.3279058157386
 20
224.7438343603673
 30
0.0
 11
330.3279058157095
 21
192.4938343600797
 31
0.0
  0
ARC
  5
12AD
330
18
100
AcDbEntity
  8
1
  6
Continuous
100
AcDbCircle
 10
249.753557031383
 20
206.9938343597655
 30
0.0
 40
12.0
100
AcDbArc
 50
344.5060324994789
 51
15.49396750052108
  0
ARC
  5
12AE
330
18
100
AcDbEntity
  8
1
  6
Continuous
100
AcDbCircle
 10
335.3279058158238
 20
189.9938343597391
 30
0.0
 40
2.0
100
AcDbArc
 50
90.0
 51
180.0
  0
ARC
  5
12AF
330
18
100
AcDbEntity
  8
1
  6
Continuous
100
AcDbCircle
 10
328.1279058158042
 20
195.4938343600819
 30
0.0
 40
3.0
100
AcDbArc
 50
180.0
 51
270.0
  0
ARC
  5
12B0
330
18
100
AcDbEntity
  8
1
  6
Continuous
100
AcDbCircle
 10
340.6279058159557
 20
174.2938343597406
 30
0.0
 40
2.0
100
AcDbArc
 50
90.0
 51
180.0
  0
LINE
  5
12B1
330
18
100
AcDbEntity
  8
1
  6
Continuous
100
AcDbLine
 10
339.1279058159602
 20
183.5938343597392
 30
0.0
 11
334.4279058156922
 21
183.5938343597392
 31
0.0
  0
LINE
  5
12B2
330
18
100
AcDbEntity
  8
1
  6
Continuous
100
AcDbLine
 10
339.1279058159538
 20
183.8938343597391
 30
0.0
 11
335.2279058158206
 21
183.8938343597391
 31
0.0
  0
LINE
  5
12B3
330
18
100
AcDbEntity
  8
1
  6
Continuous
100
AcDbLine
 10
336.5779058158202
 20
183.8938343597392
 30
0.0
 11
336.5779058158209
 21
183.5938343597392
 31
0.0
  0
LINE
  5
12B4
330
18
100
AcDbEntity
  8
1
  6
Continuous
100
AcDbLine
 10
335.2279058158203
 20
183.8938343597392
 30
0.0
 11
335.227905815821
 21
183.5938343597392
 31
0.0
  0
ARC
  5
12B5
330
18
100
AcDbEntity
  8
1
  6
Continuous
100
AcDbCircle
 10
334.4279058156922
 20
182.5938343597392
 30
0.0
 40
1.0
100
AcDbArc
 50
90.0
 51
180.0
  0
ARC
  5
12B6
330
18
100
AcDbEntity
  8
1
  6
Continuous
100
AcDbCircle
 10
335.3279058158276
 20
187.793834359739
 30
0.0
 40
2.0
100
AcDbArc
 50
90.0
 51
180.0
  0
ARC
  5
12B7
330
18
100
AcDbEntity
  8
1
  6
Continuous
100
AcDbCircle
 10
340.1279058159579
 20
185.7938343597392
 30
0.0
 40
1.0
100
AcDbArc
 50
90.0
 51
180.0
  0
LINE
  5
12B8
330
18
100
AcDbEntity
  8
1
  6
Continuous
100
AcDbLine
 10
339.127905815958
 20
185.7938343597413
 30
0.0
 11
339.127905815953
 21
183.5938343597392
 31
0.0
  0
LINE
  5
12B9
330
18
100
AcDbEntity
  8
1
  6
Continuous
100
AcDbLine
 10
333.3279058156504
 20
243.7938343597179
 30
0.0
 11
333.3279058156633
 21
237.9586798799891
 31
0.0
  0
LINE
  5
12BA
330
18
100
AcDbEntity
  8
1
  6
Continuous
100
AcDbLine
 10
328.1279058158127
 20
224.7438343603695
 30
0.0
 11
332.795614189743
 21
224.7438343603648
 31
0.0
  0
ARC
  5
12BB
330
18
100
AcDbEntity
  8
1
  6
Continuous
100
AcDbCircle
 10
328.1279058158099
 20
221.7438343603695
 30
0.0
 40
3.0
100
AcDbArc
 50
90.0
 51
180.0
  0
LINE
  5
12BC
330
18
100
AcDbEntity
  8
1
  6
Continuous
100
AcDbLine
 10
345.4207990344941
 20
229.7511936726055
 30
0.0
 11
341.8852651285612
 21
233.2867275785383
 31
0.0
  0
LINE
  5
12BD
330
18
100
AcDbEntity
  8
1
  6
Continuous
100
AcDbLine
 10
330.1279058150521
 20
241.7938343597246
 30
0.0
 11
330.1279058150521
 21
224.7438343603675
 31
0.0
  0
LINE
  5
12BE
330
18
100
AcDbEntity
  8
1
  6
Continuous
100
AcDbLine
 10
333.3279058156808
 20
230.0289888394035
 30
0.0
 11
333.3279058156936
 21
224.3508189633045
 31
0.0
  0
CIRCLE
  5
12C1
330
18
100
AcDbEntity
  8
1
  6
Continuous
100
AcDbCircle
 10
336.6279058156803
 20
233.9938343597247
 30
0.0
 40
2.0
  0
ARC
  5
12C6
330
18
100
AcDbEntity
  8
1
  6
Continuous
100
AcDbCircle
 10
342.5923719097479
 20
233.9938343597247
 30
0.0
 40
1.0
100
AcDbArc
 50
135.0
 51
224.9999999999999
  0
ARC
  5
12C7
330
18
100
AcDbEntity
  8
1
  6
Continuous
100
AcDbCircle
 10
346.1279058156617
 20
233.9938343597245
 30
0.0
 40
4.0
100
AcDbArc
 50
163.9550243718625
 51
196.0449756281404
  0
LINE
  5
12C8
330
18
100
AcDbEntity
  8
1
  6
Continuous
100
AcDbLine
 10
345.4207990344941
 20
238.2364750468439
 30
0.0
 11
341.8852651285612
 21
234.7009411409112
 31
0.0
  0
LINE
  5
12C9
330
18
100
AcDbEntity
  8
1
  6
Continuous
100
AcDbLine
 10
342.1630602953606
 20
246.7938343597246
 30
0.0
 11
336.3279058156507
 21
246.7938343597246
 31
0.0
  0
ARC
  5
12CA
330
18
100
AcDbEntity
  8
1
  6
Continuous
100
AcDbCircle
 10
336.3279058156507
 20
243.7938343597246
 30
0.0
 40
3.0
100
AcDbArc
 50
90.0
 51
180.0
  0
LINE
  5
12CC
330
18
100
AcDbEntity
  8
1
  6
Continuous
100
AcDbLine
 10
367.1279058158146
 20
221.7438343603335
 30
0.0
 11
367.1279058158065
 21
195.4938343600458
 31
0.0
  0
LINE
  5
12CD
330
18
100
AcDbEntity
  8
1
  6
Continuous
100
AcDbLine
 10
361.9279058157387
 20
224.7438343603364
 30
0.0
 11
361.9279058157098
 21
192.4938343600488
 31
0.0
  0
ARC
  5
12CE
330
18
100
AcDbEntity
  8
1
  6
Continuous
100
AcDbCircle
 10
356.927905815824
 20
189.9938343597391
 30
0.0
 40
2.0
100
AcDbArc
 50
0.0
 51
90.0
  0
ARC
  5
12CF
330
18
100
AcDbEntity
  8
1
  6
Continuous
100
AcDbCircle
 10
364.1279058158043
 20
195.4938343600467
 30
0.0
 40
3.0
100
AcDbArc
 50
270.0
 51
0.0
  0
ARC
  5
12D0
330
18
100
AcDbEntity
  8
1
  6
Continuous
100
AcDbCircle
 10
351.6279058159232
 20
174.2938343597406
 30
0.0
 40
2.0
100
AcDbArc
 50
0.0
 51
90.0
  0
ARC
  5
12D1
330
18
100
AcDbEntity
  8
1
  6
Continuous
100
AcDbCircle
 10
352.127905815958
 20
185.7938343597392
 30
0.0
 40
1.0
100
AcDbArc
 50
0.0
 51
90.0
  0
LINE
  5
12D2
330
18
100
AcDbEntity
  8
1
  6
Continuous
100
AcDbLine
 10
357.8279058156922
 20
183.5938343597392
 30
0.0
 11
353.1279058159602
 21
183.5938343597392
 31
0.0
  0
LINE
  5
12D3
330
18
100
AcDbEntity
  8
1
  6
Continuous
100
AcDbLine
 10
357.0279058158202
 20
183.8938343597391
 30
0.0
 11
353.1279058159539
 21
183.8938343597391
 31
0.0
  0
LINE
  5
12D4
330
18
100
AcDbEntity
  8
1
  6
Continuous
100
AcDbLine
 10
353.1279058159579
 20
185.7938343597369
 30
0.0
 11
353.127905815953
 21
183.5938343597392
 31
0.0
  0
LINE
  5
12D5
330
18
100
AcDbEntity
  8
1
  6
Continuous
100
AcDbLine
 10
357.0279058158202
 20
183.8938343597392
 30
0.0
 11
357.027905815821
 21
183.5938343597392
 31
0.0
  0
LINE
  5
12D6
330
18
100
AcDbEntity
  8
1
  6
Continuous
100
AcDbLine
 10
355.6779058158204
 20
183.8938343597392
 30
0.0
 11
355.677905815821
 21
183.5938343597392
 31
0.0
  0
ARC
  5
12D7
330
18
100
AcDbEntity
  8
1
  6
Continuous
100
AcDbCircle
 10
357.8279058156922
 20
182.5938343597392
 30
0.0
 40
1.0
100
AcDbArc
 50
0.0
 51
90.0
  0
ARC
  5
12D8
330
18
100
AcDbEntity
  8
1
  6
Continuous
100
AcDbCircle
 10
356.9279058158276
 20
187.793834359739
 30
0.0
 40
2.0
100
AcDbArc
 50
0.0
 51
90.0
  0
LINE
  5
12D9
330
18
100
AcDbEntity
  8
1
  6
Continuous
100
AcDbLine
 10
358.9279058156505
 20
243.7938343597312
 30
0.0
 11
358.9279058156634
 21
237.9586798800996
 31
0.0
  0
LINE
  5
12DA
330
18
100
AcDbEntity
  8
1
  6
Continuous
100
AcDbLine
 10
359.4601974416899
 20
224.7438343603388
 30
0.0
 11
364.1279058158129
 21
224.7438343603342
 31
0.0
  0
LINE
  5
12DC
330
18
100
AcDbEntity
  8
1
  6
Continuous
100
AcDbLine
 10
350.3705465027997
 20
233.2867275785381
 30
0.0
 11
346.8350125968672
 21
229.7511936726055
 31
0.0
  0
LINE
  5
12DF
330
18
100
AcDbEntity
  8
1
  6
Continuous
100
AcDbLine
 10
358.927905815681
 20
230.0289888394063
 30
0.0
 11
358.9279058156935
 21
224.3508189632473
 31
0.0
  0
ARC
  5
12E1
330
18
100
AcDbEntity
  8
1
  6
Continuous
100
AcDbCircle
 10
346.1279058156617
 20
233.9938343597245
 30
0.0
 40
4.0
100
AcDbArc
 50
343.9550243718593
 51
16.04497562814046
  0
ARC
  5
12E2
330
18
100
AcDbEntity
  8
1
  6
Continuous
100
AcDbCircle
 10
349.6634397216131
 20
233.9938343597245
 30
0.0
 40
1.0
100
AcDbArc
 50
315.0
 51
44.99999999999992
  0
LINE
  5
12E3
330
18
100
AcDbEntity
  8
1
  6
Continuous
100
AcDbLine
 10
350.3705465027997
 20
234.7009411409111
 30
0.0
 11
346.835012596867
 21
238.2364750468439
 31
0.0
  0
CIRCLE
  5
12E6
330
18
100
AcDbEntity
  8
1
  6
Continuous
100
AcDbCircle
 10
355.6279058156803
 20
233.9938343597245
 30
0.0
 40
2.0
  0
LINE
  5
12E7
330
18
100
AcDbEntity
  8
1
  6
Continuous
100
AcDbLine
 10
362.1279058150521
 20
224.7438343603362
 30
0.0
 11
362.1279058150521
 21
241.7938343597246
 31
0.0
  0
ARC
  5
12E8
330
18
100
AcDbEntity
  8
1
  6
Continuous
100
AcDbCircle
 10
364.12790581581
 20
221.7438343603343
 30
0.0
 40
3.0
100
AcDbArc
 50
0.0
 51
90.0
  0
LINE
  5
12EA
330
18
100
AcDbEntity
  8
1
  6
Continuous
100
AcDbLine
 10
355.9279058156505
 20
246.7938343597246
 30
0.0
 11
350.0927513360002
 21
246.7938343597246
 31
0.0
  0
ARC
  5
12EC
330
18
100
AcDbEntity
  8
1
  6
Continuous
100
AcDbCircle
 10
355.9279058156505
 20
243.7938343597246
 30
0.0
 40
3.0
100
AcDbArc
 50
0.0
 51
90.0
  0
LINE
  5
1388
330
18
100
AcDbEntity
  8
4
  6
CENTER
100
AcDbLine
 10
359.1279058156613
 20
233.9938343597245
 30
0.0
 11
333.1279058156614
 21
233.9938343597245
 31
0.0
  0
ARC
  5
1389
330
18
100
AcDbEntity
  8
1
  6
Continuous
 48
0.25
100
AcDbCircle
 10
346.1279058158014
 20
206.9938343597371
 30
0.0
 40
2.45
100
AcDbArc
 50
125.1291000000052
 51
144.8709000000016
  0
LINE
  5
138A
330
18
100
AcDbEntity
  8
1
  6
Continuous
 48
0.25
100
AcDbLine
 10
344.8784481334447
 20
207.6224522882121
 30
0.0
 11
344.1239651979186
 21
208.4038052814232
 31
0.0
  0
ARC
  5
138B
330
18
100
AcDbEntity
  8
1
  6
Continuous
 48
0.25
100
AcDbCircle
 10
346.1279058158014
 20
206.9938343597371
 30
0.0
 40
2.45
100
AcDbArc
 50
215.1289999999997
 51
234.8709999999998
  0
LINE
  5
138C
330
18
100
AcDbEntity
  8
1
  6
Continuous
 48
0.25
100
AcDbLine
 10
344.8784481334447
 20
206.3652164312624
 30
0.0
 11
344.1239651979186
 21
205.5838634380512
 31
0.0
  0
CIRCLE
  5
138D
330
18
100
AcDbEntity
  8
1
  6
Continuous
 48
0.25
100
AcDbCircle
 10
346.1279058158014
 20
206.9938343597371
 30
0.0
 40
4.5
  0
CIRCLE
  5
138E
330
18
100
AcDbEntity
  8
1
  6
Continuous
100
AcDbCircle
 10
346.127905815798
 20
206.9938343597423
 30
0.0
 40
4.600000000071418
  0
LINE
  5
138F
330
18
100
AcDbEntity
  8
4
  6
CENTER
100
AcDbLine
 10
352.3779058157789
 20
206.9938343597371
 30
0.0
 11
339.8779058157789
 21
206.9938343597371
 31
0.0
  0
LINE
  5
139A
330
18
100
AcDbEntity
  8
4
  6
CENTER
100
AcDbLine
 10
336.6279058156614
 20
237.4938343597245
 30
0.0
 11
336.6279058156614
 21
230.4938343597246
 31
0.0
  0
ARC
  5
139C
330
18
100
AcDbEntity
  8
1
  6
Continuous
 48
0.25
100
AcDbCircle
 10
346.1279058158014
 20
206.9938343597371
 30
0.0
 40
2.45
100
AcDbArc
 50
35.12899999999975
 51
54.87089000000438
  0
LINE
  5
139D
330
18
100
AcDbEntity
  8
1
  6
Continuous
 48
0.25
100
AcDbLine
 10
346.7565237442762
 20
208.2432920420939
 30
0.0
 11
347.5378767374873
 21
208.9977749776198
 31
0.0
  0
LINE
  5
139E
330
18
100
AcDbEntity
  8
1
  6
Continuous
 48
0.25
100
AcDbLine
 10
345.4992878873266
 20
208.2432920420937
 30
0.0
 11
344.7179348941155
 21
208.9977749776198
 31
0.0
  0
LINE
  5
139F
330
18
100
AcDbEntity
  8
1
  6
Continuous
 48
0.25
100
AcDbLine
 10
347.3773634981581
 20
207.6224522882121
 30
0.0
 11
348.131846433684
 21
208.4038052814232
 31
0.0
  0
LINE
  5
13A0
330
18
100
AcDbEntity
  8
1
  6
Continuous
 48
0.25
100
AcDbLine
 10
347.3773634981581
 20
206.3652164312621
 30
0.0
 11
348.131846433684
 21
205.5838634380511
 31
0.0
  0
ARC
  5
13A1
330
18
100
AcDbEntity
  8
1
  6
Continuous
 48
0.25
100
AcDbCircle
 10
346.1279058158014
 20
206.9938343597371
 30
0.0
 40
2.45
100
AcDbArc
 50
305.129
 51
324.8710000000002
  0
LINE
  5
13A2
330
18
100
AcDbEntity
  8
1
  6
Continuous
 48
0.25
100
AcDbLine
 10
347.1489680078349
 20
206.9938343597371
 30
0.0
 11
347.3773634981581
 21
207.6224522882121
 31
0.0
  0
LINE
  5
13A3
330
18
100
AcDbEntity
  8
1
  6
Continuous
 48
0.25
100
AcDbLine
 10
346.1279058158014
 20
208.0148965517705
 30
0.0
 11
346.7565237442762
 21
208.2432920420939
 31
0.0
  0
LINE
  5
13A4
330
18
100
AcDbEntity
  8
1
  6
Continuous
 48
0.25
100
AcDbLine
 10
346.1279058158014
 20
208.0148965517705
 30
0.0
 11
345.4992878873266
 21
208.2432920420937
 31
0.0
  0
LINE
  5
13A5
330
18
100
AcDbEntity
  8
1
  6
Continuous
 48
0.25
100
AcDbLine
 10
345.1075507305491
 20
206.9945414665184
 30
0.0
 11
344.8784481334447
 21
207.6224522882121
 31
0.0
  0
LINE
  5
13A6
330
18
100
AcDbEntity
  8
1
  6
Continuous
 48
0.25
100
AcDbLine
 10
346.1286129225826
 20
205.973479274485
 30
0.0
 11
345.4992878873266
 21
205.7443766773806
 31
0.0
  0
LINE
  5
13A7
330
18
100
AcDbEntity
  8
1
  6
Continuous
 48
0.25
100
AcDbLine
 10
346.1286129225826
 20
205.973479274485
 30
0.0
 11
346.7565237442762
 21
205.7443766773806
 31
0.0
  0
LINE
  5
13A8
330
18
100
AcDbEntity
  8
1
  6
Continuous
 48
0.25
100
AcDbLine
 10
346.7565237442762
 20
205.7443766773806
 30
0.0
 11
347.5378767374873
 21
204.9898937418545
 31
0.0
  0
LINE
  5
13A9
330
18
100
AcDbEntity
  8
1
  6
Continuous
 48
0.25
100
AcDbLine
 10
345.4992878873266
 20
205.7443766773806
 30
0.0
 11
344.7179348941155
 21
204.9898937418545
 31
0.0
  0
LINE
  5
13AA
330
18
100
AcDbEntity
  8
1
  6
Continuous
 48
0.25
100
AcDbLine
 10
347.1489680078349
 20
206.9938343597371
 30
0.0
 11
347.3773634981581
 21
206.3652164312621
 31
0.0
  0
LINE
  5
13AB
330
18
100
AcDbEntity
  8
1
  6
Continuous
 48
0.25
100
AcDbLine
 10
345.1075507305491
 20
206.9945414665184
 30
0.0
 11
344.8784481334447
 21
206.3652164312624
 31
0.0
  0
LINE
  5
13AE
330
18
100
AcDbEntity
  8
1
  6
Continuous
100
AcDbLine
 10
346.7279058157324
 20
225.4938343597245
 30
0.0
 11
345.5279058157324
 21
225.4938343597245
 31
0.0
  0
LINE
  5
13AF
330
18
100
AcDbEntity
  8
1
  6
Continuous
100
AcDbLine
 10
346.7279058157324
 20
223.4938343597245
 30
0.0
 11
346.7279058157324
 21
225.4938343597245
 31
0.0
  0
LINE
  5
13B9
330
18
100
AcDbEntity
  8
4
  6
CENTER
100
AcDbLine
 10
355.6279058156614
 20
237.4938343597245
 30
0.0
 11
355.6279058156614
 21
230.4938343597246
 31
0.0
  0
ARC
  5
13C8
330
18
100
AcDbEntity
  8
1
  6
Continuous
100
AcDbCircle
 10
346.4279058156608
 20
243.9938343597245
 30
0.0
 40
0.5
100
AcDbArc
 50
269.9999999999608
 51
89.99999999996092
  0
LINE
  5
13C9
330
18
100
AcDbEntity
  8
1
  6
Continuous
100
AcDbLine
 10
345.8279058156618
 20
243.4938343597246
 30
0.0
 11
346.4279058156608
 21
243.4938343597246
 31
0.0
  0
LINE
  5
13CA
330
18
100
AcDbEntity
  8
1
  6
Continuous
100
AcDbLine
 10
345.8279058156618
 20
244.4938343597245
 30
0.0
 11
346.4279058156608
 21
244.4938343597245
 31
0.0
  0
LINE
  5
13CB
330
18
100
AcDbEntity
  8
1
  6
Continuous
100
AcDbLine
 10
346.1279058156613
 20
243.4938343597246
 30
0.0
 11
346.9279058156609
 21
242.4938343597245
 31
0.0
  0
LINE
  5
13CC
330
18
100
AcDbEntity
  8
1
  6
Continuous
100
AcDbLine
 10
345.8279058156618
 20
244.4938343597245
 30
0.0
 11
345.8279058156618
 21
242.4938343597245
 31
0.0
  0
LINE
  5
23BD
330
18
100
AcDbEntity
  8
1
  6
Continuous
100
AcDbLine
 10
278.0543439396751
 20
233.9938343598195
 30
0.0
 11
276.7543439396749
 21
232.903004839289
 31
0.0
  0
LINE
  5
23BE
330
18
100
AcDbEntity
  8
1
  6
Continuous
100
AcDbLine
 10
258.453557031383
 20
208.0846638802948
 30
0.0
 11
257.1535570313831
 21
206.9938343597645
 31
0.0
  0
ARC
  5
23BF
330
18
100
AcDbEntity
  8
1
  6
Continuous
100
AcDbCircle
 10
47.55961099900753
 20
180.4938343595797
 30
0.0
 40
2.0
100
AcDbArc
 50
180.0
 51
270.0
  0
LINE
  5
23C0
330
18
100
AcDbEntity
  8
1
  6
Continuous
100
AcDbLine
 10
62.35961099900747
 20
178.4938343595797
 30
0.0
 11
47.55961099900753
 21
178.4938343595797
 31
0.0
  0
ARC
  5
23C1
330
18
100
AcDbEntity
  8
1
  6
Continuous
100
AcDbCircle
 10
62.35961099900747
 20
180.4938343595797
 30
0.0
 40
2.0
100
AcDbArc
 50
270.0
 51
0.0
  0
LINE
  5
23C2
330
18
100
AcDbEntity
  8
5
  6
PHANTOM
100
AcDbLine
 10
3.195201089258602
 20
212.6524223474222
 30
0.0
 11
10.59520108925858
 21
199.8352463714127
 31
0.0
  0
LINE
  5
23C3
330
18
100
AcDbEntity
  8
5
  6
PHANTOM
100
AcDbLine
 10
59.6596109994356
 20
225.8531955631609
 30
0.0
 11
13.32725189682742
 21
199.1031955638438
 31
0.0
  0
ARC
  5
23C4
330
18
100
AcDbEntity
  8
5
  6
PHANTOM
100
AcDbCircle
 10
12.32725189682742
 20
200.8352463714127
 30
0.0
 40
2.0
100
AcDbArc
 50
210.0
 51
300.0
  0
LINE
  5
23C5
330
18
100
AcDbEntity
  8
4
  6
CENTER
100
AcDbLine
 10
54.95961099887607
 20
233.9938343590165
 30
0.0
 11
4.085137725077629
 21
204.6214435195394
 31
0.0
  0
LINE
  5
23C6
330
18
100
AcDbEntity
  8
5
  6
PHANTOM
100
AcDbLine
 10
50.25961099943378
 20
242.1344731543073
 30
0.0
 11
3.927207144858583
 21
215.384447316659
 31
0.0
  0
ARC
  5
23C7
330
18
100
AcDbEntity
  8
5
  6
PHANTOM
100
AcDbCircle
 10
4.927251896827556
 20
213.6524223474223
 30
0.0
 40
2.0
100
AcDbArc
 50
120.0
 51
210.0
  0
ARC
  5
2520
330
18
100
AcDbEntity
  8
1
  6
Continuous
100
AcDbCircle
 10
232.0951560806158
 20
246.8938343594219
 30
0.0
 40
0.5
100
AcDbArc
 50
0.0
 51
90.0
  0
LINE
  5
284C
330
18
100
AcDbEntity
  8
4
  6
CENTER
100
AcDbLine
 10
209.3528490254516
 20
206.99383435976
 30
0.0
 11
221.0389945213955
 21
206.993834359765
 31
0.0
  0
LINE
  5
284E
330
18
100
AcDbEntity
  8
1
  6
Continuous
100
AcDbLine
 10
278.0543439396751
 20
333.3887167847162
 30
0.0
 11
276.7543439396749
 21
332.2978872641857
 31
0.0
  0
LINE
  5
284F
330
18
100
AcDbEntity
  8
1
  6
Continuous
100
AcDbLine
 10
275.954343939675
 20
339.3887167847162
 30
0.0
 11
275.954343939675
 21
327.3887167847163
 31
0.0
  0
LINE
  5
2850
330
18
100
AcDbEntity
  8
1
  6
Continuous
100
AcDbLine
 10
276.7543439396749
 20
339.3887167847162
 30
0.0
 11
276.7543439396749
 21
327.3887167847163
 31
0.0
  0
LINE
  5
2851
330
18
100
AcDbEntity
  8
1
  6
Continuous
100
AcDbLine
 10
278.0543439396751
 20
337.9887167847162
 30
0.0
 11
278.0543439396751
 21
328.7887167847162
 31
0.0
  0
ARC
  5
2852
330
18
100
AcDbEntity
  8
1
  6
Continuous
100
AcDbCircle
 10
269.3543439396751
 20
333.3887167847162
 30
0.0
 40
12.0
100
AcDbArc
 50
344.5060324994792
 51
15.49396750052079
  0
LINE
  5
2853
330
18
100
AcDbEntity
  8
1
  6
Continuous
100
AcDbLine
 10
258.4535570314133
 20
333.3887167847144
 30
0.0
 11
257.1535570314131
 21
332.2978872641839
 31
0.0
  0
ARC
  5
2854
330
18
100
AcDbEntity
  8
1
  6
Continuous
100
AcDbCircle
 10
249.7535570314132
 20
333.3887167847151
 30
0.0
 40
12.0
100
AcDbArc
 50
344.5060324994792
 51
15.49396750052079
  0
LINE
  5
2855
330
18
100
AcDbEntity
  8
1
  6
Continuous
100
AcDbLine
 10
258.4535570314133
 20
337.9887167847152
 30
0.0
 11
258.4535570314133
 21
328.7887167847152
 31
0.0
  0
LINE
  5
2856
330
18
100
AcDbEntity
  8
1
  6
Continuous
100
AcDbLine
 10
257.1535570314133
 20
337.9887167847152
 30
0.0
 11
257.1535570314133
 21
328.7887167847152
 31
0.0
  0
LINE
  5
2857
330
18
100
AcDbEntity
  8
1
  6
Continuous
100
AcDbLine
 10
234.5951560806156
 20
329.3887167850162
 30
0.0
 11
234.5951560806156
 21
337.3887167850165
 31
0.0
  0
LINE
  5
2858
330
18
100
AcDbEntity
  8
1
  6
Continuous
100
AcDbLine
 10
214.3951560806151
 20
321.5887167847333
 30
0.0
 11
214.3951560806151
 21
333.3887167847119
 31
0.0
  0
LINE
  5
285B
330
18
100
AcDbEntity
  8
1
  6
Continuous
100
AcDbLine
 10
207.3951560806151
 20
345.3887167853311
 30
0.0
 11
207.3951560806165
 21
321.3887167853313
 31
0.0
  0
LINE
  5
285C
330
18
100
AcDbEntity
  8
1
  6
Continuous
100
AcDbLine
 10
210.3951560806151
 20
349.3887167853308
 30
0.0
 11
210.3951560806169
 21
317.388716785331
 31
0.0
  0
LINE
  5
285D
330
18
100
AcDbEntity
  8
1
  6
Continuous
100
AcDbLine
 10
212.3951560806151
 20
349.3887167853306
 30
0.0
 11
212.3951560806169
 21
317.3887167853308
 31
0.0
  0
LINE
  5
285E
330
18
100
AcDbEntity
  8
1
  6
Continuous
100
AcDbLine
 10
220.3951560806151
 20
321.5887167847323
 30
0.0
 11
220.3951560806151
 21
345.1887167846919
 31
0.0
  0
LINE
  5
285F
330
18
100
AcDbEntity
  8
1
  6
Continuous
100
AcDbLine
 10
232.5951560806156
 20
320.4887167847096
 30
0.0
 11
232.5951560806156
 21
346.2887167847138
 31
0.0
  0
LINE
  5
2860
330
18
100
AcDbEntity
  8
1
  6
Continuous
100
AcDbLine
 10
254.8535570314252
 20
346.8887167847133
 30
0.0
 11
254.8535570314011
 21
319.8887167847133
 31
0.0
  0
LINE
  5
2861
330
18
100
AcDbEntity
  8
1
  6
Continuous
100
AcDbLine
 10
257.1535570314251
 20
346.8887167847112
 30
0.0
 11
257.1535570314011
 21
319.8887167847171
 31
0.0
  0
ARC
  5
2864
330
18
100
AcDbEntity
  8
1
  6
Continuous
100
AcDbCircle
 10
217.0685188394816
 20
333.3887167847287
 30
0.0
 40
15.073362758848
100
AcDbArc
 50
146.5984739120802
 51
213.4015260878119
  0
ARC
  5
2865
330
18
100
AcDbEntity
  8
1
  6
Continuous
100
AcDbCircle
 10
263.8951560806124
 20
333.3887167847121
 30
0.0
 40
60.0
100
AcDbArc
 50
172.2389089445791
 51
187.7610910554207
  0
LINE
  5
286A
330
18
100
AcDbEntity
  8
1
  6
Continuous
100
AcDbLine
 10
205.9310292434036
 20
323.9887167847121
 30
0.0
 11
207.3951560806165
 21
323.9887167847121
 31
0.0
  0
ARC
  5
286B
330
18
100
AcDbEntity
  8
1
  6
Continuous
100
AcDbCircle
 10
205.9310292434036
 20
325.4887167847122
 30
0.0
 40
1.5
100
AcDbArc
 50
187.7610910554207
 51
270.0
  0
ARC
  5
286C
330
18
100
AcDbEntity
  8
1
  6
Continuous
100
AcDbCircle
 10
232.0951560806156
 20
320.4887167847096
 30
0.0
 40
0.5
100
AcDbArc
 50
270.0
 51
0.0
  0
LINE
  5
286D
330
18
100
AcDbEntity
  8
1
  6
Continuous
100
AcDbLine
 10
207.3951560806165
 20
321.3887167853313
 30
0.0
 11
210.3951560806169
 21
317.388716785331
 31
0.0
  0
LINE
  5
286E
330
18
100
AcDbEntity
  8
1
  6
Continuous
100
AcDbLine
 10
220.7951560806159
 20
319.9887167847131
 30
0.0
 11
232.0951560806156
 21
319.9887167847092
 31
0.0
  0
LINE
  5
286F
330
18
100
AcDbEntity
  8
1
  6
Continuous
100
AcDbLine
 10
210.3951560806169
 20
317.388716785331
 30
0.0
 11
212.3951560806169
 21
317.3887167853308
 31
0.0
  0
ARC
  5
2870
330
18
100
AcDbEntity
  8
1
  6
Continuous
100
AcDbCircle
 10
219.3951560806151
 20
321.5887167847323
 30
0.0
 40
1.0
100
AcDbArc
 50
270.0
 51
0.0
  0
ARC
  5
2871
330
18
100
AcDbEntity
  8
1
  6
Continuous
100
AcDbCircle
 10
213.3951560806151
 20
321.5887167847333
 30
0.0
 40
1.0
100
AcDbArc
 50
270.0
 51
0.0
  0
LINE
  5
2872
330
18
100
AcDbEntity
  8
1
  6
Continuous
100
AcDbLine
 10
219.3951560806147
 20
320.5887167847324
 30
0.0
 11
212.3951560805191
 21
320.5887167847333
 31
0.0
  0
LINE
  5
2873
330
18
100
AcDbEntity
  8
1
  6
Continuous
100
AcDbLine
 10
234.5951560806156
 20
332.2831494443493
 30
0.0
 11
232.5951560806156
 21
332.2831494443493
 31
0.0
  0
LINE
  5
2874
330
18
100
AcDbEntity
  8
4
  6
CENTER
100
AcDbLine
 10
230.9367812150771
 20
323.8887167847122
 30
0.0
 11
236.0220601576161
 21
323.8887167847122
 31
0.0
  0
ARC
  5
2875
330
18
100
AcDbEntity
  8
1
  6
Continuous
100
AcDbCircle
 10
234.0951560806156
 20
322.3887167847883
 30
0.0
 40
0.5
100
AcDbArc
 50
270.0
 51
0.0
  0
ARC
  5
2876
330
18
100
AcDbEntity
  8
1
  6
Continuous
100
AcDbCircle
 10
234.0951560806156
 20
325.3887167847883
 30
0.0
 40
0.5
100
AcDbArc
 50
0.0
 51
90.0
  0
LINE
  5
2877
330
18
100
AcDbEntity
  8
1
  6
Continuous
100
AcDbLine
 10
234.5951560806156
 20
325.3887167847883
 30
0.0
 11
234.5951560806156
 21
322.3887167847883
 31
0.0
  0
LINE
  5
2878
330
18
100
AcDbEntity
  8
1
  6
Continuous
100
AcDbLine
 10
232.595156080617
 20
321.8887167847877
 30
0.0
 11
234.0951560806161
 21
321.8887167847883
 31
0.0
  0
LINE
  5
2879
330
18
100
AcDbEntity
  8
1
  6
Continuous
100
AcDbLine
 10
232.5951560806156
 20
325.8887167847877
 30
0.0
 11
234.0951560806156
 21
325.8887167847883
 31
0.0
  0
LINE
  5
287A
330
18
100
AcDbEntity
  8
1
  6
Continuous
100
AcDbLine
 10
234.5951560806156
 20
329.5445366571154
 30
0.0
 11
232.5951560802304
 21
329.5445366571158
 31
0.0
  0
LINE
  5
287B
330
18
100
AcDbEntity
  8
1
  6
Continuous
100
AcDbLine
 10
234.5951560806156
 20
329.3887167850162
 30
0.0
 11
232.595156080616
 21
329.3887167850162
 31
0.0
  0
ARC
  5
287E
330
18
100
AcDbEntity
  8
1
  6
Continuous
100
AcDbCircle
 10
253.653557031399
 20
317.588716784713
 30
0.0
 40
2.299999999999998
100
AcDbArc
 50
90.00000000001952
 51
179.9999999999495
  0
LINE
  5
287F
330
18
100
AcDbEntity
  8
1
  6
Continuous
100
AcDbLine
 10
251.3535570313945
 20
312.3887167846963
 30
0.0
 11
253.6535570313944
 21
312.3887167846953
 31
0.0
  0
LINE
  5
2880
330
18
100
AcDbEntity
  8
1
  6
Continuous
100
AcDbLine
 10
251.353557031399
 20
317.588716784715
 30
0.0
 11
251.3535570313945
 21
312.3887167846963
 31
0.0
  0
LINE
  5
2881
330
18
100
AcDbEntity
  8
1
  6
Continuous
100
AcDbLine
 10
253.6535570313983
 20
319.888716784713
 30
0.0
 11
254.8535570314011
 21
319.8887167847133
 31
0.0
  0
LINE
  5
2882
330
18
100
AcDbEntity
  8
1
  6
Continuous
100
AcDbLine
 10
253.6535570314317
 20
312.3887167846953
 30
0.0
 11
253.6535570314272
 21
317.5887167847195
 31
0.0
  0
LINE
  5
2883
330
18
100
AcDbEntity
  8
1
  6
Continuous
100
AcDbLine
 10
253.6535570314272
 20
317.5887167847195
 30
0.0
 11
254.8535570314004
 21
317.5887167847192
 31
0.0
  0
ARC
  5
2884
330
18
100
AcDbEntity
  8
1
  6
Continuous
100
AcDbCircle
 10
254.8535570314011
 20
319.8887167847192
 30
0.0
 40
2.299999999999998
100
AcDbArc
 50
269.9999999999804
 51
359.9999999999495
  0
ARC
  5
2885
330
18
100
AcDbEntity
  8
1
  6
Continuous
100
AcDbCircle
 10
259.7756063111046
 20
330.6104928493907
 30
0.0
 40
1.6
100
AcDbArc
 50
274.9999999999997
 51
344.5060324994792
  0
LINE
  5
2886
330
18
100
AcDbEntity
  8
1
  6
Continuous
100
AcDbLine
 10
258.4535570314133
 20
328.7887167847152
 30
0.0
 11
257.1535570314133
 21
328.7887167847152
 31
0.0
  0
LINE
  5
2887
330
18
100
AcDbEntity
  8
1
  6
Continuous
100
AcDbLine
 10
258.4535570314133
 20
328.8887167847152
 30
0.0
 11
259.9150554995496
 21
329.0165813324376
 31
0.0
  0
LINE
  5
2888
330
18
100
AcDbEntity
  8
1
  6
Continuous
100
AcDbLine
 10
276.7543439396749
 20
327.3887167847163
 30
0.0
 11
275.954343939675
 21
327.3887167847163
 31
0.0
  0
LINE
  5
2889
330
18
100
AcDbEntity
  8
1
  6
Continuous
100
AcDbLine
 10
278.0543439396751
 20
328.8887167847162
 30
0.0
 11
279.5158424078115
 21
329.0165813324388
 31
0.0
  0
LINE
  5
288A
330
18
100
AcDbEntity
  8
1
  6
Continuous
100
AcDbLine
 10
278.0543439396751
 20
328.7887167847162
 30
0.0
 11
276.7543439396749
 21
328.7887167847162
 31
0.0
  0
ARC
  5
288B
330
18
100
AcDbEntity
  8
1
  6
Continuous
100
AcDbCircle
 10
279.3763932193665
 20
330.6104928493919
 30
0.0
 40
1.6
100
AcDbArc
 50
274.9999999999997
 51
344.5060324994792
  0
LINE
  5
288D
330
18
100
AcDbEntity
  8
4
  6
CENTER
100
AcDbLine
 10
200.6454234343866
 20
333.3887167847121
 30
0.0
 11
239.4338624879276
 21
333.3887167847121
 31
0.0
  0
LINE
  5
2893
330
18
100
AcDbEntity
  8
1
  6
Continuous
100
AcDbLine
 10
205.9310292434036
 20
342.788716784712
 30
0.0
 11
207.3951560806156
 21
342.788716784712
 31
0.0
  0
ARC
  5
2894
330
18
100
AcDbEntity
  8
1
  6
Continuous
100
AcDbCircle
 10
205.9310292434036
 20
341.288716784712
 30
0.0
 40
1.5
100
AcDbArc
 50
90.0
 51
172.2389089445791
  0
ARC
  5
2895
330
18
100
AcDbEntity
  8
1
  6
Continuous
100
AcDbCircle
 10
219.3951560806151
 20
345.1887167846919
 30
0.0
 40
1.0
100
AcDbArc
 50
0.0
 51
90.0
  0
LINE
  5
2896
330
18
100
AcDbEntity
  8
1
  6
Continuous
100
AcDbLine
 10
207.3951560806151
 20
345.3887167853311
 30
0.0
 11
210.3951560806151
 21
349.3887167853308
 31
0.0
  0
ARC
  5
2897
330
18
100
AcDbEntity
  8
1
  6
Continuous
100
AcDbCircle
 10
213.3951560806151
 20
345.1887167846909
 30
0.0
 40
1.0
100
AcDbArc
 50
0.0
 51
90.0
  0
LINE
  5
2898
330
18
100
AcDbEntity
  8
1
  6
Continuous
100
AcDbLine
 10
214.3951560806151
 20
345.1887167846909
 30
0.0
 11
214.3951560806151
 21
333.3887167847121
 31
0.0
  0
ARC
  5
2899
330
18
100
AcDbEntity
  8
1
  6
Continuous
100
AcDbCircle
 10
234.0951560806156
 20
344.3887167846361
 30
0.0
 40
0.5
100
AcDbArc
 50
0.0
 51
90.0
  0
LINE
  5
289A
330
18
100
AcDbEntity
  8
1
  6
Continuous
100
AcDbLine
 10
232.595156080617
 20
344.8887167846368
 30
0.0
 11
234.0951560806161
 21
344.8887167846361
 31
0.0
  0
LINE
  5
289B
330
18
100
AcDbEntity
  8
4
  6
CENTER
100
AcDbLine
 10
230.9367812150771
 20
342.8887167847122
 30
0.0
 11
236.0220601576161
 21
342.8887167847122
 31
0.0
  0
ARC
  5
289C
330
18
100
AcDbEntity
  8
1
  6
Continuous
100
AcDbCircle
 10
234.0951560806156
 20
341.3887167846362
 30
0.0
 40
0.5
100
AcDbArc
 50
270.0
 51
0.0
  0
LINE
  5
289D
330
18
100
AcDbEntity
  8
1
  6
Continuous
100
AcDbLine
 10
232.5951560806156
 20
340.8887167846368
 30
0.0
 11
234.0951560806156
 21
340.8887167846362
 31
0.0
  0
LINE
  5
289E
330
18
100
AcDbEntity
  8
1
  6
Continuous
100
AcDbLine
 10
234.5951560806156
 20
334.4942841251022
 30
0.0
 11
232.5951560806156
 21
334.4942841251022
 31
0.0
  0
LINE
  5
289F
330
18
100
AcDbEntity
  8
1
  6
Continuous
100
AcDbLine
 10
234.5951560806156
 20
337.2328969123085
 30
0.0
 11
232.5951560802304
 21
337.2328969123083
 31
0.0
  0
LINE
  5
28A0
330
18
100
AcDbEntity
  8
1
  6
Continuous
100
AcDbLine
 10
234.5951560806156
 20
337.3887167850165
 30
0.0
 11
232.5951560806156
 21
337.3887167850165
 31
0.0
  0
LINE
  5
28A1
330
18
100
AcDbEntity
  8
1
  6
Continuous
100
AcDbLine
 10
234.5951560806156
 20
341.3887167846362
 30
0.0
 11
234.5951560806156
 21
344.3887167846361
 31
0.0
  0
LINE
  5
28A2
330
18
100
AcDbEntity
  8
1
  6
Continuous
100
AcDbLine
 10
220.7951560806159
 20
346.7887167847117
 30
0.0
 11
232.0951560806156
 21
346.7887167847138
 31
0.0
  0
LINE
  5
28A3
330
18
100
AcDbEntity
  8
1
  6
Continuous
100
AcDbLine
 10
212.3951560806151
 20
349.3887167853306
 30
0.0
 11
210.3951560806151
 21
349.3887167853308
 31
0.0
  0
LINE
  5
28A4
330
18
100
AcDbEntity
  8
1
  6
Continuous
100
AcDbLine
 10
219.3951560806147
 20
346.1887167846918
 30
0.0
 11
212.3951560805191
 21
346.1887167846907
 31
0.0
  0
ARC
  5
28A5
330
18
100
AcDbEntity
  8
1
  6
Continuous
100
AcDbCircle
 10
232.0951560806156
 20
346.2887167847138
 30
0.0
 40
0.5
100
AcDbArc
 50
0.0
 51
90.0
  0
LINE
  5
28A6
330
18
100
AcDbEntity
  8
4
  6
CENTER
100
AcDbLine
 10
248.5942787017429
 20
333.3887167847113
 30
0.0
 11
264.4430945368458
 21
333.3887167847162
 31
0.0
  0
ARC
  5
28A7
330
18
100
AcDbEntity
  8
1
  6
Continuous
100
AcDbCircle
 10
259.7756063110876
 20
336.1669407200357
 30
0.0
 40
1.6
100
AcDbArc
 50
15.49396750052079
 51
85.00000000000019
  0
LINE
  5
28A8
330
18
100
AcDbEntity
  8
1
  6
Continuous
100
AcDbLine
 10
258.4535570314135
 20
334.4795463052445
 30
0.0
 11
257.1535570314133
 21
333.388716784714
 31
0.0
  0
LINE
  5
28A9
330
18
100
AcDbEntity
  8
1
  6
Continuous
100
AcDbLine
 10
258.4535570314133
 20
337.9887167847152
 30
0.0
 11
257.1535570314133
 21
337.9887167847152
 31
0.0
  0
LINE
  5
28AA
330
18
100
AcDbEntity
  8
1
  6
Continuous
100
AcDbLine
 10
258.4535570314133
 20
337.8887167847153
 30
0.0
 11
259.9150554995087
 21
337.7608522369964
 31
0.0
  0
ARC
  5
28AB
330
18
100
AcDbEntity
  8
1
  6
Continuous
100
AcDbCircle
 10
253.6535570314272
 20
349.188716784713
 30
0.0
 40
2.299999999999998
100
AcDbArc
 50
179.9999999999495
 51
270.0000000000195
  0
LINE
  5
28AC
330
18
100
AcDbEntity
  8
1
  6
Continuous
100
AcDbLine
 10
251.3535570314318
 20
354.3887167847362
 30
0.0
 11
253.6535570314333
 21
354.3887167847371
 31
0.0
  0
LINE
  5
28AD
330
18
100
AcDbEntity
  8
1
  6
Continuous
100
AcDbLine
 10
251.3535570314318
 20
354.3887167847362
 30
0.0
 11
251.353557031427
 21
349.1887167847151
 31
0.0
  0
ARC
  5
28AE
330
18
100
AcDbEntity
  8
1
  6
Continuous
100
AcDbCircle
 10
254.8535570314252
 20
346.8887167847133
 30
0.0
 40
2.299999999999998
100
AcDbArc
 50
359.9999999999495
 51
90.00000000001952
  0
LINE
  5
28AF
330
18
100
AcDbEntity
  8
1
  6
Continuous
100
AcDbLine
 10
253.6535570314317
 20
354.3887167847371
 30
0.0
 11
253.6535570314272
 21
349.188716784713
 31
0.0
  0
LINE
  5
28B0
330
18
100
AcDbEntity
  8
1
  6
Continuous
100
AcDbLine
 10
253.6535570314272
 20
349.188716784713
 30
0.0
 11
254.8535570314243
 21
349.1887167847132
 31
0.0
  0
LINE
  5
28B1
330
18
100
AcDbEntity
  8
1
  6
Continuous
100
AcDbLine
 10
253.6535570314276
 20
346.888716784713
 30
0.0
 11
254.8535570314252
 21
346.8887167847133
 31
0.0
  0
LINE
  5
28B2
330
18
100
AcDbEntity
  8
4
  6
CENTER
100
AcDbLine
 10
282.9498077677403
 20
333.3887167847162
 30
0.0
 11
273.6059772976991
 21
333.3887167847162
 31
0.0
  0
LINE
  5
28B3
330
18
100
AcDbEntity
  8
1
  6
Continuous
100
AcDbLine
 10
278.0543439396751
 20
337.8887167847165
 30
0.0
 11
279.5158424077703
 21
337.7608522369976
 31
0.0
  0
LINE
  5
28B4
330
18
100
AcDbEntity
  8
1
  6
Continuous
100
AcDbLine
 10
276.7543439396749
 20
339.3887167847162
 30
0.0
 11
275.954343939675
 21
339.3887167847162
 31
0.0
  0
LINE
  5
28B5
330
18
100
AcDbEntity
  8
1
  6
Continuous
100
AcDbLine
 10
278.0543439396751
 20
334.4795463052467
 30
0.0
 11
276.7543439396749
 21
333.3887167847162
 31
0.0
  0
LINE
  5
28B6
330
18
100
AcDbEntity
  8
1
  6
Continuous
100
AcDbLine
 10
278.0543439396751
 20
337.9887167847162
 30
0.0
 11
276.7543439396749
 21
337.9887167847162
 31
0.0
  0
ARC
  5
28B7
330
18
100
AcDbEntity
  8
1
  6
Continuous
100
AcDbCircle
 10
279.3763932193491
 20
336.1669407200366
 30
0.0
 40
1.6
100
AcDbArc
 50
15.49396750052079
 51
85.00000000000019
  0
LINE
  5
2A4E
330
18
100
AcDbEntity
  8
1
  6
Continuous
100
AcDbLine
 10
220.7951560806159
 20
346.7887167847117
 30
0.0
 11
220.7951560806159
 21
319.9887167847131
 31
0.0
  0
LINE
  5
2A9F
330
18
100
AcDbEntity
  8
1
  6
Continuous
100
AcDbLine
 10
220.7951560806159
 20
327.6113844198229
 30
0.0
 11
220.3951560806151
 21
327.6113844198229
 31
0.0
  0
LINE
  5
2AA0
330
18
100
AcDbEntity
  8
1
  6
Continuous
100
AcDbLine
 10
220.7951560806159
 20
321.4822528385568
 30
0.0
 11
220.3894726439714
 21
321.4822528385568
 31
0.0
  0
LINE
  5
2AA1
330
18
100
AcDbEntity
  8
1
  6
Continuous
100
AcDbLine
 10
220.7951560806159
 20
339.1660491497365
 30
0.0
 11
220.3951560806151
 21
339.1660491497365
 31
0.0
  0
LINE
  5
2AA2
330
18
100
AcDbEntity
  8
1
  6
Continuous
100
AcDbLine
 10
220.7951560806159
 20
345.2829442999125
 30
0.0
 11
220.3907067701209
 21
345.2829442999125
 31
0.0
  0
LINE
  5
457A
330
18
100
AcDbEntity
  8
1
  6
Continuous
100
AcDbLine
 10
479.4110630025008
 20
257.7938343594205
 30
0.0
 11
479.4110630024966
 21
139.7938343594349
 31
0.0
  0
LINE
  5
457B
330
18
100
AcDbEntity
  8
1
  6
Continuous
100
AcDbLine
 10
477.4110630025008
 20
257.7938343594205
 30
0.0
 11
477.4110630024964
 21
139.7938343594349
 31
0.0
  0
LINE
  5
457C
330
18
100
AcDbEntity
  8
1
  6
Continuous
100
AcDbLine
 10
482.4110630025008
 20
253.7938343594121
 30
0.0
 11
482.4110630024964
 21
143.7938343594423
 31
0.0
  0
ARC
  5
457D
330
18
100
AcDbEntity
  8
1
  6
Continuous
100
AcDbCircle
 10
486.3110630024853
 20
145.2938343594062
 30
0.0
 40
1.5
100
AcDbArc
 50
270.0
 51
0.000000000000007
  0
LINE
  5
457E
330
18
100
AcDbEntity
  8
1
  6
Continuous
100
AcDbLine
 10
482.8110630024828
 20
143.793834359408
 30
0.0
 11
482.8110630025047
 21
157.7938343594059
 31
0.0
  0
LINE
  5
457F
330
18
100
AcDbEntity
  8
1
  6
Continuous
100
AcDbLine
 10
482.6110630024833
 20
143.9938343594083
 30
0.0
 11
482.6110630024905
 21
148.5938343594083
 31
0.0
  0
LINE
  5
4580
330
18
100
AcDbEntity
  8
1
  6
Continuous
100
AcDbLine
 10
482.811063002483
 20
143.793834359408
 30
0.0
 11
486.3110630024846
 21
143.7938343594062
 31
0.0
  0
LINE
  5
4581
330
18
100
AcDbEntity
  8
1
  6
Continuous
100
AcDbLine
 10
479.4110630024933
 20
139.7938343594308
 30
0.0
 11
477.4110630024903
 21
139.7938343594281
 31
0.0
  0
ARC
  5
4582
330
18
100
AcDbEntity
  8
1
  6
Continuous
100
AcDbCircle
 10
482.8110630024831
 20
143.993834359408
 30
0.0
 40
0.2
100
AcDbArc
 50
180.0
 51
270.0
  0
LINE
  5
4583
330
18
100
AcDbEntity
  8
1
  6
Continuous
100
AcDbLine
 10
482.4110630024913
 20
143.793834359435
 30
0.0
 11
479.4110630024968
 21
139.7938343594349
 31
0.0
  0
LINE
  5
4587
330
18
100
AcDbEntity
  8
1
  6
Continuous
100
AcDbLine
 10
485.9110630025044
 20
239.8853536880617
 30
0.0
 11
485.9110630025001
 21
181.4938343593997
 31
0.0
  0
LINE
  5
4588
330
18
100
AcDbEntity
  8
1
  6
Continuous
100
AcDbLine
 10
473.9110630025008
 20
229.4938343594204
 30
0.0
 11
473.9110630024964
 21
191.993834359435
 31
0.0
  0
LINE
  5
4589
330
18
100
AcDbEntity
  8
1
  6
Continuous
100
AcDbLine
 10
432.6526620517177
 20
224.7438343601654
 30
0.0
 11
432.6526620517466
 21
192.4938343601501
 31
0.0
  0
LINE
  5
458A
330
18
100
AcDbEntity
  8
1
  6
Continuous
100
AcDbLine
 10
436.1526620517175
 20
224.7438343601639
 30
0.0
 11
436.1526620517465
 21
192.4938343601485
 31
0.0
  0
LINE
  5
458B
330
18
100
AcDbEntity
  8
1
  6
Continuous
100
AcDbLine
 10
438.4526620517176
 20
224.7438343601629
 30
0.0
 11
438.4526620517466
 21
192.4938343601475
 31
0.0
  0
LINE
  5
458E
330
18
100
AcDbEntity
  8
5
  6
PHANTOM
100
AcDbLine
 10
516.6554893583809
 20
194.7494080035598
 30
0.0
 11
518.4232563113471
 21
196.5171749565263
 31
0.0
  0
ARC
  5
4590
330
18
100
AcDbEntity
  8
5
  6
PHANTOM
100
AcDbCircle
 10
510.6203447646723
 20
194.4205915665895
 30
0.0
 40
6.0
100
AcDbArc
 50
145.7842978675645
 51
224.9999999999999
  0
LINE
  5
4591
330
18
100
AcDbEntity
  8
1
  6
Continuous
100
AcDbLine
 10
459.9110630024966
 20
176.2938343595432
 30
0.0
 11
461.4110630024986
 21
176.2938343595418
 31
0.0
  0
LINE
  5
4592
330
18
100
AcDbEntity
  8
1
  6
Continuous
100
AcDbLine
 10
461.4110630024964
 20
158.2938343594878
 30
0.0
 11
459.9110630024966
 21
158.2938343594878
 31
0.0
  0
LINE
  5
4593
330
18
100
AcDbEntity
  8
1
  6
Continuous
100
AcDbLine
 10
485.8110630024954
 20
151.8528288069802
 30
0.0
 11
485.8110630025346
 21
176.7938343594053
 31
0.0
  0
LINE
  5
4594
330
18
100
AcDbEntity
  8
1
  6
Continuous
100
AcDbLine
 10
461.4110630024964
 20
150.7938343594557
 30
0.0
 11
461.4110630024964
 21
186.7938343594556
 31
0.0
  0
LINE
  5
4595
330
18
100
AcDbEntity
  8
1
  6
Continuous
100
AcDbLine
 10
464.4110630024965
 20
188.2040638006068
 30
0.0
 11
464.4110630024965
 21
150.7938343594155
 31
0.0
  0
LINE
  5
4596
330
18
100
AcDbEntity
  8
1
  6
Continuous
100
AcDbLine
 10
461.4110630024964
 20
150.7938343594158
 30
0.0
 11
477.4110630025923
 21
150.7938343594134
 31
0.0
  0
LINE
  5
4597
330
18
100
AcDbEntity
  8
1
  6
Continuous
100
AcDbLine
 10
485.8110630024956
 20
151.85282880698
 30
0.0
 11
487.8110630024855
 21
145.2938343594059
 31
0.0
  0
ARC
  5
4598
330
18
100
AcDbEntity
  8
1
  6
Continuous
100
AcDbCircle
 10
482.8110630024904
 20
148.5938343594078
 30
0.0
 40
0.2
100
AcDbArc
 50
90.0
 51
180.0
  0
ARC
  5
4599
330
18
100
AcDbEntity
  8
1
  6
Continuous
100
AcDbCircle
 10
480.8110630025048
 20
157.7938343594091
 30
0.0
 40
2.0
100
AcDbArc
 50
0.000000000000007
 51
36.86989764624218
  0
LINE
  5
459A
330
18
100
AcDbEntity
  8
5
  6
PHANTOM
100
AcDbLine
 10
506.377704077553
 20
190.1779508794701
 30
0.0
 11
507.5593170656068
 21
188.9963378914167
 31
0.0
  0
LINE
  5
459B
330
18
100
AcDbEntity
  8
5
  6
PHANTOM
100
AcDbLine
 10
509.5752994078808
 20
188.9005554357557
 30
0.0
 11
516.6554893583809
 21
194.74940800356
 31
0.0
  0
ARC
  5
459C
330
18
100
AcDbEntity
  8
5
  6
PHANTOM
100
AcDbCircle
 10
508.6199772373865
 20
190.0569980631964
 30
0.0
 40
1.5
100
AcDbArc
 50
224.9999999999999
 51
309.5596679689951
  0
LINE
  5
459D
330
18
100
AcDbEntity
  8
1
  6
Continuous
100
AcDbLine
 10
482.4110630024964
 20
177.7938343594081
 30
0.0
 11
484.8110630025352
 21
177.7938343594068
 31
0.0
  0
ARC
  5
459E
330
18
100
AcDbEntity
  8
1
  6
Continuous
100
AcDbCircle
 10
482.9110630025001
 20
181.4938343593997
 30
0.0
 40
3.0
100
AcDbArc
 50
270.0
 51
0.000000000000007
  0
ARC
  5
459F
330
18
100
AcDbEntity
  8
1
  6
Continuous
100
AcDbCircle
 10
484.8110630025346
 20
176.7938343594068
 30
0.0
 40
1.0
100
AcDbArc
 50
0.000000000000007
 51
90.0
  0
LINE
  5
45A0
330
18
100
AcDbEntity
  8
1
  6
Continuous
100
AcDbLine
 10
482.4110630024964
 20
178.4938343593996
 30
0.0
 11
482.9110630025001
 21
178.4938343593996
 31
0.0
  0
LINE
  5
45A1
330
18
100
AcDbEntity
  8
1
  6
Continuous
100
AcDbLine
 10
473.9110630024964
 20
191.9938343594352
 30
0.0
 11
465.9598462112515
 21
190.1524999446205
 31
0.0
  0
LINE
  5
45A2
330
18
100
AcDbEntity
  8
1
  6
Continuous
100
AcDbLine
 10
464.4110630024967
 20
184.7938343594859
 30
0.0
 11
463.4110630024967
 21
186.7938343594556
 31
0.0
  0
LINE
  5
45A3
330
18
100
AcDbEntity
  8
1
  6
Continuous
100
AcDbLine
 10
461.4110630025012
 20
183.5938343594158
 30
0.0
 11
464.4110630024965
 21
183.5938343594154
 31
0.0
  0
LINE
  5
45A4
330
18
100
AcDbEntity
  8
1
  6
Continuous
100
AcDbLine
 10
463.4110630024966
 20
186.7938343594556
 30
0.0
 11
461.4110630024964
 21
186.7938343594556
 31
0.0
  0
ARC
  5
45A5
330
18
100
AcDbEntity
  8
1
  6
Continuous
100
AcDbCircle
 10
466.4110630024964
 20
188.2040638006068
 30
0.0
 40
2.0
100
AcDbArc
 50
103.038656583025
 51
180.0
  0
LINE
  5
45A6
330
18
100
AcDbEntity
  8
1
  6
Continuous
100
AcDbLine
 10
473.9110630024968
 20
191.9938343594349
 30
0.0
 11
475.9110630024794
 21
189.9938343594395
 31
0.0
  0
LINE
  5
45A7
330
18
100
AcDbEntity
  8
1
  6
Continuous
100
AcDbLine
 10
458.9110630024966
 20
159.2938343594871
 30
0.0
 11
458.9110630024966
 21
175.2938343595431
 31
0.0
  0
ARC
  5
45A8
330
18
100
AcDbEntity
  8
1
  6
Continuous
100
AcDbCircle
 10
459.9110630024966
 20
159.2938343594871
 30
0.0
 40
1.0
100
AcDbArc
 50
180.0
 51
270.0
  0
ARC
  5
45AB
330
18
100
AcDbEntity
  8
1
  6
Continuous
100
AcDbCircle
 10
459.9110630024966
 20
175.2938343595431
 30
0.0
 40
1.0
100
AcDbArc
 50
90.0
 51
180.0
  0
LINE
  5
45AC
330
18
100
AcDbEntity
  8
1
  6
Continuous
100
AcDbLine
 10
438.4526620517459
 20
192.4938343601475
 30
0.0
 11
432.6526620517406
 21
192.4938343601501
 31
0.0
  0
LINE
  5
45AD
330
18
100
AcDbEntity
  8
1
  6
Continuous
100
AcDbLine
 10
469.0110630025009
 20
247.3938343594197
 30
0.0
 11
457.7110630025011
 21
247.3938343594219
 31
0.0
  0
LINE
  5
45AE
330
18
100
AcDbEntity
  8
4
  6
CENTER
100
AcDbLine
 10
473.7952709179288
 20
233.9938343594203
 30
0.0
 11
450.6488597191071
 21
233.9938343594203
 31
0.0
  0
LINE
  5
45AF
330
18
100
AcDbEntity
  8
1
  6
Continuous
100
AcDbLine
 10
469.0110630025009
 20
220.5938343594211
 30
0.0
 11
457.7110630025011
 21
220.5938343594173
 31
0.0
  0
LINE
  5
45B0
330
18
100
AcDbEntity
  8
1
  6
Continuous
100
AcDbLine
 10
469.0110630025007
 20
220.5938343594211
 30
0.0
 11
469.0110630025007
 21
247.3938343594197
 31
0.0
  0
ARC
  5
45B1
330
18
100
AcDbEntity
  8
1
  6
Continuous
100
AcDbCircle
 10
470.4110630025008
 20
222.4938343594203
 30
0.0
 40
1.0
100
AcDbArc
 50
180.0
 51
270.0
  0
LINE
  5
45B2
330
18
100
AcDbEntity
  8
5
  6
PHANTOM
100
AcDbLine
 10
482.4110630025008
 20
236.7720089524759
 30
0.0
 11
518.4232563113392
 21
200.7598156436376
 31
0.0
  0
LINE
  5
45B3
330
18
100
AcDbEntity
  8
5
  6
PHANTOM
100
AcDbLine
 10
486.8110630024031
 20
224.5938343595216
 30
0.0
 11
506.5367834637809
 21
204.8681138981439
 31
0.0
  0
ARC
  5
45B4
330
18
100
AcDbEntity
  8
5
  6
PHANTOM
100
AcDbCircle
 10
503.7083563390425
 20
202.0396867734058
 30
0.0
 40
4.0
100
AcDbArc
 50
325.7842978675645
 51
45.00000000000007
  0
LINE
  5
45B5
330
18
100
AcDbEntity
  8
5
  6
PHANTOM
100
AcDbLine
 10
507.0160623473208
 20
199.7904466877768
 30
0.0
 11
505.6587857522552
 21
197.7944516950332
 31
0.0
  0
ARC
  5
45B6
330
18
100
AcDbEntity
  8
5
  6
PHANTOM
100
AcDbCircle
 10
516.3019359677876
 20
198.6384953000861
 30
0.0
 40
3.0
100
AcDbArc
 50
315.0000000000001
 51
44.99999999999993
  0
LINE
  5
45B7
330
18
100
AcDbEntity
  8
4
  6
CENTER
100
AcDbLine
 10
480.4533700576651
 20
206.99383435976
 30
0.0
 11
468.7672245617211
 21
206.993834359765
 31
0.0
  0
LINE
  5
45B8
330
18
100
AcDbEntity
  8
1
  6
Continuous
100
AcDbLine
 10
470.4110630025008
 20
221.4938343594204
 30
0.0
 11
473.9110630025008
 21
221.4938343594204
 31
0.0
  0
LINE
  5
45BA
330
18
100
AcDbEntity
  8
1
  6
Continuous
100
AcDbLine
 10
469.4110630025008
 20
245.7938343594
 30
0.0
 11
469.4110630025008
 21
222.4938343594203
 31
0.0
  0
LINE
  5
45BB
330
18
100
AcDbEntity
  8
1
  6
Continuous
100
AcDbLine
 10
475.4110630025008
 20
245.7938343593991
 30
0.0
 11
475.4110630025008
 21
233.9938343594203
 31
0.0
  0
LINE
  5
45BC
330
18
100
AcDbEntity
  8
5
  6
PHANTOM
100
AcDbLine
 10
485.9110630025044
 20
224.5938343595187
 30
0.0
 11
486.8110630024033
 21
224.5938343595214
 31
0.0
  0
LINE
  5
45BD
330
18
100
AcDbEntity
  8
1
  6
Continuous
100
AcDbLine
 10
469.0110630025007
 20
224.9938343599838
 30
0.0
 11
469.4110630025965
 21
224.9938343599842
 31
0.0
  0
LINE
  5
45BE
330
18
100
AcDbEntity
  8
1
  6
Continuous
100
AcDbLine
 10
470.4110630025011
 20
246.7938343594
 30
0.0
 11
477.4110630025965
 21
246.7938343593989
 31
0.0
  0
ARC
  5
45BF
330
18
100
AcDbEntity
  8
1
  6
Continuous
100
AcDbCircle
 10
480.4110630025045
 20
233.9938343593999
 30
0.0
 40
9.4
100
AcDbArc
 50
67.00660568570237
 51
77.13492800414518
  0
ARC
  5
45C0
330
18
100
AcDbEntity
  8
1
  6
Continuous
100
AcDbCircle
 10
482.9110630025044
 20
239.8853536880619
 30
0.0
 40
3.0
100
AcDbArc
 50
0.000000000000007
 51
67.00660568570237
  0
LINE
  5
45C1
330
18
100
AcDbEntity
  8
1
  6
Continuous
100
AcDbLine
 10
482.4110630025008
 20
243.0649021712614
 30
0.0
 11
482.5040280083599
 21
243.1578671771203
 31
0.0
  0
LINE
  5
45C2
330
18
100
AcDbEntity
  8
1
  6
Continuous
100
AcDbLine
 10
469.0110630025007
 20
236.1304064876337
 30
0.0
 11
469.4110630025006
 21
236.1304064876337
 31
0.0
  0
ARC
  5
45C3
330
18
100
AcDbEntity
  8
1
  6
Continuous
100
AcDbCircle
 10
470.4110630025008
 20
245.7938343594
 30
0.0
 40
1.0
100
AcDbArc
 50
90.0
 51
180.0
  0
LINE
  5
45C4
330
18
100
AcDbEntity
  8
1
  6
Continuous
100
AcDbLine
 10
469.0110630025007
 20
242.635064237591
 30
0.0
 11
469.4110630025579
 21
242.63506423759
 31
0.0
  0
ARC
  5
45C5
330
18
100
AcDbEntity
  8
1
  6
Continuous
100
AcDbCircle
 10
476.4110630025008
 20
245.7938343593991
 30
0.0
 40
1.0
100
AcDbArc
 50
90.0
 51
180.0
  0
LINE
  5
45C6
330
18
100
AcDbEntity
  8
5
  6
PHANTOM
100
AcDbLine
 10
454.7110630025009
 20
221.0938343594171
 30
0.0
 11
454.7110630025009
 21
246.8938343594219
 31
0.0
  0
LINE
  5
45C7
330
18
100
AcDbEntity
  8
1
  6
Continuous
100
AcDbLine
 10
457.2110630025011
 20
221.0938343594176
 30
0.0
 11
457.2110630025008
 21
246.8938343594219
 31
0.0
  0
LINE
  5
45C9
330
18
100
AcDbEntity
  8
1
  6
Continuous
100
AcDbLine
 10
431.3526620517335
 20
211.5938343597655
 30
0.0
 11
432.6526620517336
 21
211.5938343597655
 31
0.0
  0
LINE
  5
45CA
330
18
100
AcDbEntity
  8
1
  6
Continuous
100
AcDbLine
 10
431.3526620517335
 20
202.3938343597655
 30
0.0
 11
432.6526620517336
 21
202.3938343597655
 31
0.0
  0
LINE
  5
45CB
330
18
100
AcDbEntity
  8
1
  6
Continuous
100
AcDbLine
 10
431.3526620517335
 20
206.9938343597584
 30
0.0
 11
432.6526620517336
 21
208.0846638802888
 31
0.0
  0
LINE
  5
45CC
330
18
100
AcDbEntity
  8
1
  6
Continuous
100
AcDbLine
 10
431.3526620517335
 20
205.9030048392283
 30
0.0
 11
432.6526620517336
 21
206.9938343597588
 31
0.0
  0
LINE
  5
45CD
330
18
100
AcDbEntity
  8
4
  6
CENTER
100
AcDbLine
 10
441.211940381404
 20
206.9938343597616
 30
0.0
 11
425.8696234618081
 21
206.9938343597665
 31
0.0
  0
ARC
  5
45CE
330
18
100
AcDbEntity
  8
1
  6
Continuous
100
AcDbCircle
 10
457.7110630025011
 20
221.0938343594176
 30
0.0
 40
0.5
100
AcDbArc
 50
180.0
 51
270.0
  0
ARC
  5
45CF
330
18
100
AcDbEntity
  8
5
  6
PHANTOM
100
AcDbCircle
 10
455.2110630025008
 20
221.0938343594171
 30
0.0
 40
0.5
100
AcDbArc
 50
180.0
 51
270.0
  0
LINE
  5
45D0
330
18
100
AcDbEntity
  8
1
  6
Continuous
100
AcDbLine
 10
431.3526620517335
 20
211.5938343597655
 30
0.0
 11
431.3526620517335
 21
202.3938343597655
 31
0.0
  0
ARC
  5
45D1
330
18
100
AcDbEntity
  8
1
  6
Continuous
100
AcDbCircle
 10
440.0526620517337
 20
206.9938343597655
 30
0.0
 40
12.0
100
AcDbArc
 50
164.5060324994789
 51
195.4939675005211
  0
ARC
  5
45D2
330
18
100
AcDbEntity
  8
1
  6
Continuous
100
AcDbCircle
 10
430.0306127720423
 20
204.2156104244411
 30
0.0
 40
1.6
100
AcDbArc
 50
195.4939675005211
 51
265.0000000000002
  0
LINE
  5
45D3
330
18
100
AcDbEntity
  8
1
  6
Continuous
100
AcDbLine
 10
431.3526620517335
 20
202.4938343597655
 30
0.0
 11
429.891163583597
 21
202.621698907488
 31
0.0
  0
ARC
  5
45D4
330
18
100
AcDbEntity
  8
1
  6
Continuous
100
AcDbCircle
 10
430.0306127720594
 20
209.7720582950858
 30
0.0
 40
1.6
100
AcDbArc
 50
94.99999999999976
 51
164.5060324994789
  0
LINE
  5
45D5
330
18
100
AcDbEntity
  8
1
  6
Continuous
100
AcDbLine
 10
431.3526620517335
 20
211.4938343597656
 30
0.0
 11
429.8911635836383
 21
211.3659698120467
 31
0.0
  0
LINE
  5
45D6
330
18
100
AcDbEntity
  8
1
  6
Continuous
100
AcDbLine
 10
455.2110630025008
 20
229.9938343597243
 30
0.0
 11
455.2110630025008
 21
237.9938343597245
 31
0.0
  0
LINE
  5
45D7
330
18
100
AcDbEntity
  8
5
  6
PHANTOM
100
AcDbLine
 10
452.7110630025008
 20
232.4938343593442
 30
0.0
 11
452.7110630025008
 21
235.4938343593441
 31
0.0
  0
LINE
  5
45D8
330
18
100
AcDbEntity
  8
5
  6
PHANTOM
100
AcDbLine
 10
454.7110630025009
 20
231.9938343593447
 30
0.0
 11
453.2110630025012
 21
231.9938343593441
 31
0.0
  0
ARC
  5
45D9
330
18
100
AcDbEntity
  8
1
  6
Continuous
100
AcDbCircle
 10
455.7110630025008
 20
232.4938343593442
 30
0.0
 40
0.5
100
AcDbArc
 50
180.0
 51
270.0
  0
LINE
  5
45DA
330
18
100
AcDbEntity
  8
1
  6
Continuous
100
AcDbLine
 10
457.2110630025008
 20
231.9938343593448
 30
0.0
 11
455.7110630025009
 21
231.9938343593443
 31
0.0
  0
LINE
  5
45DB
330
18
100
AcDbEntity
  8
1
  6
Continuous
100
AcDbLine
 10
455.2110630025008
 20
230.1496542318235
 30
0.0
 11
457.2110630028862
 21
230.1496542318238
 31
0.0
  0
LINE
  5
45DC
330
18
100
AcDbEntity
  8
1
  6
Continuous
100
AcDbLine
 10
455.2110630025008
 20
229.9938343597242
 30
0.0
 11
457.2110630025008
 21
229.9938343597242
 31
0.0
  0
ARC
  5
45DD
330
18
100
AcDbEntity
  8
5
  6
PHANTOM
100
AcDbCircle
 10
453.2110630025008
 20
232.4938343593442
 30
0.0
 40
0.5
100
AcDbArc
 50
180.0
 51
270.0
  0
LINE
  5
45DE
330
18
100
AcDbEntity
  8
1
  6
Continuous
100
AcDbLine
 10
438.4526620517191
 20
224.7438343601629
 30
0.0
 11
432.6526620517336
 21
224.7438343601654
 31
0.0
  0
LINE
  5
45DF
330
18
100
AcDbEntity
  8
5
  6
PHANTOM
100
AcDbLine
 10
454.7110630024993
 20
235.9938343593447
 30
0.0
 11
453.2110630025008
 21
235.9938343593441
 31
0.0
  0
LINE
  5
45E0
330
18
100
AcDbEntity
  8
1
  6
Continuous
100
AcDbLine
 10
455.2110630025008
 20
237.8380144870166
 30
0.0
 11
457.2110630028862
 21
237.8380144870163
 31
0.0
  0
LINE
  5
45E1
330
18
100
AcDbEntity
  8
1
  6
Continuous
100
AcDbLine
 10
457.2110630024995
 20
235.9938343593448
 30
0.0
 11
455.7110630025006
 21
235.9938343593444
 31
0.0
  0
ARC
  5
45E2
330
18
100
AcDbEntity
  8
1
  6
Continuous
100
AcDbCircle
 10
455.7110630025008
 20
235.4938343593443
 30
0.0
 40
0.5
100
AcDbArc
 50
90.0
 51
180.0
  0
LINE
  5
45E3
330
18
100
AcDbEntity
  8
1
  6
Continuous
100
AcDbLine
 10
455.2110630025008
 20
237.9938343597245
 30
0.0
 11
457.2110630025011
 21
237.9938343597245
 31
0.0
  0
ARC
  5
45E4
330
18
100
AcDbEntity
  8
5
  6
PHANTOM
100
AcDbCircle
 10
455.2110630025008
 20
246.8938343594219
 30
0.0
 40
0.5
100
AcDbArc
 50
90.0
 51
180.0
  0
ARC
  5
45E5
330
18
100
AcDbEntity
  8
1
  6
Continuous
100
AcDbCircle
 10
457.7110630025008
 20
246.8938343594219
 30
0.0
 40
0.5
100
AcDbArc
 50
90.0
 51
180.0
  0
ARC
  5
45E6
330
18
100
AcDbEntity
  8
5
  6
PHANTOM
100
AcDbCircle
 10
453.2110630025008
 20
235.4938343593441
 30
0.0
 40
0.5
100
AcDbArc
 50
90.0
 51
180.0
  0
LINE
  5
45E7
330
18
100
AcDbEntity
  8
1
  6
Continuous
100
AcDbLine
 10
411.7518751434414
 20
238.5938343598195
 30
0.0
 11
411.7518751434414
 21
229.3938343598195
 31
0.0
  0
LINE
  5
45E8
330
18
100
AcDbEntity
  8
1
  6
Continuous
100
AcDbLine
 10
413.8518751434417
 20
239.9938343598195
 30
0.0
 11
413.8518751434417
 21
227.9938343598196
 31
0.0
  0
LINE
  5
45E9
330
18
100
AcDbEntity
  8
1
  6
Continuous
100
AcDbLine
 10
413.0518751434417
 20
239.9938343598195
 30
0.0
 11
413.0518751434417
 21
227.9938343598196
 31
0.0
  0
ARC
  5
45EA
330
18
100
AcDbEntity
  8
1
  6
Continuous
100
AcDbCircle
 10
420.4518751434416
 20
233.9938343598195
 30
0.0
 40
12.0
100
AcDbArc
 50
164.5060324994789
 51
195.4939675005211
  0
ARC
  5
45EB
330
18
100
AcDbEntity
  8
1
  6
Continuous
100
AcDbCircle
 10
410.4298258637501
 20
231.2156104244951
 30
0.0
 40
1.6
100
AcDbArc
 50
195.4939675005211
 51
265.0000000000002
  0
LINE
  5
45EC
330
18
100
AcDbEntity
  8
1
  6
Continuous
100
AcDbLine
 10
411.7518751434414
 20
229.4938343598195
 30
0.0
 11
410.290376675305
 21
229.621698907542
 31
0.0
  0
LINE
  5
45ED
330
18
100
AcDbEntity
  8
1
  6
Continuous
100
AcDbLine
 10
413.0518751434417
 20
227.9938343598195
 30
0.0
 11
413.8518751434417
 21
227.9938343598195
 31
0.0
  0
LINE
  5
45EE
330
18
100
AcDbEntity
  8
1
  6
Continuous
100
AcDbLine
 10
411.7518751434414
 20
229.3938343598195
 30
0.0
 11
413.0518751434417
 21
229.3938343598195
 31
0.0
  0
LINE
  5
45EF
330
18
100
AcDbEntity
  8
1
  6
Continuous
100
AcDbLine
 10
411.7518751434414
 20
232.903004839289
 30
0.0
 11
413.0518751434417
 21
233.9938343598195
 31
0.0
  0
LINE
  5
45F0
330
18
100
AcDbEntity
  8
1
  6
Continuous
100
AcDbLine
 10
411.7518751434414
 20
233.9938343598195
 30
0.0
 11
413.0518751434417
 21
235.08466388035
 31
0.0
  0
LINE
  5
45F1
330
18
100
AcDbEntity
  8
4
  6
CENTER
100
AcDbLine
 10
406.7518751434414
 20
233.9938343598195
 30
0.0
 11
416.6237369048984
 21
233.9938343598195
 31
0.0
  0
ARC
  5
45F2
330
18
100
AcDbEntity
  8
1
  6
Continuous
100
AcDbCircle
 10
410.4298258637673
 20
236.7720582951398
 30
0.0
 40
1.6
100
AcDbArc
 50
94.99999999999976
 51
164.5060324994789
  0
LINE
  5
45F3
330
18
100
AcDbEntity
  8
1
  6
Continuous
100
AcDbLine
 10
411.7518751434414
 20
238.4938343598197
 30
0.0
 11
410.2903766753462
 21
238.3659698121008
 31
0.0
  0
LINE
  5
45F4
330
18
100
AcDbEntity
  8
1
  6
Continuous
100
AcDbLine
 10
413.0518751434417
 20
239.9938343598195
 30
0.0
 11
413.8518751434417
 21
239.9938343598195
 31
0.0
  0
LINE
  5
45F5
330
18
100
AcDbEntity
  8
1
  6
Continuous
100
AcDbLine
 10
411.7518751434414
 20
238.5938343598195
 30
0.0
 11
413.0518751434417
 21
238.5938343598195
 31
0.0
  0
LINE
  5
45F6
330
18
100
AcDbEntity
  8
1
  6
Continuous
100
AcDbLine
 10
479.4110630025008
 20
257.7938343594205
 30
0.0
 11
482.4110630024945
 21
253.7938343594205
 31
0.0
  0
LINE
  5
45F7
330
18
100
AcDbEntity
  8
1
  6
Continuous
100
AcDbLine
 10
479.4110630024975
 20
257.793834359425
 30
0.0
 11
477.4110630025091
 21
257.793834359428
 31
0.0
  0
ARC
  5
4C87
330
18
100
AcDbEntity
  8
1
  6
Continuous
100
AcDbCircle
 10
54.95961099886971
 20
234.2778746848912
 30
0.0
 40
8.542996202187261
100
AcDbArc
 50
31.49470026394206
 51
148.5052997358518
  0
ARC
  5
4C88
330
18
100
AcDbEntity
  8
1
  6
Continuous
100
AcDbCircle
 10
46.78526912190704
 20
231.2582312673948
 30
0.0
 40
17.17459272320373
100
AcDbArc
 50
359.6903302852478
 51
25.82874294660935
  0
ARC
  5
4C89
330
18
100
AcDbEntity
  8
1
  6
Continuous
100
AcDbCircle
 10
63.13395287583531
 20
231.2582312673939
 30
0.0
 40
17.17459272320373
100
AcDbArc
 50
154.1712570532903
 51
180.3096697130225
  0
ENDSEC
  0
SECTION
  2
OBJECTS
  0
DICTIONARY
  5
C
330
0
100
AcDbDictionary
281
     1
  3
ACAD_CIP_PREVIOUS_PRODUCT_INFO
350
4CF3
  3
ACAD_COLOR
350
4CD6
  3
ACAD_DETAILVIEWSTYLE
350
4CEF
  3
ACAD_GROUP
350
D
  3
ACAD_LAYOUT
350
94
  3
ACAD_MATERIAL
350
4CA4
  3
ACAD_MLEADERSTYLE
350
4CEB
  3
ACAD_MLINESTYLE
350
1B
  3
ACAD_PLOTSETTINGS
350
95
  3
ACAD_PLOTSTYLENAME
350
4CA2
  3
ACAD_SCALELIST
350
4CD9
  3
ACAD_SECTIONVIEWSTYLE
350
4CED
  3
ACAD_TABLESTYLE
350
4CD7
  3
ACAD_VISUALSTYLE
350
4CBD
  3
ACDB_RECOMPOSE_DATA
350
4D11
  3
AcDbVariableDictionary
350
4D04
  3
CONTENTDICTIONARY
350
3D
  3
DWGPROPS
350
4D12
  0
DICTIONARY
  5
4CF4
330
E
100
AcDbDictionary
280
     1
281
     1
  3
ADSK_XREC_LAYER_RECONCILED
360
4CF5
  0
DICTIONARY
  5
4CF6
330
4E
100
AcDbDictionary
280
     1
281
     1
  3
ADSK_XREC_LAYER_RECONCILED
360
4CF7
  0
DICTIONARY
  5
4CF8
330
4F
100
AcDbDictionary
280
     1
281
     1
  3
ADSK_XREC_LAYER_RECONCILED
360
4CF9
  0
DICTIONARY
  5
4CFA
330
50
100
AcDbDictionary
280
     1
281
     1
  3
ADSK_XREC_LAYER_RECONCILED
360
4CFB
  0
DICTIONARY
  5
4CFC
330
51
100
AcDbDictionary
280
     1
281
     1
  3
ADSK_XREC_LAYER_RECONCILED
360
4CFD
  0
DICTIONARY
  5
4CFE
330
52
100
AcDbDictionary
280
     1
281
     1
  3
ADSK_XREC_LAYER_RECONCILED
360
4CFF
  0
DICTIONARY
  5
4D00
330
53
100
AcDbDictionary
280
     1
281
     1
  3
ADSK_XREC_LAYER_RECONCILED
360
4D01
  0
DICTIONARY
  5
4D02
330
54
100
AcDbDictionary
280
     1
281
     1
  3
ADSK_XREC_LAYER_RECONCILED
360
4D03
  0
DICTIONARY
  5
4C9D
330
18
100
AcDbDictionary
281
     1
  3
ACAD_LAYOUTSELFREF
350
4C9E
  0
DICTIONARY
  5
4C9B
330
15
100
AcDbDictionary
281
     1
  3
ACAD_LAYOUTSELFREF
350
4C9C
  0
XRECORD
  5
4CF3
102
{ACAD_REACTORS
330
C
102
}
330
C
100
AcDbXrecord
280
     1
300
ACDLT
300
2014
300
ACDLT_F_S
  0
DICTIONARY
  5
4CD6
102
{ACAD_REACTORS
330
C
102
}
330
C
100
AcDbDictionary
281
     1
  0
DICTIONARY
  5
4CEF
102
{ACAD_REACTORS
330
C
102
}
330
C
100
AcDbDictionary
281
     1
  3
Imperial24
350
4CF0
  0
DICTIONARY
  5
D
102
{ACAD_REACTORS
330
C
102
}
330
C
100
AcDbDictionary
281
     1
  0
DICTIONARY
  5
94
102
{ACAD_REACTORS
330
C
102
}
330
C
100
AcDbDictionary
281
     1
  3
Model
350
4CF1
  3
レイアウト1
350
4CF2
  0
DICTIONARY
  5
4CA4
102
{ACAD_REACTORS
330
C
102
}
330
C
100
AcDbDictionary
281
     1
  3
ByBlock
350
4CAD
  3
ByLayer
350
4CA5
  3
Global
350
4CB5
  0
DICTIONARY
  5
4CEB
102
{ACAD_REACTORS
330
C
102
}
330
C
100
AcDbDictionary
281
     1
  3
Standard
350
4CEC
  0
DICTIONARY
  5
1B
102
{ACAD_REACTORS
330
C
102
}
330
C
100
AcDbDictionary
281
     1
  3
STANDARD
350
1C
  0
DICTIONARY
  5
95
102
{ACAD_REACTORS
330
C
102
}
330
C
100
AcDbDictionary
281
     1
  0
ACDBDICTIONARYWDFLT
  5
4CA2
102
{ACAD_REACTORS
330
C
102
}
330
C
100
AcDbDictionary
281
     1
  3
Normal
350
4CA3
100
AcDbDictionaryWithDefault
340
4CA3
  0
DICTIONARY
  5
4CD9
102
{ACAD_REACTORS
330
C
102
}
330
C
100
AcDbDictionary
281
     1
  3
A0
350
4CDA
  3
A1
350
4CDB
  3
A2
350
4CDC
  3
A3
350
4CDD
  3
A4
350
4CDE
  3
A5
350
4CDF
  3
A6
350
4CE0
  3
A7
350
4CE1
  3
A8
350
4CE2
  3
A9
350
4CE3
  3
B0
350
4CE4
  3
B1
350
4CE5
  3
B2
350
4CE6
  3
B3
350
4CE7
  3
B4
350
4CE8
  3
B5
350
4CE9
  3
B6
350
4CEA
  0
DICTIONARY
  5
4CED
102
{ACAD_REACTORS
330
C
102
}
330
C
100
AcDbDictionary
281
     1
  3
Imperial24
350
4CEE
  0
DICTIONARY
  5
4CD7
102
{ACAD_REACTORS
330
C
102
}
330
C
100
AcDbDictionary
281
     1
  3
Standard
350
4CD8
  0
DICTIONARY
  5
4CBD
102
{ACAD_REACTORS
330
C
102
}
330
C
100
AcDbDictionary
281
     1
  3
2dWireframe
350
4CC3
  3
Basic
350
4CC2
  3
Brighten
350
4CC9
  3
ColorChange
350
4CCD
  3
Conceptual
350
4CC6
  3
Dim
350
4CC8
  3
EdgeColorOff
350
4CD5
  3
Facepattern
350
4CCC
  3
Flat
350
4CBE
  3
FlatWithEdges
350
4CBF
  3
Gouraud
350
4CC0
  3
GouraudWithEdges
350
4CC1
  3
Hidden
350
4CC5
  3
JitterOff
350
4CD3
  3
Linepattern
350
4CCB
  3
OverhangOff
350
4CD4
  3
Realistic
350
4CC7
  3
Shaded
350
4CD2
  3
Shaded with edges
350
4CD1
  3
Shades of Gray
350
4CCE
  3
Sketchy
350
4CCF
  3
Thicken
350
4CCA
  3
Wireframe
350
4CC4
  3
X-Ray
350
4CD0
  0
XRECORD
  5
4D11
102
{ACAD_REACTORS
330
C
102
}
330
C
100
AcDbXrecord
280
     1
 90
        1
330
4CD8
  0
DICTIONARY
  5
4D04
102
{ACAD_REACTORS
330
C
102
}
330
C
100
AcDbDictionary
281
     1
  3
CANNOSCALE
350
4D09
  3
CMLEADERSTYLE
350
4D06
  3
CTABLESTYLE
350
4D05
  3
CVIEWDETAILSTYLE
350
4D07
  3
CVIEWSECTIONSTYLE
350
4D08
  3
DIMASSOC
350
4D0C
  3
INDEXCTL
350
4D0B
  3
SORTENTS
350
4D0A
  3
XCLIPFRAME
350
4D0D
  0
DICTIONARY
  5
3D
102
{ACAD_REACTORS
330
C
102
}
330
C
100
AcDbDictionary
281
     1
  0
XRECORD
  5
4D12
102
{ACAD_REACTORS
330
C
102
}
330
C
100
AcDbXrecord
280
     1
  1
DWGPROPS COOKIE
  2

  3

  4

  6

  7

  8
Yoshitsune
  9

300
=
301
=
302
=
303
=
304
=
305
=
306
=
307
=
308
=
309
=
 40
0.0970247916666667
 41
2452956.415086077
 42
2457192.643410417
  1

 90
        0
  0
XRECORD
  5
4CF5
102
{ACAD_REACTORS
330
4CF4
102
}
330
4CF4
100
AcDbXrecord
280
     1
290
     1
  0
XRECORD
  5
4CF7
102
{ACAD_REACTORS
330
4CF6
102
}
330
4CF6
100
AcDbXrecord
280
     1
290
     1
  0
XRECORD
  5
4CF9
102
{ACAD_REACTORS
330
4CF8
102
}
330
4CF8
100
AcDbXrecord
280
     1
290
     1
  0
XRECORD
  5
4CFB
102
{ACAD_REACTORS
330
4CFA
102
}
330
4CFA
100
AcDbXrecord
280
     1
290
     1
  0
XRECORD
  5
4CFD
102
{ACAD_REACTORS
330
4CFC
102
}
330
4CFC
100
AcDbXrecord
280
     1
290
     1
  0
XRECORD
  5
4CFF
102
{ACAD_REACTORS
330
4CFE
102
}
330
4CFE
100
AcDbXrecord
280
     1
290
     1
  0
XRECORD
  5
4D01
102
{ACAD_REACTORS
330
4D00
102
}
330
4D00
100
AcDbXrecord
280
     1
290
     1
  0
XRECORD
  5
4D03
102
{ACAD_REACTORS
330
4D02
102
}
330
4D02
100
AcDbXrecord
280
     1
290
     1
  0
XRECORD
  5
4C9E
102
{ACAD_REACTORS
330
4C9D
102
}
330
4C9D
100
AcDbXrecord
280
     1
340
18
  0
XRECORD
  5
4C9C
102
{ACAD_REACTORS
330
4C9B
102
}
330
4C9B
100
AcDbXrecord
280
     1
340
15
  0
ACDBDETAILVIEWSTYLE
  5
4CF0
102
{ACAD_XDICTIONARY
360
4D4A
102
}
102
{ACAD_REACTORS
330
4CEF
102
}
330
4CEF
100
AcDbModelDocViewStyle
 70
     0
  3
Imperial24
290
     0
100
AcDbDetailViewStyle
 70
     0
 71
     0
 90
        3
 71
     1
340
F
 40
0.24
340
0
 40
0.24
300

 40
0.36
280
     3
 71
     2
340
14
 90
       25
 71
     3
340
F
 40
0.24
 90
        1
 40
0.75
 90
        1
300
%<\AcVar ViewType \f "%tc1">% %<\AcVar ViewDetailId>%\PSCALE %<\AcVar ViewScale \f "%sn">%
 71
     4
340
14
 90
       25
340
14
 90
       25
280
     0
  0
LAYOUT
  5
4CF1
102
{ACAD_XDICTIONARY
360
4D4C
102
}
102
{ACAD_REACTORS
330
94
102
}
330
94
100
AcDbPlotSettings
  1

  2
Canon LBP9100C
  4

  6

 40
0.0
 41
0.0
 42
0.0
 43
0.0
 44
0.0
 45
0.0
 46
0.0
 47
0.0
 48
0.0
 49
0.0
140
0.0
141
0.0
142
1.0
143
1.0
 70
  1712
 72
     0
 73
     0
 74
     0
  7

 75
     0
147
1.0
148
0.0
149
0.0
100
AcDbLayout
  1
Model
 70
     1
 71
     0
 10
0.0
 20
0.0
 11
12.0
 21
9.0
 12
0.0
 22
0.0
 32
0.0
 14
0.0
 24
0.0
 34
0.0
 15
0.0
 25
0.0
 35
0.0
146
0.0
 13
0.0
 23
0.0
 33
0.0
 16
1.0
 26
0.0
 36
0.0
 17
0.0
 27
1.0
 37
0.0
 76
     0
330
18
331
4C9A
  0
LAYOUT
  5
4CF2
102
{ACAD_XDICTIONARY
360
4D4E
102
}
102
{ACAD_REACTORS
330
94
102
}
330
94
100
AcDbPlotSettings
  1

  2
Canon LBP9100C
  4

  6

 40
0.0
 41
0.0
 42
0.0
 43
0.0
 44
0.0
 45
0.0
 46
0.0
 47
0.0
 48
0.0
 49
0.0
140
0.0
141
0.0
142
1.0
143
1.0
 70
   688
 72
     0
 73
     0
 74
     5
  7

 75
    16
147
1.0
148
0.0
149
0.0
100
AcDbLayout
  1
レイアウト1
 70
     1
 71
     1
 10
0.0
 20
0.0
 11
420.0
 21
297.0
 12
0.0
 22
0.0
 32
0.0
 14
1.000000000000000E+20
 24
1.000000000000000E+20
 34
1.000000000000000E+20
 15
-1.000000000000000E+20
 25
-1.000000000000000E+20
 35
-1.000000000000000E+20
146
0.0
 13
0.0
 23
0.0
 33
0.0
 16
1.0
 26
0.0
 36
0.0
 17
0.0
 27
1.0
 37
0.0
 76
     0
330
15
  0
MATERIAL
  5
4CAD
102
{ACAD_XDICTIONARY
360
4CAE
102
}
102
{ACAD_REACTORS
330
4CA4
102
}
330
4CA4
100
AcDbMaterial
  1
ByBlock
 72
     0
 43
0.0208333333333333
 43
0.0
 43
0.0
 43
0.0
 43
0.0
 43
0.0208333333333333
 43
0.0
 43
0.0
 43
0.0
 43
0.0
 43
1.0
 43
0.0
 43
0.0
 43
0.0
 43
0.0
 43
1.0
 77
     0
 47
0.0208333333333333
 47
0.0
 47
0.0
 47
0.0
 47
0.0
 47
0.0208333333333333
 47
0.0
 47
0.0
 47
0.0
 47
0.0
 47
1.0
 47
0.0
 47
0.0
 47
0.0
 47
0.0
 47
1.0
171
     0
 49
0.0208333333333333
 49
0.0
 49
0.0
 49
0.0
 49
0.0
 49
0.0208333333333333
 49
0.0
 49
0.0
 49
0.0
 49
0.0
 49
1.0
 49
0.0
 49
0.0
 49
0.0
 49
0.0
 49
1.0
175
     0
142
0.0208333333333333
142
0.0
142
0.0
142
0.0
142
0.0
142
0.0208333333333333
142
0.0
142
0.0
142
0.0
142
0.0
142
1.0
142
0.0
142
0.0
142
0.0
142
0.0
142
1.0
179
     0
144
0.0208333333333333
144
0.0
144
0.0
144
0.0
144
0.0
144
0.0208333333333333
144
0.0
144
0.0
144
0.0
144
0.0
144
1.0
144
0.0
144
0.0
144
0.0
144
0.0
144
1.0
147
0.0208333333333333
147
0.0
147
0.0
147
0.0
147
0.0
147
0.0208333333333333
147
0.0
147
0.0
147
0.0
147
0.0
147
1.0
147
0.0
147
0.0
147
0.0
147
0.0
147
1.0
  0
MATERIAL
  5
4CA5
102
{ACAD_XDICTIONARY
360
4CA6
102
}
102
{ACAD_REACTORS
330
4CA4
102
}
330
4CA4
100
AcDbMaterial
  1
ByLayer
 72
     0
 43
0.0208333333333333
 43
0.0
 43
0.0
 43
0.0
 43
0.0
 43
0.0208333333333333
 43
0.0
 43
0.0
 43
0.0
 43
0.0
 43
1.0
 43
0.0
 43
0.0
 43
0.0
 43
0.0
 43
1.0
 77
     0
 47
0.0208333333333333
 47
0.0
 47
0.0
 47
0.0
 47
0.0
 47
0.0208333333333333
 47
0.0
 47
0.0
 47
0.0
 47
0.0
 47
1.0
 47
0.0
 47
0.0
 47
0.0
 47
0.0
 47
1.0
171
     0
 49
0.0208333333333333
 49
0.0
 49
0.0
 49
0.0
 49
0.0
 49
0.0208333333333333
 49
0.0
 49
0.0
 49
0.0
 49
0.0
 49
1.0
 49
0.0
 49
0.0
 49
0.0
 49
0.0
 49
1.0
175
     0
142
0.0208333333333333
142
0.0
142
0.0
142
0.0
142
0.0
142
0.0208333333333333
142
0.0
142
0.0
142
0.0
142
0.0
142
1.0
142
0.0
142
0.0
142
0.0
142
0.0
142
1.0
179
     0
144
0.0208333333333333
144
0.0
144
0.0
144
0.0
144
0.0
144
0.0208333333333333
144
0.0
144
0.0
144
0.0
144
0.0
144
1.0
144
0.0
144
0.0
144
0.0
144
0.0
144
1.0
147
0.0208333333333333
147
0.0
147
0.0
147
0.0
147
0.0
147
0.0208333333333333
147
0.0
147
0.0
147
0.0
147
0.0
147
1.0
147
0.0
147
0.0
147
0.0
147
0.0
147
1.0
  0
MATERIAL
  5
4CB5
102
{ACAD_XDICTIONARY
360
4CB6
102
}
102
{ACAD_REACTORS
330
4CA4
102
}
330
4CA4
100
AcDbMaterial
  1
Global
 72
     0
 43
0.0208333333333333
 43
0.0
 43
0.0
 43
0.0
 43
0.0
 43
0.0208333333333333
 43
0.0
 43
0.0
 43
0.0
 43
0.0
 43
1.0
 43
0.0
 43
0.0
 43
0.0
 43
0.0
 43
1.0
 77
     0
 47
0.0208333333333333
 47
0.0
 47
0.0
 47
0.0
 47
0.0
 47
0.0208333333333333
 47
0.0
 47
0.0
 47
0.0
 47
0.0
 47
1.0
 47
0.0
 47
0.0
 47
0.0
 47
0.0
 47
1.0
171
     0
 49
0.0208333333333333
 49
0.0
 49
0.0
 49
0.0
 49
0.0
 49
0.0208333333333333
 49
0.0
 49
0.0
 49
0.0
 49
0.0
 49
1.0
 49
0.0
 49
0.0
 49
0.0
 49
0.0
 49
1.0
175
     0
142
0.0208333333333333
142
0.0
142
0.0
142
0.0
142
0.0
142
0.0208333333333333
142
0.0
142
0.0
142
0.0
142
0.0
142
1.0
142
0.0
142
0.0
142
0.0
142
0.0
142
1.0
179
     0
144
0.0208333333333333
144
0.0
144
0.0
144
0.0
144
0.0
144
0.0208333333333333
144
0.0
144
0.0
144
0.0
144
0.0
144
1.0
144
0.0
144
0.0
144
0.0
144
0.0
144
1.0
147
0.0208333333333333
147
0.0
147
0.0
147
0.0
147
0.0
147
0.0208333333333333
147
0.0
147
0.0
147
0.0
147
0.0
147
1.0
147
0.0
147
0.0
147
0.0
147
0.0
147
1.0
  0
MLEADERSTYLE
  5
4CEC
102
{ACAD_REACTORS
330
4CEB
102
}
330
4CEB
100
AcDbMLeaderStyle
170
     2
171
     1
172
     0
 90
        2
 40
0.0
 41
0.0
173
     1
 91
-1056964608
340
12
 92
       -2
290
     1
 42
0.09
291
     1
 43
0.36
  3
Standard
 44
0.18
300

342
F
174
     1
178
     6
175
     1
176
     0
 93
-1056964608
 45
0.18
292
     0
297
     0
 46
0.18
 94
-1056964608
 47
1.0
 49
1.0
140
1.0
293
     1
141
0.0
294
     1
177
     0
142
1.0
295
     0
296
     0
143
0.125
1001
ACAD_MLEADERVER
1070
     2
  0
MLINESTYLE
  5
1C
102
{ACAD_REACTORS
330
1B
102
}
330
1B
100
AcDbMlineStyle
  2
STANDARD
 70
     0
  3

 62
   256
 51
90.0
 52
90.0
 71
     2
 49
0.5
 62
   256
  6
BYLAYER
 49
-0.5
 62
   256
  6
BYLAYER
  0
ACDBPLACEHOLDER
  5
4CA3
102
{ACAD_REACTORS
330
4CA2
102
}
330
4CA2
  0
SCALE
  5
4CDA
102
{ACAD_REACTORS
330
4CD9
102
}
330
4CD9
100
AcDbScale
 70
     0
300
1:1
140
1.0
141
1.0
290
     1
  0
SCALE
  5
4CDB
102
{ACAD_REACTORS
330
4CD9
102
}
330
4CD9
100
AcDbScale
 70
     0
300
1/128" = 1'-0"
140
0.0078125
141
12.0
290
     0
  0
SCALE
  5
4CDC
102
{ACAD_REACTORS
330
4CD9
102
}
330
4CD9
100
AcDbScale
 70
     0
300
1/64" = 1'-0"
140
0.015625
141
12.0
290
     0
  0
SCALE
  5
4CDD
102
{ACAD_REACTORS
330
4CD9
102
}
330
4CD9
100
AcDbScale
 70
     0
300
1/32" = 1'-0"
140
0.03125
141
12.0
290
     0
  0
SCALE
  5
4CDE
102
{ACAD_REACTORS
330
4CD9
102
}
330
4CD9
100
AcDbScale
 70
     0
300
1/16" = 1'-0"
140
0.0625
141
12.0
290
     0
  0
SCALE
  5
4CDF
102
{ACAD_REACTORS
330
4CD9
102
}
330
4CD9
100
AcDbScale
 70
     0
300
3/32" = 1'-0"
140
0.09375
141
12.0
290
     0
  0
SCALE
  5
4CE0
102
{ACAD_REACTORS
330
4CD9
102
}
330
4CD9
100
AcDbScale
 70
     0
300
1/8" = 1'-0"
140
0.125
141
12.0
290
     0
  0
SCALE
  5
4CE1
102
{ACAD_REACTORS
330
4CD9
102
}
330
4CD9
100
AcDbScale
 70
     0
300
3/16" = 1'-0"
140
0.1875
141
12.0
290
     0
  0
SCALE
  5
4CE2
102
{ACAD_REACTORS
330
4CD9
102
}
330
4CD9
100
AcDbScale
 70
     0
300
1/4" = 1'-0"
140
0.25
141
12.0
290
     0
  0
SCALE
  5
4CE3
102
{ACAD_REACTORS
330
4CD9
102
}
330
4CD9
100
AcDbScale
 70
     0
300
3/8" = 1'-0"
140
0.375
141
12.0
290
     0
  0
SCALE
  5
4CE4
102
{ACAD_REACTORS
330
4CD9
102
}
330
4CD9
100
AcDbScale
 70
     0
300
1/2" = 1'-0"
140
0.5
141
12.0
290
     0
  0
SCALE
  5
4CE5
102
{ACAD_REACTORS
330
4CD9
102
}
330
4CD9
100
AcDbScale
 70
     0
300
3/4" = 1'-0"
140
0.75
141
12.0
290
     0
  0
SCALE
  5
4CE6
102
{ACAD_REACTORS
330
4CD9
102
}
330
4CD9
100
AcDbScale
 70
     0
300
1" = 1'-0"
140
1.0
141
12.0
290
     0
  0
SCALE
  5
4CE7
102
{ACAD_REACTORS
330
4CD9
102
}
330
4CD9
100
AcDbScale
 70
     0
300
1-1/2" = 1'-0"
140
1.5
141
12.0
290
     0
  0
SCALE
  5
4CE8
102
{ACAD_REACTORS
330
4CD9
102
}
330
4CD9
100
AcDbScale
 70
     0
300
3" = 1'-0"
140
3.0
141
12.0
290
     0
  0
SCALE
  5
4CE9
102
{ACAD_REACTORS
330
4CD9
102
}
330
4CD9
100
AcDbScale
 70
     0
300
6" = 1'-0"
140
6.0
141
12.0
290
     0
  0
SCALE
  5
4CEA
102
{ACAD_REACTORS
330
4CD9
102
}
330
4CD9
100
AcDbScale
 70
     0
300
1'-0" = 1'-0"
140
12.0
141
12.0
290
     0
  0
ACDBSECTIONVIEWSTYLE
  5
4CEE
102
{ACAD_XDICTIONARY
360
4D48
102
}
102
{ACAD_REACTORS
330
4CED
102
}
330
4CED
100
AcDbModelDocViewStyle
 70
     0
  3
Imperial24
290
     0
100
AcDbSectionViewStyle
 70
     0
 71
     0
 90
       78
 71
     1
340
F
 40
0.24
340
0
340
0
 40
0.24
300
I, O, Q, S, X, Z
 40
0.48
 90
        3
 40
0.18
 90
        1
 71
     2
340
14
 90
       25
340
14
 90
       50
 40
0.24
 40
0.0
 40
0.24
 71
     3
340
F
 40
0.24
 90
        1
 40
0.75
 90
        1
300
%<\AcVar ViewType \f "%tc1">% %<\AcVar ViewSectionStartId>%-%<\AcVar ViewSectionEndId>%\PSCALE %<\AcVar ViewScale \f "%sn">%
 71
     4
300
ANSI31
 40
1.0
 90
        0
290
     0
290
     0
 90
        6
 40
0.0
 40
1.570796326794896
 40
0.2617993877991494
 40
1.308996938995747
 40
-0.2617993877991494
 40
1.832595714594046
  0
TABLESTYLE
  5
4CD8
102
{ACAD_XDICTIONARY
360
4D0F
102
}
102
{ACAD_REACTORS
330
4CD7
102
}
330
4CD7
100
AcDbTableStyle
  3
Standard
 70
     0
 71
     0
 40
0.06
 41
0.06
280
     0
281
     0
  7
STANDARD
140
0.18
170
     2
 62
     0
 63
     7
283
     0
274
    -2
284
     1
 64
     0
275
    -2
285
     1
 65
     0
276
    -2
286
     1
 66
     0
277
    -2
287
     1
 67
     0
278
    -2
288
     1
 68
     0
279
    -2
289
     1
 69
     0
  7
STANDARD
140
0.25
170
     5
 62
     0
 63
     7
283
     0
274
    -2
284
     1
 64
     0
275
    -2
285
     1
 65
     0
276
    -2
286
     1
 66
     0
277
    -2
287
     1
 67
     0
278
    -2
288
     1
 68
     0
279
    -2
289
     1
 69
     0
  7
STANDARD
140
0.18
170
     5
 62
     0
 63
     7
283
     0
274
    -2
284
     1
 64
     0
275
    -2
285
     1
 65
     0
276
    -2
286
     1
 66
     0
277
    -2
287
     1
 67
     0
278
    -2
288
     1
 68
     0
279
    -2
289
     1
 69
     0
  0
VISUALSTYLE
  5
4CC3
102
{ACAD_XDICTIONARY
360
4D20
102
}
102
{ACAD_REACTORS
330
4CBD
102
}
330
4CBD
100
AcDbVisualStyle
  2
2dWireframe
 70
     4
 71
     0
 72
     2
 73
     0
 90
        0
 40
-0.6
 41
-30.0
 62
     5
 63
     7
 74
     1
 91
        4
 64
     7
 65
   257
 75
     1
175
     1
 42
1.0
 92
        0
 66
   257
 43
1.0
 76
     1
 77
     6
 78
     2
 67
     7
 79
     5
170
     0
171
     0
290
     0
174
     0
 93
        1
 44
0.0
173
     0
291
     0
 45
0.0
1001
ACAD
1000
AcDbSavedByObjectVersion
1070
     0
  0
VISUALSTYLE
  5
4CC2
102
{ACAD_XDICTIONARY
360
4D1E
102
}
102
{ACAD_REACTORS
330
4CBD
102
}
330
4CBD
100
AcDbVisualStyle
  2
Basic
 70
     7
 71
     1
 72
     0
 73
     1
 90
        0
 40
-0.6
 41
-30.0
 62
     5
 63
     7
 74
     0
 91
        4
 64
     7
 65
   257
 75
     1
175
     1
 42
1.0
 92
        8
 66
     7
 43
1.0
 76
     1
 77
     6
 78
     2
 67
     7
 79
     5
170
     0
171
     0
290
     0
174
     0
 93
        1
 44
0.0
173
     0
291
     1
 45
0.0
1001
ACAD
1000
AcDbSavedByObjectVersion
1070
     0
  0
VISUALSTYLE
  5
4CC9
102
{ACAD_XDICTIONARY
360
4D2C
102
}
102
{ACAD_REACTORS
330
4CBD
102
}
330
4CBD
100
AcDbVisualStyle
  2
Brighten
 70
    12
 71
     2
 72
     2
 73
     0
 90
        0
 40
-0.6
 41
-30.0
 62
     5
 63
     7
 74
     1
 91
        4
 64
     7
 65
   257
 75
     1
175
     1
 42
1.0
 92
        8
 66
     7
 43
1.0
 76
     1
 77
     6
 78
     2
 67
     7
 79
     5
170
     0
171
     0
290
     0
174
     0
 93
        1
 44
50.0
173
     0
291
     1
 45
0.0
1001
ACAD
1000
AcDbSavedByObjectVersion
1070
     0
  0
VISUALSTYLE
  5
4CCD
102
{ACAD_XDICTIONARY
360
4D34
102
}
102
{ACAD_REACTORS
330
4CBD
102
}
330
4CBD
100
AcDbVisualStyle
  2
ColorChange
 70
    16
 71
     2
 72
     2
 73
     3
 90
        0
 40
-0.6
 41
-30.0
 62
     5
 63
     8
 74
     1
 91
        4
 64
     7
 65
   257
 75
     1
175
     1
 42
1.0
 92
        8
 66
     8
 43
1.0
 76
     1
 77
     6
 78
     2
 67
     7
 79
     5
170
     0
171
     0
290
     0
174
     0
 93
        1
 44
0.0
173
     0
291
     1
 45
0.0
1001
ACAD
1000
AcDbSavedByObjectVersion
1070
     0
  0
VISUALSTYLE
  5
4CC6
102
{ACAD_XDICTIONARY
360
4D26
102
}
102
{ACAD_REACTORS
330
4CBD
102
}
330
4CBD
100
AcDbVisualStyle
  2
Conceptual
 70
     9
 71
     3
 72
     2
 73
     0
 90
        0
 40
-0.6
 41
-30.0
 62
     5
 63
     7
 74
     2
 91
        2
 64
     7
 65
   257
 75
     1
175
     1
 42
179.0
 92
        8
 66
     7
 43
1.0
 76
     1
 77
     6
 78
     2
 67
     7
 79
     3
170
     0
171
     0
290
     0
174
     0
 93
        1
 44
0.0
173
     0
291
     0
 45
0.0
1001
ACAD
1000
AcDbSavedByObjectVersion
1070
     0
  0
VISUALSTYLE
  5
4CC8
102
{ACAD_XDICTIONARY
360
4D2A
102
}
102
{ACAD_REACTORS
330
4CBD
102
}
330
4CBD
100
AcDbVisualStyle
  2
Dim
 70
    11
 71
     2
 72
     2
 73
     0
 90
        0
 40
-0.6
 41
-30.0
 62
     5
 63
     7
 74
     1
 91
        4
 64
     7
 65
   257
 75
     1
175
     1
 42
1.0
 92
        8
 66
     7
 43
1.0
 76
     1
 77
     6
 78
     2
 67
     7
 79
     5
170
     0
171
     0
290
     0
174
     0
 93
        1
 44
-50.0
173
     0
291
     1
 45
0.0
1001
ACAD
1000
AcDbSavedByObjectVersion
1070
     0
  0
VISUALSTYLE
  5
4CD5
102
{ACAD_XDICTIONARY
360
4D44
102
}
102
{ACAD_REACTORS
330
4CBD
102
}
330
4CBD
100
AcDbVisualStyle
  2
EdgeColorOff
 70
    22
 71
     2
 72
     2
 73
     0
 90
        0
 40
-0.6
 41
-30.0
 62
     5
 63
     7
 74
     1
 91
        4
 64
     7
 65
   257
 75
     1
175
     1
 42
1.0
 92
        8
 66
     7
 43
1.0
 76
     1
 77
     6
 78
     2
 67
     7
 79
     5
170
     0
171
     0
290
     0
174
     0
 93
        1
 44
0.0
173
     0
291
     1
 45
0.0
1001
ACAD
1000
AcDbSavedByObjectVersion
1070
     0
  0
VISUALSTYLE
  5
4CCC
102
{ACAD_XDICTIONARY
360
4D32
102
}
102
{ACAD_REACTORS
330
4CBD
102
}
330
4CBD
100
AcDbVisualStyle
  2
Facepattern
 70
    15
 71
     2
 72
     2
 73
     0
 90
        0
 40
-0.6
 41
-30.0
 62
     5
 63
     7
 74
     1
 91
        4
 64
     7
 65
   257
 75
     1
175
     1
 42
1.0
 92
        8
 66
     7
 43
1.0
 76
     1
 77
     6
 78
     2
 67
     7
 79
     5
170
     0
171
     0
290
     0
174
     0
 93
        1
 44
0.0
173
     0
291
     1
 45
0.0
1001
ACAD
1000
AcDbSavedByObjectVersion
1070
     0
  0
VISUALSTYLE
  5
4CBE
102
{ACAD_XDICTIONARY
360
4D16
102
}
102
{ACAD_REACTORS
330
4CBD
102
}
330
4CBD
100
AcDbVisualStyle
  2
Flat
 70
     0
 71
     2
 72
     1
 73
     1
 90
        2
 40
-0.6
 41
30.0
 62
     5
 63
     7
 74
     0
 91
        0
 64
     7
 65
   257
 75
     1
175
     1
 42
1.0
 92
        8
 66
     7
 43
1.0
 76
     1
 77
     6
 78
     2
 67
     7
 79
     5
170
     0
171
     0
290
     0
174
     0
 93
       13
 44
0.0
173
     0
291
     1
 45
0.0
1001
ACAD
1000
AcDbSavedByObjectVersion
1070
     0
  0
VISUALSTYLE
  5
4CBF
102
{ACAD_XDICTIONARY
360
4D18
102
}
102
{ACAD_REACTORS
330
4CBD
102
}
330
4CBD
100
AcDbVisualStyle
  2
FlatWithEdges
 70
     1
 71
     2
 72
     1
 73
     1
 90
        2
 40
-0.6
 41
30.0
 62
     5
 63
     7
 74
     1
 91
        0
 64
     7
 65
   257
 75
     1
175
     1
 42
1.0
 92
        0
 66
   257
 43
1.0
 76
     1
 77
     6
 78
     2
 67
     7
 79
     5
170
     0
171
     0
290
     0
174
     0
 93
       13
 44
0.0
173
     0
291
     1
 45
0.0
1001
ACAD
1000
AcDbSavedByObjectVersion
1070
     0
  0
VISUALSTYLE
  5
4CC0
102
{ACAD_XDICTIONARY
360
4D1A
102
}
102
{ACAD_REACTORS
330
4CBD
102
}
330
4CBD
100
AcDbVisualStyle
  2
Gouraud
 70
     2
 71
     2
 72
     2
 73
     1
 90
        2
 40
-0.6
 41
30.0
 62
     5
 63
     7
 74
     0
 91
        0
 64
     7
 65
   257
 75
     1
175
     1
 42
1.0
 92
        0
 66
     7
 43
1.0
 76
     1
 77
     6
 78
     2
 67
     7
 79
     5
170
     0
171
     0
290
     0
174
     0
 93
       13
 44
0.0
173
     0
291
     1
 45
0.0
1001
ACAD
1000
AcDbSavedByObjectVersion
1070
     0
  0
VISUALSTYLE
  5
4CC1
102
{ACAD_XDICTIONARY
360
4D1C
102
}
102
{ACAD_REACTORS
330
4CBD
102
}
330
4CBD
100
AcDbVisualStyle
  2
GouraudWithEdges
 70
     3
 71
     2
 72
     2
 73
     1
 90
        2
 40
-0.6
 41
30.0
 62
     5
 63
     7
 74
     1
 91
        0
 64
     7
 65
   257
 75
     1
175
     1
 42
1.0
 92
        0
 66
   257
 43
1.0
 76
     1
 77
     6
 78
     2
 67
     7
 79
     5
170
     0
171
     0
290
     0
174
     0
 93
       13
 44
0.0
173
     0
291
     1
 45
0.0
1001
ACAD
1000
AcDbSavedByObjectVersion
1070
     0
  0
VISUALSTYLE
  5
4CC5
102
{ACAD_XDICTIONARY
360
4D24
102
}
102
{ACAD_REACTORS
330
4CBD
102
}
330
4CBD
100
AcDbVisualStyle
  2
Hidden
 70
     6
 71
     1
 72
     2
 73
     2
 90
        0
 40
-0.6
 41
-30.0
 62
     5
 63
     7
 74
     2
 91
        2
 64
     7
 65
   257
 75
     2
175
     1
 42
40.0
 92
        0
 66
   257
 43
1.0
 76
     1
 77
     6
 78
     2
 67
     7
 79
     3
170
     0
171
     0
290
     0
174
     0
 93
        1
 44
0.0
173
     0
291
     0
 45
0.0
1001
ACAD
1000
AcDbSavedByObjectVersion
1070
     0
  0
VISUALSTYLE
  5
4CD3
102
{ACAD_XDICTIONARY
360
4D40
102
}
102
{ACAD_REACTORS
330
4CBD
102
}
330
4CBD
100
AcDbVisualStyle
  2
JitterOff
 70
    20
 71
     2
 72
     2
 73
     0
 90
        0
 40
-0.6
 41
-30.0
 62
     5
 63
     7
 74
     1
 91
        4
 64
     7
 65
   257
 75
     1
175
     1
 42
1.0
 92
       10
 66
     7
 43
1.0
 76
     1
 77
     6
 78
     2
 67
     7
 79
     5
170
     0
171
     0
290
     0
174
     0
 93
        1
 44
0.0
173
     0
291
     1
 45
0.0
1001
ACAD
1000
AcDbSavedByObjectVersion
1070
     0
  0
VISUALSTYLE
  5
4CCB
102
{ACAD_XDICTIONARY
360
4D30
102
}
102
{ACAD_REACTORS
330
4CBD
102
}
330
4CBD
100
AcDbVisualStyle
  2
Linepattern
 70
    14
 71
     2
 72
     2
 73
     0
 90
        0
 40
-0.6
 41
-30.0
 62
     5
 63
     7
 74
     1
 91
        4
 64
     7
 65
   257
 75
     7
175
     7
 42
1.0
 92
        8
 66
     7
 43
1.0
 76
     1
 77
     6
 78
     2
 67
     7
 79
     5
170
     0
171
     0
290
     0
174
     0
 93
        1
 44
0.0
173
     0
291
     1
 45
0.0
1001
ACAD
1000
AcDbSavedByObjectVersion
1070
     0
  0
VISUALSTYLE
  5
4CD4
102
{ACAD_XDICTIONARY
360
4D42
102
}
102
{ACAD_REACTORS
330
4CBD
102
}
330
4CBD
100
AcDbVisualStyle
  2
OverhangOff
 70
    21
 71
     2
 72
     2
 73
     0
 90
        0
 40
-0.6
 41
-30.0
 62
     5
 63
     7
 74
     1
 91
        4
 64
     7
 65
   257
 75
     1
175
     1
 42
1.0
 92
        9
 66
     7
 43
1.0
 76
     1
 77
     6
 78
     2
 67
     7
 79
     5
170
     0
171
     0
290
     0
174
     0
 93
        1
 44
0.0
173
     0
291
     1
 45
0.0
1001
ACAD
1000
AcDbSavedByObjectVersion
1070
     0
  0
VISUALSTYLE
  5
4CC7
102
{ACAD_XDICTIONARY
360
4D28
102
}
102
{ACAD_REACTORS
330
4CBD
102
}
330
4CBD
100
AcDbVisualStyle
  2
Realistic
 70
     8
 71
     2
 72
     3
 73
     0
 90
        2
 40
-0.6
 41
30.0
 62
     5
 63
     7
 74
     0
 91
        0
 64
     7
 65
   257
 75
     1
175
     1
 42
1.0
 92
        8
 66
   257
 43
1.0
 76
     1
 77
     6
 78
     2
 67
     7
 79
     3
170
     0
171
     0
290
     0
174
     0
 93
       13
 44
0.0
173
     0
291
     0
 45
0.0
1001
ACAD
1000
AcDbSavedByObjectVersion
1070
     0
  0
VISUALSTYLE
  5
4CD2
102
{ACAD_XDICTIONARY
360
4D3E
102
}
102
{ACAD_REACTORS
330
4CBD
102
}
330
4CBD
100
AcDbVisualStyle
  2
Shaded
 70
    27
 71
     2
 72
     2
 73
     1
 90
        2
 40
-0.6
 41
30.0
 62
     5
 63
     7
 74
     0
 91
        4
 64
     7
 65
   257
 75
     1
175
     1
 42
1.0
 92
        8
 66
   257
 43
1.0
 76
     1
 77
     6
 78
     2
 67
     8
 79
     3
170
     0
171
     0
290
     0
174
     0
 93
        5
 44
0.0
173
     0
291
     0
 45
0.0
1001
ACAD
1000
AcDbSavedByObjectVersion
1070
     0
  0
VISUALSTYLE
  5
4CD1
102
{ACAD_XDICTIONARY
360
4D3C
102
}
102
{ACAD_REACTORS
330
4CBD
102
}
330
4CBD
100
AcDbVisualStyle
  2
Shaded with edges
 70
    26
 71
     2
 72
     2
 73
     1
 90
        2
 40
-0.6
 41
30.0
 62
     5
 63
     7
 74
     1
 91
       10
 64
     7
 65
   257
 75
     2
175
     1
 42
1.0
 92
        8
 66
   257
 43
1.0
 76
     1
 77
     6
 78
     2
 67
     7
 79
     3
170
     0
171
     0
290
     0
174
     0
 93
        5
 44
0.0
173
     0
291
     0
 45
0.0
1001
ACAD
1000
AcDbSavedByObjectVersion
1070
     0
  0
VISUALSTYLE
  5
4CCE
102
{ACAD_XDICTIONARY
360
4D36
102
}
102
{ACAD_REACTORS
330
4CBD
102
}
330
4CBD
100
AcDbVisualStyle
  2
Shades of Gray
 70
    23
 71
     2
 72
     2
 73
     3
 90
        0
 40
-0.6
 41
-30.0
 62
     5
 63
     7
 74
     2
 91
        2
 64
     7
 65
     7
 75
     1
175
     1
 42
40.0
 92
        8
 66
     7
 43
1.0
 76
     1
 77
     6
 78
     2
 67
     7
 79
     3
170
     0
171
     0
290
     0
174
     0
 93
        1
 44
0.0
173
     0
291
     0
 45
0.0
1001
ACAD
1000
AcDbSavedByObjectVersion
1070
     0
  0
VISUALSTYLE
  5
4CCF
102
{ACAD_XDICTIONARY
360
4D38
102
}
102
{ACAD_REACTORS
330
4CBD
102
}
330
4CBD
100
AcDbVisualStyle
  2
Sketchy
 70
    24
 71
     1
 72
     2
 73
     2
 90
        0
 40
-0.6
 41
-30.0
 62
     5
 63
     7
 74
     2
 91
        2
 64
     7
 65
     7
 75
     1
175
     1
 42
40.0
 92
       11
 66
     7
 43
1.0
 76
     1
 77
     6
 78
     2
 67
     7
 79
     6
170
     0
171
     0
290
     0
174
     0
 93
        1
 44
0.0
173
     0
291
     0
 45
0.0
1001
ACAD
1000
AcDbSavedByObjectVersion
1070
     0
  0
VISUALSTYLE
  5
4CCA
102
{ACAD_XDICTIONARY
360
4D2E
102
}
102
{ACAD_REACTORS
330
4CBD
102
}
330
4CBD
100
AcDbVisualStyle
  2
Thicken
 70
    13
 71
     2
 72
     2
 73
     0
 90
        0
 40
-0.6
 41
-30.0
 62
     5
 63
     7
 74
     1
 91
        4
 64
     7
 65
   257
 75
     1
175
     1
 42
1.0
 92
       12
 66
     7
 43
1.0
 76
     1
 77
     6
 78
     2
 67
     7
 79
     5
170
     0
171
     0
290
     0
174
     0
 93
        1
 44
0.0
173
     0
291
     1
 45
0.0
1001
ACAD
1000
AcDbSavedByObjectVersion
1070
     0
  0
VISUALSTYLE
  5
4CC4
102
{ACAD_XDICTIONARY
360
4D22
102
}
102
{ACAD_REACTORS
330
4CBD
102
}
330
4CBD
100
AcDbVisualStyle
  2
Wireframe
 70
     5
 71
     0
 72
     2
 73
     0
 90
        0
 40
-0.6
 41
-30.0
 62
     5
 63
     7
 74
     1
 91
        4
 64
     7
 65
   257
 75
     1
175
     1
 42
1.0
 92
        0
 66
   257
 43
1.0
 76
     1
 77
     6
 78
     2
 67
     7
 79
     3
170
     0
171
     0
290
     0
174
     0
 93
        1
 44
0.0
173
     0
291
     0
 45
0.0
1001
ACAD
1000
AcDbSavedByObjectVersion
1070
     0
  0
VISUALSTYLE
  5
4CD0
102
{ACAD_XDICTIONARY
360
4D3A
102
}
102
{ACAD_REACTORS
330
4CBD
102
}
330
4CBD
100
AcDbVisualStyle
  2
X-Ray
 70
    25
 71
     2
 72
     2
 73
     1
 90
        1
 40
0.5
 41
-30.0
 62
     5
 63
     7
 74
     1
 91
        0
 64
     7
 65
   257
 75
     1
175
     1
 42
1.0
 92
        8
 66
     7
 43
1.0
 76
     1
 77
     6
 78
     2
 67
     7
 79
     3
170
     0
171
     0
290
     0
174
     0
 93
       13
 44
0.0
173
     0
291
     0
 45
0.0
1001
ACAD
1000
AcDbSavedByObjectVersion
1070
     0
  0
DICTIONARYVAR
  5
4D09
102
{ACAD_REACTORS
330
4D04
102
}
330
4D04
100
DictionaryVariables
280
     0
  1
1:1
  0
DICTIONARYVAR
  5
4D06
102
{ACAD_REACTORS
330
4D04
102
}
330
4D04
100
DictionaryVariables
280
     0
  1
STANDARD
  0
DICTIONARYVAR
  5
4D05
102
{ACAD_REACTORS
330
4D04
102
}
330
4D04
100
DictionaryVariables
280
     0
  1
STANDARD
  0
DICTIONARYVAR
  5
4D07
102
{ACAD_REACTORS
330
4D04
102
}
330
4D04
100
DictionaryVariables
280
     0
  1
Imperial24
  0
DICTIONARYVAR
  5
4D08
102
{ACAD_REACTORS
330
4D04
102
}
330
4D04
100
DictionaryVariables
280
     0
  1
Imperial24
  0
DICTIONARYVAR
  5
4D0C
102
{ACAD_REACTORS
330
4D04
102
}
330
4D04
100
DictionaryVariables
280
     0
  1
1
  0
DICTIONARYVAR
  5
4D0B
102
{ACAD_REACTORS
330
4D04
102
}
330
4D04
100
DictionaryVariables
280
     0
  1
0
  0
DICTIONARYVAR
  5
4D0A
102
{ACAD_REACTORS
330
4D04
102
}
330
4D04
100
DictionaryVariables
280
     0
  1
127
  0
DICTIONARYVAR
  5
4D0D
102
{ACAD_REACTORS
330
4D04
102
}
330
4D04
100
DictionaryVariables
280
     0
  1
2
  0
DICTIONARY
  5
4D4A
330
4CF0
100
AcDbDictionary
280
     1
281
     1
  3
ACAD_XREC_ROUNDTRIP
360
4D4B
  0
DICTIONARY
  5
4D4C
330
4CF1
100
AcDbDictionary
280
     1
281
     1
  3
ACAD_XREC_ROUNDTRIP
360
4D4D
  0
DICTIONARY
  5
4D4E
330
4CF2
100
AcDbDictionary
280
     1
281
     1
  3
ACAD_XREC_ROUNDTRIP
360
4D4F
  0
DICTIONARY
  5
4CAE
330
4CAD
100
AcDbDictionary
280
     1
281
     1
  3
ACAD_XREC_ROUNDTRIP
360
4D14
  3
BUMPTILE
360
4CB0
  3
DIFFUSETILE
360
4CAF
  3
OPACITYTILE
360
4CB3
  3
REFLECTIONTILE
360
4CB2
  3
REFRACTIONTILE
360
4CB4
  3
SPECULARTILE
360
4CB1
  0
DICTIONARY
  5
4CA6
330
4CA5
100
AcDbDictionary
280
     1
281
     1
  3
ACAD_XREC_ROUNDTRIP
360
4D13
  3
BUMPTILE
360
4CA8
  3
DIFFUSETILE
360
4CA7
  3
OPACITYTILE
360
4CAB
  3
REFLECTIONTILE
360
4CAA
  3
REFRACTIONTILE
360
4CAC
  3
SPECULARTILE
360
4CA9
  0
DICTIONARY
  5
4CB6
330
4CB5
100
AcDbDictionary
280
     1
281
     1
  3
ACAD_XREC_ROUNDTRIP
360
4D15
  3
BUMPTILE
360
4CB8
  3
DIFFUSETILE
360
4CB7
  3
OPACITYTILE
360
4CBB
  3
REFLECTIONTILE
360
4CBA
  3
REFRACTIONTILE
360
4CBC
  3
SPECULARTILE
360
4CB9
  0
DICTIONARY
  5
4D48
330
4CEE
100
AcDbDictionary
280
     1
281
     1
  3
ACAD_XREC_ROUNDTRIP
360
4D49
  0
DICTIONARY
  5
4D0F
330
4CD8
100
AcDbDictionary
280
     1
281
     1
  3
ACAD_ROUNDTRIP_2008_TABLESTYLE_CELLSTYLEMAP
360
4D10
  3
ACAD_XREC_ROUNDTRIP
360
4D46
  0
DICTIONARY
  5
4D20
330
4CC3
100
AcDbDictionary
280
     1
281
     1
  3
ACAD_XREC_ROUNDTRIP
360
4D21
  0
DICTIONARY
  5
4D1E
330
4CC2
100
AcDbDictionary
280
     1
281
     1
  3
ACAD_XREC_ROUNDTRIP
360
4D1F
  0
DICTIONARY
  5
4D2C
330
4CC9
100
AcDbDictionary
280
     1
281
     1
  3
ACAD_XREC_ROUNDTRIP
360
4D2D
  0
DICTIONARY
  5
4D34
330
4CCD
100
AcDbDictionary
280
     1
281
     1
  3
ACAD_XREC_ROUNDTRIP
360
4D35
  0
DICTIONARY
  5
4D26
330
4CC6
100
AcDbDictionary
280
     1
281
     1
  3
ACAD_XREC_ROUNDTRIP
360
4D27
  0
DICTIONARY
  5
4D2A
330
4CC8
100
AcDbDictionary
280
     1
281
     1
  3
ACAD_XREC_ROUNDTRIP
360
4D2B
  0
DICTIONARY
  5
4D44
330
4CD5
100
AcDbDictionary
280
     1
281
     1
  3
ACAD_XREC_ROUNDTRIP
360
4D45
  0
DICTIONARY
  5
4D32
330
4CCC
100
AcDbDictionary
280
     1
281
     1
  3
ACAD_XREC_ROUNDTRIP
360
4D33
  0
DICTIONARY
  5
4D16
330
4CBE
100
AcDbDictionary
280
     1
281
     1
  3
ACAD_XREC_ROUNDTRIP
360
4D17
  0
DICTIONARY
  5
4D18
330
4CBF
100
AcDbDictionary
280
     1
281
     1
  3
ACAD_XREC_ROUNDTRIP
360
4D19
  0
DICTIONARY
  5
4D1A
330
4CC0
100
AcDbDictionary
280
     1
281
     1
  3
ACAD_XREC_ROUNDTRIP
360
4D1B
  0
DICTIONARY
  5
4D1C
330
4CC1
100
AcDbDictionary
280
     1
281
     1
  3
ACAD_XREC_ROUNDTRIP
360
4D1D
  0
DICTIONARY
  5
4D24
330
4CC5
100
AcDbDictionary
280
     1
281
     1
  3
ACAD_XREC_ROUNDTRIP
360
4D25
  0
DICTIONARY
  5
4D40
330
4CD3
100
AcDbDictionary
280
     1
281
     1
  3
ACAD_XREC_ROUNDTRIP
360
4D41
  0
DICTIONARY
  5
4D30
330
4CCB
100
AcDbDictionary
280
     1
281
     1
  3
ACAD_XREC_ROUNDTRIP
360
4D31
  0
DICTIONARY
  5
4D42
330
4CD4
100
AcDbDictionary
280
     1
281
     1
  3
ACAD_XREC_ROUNDTRIP
360
4D43
  0
DICTIONARY
  5
4D28
330
4CC7
100
AcDbDictionary
280
     1
281
     1
  3
ACAD_XREC_ROUNDTRIP
360
4D29
  0
DICTIONARY
  5
4D3E
330
4CD2
100
AcDbDictionary
280
     1
281
     1
  3
ACAD_XREC_ROUNDTRIP
360
4D3F
  0
DICTIONARY
  5
4D3C
330
4CD1
100
AcDbDictionary
280
     1
281
     1
  3
ACAD_XREC_ROUNDTRIP
360
4D3D
  0
DICTIONARY
  5
4D36
330
4CCE
100
AcDbDictionary
280
     1
281
     1
  3
ACAD_XREC_ROUNDTRIP
360
4D37
  0
DICTIONARY
  5
4D38
330
4CCF
100
AcDbDictionary
280
     1
281
     1
  3
ACAD_XREC_ROUNDTRIP
360
4D39
  0
DICTIONARY
  5
4D2E
330
4CCA
100
AcDbDictionary
280
     1
281
     1
  3
ACAD_XREC_ROUNDTRIP
360
4D2F
  0
DICTIONARY
  5
4D22
330
4CC4
100
AcDbDictionary
280
     1
281
     1
  3
ACAD_XREC_ROUNDTRIP
360
4D23
  0
DICTIONARY
  5
4D3A
330
4CD0
100
AcDbDictionary
280
     1
281
     1
  3
ACAD_XREC_ROUNDTRIP
360
4D3B
  0
XRECORD
  5
4D4B
102
{ACAD_REACTORS
330
4D4A
102
}
330
4D4A
100
AcDbXrecord
280
     1
102
DISPLAYNAME
  1
Imperial24
102
FLAGS
 90
        0
  0
XRECORD
  5
4D4D
102
{ACAD_REACTORS
330
4D4C
102
}
330
4D4C
100
AcDbXrecord
280
     1
102
SHADEPLOT
 70
     0
102
SHADEPLOTRESLEVEL
 70
     2
102
SHADEPLOTCUSTOMDPI
 70
   300
  0
XRECORD
  5
4D4F
102
{ACAD_REACTORS
330
4D4E
102
}
330
4D4E
100
AcDbXrecord
280
     1
102
SHADEPLOT
 70
     0
102
SHADEPLOTRESLEVEL
 70
     2
102
SHADEPLOTCUSTOMDPI
 70
   300
  0
XRECORD
  5
4D14
102
{ACAD_REACTORS
330
4CAE
102
}
330
4CAE
100
AcDbXrecord
280
     1
102
MATERIAL
148
0.0
149
0.0
149
0.0
 93
        0
 94
      127
282
     0
 72
     0
 77
     0
171
     0
175
     0
179
     0
273
     0
  0
XRECORD
  5
4CB0
102
{ACAD_REACTORS
330
4CAE
102
}
330
4CAE
100
AcDbXrecord
280
     1
270
     1
271
     1
  0
XRECORD
  5
4CAF
102
{ACAD_REACTORS
330
4CAE
102
}
330
4CAE
100
AcDbXrecord
280
     1
270
     1
271
     1
  0
XRECORD
  5
4CB3
102
{ACAD_REACTORS
330
4CAE
102
}
330
4CAE
100
AcDbXrecord
280
     1
270
     1
271
     1
  0
XRECORD
  5
4CB2
102
{ACAD_REACTORS
330
4CAE
102
}
330
4CAE
100
AcDbXrecord
280
     1
270
     1
271
     1
  0
XRECORD
  5
4CB4
102
{ACAD_REACTORS
330
4CAE
102
}
330
4CAE
100
AcDbXrecord
280
     1
270
     1
271
     1
  0
XRECORD
  5
4CB1
102
{ACAD_REACTORS
330
4CAE
102
}
330
4CAE
100
AcDbXrecord
280
     1
270
     1
271
     1
  0
XRECORD
  5
4D13
102
{ACAD_REACTORS
330
4CA6
102
}
330
4CA6
100
AcDbXrecord
280
     1
102
MATERIAL
148
0.0
149
0.0
149
0.0
 93
        0
 94
      127
282
     0
 72
     0
 77
     0
171
     0
175
     0
179
     0
273
     0
  0
XRECORD
  5
4CA8
102
{ACAD_REACTORS
330
4CA6
102
}
330
4CA6
100
AcDbXrecord
280
     1
270
     1
271
     1
  0
XRECORD
  5
4CA7
102
{ACAD_REACTORS
330
4CA6
102
}
330
4CA6
100
AcDbXrecord
280
     1
270
     1
271
     1
  0
XRECORD
  5
4CAB
102
{ACAD_REACTORS
330
4CA6
102
}
330
4CA6
100
AcDbXrecord
280
     1
270
     1
271
     1
  0
XRECORD
  5
4CAA
102
{ACAD_REACTORS
330
4CA6
102
}
330
4CA6
100
AcDbXrecord
280
     1
270
     1
271
     1
  0
XRECORD
  5
4CAC
102
{ACAD_REACTORS
330
4CA6
102
}
330
4CA6
100
AcDbXrecord
280
     1
270
     1
271
     1
  0
XRECORD
  5
4CA9
102
{ACAD_REACTORS
330
4CA6
102
}
330
4CA6
100
AcDbXrecord
280
     1
270
     1
271
     1
  0
XRECORD
  5
4D15
102
{ACAD_REACTORS
330
4CB6
102
}
330
4CB6
100
AcDbXrecord
280
     1
102
MATERIAL
148
0.0
149
0.0
149
0.0
 93
        0
 94
      127
282
     0
 72
     0
 77
     0
171
     0
175
     0
179
     0
273
     0
  0
XRECORD
  5
4CB8
102
{ACAD_REACTORS
330
4CB6
102
}
330
4CB6
100
AcDbXrecord
280
     1
270
     1
271
     1
  0
XRECORD
  5
4CB7
102
{ACAD_REACTORS
330
4CB6
102
}
330
4CB6
100
AcDbXrecord
280
     1
270
     1
271
     1
  0
XRECORD
  5
4CBB
102
{ACAD_REACTORS
330
4CB6
102
}
330
4CB6
100
AcDbXrecord
280
     1
270
     1
271
     1
  0
XRECORD
  5
4CBA
102
{ACAD_REACTORS
330
4CB6
102
}
330
4CB6
100
AcDbXrecord
280
     1
270
     1
271
     1
  0
XRECORD
  5
4CBC
102
{ACAD_REACTORS
330
4CB6
102
}
330
4CB6
100
AcDbXrecord
280
     1
270
     1
271
     1
  0
XRECORD
  5
4CB9
102
{ACAD_REACTORS
330
4CB6
102
}
330
4CB6
100
AcDbXrecord
280
     1
270
     1
271
     1
  0
XRECORD
  5
4D49
102
{ACAD_REACTORS
330
4D48
102
}
330
4D48
100
AcDbXrecord
280
     1
102
DISPLAYNAME
  1
Imperial24
102
FLAGS
 90
        0
  0
CELLSTYLEMAP
  5
4D10
102
{ACAD_REACTORS
330
4D0F
102
}
330
4D0F
100
AcDbCellStyleMap
 90
        3
300
CELLSTYLE
  1
TABLEFORMAT_BEGIN
 90
        5
170
     1
 91
        0
 92
    32768
 62
   257
 93
        1
300
CONTENTFORMAT
  1
CONTENTFORMAT_BEGIN
 90
        0
 91
        0
 92
      512
 93
        0
300

 40
0.0
140
1.0
 94
        5
 62
     0
340
F
144
0.25
309
CONTENTFORMAT_END
171
     0
 94
        0
309
TABLEFORMAT_END
  1
CELLSTYLE_BEGIN
 90
        1
 91
        1
300
_TITLE
309
CELLSTYLE_END
300
CELLSTYLE
  1
TABLEFORMAT_BEGIN
 90
        5
170
     1
 91
        0
 92
        0
 62
   257
 93
        1
300
CONTENTFORMAT
  1
CONTENTFORMAT_BEGIN
 90
        0
 91
        0
 92
      512
 93
        0
300

 40
0.0
140
1.0
 94
        5
 62
     0
340
F
144
0.18
309
CONTENTFORMAT_END
171
     0
 94
        0
309
TABLEFORMAT_END
  1
CELLSTYLE_BEGIN
 90
        2
 91
        1
300
_HEADER
309
CELLSTYLE_END
300
CELLSTYLE
  1
TABLEFORMAT_BEGIN
 90
        5
170
     1
 91
        0
 92
        0
 62
   257
 93
        1
300
CONTENTFORMAT
  1
CONTENTFORMAT_BEGIN
 90
        0
 91
        0
 92
      512
 93
        0
300

 40
0.0
140
1.0
 94
        2
 62
     0
340
F
144
0.18
309
CONTENTFORMAT_END
171
     0
 94
        0
309
TABLEFORMAT_END
  1
CELLSTYLE_BEGIN
 90
        3
 91
        2
300
_DATA
309
CELLSTYLE_END
  0
XRECORD
  5
4D46
102
{ACAD_REACTORS
330
4D0F
102
}
330
4D0F
100
AcDbXrecord
280
     1
102
ACAD_ROUNDTRIP_PRE2007_TABLESTYLE
 90
      512
 91
        0
  1

 92
      512
 93
        0
  2

 94
      512
 95
        0
  3

  0
XRECORD
  5
4D21
102
{ACAD_REACTORS
330
4D20
102
}
330
4D20
100
AcDbXrecord
280
     1
102
RTVSPost2010Prop28
280
     1
102
RTVSPost2010PropOp28
 70
     1
102
RTVSPost2010Prop29
280
     1
102
RTVSPost2010PropOp29
 70
     1
102
RTVSPost2010Prop30
280
     0
102
RTVSPost2010PropOp30
 70
     1
102
RTVSPost2010Prop31
280
     0
102
RTVSPost2010PropOp31
 70
     1
102
RTVSPost2010Prop32
280
     0
102
RTVSPost2010PropOp32
 70
     1
102
RTVSPost2010Prop33
280
     0
102
RTVSPost2010PropOp33
 70
     1
102
RTVSPost2010Prop34
280
     0
102
RTVSPost2010PropOp34
 70
     1
102
RTVSPost2010Prop35
280
     0
102
RTVSPost2010PropOp35
 70
     1
102
RTVSPost2010Prop36
280
     0
102
RTVSPost2010PropOp36
 70
     1
102
RTVSPost2010Prop37
 90
       50
102
RTVSPost2010PropOp37
 70
     1
102
RTVSPost2010Prop38
140
0.0
102
RTVSPost2010PropOp38
 70
     1
102
RTVSPost2010Prop39
140
1.0
102
RTVSPost2010PropOp39
 70
     1
102
RTVSPost2010Prop40
 90
        0
102
RTVSPost2010PropOp40
 70
     1
102
RTVSPost2010Prop41ColorIndex
 90
       18
102
RTVSPost2010Prop41ColorRGB
 90
        0
102
RTVSPost2010PropOp41
 70
     1
102
RTVSPost2010Prop42
 90
       50
102
RTVSPost2010PropOp42
 70
     1
102
RTVSPost2010Prop43
 90
        3
102
RTVSPost2010PropOp43
 70
     1
102
RTVSPost2010Prop44ColorIndex
 90
        5
102
RTVSPost2010Prop44ColorRGB
 90
      255
102
RTVSPost2010PropOp44
 70
     1
102
RTVSPost2010Prop45
280
     0
102
RTVSPost2010PropOp45
 70
     1
102
RTVSPost2010Prop46
 90
       50
102
RTVSPost2010PropOp46
 70
     1
102
RTVSPost2010Prop47
 90
       50
102
RTVSPost2010PropOp47
 70
     1
102
RTVSPost2010Prop48
 90
       50
102
RTVSPost2010PropOp48
 70
     1
102
RTVSPost2010Prop49
280
     0
102
RTVSPost2010PropOp49
 70
     1
102
RTVSPost2010Prop50
 90
       50
102
RTVSPost2010PropOp50
 70
     1
102
RTVSPost2010Prop51ColorIndex
 90
      256
102
RTVSPost2010Prop51ColorRGB
 90
-16777216
102
RTVSPost2010PropOp51
 70
     0
102
RTVSPost2010Prop52
140
1.0
102
RTVSPost2010PropOp52
 70
     0
102
RTVSPost2010Prop53
 90
        2
102
RTVSPost2010PropOp53
 70
     1
102
RTVSPost2010Prop54
  1
strokes_ogs.tif
102
RTVSPost2010PropOp54
 70
     1
102
RTVSPost2010Prop55
280
     0
102
RTVSPost2010PropOp55
 70
     1
102
RTVSPost2010Prop56
140
1.0
102
RTVSPost2010PropOp56
 70
     1
102
RTVSPost2010Prop57
140
1.0
102
RTVSPost2010PropOp57
 70
     1
102
RTVSPropertyOp0
 70
     1
102
RTVSPropertyOp1
 70
     1
102
RTVSPropertyOp2
 70
     1
102
RTVSPropertyOp3
 70
     1
102
RTVSPropertyOp4
 70
     1
102
RTVSPropertyOp5
 70
     1
102
RTVSPropertyOp6
 70
     1
102
RTVSPropertyOp7
 70
     1
102
RTVSPropertyOp8
 70
     1
102
RTVSPropertyOp9
 70
     1
102
RTVSPropertyOp10
 70
     1
102
RTVSPropertyOp11
 70
     1
102
RTVSPropertyOp12
 70
     1
102
RTVSPropertyOp13
 70
     1
102
RTVSPropertyOp14
 70
     1
102
RTVSPropertyOp15
 70
     1
102
RTVSPropertyOp16
 70
     1
102
RTVSPropertyOp17
 70
     1
102
RTVSPropertyOp18
 70
     1
102
RTVSPropertyOp19
 70
     1
102
RTVSPropertyOp20
 70
     1
102
RTVSPropertyOp21
 70
     1
102
RTVSPropertyOp22
 70
     1
102
RTVSPropertyOp23
 70
     1
102
RTVSPropertyOp24
 70
     1
102
RTVSPropertyOp25
 70
     1
102
RTVSPropertyOp26
 70
     1
102
RTVSPropertyOp27
 70
     1
102
RTVSPropertyOp28
 70
     1
102
RTVSPropertyOp29
 70
     1
102
RTVSPropertyOp30
 70
     1
102
RTVSPropertyOp31
 70
     1
102
RTVSPropertyOp32
 70
     1
102
RTVSPropertyOp33
 70
     1
102
RTVSPropertyOp34
 70
     1
102
RTVSPropertyOp35
 70
     1
102
RTVSPropertyOp36
 70
     1
102
RTVSPropertyOp37
 70
     1
102
RTVSPropertyOp38
 70
     1
102
RTVSPropertyOp39
 70
     1
102
RTVSPropertyOp40
 70
     1
102
RTVSPropertyOp41
 70
     1
102
RTVSPropertyOp42
 70
     1
102
RTVSPropertyOp43
 70
     1
102
RTVSPropertyOp44
 70
     1
102
RTVSPropertyOp45
 70
     1
102
RTVSPropertyOp46
 70
     1
102
RTVSPropertyOp47
 70
     1
102
RTVSPropertyOp48
 70
     1
102
RTVSPropertyOp49
 70
     1
102
RTVSPropertyOp50
 70
     1
102
RTVSPropertyOp51
 70
     0
102
RTVSPropertyOp52
 70
     0
102
RTVSPropertyOp53
 70
     1
102
RTVSPropertyOp54
 70
     1
102
RTVSPropertyOp55
 70
     1
102
RTVSPropertyOp56
 70
     1
102
RTVSPropertyOp57
 70
     1
102
RTVSPropertyOp58
 70
     1
102
RTVSPropertyOp59
 70
     1
102
RTVSPropertyOp60
 70
     1
102
RTVSPropertyOp61
 70
     1
102
RTVSPropertyOp62
 70
     1
  0
XRECORD
  5
4D1F
102
{ACAD_REACTORS
330
4D1E
102
}
330
4D1E
100
AcDbXrecord
280
     1
102
RTVSPost2010Prop28
280
     0
102
RTVSPost2010PropOp28
 70
     1
102
RTVSPost2010Prop29
280
     1
102
RTVSPost2010PropOp29
 70
     1
102
RTVSPost2010Prop30
280
     1
102
RTVSPost2010PropOp30
 70
     1
102
RTVSPost2010Prop31
280
     0
102
RTVSPost2010PropOp31
 70
     1
102
RTVSPost2010Prop32
280
     0
102
RTVSPost2010PropOp32
 70
     1
102
RTVSPost2010Prop33
280
     0
102
RTVSPost2010PropOp33
 70
     1
102
RTVSPost2010Prop34
280
     0
102
RTVSPost2010PropOp34
 70
     1
102
RTVSPost2010Prop35
280
     0
102
RTVSPost2010PropOp35
 70
     1
102
RTVSPost2010Prop36
280
     0
102
RTVSPost2010PropOp36
 70
     1
102
RTVSPost2010Prop37
 90
       50
102
RTVSPost2010PropOp37
 70
     1
102
RTVSPost2010Prop38
140
0.0
102
RTVSPost2010PropOp38
 70
     1
102
RTVSPost2010Prop39
140
1.0
102
RTVSPost2010PropOp39
 70
     1
102
RTVSPost2010Prop40
 90
        0
102
RTVSPost2010PropOp40
 70
     1
102
RTVSPost2010Prop41ColorIndex
 90
       18
102
RTVSPost2010Prop41ColorRGB
 90
        0
102
RTVSPost2010PropOp41
 70
     1
102
RTVSPost2010Prop42
 90
       50
102
RTVSPost2010PropOp42
 70
     1
102
RTVSPost2010Prop43
 90
        3
102
RTVSPost2010PropOp43
 70
     1
102
RTVSPost2010Prop44ColorIndex
 90
        5
102
RTVSPost2010Prop44ColorRGB
 90
      255
102
RTVSPost2010PropOp44
 70
     1
102
RTVSPost2010Prop45
280
     0
102
RTVSPost2010PropOp45
 70
     1
102
RTVSPost2010Prop46
 90
       50
102
RTVSPost2010PropOp46
 70
     1
102
RTVSPost2010Prop47
 90
       50
102
RTVSPost2010PropOp47
 70
     1
102
RTVSPost2010Prop48
 90
       50
102
RTVSPost2010PropOp48
 70
     1
102
RTVSPost2010Prop49
280
     0
102
RTVSPost2010PropOp49
 70
     1
102
RTVSPost2010Prop50
 90
       50
102
RTVSPost2010PropOp50
 70
     1
102
RTVSPost2010Prop51ColorIndex
 90
      256
102
RTVSPost2010Prop51ColorRGB
 90
-16777216
102
RTVSPost2010PropOp51
 70
     0
102
RTVSPost2010Prop52
140
1.0
102
RTVSPost2010PropOp52
 70
     0
102
RTVSPost2010Prop53
 90
        2
102
RTVSPost2010PropOp53
 70
     1
102
RTVSPost2010Prop54
  1
strokes_ogs.tif
102
RTVSPost2010PropOp54
 70
     1
102
RTVSPost2010Prop55
280
     0
102
RTVSPost2010PropOp55
 70
     1
102
RTVSPost2010Prop56
140
1.0
102
RTVSPost2010PropOp56
 70
     1
102
RTVSPost2010Prop57
140
1.0
102
RTVSPost2010PropOp57
 70
     1
102
RTVSPropertyOp0
 70
     1
102
RTVSPropertyOp1
 70
     1
102
RTVSPropertyOp2
 70
     1
102
RTVSPropertyOp3
 70
     1
102
RTVSPropertyOp4
 70
     1
102
RTVSPropertyOp5
 70
     1
102
RTVSPropertyOp6
 70
     1
102
RTVSPropertyOp7
 70
     1
102
RTVSPropertyOp8
 70
     1
102
RTVSPropertyOp9
 70
     1
102
RTVSPropertyOp10
 70
     1
102
RTVSPropertyOp11
 70
     1
102
RTVSPropertyOp12
 70
     1
102
RTVSPropertyOp13
 70
     1
102
RTVSPropertyOp14
 70
     1
102
RTVSPropertyOp15
 70
     1
102
RTVSPropertyOp16
 70
     1
102
RTVSPropertyOp17
 70
     1
102
RTVSPropertyOp18
 70
     1
102
RTVSPropertyOp19
 70
     1
102
RTVSPropertyOp20
 70
     1
102
RTVSPropertyOp21
 70
     1
102
RTVSPropertyOp22
 70
     1
102
RTVSPropertyOp23
 70
     1
102
RTVSPropertyOp24
 70
     1
102
RTVSPropertyOp25
 70
     1
102
RTVSPropertyOp26
 70
     1
102
RTVSPropertyOp27
 70
     1
102
RTVSPropertyOp28
 70
     1
102
RTVSPropertyOp29
 70
     1
102
RTVSPropertyOp30
 70
     1
102
RTVSPropertyOp31
 70
     1
102
RTVSPropertyOp32
 70
     1
102
RTVSPropertyOp33
 70
     1
102
RTVSPropertyOp34
 70
     1
102
RTVSPropertyOp35
 70
     1
102
RTVSPropertyOp36
 70
     1
102
RTVSPropertyOp37
 70
     1
102
RTVSPropertyOp38
 70
     1
102
RTVSPropertyOp39
 70
     1
102
RTVSPropertyOp40
 70
     1
102
RTVSPropertyOp41
 70
     1
102
RTVSPropertyOp42
 70
     1
102
RTVSPropertyOp43
 70
     1
102
RTVSPropertyOp44
 70
     1
102
RTVSPropertyOp45
 70
     1
102
RTVSPropertyOp46
 70
     1
102
RTVSPropertyOp47
 70
     1
102
RTVSPropertyOp48
 70
     1
102
RTVSPropertyOp49
 70
     1
102
RTVSPropertyOp50
 70
     1
102
RTVSPropertyOp51
 70
     0
102
RTVSPropertyOp52
 70
     0
102
RTVSPropertyOp53
 70
     1
102
RTVSPropertyOp54
 70
     1
102
RTVSPropertyOp55
 70
     1
102
RTVSPropertyOp56
 70
     1
102
RTVSPropertyOp57
 70
     1
102
RTVSPropertyOp58
 70
     1
102
RTVSPropertyOp59
 70
     1
102
RTVSPropertyOp60
 70
     1
102
RTVSPropertyOp61
 70
     1
102
RTVSPropertyOp62
 70
     1
  0
XRECORD
  5
4D2D
102
{ACAD_REACTORS
330
4D2C
102
}
330
4D2C
100
AcDbXrecord
280
     1
102
RTVSPost2010Prop28
280
     0
102
RTVSPost2010PropOp28
 70
     1
102
RTVSPost2010Prop29
280
     1
102
RTVSPost2010PropOp29
 70
     1
102
RTVSPost2010Prop30
280
     1
102
RTVSPost2010PropOp30
 70
     1
102
RTVSPost2010Prop31
280
     0
102
RTVSPost2010PropOp31
 70
     1
102
RTVSPost2010Prop32
280
     0
102
RTVSPost2010PropOp32
 70
     1
102
RTVSPost2010Prop33
280
     0
102
RTVSPost2010PropOp33
 70
     1
102
RTVSPost2010Prop34
280
     0
102
RTVSPost2010PropOp34
 70
     1
102
RTVSPost2010Prop35
280
     0
102
RTVSPost2010PropOp35
 70
     1
102
RTVSPost2010Prop36
280
     0
102
RTVSPost2010PropOp36
 70
     1
102
RTVSPost2010Prop37
 90
       50
102
RTVSPost2010PropOp37
 70
     1
102
RTVSPost2010Prop38
140
0.0
102
RTVSPost2010PropOp38
 70
     1
102
RTVSPost2010Prop39
140
1.0
102
RTVSPost2010PropOp39
 70
     1
102
RTVSPost2010Prop40
 90
        0
102
RTVSPost2010PropOp40
 70
     1
102
RTVSPost2010Prop41ColorIndex
 90
       18
102
RTVSPost2010Prop41ColorRGB
 90
        0
102
RTVSPost2010PropOp41
 70
     1
102
RTVSPost2010Prop42
 90
       50
102
RTVSPost2010PropOp42
 70
     1
102
RTVSPost2010Prop43
 90
        3
102
RTVSPost2010PropOp43
 70
     1
102
RTVSPost2010Prop44ColorIndex
 90
        5
102
RTVSPost2010Prop44ColorRGB
 90
      255
102
RTVSPost2010PropOp44
 70
     1
102
RTVSPost2010Prop45
280
     0
102
RTVSPost2010PropOp45
 70
     1
102
RTVSPost2010Prop46
 90
       50
102
RTVSPost2010PropOp46
 70
     1
102
RTVSPost2010Prop47
 90
       50
102
RTVSPost2010PropOp47
 70
     1
102
RTVSPost2010Prop48
 90
       50
102
RTVSPost2010PropOp48
 70
     1
102
RTVSPost2010Prop49
280
     0
102
RTVSPost2010PropOp49
 70
     1
102
RTVSPost2010Prop50
 90
       50
102
RTVSPost2010PropOp50
 70
     1
102
RTVSPost2010Prop51ColorIndex
 90
      256
102
RTVSPost2010Prop51ColorRGB
 90
-16777216
102
RTVSPost2010PropOp51
 70
     0
102
RTVSPost2010Prop52
140
1.0
102
RTVSPost2010PropOp52
 70
     0
102
RTVSPost2010Prop53
 90
        2
102
RTVSPost2010PropOp53
 70
     1
102
RTVSPost2010Prop54
  1
strokes_ogs.tif
102
RTVSPost2010PropOp54
 70
     1
102
RTVSPost2010Prop55
280
     0
102
RTVSPost2010PropOp55
 70
     1
102
RTVSPost2010Prop56
140
1.0
102
RTVSPost2010PropOp56
 70
     1
102
RTVSPost2010Prop57
140
1.0
102
RTVSPost2010PropOp57
 70
     1
102
RTVSPropertyOp0
 70
     1
102
RTVSPropertyOp1
 70
     1
102
RTVSPropertyOp2
 70
     1
102
RTVSPropertyOp3
 70
     1
102
RTVSPropertyOp4
 70
     1
102
RTVSPropertyOp5
 70
     1
102
RTVSPropertyOp6
 70
     1
102
RTVSPropertyOp7
 70
     1
102
RTVSPropertyOp8
 70
     1
102
RTVSPropertyOp9
 70
     1
102
RTVSPropertyOp10
 70
     1
102
RTVSPropertyOp11
 70
     1
102
RTVSPropertyOp12
 70
     1
102
RTVSPropertyOp13
 70
     1
102
RTVSPropertyOp14
 70
     1
102
RTVSPropertyOp15
 70
     1
102
RTVSPropertyOp16
 70
     1
102
RTVSPropertyOp17
 70
     1
102
RTVSPropertyOp18
 70
     1
102
RTVSPropertyOp19
 70
     1
102
RTVSPropertyOp20
 70
     1
102
RTVSPropertyOp21
 70
     1
102
RTVSPropertyOp22
 70
     1
102
RTVSPropertyOp23
 70
     1
102
RTVSPropertyOp24
 70
     1
102
RTVSPropertyOp25
 70
     1
102
RTVSPropertyOp26
 70
     1
102
RTVSPropertyOp27
 70
     1
102
RTVSPropertyOp28
 70
     1
102
RTVSPropertyOp29
 70
     1
102
RTVSPropertyOp30
 70
     1
102
RTVSPropertyOp31
 70
     1
102
RTVSPropertyOp32
 70
     1
102
RTVSPropertyOp33
 70
     1
102
RTVSPropertyOp34
 70
     1
102
RTVSPropertyOp35
 70
     1
102
RTVSPropertyOp36
 70
     1
102
RTVSPropertyOp37
 70
     1
102
RTVSPropertyOp38
 70
     1
102
RTVSPropertyOp39
 70
     1
102
RTVSPropertyOp40
 70
     1
102
RTVSPropertyOp41
 70
     1
102
RTVSPropertyOp42
 70
     1
102
RTVSPropertyOp43
 70
     1
102
RTVSPropertyOp44
 70
     1
102
RTVSPropertyOp45
 70
     1
102
RTVSPropertyOp46
 70
     1
102
RTVSPropertyOp47
 70
     1
102
RTVSPropertyOp48
 70
     1
102
RTVSPropertyOp49
 70
     1
102
RTVSPropertyOp50
 70
     1
102
RTVSPropertyOp51
 70
     0
102
RTVSPropertyOp52
 70
     0
102
RTVSPropertyOp53
 70
     1
102
RTVSPropertyOp54
 70
     1
102
RTVSPropertyOp55
 70
     1
102
RTVSPropertyOp56
 70
     1
102
RTVSPropertyOp57
 70
     1
102
RTVSPropertyOp58
 70
     1
102
RTVSPropertyOp59
 70
     1
102
RTVSPropertyOp60
 70
     1
102
RTVSPropertyOp61
 70
     1
102
RTVSPropertyOp62
 70
     1
  0
XRECORD
  5
4D35
102
{ACAD_REACTORS
330
4D34
102
}
330
4D34
100
AcDbXrecord
280
     1
102
RTVSPost2010Prop28
280
     0
102
RTVSPost2010PropOp28
 70
     1
102
RTVSPost2010Prop29
280
     1
102
RTVSPost2010PropOp29
 70
     1
102
RTVSPost2010Prop30
280
     1
102
RTVSPost2010PropOp30
 70
     1
102
RTVSPost2010Prop31
280
     0
102
RTVSPost2010PropOp31
 70
     1
102
RTVSPost2010Prop32
280
     0
102
RTVSPost2010PropOp32
 70
     1
102
RTVSPost2010Prop33
280
     0
102
RTVSPost2010PropOp33
 70
     1
102
RTVSPost2010Prop34
280
     0
102
RTVSPost2010PropOp34
 70
     1
102
RTVSPost2010Prop35
280
     0
102
RTVSPost2010PropOp35
 70
     1
102
RTVSPost2010Prop36
280
     0
102
RTVSPost2010PropOp36
 70
     1
102
RTVSPost2010Prop37
 90
       50
102
RTVSPost2010PropOp37
 70
     1
102
RTVSPost2010Prop38
140
0.0
102
RTVSPost2010PropOp38
 70
     1
102
RTVSPost2010Prop39
140
1.0
102
RTVSPost2010PropOp39
 70
     1
102
RTVSPost2010Prop40
 90
        0
102
RTVSPost2010PropOp40
 70
     1
102
RTVSPost2010Prop41ColorIndex
 90
       18
102
RTVSPost2010Prop41ColorRGB
 90
        0
102
RTVSPost2010PropOp41
 70
     1
102
RTVSPost2010Prop42
 90
       50
102
RTVSPost2010PropOp42
 70
     1
102
RTVSPost2010Prop43
 90
        3
102
RTVSPost2010PropOp43
 70
     1
102
RTVSPost2010Prop44ColorIndex
 90
        5
102
RTVSPost2010Prop44ColorRGB
 90
      255
102
RTVSPost2010PropOp44
 70
     1
102
RTVSPost2010Prop45
280
     0
102
RTVSPost2010PropOp45
 70
     1
102
RTVSPost2010Prop46
 90
       50
102
RTVSPost2010PropOp46
 70
     1
102
RTVSPost2010Prop47
 90
       50
102
RTVSPost2010PropOp47
 70
     1
102
RTVSPost2010Prop48
 90
       50
102
RTVSPost2010PropOp48
 70
     1
102
RTVSPost2010Prop49
280
     0
102
RTVSPost2010PropOp49
 70
     1
102
RTVSPost2010Prop50
 90
       50
102
RTVSPost2010PropOp50
 70
     1
102
RTVSPost2010Prop51ColorIndex
 90
      256
102
RTVSPost2010Prop51ColorRGB
 90
-16777216
102
RTVSPost2010PropOp51
 70
     0
102
RTVSPost2010Prop52
140
1.0
102
RTVSPost2010PropOp52
 70
     0
102
RTVSPost2010Prop53
 90
        2
102
RTVSPost2010PropOp53
 70
     1
102
RTVSPost2010Prop54
  1
strokes_ogs.tif
102
RTVSPost2010PropOp54
 70
     1
102
RTVSPost2010Prop55
280
     0
102
RTVSPost2010PropOp55
 70
     1
102
RTVSPost2010Prop56
140
1.0
102
RTVSPost2010PropOp56
 70
     1
102
RTVSPost2010Prop57
140
1.0
102
RTVSPost2010PropOp57
 70
     1
102
RTVSPropertyOp0
 70
     1
102
RTVSPropertyOp1
 70
     1
102
RTVSPropertyOp2
 70
     1
102
RTVSPropertyOp3
 70
     1
102
RTVSPropertyOp4
 70
     1
102
RTVSPropertyOp5
 70
     1
102
RTVSPropertyOp6
 70
     1
102
RTVSPropertyOp7
 70
     1
102
RTVSPropertyOp8
 70
     1
102
RTVSPropertyOp9
 70
     1
102
RTVSPropertyOp10
 70
     1
102
RTVSPropertyOp11
 70
     1
102
RTVSPropertyOp12
 70
     1
102
RTVSPropertyOp13
 70
     1
102
RTVSPropertyOp14
 70
     1
102
RTVSPropertyOp15
 70
     1
102
RTVSPropertyOp16
 70
     1
102
RTVSPropertyOp17
 70
     1
102
RTVSPropertyOp18
 70
     1
102
RTVSPropertyOp19
 70
     1
102
RTVSPropertyOp20
 70
     1
102
RTVSPropertyOp21
 70
     1
102
RTVSPropertyOp22
 70
     1
102
RTVSPropertyOp23
 70
     1
102
RTVSPropertyOp24
 70
     1
102
RTVSPropertyOp25
 70
     1
102
RTVSPropertyOp26
 70
     1
102
RTVSPropertyOp27
 70
     1
102
RTVSPropertyOp28
 70
     1
102
RTVSPropertyOp29
 70
     1
102
RTVSPropertyOp30
 70
     1
102
RTVSPropertyOp31
 70
     1
102
RTVSPropertyOp32
 70
     1
102
RTVSPropertyOp33
 70
     1
102
RTVSPropertyOp34
 70
     1
102
RTVSPropertyOp35
 70
     1
102
RTVSPropertyOp36
 70
     1
102
RTVSPropertyOp37
 70
     1
102
RTVSPropertyOp38
 70
     1
102
RTVSPropertyOp39
 70
     1
102
RTVSPropertyOp40
 70
     1
102
RTVSPropertyOp41
 70
     1
102
RTVSPropertyOp42
 70
     1
102
RTVSPropertyOp43
 70
     1
102
RTVSPropertyOp44
 70
     1
102
RTVSPropertyOp45
 70
     1
102
RTVSPropertyOp46
 70
     1
102
RTVSPropertyOp47
 70
     1
102
RTVSPropertyOp48
 70
     1
102
RTVSPropertyOp49
 70
     1
102
RTVSPropertyOp50
 70
     1
102
RTVSPropertyOp51
 70
     0
102
RTVSPropertyOp52
 70
     0
102
RTVSPropertyOp53
 70
     1
102
RTVSPropertyOp54
 70
     1
102
RTVSPropertyOp55
 70
     1
102
RTVSPropertyOp56
 70
     1
102
RTVSPropertyOp57
 70
     1
102
RTVSPropertyOp58
 70
     1
102
RTVSPropertyOp59
 70
     1
102
RTVSPropertyOp60
 70
     1
102
RTVSPropertyOp61
 70
     1
102
RTVSPropertyOp62
 70
     1
  0
XRECORD
  5
4D27
102
{ACAD_REACTORS
330
4D26
102
}
330
4D26
100
AcDbXrecord
280
     1
102
RTVSPost2010Prop28
280
     0
102
RTVSPost2010PropOp28
 70
     1
102
RTVSPost2010Prop29
280
     1
102
RTVSPost2010PropOp29
 70
     1
102
RTVSPost2010Prop30
280
     1
102
RTVSPost2010PropOp30
 70
     1
102
RTVSPost2010Prop31
280
     0
102
RTVSPost2010PropOp31
 70
     1
102
RTVSPost2010Prop32
280
     0
102
RTVSPost2010PropOp32
 70
     1
102
RTVSPost2010Prop33
280
     0
102
RTVSPost2010PropOp33
 70
     1
102
RTVSPost2010Prop34
280
     0
102
RTVSPost2010PropOp34
 70
     1
102
RTVSPost2010Prop35
280
     0
102
RTVSPost2010PropOp35
 70
     1
102
RTVSPost2010Prop36
280
     0
102
RTVSPost2010PropOp36
 70
     1
102
RTVSPost2010Prop37
 90
       50
102
RTVSPost2010PropOp37
 70
     1
102
RTVSPost2010Prop38
140
0.0
102
RTVSPost2010PropOp38
 70
     1
102
RTVSPost2010Prop39
140
1.0
102
RTVSPost2010PropOp39
 70
     1
102
RTVSPost2010Prop40
 90
        0
102
RTVSPost2010PropOp40
 70
     1
102
RTVSPost2010Prop41ColorIndex
 90
       18
102
RTVSPost2010Prop41ColorRGB
 90
        0
102
RTVSPost2010PropOp41
 70
     1
102
RTVSPost2010Prop42
 90
       50
102
RTVSPost2010PropOp42
 70
     1
102
RTVSPost2010Prop43
 90
        3
102
RTVSPost2010PropOp43
 70
     1
102
RTVSPost2010Prop44ColorIndex
 90
        5
102
RTVSPost2010Prop44ColorRGB
 90
      255
102
RTVSPost2010PropOp44
 70
     1
102
RTVSPost2010Prop45
280
     0
102
RTVSPost2010PropOp45
 70
     1
102
RTVSPost2010Prop46
 90
       50
102
RTVSPost2010PropOp46
 70
     1
102
RTVSPost2010Prop47
 90
       50
102
RTVSPost2010PropOp47
 70
     1
102
RTVSPost2010Prop48
 90
       50
102
RTVSPost2010PropOp48
 70
     1
102
RTVSPost2010Prop49
280
     0
102
RTVSPost2010PropOp49
 70
     1
102
RTVSPost2010Prop50
 90
       50
102
RTVSPost2010PropOp50
 70
     1
102
RTVSPost2010Prop51ColorIndex
 90
      256
102
RTVSPost2010Prop51ColorRGB
 90
-16777216
102
RTVSPost2010PropOp51
 70
     0
102
RTVSPost2010Prop52
140
1.0
102
RTVSPost2010PropOp52
 70
     0
102
RTVSPost2010Prop53
 90
        2
102
RTVSPost2010PropOp53
 70
     1
102
RTVSPost2010Prop54
  1
strokes_ogs.tif
102
RTVSPost2010PropOp54
 70
     1
102
RTVSPost2010Prop55
280
     0
102
RTVSPost2010PropOp55
 70
     1
102
RTVSPost2010Prop56
140
1.0
102
RTVSPost2010PropOp56
 70
     1
102
RTVSPost2010Prop57
140
1.0
102
RTVSPost2010PropOp57
 70
     1
102
RTVSPropertyOp0
 70
     1
102
RTVSPropertyOp1
 70
     1
102
RTVSPropertyOp2
 70
     1
102
RTVSPropertyOp3
 70
     1
102
RTVSPropertyOp4
 70
     1
102
RTVSPropertyOp5
 70
     1
102
RTVSPropertyOp6
 70
     1
102
RTVSPropertyOp7
 70
     1
102
RTVSPropertyOp8
 70
     1
102
RTVSPropertyOp9
 70
     1
102
RTVSPropertyOp10
 70
     1
102
RTVSPropertyOp11
 70
     1
102
RTVSPropertyOp12
 70
     1
102
RTVSPropertyOp13
 70
     1
102
RTVSPropertyOp14
 70
     1
102
RTVSPropertyOp15
 70
     1
102
RTVSPropertyOp16
 70
     1
102
RTVSPropertyOp17
 70
     1
102
RTVSPropertyOp18
 70
     1
102
RTVSPropertyOp19
 70
     1
102
RTVSPropertyOp20
 70
     1
102
RTVSPropertyOp21
 70
     1
102
RTVSPropertyOp22
 70
     1
102
RTVSPropertyOp23
 70
     1
102
RTVSPropertyOp24
 70
     1
102
RTVSPropertyOp25
 70
     1
102
RTVSPropertyOp26
 70
     1
102
RTVSPropertyOp27
 70
     1
102
RTVSPropertyOp28
 70
     1
102
RTVSPropertyOp29
 70
     1
102
RTVSPropertyOp30
 70
     1
102
RTVSPropertyOp31
 70
     1
102
RTVSPropertyOp32
 70
     1
102
RTVSPropertyOp33
 70
     1
102
RTVSPropertyOp34
 70
     1
102
RTVSPropertyOp35
 70
     1
102
RTVSPropertyOp36
 70
     1
102
RTVSPropertyOp37
 70
     1
102
RTVSPropertyOp38
 70
     1
102
RTVSPropertyOp39
 70
     1
102
RTVSPropertyOp40
 70
     1
102
RTVSPropertyOp41
 70
     1
102
RTVSPropertyOp42
 70
     1
102
RTVSPropertyOp43
 70
     1
102
RTVSPropertyOp44
 70
     1
102
RTVSPropertyOp45
 70
     1
102
RTVSPropertyOp46
 70
     1
102
RTVSPropertyOp47
 70
     1
102
RTVSPropertyOp48
 70
     1
102
RTVSPropertyOp49
 70
     1
102
RTVSPropertyOp50
 70
     1
102
RTVSPropertyOp51
 70
     0
102
RTVSPropertyOp52
 70
     0
102
RTVSPropertyOp53
 70
     1
102
RTVSPropertyOp54
 70
     1
102
RTVSPropertyOp55
 70
     1
102
RTVSPropertyOp56
 70
     1
102
RTVSPropertyOp57
 70
     1
102
RTVSPropertyOp58
 70
     1
102
RTVSPropertyOp59
 70
     1
102
RTVSPropertyOp60
 70
     1
102
RTVSPropertyOp61
 70
     1
102
RTVSPropertyOp62
 70
     1
  0
XRECORD
  5
4D2B
102
{ACAD_REACTORS
330
4D2A
102
}
330
4D2A
100
AcDbXrecord
280
     1
102
RTVSPost2010Prop28
280
     0
102
RTVSPost2010PropOp28
 70
     1
102
RTVSPost2010Prop29
280
     1
102
RTVSPost2010PropOp29
 70
     1
102
RTVSPost2010Prop30
280
     1
102
RTVSPost2010PropOp30
 70
     1
102
RTVSPost2010Prop31
280
     0
102
RTVSPost2010PropOp31
 70
     1
102
RTVSPost2010Prop32
280
     0
102
RTVSPost2010PropOp32
 70
     1
102
RTVSPost2010Prop33
280
     0
102
RTVSPost2010PropOp33
 70
     1
102
RTVSPost2010Prop34
280
     0
102
RTVSPost2010PropOp34
 70
     1
102
RTVSPost2010Prop35
280
     0
102
RTVSPost2010PropOp35
 70
     1
102
RTVSPost2010Prop36
280
     0
102
RTVSPost2010PropOp36
 70
     1
102
RTVSPost2010Prop37
 90
       50
102
RTVSPost2010PropOp37
 70
     1
102
RTVSPost2010Prop38
140
0.0
102
RTVSPost2010PropOp38
 70
     1
102
RTVSPost2010Prop39
140
1.0
102
RTVSPost2010PropOp39
 70
     1
102
RTVSPost2010Prop40
 90
        0
102
RTVSPost2010PropOp40
 70
     1
102
RTVSPost2010Prop41ColorIndex
 90
       18
102
RTVSPost2010Prop41ColorRGB
 90
        0
102
RTVSPost2010PropOp41
 70
     1
102
RTVSPost2010Prop42
 90
       50
102
RTVSPost2010PropOp42
 70
     1
102
RTVSPost2010Prop43
 90
        3
102
RTVSPost2010PropOp43
 70
     1
102
RTVSPost2010Prop44ColorIndex
 90
        5
102
RTVSPost2010Prop44ColorRGB
 90
      255
102
RTVSPost2010PropOp44
 70
     1
102
RTVSPost2010Prop45
280
     0
102
RTVSPost2010PropOp45
 70
     1
102
RTVSPost2010Prop46
 90
       50
102
RTVSPost2010PropOp46
 70
     1
102
RTVSPost2010Prop47
 90
       50
102
RTVSPost2010PropOp47
 70
     1
102
RTVSPost2010Prop48
 90
       50
102
RTVSPost2010PropOp48
 70
     1
102
RTVSPost2010Prop49
280
     0
102
RTVSPost2010PropOp49
 70
     1
102
RTVSPost2010Prop50
 90
       50
102
RTVSPost2010PropOp50
 70
     1
102
RTVSPost2010Prop51ColorIndex
 90
      256
102
RTVSPost2010Prop51ColorRGB
 90
-16777216
102
RTVSPost2010PropOp51
 70
     0
102
RTVSPost2010Prop52
140
1.0
102
RTVSPost2010PropOp52
 70
     0
102
RTVSPost2010Prop53
 90
        2
102
RTVSPost2010PropOp53
 70
     1
102
RTVSPost2010Prop54
  1
strokes_ogs.tif
102
RTVSPost2010PropOp54
 70
     1
102
RTVSPost2010Prop55
280
     0
102
RTVSPost2010PropOp55
 70
     1
102
RTVSPost2010Prop56
140
1.0
102
RTVSPost2010PropOp56
 70
     1
102
RTVSPost2010Prop57
140
1.0
102
RTVSPost2010PropOp57
 70
     1
102
RTVSPropertyOp0
 70
     1
102
RTVSPropertyOp1
 70
     1
102
RTVSPropertyOp2
 70
     1
102
RTVSPropertyOp3
 70
     1
102
RTVSPropertyOp4
 70
     1
102
RTVSPropertyOp5
 70
     1
102
RTVSPropertyOp6
 70
     1
102
RTVSPropertyOp7
 70
     1
102
RTVSPropertyOp8
 70
     1
102
RTVSPropertyOp9
 70
     1
102
RTVSPropertyOp10
 70
     1
102
RTVSPropertyOp11
 70
     1
102
RTVSPropertyOp12
 70
     1
102
RTVSPropertyOp13
 70
     1
102
RTVSPropertyOp14
 70
     1
102
RTVSPropertyOp15
 70
     1
102
RTVSPropertyOp16
 70
     1
102
RTVSPropertyOp17
 70
     1
102
RTVSPropertyOp18
 70
     1
102
RTVSPropertyOp19
 70
     1
102
RTVSPropertyOp20
 70
     1
102
RTVSPropertyOp21
 70
     1
102
RTVSPropertyOp22
 70
     1
102
RTVSPropertyOp23
 70
     1
102
RTVSPropertyOp24
 70
     1
102
RTVSPropertyOp25
 70
     1
102
RTVSPropertyOp26
 70
     1
102
RTVSPropertyOp27
 70
     1
102
RTVSPropertyOp28
 70
     1
102
RTVSPropertyOp29
 70
     1
102
RTVSPropertyOp30
 70
     1
102
RTVSPropertyOp31
 70
     1
102
RTVSPropertyOp32
 70
     1
102
RTVSPropertyOp33
 70
     1
102
RTVSPropertyOp34
 70
     1
102
RTVSPropertyOp35
 70
     1
102
RTVSPropertyOp36
 70
     1
102
RTVSPropertyOp37
 70
     1
102
RTVSPropertyOp38
 70
     1
102
RTVSPropertyOp39
 70
     1
102
RTVSPropertyOp40
 70
     1
102
RTVSPropertyOp41
 70
     1
102
RTVSPropertyOp42
 70
     1
102
RTVSPropertyOp43
 70
     1
102
RTVSPropertyOp44
 70
     1
102
RTVSPropertyOp45
 70
     1
102
RTVSPropertyOp46
 70
     1
102
RTVSPropertyOp47
 70
     1
102
RTVSPropertyOp48
 70
     1
102
RTVSPropertyOp49
 70
     1
102
RTVSPropertyOp50
 70
     1
102
RTVSPropertyOp51
 70
     0
102
RTVSPropertyOp52
 70
     0
102
RTVSPropertyOp53
 70
     1
102
RTVSPropertyOp54
 70
     1
102
RTVSPropertyOp55
 70
     1
102
RTVSPropertyOp56
 70
     1
102
RTVSPropertyOp57
 70
     1
102
RTVSPropertyOp58
 70
     1
102
RTVSPropertyOp59
 70
     1
102
RTVSPropertyOp60
 70
     1
102
RTVSPropertyOp61
 70
     1
102
RTVSPropertyOp62
 70
     1
  0
XRECORD
  5
4D45
102
{ACAD_REACTORS
330
4D44
102
}
330
4D44
100
AcDbXrecord
280
     1
102
RTVSPost2010Prop28
280
     0
102
RTVSPost2010PropOp28
 70
     1
102
RTVSPost2010Prop29
280
     1
102
RTVSPost2010PropOp29
 70
     1
102
RTVSPost2010Prop30
280
     1
102
RTVSPost2010PropOp30
 70
     1
102
RTVSPost2010Prop31
280
     0
102
RTVSPost2010PropOp31
 70
     1
102
RTVSPost2010Prop32
280
     0
102
RTVSPost2010PropOp32
 70
     1
102
RTVSPost2010Prop33
280
     0
102
RTVSPost2010PropOp33
 70
     1
102
RTVSPost2010Prop34
280
     0
102
RTVSPost2010PropOp34
 70
     1
102
RTVSPost2010Prop35
280
     0
102
RTVSPost2010PropOp35
 70
     1
102
RTVSPost2010Prop36
280
     0
102
RTVSPost2010PropOp36
 70
     1
102
RTVSPost2010Prop37
 90
       50
102
RTVSPost2010PropOp37
 70
     0
102
RTVSPost2010Prop38
140
0.0
102
RTVSPost2010PropOp38
 70
     0
102
RTVSPost2010Prop39
140
1.0
102
RTVSPost2010PropOp39
 70
     0
102
RTVSPost2010Prop40
 90
        0
102
RTVSPost2010PropOp40
 70
     0
102
RTVSPost2010Prop41ColorIndex
 90
       18
102
RTVSPost2010Prop41ColorRGB
 90
        0
102
RTVSPost2010PropOp41
 70
     0
102
RTVSPost2010Prop42
 90
       50
102
RTVSPost2010PropOp42
 70
     0
102
RTVSPost2010Prop43
 90
        3
102
RTVSPost2010PropOp43
 70
     0
102
RTVSPost2010Prop44ColorIndex
 90
        5
102
RTVSPost2010Prop44ColorRGB
 90
      255
102
RTVSPost2010PropOp44
 70
     0
102
RTVSPost2010Prop45
280
     0
102
RTVSPost2010PropOp45
 70
     1
102
RTVSPost2010Prop46
 90
       50
102
RTVSPost2010PropOp46
 70
     0
102
RTVSPost2010Prop47
 90
       50
102
RTVSPost2010PropOp47
 70
     0
102
RTVSPost2010Prop48
 90
       50
102
RTVSPost2010PropOp48
 70
     0
102
RTVSPost2010Prop49
280
     0
102
RTVSPost2010PropOp49
 70
     1
102
RTVSPost2010Prop50
 90
       50
102
RTVSPost2010PropOp50
 70
     0
102
RTVSPost2010Prop51ColorIndex
 90
      256
102
RTVSPost2010Prop51ColorRGB
 90
-16777216
102
RTVSPost2010PropOp51
 70
     0
102
RTVSPost2010Prop52
140
1.0
102
RTVSPost2010PropOp52
 70
     0
102
RTVSPost2010Prop53
 90
        2
102
RTVSPost2010PropOp53
 70
     0
102
RTVSPost2010Prop54
  1
strokes_ogs.tif
102
RTVSPost2010PropOp54
 70
     0
102
RTVSPost2010Prop55
280
     0
102
RTVSPost2010PropOp55
 70
     1
102
RTVSPost2010Prop56
140
1.0
102
RTVSPost2010PropOp56
 70
     0
102
RTVSPost2010Prop57
140
1.0
102
RTVSPost2010PropOp57
 70
     0
102
RTVSPropertyOp0
 70
     0
102
RTVSPropertyOp1
 70
     0
102
RTVSPropertyOp2
 70
     0
102
RTVSPropertyOp3
 70
     0
102
RTVSPropertyOp4
 70
     0
102
RTVSPropertyOp5
 70
     0
102
RTVSPropertyOp6
 70
     0
102
RTVSPropertyOp7
 70
     0
102
RTVSPropertyOp8
 70
     0
102
RTVSPropertyOp9
 70
     0
102
RTVSPropertyOp10
 70
     0
102
RTVSPropertyOp11
 70
     0
102
RTVSPropertyOp12
 70
     0
102
RTVSPropertyOp13
 70
     0
102
RTVSPropertyOp14
 70
     2
102
RTVSPropertyOp15
 70
     0
102
RTVSPropertyOp16
 70
     0
102
RTVSPropertyOp17
 70
     0
102
RTVSPropertyOp18
 70
     0
102
RTVSPropertyOp19
 70
     0
102
RTVSPropertyOp20
 70
     0
102
RTVSPropertyOp21
 70
     0
102
RTVSPropertyOp22
 70
     0
102
RTVSPropertyOp23
 70
     0
102
RTVSPropertyOp24
 70
     0
102
RTVSPropertyOp25
 70
     0
102
RTVSPropertyOp26
 70
     0
102
RTVSPropertyOp27
 70
     0
102
RTVSPropertyOp28
 70
     1
102
RTVSPropertyOp29
 70
     1
102
RTVSPropertyOp30
 70
     1
102
RTVSPropertyOp31
 70
     1
102
RTVSPropertyOp32
 70
     1
102
RTVSPropertyOp33
 70
     1
102
RTVSPropertyOp34
 70
     1
102
RTVSPropertyOp35
 70
     1
102
RTVSPropertyOp36
 70
     1
102
RTVSPropertyOp37
 70
     0
102
RTVSPropertyOp38
 70
     0
102
RTVSPropertyOp39
 70
     0
102
RTVSPropertyOp40
 70
     0
102
RTVSPropertyOp41
 70
     0
102
RTVSPropertyOp42
 70
     0
102
RTVSPropertyOp43
 70
     0
102
RTVSPropertyOp44
 70
     0
102
RTVSPropertyOp45
 70
     1
102
RTVSPropertyOp46
 70
     0
102
RTVSPropertyOp47
 70
     0
102
RTVSPropertyOp48
 70
     0
102
RTVSPropertyOp49
 70
     1
102
RTVSPropertyOp50
 70
     0
102
RTVSPropertyOp51
 70
     0
102
RTVSPropertyOp52
 70
     0
102
RTVSPropertyOp53
 70
     0
102
RTVSPropertyOp54
 70
     0
102
RTVSPropertyOp55
 70
     1
102
RTVSPropertyOp56
 70
     0
102
RTVSPropertyOp57
 70
     0
102
RTVSPropertyOp58
 70
     0
102
RTVSPropertyOp59
 70
     0
102
RTVSPropertyOp60
 70
     0
102
RTVSPropertyOp61
 70
     0
102
RTVSPropertyOp62
 70
     0
  0
XRECORD
  5
4D33
102
{ACAD_REACTORS
330
4D32
102
}
330
4D32
100
AcDbXrecord
280
     1
102
RTVSPost2010Prop28
280
     0
102
RTVSPost2010PropOp28
 70
     1
102
RTVSPost2010Prop29
280
     1
102
RTVSPost2010PropOp29
 70
     1
102
RTVSPost2010Prop30
280
     1
102
RTVSPost2010PropOp30
 70
     1
102
RTVSPost2010Prop31
280
     0
102
RTVSPost2010PropOp31
 70
     1
102
RTVSPost2010Prop32
280
     0
102
RTVSPost2010PropOp32
 70
     1
102
RTVSPost2010Prop33
280
     0
102
RTVSPost2010PropOp33
 70
     1
102
RTVSPost2010Prop34
280
     0
102
RTVSPost2010PropOp34
 70
     1
102
RTVSPost2010Prop35
280
     0
102
RTVSPost2010PropOp35
 70
     1
102
RTVSPost2010Prop36
280
     0
102
RTVSPost2010PropOp36
 70
     1
102
RTVSPost2010Prop37
 90
       50
102
RTVSPost2010PropOp37
 70
     1
102
RTVSPost2010Prop38
140
0.0
102
RTVSPost2010PropOp38
 70
     1
102
RTVSPost2010Prop39
140
1.0
102
RTVSPost2010PropOp39
 70
     1
102
RTVSPost2010Prop40
 90
        0
102
RTVSPost2010PropOp40
 70
     1
102
RTVSPost2010Prop41ColorIndex
 90
       18
102
RTVSPost2010Prop41ColorRGB
 90
        0
102
RTVSPost2010PropOp41
 70
     1
102
RTVSPost2010Prop42
 90
       50
102
RTVSPost2010PropOp42
 70
     1
102
RTVSPost2010Prop43
 90
        3
102
RTVSPost2010PropOp43
 70
     1
102
RTVSPost2010Prop44ColorIndex
 90
        5
102
RTVSPost2010Prop44ColorRGB
 90
      255
102
RTVSPost2010PropOp44
 70
     1
102
RTVSPost2010Prop45
280
     0
102
RTVSPost2010PropOp45
 70
     1
102
RTVSPost2010Prop46
 90
       50
102
RTVSPost2010PropOp46
 70
     1
102
RTVSPost2010Prop47
 90
       50
102
RTVSPost2010PropOp47
 70
     1
102
RTVSPost2010Prop48
 90
       50
102
RTVSPost2010PropOp48
 70
     1
102
RTVSPost2010Prop49
280
     0
102
RTVSPost2010PropOp49
 70
     1
102
RTVSPost2010Prop50
 90
       50
102
RTVSPost2010PropOp50
 70
     1
102
RTVSPost2010Prop51ColorIndex
 90
      256
102
RTVSPost2010Prop51ColorRGB
 90
-16777216
102
RTVSPost2010PropOp51
 70
     0
102
RTVSPost2010Prop52
140
1.0
102
RTVSPost2010PropOp52
 70
     0
102
RTVSPost2010Prop53
 90
        2
102
RTVSPost2010PropOp53
 70
     1
102
RTVSPost2010Prop54
  1
strokes_ogs.tif
102
RTVSPost2010PropOp54
 70
     1
102
RTVSPost2010Prop55
280
     0
102
RTVSPost2010PropOp55
 70
     1
102
RTVSPost2010Prop56
140
1.0
102
RTVSPost2010PropOp56
 70
     1
102
RTVSPost2010Prop57
140
1.0
102
RTVSPost2010PropOp57
 70
     1
102
RTVSPropertyOp0
 70
     1
102
RTVSPropertyOp1
 70
     1
102
RTVSPropertyOp2
 70
     1
102
RTVSPropertyOp3
 70
     1
102
RTVSPropertyOp4
 70
     1
102
RTVSPropertyOp5
 70
     1
102
RTVSPropertyOp6
 70
     1
102
RTVSPropertyOp7
 70
     1
102
RTVSPropertyOp8
 70
     1
102
RTVSPropertyOp9
 70
     1
102
RTVSPropertyOp10
 70
     1
102
RTVSPropertyOp11
 70
     1
102
RTVSPropertyOp12
 70
     1
102
RTVSPropertyOp13
 70
     1
102
RTVSPropertyOp14
 70
     1
102
RTVSPropertyOp15
 70
     1
102
RTVSPropertyOp16
 70
     1
102
RTVSPropertyOp17
 70
     1
102
RTVSPropertyOp18
 70
     1
102
RTVSPropertyOp19
 70
     1
102
RTVSPropertyOp20
 70
     1
102
RTVSPropertyOp21
 70
     1
102
RTVSPropertyOp22
 70
     1
102
RTVSPropertyOp23
 70
     1
102
RTVSPropertyOp24
 70
     1
102
RTVSPropertyOp25
 70
     1
102
RTVSPropertyOp26
 70
     1
102
RTVSPropertyOp27
 70
     1
102
RTVSPropertyOp28
 70
     1
102
RTVSPropertyOp29
 70
     1
102
RTVSPropertyOp30
 70
     1
102
RTVSPropertyOp31
 70
     1
102
RTVSPropertyOp32
 70
     1
102
RTVSPropertyOp33
 70
     1
102
RTVSPropertyOp34
 70
     1
102
RTVSPropertyOp35
 70
     1
102
RTVSPropertyOp36
 70
     1
102
RTVSPropertyOp37
 70
     1
102
RTVSPropertyOp38
 70
     1
102
RTVSPropertyOp39
 70
     1
102
RTVSPropertyOp40
 70
     1
102
RTVSPropertyOp41
 70
     1
102
RTVSPropertyOp42
 70
     1
102
RTVSPropertyOp43
 70
     1
102
RTVSPropertyOp44
 70
     1
102
RTVSPropertyOp45
 70
     1
102
RTVSPropertyOp46
 70
     1
102
RTVSPropertyOp47
 70
     1
102
RTVSPropertyOp48
 70
     1
102
RTVSPropertyOp49
 70
     1
102
RTVSPropertyOp50
 70
     1
102
RTVSPropertyOp51
 70
     0
102
RTVSPropertyOp52
 70
     0
102
RTVSPropertyOp53
 70
     1
102
RTVSPropertyOp54
 70
     1
102
RTVSPropertyOp55
 70
     1
102
RTVSPropertyOp56
 70
     1
102
RTVSPropertyOp57
 70
     1
102
RTVSPropertyOp58
 70
     1
102
RTVSPropertyOp59
 70
     1
102
RTVSPropertyOp60
 70
     1
102
RTVSPropertyOp61
 70
     1
102
RTVSPropertyOp62
 70
     1
  0
XRECORD
  5
4D17
102
{ACAD_REACTORS
330
4D16
102
}
330
4D16
100
AcDbXrecord
280
     1
102
RTVSPost2010Prop28
280
     0
102
RTVSPost2010PropOp28
 70
     1
102
RTVSPost2010Prop29
280
     1
102
RTVSPost2010PropOp29
 70
     1
102
RTVSPost2010Prop30
280
     1
102
RTVSPost2010PropOp30
 70
     1
102
RTVSPost2010Prop31
280
     0
102
RTVSPost2010PropOp31
 70
     1
102
RTVSPost2010Prop32
280
     0
102
RTVSPost2010PropOp32
 70
     1
102
RTVSPost2010Prop33
280
     0
102
RTVSPost2010PropOp33
 70
     1
102
RTVSPost2010Prop34
280
     0
102
RTVSPost2010PropOp34
 70
     1
102
RTVSPost2010Prop35
280
     0
102
RTVSPost2010PropOp35
 70
     1
102
RTVSPost2010Prop36
280
     0
102
RTVSPost2010PropOp36
 70
     1
102
RTVSPost2010Prop37
 90
       50
102
RTVSPost2010PropOp37
 70
     1
102
RTVSPost2010Prop38
140
0.0
102
RTVSPost2010PropOp38
 70
     1
102
RTVSPost2010Prop39
140
1.0
102
RTVSPost2010PropOp39
 70
     1
102
RTVSPost2010Prop40
 90
        0
102
RTVSPost2010PropOp40
 70
     1
102
RTVSPost2010Prop41ColorIndex
 90
       18
102
RTVSPost2010Prop41ColorRGB
 90
        0
102
RTVSPost2010PropOp41
 70
     1
102
RTVSPost2010Prop42
 90
       50
102
RTVSPost2010PropOp42
 70
     1
102
RTVSPost2010Prop43
 90
        3
102
RTVSPost2010PropOp43
 70
     1
102
RTVSPost2010Prop44ColorIndex
 90
        5
102
RTVSPost2010Prop44ColorRGB
 90
      255
102
RTVSPost2010PropOp44
 70
     1
102
RTVSPost2010Prop45
280
     0
102
RTVSPost2010PropOp45
 70
     1
102
RTVSPost2010Prop46
 90
       50
102
RTVSPost2010PropOp46
 70
     1
102
RTVSPost2010Prop47
 90
       50
102
RTVSPost2010PropOp47
 70
     1
102
RTVSPost2010Prop48
 90
       50
102
RTVSPost2010PropOp48
 70
     1
102
RTVSPost2010Prop49
280
     0
102
RTVSPost2010PropOp49
 70
     1
102
RTVSPost2010Prop50
 90
       50
102
RTVSPost2010PropOp50
 70
     1
102
RTVSPost2010Prop51ColorIndex
 90
      256
102
RTVSPost2010Prop51ColorRGB
 90
-16777216
102
RTVSPost2010PropOp51
 70
     0
102
RTVSPost2010Prop52
140
1.0
102
RTVSPost2010PropOp52
 70
     0
102
RTVSPost2010Prop53
 90
        2
102
RTVSPost2010PropOp53
 70
     1
102
RTVSPost2010Prop54
  1
strokes_ogs.tif
102
RTVSPost2010PropOp54
 70
     1
102
RTVSPost2010Prop55
280
     0
102
RTVSPost2010PropOp55
 70
     1
102
RTVSPost2010Prop56
140
1.0
102
RTVSPost2010PropOp56
 70
     1
102
RTVSPost2010Prop57
140
1.0
102
RTVSPost2010PropOp57
 70
     1
102
RTVSPropertyOp0
 70
     1
102
RTVSPropertyOp1
 70
     1
102
RTVSPropertyOp2
 70
     1
102
RTVSPropertyOp3
 70
     1
102
RTVSPropertyOp4
 70
     1
102
RTVSPropertyOp5
 70
     1
102
RTVSPropertyOp6
 70
     1
102
RTVSPropertyOp7
 70
     1
102
RTVSPropertyOp8
 70
     1
102
RTVSPropertyOp9
 70
     1
102
RTVSPropertyOp10
 70
     1
102
RTVSPropertyOp11
 70
     1
102
RTVSPropertyOp12
 70
     1
102
RTVSPropertyOp13
 70
     1
102
RTVSPropertyOp14
 70
     1
102
RTVSPropertyOp15
 70
     1
102
RTVSPropertyOp16
 70
     1
102
RTVSPropertyOp17
 70
     1
102
RTVSPropertyOp18
 70
     1
102
RTVSPropertyOp19
 70
     1
102
RTVSPropertyOp20
 70
     1
102
RTVSPropertyOp21
 70
     1
102
RTVSPropertyOp22
 70
     1
102
RTVSPropertyOp23
 70
     1
102
RTVSPropertyOp24
 70
     1
102
RTVSPropertyOp25
 70
     1
102
RTVSPropertyOp26
 70
     1
102
RTVSPropertyOp27
 70
     1
102
RTVSPropertyOp28
 70
     1
102
RTVSPropertyOp29
 70
     1
102
RTVSPropertyOp30
 70
     1
102
RTVSPropertyOp31
 70
     1
102
RTVSPropertyOp32
 70
     1
102
RTVSPropertyOp33
 70
     1
102
RTVSPropertyOp34
 70
     1
102
RTVSPropertyOp35
 70
     1
102
RTVSPropertyOp36
 70
     1
102
RTVSPropertyOp37
 70
     1
102
RTVSPropertyOp38
 70
     1
102
RTVSPropertyOp39
 70
     1
102
RTVSPropertyOp40
 70
     1
102
RTVSPropertyOp41
 70
     1
102
RTVSPropertyOp42
 70
     1
102
RTVSPropertyOp43
 70
     1
102
RTVSPropertyOp44
 70
     1
102
RTVSPropertyOp45
 70
     1
102
RTVSPropertyOp46
 70
     1
102
RTVSPropertyOp47
 70
     1
102
RTVSPropertyOp48
 70
     1
102
RTVSPropertyOp49
 70
     1
102
RTVSPropertyOp50
 70
     1
102
RTVSPropertyOp51
 70
     0
102
RTVSPropertyOp52
 70
     0
102
RTVSPropertyOp53
 70
     1
102
RTVSPropertyOp54
 70
     1
102
RTVSPropertyOp55
 70
     1
102
RTVSPropertyOp56
 70
     1
102
RTVSPropertyOp57
 70
     1
102
RTVSPropertyOp58
 70
     1
102
RTVSPropertyOp59
 70
     1
102
RTVSPropertyOp60
 70
     1
102
RTVSPropertyOp61
 70
     1
102
RTVSPropertyOp62
 70
     1
  0
XRECORD
  5
4D19
102
{ACAD_REACTORS
330
4D18
102
}
330
4D18
100
AcDbXrecord
280
     1
102
RTVSPost2010Prop28
280
     0
102
RTVSPost2010PropOp28
 70
     1
102
RTVSPost2010Prop29
280
     1
102
RTVSPost2010PropOp29
 70
     1
102
RTVSPost2010Prop30
280
     1
102
RTVSPost2010PropOp30
 70
     1
102
RTVSPost2010Prop31
280
     0
102
RTVSPost2010PropOp31
 70
     1
102
RTVSPost2010Prop32
280
     0
102
RTVSPost2010PropOp32
 70
     1
102
RTVSPost2010Prop33
280
     0
102
RTVSPost2010PropOp33
 70
     1
102
RTVSPost2010Prop34
280
     0
102
RTVSPost2010PropOp34
 70
     1
102
RTVSPost2010Prop35
280
     0
102
RTVSPost2010PropOp35
 70
     1
102
RTVSPost2010Prop36
280
     0
102
RTVSPost2010PropOp36
 70
     1
102
RTVSPost2010Prop37
 90
       50
102
RTVSPost2010PropOp37
 70
     1
102
RTVSPost2010Prop38
140
0.0
102
RTVSPost2010PropOp38
 70
     1
102
RTVSPost2010Prop39
140
1.0
102
RTVSPost2010PropOp39
 70
     1
102
RTVSPost2010Prop40
 90
        0
102
RTVSPost2010PropOp40
 70
     1
102
RTVSPost2010Prop41ColorIndex
 90
       18
102
RTVSPost2010Prop41ColorRGB
 90
        0
102
RTVSPost2010PropOp41
 70
     1
102
RTVSPost2010Prop42
 90
       50
102
RTVSPost2010PropOp42
 70
     1
102
RTVSPost2010Prop43
 90
        3
102
RTVSPost2010PropOp43
 70
     1
102
RTVSPost2010Prop44ColorIndex
 90
        5
102
RTVSPost2010Prop44ColorRGB
 90
      255
102
RTVSPost2010PropOp44
 70
     1
102
RTVSPost2010Prop45
280
     0
102
RTVSPost2010PropOp45
 70
     1
102
RTVSPost2010Prop46
 90
       50
102
RTVSPost2010PropOp46
 70
     1
102
RTVSPost2010Prop47
 90
       50
102
RTVSPost2010PropOp47
 70
     1
102
RTVSPost2010Prop48
 90
       50
102
RTVSPost2010PropOp48
 70
     1
102
RTVSPost2010Prop49
280
     0
102
RTVSPost2010PropOp49
 70
     1
102
RTVSPost2010Prop50
 90
       50
102
RTVSPost2010PropOp50
 70
     1
102
RTVSPost2010Prop51ColorIndex
 90
      256
102
RTVSPost2010Prop51ColorRGB
 90
-16777216
102
RTVSPost2010PropOp51
 70
     0
102
RTVSPost2010Prop52
140
1.0
102
RTVSPost2010PropOp52
 70
     0
102
RTVSPost2010Prop53
 90
        2
102
RTVSPost2010PropOp53
 70
     1
102
RTVSPost2010Prop54
  1
strokes_ogs.tif
102
RTVSPost2010PropOp54
 70
     1
102
RTVSPost2010Prop55
280
     0
102
RTVSPost2010PropOp55
 70
     1
102
RTVSPost2010Prop56
140
1.0
102
RTVSPost2010PropOp56
 70
     1
102
RTVSPost2010Prop57
140
1.0
102
RTVSPost2010PropOp57
 70
     1
102
RTVSPropertyOp0
 70
     1
102
RTVSPropertyOp1
 70
     1
102
RTVSPropertyOp2
 70
     1
102
RTVSPropertyOp3
 70
     1
102
RTVSPropertyOp4
 70
     1
102
RTVSPropertyOp5
 70
     1
102
RTVSPropertyOp6
 70
     1
102
RTVSPropertyOp7
 70
     1
102
RTVSPropertyOp8
 70
     1
102
RTVSPropertyOp9
 70
     1
102
RTVSPropertyOp10
 70
     1
102
RTVSPropertyOp11
 70
     1
102
RTVSPropertyOp12
 70
     1
102
RTVSPropertyOp13
 70
     1
102
RTVSPropertyOp14
 70
     1
102
RTVSPropertyOp15
 70
     1
102
RTVSPropertyOp16
 70
     1
102
RTVSPropertyOp17
 70
     1
102
RTVSPropertyOp18
 70
     1
102
RTVSPropertyOp19
 70
     1
102
RTVSPropertyOp20
 70
     1
102
RTVSPropertyOp21
 70
     1
102
RTVSPropertyOp22
 70
     1
102
RTVSPropertyOp23
 70
     1
102
RTVSPropertyOp24
 70
     1
102
RTVSPropertyOp25
 70
     1
102
RTVSPropertyOp26
 70
     1
102
RTVSPropertyOp27
 70
     1
102
RTVSPropertyOp28
 70
     1
102
RTVSPropertyOp29
 70
     1
102
RTVSPropertyOp30
 70
     1
102
RTVSPropertyOp31
 70
     1
102
RTVSPropertyOp32
 70
     1
102
RTVSPropertyOp33
 70
     1
102
RTVSPropertyOp34
 70
     1
102
RTVSPropertyOp35
 70
     1
102
RTVSPropertyOp36
 70
     1
102
RTVSPropertyOp37
 70
     1
102
RTVSPropertyOp38
 70
     1
102
RTVSPropertyOp39
 70
     1
102
RTVSPropertyOp40
 70
     1
102
RTVSPropertyOp41
 70
     1
102
RTVSPropertyOp42
 70
     1
102
RTVSPropertyOp43
 70
     1
102
RTVSPropertyOp44
 70
     1
102
RTVSPropertyOp45
 70
     1
102
RTVSPropertyOp46
 70
     1
102
RTVSPropertyOp47
 70
     1
102
RTVSPropertyOp48
 70
     1
102
RTVSPropertyOp49
 70
     1
102
RTVSPropertyOp50
 70
     1
102
RTVSPropertyOp51
 70
     0
102
RTVSPropertyOp52
 70
     0
102
RTVSPropertyOp53
 70
     1
102
RTVSPropertyOp54
 70
     1
102
RTVSPropertyOp55
 70
     1
102
RTVSPropertyOp56
 70
     1
102
RTVSPropertyOp57
 70
     1
102
RTVSPropertyOp58
 70
     1
102
RTVSPropertyOp59
 70
     1
102
RTVSPropertyOp60
 70
     1
102
RTVSPropertyOp61
 70
     1
102
RTVSPropertyOp62
 70
     1
  0
XRECORD
  5
4D1B
102
{ACAD_REACTORS
330
4D1A
102
}
330
4D1A
100
AcDbXrecord
280
     1
102
RTVSPost2010Prop28
280
     0
102
RTVSPost2010PropOp28
 70
     1
102
RTVSPost2010Prop29
280
     1
102
RTVSPost2010PropOp29
 70
     1
102
RTVSPost2010Prop30
280
     1
102
RTVSPost2010PropOp30
 70
     1
102
RTVSPost2010Prop31
280
     0
102
RTVSPost2010PropOp31
 70
     1
102
RTVSPost2010Prop32
280
     0
102
RTVSPost2010PropOp32
 70
     1
102
RTVSPost2010Prop33
280
     0
102
RTVSPost2010PropOp33
 70
     1
102
RTVSPost2010Prop34
280
     0
102
RTVSPost2010PropOp34
 70
     1
102
RTVSPost2010Prop35
280
     0
102
RTVSPost2010PropOp35
 70
     1
102
RTVSPost2010Prop36
280
     0
102
RTVSPost2010PropOp36
 70
     1
102
RTVSPost2010Prop37
 90
       50
102
RTVSPost2010PropOp37
 70
     1
102
RTVSPost2010Prop38
140
0.0
102
RTVSPost2010PropOp38
 70
     1
102
RTVSPost2010Prop39
140
1.0
102
RTVSPost2010PropOp39
 70
     1
102
RTVSPost2010Prop40
 90
        0
102
RTVSPost2010PropOp40
 70
     1
102
RTVSPost2010Prop41ColorIndex
 90
       18
102
RTVSPost2010Prop41ColorRGB
 90
        0
102
RTVSPost2010PropOp41
 70
     1
102
RTVSPost2010Prop42
 90
       50
102
RTVSPost2010PropOp42
 70
     1
102
RTVSPost2010Prop43
 90
        3
102
RTVSPost2010PropOp43
 70
     1
102
RTVSPost2010Prop44ColorIndex
 90
        5
102
RTVSPost2010Prop44ColorRGB
 90
      255
102
RTVSPost2010PropOp44
 70
     1
102
RTVSPost2010Prop45
280
     0
102
RTVSPost2010PropOp45
 70
     1
102
RTVSPost2010Prop46
 90
       50
102
RTVSPost2010PropOp46
 70
     1
102
RTVSPost2010Prop47
 90
       50
102
RTVSPost2010PropOp47
 70
     1
102
RTVSPost2010Prop48
 90
       50
102
RTVSPost2010PropOp48
 70
     1
102
RTVSPost2010Prop49
280
     0
102
RTVSPost2010PropOp49
 70
     1
102
RTVSPost2010Prop50
 90
       50
102
RTVSPost2010PropOp50
 70
     1
102
RTVSPost2010Prop51ColorIndex
 90
      256
102
RTVSPost2010Prop51ColorRGB
 90
-16777216
102
RTVSPost2010PropOp51
 70
     0
102
RTVSPost2010Prop52
140
1.0
102
RTVSPost2010PropOp52
 70
     0
102
RTVSPost2010Prop53
 90
        2
102
RTVSPost2010PropOp53
 70
     1
102
RTVSPost2010Prop54
  1
strokes_ogs.tif
102
RTVSPost2010PropOp54
 70
     1
102
RTVSPost2010Prop55
280
     0
102
RTVSPost2010PropOp55
 70
     1
102
RTVSPost2010Prop56
140
1.0
102
RTVSPost2010PropOp56
 70
     1
102
RTVSPost2010Prop57
140
1.0
102
RTVSPost2010PropOp57
 70
     1
102
RTVSPropertyOp0
 70
     1
102
RTVSPropertyOp1
 70
     1
102
RTVSPropertyOp2
 70
     1
102
RTVSPropertyOp3
 70
     1
102
RTVSPropertyOp4
 70
     1
102
RTVSPropertyOp5
 70
     1
102
RTVSPropertyOp6
 70
     1
102
RTVSPropertyOp7
 70
     1
102
RTVSPropertyOp8
 70
     1
102
RTVSPropertyOp9
 70
     1
102
RTVSPropertyOp10
 70
     1
102
RTVSPropertyOp11
 70
     1
102
RTVSPropertyOp12
 70
     1
102
RTVSPropertyOp13
 70
     1
102
RTVSPropertyOp14
 70
     1
102
RTVSPropertyOp15
 70
     1
102
RTVSPropertyOp16
 70
     1
102
RTVSPropertyOp17
 70
     1
102
RTVSPropertyOp18
 70
     1
102
RTVSPropertyOp19
 70
     1
102
RTVSPropertyOp20
 70
     1
102
RTVSPropertyOp21
 70
     1
102
RTVSPropertyOp22
 70
     1
102
RTVSPropertyOp23
 70
     1
102
RTVSPropertyOp24
 70
     1
102
RTVSPropertyOp25
 70
     1
102
RTVSPropertyOp26
 70
     1
102
RTVSPropertyOp27
 70
     1
102
RTVSPropertyOp28
 70
     1
102
RTVSPropertyOp29
 70
     1
102
RTVSPropertyOp30
 70
     1
102
RTVSPropertyOp31
 70
     1
102
RTVSPropertyOp32
 70
     1
102
RTVSPropertyOp33
 70
     1
102
RTVSPropertyOp34
 70
     1
102
RTVSPropertyOp35
 70
     1
102
RTVSPropertyOp36
 70
     1
102
RTVSPropertyOp37
 70
     1
102
RTVSPropertyOp38
 70
     1
102
RTVSPropertyOp39
 70
     1
102
RTVSPropertyOp40
 70
     1
102
RTVSPropertyOp41
 70
     1
102
RTVSPropertyOp42
 70
     1
102
RTVSPropertyOp43
 70
     1
102
RTVSPropertyOp44
 70
     1
102
RTVSPropertyOp45
 70
     1
102
RTVSPropertyOp46
 70
     1
102
RTVSPropertyOp47
 70
     1
102
RTVSPropertyOp48
 70
     1
102
RTVSPropertyOp49
 70
     1
102
RTVSPropertyOp50
 70
     1
102
RTVSPropertyOp51
 70
     0
102
RTVSPropertyOp52
 70
     0
102
RTVSPropertyOp53
 70
     1
102
RTVSPropertyOp54
 70
     1
102
RTVSPropertyOp55
 70
     1
102
RTVSPropertyOp56
 70
     1
102
RTVSPropertyOp57
 70
     1
102
RTVSPropertyOp58
 70
     1
102
RTVSPropertyOp59
 70
     1
102
RTVSPropertyOp60
 70
     1
102
RTVSPropertyOp61
 70
     1
102
RTVSPropertyOp62
 70
     1
  0
XRECORD
  5
4D1D
102
{ACAD_REACTORS
330
4D1C
102
}
330
4D1C
100
AcDbXrecord
280
     1
102
RTVSPost2010Prop28
280
     0
102
RTVSPost2010PropOp28
 70
     1
102
RTVSPost2010Prop29
280
     1
102
RTVSPost2010PropOp29
 70
     1
102
RTVSPost2010Prop30
280
     1
102
RTVSPost2010PropOp30
 70
     1
102
RTVSPost2010Prop31
280
     0
102
RTVSPost2010PropOp31
 70
     1
102
RTVSPost2010Prop32
280
     0
102
RTVSPost2010PropOp32
 70
     1
102
RTVSPost2010Prop33
280
     0
102
RTVSPost2010PropOp33
 70
     1
102
RTVSPost2010Prop34
280
     0
102
RTVSPost2010PropOp34
 70
     1
102
RTVSPost2010Prop35
280
     0
102
RTVSPost2010PropOp35
 70
     1
102
RTVSPost2010Prop36
280
     0
102
RTVSPost2010PropOp36
 70
     1
102
RTVSPost2010Prop37
 90
       50
102
RTVSPost2010PropOp37
 70
     1
102
RTVSPost2010Prop38
140
0.0
102
RTVSPost2010PropOp38
 70
     1
102
RTVSPost2010Prop39
140
1.0
102
RTVSPost2010PropOp39
 70
     1
102
RTVSPost2010Prop40
 90
        0
102
RTVSPost2010PropOp40
 70
     1
102
RTVSPost2010Prop41ColorIndex
 90
       18
102
RTVSPost2010Prop41ColorRGB
 90
        0
102
RTVSPost2010PropOp41
 70
     1
102
RTVSPost2010Prop42
 90
       50
102
RTVSPost2010PropOp42
 70
     1
102
RTVSPost2010Prop43
 90
        3
102
RTVSPost2010PropOp43
 70
     1
102
RTVSPost2010Prop44ColorIndex
 90
        5
102
RTVSPost2010Prop44ColorRGB
 90
      255
102
RTVSPost2010PropOp44
 70
     1
102
RTVSPost2010Prop45
280
     0
102
RTVSPost2010PropOp45
 70
     1
102
RTVSPost2010Prop46
 90
       50
102
RTVSPost2010PropOp46
 70
     1
102
RTVSPost2010Prop47
 90
       50
102
RTVSPost2010PropOp47
 70
     1
102
RTVSPost2010Prop48
 90
       50
102
RTVSPost2010PropOp48
 70
     1
102
RTVSPost2010Prop49
280
     0
102
RTVSPost2010PropOp49
 70
     1
102
RTVSPost2010Prop50
 90
       50
102
RTVSPost2010PropOp50
 70
     1
102
RTVSPost2010Prop51ColorIndex
 90
      256
102
RTVSPost2010Prop51ColorRGB
 90
-16777216
102
RTVSPost2010PropOp51
 70
     0
102
RTVSPost2010Prop52
140
1.0
102
RTVSPost2010PropOp52
 70
     0
102
RTVSPost2010Prop53
 90
        2
102
RTVSPost2010PropOp53
 70
     1
102
RTVSPost2010Prop54
  1
strokes_ogs.tif
102
RTVSPost2010PropOp54
 70
     1
102
RTVSPost2010Prop55
280
     0
102
RTVSPost2010PropOp55
 70
     1
102
RTVSPost2010Prop56
140
1.0
102
RTVSPost2010PropOp56
 70
     1
102
RTVSPost2010Prop57
140
1.0
102
RTVSPost2010PropOp57
 70
     1
102
RTVSPropertyOp0
 70
     1
102
RTVSPropertyOp1
 70
     1
102
RTVSPropertyOp2
 70
     1
102
RTVSPropertyOp3
 70
     1
102
RTVSPropertyOp4
 70
     1
102
RTVSPropertyOp5
 70
     1
102
RTVSPropertyOp6
 70
     1
102
RTVSPropertyOp7
 70
     1
102
RTVSPropertyOp8
 70
     1
102
RTVSPropertyOp9
 70
     1
102
RTVSPropertyOp10
 70
     1
102
RTVSPropertyOp11
 70
     1
102
RTVSPropertyOp12
 70
     1
102
RTVSPropertyOp13
 70
     1
102
RTVSPropertyOp14
 70
     1
102
RTVSPropertyOp15
 70
     1
102
RTVSPropertyOp16
 70
     1
102
RTVSPropertyOp17
 70
     1
102
RTVSPropertyOp18
 70
     1
102
RTVSPropertyOp19
 70
     1
102
RTVSPropertyOp20
 70
     1
102
RTVSPropertyOp21
 70
     1
102
RTVSPropertyOp22
 70
     1
102
RTVSPropertyOp23
 70
     1
102
RTVSPropertyOp24
 70
     1
102
RTVSPropertyOp25
 70
     1
102
RTVSPropertyOp26
 70
     1
102
RTVSPropertyOp27
 70
     1
102
RTVSPropertyOp28
 70
     1
102
RTVSPropertyOp29
 70
     1
102
RTVSPropertyOp30
 70
     1
102
RTVSPropertyOp31
 70
     1
102
RTVSPropertyOp32
 70
     1
102
RTVSPropertyOp33
 70
     1
102
RTVSPropertyOp34
 70
     1
102
RTVSPropertyOp35
 70
     1
102
RTVSPropertyOp36
 70
     1
102
RTVSPropertyOp37
 70
     1
102
RTVSPropertyOp38
 70
     1
102
RTVSPropertyOp39
 70
     1
102
RTVSPropertyOp40
 70
     1
102
RTVSPropertyOp41
 70
     1
102
RTVSPropertyOp42
 70
     1
102
RTVSPropertyOp43
 70
     1
102
RTVSPropertyOp44
 70
     1
102
RTVSPropertyOp45
 70
     1
102
RTVSPropertyOp46
 70
     1
102
RTVSPropertyOp47
 70
     1
102
RTVSPropertyOp48
 70
     1
102
RTVSPropertyOp49
 70
     1
102
RTVSPropertyOp50
 70
     1
102
RTVSPropertyOp51
 70
     0
102
RTVSPropertyOp52
 70
     0
102
RTVSPropertyOp53
 70
     1
102
RTVSPropertyOp54
 70
     1
102
RTVSPropertyOp55
 70
     1
102
RTVSPropertyOp56
 70
     1
102
RTVSPropertyOp57
 70
     1
102
RTVSPropertyOp58
 70
     1
102
RTVSPropertyOp59
 70
     1
102
RTVSPropertyOp60
 70
     1
102
RTVSPropertyOp61
 70
     1
102
RTVSPropertyOp62
 70
     1
  0
XRECORD
  5
4D25
102
{ACAD_REACTORS
330
4D24
102
}
330
4D24
100
AcDbXrecord
280
     1
102
RTVSPost2010Prop28
280
     0
102
RTVSPost2010PropOp28
 70
     1
102
RTVSPost2010Prop29
280
     1
102
RTVSPost2010PropOp29
 70
     1
102
RTVSPost2010Prop30
280
     1
102
RTVSPost2010PropOp30
 70
     1
102
RTVSPost2010Prop31
280
     0
102
RTVSPost2010PropOp31
 70
     1
102
RTVSPost2010Prop32
280
     0
102
RTVSPost2010PropOp32
 70
     1
102
RTVSPost2010Prop33
280
     0
102
RTVSPost2010PropOp33
 70
     1
102
RTVSPost2010Prop34
280
     0
102
RTVSPost2010PropOp34
 70
     1
102
RTVSPost2010Prop35
280
     0
102
RTVSPost2010PropOp35
 70
     1
102
RTVSPost2010Prop36
280
     0
102
RTVSPost2010PropOp36
 70
     1
102
RTVSPost2010Prop37
 90
       50
102
RTVSPost2010PropOp37
 70
     1
102
RTVSPost2010Prop38
140
0.0
102
RTVSPost2010PropOp38
 70
     1
102
RTVSPost2010Prop39
140
1.0
102
RTVSPost2010PropOp39
 70
     1
102
RTVSPost2010Prop40
 90
        0
102
RTVSPost2010PropOp40
 70
     1
102
RTVSPost2010Prop41ColorIndex
 90
       18
102
RTVSPost2010Prop41ColorRGB
 90
        0
102
RTVSPost2010PropOp41
 70
     1
102
RTVSPost2010Prop42
 90
       50
102
RTVSPost2010PropOp42
 70
     1
102
RTVSPost2010Prop43
 90
        3
102
RTVSPost2010PropOp43
 70
     1
102
RTVSPost2010Prop44ColorIndex
 90
        5
102
RTVSPost2010Prop44ColorRGB
 90
      255
102
RTVSPost2010PropOp44
 70
     1
102
RTVSPost2010Prop45
280
     0
102
RTVSPost2010PropOp45
 70
     1
102
RTVSPost2010Prop46
 90
       50
102
RTVSPost2010PropOp46
 70
     1
102
RTVSPost2010Prop47
 90
       50
102
RTVSPost2010PropOp47
 70
     1
102
RTVSPost2010Prop48
 90
       50
102
RTVSPost2010PropOp48
 70
     1
102
RTVSPost2010Prop49
280
     0
102
RTVSPost2010PropOp49
 70
     1
102
RTVSPost2010Prop50
 90
       50
102
RTVSPost2010PropOp50
 70
     1
102
RTVSPost2010Prop51ColorIndex
 90
      256
102
RTVSPost2010Prop51ColorRGB
 90
-16777216
102
RTVSPost2010PropOp51
 70
     0
102
RTVSPost2010Prop52
140
1.0
102
RTVSPost2010PropOp52
 70
     0
102
RTVSPost2010Prop53
 90
        2
102
RTVSPost2010PropOp53
 70
     1
102
RTVSPost2010Prop54
  1
strokes_ogs.tif
102
RTVSPost2010PropOp54
 70
     1
102
RTVSPost2010Prop55
280
     0
102
RTVSPost2010PropOp55
 70
     1
102
RTVSPost2010Prop56
140
1.0
102
RTVSPost2010PropOp56
 70
     1
102
RTVSPost2010Prop57
140
1.0
102
RTVSPost2010PropOp57
 70
     1
102
RTVSPropertyOp0
 70
     1
102
RTVSPropertyOp1
 70
     1
102
RTVSPropertyOp2
 70
     1
102
RTVSPropertyOp3
 70
     1
102
RTVSPropertyOp4
 70
     1
102
RTVSPropertyOp5
 70
     1
102
RTVSPropertyOp6
 70
     1
102
RTVSPropertyOp7
 70
     1
102
RTVSPropertyOp8
 70
     1
102
RTVSPropertyOp9
 70
     1
102
RTVSPropertyOp10
 70
     1
102
RTVSPropertyOp11
 70
     1
102
RTVSPropertyOp12
 70
     1
102
RTVSPropertyOp13
 70
     1
102
RTVSPropertyOp14
 70
     1
102
RTVSPropertyOp15
 70
     1
102
RTVSPropertyOp16
 70
     1
102
RTVSPropertyOp17
 70
     1
102
RTVSPropertyOp18
 70
     1
102
RTVSPropertyOp19
 70
     1
102
RTVSPropertyOp20
 70
     1
102
RTVSPropertyOp21
 70
     1
102
RTVSPropertyOp22
 70
     1
102
RTVSPropertyOp23
 70
     1
102
RTVSPropertyOp24
 70
     1
102
RTVSPropertyOp25
 70
     1
102
RTVSPropertyOp26
 70
     1
102
RTVSPropertyOp27
 70
     1
102
RTVSPropertyOp28
 70
     1
102
RTVSPropertyOp29
 70
     1
102
RTVSPropertyOp30
 70
     1
102
RTVSPropertyOp31
 70
     1
102
RTVSPropertyOp32
 70
     1
102
RTVSPropertyOp33
 70
     1
102
RTVSPropertyOp34
 70
     1
102
RTVSPropertyOp35
 70
     1
102
RTVSPropertyOp36
 70
     1
102
RTVSPropertyOp37
 70
     1
102
RTVSPropertyOp38
 70
     1
102
RTVSPropertyOp39
 70
     1
102
RTVSPropertyOp40
 70
     1
102
RTVSPropertyOp41
 70
     1
102
RTVSPropertyOp42
 70
     1
102
RTVSPropertyOp43
 70
     1
102
RTVSPropertyOp44
 70
     1
102
RTVSPropertyOp45
 70
     1
102
RTVSPropertyOp46
 70
     1
102
RTVSPropertyOp47
 70
     1
102
RTVSPropertyOp48
 70
     1
102
RTVSPropertyOp49
 70
     1
102
RTVSPropertyOp50
 70
     1
102
RTVSPropertyOp51
 70
     0
102
RTVSPropertyOp52
 70
     0
102
RTVSPropertyOp53
 70
     1
102
RTVSPropertyOp54
 70
     1
102
RTVSPropertyOp55
 70
     1
102
RTVSPropertyOp56
 70
     1
102
RTVSPropertyOp57
 70
     1
102
RTVSPropertyOp58
 70
     1
102
RTVSPropertyOp59
 70
     1
102
RTVSPropertyOp60
 70
     1
102
RTVSPropertyOp61
 70
     1
102
RTVSPropertyOp62
 70
     1
  0
XRECORD
  5
4D41
102
{ACAD_REACTORS
330
4D40
102
}
330
4D40
100
AcDbXrecord
280
     1
102
RTVSPost2010Prop28
280
     0
102
RTVSPost2010PropOp28
 70
     1
102
RTVSPost2010Prop29
280
     1
102
RTVSPost2010PropOp29
 70
     1
102
RTVSPost2010Prop30
280
     1
102
RTVSPost2010PropOp30
 70
     1
102
RTVSPost2010Prop31
280
     0
102
RTVSPost2010PropOp31
 70
     1
102
RTVSPost2010Prop32
280
     0
102
RTVSPost2010PropOp32
 70
     1
102
RTVSPost2010Prop33
280
     0
102
RTVSPost2010PropOp33
 70
     1
102
RTVSPost2010Prop34
280
     0
102
RTVSPost2010PropOp34
 70
     1
102
RTVSPost2010Prop35
280
     0
102
RTVSPost2010PropOp35
 70
     1
102
RTVSPost2010Prop36
280
     0
102
RTVSPost2010PropOp36
 70
     1
102
RTVSPost2010Prop37
 90
       50
102
RTVSPost2010PropOp37
 70
     0
102
RTVSPost2010Prop38
140
0.0
102
RTVSPost2010PropOp38
 70
     0
102
RTVSPost2010Prop39
140
1.0
102
RTVSPost2010PropOp39
 70
     0
102
RTVSPost2010Prop40
 90
        0
102
RTVSPost2010PropOp40
 70
     0
102
RTVSPost2010Prop41ColorIndex
 90
       18
102
RTVSPost2010Prop41ColorRGB
 90
        0
102
RTVSPost2010PropOp41
 70
     0
102
RTVSPost2010Prop42
 90
       50
102
RTVSPost2010PropOp42
 70
     0
102
RTVSPost2010Prop43
 90
        3
102
RTVSPost2010PropOp43
 70
     0
102
RTVSPost2010Prop44ColorIndex
 90
        5
102
RTVSPost2010Prop44ColorRGB
 90
      255
102
RTVSPost2010PropOp44
 70
     0
102
RTVSPost2010Prop45
280
     0
102
RTVSPost2010PropOp45
 70
     1
102
RTVSPost2010Prop46
 90
       50
102
RTVSPost2010PropOp46
 70
     0
102
RTVSPost2010Prop47
 90
       50
102
RTVSPost2010PropOp47
 70
     0
102
RTVSPost2010Prop48
 90
       50
102
RTVSPost2010PropOp48
 70
     0
102
RTVSPost2010Prop49
280
     0
102
RTVSPost2010PropOp49
 70
     1
102
RTVSPost2010Prop50
 90
       50
102
RTVSPost2010PropOp50
 70
     0
102
RTVSPost2010Prop51ColorIndex
 90
      256
102
RTVSPost2010Prop51ColorRGB
 90
-16777216
102
RTVSPost2010PropOp51
 70
     0
102
RTVSPost2010Prop52
140
1.0
102
RTVSPost2010PropOp52
 70
     0
102
RTVSPost2010Prop53
 90
        2
102
RTVSPost2010PropOp53
 70
     0
102
RTVSPost2010Prop54
  1
strokes_ogs.tif
102
RTVSPost2010PropOp54
 70
     0
102
RTVSPost2010Prop55
280
     0
102
RTVSPost2010PropOp55
 70
     1
102
RTVSPost2010Prop56
140
1.0
102
RTVSPost2010PropOp56
 70
     0
102
RTVSPost2010Prop57
140
1.0
102
RTVSPost2010PropOp57
 70
     0
102
RTVSPropertyOp0
 70
     0
102
RTVSPropertyOp1
 70
     0
102
RTVSPropertyOp2
 70
     0
102
RTVSPropertyOp3
 70
     0
102
RTVSPropertyOp4
 70
     0
102
RTVSPropertyOp5
 70
     0
102
RTVSPropertyOp6
 70
     0
102
RTVSPropertyOp7
 70
     0
102
RTVSPropertyOp8
 70
     0
102
RTVSPropertyOp9
 70
     0
102
RTVSPropertyOp10
 70
     0
102
RTVSPropertyOp11
 70
     0
102
RTVSPropertyOp12
 70
     0
102
RTVSPropertyOp13
 70
     0
102
RTVSPropertyOp14
 70
     2
102
RTVSPropertyOp15
 70
     0
102
RTVSPropertyOp16
 70
     0
102
RTVSPropertyOp17
 70
     0
102
RTVSPropertyOp18
 70
     0
102
RTVSPropertyOp19
 70
     0
102
RTVSPropertyOp20
 70
     0
102
RTVSPropertyOp21
 70
     0
102
RTVSPropertyOp22
 70
     0
102
RTVSPropertyOp23
 70
     0
102
RTVSPropertyOp24
 70
     0
102
RTVSPropertyOp25
 70
     0
102
RTVSPropertyOp26
 70
     0
102
RTVSPropertyOp27
 70
     0
102
RTVSPropertyOp28
 70
     1
102
RTVSPropertyOp29
 70
     1
102
RTVSPropertyOp30
 70
     1
102
RTVSPropertyOp31
 70
     1
102
RTVSPropertyOp32
 70
     1
102
RTVSPropertyOp33
 70
     1
102
RTVSPropertyOp34
 70
     1
102
RTVSPropertyOp35
 70
     1
102
RTVSPropertyOp36
 70
     1
102
RTVSPropertyOp37
 70
     0
102
RTVSPropertyOp38
 70
     0
102
RTVSPropertyOp39
 70
     0
102
RTVSPropertyOp40
 70
     0
102
RTVSPropertyOp41
 70
     0
102
RTVSPropertyOp42
 70
     0
102
RTVSPropertyOp43
 70
     0
102
RTVSPropertyOp44
 70
     0
102
RTVSPropertyOp45
 70
     1
102
RTVSPropertyOp46
 70
     0
102
RTVSPropertyOp47
 70
     0
102
RTVSPropertyOp48
 70
     0
102
RTVSPropertyOp49
 70
     1
102
RTVSPropertyOp50
 70
     0
102
RTVSPropertyOp51
 70
     0
102
RTVSPropertyOp52
 70
     0
102
RTVSPropertyOp53
 70
     0
102
RTVSPropertyOp54
 70
     0
102
RTVSPropertyOp55
 70
     1
102
RTVSPropertyOp56
 70
     0
102
RTVSPropertyOp57
 70
     0
102
RTVSPropertyOp58
 70
     0
102
RTVSPropertyOp59
 70
     0
102
RTVSPropertyOp60
 70
     0
102
RTVSPropertyOp61
 70
     0
102
RTVSPropertyOp62
 70
     0
  0
XRECORD
  5
4D31
102
{ACAD_REACTORS
330
4D30
102
}
330
4D30
100
AcDbXrecord
280
     1
102
RTVSPost2010Prop28
280
     0
102
RTVSPost2010PropOp28
 70
     1
102
RTVSPost2010Prop29
280
     1
102
RTVSPost2010PropOp29
 70
     1
102
RTVSPost2010Prop30
280
     1
102
RTVSPost2010PropOp30
 70
     1
102
RTVSPost2010Prop31
280
     0
102
RTVSPost2010PropOp31
 70
     1
102
RTVSPost2010Prop32
280
     0
102
RTVSPost2010PropOp32
 70
     1
102
RTVSPost2010Prop33
280
     0
102
RTVSPost2010PropOp33
 70
     1
102
RTVSPost2010Prop34
280
     0
102
RTVSPost2010PropOp34
 70
     1
102
RTVSPost2010Prop35
280
     0
102
RTVSPost2010PropOp35
 70
     1
102
RTVSPost2010Prop36
280
     0
102
RTVSPost2010PropOp36
 70
     1
102
RTVSPost2010Prop37
 90
       50
102
RTVSPost2010PropOp37
 70
     1
102
RTVSPost2010Prop38
140
0.0
102
RTVSPost2010PropOp38
 70
     1
102
RTVSPost2010Prop39
140
1.0
102
RTVSPost2010PropOp39
 70
     1
102
RTVSPost2010Prop40
 90
        0
102
RTVSPost2010PropOp40
 70
     1
102
RTVSPost2010Prop41ColorIndex
 90
       18
102
RTVSPost2010Prop41ColorRGB
 90
        0
102
RTVSPost2010PropOp41
 70
     1
102
RTVSPost2010Prop42
 90
       50
102
RTVSPost2010PropOp42
 70
     1
102
RTVSPost2010Prop43
 90
        3
102
RTVSPost2010PropOp43
 70
     1
102
RTVSPost2010Prop44ColorIndex
 90
        5
102
RTVSPost2010Prop44ColorRGB
 90
      255
102
RTVSPost2010PropOp44
 70
     1
102
RTVSPost2010Prop45
280
     0
102
RTVSPost2010PropOp45
 70
     1
102
RTVSPost2010Prop46
 90
       50
102
RTVSPost2010PropOp46
 70
     1
102
RTVSPost2010Prop47
 90
       50
102
RTVSPost2010PropOp47
 70
     1
102
RTVSPost2010Prop48
 90
       50
102
RTVSPost2010PropOp48
 70
     1
102
RTVSPost2010Prop49
280
     0
102
RTVSPost2010PropOp49
 70
     1
102
RTVSPost2010Prop50
 90
       50
102
RTVSPost2010PropOp50
 70
     1
102
RTVSPost2010Prop51ColorIndex
 90
      256
102
RTVSPost2010Prop51ColorRGB
 90
-16777216
102
RTVSPost2010PropOp51
 70
     0
102
RTVSPost2010Prop52
140
1.0
102
RTVSPost2010PropOp52
 70
     0
102
RTVSPost2010Prop53
 90
        2
102
RTVSPost2010PropOp53
 70
     1
102
RTVSPost2010Prop54
  1
strokes_ogs.tif
102
RTVSPost2010PropOp54
 70
     1
102
RTVSPost2010Prop55
280
     0
102
RTVSPost2010PropOp55
 70
     1
102
RTVSPost2010Prop56
140
1.0
102
RTVSPost2010PropOp56
 70
     1
102
RTVSPost2010Prop57
140
1.0
102
RTVSPost2010PropOp57
 70
     1
102
RTVSPropertyOp0
 70
     1
102
RTVSPropertyOp1
 70
     1
102
RTVSPropertyOp2
 70
     1
102
RTVSPropertyOp3
 70
     1
102
RTVSPropertyOp4
 70
     1
102
RTVSPropertyOp5
 70
     1
102
RTVSPropertyOp6
 70
     1
102
RTVSPropertyOp7
 70
     1
102
RTVSPropertyOp8
 70
     1
102
RTVSPropertyOp9
 70
     1
102
RTVSPropertyOp10
 70
     1
102
RTVSPropertyOp11
 70
     1
102
RTVSPropertyOp12
 70
     1
102
RTVSPropertyOp13
 70
     1
102
RTVSPropertyOp14
 70
     1
102
RTVSPropertyOp15
 70
     1
102
RTVSPropertyOp16
 70
     1
102
RTVSPropertyOp17
 70
     1
102
RTVSPropertyOp18
 70
     1
102
RTVSPropertyOp19
 70
     1
102
RTVSPropertyOp20
 70
     1
102
RTVSPropertyOp21
 70
     1
102
RTVSPropertyOp22
 70
     1
102
RTVSPropertyOp23
 70
     1
102
RTVSPropertyOp24
 70
     1
102
RTVSPropertyOp25
 70
     1
102
RTVSPropertyOp26
 70
     1
102
RTVSPropertyOp27
 70
     1
102
RTVSPropertyOp28
 70
     1
102
RTVSPropertyOp29
 70
     1
102
RTVSPropertyOp30
 70
     1
102
RTVSPropertyOp31
 70
     1
102
RTVSPropertyOp32
 70
     1
102
RTVSPropertyOp33
 70
     1
102
RTVSPropertyOp34
 70
     1
102
RTVSPropertyOp35
 70
     1
102
RTVSPropertyOp36
 70
     1
102
RTVSPropertyOp37
 70
     1
102
RTVSPropertyOp38
 70
     1
102
RTVSPropertyOp39
 70
     1
102
RTVSPropertyOp40
 70
     1
102
RTVSPropertyOp41
 70
     1
102
RTVSPropertyOp42
 70
     1
102
RTVSPropertyOp43
 70
     1
102
RTVSPropertyOp44
 70
     1
102
RTVSPropertyOp45
 70
     1
102
RTVSPropertyOp46
 70
     1
102
RTVSPropertyOp47
 70
     1
102
RTVSPropertyOp48
 70
     1
102
RTVSPropertyOp49
 70
     1
102
RTVSPropertyOp50
 70
     1
102
RTVSPropertyOp51
 70
     0
102
RTVSPropertyOp52
 70
     0
102
RTVSPropertyOp53
 70
     1
102
RTVSPropertyOp54
 70
     1
102
RTVSPropertyOp55
 70
     1
102
RTVSPropertyOp56
 70
     1
102
RTVSPropertyOp57
 70
     1
102
RTVSPropertyOp58
 70
     1
102
RTVSPropertyOp59
 70
     1
102
RTVSPropertyOp60
 70
     1
102
RTVSPropertyOp61
 70
     1
102
RTVSPropertyOp62
 70
     1
  0
XRECORD
  5
4D43
102
{ACAD_REACTORS
330
4D42
102
}
330
4D42
100
AcDbXrecord
280
     1
102
RTVSPost2010Prop28
280
     0
102
RTVSPost2010PropOp28
 70
     1
102
RTVSPost2010Prop29
280
     1
102
RTVSPost2010PropOp29
 70
     1
102
RTVSPost2010Prop30
280
     1
102
RTVSPost2010PropOp30
 70
     1
102
RTVSPost2010Prop31
280
     0
102
RTVSPost2010PropOp31
 70
     1
102
RTVSPost2010Prop32
280
     0
102
RTVSPost2010PropOp32
 70
     1
102
RTVSPost2010Prop33
280
     0
102
RTVSPost2010PropOp33
 70
     1
102
RTVSPost2010Prop34
280
     0
102
RTVSPost2010PropOp34
 70
     1
102
RTVSPost2010Prop35
280
     0
102
RTVSPost2010PropOp35
 70
     1
102
RTVSPost2010Prop36
280
     0
102
RTVSPost2010PropOp36
 70
     1
102
RTVSPost2010Prop37
 90
       50
102
RTVSPost2010PropOp37
 70
     0
102
RTVSPost2010Prop38
140
0.0
102
RTVSPost2010PropOp38
 70
     0
102
RTVSPost2010Prop39
140
1.0
102
RTVSPost2010PropOp39
 70
     0
102
RTVSPost2010Prop40
 90
        0
102
RTVSPost2010PropOp40
 70
     0
102
RTVSPost2010Prop41ColorIndex
 90
       18
102
RTVSPost2010Prop41ColorRGB
 90
        0
102
RTVSPost2010PropOp41
 70
     0
102
RTVSPost2010Prop42
 90
       50
102
RTVSPost2010PropOp42
 70
     0
102
RTVSPost2010Prop43
 90
        3
102
RTVSPost2010PropOp43
 70
     0
102
RTVSPost2010Prop44ColorIndex
 90
        5
102
RTVSPost2010Prop44ColorRGB
 90
      255
102
RTVSPost2010PropOp44
 70
     0
102
RTVSPost2010Prop45
280
     0
102
RTVSPost2010PropOp45
 70
     1
102
RTVSPost2010Prop46
 90
       50
102
RTVSPost2010PropOp46
 70
     0
102
RTVSPost2010Prop47
 90
       50
102
RTVSPost2010PropOp47
 70
     0
102
RTVSPost2010Prop48
 90
       50
102
RTVSPost2010PropOp48
 70
     0
102
RTVSPost2010Prop49
280
     0
102
RTVSPost2010PropOp49
 70
     1
102
RTVSPost2010Prop50
 90
       50
102
RTVSPost2010PropOp50
 70
     0
102
RTVSPost2010Prop51ColorIndex
 90
      256
102
RTVSPost2010Prop51ColorRGB
 90
-16777216
102
RTVSPost2010PropOp51
 70
     0
102
RTVSPost2010Prop52
140
1.0
102
RTVSPost2010PropOp52
 70
     0
102
RTVSPost2010Prop53
 90
        2
102
RTVSPost2010PropOp53
 70
     0
102
RTVSPost2010Prop54
  1
strokes_ogs.tif
102
RTVSPost2010PropOp54
 70
     0
102
RTVSPost2010Prop55
280
     0
102
RTVSPost2010PropOp55
 70
     1
102
RTVSPost2010Prop56
140
1.0
102
RTVSPost2010PropOp56
 70
     0
102
RTVSPost2010Prop57
140
1.0
102
RTVSPost2010PropOp57
 70
     0
102
RTVSPropertyOp0
 70
     0
102
RTVSPropertyOp1
 70
     0
102
RTVSPropertyOp2
 70
     0
102
RTVSPropertyOp3
 70
     0
102
RTVSPropertyOp4
 70
     0
102
RTVSPropertyOp5
 70
     0
102
RTVSPropertyOp6
 70
     0
102
RTVSPropertyOp7
 70
     0
102
RTVSPropertyOp8
 70
     0
102
RTVSPropertyOp9
 70
     0
102
RTVSPropertyOp10
 70
     0
102
RTVSPropertyOp11
 70
     0
102
RTVSPropertyOp12
 70
     0
102
RTVSPropertyOp13
 70
     0
102
RTVSPropertyOp14
 70
     2
102
RTVSPropertyOp15
 70
     0
102
RTVSPropertyOp16
 70
     0
102
RTVSPropertyOp17
 70
     0
102
RTVSPropertyOp18
 70
     0
102
RTVSPropertyOp19
 70
     0
102
RTVSPropertyOp20
 70
     0
102
RTVSPropertyOp21
 70
     0
102
RTVSPropertyOp22
 70
     0
102
RTVSPropertyOp23
 70
     0
102
RTVSPropertyOp24
 70
     0
102
RTVSPropertyOp25
 70
     0
102
RTVSPropertyOp26
 70
     0
102
RTVSPropertyOp27
 70
     0
102
RTVSPropertyOp28
 70
     1
102
RTVSPropertyOp29
 70
     1
102
RTVSPropertyOp30
 70
     1
102
RTVSPropertyOp31
 70
     1
102
RTVSPropertyOp32
 70
     1
102
RTVSPropertyOp33
 70
     1
102
RTVSPropertyOp34
 70
     1
102
RTVSPropertyOp35
 70
     1
102
RTVSPropertyOp36
 70
     1
102
RTVSPropertyOp37
 70
     0
102
RTVSPropertyOp38
 70
     0
102
RTVSPropertyOp39
 70
     0
102
RTVSPropertyOp40
 70
     0
102
RTVSPropertyOp41
 70
     0
102
RTVSPropertyOp42
 70
     0
102
RTVSPropertyOp43
 70
     0
102
RTVSPropertyOp44
 70
     0
102
RTVSPropertyOp45
 70
     1
102
RTVSPropertyOp46
 70
     0
102
RTVSPropertyOp47
 70
     0
102
RTVSPropertyOp48
 70
     0
102
RTVSPropertyOp49
 70
     1
102
RTVSPropertyOp50
 70
     0
102
RTVSPropertyOp51
 70
     0
102
RTVSPropertyOp52
 70
     0
102
RTVSPropertyOp53
 70
     0
102
RTVSPropertyOp54
 70
     0
102
RTVSPropertyOp55
 70
     1
102
RTVSPropertyOp56
 70
     0
102
RTVSPropertyOp57
 70
     0
102
RTVSPropertyOp58
 70
     0
102
RTVSPropertyOp59
 70
     0
102
RTVSPropertyOp60
 70
     0
102
RTVSPropertyOp61
 70
     0
102
RTVSPropertyOp62
 70
     0
  0
XRECORD
  5
4D29
102
{ACAD_REACTORS
330
4D28
102
}
330
4D28
100
AcDbXrecord
280
     1
102
RTVSPost2010Prop28
280
     0
102
RTVSPost2010PropOp28
 70
     1
102
RTVSPost2010Prop29
280
     1
102
RTVSPost2010PropOp29
 70
     1
102
RTVSPost2010Prop30
280
     1
102
RTVSPost2010PropOp30
 70
     1
102
RTVSPost2010Prop31
280
     0
102
RTVSPost2010PropOp31
 70
     1
102
RTVSPost2010Prop32
280
     0
102
RTVSPost2010PropOp32
 70
     1
102
RTVSPost2010Prop33
280
     0
102
RTVSPost2010PropOp33
 70
     1
102
RTVSPost2010Prop34
280
     0
102
RTVSPost2010PropOp34
 70
     1
102
RTVSPost2010Prop35
280
     0
102
RTVSPost2010PropOp35
 70
     1
102
RTVSPost2010Prop36
280
     0
102
RTVSPost2010PropOp36
 70
     1
102
RTVSPost2010Prop37
 90
       50
102
RTVSPost2010PropOp37
 70
     1
102
RTVSPost2010Prop38
140
0.0
102
RTVSPost2010PropOp38
 70
     1
102
RTVSPost2010Prop39
140
1.0
102
RTVSPost2010PropOp39
 70
     1
102
RTVSPost2010Prop40
 90
        0
102
RTVSPost2010PropOp40
 70
     1
102
RTVSPost2010Prop41ColorIndex
 90
       18
102
RTVSPost2010Prop41ColorRGB
 90
        0
102
RTVSPost2010PropOp41
 70
     1
102
RTVSPost2010Prop42
 90
       50
102
RTVSPost2010PropOp42
 70
     1
102
RTVSPost2010Prop43
 90
        3
102
RTVSPost2010PropOp43
 70
     1
102
RTVSPost2010Prop44ColorIndex
 90
        5
102
RTVSPost2010Prop44ColorRGB
 90
      255
102
RTVSPost2010PropOp44
 70
     1
102
RTVSPost2010Prop45
280
     0
102
RTVSPost2010PropOp45
 70
     1
102
RTVSPost2010Prop46
 90
       50
102
RTVSPost2010PropOp46
 70
     1
102
RTVSPost2010Prop47
 90
       50
102
RTVSPost2010PropOp47
 70
     1
102
RTVSPost2010Prop48
 90
       50
102
RTVSPost2010PropOp48
 70
     1
102
RTVSPost2010Prop49
280
     0
102
RTVSPost2010PropOp49
 70
     1
102
RTVSPost2010Prop50
 90
       50
102
RTVSPost2010PropOp50
 70
     1
102
RTVSPost2010Prop51ColorIndex
 90
      256
102
RTVSPost2010Prop51ColorRGB
 90
-16777216
102
RTVSPost2010PropOp51
 70
     0
102
RTVSPost2010Prop52
140
1.0
102
RTVSPost2010PropOp52
 70
     0
102
RTVSPost2010Prop53
 90
        2
102
RTVSPost2010PropOp53
 70
     1
102
RTVSPost2010Prop54
  1
strokes_ogs.tif
102
RTVSPost2010PropOp54
 70
     1
102
RTVSPost2010Prop55
280
     0
102
RTVSPost2010PropOp55
 70
     1
102
RTVSPost2010Prop56
140
1.0
102
RTVSPost2010PropOp56
 70
     1
102
RTVSPost2010Prop57
140
1.0
102
RTVSPost2010PropOp57
 70
     1
102
RTVSPropertyOp0
 70
     1
102
RTVSPropertyOp1
 70
     1
102
RTVSPropertyOp2
 70
     1
102
RTVSPropertyOp3
 70
     1
102
RTVSPropertyOp4
 70
     1
102
RTVSPropertyOp5
 70
     1
102
RTVSPropertyOp6
 70
     1
102
RTVSPropertyOp7
 70
     1
102
RTVSPropertyOp8
 70
     1
102
RTVSPropertyOp9
 70
     1
102
RTVSPropertyOp10
 70
     1
102
RTVSPropertyOp11
 70
     1
102
RTVSPropertyOp12
 70
     1
102
RTVSPropertyOp13
 70
     1
102
RTVSPropertyOp14
 70
     1
102
RTVSPropertyOp15
 70
     1
102
RTVSPropertyOp16
 70
     1
102
RTVSPropertyOp17
 70
     1
102
RTVSPropertyOp18
 70
     1
102
RTVSPropertyOp19
 70
     1
102
RTVSPropertyOp20
 70
     1
102
RTVSPropertyOp21
 70
     1
102
RTVSPropertyOp22
 70
     1
102
RTVSPropertyOp23
 70
     1
102
RTVSPropertyOp24
 70
     1
102
RTVSPropertyOp25
 70
     1
102
RTVSPropertyOp26
 70
     1
102
RTVSPropertyOp27
 70
     1
102
RTVSPropertyOp28
 70
     1
102
RTVSPropertyOp29
 70
     1
102
RTVSPropertyOp30
 70
     1
102
RTVSPropertyOp31
 70
     1
102
RTVSPropertyOp32
 70
     1
102
RTVSPropertyOp33
 70
     1
102
RTVSPropertyOp34
 70
     1
102
RTVSPropertyOp35
 70
     1
102
RTVSPropertyOp36
 70
     1
102
RTVSPropertyOp37
 70
     1
102
RTVSPropertyOp38
 70
     1
102
RTVSPropertyOp39
 70
     1
102
RTVSPropertyOp40
 70
     1
102
RTVSPropertyOp41
 70
     1
102
RTVSPropertyOp42
 70
     1
102
RTVSPropertyOp43
 70
     1
102
RTVSPropertyOp44
 70
     1
102
RTVSPropertyOp45
 70
     1
102
RTVSPropertyOp46
 70
     1
102
RTVSPropertyOp47
 70
     1
102
RTVSPropertyOp48
 70
     1
102
RTVSPropertyOp49
 70
     1
102
RTVSPropertyOp50
 70
     1
102
RTVSPropertyOp51
 70
     0
102
RTVSPropertyOp52
 70
     0
102
RTVSPropertyOp53
 70
     1
102
RTVSPropertyOp54
 70
     1
102
RTVSPropertyOp55
 70
     1
102
RTVSPropertyOp56
 70
     1
102
RTVSPropertyOp57
 70
     1
102
RTVSPropertyOp58
 70
     1
102
RTVSPropertyOp59
 70
     1
102
RTVSPropertyOp60
 70
     1
102
RTVSPropertyOp61
 70
     1
102
RTVSPropertyOp62
 70
     1
  0
XRECORD
  5
4D3F
102
{ACAD_REACTORS
330
4D3E
102
}
330
4D3E
100
AcDbXrecord
280
     1
102
RTVSPost2010Prop28
280
     0
102
RTVSPost2010PropOp28
 70
     1
102
RTVSPost2010Prop29
280
     1
102
RTVSPost2010PropOp29
 70
     1
102
RTVSPost2010Prop30
280
     1
102
RTVSPost2010PropOp30
 70
     1
102
RTVSPost2010Prop31
280
     0
102
RTVSPost2010PropOp31
 70
     1
102
RTVSPost2010Prop32
280
     0
102
RTVSPost2010PropOp32
 70
     1
102
RTVSPost2010Prop33
280
     0
102
RTVSPost2010PropOp33
 70
     1
102
RTVSPost2010Prop34
280
     0
102
RTVSPost2010PropOp34
 70
     1
102
RTVSPost2010Prop35
280
     0
102
RTVSPost2010PropOp35
 70
     1
102
RTVSPost2010Prop36
280
     0
102
RTVSPost2010PropOp36
 70
     1
102
RTVSPost2010Prop37
 90
       50
102
RTVSPost2010PropOp37
 70
     1
102
RTVSPost2010Prop38
140
0.0
102
RTVSPost2010PropOp38
 70
     1
102
RTVSPost2010Prop39
140
1.0
102
RTVSPost2010PropOp39
 70
     1
102
RTVSPost2010Prop40
 90
        0
102
RTVSPost2010PropOp40
 70
     1
102
RTVSPost2010Prop41ColorIndex
 90
       18
102
RTVSPost2010Prop41ColorRGB
 90
        0
102
RTVSPost2010PropOp41
 70
     1
102
RTVSPost2010Prop42
 90
       50
102
RTVSPost2010PropOp42
 70
     1
102
RTVSPost2010Prop43
 90
        3
102
RTVSPost2010PropOp43
 70
     1
102
RTVSPost2010Prop44ColorIndex
 90
        5
102
RTVSPost2010Prop44ColorRGB
 90
      255
102
RTVSPost2010PropOp44
 70
     1
102
RTVSPost2010Prop45
280
     0
102
RTVSPost2010PropOp45
 70
     1
102
RTVSPost2010Prop46
 90
       50
102
RTVSPost2010PropOp46
 70
     1
102
RTVSPost2010Prop47
 90
       50
102
RTVSPost2010PropOp47
 70
     1
102
RTVSPost2010Prop48
 90
       50
102
RTVSPost2010PropOp48
 70
     1
102
RTVSPost2010Prop49
280
     0
102
RTVSPost2010PropOp49
 70
     1
102
RTVSPost2010Prop50
 90
       50
102
RTVSPost2010PropOp50
 70
     1
102
RTVSPost2010Prop51ColorIndex
 90
      256
102
RTVSPost2010Prop51ColorRGB
 90
-16777216
102
RTVSPost2010PropOp51
 70
     0
102
RTVSPost2010Prop52
140
1.0
102
RTVSPost2010PropOp52
 70
     0
102
RTVSPost2010Prop53
 90
        2
102
RTVSPost2010PropOp53
 70
     1
102
RTVSPost2010Prop54
  1
strokes_ogs.tif
102
RTVSPost2010PropOp54
 70
     1
102
RTVSPost2010Prop55
280
     0
102
RTVSPost2010PropOp55
 70
     1
102
RTVSPost2010Prop56
140
1.0
102
RTVSPost2010PropOp56
 70
     1
102
RTVSPost2010Prop57
140
1.0
102
RTVSPost2010PropOp57
 70
     1
102
RTVSPropertyOp0
 70
     1
102
RTVSPropertyOp1
 70
     1
102
RTVSPropertyOp2
 70
     1
102
RTVSPropertyOp3
 70
     1
102
RTVSPropertyOp4
 70
     1
102
RTVSPropertyOp5
 70
     1
102
RTVSPropertyOp6
 70
     1
102
RTVSPropertyOp7
 70
     1
102
RTVSPropertyOp8
 70
     1
102
RTVSPropertyOp9
 70
     1
102
RTVSPropertyOp10
 70
     1
102
RTVSPropertyOp11
 70
     1
102
RTVSPropertyOp12
 70
     1
102
RTVSPropertyOp13
 70
     1
102
RTVSPropertyOp14
 70
     1
102
RTVSPropertyOp15
 70
     1
102
RTVSPropertyOp16
 70
     1
102
RTVSPropertyOp17
 70
     1
102
RTVSPropertyOp18
 70
     1
102
RTVSPropertyOp19
 70
     1
102
RTVSPropertyOp20
 70
     1
102
RTVSPropertyOp21
 70
     1
102
RTVSPropertyOp22
 70
     1
102
RTVSPropertyOp23
 70
     1
102
RTVSPropertyOp24
 70
     1
102
RTVSPropertyOp25
 70
     1
102
RTVSPropertyOp26
 70
     1
102
RTVSPropertyOp27
 70
     1
102
RTVSPropertyOp28
 70
     1
102
RTVSPropertyOp29
 70
     1
102
RTVSPropertyOp30
 70
     1
102
RTVSPropertyOp31
 70
     1
102
RTVSPropertyOp32
 70
     1
102
RTVSPropertyOp33
 70
     1
102
RTVSPropertyOp34
 70
     1
102
RTVSPropertyOp35
 70
     1
102
RTVSPropertyOp36
 70
     1
102
RTVSPropertyOp37
 70
     1
102
RTVSPropertyOp38
 70
     1
102
RTVSPropertyOp39
 70
     1
102
RTVSPropertyOp40
 70
     1
102
RTVSPropertyOp41
 70
     1
102
RTVSPropertyOp42
 70
     1
102
RTVSPropertyOp43
 70
     1
102
RTVSPropertyOp44
 70
     1
102
RTVSPropertyOp45
 70
     1
102
RTVSPropertyOp46
 70
     1
102
RTVSPropertyOp47
 70
     1
102
RTVSPropertyOp48
 70
     1
102
RTVSPropertyOp49
 70
     1
102
RTVSPropertyOp50
 70
     1
102
RTVSPropertyOp51
 70
     0
102
RTVSPropertyOp52
 70
     0
102
RTVSPropertyOp53
 70
     1
102
RTVSPropertyOp54
 70
     1
102
RTVSPropertyOp55
 70
     1
102
RTVSPropertyOp56
 70
     1
102
RTVSPropertyOp57
 70
     1
102
RTVSPropertyOp58
 70
     1
102
RTVSPropertyOp59
 70
     1
102
RTVSPropertyOp60
 70
     1
102
RTVSPropertyOp61
 70
     1
102
RTVSPropertyOp62
 70
     1
  0
XRECORD
  5
4D3D
102
{ACAD_REACTORS
330
4D3C
102
}
330
4D3C
100
AcDbXrecord
280
     1
102
RTVSPost2010Prop28
280
     0
102
RTVSPost2010PropOp28
 70
     1
102
RTVSPost2010Prop29
280
     1
102
RTVSPost2010PropOp29
 70
     1
102
RTVSPost2010Prop30
280
     1
102
RTVSPost2010PropOp30
 70
     1
102
RTVSPost2010Prop31
280
     0
102
RTVSPost2010PropOp31
 70
     1
102
RTVSPost2010Prop32
280
     0
102
RTVSPost2010PropOp32
 70
     1
102
RTVSPost2010Prop33
280
     0
102
RTVSPost2010PropOp33
 70
     1
102
RTVSPost2010Prop34
280
     0
102
RTVSPost2010PropOp34
 70
     1
102
RTVSPost2010Prop35
280
     0
102
RTVSPost2010PropOp35
 70
     1
102
RTVSPost2010Prop36
280
     0
102
RTVSPost2010PropOp36
 70
     1
102
RTVSPost2010Prop37
 90
       50
102
RTVSPost2010PropOp37
 70
     1
102
RTVSPost2010Prop38
140
0.0
102
RTVSPost2010PropOp38
 70
     1
102
RTVSPost2010Prop39
140
1.0
102
RTVSPost2010PropOp39
 70
     1
102
RTVSPost2010Prop40
 90
        0
102
RTVSPost2010PropOp40
 70
     1
102
RTVSPost2010Prop41ColorIndex
 90
       18
102
RTVSPost2010Prop41ColorRGB
 90
        0
102
RTVSPost2010PropOp41
 70
     1
102
RTVSPost2010Prop42
 90
       50
102
RTVSPost2010PropOp42
 70
     1
102
RTVSPost2010Prop43
 90
        3
102
RTVSPost2010PropOp43
 70
     1
102
RTVSPost2010Prop44ColorIndex
 90
        5
102
RTVSPost2010Prop44ColorRGB
 90
      255
102
RTVSPost2010PropOp44
 70
     1
102
RTVSPost2010Prop45
280
     0
102
RTVSPost2010PropOp45
 70
     1
102
RTVSPost2010Prop46
 90
       50
102
RTVSPost2010PropOp46
 70
     1
102
RTVSPost2010Prop47
 90
       50
102
RTVSPost2010PropOp47
 70
     1
102
RTVSPost2010Prop48
 90
       50
102
RTVSPost2010PropOp48
 70
     1
102
RTVSPost2010Prop49
280
     0
102
RTVSPost2010PropOp49
 70
     1
102
RTVSPost2010Prop50
 90
       50
102
RTVSPost2010PropOp50
 70
     1
102
RTVSPost2010Prop51ColorIndex
 90
      256
102
RTVSPost2010Prop51ColorRGB
 90
-16777216
102
RTVSPost2010PropOp51
 70
     0
102
RTVSPost2010Prop52
140
1.0
102
RTVSPost2010PropOp52
 70
     0
102
RTVSPost2010Prop53
 90
        2
102
RTVSPost2010PropOp53
 70
     1
102
RTVSPost2010Prop54
  1
strokes_ogs.tif
102
RTVSPost2010PropOp54
 70
     1
102
RTVSPost2010Prop55
280
     0
102
RTVSPost2010PropOp55
 70
     1
102
RTVSPost2010Prop56
140
1.0
102
RTVSPost2010PropOp56
 70
     1
102
RTVSPost2010Prop57
140
1.0
102
RTVSPost2010PropOp57
 70
     1
102
RTVSPropertyOp0
 70
     1
102
RTVSPropertyOp1
 70
     1
102
RTVSPropertyOp2
 70
     1
102
RTVSPropertyOp3
 70
     1
102
RTVSPropertyOp4
 70
     1
102
RTVSPropertyOp5
 70
     1
102
RTVSPropertyOp6
 70
     1
102
RTVSPropertyOp7
 70
     1
102
RTVSPropertyOp8
 70
     1
102
RTVSPropertyOp9
 70
     1
102
RTVSPropertyOp10
 70
     1
102
RTVSPropertyOp11
 70
     1
102
RTVSPropertyOp12
 70
     1
102
RTVSPropertyOp13
 70
     1
102
RTVSPropertyOp14
 70
     1
102
RTVSPropertyOp15
 70
     1
102
RTVSPropertyOp16
 70
     1
102
RTVSPropertyOp17
 70
     1
102
RTVSPropertyOp18
 70
     1
102
RTVSPropertyOp19
 70
     1
102
RTVSPropertyOp20
 70
     1
102
RTVSPropertyOp21
 70
     1
102
RTVSPropertyOp22
 70
     1
102
RTVSPropertyOp23
 70
     1
102
RTVSPropertyOp24
 70
     1
102
RTVSPropertyOp25
 70
     1
102
RTVSPropertyOp26
 70
     1
102
RTVSPropertyOp27
 70
     1
102
RTVSPropertyOp28
 70
     1
102
RTVSPropertyOp29
 70
     1
102
RTVSPropertyOp30
 70
     1
102
RTVSPropertyOp31
 70
     1
102
RTVSPropertyOp32
 70
     1
102
RTVSPropertyOp33
 70
     1
102
RTVSPropertyOp34
 70
     1
102
RTVSPropertyOp35
 70
     1
102
RTVSPropertyOp36
 70
     1
102
RTVSPropertyOp37
 70
     1
102
RTVSPropertyOp38
 70
     1
102
RTVSPropertyOp39
 70
     1
102
RTVSPropertyOp40
 70
     1
102
RTVSPropertyOp41
 70
     1
102
RTVSPropertyOp42
 70
     1
102
RTVSPropertyOp43
 70
     1
102
RTVSPropertyOp44
 70
     1
102
RTVSPropertyOp45
 70
     1
102
RTVSPropertyOp46
 70
     1
102
RTVSPropertyOp47
 70
     1
102
RTVSPropertyOp48
 70
     1
102
RTVSPropertyOp49
 70
     1
102
RTVSPropertyOp50
 70
     1
102
RTVSPropertyOp51
 70
     0
102
RTVSPropertyOp52
 70
     0
102
RTVSPropertyOp53
 70
     1
102
RTVSPropertyOp54
 70
     1
102
RTVSPropertyOp55
 70
     1
102
RTVSPropertyOp56
 70
     1
102
RTVSPropertyOp57
 70
     1
102
RTVSPropertyOp58
 70
     1
102
RTVSPropertyOp59
 70
     1
102
RTVSPropertyOp60
 70
     1
102
RTVSPropertyOp61
 70
     1
102
RTVSPropertyOp62
 70
     1
  0
XRECORD
  5
4D37
102
{ACAD_REACTORS
330
4D36
102
}
330
4D36
100
AcDbXrecord
280
     1
102
RTVSPost2010Prop28
280
     0
102
RTVSPost2010PropOp28
 70
     1
102
RTVSPost2010Prop29
280
     1
102
RTVSPost2010PropOp29
 70
     1
102
RTVSPost2010Prop30
280
     1
102
RTVSPost2010PropOp30
 70
     1
102
RTVSPost2010Prop31
280
     0
102
RTVSPost2010PropOp31
 70
     1
102
RTVSPost2010Prop32
280
     0
102
RTVSPost2010PropOp32
 70
     1
102
RTVSPost2010Prop33
280
     0
102
RTVSPost2010PropOp33
 70
     1
102
RTVSPost2010Prop34
280
     0
102
RTVSPost2010PropOp34
 70
     1
102
RTVSPost2010Prop35
280
     0
102
RTVSPost2010PropOp35
 70
     1
102
RTVSPost2010Prop36
280
     0
102
RTVSPost2010PropOp36
 70
     1
102
RTVSPost2010Prop37
 90
       50
102
RTVSPost2010PropOp37
 70
     1
102
RTVSPost2010Prop38
140
0.0
102
RTVSPost2010PropOp38
 70
     1
102
RTVSPost2010Prop39
140
1.0
102
RTVSPost2010PropOp39
 70
     1
102
RTVSPost2010Prop40
 90
        0
102
RTVSPost2010PropOp40
 70
     1
102
RTVSPost2010Prop41ColorIndex
 90
       18
102
RTVSPost2010Prop41ColorRGB
 90
        0
102
RTVSPost2010PropOp41
 70
     1
102
RTVSPost2010Prop42
 90
       50
102
RTVSPost2010PropOp42
 70
     1
102
RTVSPost2010Prop43
 90
        3
102
RTVSPost2010PropOp43
 70
     1
102
RTVSPost2010Prop44ColorIndex
 90
        5
102
RTVSPost2010Prop44ColorRGB
 90
      255
102
RTVSPost2010PropOp44
 70
     1
102
RTVSPost2010Prop45
280
     0
102
RTVSPost2010PropOp45
 70
     1
102
RTVSPost2010Prop46
 90
       50
102
RTVSPost2010PropOp46
 70
     1
102
RTVSPost2010Prop47
 90
       50
102
RTVSPost2010PropOp47
 70
     1
102
RTVSPost2010Prop48
 90
       50
102
RTVSPost2010PropOp48
 70
     1
102
RTVSPost2010Prop49
280
     0
102
RTVSPost2010PropOp49
 70
     1
102
RTVSPost2010Prop50
 90
       50
102
RTVSPost2010PropOp50
 70
     1
102
RTVSPost2010Prop51ColorIndex
 90
      256
102
RTVSPost2010Prop51ColorRGB
 90
-16777216
102
RTVSPost2010PropOp51
 70
     0
102
RTVSPost2010Prop52
140
1.0
102
RTVSPost2010PropOp52
 70
     0
102
RTVSPost2010Prop53
 90
        2
102
RTVSPost2010PropOp53
 70
     1
102
RTVSPost2010Prop54
  1
strokes_ogs.tif
102
RTVSPost2010PropOp54
 70
     1
102
RTVSPost2010Prop55
280
     0
102
RTVSPost2010PropOp55
 70
     1
102
RTVSPost2010Prop56
140
1.0
102
RTVSPost2010PropOp56
 70
     1
102
RTVSPost2010Prop57
140
1.0
102
RTVSPost2010PropOp57
 70
     1
102
RTVSPropertyOp0
 70
     1
102
RTVSPropertyOp1
 70
     1
102
RTVSPropertyOp2
 70
     1
102
RTVSPropertyOp3
 70
     1
102
RTVSPropertyOp4
 70
     1
102
RTVSPropertyOp5
 70
     1
102
RTVSPropertyOp6
 70
     1
102
RTVSPropertyOp7
 70
     1
102
RTVSPropertyOp8
 70
     1
102
RTVSPropertyOp9
 70
     1
102
RTVSPropertyOp10
 70
     1
102
RTVSPropertyOp11
 70
     1
102
RTVSPropertyOp12
 70
     1
102
RTVSPropertyOp13
 70
     1
102
RTVSPropertyOp14
 70
     1
102
RTVSPropertyOp15
 70
     1
102
RTVSPropertyOp16
 70
     1
102
RTVSPropertyOp17
 70
     1
102
RTVSPropertyOp18
 70
     1
102
RTVSPropertyOp19
 70
     1
102
RTVSPropertyOp20
 70
     1
102
RTVSPropertyOp21
 70
     1
102
RTVSPropertyOp22
 70
     1
102
RTVSPropertyOp23
 70
     1
102
RTVSPropertyOp24
 70
     1
102
RTVSPropertyOp25
 70
     1
102
RTVSPropertyOp26
 70
     1
102
RTVSPropertyOp27
 70
     1
102
RTVSPropertyOp28
 70
     1
102
RTVSPropertyOp29
 70
     1
102
RTVSPropertyOp30
 70
     1
102
RTVSPropertyOp31
 70
     1
102
RTVSPropertyOp32
 70
     1
102
RTVSPropertyOp33
 70
     1
102
RTVSPropertyOp34
 70
     1
102
RTVSPropertyOp35
 70
     1
102
RTVSPropertyOp36
 70
     1
102
RTVSPropertyOp37
 70
     1
102
RTVSPropertyOp38
 70
     1
102
RTVSPropertyOp39
 70
     1
102
RTVSPropertyOp40
 70
     1
102
RTVSPropertyOp41
 70
     1
102
RTVSPropertyOp42
 70
     1
102
RTVSPropertyOp43
 70
     1
102
RTVSPropertyOp44
 70
     1
102
RTVSPropertyOp45
 70
     1
102
RTVSPropertyOp46
 70
     1
102
RTVSPropertyOp47
 70
     1
102
RTVSPropertyOp48
 70
     1
102
RTVSPropertyOp49
 70
     1
102
RTVSPropertyOp50
 70
     1
102
RTVSPropertyOp51
 70
     0
102
RTVSPropertyOp52
 70
     0
102
RTVSPropertyOp53
 70
     1
102
RTVSPropertyOp54
 70
     1
102
RTVSPropertyOp55
 70
     1
102
RTVSPropertyOp56
 70
     1
102
RTVSPropertyOp57
 70
     1
102
RTVSPropertyOp58
 70
     1
102
RTVSPropertyOp59
 70
     1
102
RTVSPropertyOp60
 70
     1
102
RTVSPropertyOp61
 70
     1
102
RTVSPropertyOp62
 70
     1
  0
XRECORD
  5
4D39
102
{ACAD_REACTORS
330
4D38
102
}
330
4D38
100
AcDbXrecord
280
     1
102
RTVSPost2010Prop28
280
     0
102
RTVSPost2010PropOp28
 70
     1
102
RTVSPost2010Prop29
280
     1
102
RTVSPost2010PropOp29
 70
     1
102
RTVSPost2010Prop30
280
     1
102
RTVSPost2010PropOp30
 70
     1
102
RTVSPost2010Prop31
280
     0
102
RTVSPost2010PropOp31
 70
     1
102
RTVSPost2010Prop32
280
     0
102
RTVSPost2010PropOp32
 70
     1
102
RTVSPost2010Prop33
280
     0
102
RTVSPost2010PropOp33
 70
     1
102
RTVSPost2010Prop34
280
     0
102
RTVSPost2010PropOp34
 70
     1
102
RTVSPost2010Prop35
280
     0
102
RTVSPost2010PropOp35
 70
     1
102
RTVSPost2010Prop36
280
     0
102
RTVSPost2010PropOp36
 70
     1
102
RTVSPost2010Prop37
 90
       50
102
RTVSPost2010PropOp37
 70
     1
102
RTVSPost2010Prop38
140
0.0
102
RTVSPost2010PropOp38
 70
     1
102
RTVSPost2010Prop39
140
1.0
102
RTVSPost2010PropOp39
 70
     1
102
RTVSPost2010Prop40
 90
        0
102
RTVSPost2010PropOp40
 70
     1
102
RTVSPost2010Prop41ColorIndex
 90
       18
102
RTVSPost2010Prop41ColorRGB
 90
        0
102
RTVSPost2010PropOp41
 70
     1
102
RTVSPost2010Prop42
 90
       50
102
RTVSPost2010PropOp42
 70
     1
102
RTVSPost2010Prop43
 90
        3
102
RTVSPost2010PropOp43
 70
     1
102
RTVSPost2010Prop44ColorIndex
 90
        5
102
RTVSPost2010Prop44ColorRGB
 90
      255
102
RTVSPost2010PropOp44
 70
     1
102
RTVSPost2010Prop45
280
     0
102
RTVSPost2010PropOp45
 70
     1
102
RTVSPost2010Prop46
 90
       50
102
RTVSPost2010PropOp46
 70
     1
102
RTVSPost2010Prop47
 90
       50
102
RTVSPost2010PropOp47
 70
     1
102
RTVSPost2010Prop48
 90
       50
102
RTVSPost2010PropOp48
 70
     1
102
RTVSPost2010Prop49
280
     0
102
RTVSPost2010PropOp49
 70
     1
102
RTVSPost2010Prop50
 90
       50
102
RTVSPost2010PropOp50
 70
     1
102
RTVSPost2010Prop51ColorIndex
 90
      256
102
RTVSPost2010Prop51ColorRGB
 90
-16777216
102
RTVSPost2010PropOp51
 70
     0
102
RTVSPost2010Prop52
140
1.0
102
RTVSPost2010PropOp52
 70
     0
102
RTVSPost2010Prop53
 90
        2
102
RTVSPost2010PropOp53
 70
     1
102
RTVSPost2010Prop54
  1
strokes_ogs.tif
102
RTVSPost2010PropOp54
 70
     1
102
RTVSPost2010Prop55
280
     0
102
RTVSPost2010PropOp55
 70
     1
102
RTVSPost2010Prop56
140
1.0
102
RTVSPost2010PropOp56
 70
     1
102
RTVSPost2010Prop57
140
1.0
102
RTVSPost2010PropOp57
 70
     1
102
RTVSPropertyOp0
 70
     1
102
RTVSPropertyOp1
 70
     1
102
RTVSPropertyOp2
 70
     1
102
RTVSPropertyOp3
 70
     1
102
RTVSPropertyOp4
 70
     1
102
RTVSPropertyOp5
 70
     1
102
RTVSPropertyOp6
 70
     1
102
RTVSPropertyOp7
 70
     1
102
RTVSPropertyOp8
 70
     1
102
RTVSPropertyOp9
 70
     1
102
RTVSPropertyOp10
 70
     1
102
RTVSPropertyOp11
 70
     1
102
RTVSPropertyOp12
 70
     1
102
RTVSPropertyOp13
 70
     1
102
RTVSPropertyOp14
 70
     1
102
RTVSPropertyOp15
 70
     1
102
RTVSPropertyOp16
 70
     1
102
RTVSPropertyOp17
 70
     1
102
RTVSPropertyOp18
 70
     1
102
RTVSPropertyOp19
 70
     1
102
RTVSPropertyOp20
 70
     1
102
RTVSPropertyOp21
 70
     1
102
RTVSPropertyOp22
 70
     1
102
RTVSPropertyOp23
 70
     1
102
RTVSPropertyOp24
 70
     1
102
RTVSPropertyOp25
 70
     1
102
RTVSPropertyOp26
 70
     1
102
RTVSPropertyOp27
 70
     1
102
RTVSPropertyOp28
 70
     1
102
RTVSPropertyOp29
 70
     1
102
RTVSPropertyOp30
 70
     1
102
RTVSPropertyOp31
 70
     1
102
RTVSPropertyOp32
 70
     1
102
RTVSPropertyOp33
 70
     1
102
RTVSPropertyOp34
 70
     1
102
RTVSPropertyOp35
 70
     1
102
RTVSPropertyOp36
 70
     1
102
RTVSPropertyOp37
 70
     1
102
RTVSPropertyOp38
 70
     1
102
RTVSPropertyOp39
 70
     1
102
RTVSPropertyOp40
 70
     1
102
RTVSPropertyOp41
 70
     1
102
RTVSPropertyOp42
 70
     1
102
RTVSPropertyOp43
 70
     1
102
RTVSPropertyOp44
 70
     1
102
RTVSPropertyOp45
 70
     1
102
RTVSPropertyOp46
 70
     1
102
RTVSPropertyOp47
 70
     1
102
RTVSPropertyOp48
 70
     1
102
RTVSPropertyOp49
 70
     1
102
RTVSPropertyOp50
 70
     1
102
RTVSPropertyOp51
 70
     0
102
RTVSPropertyOp52
 70
     0
102
RTVSPropertyOp53
 70
     1
102
RTVSPropertyOp54
 70
     1
102
RTVSPropertyOp55
 70
     1
102
RTVSPropertyOp56
 70
     1
102
RTVSPropertyOp57
 70
     1
102
RTVSPropertyOp58
 70
     1
102
RTVSPropertyOp59
 70
     1
102
RTVSPropertyOp60
 70
     1
102
RTVSPropertyOp61
 70
     1
102
RTVSPropertyOp62
 70
     1
  0
XRECORD
  5
4D2F
102
{ACAD_REACTORS
330
4D2E
102
}
330
4D2E
100
AcDbXrecord
280
     1
102
RTVSPost2010Prop28
280
     0
102
RTVSPost2010PropOp28
 70
     1
102
RTVSPost2010Prop29
280
     1
102
RTVSPost2010PropOp29
 70
     1
102
RTVSPost2010Prop30
280
     1
102
RTVSPost2010PropOp30
 70
     1
102
RTVSPost2010Prop31
280
     0
102
RTVSPost2010PropOp31
 70
     1
102
RTVSPost2010Prop32
280
     0
102
RTVSPost2010PropOp32
 70
     1
102
RTVSPost2010Prop33
280
     0
102
RTVSPost2010PropOp33
 70
     1
102
RTVSPost2010Prop34
280
     0
102
RTVSPost2010PropOp34
 70
     1
102
RTVSPost2010Prop35
280
     0
102
RTVSPost2010PropOp35
 70
     1
102
RTVSPost2010Prop36
280
     0
102
RTVSPost2010PropOp36
 70
     1
102
RTVSPost2010Prop37
 90
       50
102
RTVSPost2010PropOp37
 70
     1
102
RTVSPost2010Prop38
140
0.0
102
RTVSPost2010PropOp38
 70
     1
102
RTVSPost2010Prop39
140
1.0
102
RTVSPost2010PropOp39
 70
     1
102
RTVSPost2010Prop40
 90
        0
102
RTVSPost2010PropOp40
 70
     1
102
RTVSPost2010Prop41ColorIndex
 90
       18
102
RTVSPost2010Prop41ColorRGB
 90
        0
102
RTVSPost2010PropOp41
 70
     1
102
RTVSPost2010Prop42
 90
       50
102
RTVSPost2010PropOp42
 70
     1
102
RTVSPost2010Prop43
 90
        3
102
RTVSPost2010PropOp43
 70
     1
102
RTVSPost2010Prop44ColorIndex
 90
        5
102
RTVSPost2010Prop44ColorRGB
 90
      255
102
RTVSPost2010PropOp44
 70
     1
102
RTVSPost2010Prop45
280
     0
102
RTVSPost2010PropOp45
 70
     1
102
RTVSPost2010Prop46
 90
       50
102
RTVSPost2010PropOp46
 70
     1
102
RTVSPost2010Prop47
 90
       50
102
RTVSPost2010PropOp47
 70
     1
102
RTVSPost2010Prop48
 90
       50
102
RTVSPost2010PropOp48
 70
     1
102
RTVSPost2010Prop49
280
     0
102
RTVSPost2010PropOp49
 70
     1
102
RTVSPost2010Prop50
 90
       50
102
RTVSPost2010PropOp50
 70
     1
102
RTVSPost2010Prop51ColorIndex
 90
      256
102
RTVSPost2010Prop51ColorRGB
 90
-16777216
102
RTVSPost2010PropOp51
 70
     0
102
RTVSPost2010Prop52
140
1.0
102
RTVSPost2010PropOp52
 70
     0
102
RTVSPost2010Prop53
 90
        2
102
RTVSPost2010PropOp53
 70
     1
102
RTVSPost2010Prop54
  1
strokes_ogs.tif
102
RTVSPost2010PropOp54
 70
     1
102
RTVSPost2010Prop55
280
     0
102
RTVSPost2010PropOp55
 70
     1
102
RTVSPost2010Prop56
140
1.0
102
RTVSPost2010PropOp56
 70
     1
102
RTVSPost2010Prop57
140
1.0
102
RTVSPost2010PropOp57
 70
     1
102
RTVSPropertyOp0
 70
     1
102
RTVSPropertyOp1
 70
     1
102
RTVSPropertyOp2
 70
     1
102
RTVSPropertyOp3
 70
     1
102
RTVSPropertyOp4
 70
     1
102
RTVSPropertyOp5
 70
     1
102
RTVSPropertyOp6
 70
     1
102
RTVSPropertyOp7
 70
     1
102
RTVSPropertyOp8
 70
     1
102
RTVSPropertyOp9
 70
     1
102
RTVSPropertyOp10
 70
     1
102
RTVSPropertyOp11
 70
     1
102
RTVSPropertyOp12
 70
     1
102
RTVSPropertyOp13
 70
     1
102
RTVSPropertyOp14
 70
     1
102
RTVSPropertyOp15
 70
     1
102
RTVSPropertyOp16
 70
     1
102
RTVSPropertyOp17
 70
     1
102
RTVSPropertyOp18
 70
     1
102
RTVSPropertyOp19
 70
     1
102
RTVSPropertyOp20
 70
     1
102
RTVSPropertyOp21
 70
     1
102
RTVSPropertyOp22
 70
     1
102
RTVSPropertyOp23
 70
     1
102
RTVSPropertyOp24
 70
     1
102
RTVSPropertyOp25
 70
     1
102
RTVSPropertyOp26
 70
     1
102
RTVSPropertyOp27
 70
     1
102
RTVSPropertyOp28
 70
     1
102
RTVSPropertyOp29
 70
     1
102
RTVSPropertyOp30
 70
     1
102
RTVSPropertyOp31
 70
     1
102
RTVSPropertyOp32
 70
     1
102
RTVSPropertyOp33
 70
     1
102
RTVSPropertyOp34
 70
     1
102
RTVSPropertyOp35
 70
     1
102
RTVSPropertyOp36
 70
     1
102
RTVSPropertyOp37
 70
     1
102
RTVSPropertyOp38
 70
     1
102
RTVSPropertyOp39
 70
     1
102
RTVSPropertyOp40
 70
     1
102
RTVSPropertyOp41
 70
     1
102
RTVSPropertyOp42
 70
     1
102
RTVSPropertyOp43
 70
     1
102
RTVSPropertyOp44
 70
     1
102
RTVSPropertyOp45
 70
     1
102
RTVSPropertyOp46
 70
     1
102
RTVSPropertyOp47
 70
     1
102
RTVSPropertyOp48
 70
     1
102
RTVSPropertyOp49
 70
     1
102
RTVSPropertyOp50
 70
     1
102
RTVSPropertyOp51
 70
     0
102
RTVSPropertyOp52
 70
     0
102
RTVSPropertyOp53
 70
     1
102
RTVSPropertyOp54
 70
     1
102
RTVSPropertyOp55
 70
     1
102
RTVSPropertyOp56
 70
     1
102
RTVSPropertyOp57
 70
     1
102
RTVSPropertyOp58
 70
     1
102
RTVSPropertyOp59
 70
     1
102
RTVSPropertyOp60
 70
     1
102
RTVSPropertyOp61
 70
     1
102
RTVSPropertyOp62
 70
     1
  0
XRECORD
  5
4D23
102
{ACAD_REACTORS
330
4D22
102
}
330
4D22
100
AcDbXrecord
280
     1
102
RTVSPost2010Prop28
280
     0
102
RTVSPost2010PropOp28
 70
     1
102
RTVSPost2010Prop29
280
     1
102
RTVSPost2010PropOp29
 70
     1
102
RTVSPost2010Prop30
280
     1
102
RTVSPost2010PropOp30
 70
     1
102
RTVSPost2010Prop31
280
     0
102
RTVSPost2010PropOp31
 70
     1
102
RTVSPost2010Prop32
280
     0
102
RTVSPost2010PropOp32
 70
     1
102
RTVSPost2010Prop33
280
     0
102
RTVSPost2010PropOp33
 70
     1
102
RTVSPost2010Prop34
280
     0
102
RTVSPost2010PropOp34
 70
     1
102
RTVSPost2010Prop35
280
     0
102
RTVSPost2010PropOp35
 70
     1
102
RTVSPost2010Prop36
280
     0
102
RTVSPost2010PropOp36
 70
     1
102
RTVSPost2010Prop37
 90
       50
102
RTVSPost2010PropOp37
 70
     1
102
RTVSPost2010Prop38
140
0.0
102
RTVSPost2010PropOp38
 70
     1
102
RTVSPost2010Prop39
140
1.0
102
RTVSPost2010PropOp39
 70
     1
102
RTVSPost2010Prop40
 90
        0
102
RTVSPost2010PropOp40
 70
     1
102
RTVSPost2010Prop41ColorIndex
 90
       18
102
RTVSPost2010Prop41ColorRGB
 90
        0
102
RTVSPost2010PropOp41
 70
     1
102
RTVSPost2010Prop42
 90
       50
102
RTVSPost2010PropOp42
 70
     1
102
RTVSPost2010Prop43
 90
        3
102
RTVSPost2010PropOp43
 70
     1
102
RTVSPost2010Prop44ColorIndex
 90
        5
102
RTVSPost2010Prop44ColorRGB
 90
      255
102
RTVSPost2010PropOp44
 70
     1
102
RTVSPost2010Prop45
280
     0
102
RTVSPost2010PropOp45
 70
     1
102
RTVSPost2010Prop46
 90
       50
102
RTVSPost2010PropOp46
 70
     1
102
RTVSPost2010Prop47
 90
       50
102
RTVSPost2010PropOp47
 70
     1
102
RTVSPost2010Prop48
 90
       50
102
RTVSPost2010PropOp48
 70
     1
102
RTVSPost2010Prop49
280
     0
102
RTVSPost2010PropOp49
 70
     1
102
RTVSPost2010Prop50
 90
       50
102
RTVSPost2010PropOp50
 70
     1
102
RTVSPost2010Prop51ColorIndex
 90
      256
102
RTVSPost2010Prop51ColorRGB
 90
-16777216
102
RTVSPost2010PropOp51
 70
     0
102
RTVSPost2010Prop52
140
1.0
102
RTVSPost2010PropOp52
 70
     0
102
RTVSPost2010Prop53
 90
        2
102
RTVSPost2010PropOp53
 70
     1
102
RTVSPost2010Prop54
  1
strokes_ogs.tif
102
RTVSPost2010PropOp54
 70
     1
102
RTVSPost2010Prop55
280
     0
102
RTVSPost2010PropOp55
 70
     1
102
RTVSPost2010Prop56
140
1.0
102
RTVSPost2010PropOp56
 70
     1
102
RTVSPost2010Prop57
140
1.0
102
RTVSPost2010PropOp57
 70
     1
102
RTVSPropertyOp0
 70
     1
102
RTVSPropertyOp1
 70
     1
102
RTVSPropertyOp2
 70
     1
102
RTVSPropertyOp3
 70
     1
102
RTVSPropertyOp4
 70
     1
102
RTVSPropertyOp5
 70
     1
102
RTVSPropertyOp6
 70
     1
102
RTVSPropertyOp7
 70
     1
102
RTVSPropertyOp8
 70
     1
102
RTVSPropertyOp9
 70
     1
102
RTVSPropertyOp10
 70
     1
102
RTVSPropertyOp11
 70
     1
102
RTVSPropertyOp12
 70
     1
102
RTVSPropertyOp13
 70
     1
102
RTVSPropertyOp14
 70
     1
102
RTVSPropertyOp15
 70
     1
102
RTVSPropertyOp16
 70
     1
102
RTVSPropertyOp17
 70
     1
102
RTVSPropertyOp18
 70
     1
102
RTVSPropertyOp19
 70
     1
102
RTVSPropertyOp20
 70
     1
102
RTVSPropertyOp21
 70
     1
102
RTVSPropertyOp22
 70
     1
102
RTVSPropertyOp23
 70
     1
102
RTVSPropertyOp24
 70
     1
102
RTVSPropertyOp25
 70
     1
102
RTVSPropertyOp26
 70
     1
102
RTVSPropertyOp27
 70
     1
102
RTVSPropertyOp28
 70
     1
102
RTVSPropertyOp29
 70
     1
102
RTVSPropertyOp30
 70
     1
102
RTVSPropertyOp31
 70
     1
102
RTVSPropertyOp32
 70
     1
102
RTVSPropertyOp33
 70
     1
102
RTVSPropertyOp34
 70
     1
102
RTVSPropertyOp35
 70
     1
102
RTVSPropertyOp36
 70
     1
102
RTVSPropertyOp37
 70
     1
102
RTVSPropertyOp38
 70
     1
102
RTVSPropertyOp39
 70
     1
102
RTVSPropertyOp40
 70
     1
102
RTVSPropertyOp41
 70
     1
102
RTVSPropertyOp42
 70
     1
102
RTVSPropertyOp43
 70
     1
102
RTVSPropertyOp44
 70
     1
102
RTVSPropertyOp45
 70
     1
102
RTVSPropertyOp46
 70
     1
102
RTVSPropertyOp47
 70
     1
102
RTVSPropertyOp48
 70
     1
102
RTVSPropertyOp49
 70
     1
102
RTVSPropertyOp50
 70
     1
102
RTVSPropertyOp51
 70
     0
102
RTVSPropertyOp52
 70
     0
102
RTVSPropertyOp53
 70
     1
102
RTVSPropertyOp54
 70
     1
102
RTVSPropertyOp55
 70
     1
102
RTVSPropertyOp56
 70
     1
102
RTVSPropertyOp57
 70
     1
102
RTVSPropertyOp58
 70
     1
102
RTVSPropertyOp59
 70
     1
102
RTVSPropertyOp60
 70
     1
102
RTVSPropertyOp61
 70
     1
102
RTVSPropertyOp62
 70
     1
  0
XRECORD
  5
4D3B
102
{ACAD_REACTORS
330
4D3A
102
}
330
4D3A
100
AcDbXrecord
280
     1
102
RTVSPost2010Prop28
280
     0
102
RTVSPost2010PropOp28
 70
     1
102
RTVSPost2010Prop29
280
     1
102
RTVSPost2010PropOp29
 70
     1
102
RTVSPost2010Prop30
280
     1
102
RTVSPost2010PropOp30
 70
     1
102
RTVSPost2010Prop31
280
     0
102
RTVSPost2010PropOp31
 70
     1
102
RTVSPost2010Prop32
280
     0
102
RTVSPost2010PropOp32
 70
     1
102
RTVSPost2010Prop33
280
     0
102
RTVSPost2010PropOp33
 70
     1
102
RTVSPost2010Prop34
280
     0
102
RTVSPost2010PropOp34
 70
     1
102
RTVSPost2010Prop35
280
     0
102
RTVSPost2010PropOp35
 70
     1
102
RTVSPost2010Prop36
280
     0
102
RTVSPost2010PropOp36
 70
     1
102
RTVSPost2010Prop37
 90
       50
102
RTVSPost2010PropOp37
 70
     1
102
RTVSPost2010Prop38
140
0.0
102
RTVSPost2010PropOp38
 70
     1
102
RTVSPost2010Prop39
140
1.0
102
RTVSPost2010PropOp39
 70
     1
102
RTVSPost2010Prop40
 90
        0
102
RTVSPost2010PropOp40
 70
     1
102
RTVSPost2010Prop41ColorIndex
 90
       18
102
RTVSPost2010Prop41ColorRGB
 90
        0
102
RTVSPost2010PropOp41
 70
     1
102
RTVSPost2010Prop42
 90
       50
102
RTVSPost2010PropOp42
 70
     1
102
RTVSPost2010Prop43
 90
        3
102
RTVSPost2010PropOp43
 70
     1
102
RTVSPost2010Prop44ColorIndex
 90
        5
102
RTVSPost2010Prop44ColorRGB
 90
      255
102
RTVSPost2010PropOp44
 70
     1
102
RTVSPost2010Prop45
280
     0
102
RTVSPost2010PropOp45
 70
     1
102
RTVSPost2010Prop46
 90
       50
102
RTVSPost2010PropOp46
 70
     1
102
RTVSPost2010Prop47
 90
       50
102
RTVSPost2010PropOp47
 70
     1
102
RTVSPost2010Prop48
 90
       50
102
RTVSPost2010PropOp48
 70
     1
102
RTVSPost2010Prop49
280
     0
102
RTVSPost2010PropOp49
 70
     1
102
RTVSPost2010Prop50
 90
       50
102
RTVSPost2010PropOp50
 70
     1
102
RTVSPost2010Prop51ColorIndex
 90
      256
102
RTVSPost2010Prop51ColorRGB
 90
-16777216
102
RTVSPost2010PropOp51
 70
     0
102
RTVSPost2010Prop52
140
1.0
102
RTVSPost2010PropOp52
 70
     0
102
RTVSPost2010Prop53
 90
        2
102
RTVSPost2010PropOp53
 70
     1
102
RTVSPost2010Prop54
  1
strokes_ogs.tif
102
RTVSPost2010PropOp54
 70
     1
102
RTVSPost2010Prop55
280
     0
102
RTVSPost2010PropOp55
 70
     1
102
RTVSPost2010Prop56
140
1.0
102
RTVSPost2010PropOp56
 70
     1
102
RTVSPost2010Prop57
140
1.0
102
RTVSPost2010PropOp57
 70
     1
102
RTVSPropertyOp0
 70
     1
102
RTVSPropertyOp1
 70
     1
102
RTVSPropertyOp2
 70
     1
102
RTVSPropertyOp3
 70
     1
102
RTVSPropertyOp4
 70
     1
102
RTVSPropertyOp5
 70
     1
102
RTVSPropertyOp6
 70
     1
102
RTVSPropertyOp7
 70
     1
102
RTVSPropertyOp8
 70
     1
102
RTVSPropertyOp9
 70
     1
102
RTVSPropertyOp10
 70
     1
102
RTVSPropertyOp11
 70
     1
102
RTVSPropertyOp12
 70
     1
102
RTVSPropertyOp13
 70
     1
102
RTVSPropertyOp14
 70
     1
102
RTVSPropertyOp15
 70
     1
102
RTVSPropertyOp16
 70
     1
102
RTVSPropertyOp17
 70
     1
102
RTVSPropertyOp18
 70
     1
102
RTVSPropertyOp19
 70
     1
102
RTVSPropertyOp20
 70
     1
102
RTVSPropertyOp21
 70
     1
102
RTVSPropertyOp22
 70
     1
102
RTVSPropertyOp23
 70
     1
102
RTVSPropertyOp24
 70
     1
102
RTVSPropertyOp25
 70
     1
102
RTVSPropertyOp26
 70
     1
102
RTVSPropertyOp27
 70
     1
102
RTVSPropertyOp28
 70
     1
102
RTVSPropertyOp29
 70
     1
102
RTVSPropertyOp30
 70
     1
102
RTVSPropertyOp31
 70
     1
102
RTVSPropertyOp32
 70
     1
102
RTVSPropertyOp33
 70
     1
102
RTVSPropertyOp34
 70
     1
102
RTVSPropertyOp35
 70
     1
102
RTVSPropertyOp36
 70
     1
102
RTVSPropertyOp37
 70
     1
102
RTVSPropertyOp38
 70
     1
102
RTVSPropertyOp39
 70
     1
102
RTVSPropertyOp40
 70
     1
102
RTVSPropertyOp41
 70
     1
102
RTVSPropertyOp42
 70
     1
102
RTVSPropertyOp43
 70
     1
102
RTVSPropertyOp44
 70
     1
102
RTVSPropertyOp45
 70
     1
102
RTVSPropertyOp46
 70
     1
102
RTVSPropertyOp47
 70
     1
102
RTVSPropertyOp48
 70
     1
102
RTVSPropertyOp49
 70
     1
102
RTVSPropertyOp50
 70
     1
102
RTVSPropertyOp51
 70
     0
102
RTVSPropertyOp52
 70
     0
102
RTVSPropertyOp53
 70
     1
102
RTVSPropertyOp54
 70
     1
102
RTVSPropertyOp55
 70
     1
102
RTVSPropertyOp56
 70
     1
102
RTVSPropertyOp57
 70
     1
102
RTVSPropertyOp58
 70
     1
102
RTVSPropertyOp59
 70
     1
102
RTVSPropertyOp60
 70
     1
102
RTVSPropertyOp61
 70
     1
102
RTVSPropertyOp62
 70
     1
  0
ENDSEC
  0
EOF
