  0
SECTION
  2
HEADER
  9
$ACADVER
  1
AC1015
  9
$ACADMAINTVER
 70
    20
  9
$DWGCODEPAGE
  3
ANSI_932
  9
$INSBASE
 10
0.0
 20
0.0
 30
0.0
  9
$EXTMIN
 10
10.0
 20
9.999999999999998
 30
0.0
  9
$EXTMAX
 10
402.8259999999998
 20
342.1176039999999
 30
0.0
  9
$LIMMIN
 10
0.0
 20
0.0
  9
$LIMMAX
 10
495.0
 20
341.25
  9
$ORTHOMODE
 70
     1
  9
$REGENMODE
 70
     1
  9
$FILLMODE
 70
     1
  9
$QTEXTMODE
 70
     0
  9
$MIRRTEXT
 70
     1
  9
$LTSCALE
 40
20.0
  9
$ATTMODE
 70
     1
  9
$TEXTSIZE
 40
5.0
  9
$TRACEWID
 40
1.0
  9
$TEXTSTYLE
  7
STANDARD
  9
$CLAYER
  8
0
  9
$CELTYPE
  6
BYLAYER
  9
$CECOLOR
 62
   256
  9
$CELTSCALE
 40
1.0
  9
$DISPSILH
 70
     0
  9
$DIMSCALE
 40
1.0
  9
$DIMASZ
 40
3.0
  9
$DIMEXO
 40
1.0
  9
$DIMDLI
 40
10.0
  9
$DIMRND
 40
0.0
  9
$DIMDLE
 40
0.0
  9
$DIMEXE
 40
1.0
  9
$DIMTP
 40
0.0
  9
$DIMTM
 40
0.0
  9
$DIMTXT
 40
3.2
  9
$DIMCEN
 40
0.0
  9
$DIMTSZ
 40
0.0
  9
$DIMTOL
 70
     0
  9
$DIMLIM
 70
     0
  9
$DIMTIH
 70
     0
  9
$DIMTOH
 70
     0
  9
$DIMSE1
 70
     0
  9
$DIMSE2
 70
     0
  9
$DIMTAD
 70
     3
  9
$DIMZIN
 70
     8
  9
$DIMBLK
  1

  9
$DIMASO
 70
     1
  9
$DIMSHO
 70
     1
  9
$DIMPOST
  1

  9
$DIMAPOST
  1

  9
$DIMALT
 70
     0
  9
$DIMALTD
 70
     2
  9
$DIMALTF
 40
25.4
  9
$DIMLFAC
 40
1.0
  9
$DIMTOFL
 70
     1
  9
$DIMTVP
 40
0.0
  9
$DIMTIX
 70
     0
  9
$DIMSOXD
 70
     0
  9
$DIMSAH
 70
     1
  9
$DIMBLK1
  1

  9
$DIMBLK2
  1

  9
$DIMSTYLE
  2
STANDARD
  9
$DIMCLRD
 70
     0
  9
$DIMCLRE
 70
     0
  9
$DIMCLRT
 70
     0
  9
$DIMTFAC
 40
1.0
  9
$DIMGAP
 40
1.0
  9
$DIMJUST
 70
     0
  9
$DIMSD1
 70
     0
  9
$DIMSD2
 70
     0
  9
$DIMTOLJ
 70
     1
  9
$DIMTZIN
 70
     0
  9
$DIMALTZ
 70
     0
  9
$DIMALTTZ
 70
     0
  9
$DIMUPT
 70
     0
  9
$DIMDEC
 70
     4
  9
$DIMTDEC
 70
     4
  9
$DIMALTU
 70
     2
  9
$DIMALTTD
 70
     2
  9
$DIMTXSTY
  7
STANDARD
  9
$DIMAUNIT
 70
     0
  9
$DIMADEC
 70
     0
  9
$DIMALTRND
 40
0.0
  9
$DIMAZIN
 70
     0
  9
$DIMDSEP
 70
    46
  9
$DIMATFIT
 70
     3
  9
$DIMFRAC
 70
     0
  9
$DIMLDRBLK
  1

  9
$DIMLUNIT
 70
     2
  9
$DIMLWD
 70
    -2
  9
$DIMLWE
 70
    -2
  9
$DIMTMOVE
 70
     0
  9
$LUNITS
 70
     2
  9
$LUPREC
 70
     4
  9
$SKETCHINC
 40
1.0
  9
$FILLETRAD
 40
0.0
  9
$AUNITS
 70
     0
  9
$AUPREC
 70
     2
  9
$MENU
  1
.
  9
$ELEVATION
 40
0.0
  9
$PELEVATION
 40
0.0
  9
$THICKNESS
 40
0.0
  9
$LIMCHECK
 70
     0
  9
$CHAMFERA
 40
10.0
  9
$CHAMFERB
 40
10.0
  9
$CHAMFERC
 40
0.0
  9
$CHAMFERD
 40
0.0
  9
$SKPOLY
 70
     0
  9
$TDCREATE
 40
2450737.565963889
  9
$TDUCREATE
 40
2450737.190963889
  9
$TDUPDATE
 40
2457192.643420741
  9
$TDUUPDATE
 40
2457192.268420741
  9
$TDINDWG
 40
0.0000193171
  9
$TDUSRTIMER
 40
0.0000189931
  9
$USRTIMER
 70
     1
  9
$ANGBASE
 50
0.0
  9
$ANGDIR
 70
     0
  9
$PDMODE
 70
     0
  9
$PDSIZE
 40
0.0
  9
$PLINEWID
 40
0.0
  9
$SPLFRAME
 70
     0
  9
$SPLINETYPE
 70
     6
  9
$SPLINESEGS
 70
     8
  9
$HANDSEED
  5
AE08
  9
$SURFTAB1
 70
     6
  9
$SURFTAB2
 70
     6
  9
$SURFTYPE
 70
     6
  9
$SURFU
 70
     6
  9
$SURFV
 70
     6
  9
$UCSBASE
  2

  9
$UCSNAME
  2

  9
$UCSORG
 10
0.0
 20
0.0
 30
0.0
  9
$UCSXDIR
 10
1.0
 20
0.0
 30
0.0
  9
$UCSYDIR
 10
0.0
 20
1.0
 30
0.0
  9
$UCSORTHOREF
  2

  9
$UCSORTHOVIEW
 70
     0
  9
$UCSORGTOP
 10
0.0
 20
0.0
 30
0.0
  9
$UCSORGBOTTOM
 10
0.0
 20
0.0
 30
0.0
  9
$UCSORGLEFT
 10
0.0
 20
0.0
 30
0.0
  9
$UCSORGRIGHT
 10
0.0
 20
0.0
 30
0.0
  9
$UCSORGFRONT
 10
0.0
 20
0.0
 30
0.0
  9
$UCSORGBACK
 10
0.0
 20
0.0
 30
0.0
  9
$PUCSBASE
  2

  9
$PUCSNAME
  2

  9
$PUCSORG
 10
0.0
 20
0.0
 30
0.0
  9
$PUCSXDIR
 10
1.0
 20
0.0
 30
0.0
  9
$PUCSYDIR
 10
0.0
 20
1.0
 30
0.0
  9
$PUCSORTHOREF
  2

  9
$PUCSORTHOVIEW
 70
     0
  9
$PUCSORGTOP
 10
0.0
 20
0.0
 30
0.0
  9
$PUCSORGBOTTOM
 10
0.0
 20
0.0
 30
0.0
  9
$PUCSORGLEFT
 10
0.0
 20
0.0
 30
0.0
  9
$PUCSORGRIGHT
 10
0.0
 20
0.0
 30
0.0
  9
$PUCSORGFRONT
 10
0.0
 20
0.0
 30
0.0
  9
$PUCSORGBACK
 10
0.0
 20
0.0
 30
0.0
  9
$USERI1
 70
     0
  9
$USERI2
 70
     0
  9
$USERI3
 70
     0
  9
$USERI4
 70
     0
  9
$USERI5
 70
     0
  9
$USERR1
 40
0.0
  9
$USERR2
 40
0.0
  9
$USERR3
 40
0.0
  9
$USERR4
 40
0.0
  9
$USERR5
 40
0.0
  9
$WORLDVIEW
 70
     1
  9
$SHADEDGE
 70
     3
  9
$SHADEDIF
 70
    70
  9
$TILEMODE
 70
     1
  9
$MAXACTVP
 70
    16
  9
$PINSBASE
 10
0.0
 20
0.0
 30
0.0
  9
$PLIMCHECK
 70
     0
  9
$PEXTMIN
 10
1.000000000000000E+20
 20
1.000000000000000E+20
 30
1.000000000000000E+20
  9
$PEXTMAX
 10
-1.000000000000000E+20
 20
-1.000000000000000E+20
 30
-1.000000000000000E+20
  9
$PLIMMIN
 10
0.0
 20
0.0
  9
$PLIMMAX
 10
420.0
 20
297.0
  9
$UNITMODE
 70
     0
  9
$VISRETAIN
 70
     0
  9
$PLINEGEN
 70
     0
  9
$PSLTSCALE
 70
     0
  9
$TREEDEPTH
 70
  3020
  9
$CMLSTYLE
  2
STANDARD
  9
$CMLJUST
 70
     0
  9
$CMLSCALE
 40
1.0
  9
$PROXYGRAPHICS
 70
     1
  9
$MEASUREMENT
 70
     0
  9
$CELWEIGHT
370
    -1
  9
$ENDCAPS
280
     0
  9
$JOINSTYLE
280
     0
  9
$LWDISPLAY
290
     0
  9
$INSUNITS
 70
     0
  9
$HYPERLINKBASE
  1

  9
$STYLESHEET
  1

  9
$XEDIT
290
     1
  9
$CEPSNTYPE
380
     0
  9
$PSTYLEMODE
290
     1
  9
$FINGERPRINTGUID
  2
{58E71EC8-06A9-4F42-A34C-DD6649C8EC9B}
  9
$VERSIONGUID
  2
{677AFAA0-60D6-4F98-95F2-4CF3838EC4D4}
  9
$EXTNAMES
290
     1
  9
$PSVPSCALE
 40
0.0
  9
$OLESTARTUP
290
     0
  0
ENDSEC
  0
SECTION
  2
CLASSES
  0
CLASS
  1
ACDBDICTIONARYWDFLT
  2
AcDbDictionaryWithDefault
  3
ObjectDBX Classes
 90
        0
280
     0
281
     0
  0
CLASS
  1
ACDBPLACEHOLDER
  2
AcDbPlaceHolder
  3
ObjectDBX Classes
 90
        0
280
     0
281
     0
  0
CLASS
  1
LAYOUT
  2
AcDbLayout
  3
ObjectDBX Classes
 90
        0
280
     0
281
     0
  0
CLASS
  1
DICTIONARYVAR
  2
AcDbDictionaryVar
  3
ObjectDBX Classes
 90
        0
280
     0
281
     0
  0
CLASS
  1
MATERIAL
  2
AcDbMaterial
  3
ObjectDBX Classes
 90
     1153
280
     0
281
     0
  0
CLASS
  1
VISUALSTYLE
  2
AcDbVisualStyle
  3
ObjectDBX Classes
 90
     4095
280
     0
281
     0
  0
CLASS
  1
TABLESTYLE
  2
AcDbTableStyle
  3
ObjectDBX Classes
 90
     4095
280
     0
281
     0
  0
CLASS
  1
SCALE
  2
AcDbScale
  3
ObjectDBX Classes
 90
     1153
280
     0
281
     0
  0
CLASS
  1
MLEADERSTYLE
  2
AcDbMLeaderStyle
  3
ACDB_MLEADERSTYLE_CLASS
 90
     4095
280
     0
281
     0
  0
CLASS
  1
ACDBSECTIONVIEWSTYLE
  2
AcDbSectionViewStyle
  3
ObjectDBX Classes
 90
     1025
280
     0
281
     0
  0
CLASS
  1
ACDBDETAILVIEWSTYLE
  2
AcDbDetailViewStyle
  3
ObjectDBX Classes
 90
     1025
280
     0
281
     0
  0
CLASS
  1
CELLSTYLEMAP
  2
AcDbCellStyleMap
  3
ObjectDBX Classes
 90
     1152
280
     0
281
     0
  0
ENDSEC
  0
SECTION
  2
TABLES
  0
TABLE
  2
VPORT
  5
A7C4
330
0
100
AcDbSymbolTable
 70
     1
  0
VPORT
  5
AD51
330
A7C4
100
AcDbSymbolTableRecord
100
AcDbViewportTableRecord
  2
*ACTIVE
 70
     0
 10
0.0
 20
0.0
 11
1.0
 21
1.0
 12
307.0080553630198
 22
176.053362693554
 13
0.0
 23
0.0
 14
10.0
 24
10.0
 15
10.0
 25
10.0
 16
0.0
 26
0.0
 36
1.0
 17
0.0
 27
0.0
 37
0.0
 40
335.8471427109428
 41
1.899603698811096
 42
50.0
 43
0.0
 44
0.0
 50
0.0
 51
0.0
 71
     0
 72
   100
 73
     1
 74
     0
 75
     0
 76
     0
 77
     0
 78
     0
281
     0
 65
     1
110
0.0
120
0.0
130
0.0
111
1.0
121
0.0
131
0.0
112
0.0
122
1.0
132
0.0
 79
     0
146
0.0
1001
ACAD_NAV_VCDISPLAY
1070
     3
  0
ENDTAB
  0
TABLE
  2
LTYPE
  5
A7C1
330
0
100
AcDbSymbolTable
 70
     4
  0
LTYPE
  5
A7CF
330
A7C1
100
AcDbSymbolTableRecord
100
AcDbLinetypeTableRecord
  2
BYBLOCK
 70
     0
  3

 72
    65
 73
     0
 40
0.0
  0
LTYPE
  5
A7D0
330
A7C1
100
AcDbSymbolTableRecord
100
AcDbLinetypeTableRecord
  2
BYLAYER
 70
     0
  3

 72
    65
 73
     0
 40
0.0
  0
LTYPE
  5
A7D1
330
A7C1
100
AcDbSymbolTableRecord
100
AcDbLinetypeTableRecord
  2
CONTINUOUS
 70
     0
  3
Solid line
 72
    65
 73
     0
 40
0.0
  0
LTYPE
  5
A7DF
330
A7C1
100
AcDbSymbolTableRecord
100
AcDbLinetypeTableRecord
  2
DASHED
 70
     0
  3
__ __ __ __ __ __ __ __ __ __ __ __ __ __ __ __
 72
    65
 73
     2
 40
0.75
 49
0.5
 74
     0
 49
-0.25
 74
     0
  0
LTYPE
  5
A7E0
330
A7C1
100
AcDbSymbolTableRecord
100
AcDbLinetypeTableRecord
  2
CENTER
 70
     0
  3
____ _ ____ _ ____ _ ____ _ ____ _ ____ _ ____ 
 72
    65
 73
     4
 40
2.0
 49
1.25
 74
     0
 49
-0.25
 74
     0
 49
0.25
 74
     0
 49
-0.25
 74
     0
  0
LTYPE
  5
A7E1
330
A7C1
100
AcDbSymbolTableRecord
100
AcDbLinetypeTableRecord
  2
PHANTOM
 70
     0
  3
______  __  __  ______  __  __  ______  __  __ 
 72
    65
 73
     6
 40
2.5
 49
1.25
 74
     0
 49
-0.25
 74
     0
 49
0.25
 74
     0
 49
-0.25
 74
     0
 49
0.25
 74
     0
 49
-0.25
 74
     0
  0
ENDTAB
  0
TABLE
  2
LAYER
  5
A7BE
330
0
100
AcDbSymbolTable
 70
     8
  0
LAYER
  5
A7CC
102
{ACAD_XDICTIONARY
360
ADAC
102
}
330
A7BE
100
AcDbSymbolTableRecord
100
AcDbLayerTableRecord
  2
0
 70
     0
 62
     7
  6
CONTINUOUS
370
    -3
390
AD5A
  0
LAYER
  5
A7E2
102
{ACAD_XDICTIONARY
360
ADAE
102
}
330
A7BE
100
AcDbSymbolTableRecord
100
AcDbLayerTableRecord
  2
4
 70
     0
 62
     1
  6
CENTER
370
    -3
390
AD5A
  0
LAYER
  5
A7E3
102
{ACAD_XDICTIONARY
360
ADB0
102
}
330
A7BE
100
AcDbSymbolTableRecord
100
AcDbLayerTableRecord
  2
5
 70
     0
 62
     6
  6
PHANTOM
370
    -3
390
AD5A
  0
LAYER
  5
A7E4
102
{ACAD_XDICTIONARY
360
ADB2
102
}
330
A7BE
100
AcDbSymbolTableRecord
100
AcDbLayerTableRecord
  2
1
 70
     0
 62
     7
  6
CONTINUOUS
370
    -3
390
AD5A
  0
LAYER
  5
A7E5
102
{ACAD_XDICTIONARY
360
ADB4
102
}
330
A7BE
100
AcDbSymbolTableRecord
100
AcDbLayerTableRecord
  2
2
 70
     0
 62
     4
  6
CONTINUOUS
370
    -3
390
AD5A
  0
LAYER
  5
A7E6
102
{ACAD_XDICTIONARY
360
ADB6
102
}
330
A7BE
100
AcDbSymbolTableRecord
100
AcDbLayerTableRecord
  2
3
 70
     0
 62
     2
  6
DASHED
370
    -3
390
AD5A
  0
LAYER
  5
A7E7
102
{ACAD_XDICTIONARY
360
ADB8
102
}
330
A7BE
100
AcDbSymbolTableRecord
100
AcDbLayerTableRecord
  2
6
 70
     0
 62
     5
  6
CONTINUOUS
370
    -3
390
AD5A
  0
LAYER
  5
A7E8
102
{ACAD_XDICTIONARY
360
ADBA
102
}
330
A7BE
100
AcDbSymbolTableRecord
100
AcDbLayerTableRecord
  2
7
 70
     0
 62
     3
  6
CONTINUOUS
370
    -3
390
AD5A
  0
ENDTAB
  0
TABLE
  2
STYLE
  5
A7BF
330
0
100
AcDbSymbolTable
 70
     1
  0
STYLE
  5
A7CD
330
A7BF
100
AcDbSymbolTableRecord
100
AcDbTextStyleTableRecord
  2
STANDARD
 70
     0
 40
0.0
 41
1.0
 50
0.0
 71
     0
 42
5.0
  3
txt
  4

  0
ENDTAB
  0
TABLE
  2
VIEW
  5
A7C2
330
0
100
AcDbSymbolTable
 70
     0
  0
ENDTAB
  0
TABLE
  2
UCS
  5
A7C3
330
0
100
AcDbSymbolTable
 70
     0
  0
ENDTAB
  0
TABLE
  2
APPID
  5
A7C5
330
0
100
AcDbSymbolTable
 70
     3
  0
APPID
  5
A7CE
330
A7C5
100
AcDbSymbolTableRecord
100
AcDbRegAppTableRecord
  2
ACAD
 70
     0
  0
APPID
  5
ADC6
330
A7C5
100
AcDbSymbolTableRecord
100
AcDbRegAppTableRecord
  2
ACAD_NAV_VCDISPLAY
 70
     0
  0
APPID
  5
ADFF
330
A7C5
100
AcDbSymbolTableRecord
100
AcDbRegAppTableRecord
  2
ACAD_MLEADERVER
 70
     0
  0
ENDTAB
  0
TABLE
  2
DIMSTYLE
  5
A7C6
330
0
100
AcDbSymbolTable
 70
     1
100
AcDbDimStyleTable
 71
     0
  0
DIMSTYLE
105
A7EA
330
A7C6
100
AcDbSymbolTableRecord
100
AcDbDimStyleTableRecord
  2
STANDARD
 70
     0
 41
3.0
 42
1.0
 43
10.0
 44
1.0
 73
     0
 74
     0
 77
     3
 78
     8
140
3.2
141
0.0
147
1.0
172
     1
173
     1
284
     8
285
     8
286
     8
340
A7CD
  0
ENDTAB
  0
TABLE
  2
BLOCK_RECORD
  5
A7BD
330
0
100
AcDbSymbolTable
 70
     0
  0
BLOCK_RECORD
  5
A7DA
102
{ACAD_XDICTIONARY
360
AD54
102
}
330
A7BD
100
AcDbSymbolTableRecord
100
AcDbBlockTableRecord
  2
*MODEL_SPACE
340
ADA8
  0
BLOCK_RECORD
  5
A7D6
102
{ACAD_XDICTIONARY
360
AD52
102
}
330
A7BD
100
AcDbSymbolTableRecord
100
AcDbBlockTableRecord
  2
*PAPER_SPACE
340
ADA9
  0
ENDTAB
  0
ENDSEC
  0
SECTION
  2
BLOCKS
  0
BLOCK
  5
A7DB
330
A7DA
100
AcDbEntity
  8
0
100
AcDbBlockBegin
  2
*MODEL_SPACE
 70
     0
 10
0.0
 20
0.0
 30
0.0
  3
*MODEL_SPACE
  1

  0
ENDBLK
  5
A7DC
330
A7DA
100
AcDbEntity
  8
0
100
AcDbBlockEnd
  0
BLOCK
  5
A7D7
330
A7D6
100
AcDbEntity
 67
     1
  8
0
100
AcDbBlockBegin
  2
*PAPER_SPACE
 70
     0
 10
0.0
 20
0.0
 30
0.0
  3
*PAPER_SPACE
  1

  0
ENDBLK
  5
A7D8
330
A7D6
100
AcDbEntity
 67
     1
  8
0
100
AcDbBlockEnd
  0
ENDSEC
  0
SECTION
  2
ENTITIES
  0
TEXT
  5
A7F2
330
A7DA
100
AcDbEntity
  8
7
  6
Continuous
100
AcDbText
 10
10.0
 20
18.0
 30
0.0
 40
3.0
  1
TYPE No.THA-450-1
100
AcDbText
  0
TEXT
  5
A7F3
330
A7DA
100
AcDbEntity
  8
7
  6
Continuous
100
AcDbText
 10
10.0
 20
26.0
 30
0.0
 40
3.0
  1
CODE No.3345
100
AcDbText
  0
TEXT
  5
A7F4
330
A7DA
100
AcDbEntity
  8
1
  6
Continuous
100
AcDbText
 10
10.0
 20
10.0
 30
0.0
 40
1.399999999999999
  1
LAYER
100
AcDbText
  0
TEXT
  5
A7F5
330
A7DA
100
AcDbEntity
  8
1
  6
Continuous
100
AcDbText
 10
17.97951099999998
 20
10.04873699999998
 30
0.0
 40
1.399999999999999
  1
1
100
AcDbText
  0
TEXT
  5
A7F6
330
A7DA
100
AcDbEntity
  8
7
  6
Continuous
100
AcDbText
 10
29.97951099999999
 20
10.04873699999998
 30
0.0
 40
1.399999999999999
  1
7
100
AcDbText
  0
TEXT
  5
A7F7
330
A7DA
100
AcDbEntity
  8
4
  6
CENTER
100
AcDbText
 10
23.97951099999999
 20
10.04873699999998
 30
0.0
 40
1.399999999999999
  1
4
100
AcDbText
  0
TEXT
  5
A7F8
330
A7DA
100
AcDbEntity
  8
3
  6
DASHED
100
AcDbText
 10
21.979511
 20
10.04873699999998
 30
0.0
 40
1.399999999999999
  1
3
100
AcDbText
  0
TEXT
  5
A7F9
330
A7DA
100
AcDbEntity
  8
2
  6
Continuous
100
AcDbText
 10
19.97951099999999
 20
10.04873699999998
 30
0.0
 40
1.399999999999999
  1
2
100
AcDbText
  0
TEXT
  5
A7FA
330
A7DA
100
AcDbEntity
  8
6
  6
Continuous
100
AcDbText
 10
27.979511
 20
10.04873699999998
 30
0.0
 40
1.399999999999999
  1
6
100
AcDbText
  0
TEXT
  5
A7FB
330
A7DA
100
AcDbEntity
  8
5
  6
PHANTOM
100
AcDbText
 10
25.97951099999999
 20
10.04873699999998
 30
0.0
 40
1.399999999999999
  1
5
100
AcDbText
  0
LINE
  5
A7FC
330
A7DA
100
AcDbEntity
  8
1
  6
Continuous
100
AcDbLine
 10
110.6589999999999
 20
228.7666039999999
 30
0.0
 11
110.6589999999999
 21
126.7666039999999
 31
0.0
  0
LINE
  5
A7FD
330
A7DA
100
AcDbEntity
  8
1
  6
Continuous
100
AcDbLine
 10
185.6589999999999
 20
228.7666039999999
 30
0.0
 11
185.6589999999999
 21
126.7666039999999
 31
0.0
  0
LINE
  5
A7FE
330
A7DA
100
AcDbEntity
  8
1
  6
Continuous
100
AcDbLine
 10
181.6589999999999
 20
122.766604
 30
0.0
 11
114.6589999999999
 21
122.766604
 31
0.0
  0
LINE
  5
A7FF
330
A7DA
100
AcDbEntity
  8
1
  6
Continuous
100
AcDbLine
 10
181.6589999999999
 20
232.7666039999999
 30
0.0
 11
114.6589999999999
 21
232.7666039999999
 31
0.0
  0
LINE
  5
A800
330
A7DA
100
AcDbEntity
  8
1
  6
Continuous
100
AcDbLine
 10
175.6589999999999
 20
229.766604
 30
0.0
 11
120.659
 21
229.766604
 31
0.0
  0
LINE
  5
A801
330
A7DA
100
AcDbEntity
  8
1
  6
Continuous
100
AcDbLine
 10
173.27
 20
125.7666039999999
 30
0.0
 11
120.659
 21
125.7666039999999
 31
0.0
  0
LINE
  5
A802
330
A7DA
100
AcDbEntity
  8
1
  6
Continuous
100
AcDbLine
 10
116.659
 20
193.948604
 30
0.0
 11
116.659
 21
129.7666039999998
 31
0.0
  0
LINE
  5
A803
330
A7DA
100
AcDbEntity
  8
1
  6
Continuous
100
AcDbLine
 10
116.659
 20
225.766604
 30
0.0
 11
116.659
 21
211.584604
 31
0.0
  0
LINE
  5
A804
330
A7DA
100
AcDbEntity
  8
1
  6
Continuous
100
AcDbLine
 10
169.377
 20
127.7666039999999
 30
0.0
 11
165.1589999999999
 21
127.7666039999999
 31
0.0
  0
LINE
  5
A805
330
A7DA
100
AcDbEntity
  8
1
  6
Continuous
100
AcDbLine
 10
172.6589999999999
 20
219.766604
 30
0.0
 11
166.659
 21
219.766604
 31
0.0
  0
LINE
  5
A806
330
A7DA
100
AcDbEntity
  8
1
  6
Continuous
100
AcDbLine
 10
155.159
 20
196.266604
 30
0.0
 11
138.0329999999998
 21
196.266604
 31
0.0
  0
LINE
  5
A807
330
A7DA
100
AcDbEntity
  8
1
  6
Continuous
100
AcDbLine
 10
155.203
 20
209.266604
 30
0.0
 11
138.0329999999998
 21
209.266604
 31
0.0
  0
LINE
  5
A808
330
A7DA
100
AcDbEntity
  8
1
  6
Continuous
100
AcDbLine
 10
164.6589999999999
 20
160.277604
 30
0.0
 11
164.6589999999999
 21
186.7666039999998
 31
0.0
  0
LINE
  5
A809
330
A7DA
100
AcDbEntity
  8
1
  6
Continuous
100
AcDbLine
 10
185.6589999999999
 20
211.8666039999999
 30
0.0
 11
174.6589999999999
 21
211.8666039999999
 31
0.0
  0
LINE
  5
A80A
330
A7DA
100
AcDbEntity
  8
1
  6
Continuous
100
AcDbLine
 10
185.6589999999999
 20
191.666604
 30
0.0
 11
174.6589999999999
 21
191.666604
 31
0.0
  0
LINE
  5
A80B
330
A7DA
100
AcDbEntity
  8
1
  6
Continuous
100
AcDbLine
 10
179.6589999999999
 20
191.666604
 30
0.0
 11
179.6589999999999
 21
160.277604
 31
0.0
  0
LINE
  5
A80C
330
A7DA
100
AcDbEntity
  8
1
  6
Continuous
100
AcDbLine
 10
179.6589999999999
 20
225.766604
 30
0.0
 11
179.6589999999999
 21
211.8666039999999
 31
0.0
  0
LINE
  5
A80D
330
A7DA
100
AcDbEntity
  8
1
  6
Continuous
100
AcDbLine
 10
174.6589999999999
 20
160.277604
 30
0.0
 11
174.6589999999999
 21
191.8566039999998
 31
0.0
  0
LINE
  5
A80E
330
A7DA
100
AcDbEntity
  8
1
  6
Continuous
100
AcDbLine
 10
174.6589999999999
 20
211.727604
 30
0.0
 11
174.6589999999999
 21
217.766604
 31
0.0
  0
LINE
  5
A80F
330
A7DA
100
AcDbEntity
  8
4
  6
CENTER
100
AcDbLine
 10
192.5269999999999
 20
202.766604
 30
0.0
 11
104.254
 21
202.766604
 31
0.0
  0
LINE
  5
A810
330
A7DA
100
AcDbEntity
  8
1
  6
Continuous
100
AcDbLine
 10
135.393
 20
194.766604
 30
0.0
 11
134.1299999999999
 21
194.766604
 31
0.0
  0
LINE
  5
A811
330
A7DA
100
AcDbEntity
  8
1
  6
Continuous
100
AcDbLine
 10
135.393
 20
210.766604
 30
0.0
 11
134.1299999999999
 21
210.766604
 31
0.0
  0
LINE
  5
A812
330
A7DA
100
AcDbEntity
  8
1
  6
Continuous
100
AcDbLine
 10
169.659
 20
197.766604
 30
0.0
 11
168.6589999999999
 21
197.766604
 31
0.0
  0
LINE
  5
A813
330
A7DA
100
AcDbEntity
  8
1
  6
Continuous
100
AcDbLine
 10
170.659
 20
195.766604
 30
0.0
 11
169.659
 21
195.766604
 31
0.0
  0
LINE
  5
A814
330
A7DA
100
AcDbEntity
  8
1
  6
Continuous
100
AcDbLine
 10
169.659
 20
207.7666039999999
 30
0.0
 11
168.6589999999999
 21
207.7666039999999
 31
0.0
  0
LINE
  5
A815
330
A7DA
100
AcDbEntity
  8
1
  6
Continuous
100
AcDbLine
 10
171.326
 20
209.766604
 30
0.0
 11
170.2299999999999
 21
209.766604
 31
0.0
  0
LINE
  5
A816
330
A7DA
100
AcDbEntity
  8
4
  6
CENTER
100
AcDbLine
 10
107.319
 20
213.355604
 30
0.0
 11
194.3469999999998
 21
163.1096039999999
 31
0.0
  0
LINE
  5
A817
330
A7DA
100
AcDbEntity
  8
1
  6
Continuous
100
AcDbLine
 10
134.8209999999999
 20
210.716604
 30
0.0
 11
123.6589999999999
 21
210.716604
 31
0.0
  0
LINE
  5
A818
330
A7DA
100
AcDbEntity
  8
1
  6
Continuous
100
AcDbLine
 10
134.8209999999999
 20
194.816604
 30
0.0
 11
123.6589999999999
 21
194.816604
 31
0.0
  0
LINE
  5
A819
330
A7DA
100
AcDbEntity
  8
1
  6
Continuous
100
AcDbLine
 10
155.705
 20
208.766604
 30
0.0
 11
136.6249999999998
 21
208.766604
 31
0.0
  0
LINE
  5
A81A
330
A7DA
100
AcDbEntity
  8
1
  6
Continuous
100
AcDbLine
 10
155.6589999999999
 20
196.766604
 30
0.0
 11
136.6249999999998
 21
196.766604
 31
0.0
  0
LINE
  5
A81B
330
A7DA
100
AcDbEntity
  8
1
  6
Continuous
100
AcDbLine
 10
173.1589999999999
 20
218.7666039999998
 30
0.0
 11
166.659
 21
218.7666039999998
 31
0.0
  0
LINE
  5
A81C
330
A7DA
100
AcDbEntity
  8
1
  6
Continuous
100
AcDbLine
 10
174.1589999999999
 20
213.364604
 30
0.0
 11
174.1589999999999
 21
217.766604
 31
0.0
  0
LINE
  5
A81D
330
A7DA
100
AcDbEntity
  8
1
  6
Continuous
100
AcDbLine
 10
173.233
 20
211.6766039999999
 30
0.0
 11
169.122
 21
209.0606039999999
 31
0.0
  0
LINE
  5
A81E
330
A7DA
100
AcDbEntity
  8
1
  6
Continuous
100
AcDbLine
 10
168.6589999999999
 20
208.2176039999999
 30
0.0
 11
168.6589999999999
 21
197.1806039999999
 31
0.0
  0
LINE
  5
A81F
330
A7DA
100
AcDbEntity
  8
1
  6
Continuous
100
AcDbLine
 10
168.9519999999999
 20
196.473604
 30
0.0
 11
173.5729999999998
 21
191.852604
 31
0.0
  0
LINE
  5
A820
330
A7DA
100
AcDbEntity
  8
1
  6
Continuous
100
AcDbLine
 10
174.1589999999999
 20
160.277604
 30
0.0
 11
174.1589999999999
 21
190.437604
 31
0.0
  0
LINE
  5
A821
330
A7DA
100
AcDbEntity
  8
1
  6
Continuous
100
AcDbLine
 10
169.8829999999998
 20
128.7666039999998
 30
0.0
 11
165.1589999999999
 21
128.7666039999998
 31
0.0
  0
LINE
  5
A822
330
A7DA
100
AcDbEntity
  8
1
  6
Continuous
100
AcDbLine
 10
162.659
 20
134.766604
 30
0.0
 11
162.659
 21
131.266604
 31
0.0
  0
LINE
  5
A823
330
A7DA
100
AcDbEntity
  8
1
  6
Continuous
100
AcDbLine
 10
165.659
 20
160.277604
 30
0.0
 11
165.659
 21
186.7666039999998
 31
0.0
  0
LINE
  5
A824
330
A7DA
100
AcDbEntity
  8
1
  6
Continuous
100
AcDbLine
 10
121.6589999999999
 20
208.716604
 30
0.0
 11
121.6589999999999
 21
196.816604
 31
0.0
  0
LINE
  5
A825
330
A7DA
100
AcDbEntity
  8
1
  6
Continuous
100
AcDbLine
 10
175.0729999999999
 20
191.766604
 30
0.0
 11
185.1589999999999
 21
191.766604
 31
0.0
  0
LINE
  5
A826
330
A7DA
100
AcDbEntity
  8
1
  6
Continuous
100
AcDbLine
 10
174.9359999999998
 20
211.766604
 30
0.0
 11
185.1589999999999
 21
211.766604
 31
0.0
  0
LINE
  5
A827
330
A7DA
100
AcDbEntity
  8
1
  6
Continuous
100
AcDbLine
 10
179.6589999999999
 20
211.766604
 30
0.0
 11
179.6589999999999
 21
191.766604
 31
0.0
  0
LINE
  5
A828
330
A7DA
100
AcDbEntity
  8
1
  6
Continuous
100
AcDbLine
 10
178.6589999999999
 20
211.766604
 30
0.0
 11
178.6589999999999
 21
191.766604
 31
0.0
  0
LINE
  5
A829
330
A7DA
100
AcDbEntity
  8
1
  6
Continuous
100
AcDbLine
 10
169.559
 20
195.8666039999999
 30
0.0
 11
170.559
 21
195.8666039999999
 31
0.0
  0
LINE
  5
A82A
330
A7DA
100
AcDbEntity
  8
1
  6
Continuous
100
AcDbLine
 10
170.0729999999998
 20
209.666604
 30
0.0
 11
171.1589999999999
 21
209.666604
 31
0.0
  0
LINE
  5
A82B
330
A7DA
100
AcDbEntity
  8
1
  6
Continuous
100
AcDbLine
 10
174.4209999999999
 20
211.6236039999999
 30
0.0
 11
170.145
 21
209.057604
 31
0.0
  0
LINE
  5
A82C
330
A7DA
100
AcDbEntity
  8
1
  6
Continuous
100
AcDbLine
 10
174.366
 20
192.059604
 30
0.0
 11
169.9519999999999
 21
196.473604
 31
0.0
  0
LINE
  5
A82D
330
A7DA
100
AcDbEntity
  8
1
  6
Continuous
100
AcDbLine
 10
168.6589999999999
 20
198.766604
 30
0.0
 11
169.659
 21
198.766604
 31
0.0
  0
LINE
  5
A82E
330
A7DA
100
AcDbEntity
  8
1
  6
Continuous
100
AcDbLine
 10
168.6589999999999
 20
206.766604
 30
0.0
 11
169.659
 21
206.766604
 31
0.0
  0
LINE
  5
A82F
330
A7DA
100
AcDbEntity
  8
1
  6
Continuous
100
AcDbLine
 10
169.1589999999999
 20
206.766604
 30
0.0
 11
169.1589999999999
 21
198.766604
 31
0.0
  0
LINE
  5
A830
330
A7DA
100
AcDbEntity
  8
1
  6
Continuous
100
AcDbLine
 10
169.659
 20
198.766604
 30
0.0
 11
169.659
 21
197.1806039999999
 31
0.0
  0
LINE
  5
A831
330
A7DA
100
AcDbEntity
  8
1
  6
Continuous
100
AcDbLine
 10
169.659
 20
208.200604
 30
0.0
 11
169.659
 21
206.766604
 31
0.0
  0
LINE
  5
A832
330
A7DA
100
AcDbEntity
  8
1
  6
Continuous
100
AcDbLine
 10
172.1589999999999
 20
207.7666039999999
 30
0.0
 11
172.1589999999999
 21
197.766604
 31
0.0
  0
LINE
  5
A833
330
A7DA
100
AcDbEntity
  8
1
  6
Continuous
100
AcDbLine
 10
176.6589999999999
 20
202.766604
 30
0.0
 11
172.1589999999999
 21
207.7666039999999
 31
0.0
  0
LINE
  5
A834
330
A7DA
100
AcDbEntity
  8
1
  6
Continuous
100
AcDbLine
 10
172.1589999999999
 20
197.766604
 30
0.0
 11
176.6589999999999
 21
202.766604
 31
0.0
  0
LINE
  5
A835
330
A7DA
100
AcDbEntity
  8
1
  6
Continuous
100
AcDbLine
 10
134.1299999999999
 20
210.766604
 30
0.0
 11
120.659
 21
210.766604
 31
0.0
  0
LINE
  5
A836
330
A7DA
100
AcDbEntity
  8
1
  6
Continuous
100
AcDbLine
 10
134.1299999999999
 20
194.766604
 30
0.0
 11
120.659
 21
194.766604
 31
0.0
  0
LINE
  5
A837
330
A7DA
100
AcDbEntity
  8
1
  6
Continuous
100
AcDbLine
 10
118.659
 20
208.766604
 30
0.0
 11
118.659
 21
196.766604
 31
0.0
  0
LINE
  5
A838
330
A7DA
100
AcDbEntity
  8
1
  6
Continuous
100
AcDbLine
 10
160.1589999999999
 20
194.8436039999999
 30
0.0
 11
160.1589999999999
 21
195.696604
 31
0.0
  0
LINE
  5
A839
330
A7DA
100
AcDbEntity
  8
1
  6
Continuous
100
AcDbLine
 10
160.1589999999999
 20
209.8136039999999
 30
0.0
 11
160.1589999999999
 21
210.661604
 31
0.0
  0
LINE
  5
A83A
330
A7DA
100
AcDbEntity
  8
1
  6
Continuous
100
AcDbLine
 10
110.6589999999999
 20
70.241404
 30
0.0
 11
110.6589999999999
 21
67.241404
 31
0.0
  0
LINE
  5
A83B
330
A7DA
100
AcDbEntity
  8
1
  6
Continuous
100
AcDbLine
 10
185.6589999999999
 20
70.241404
 30
0.0
 11
185.6589999999999
 21
67.241404
 31
0.0
  0
LINE
  5
A83C
330
A7DA
100
AcDbEntity
  8
1
  6
Continuous
100
AcDbLine
 10
112.6589999999999
 20
67.241404
 30
0.0
 11
112.6589999999999
 21
57.241404
 31
0.0
  0
LINE
  5
A83D
330
A7DA
100
AcDbEntity
  8
1
  6
Continuous
100
AcDbLine
 10
185.6589999999999
 20
67.241404
 30
0.0
 11
110.6589999999999
 21
67.241404
 31
0.0
  0
LINE
  5
A83E
330
A7DA
100
AcDbEntity
  8
1
  6
Continuous
100
AcDbLine
 10
183.6589999999999
 20
67.241404
 30
0.0
 11
183.6589999999999
 21
57.741404
 31
0.0
  0
LINE
  5
A83F
330
A7DA
100
AcDbEntity
  8
1
  6
Continuous
100
AcDbLine
 10
158.159
 20
63.241404
 30
0.0
 11
158.159
 21
57.741404
 31
0.0
  0
LINE
  5
A840
330
A7DA
100
AcDbEntity
  8
1
  6
Continuous
100
AcDbLine
 10
138.6589999999999
 20
59.241404
 30
0.0
 11
138.6589999999999
 21
57.241404
 31
0.0
  0
LINE
  5
A841
330
A7DA
100
AcDbEntity
  8
1
  6
Continuous
100
AcDbLine
 10
179.6589999999999
 20
72.741404
 30
0.0
 11
116.659
 21
72.741404
 31
0.0
  0
LINE
  5
A842
330
A7DA
100
AcDbEntity
  8
1
  6
Continuous
100
AcDbLine
 10
113.6589999999999
 20
56.241404
 30
0.0
 11
137.6589999999999
 21
56.241404
 31
0.0
  0
LINE
  5
A843
330
A7DA
100
AcDbEntity
  8
1
  6
Continuous
100
AcDbLine
 10
175.6589999999999
 20
60.241404
 30
0.0
 11
160.6589999999999
 21
60.241404
 31
0.0
  0
LINE
  5
A844
330
A7DA
100
AcDbEntity
  8
1
  6
Continuous
100
AcDbLine
 10
183.6589999999999
 20
56.741404
 30
0.0
 11
158.159
 21
56.741404
 31
0.0
  0
LINE
  5
A845
330
A7DA
100
AcDbEntity
  8
1
  6
Continuous
100
AcDbLine
 10
113.1589999999999
 20
72.241404
 30
0.0
 11
113.1589999999999
 21
71.28300400000002
 31
0.0
  0
LINE
  5
A846
330
A7DA
100
AcDbEntity
  8
1
  6
Continuous
100
AcDbLine
 10
116.659
 20
72.741404
 30
0.0
 11
113.6589999999999
 21
72.741404
 31
0.0
  0
LINE
  5
A847
330
A7DA
100
AcDbEntity
  8
1
  6
Continuous
100
AcDbLine
 10
328.7169999999999
 20
122.766604
 30
0.0
 11
353.064
 21
122.766604
 31
0.0
  0
LINE
  5
A848
330
A7DA
100
AcDbEntity
  8
1
  6
Continuous
100
AcDbLine
 10
399.717
 20
228.7666039999999
 30
0.0
 11
399.717
 21
126.7666039999999
 31
0.0
  0
LINE
  5
A849
330
A7DA
100
AcDbEntity
  8
1
  6
Continuous
100
AcDbLine
 10
328.7169999999999
 20
232.7666039999999
 30
0.0
 11
395.7169999999999
 21
232.7666039999999
 31
0.0
  0
LINE
  5
A84A
330
A7DA
100
AcDbEntity
  8
1
  6
Continuous
100
AcDbLine
 10
324.717
 20
225.1126039999999
 30
0.0
 11
324.717
 21
126.7666039999999
 31
0.0
  0
LINE
  5
A84B
330
A7DA
100
AcDbEntity
  8
1
  6
Continuous
100
AcDbLine
 10
340.998
 20
125.7666039999999
 30
0.0
 11
345.717
 21
125.7666039999999
 31
0.0
  0
LINE
  5
A84C
330
A7DA
100
AcDbEntity
  8
1
  6
Continuous
100
AcDbLine
 10
355.2169999999999
 20
194.2666039999998
 30
0.0
 11
374.8809999999999
 21
194.2666039999998
 31
0.0
  0
LINE
  5
A84D
330
A7DA
100
AcDbEntity
  8
1
  6
Continuous
100
AcDbLine
 10
343.717
 20
221.766604
 30
0.0
 11
337.717
 21
221.766604
 31
0.0
  0
LINE
  5
A84E
330
A7DA
100
AcDbEntity
  8
1
  6
Continuous
100
AcDbLine
 10
355.173
 20
211.266604
 30
0.0
 11
374.8809999999999
 21
211.266604
 31
0.0
  0
LINE
  5
A84F
330
A7DA
100
AcDbEntity
  8
4
  6
CENTER
100
AcDbLine
 10
402.8259999999998
 20
202.766604
 30
0.0
 11
314.717
 21
202.766604
 31
0.0
  0
LINE
  5
A850
330
A7DA
100
AcDbEntity
  8
4
  6
CENTER
100
AcDbLine
 10
384.7169999999999
 20
234.461604
 30
0.0
 11
384.7169999999999
 21
121.566604
 31
0.0
  0
LINE
  5
A851
330
A7DA
100
AcDbEntity
  8
1
  6
Continuous
100
AcDbLine
 10
395.7169999999999
 20
125.266604
 30
0.0
 11
390.2169999999999
 21
125.266604
 31
0.0
  0
LINE
  5
A852
330
A7DA
100
AcDbEntity
  8
1
  6
Continuous
100
AcDbLine
 10
339.217
 20
230.266604
 30
0.0
 11
379.217
 21
230.266604
 31
0.0
  0
LINE
  5
A853
330
A7DA
100
AcDbEntity
  8
1
  6
Continuous
100
AcDbLine
 10
390.2169999999999
 20
230.266604
 30
0.0
 11
395.7169999999999
 21
230.266604
 31
0.0
  0
LINE
  5
A854
330
A7DA
100
AcDbEntity
  8
1
  6
Continuous
100
AcDbLine
 10
397.2169999999999
 20
190.246604
 30
0.0
 11
397.2169999999999
 21
126.7666039999999
 31
0.0
  0
LINE
  5
A855
330
A7DA
100
AcDbEntity
  8
1
  6
Continuous
100
AcDbLine
 10
397.2169999999999
 20
228.7666039999999
 30
0.0
 11
397.2169999999999
 21
215.286604
 31
0.0
  0
LINE
  5
A856
330
A7DA
100
AcDbEntity
  8
1
  6
Continuous
100
AcDbLine
 10
328.2169999999999
 20
189.766604
 30
0.0
 11
333.7169999999999
 21
189.766604
 31
0.0
  0
LINE
  5
A857
330
A7DA
100
AcDbEntity
  8
1
  6
Continuous
100
AcDbLine
 10
327.217
 20
126.266604
 30
0.0
 11
327.217
 21
188.766604
 31
0.0
  0
LINE
  5
A858
330
A7DA
100
AcDbEntity
  8
1
  6
Continuous
100
AcDbLine
 10
327.217
 20
215.266604
 30
0.0
 11
327.217
 21
218.2666039999999
 31
0.0
  0
LINE
  5
A859
330
A7DA
100
AcDbEntity
  8
1
  6
Continuous
100
AcDbLine
 10
328.2169999999999
 20
219.266604
 30
0.0
 11
334.009
 21
219.266604
 31
0.0
  0
LINE
  5
A85A
330
A7DA
100
AcDbEntity
  8
1
  6
Continuous
100
AcDbLine
 10
328.2169999999999
 20
214.2666039999999
 30
0.0
 11
333.7169999999999
 21
214.2666039999999
 31
0.0
  0
LINE
  5
A85B
330
A7DA
100
AcDbEntity
  8
1
  6
Continuous
100
AcDbLine
 10
338.2169999999999
 20
229.2666039999998
 30
0.0
 11
338.2169999999999
 21
221.766604
 31
0.0
  0
LINE
  5
A85C
330
A7DA
100
AcDbEntity
  8
1
  6
Continuous
100
AcDbLine
 10
335.66
 20
125.266604
 30
0.0
 11
328.2169999999999
 21
125.266604
 31
0.0
  0
LINE
  5
A85D
330
A7DA
100
AcDbEntity
  8
1
  6
Continuous
100
AcDbLine
 10
379.217
 20
125.266604
 30
0.0
 11
361.2169999999999
 21
125.266604
 31
0.0
  0
LINE
  5
A85E
330
A7DA
100
AcDbEntity
  8
4
  6
CENTER
100
AcDbLine
 10
361.6549999999999
 20
127.7666039999999
 30
0.0
 11
349.4559999999999
 21
127.7666039999999
 31
0.0
  0
LINE
  5
A85F
330
A7DA
100
AcDbEntity
  8
4
  6
CENTER
100
AcDbLine
 10
355.7169999999999
 20
134.588604
 30
0.0
 11
355.7169999999999
 21
120.8496039999999
 31
0.0
  0
LINE
  5
A860
330
A7DA
100
AcDbEntity
  8
1
  6
Continuous
100
AcDbLine
 10
355.7169999999999
 20
136.266604
 30
0.0
 11
350.7169999999999
 21
136.266604
 31
0.0
  0
LINE
  5
A861
330
A7DA
100
AcDbEntity
  8
1
  6
Continuous
100
AcDbLine
 10
363.065
 20
128.266604
 30
0.0
 11
361.2169999999999
 21
128.266604
 31
0.0
  0
LINE
  5
A862
330
A7DA
100
AcDbEntity
  8
1
  6
Continuous
100
AcDbLine
 10
378.9429999999999
 20
128.266604
 30
0.0
 11
377.3680000000001
 21
128.266604
 31
0.0
  0
LINE
  5
A863
330
A7DA
100
AcDbEntity
  8
1
  6
Continuous
100
AcDbLine
 10
392.065
 20
128.266604
 30
0.0
 11
390.491
 21
128.266604
 31
0.0
  0
LINE
  5
A864
330
A7DA
100
AcDbEntity
  8
1
  6
Continuous
100
AcDbLine
 10
377.3680000000001
 20
227.266604
 30
0.0
 11
378.9429999999999
 21
227.266604
 31
0.0
  0
LINE
  5
A865
330
A7DA
100
AcDbEntity
  8
1
  6
Continuous
100
AcDbLine
 10
390.491
 20
227.266604
 30
0.0
 11
392.065
 21
227.266604
 31
0.0
  0
LINE
  5
A866
330
A7DA
100
AcDbEntity
  8
1
  6
Continuous
100
AcDbLine
 10
389.217
 20
220.5556039999999
 30
0.0
 11
389.217
 21
218.1206039999999
 31
0.0
  0
LINE
  5
A867
330
A7DA
100
AcDbEntity
  8
1
  6
Continuous
100
AcDbLine
 10
379.0489999999999
 20
218.7666039999998
 30
0.0
 11
347.6729999999998
 21
218.7666039999998
 31
0.0
  0
LINE
  5
A868
330
A7DA
100
AcDbEntity
  8
1
  6
Continuous
100
AcDbLine
 10
370.717
 20
215.766604
 30
0.0
 11
348.299
 21
215.766604
 31
0.0
  0
LINE
  5
A869
330
A7DA
100
AcDbEntity
  8
1
  6
Continuous
100
AcDbLine
 10
333.7169999999999
 20
160.277604
 30
0.0
 11
333.7169999999999
 21
193.766604
 31
0.0
  0
LINE
  5
A86A
330
A7DA
100
AcDbEntity
  8
1
  6
Continuous
100
AcDbLine
 10
348.3431359999999
 20
189.766604
 30
0.0
 11
370.717
 21
189.766604
 31
0.0
  0
LINE
  5
A86B
330
A7DA
100
AcDbEntity
  8
1
  6
Continuous
100
AcDbLine
 10
347.717
 20
186.7666039999998
 30
0.0
 11
384.7169999999999
 21
186.7666039999998
 31
0.0
  0
LINE
  5
A86C
330
A7DA
100
AcDbEntity
  8
1
  6
Continuous
100
AcDbLine
 10
333.7169999999999
 20
211.766604
 30
0.0
 11
333.7169999999999
 21
217.766604
 31
0.0
  0
LINE
  5
A86D
330
A7DA
100
AcDbEntity
  8
1
  6
Continuous
100
AcDbLine
 10
379.0619999999998
 20
228.937604
 30
0.0
 11
338.2169999999999
 21
228.937604
 31
0.0
  0
LINE
  5
A86E
330
A7DA
100
AcDbEntity
  8
1
  6
Continuous
100
AcDbLine
 10
392.2449999999998
 20
228.937604
 30
0.0
 11
390.3719999999998
 21
228.937604
 31
0.0
  0
LINE
  5
A86F
330
A7DA
100
AcDbEntity
  8
1
  6
Continuous
100
AcDbLine
 10
379.0619999999998
 20
126.5946039999999
 30
0.0
 11
360.514
 21
126.5946039999999
 31
0.0
  0
LINE
  5
A870
330
A7DA
100
AcDbEntity
  8
1
  6
Continuous
100
AcDbLine
 10
392.2449999999998
 20
126.5946039999999
 30
0.0
 11
390.3719999999998
 21
126.5946039999999
 31
0.0
  0
LINE
  5
A871
330
A7DA
100
AcDbEntity
  8
1
  6
Continuous
100
AcDbLine
 10
331.189
 20
189.766604
 30
0.0
 11
331.189
 21
127.594604
 31
0.0
  0
LINE
  5
A872
330
A7DA
100
AcDbEntity
  8
1
  6
Continuous
100
AcDbLine
 10
331.189
 20
219.266604
 30
0.0
 11
331.189
 21
214.2666039999999
 31
0.0
  0
LINE
  5
A873
330
A7DA
100
AcDbEntity
  8
1
  6
Continuous
100
AcDbLine
 10
332.189
 20
126.5946039999999
 30
0.0
 11
336.6179999999999
 21
126.5946039999999
 31
0.0
  0
LINE
  5
A874
330
A7DA
100
AcDbEntity
  8
1
  6
Continuous
100
AcDbLine
 10
393.245
 20
189.2286039999999
 30
0.0
 11
393.245
 21
127.594604
 31
0.0
  0
LINE
  5
A875
330
A7DA
100
AcDbEntity
  8
1
  6
Continuous
100
AcDbLine
 10
393.245
 20
227.9376039999999
 30
0.0
 11
393.245
 21
216.304604
 31
0.0
  0
LINE
  5
A876
330
A7DA
100
AcDbEntity
  8
1
  6
Continuous
100
AcDbLine
 10
122.1589999999999
 20
67.241404
 30
0.0
 11
122.1589999999999
 21
63.741404
 31
0.0
  0
LINE
  5
A877
330
A7DA
100
AcDbEntity
  8
1
  6
Continuous
100
AcDbLine
 10
129.159
 20
67.241404
 30
0.0
 11
129.159
 21
63.741404
 31
0.0
  0
LINE
  5
A878
330
A7DA
100
AcDbEntity
  8
1
  6
Continuous
100
AcDbLine
 10
151.1589999999999
 20
67.241404
 30
0.0
 11
151.1589999999999
 21
63.741404
 31
0.0
  0
LINE
  5
A879
330
A7DA
100
AcDbEntity
  8
1
  6
Continuous
100
AcDbLine
 10
158.159
 20
67.241404
 30
0.0
 11
158.159
 21
63.741404
 31
0.0
  0
LINE
  5
A87A
330
A7DA
100
AcDbEntity
  8
1
  6
Continuous
100
AcDbLine
 10
129.159
 20
63.741404
 30
0.0
 11
122.1589999999999
 21
63.741404
 31
0.0
  0
LINE
  5
A87B
330
A7DA
100
AcDbEntity
  8
1
  6
Continuous
100
AcDbLine
 10
128.6589999999999
 20
63.241404
 30
0.0
 11
122.6589999999999
 21
63.241404
 31
0.0
  0
LINE
  5
A87C
330
A7DA
100
AcDbEntity
  8
1
  6
Continuous
100
AcDbLine
 10
151.1589999999999
 20
63.74130400000001
 30
0.0
 11
151.6589999999998
 21
63.24130400000001
 31
0.0
  0
LINE
  5
A87D
330
A7DA
100
AcDbEntity
  8
1
  6
Continuous
100
AcDbLine
 10
158.159
 20
63.741404
 30
0.0
 11
157.6589999999999
 21
63.241404
 31
0.0
  0
LINE
  5
A87E
330
A7DA
100
AcDbEntity
  8
1
  6
Continuous
100
AcDbLine
 10
122.1589999999999
 20
63.741404
 30
0.0
 11
122.6589999999999
 21
63.241404
 31
0.0
  0
LINE
  5
A87F
330
A7DA
100
AcDbEntity
  8
1
  6
Continuous
100
AcDbLine
 10
129.159
 20
63.74130400000001
 30
0.0
 11
128.6589999999999
 21
63.24130400000001
 31
0.0
  0
LINE
  5
A880
330
A7DA
100
AcDbEntity
  8
4
  6
CENTER
100
AcDbLine
 10
154.6589999999999
 20
61.653204
 30
0.0
 11
154.6589999999999
 21
68.203004
 31
0.0
  0
LINE
  5
A881
330
A7DA
100
AcDbEntity
  8
1
  6
Continuous
100
AcDbLine
 10
176.6589999999999
 20
61.241404
 30
0.0
 11
176.6589999999999
 21
67.241404
 31
0.0
  0
LINE
  5
A882
330
A7DA
100
AcDbEntity
  8
1
  6
Continuous
100
AcDbLine
 10
159.6589999999999
 20
61.241404
 30
0.0
 11
159.6589999999999
 21
67.241404
 31
0.0
  0
LINE
  5
A883
330
A7DA
100
AcDbEntity
  8
1
  6
Continuous
100
AcDbLine
 10
135.495
 20
60.241404
 30
0.0
 11
135.495
 21
67.241404
 31
0.0
  0
LINE
  5
A884
330
A7DA
100
AcDbEntity
  8
4
  6
CENTER
100
AcDbLine
 10
125.6589999999999
 20
76.30150399999998
 30
0.0
 11
125.6589999999999
 21
44.391904
 31
0.0
  0
LINE
  5
A885
330
A7DA
100
AcDbEntity
  8
5
  6
PHANTOM
100
AcDbLine
 10
189.6589999999999
 20
211.266604
 30
0.0
 11
189.6589999999999
 21
192.266604
 31
0.0
  0
LINE
  5
A886
330
A7DA
100
AcDbEntity
  8
5
  6
PHANTOM
100
AcDbLine
 10
189.1589999999999
 20
191.766604
 30
0.0
 11
186.535
 21
191.766604
 31
0.0
  0
LINE
  5
A887
330
A7DA
100
AcDbEntity
  8
5
  6
PHANTOM
100
AcDbLine
 10
189.1589999999999
 20
211.766604
 30
0.0
 11
186.535
 21
211.766604
 31
0.0
  0
LINE
  5
A888
330
A7DA
100
AcDbEntity
  8
1
  6
Continuous
100
AcDbLine
 10
337.7679999999998
 20
202.317604
 30
0.0
 11
337.543
 21
202.4176039999999
 31
0.0
  0
LINE
  5
A889
330
A7DA
100
AcDbEntity
  8
1
  6
Continuous
100
AcDbLine
 10
337.7679999999998
 20
202.317604
 30
0.0
 11
337.8680000000001
 21
202.0926039999999
 31
0.0
  0
LINE
  5
A88A
330
A7DA
100
AcDbEntity
  8
1
  6
Continuous
100
AcDbLine
 10
338.666
 20
203.215604
 30
0.0
 11
338.8909999999999
 21
203.1156039999999
 31
0.0
  0
LINE
  5
A88B
330
A7DA
100
AcDbEntity
  8
1
  6
Continuous
100
AcDbLine
 10
338.666
 20
203.215604
 30
0.0
 11
338.5659999999999
 21
203.4406039999999
 31
0.0
  0
LINE
  5
A88C
330
A7DA
100
AcDbEntity
  8
1
  6
Continuous
100
AcDbLine
 10
338.666
 20
202.317604
 30
0.0
 11
338.5659999999999
 21
202.0926039999999
 31
0.0
  0
LINE
  5
A88D
330
A7DA
100
AcDbEntity
  8
1
  6
Continuous
100
AcDbLine
 10
338.666
 20
202.317604
 30
0.0
 11
338.8909999999999
 21
202.4176039999999
 31
0.0
  0
LINE
  5
A88E
330
A7DA
100
AcDbEntity
  8
1
  6
Continuous
100
AcDbLine
 10
337.7679999999998
 20
203.215604
 30
0.0
 11
337.543
 21
203.1156039999999
 31
0.0
  0
LINE
  5
A88F
330
A7DA
100
AcDbEntity
  8
1
  6
Continuous
100
AcDbLine
 10
337.7679999999998
 20
203.215604
 30
0.0
 11
337.8680000000001
 21
203.4406039999999
 31
0.0
  0
LINE
  5
A890
330
A7DA
100
AcDbEntity
  8
1
  6
Continuous
100
AcDbLine
 10
337.543
 20
202.4176039999999
 30
0.0
 11
336.755
 21
202.4316039999999
 31
0.0
  0
LINE
  5
A891
330
A7DA
100
AcDbEntity
  8
1
  6
Continuous
100
AcDbLine
 10
338.8909999999999
 20
203.1156039999999
 30
0.0
 11
339.6789999999999
 21
203.1016039999999
 31
0.0
  0
LINE
  5
A892
330
A7DA
100
AcDbEntity
  8
1
  6
Continuous
100
AcDbLine
 10
338.5659999999999
 20
203.4406039999999
 30
0.0
 11
338.5519999999999
 21
204.228604
 31
0.0
  0
LINE
  5
A893
330
A7DA
100
AcDbEntity
  8
1
  6
Continuous
100
AcDbLine
 10
337.543
 20
203.1156039999999
 30
0.0
 11
336.755
 21
203.1016039999999
 31
0.0
  0
LINE
  5
A894
330
A7DA
100
AcDbEntity
  8
1
  6
Continuous
100
AcDbLine
 10
337.8680000000001
 20
202.0926039999999
 30
0.0
 11
337.8819999999998
 21
201.304604
 31
0.0
  0
LINE
  5
A895
330
A7DA
100
AcDbEntity
  8
1
  6
Continuous
100
AcDbLine
 10
338.5659999999999
 20
202.0926039999999
 30
0.0
 11
338.5519999999999
 21
201.304604
 31
0.0
  0
LINE
  5
A896
330
A7DA
100
AcDbEntity
  8
1
  6
Continuous
100
AcDbLine
 10
337.8680000000001
 20
203.4406039999999
 30
0.0
 11
337.8819999999998
 21
204.228604
 31
0.0
  0
LINE
  5
A897
330
A7DA
100
AcDbEntity
  8
1
  6
Continuous
100
AcDbLine
 10
338.8909999999999
 20
202.4176039999999
 30
0.0
 11
339.6789999999999
 21
202.4316039999999
 31
0.0
  0
LINE
  5
A898
330
A7DA
100
AcDbEntity
  8
1
  6
Continuous
100
AcDbLine
 10
346.7679999999999
 20
202.317604
 30
0.0
 11
346.543
 21
202.4176039999999
 31
0.0
  0
LINE
  5
A899
330
A7DA
100
AcDbEntity
  8
1
  6
Continuous
100
AcDbLine
 10
346.7679999999999
 20
202.317604
 30
0.0
 11
346.8679999999998
 21
202.0926039999999
 31
0.0
  0
LINE
  5
A89A
330
A7DA
100
AcDbEntity
  8
1
  6
Continuous
100
AcDbLine
 10
347.6659999999998
 20
203.215604
 30
0.0
 11
347.8909999999999
 21
203.1156039999999
 31
0.0
  0
LINE
  5
A89B
330
A7DA
100
AcDbEntity
  8
1
  6
Continuous
100
AcDbLine
 10
347.6659999999998
 20
203.215604
 30
0.0
 11
347.5659999999999
 21
203.4406039999999
 31
0.0
  0
LINE
  5
A89C
330
A7DA
100
AcDbEntity
  8
1
  6
Continuous
100
AcDbLine
 10
347.6659999999998
 20
202.317604
 30
0.0
 11
347.5659999999999
 21
202.0926039999999
 31
0.0
  0
LINE
  5
A89D
330
A7DA
100
AcDbEntity
  8
1
  6
Continuous
100
AcDbLine
 10
347.6659999999998
 20
202.317604
 30
0.0
 11
347.8909999999999
 21
202.4176039999999
 31
0.0
  0
LINE
  5
A89E
330
A7DA
100
AcDbEntity
  8
1
  6
Continuous
100
AcDbLine
 10
346.7679999999999
 20
203.215604
 30
0.0
 11
346.543
 21
203.1156039999999
 31
0.0
  0
LINE
  5
A89F
330
A7DA
100
AcDbEntity
  8
1
  6
Continuous
100
AcDbLine
 10
346.7679999999999
 20
203.215604
 30
0.0
 11
346.8679999999998
 21
203.4406039999999
 31
0.0
  0
LINE
  5
A8A0
330
A7DA
100
AcDbEntity
  8
1
  6
Continuous
100
AcDbLine
 10
346.543
 20
202.4176039999999
 30
0.0
 11
345.7549999999998
 21
202.4316039999999
 31
0.0
  0
LINE
  5
A8A1
330
A7DA
100
AcDbEntity
  8
1
  6
Continuous
100
AcDbLine
 10
347.8909999999999
 20
203.1156039999999
 30
0.0
 11
348.6789999999999
 21
203.1016039999999
 31
0.0
  0
LINE
  5
A8A2
330
A7DA
100
AcDbEntity
  8
1
  6
Continuous
100
AcDbLine
 10
347.5659999999999
 20
203.4406039999999
 30
0.0
 11
347.5519999999999
 21
204.228604
 31
0.0
  0
LINE
  5
A8A3
330
A7DA
100
AcDbEntity
  8
1
  6
Continuous
100
AcDbLine
 10
346.543
 20
203.1156039999999
 30
0.0
 11
345.7549999999998
 21
203.1016039999999
 31
0.0
  0
LINE
  5
A8A4
330
A7DA
100
AcDbEntity
  8
1
  6
Continuous
100
AcDbLine
 10
346.8679999999998
 20
202.0926039999999
 30
0.0
 11
346.8819999999998
 21
201.304604
 31
0.0
  0
LINE
  5
A8A5
330
A7DA
100
AcDbEntity
  8
1
  6
Continuous
100
AcDbLine
 10
347.5659999999999
 20
202.0926039999999
 30
0.0
 11
347.5519999999999
 21
201.304604
 31
0.0
  0
LINE
  5
A8A6
330
A7DA
100
AcDbEntity
  8
1
  6
Continuous
100
AcDbLine
 10
346.8679999999998
 20
203.4406039999999
 30
0.0
 11
346.8819999999998
 21
204.228604
 31
0.0
  0
LINE
  5
A8A7
330
A7DA
100
AcDbEntity
  8
1
  6
Continuous
100
AcDbLine
 10
347.8909999999999
 20
202.4176039999999
 30
0.0
 11
348.6789999999999
 21
202.4316039999999
 31
0.0
  0
LINE
  5
A8A8
330
A7DA
100
AcDbEntity
  8
1
  6
Continuous
100
AcDbLine
 10
151.1589999999999
 20
64.241404
 30
0.0
 11
141.659
 21
64.241404
 31
0.0
  0
LINE
  5
A8A9
330
A7DA
100
AcDbEntity
  8
1
  6
Continuous
100
AcDbLine
 10
140.659
 20
63.241404
 30
0.0
 11
140.659
 21
61.241404
 31
0.0
  0
LINE
  5
A8AA
330
A7DA
100
AcDbEntity
  8
1
  6
Continuous
100
AcDbLine
 10
139.6589999999999
 20
60.241404
 30
0.0
 11
135.495
 21
60.241404
 31
0.0
  0
LINE
  5
A8AB
330
A7DA
100
AcDbEntity
  8
1
  6
Continuous
100
AcDbLine
 10
137.6589999999999
 20
48.241404
 30
0.0
 11
113.6589999999999
 21
48.241404
 31
0.0
  0
LINE
  5
A8AC
330
A7DA
100
AcDbEntity
  8
1
  6
Continuous
100
AcDbLine
 10
369.7169999999999
 20
210.2666039999999
 30
0.0
 11
369.7169999999999
 21
195.266604
 31
0.0
  0
LINE
  5
A8AD
330
A7DA
100
AcDbEntity
  8
1
  6
Continuous
100
AcDbLine
 10
378.2169999999999
 20
210.812604
 30
0.0
 11
378.2169999999999
 21
202.766604
 31
0.0
  0
LINE
  5
A8AE
330
A7DA
100
AcDbEntity
  8
1
  6
Continuous
100
AcDbLine
 10
391.217
 20
210.812604
 30
0.0
 11
391.217
 21
202.766604
 31
0.0
  0
LINE
  5
A8AF
330
A7DA
100
AcDbEntity
  8
1
  6
Continuous
100
AcDbLine
 10
371.7169999999999
 20
214.766604
 30
0.0
 11
371.7169999999999
 21
212.2666039999999
 31
0.0
  0
LINE
  5
A8B0
330
A7DA
100
AcDbEntity
  8
1
  6
Continuous
100
AcDbLine
 10
371.7169999999999
 20
190.766604
 30
0.0
 11
371.7169999999999
 21
193.2666039999998
 31
0.0
  0
LINE
  5
A8B1
330
A7DA
100
AcDbEntity
  8
1
  6
Continuous
100
AcDbLine
 10
137.6589999999999
 20
56.04130399999998
 30
0.0
 11
113.6589999999999
 21
56.04130399999998
 31
0.0
  0
LINE
  5
A8B2
330
A7DA
100
AcDbEntity
  8
1
  6
Continuous
100
AcDbLine
 10
113.6589999999999
 20
56.04130399999998
 30
0.0
 11
113.6589999999999
 21
48.241404
 31
0.0
  0
LINE
  5
A8B3
330
A7DA
100
AcDbEntity
  8
1
  6
Continuous
100
AcDbLine
 10
137.6589999999999
 20
56.04130399999998
 30
0.0
 11
137.6589999999999
 21
48.241404
 31
0.0
  0
LINE
  5
A8B4
330
A7DA
100
AcDbEntity
  8
1
  6
Continuous
100
AcDbLine
 10
114.1589999999999
 20
48.241404
 30
0.0
 11
114.1589999999999
 21
46.74140399999997
 31
0.0
  0
LINE
  5
A8B5
330
A7DA
100
AcDbEntity
  8
1
  6
Continuous
100
AcDbLine
 10
118.1589999999999
 20
48.241404
 30
0.0
 11
118.1589999999999
 21
46.74140399999997
 31
0.0
  0
LINE
  5
A8B6
330
A7DA
100
AcDbEntity
  8
1
  6
Continuous
100
AcDbLine
 10
133.159
 20
48.241404
 30
0.0
 11
133.159
 21
46.74140399999997
 31
0.0
  0
LINE
  5
A8B7
330
A7DA
100
AcDbEntity
  8
1
  6
Continuous
100
AcDbLine
 10
137.1589999999999
 20
48.241404
 30
0.0
 11
137.1589999999999
 21
46.74140399999997
 31
0.0
  0
LINE
  5
A8B8
330
A7DA
100
AcDbEntity
  8
1
  6
Continuous
100
AcDbLine
 10
117.659
 20
46.24140399999999
 30
0.0
 11
114.6589999999999
 21
46.24140399999999
 31
0.0
  0
LINE
  5
A8B9
330
A7DA
100
AcDbEntity
  8
1
  6
Continuous
100
AcDbLine
 10
136.6589999999999
 20
46.24140399999999
 30
0.0
 11
133.6589999999999
 21
46.24140399999999
 31
0.0
  0
LINE
  5
A8BA
330
A7DA
100
AcDbEntity
  8
1
  6
Continuous
100
AcDbLine
 10
266.035
 20
206.766604
 30
0.0
 11
266.035
 21
198.766604
 31
0.0
  0
LINE
  5
A8BB
330
A7DA
100
AcDbEntity
  8
1
  6
Continuous
100
AcDbLine
 10
263.735
 20
198.766604
 30
0.0
 11
266.035
 21
198.766604
 31
0.0
  0
LINE
  5
A8BC
330
A7DA
100
AcDbEntity
  8
1
  6
Continuous
100
AcDbLine
 10
263.735
 20
206.766604
 30
0.0
 11
266.035
 21
206.766604
 31
0.0
  0
LINE
  5
A8BD
330
A7DA
100
AcDbEntity
  8
1
  6
Continuous
100
AcDbLine
 10
265.735
 20
201.660604
 30
0.0
 11
266.035
 21
201.660604
 31
0.0
  0
LINE
  5
A8BE
330
A7DA
100
AcDbEntity
  8
1
  6
Continuous
100
AcDbLine
 10
265.735
 20
203.8716039999999
 30
0.0
 11
266.035
 21
203.8716039999999
 31
0.0
  0
LINE
  5
A8BF
330
A7DA
100
AcDbEntity
  8
1
  6
Continuous
100
AcDbLine
 10
115.659
 20
56.241404
 30
0.0
 11
115.659
 21
56.04130399999998
 31
0.0
  0
LINE
  5
A8C0
330
A7DA
100
AcDbEntity
  8
1
  6
Continuous
100
AcDbLine
 10
135.6589999999999
 20
56.241404
 30
0.0
 11
135.6589999999999
 21
56.04130399999998
 31
0.0
  0
LINE
  5
A8C1
330
A7DA
100
AcDbEntity
  8
1
  6
Continuous
100
AcDbLine
 10
130.6589999999999
 20
73.741404
 30
0.0
 11
123.6609999999999
 21
73.741404
 31
0.0
  0
LINE
  5
A8C2
330
A7DA
100
AcDbEntity
  8
1
  6
Continuous
100
AcDbLine
 10
130.6589999999999
 20
73.741404
 30
0.0
 11
136.6249999999998
 21
72.741404
 31
0.0
  0
LINE
  5
A8C3
330
A7DA
100
AcDbEntity
  8
5
  6
PHANTOM
100
AcDbLine
 10
126.1589999999999
 20
97.24160400000002
 30
0.0
 11
126.1589999999999
 21
76.241404
 31
0.0
  0
LINE
  5
A8C4
330
A7DA
100
AcDbEntity
  8
5
  6
PHANTOM
100
AcDbLine
 10
119.746
 20
72.741404
 30
0.0
 11
120.1589999999999
 21
75.20730399999997
 31
0.0
  0
LINE
  5
A8C5
330
A7DA
100
AcDbEntity
  8
5
  6
PHANTOM
100
AcDbLine
 10
128.159
 20
99.24160400000005
 30
0.0
 11
128.6589999999999
 21
99.24160400000005
 31
0.0
  0
LINE
  5
A8C6
330
A7DA
100
AcDbEntity
  8
5
  6
PHANTOM
100
AcDbLine
 10
130.159
 20
111.241604
 30
0.0
 11
130.159
 21
100.741604
 31
0.0
  0
LINE
  5
A8C7
330
A7DA
100
AcDbEntity
  8
5
  6
PHANTOM
100
AcDbLine
 10
121.6589999999999
 20
112.741604
 30
0.0
 11
128.6589999999999
 21
112.741604
 31
0.0
  0
LINE
  5
A8C8
330
A7DA
100
AcDbEntity
  8
5
  6
PHANTOM
100
AcDbLine
 10
120.1589999999999
 20
111.241604
 30
0.0
 11
120.1589999999999
 21
75.20730399999997
 31
0.0
  0
LINE
  5
A8C9
330
A7DA
100
AcDbEntity
  8
5
  6
PHANTOM
100
AcDbLine
 10
126.1589999999999
 20
76.241304
 30
0.0
 11
128.6589999999999
 21
73.741304
 31
0.0
  0
LINE
  5
A8CA
330
A7DA
100
AcDbEntity
  8
1
  6
Continuous
100
AcDbLine
 10
123.6609999999999
 20
196.816604
 30
0.0
 11
123.6609999999999
 21
208.716604
 31
0.0
  0
LINE
  5
A8CB
330
A7DA
100
AcDbEntity
  8
1
  6
Continuous
100
AcDbLine
 10
132.661
 20
196.816604
 30
0.0
 11
132.661
 21
208.716604
 31
0.0
  0
LINE
  5
A8CC
330
A7DA
100
AcDbEntity
  8
1
  6
Continuous
100
AcDbLine
 10
136.6249999999998
 20
197.766604
 30
0.0
 11
136.6249999999998
 21
207.7666039999999
 31
0.0
  0
LINE
  5
A8CD
330
A7DA
100
AcDbEntity
  8
1
  6
Continuous
100
AcDbLine
 10
138.6589999999999
 20
196.766604
 30
0.0
 11
138.6589999999999
 21
196.266604
 31
0.0
  0
LINE
  5
A8CE
330
A7DA
100
AcDbEntity
  8
1
  6
Continuous
100
AcDbLine
 10
138.6589999999999
 20
209.266604
 30
0.0
 11
138.6589999999999
 21
208.766604
 31
0.0
  0
LINE
  5
A8CF
330
A7DA
100
AcDbEntity
  8
1
  6
Continuous
100
AcDbLine
 10
113.585
 20
199.5316039999999
 30
0.0
 11
113.488
 21
199.505604
 31
0.0
  0
LINE
  5
A8D0
330
A7DA
100
AcDbEntity
  8
1
  6
Continuous
100
AcDbLine
 10
116.8199999999998
 20
193.927604
 30
0.0
 11
116.7489999999999
 21
193.8566039999998
 31
0.0
  0
LINE
  5
A8D1
330
A7DA
100
AcDbEntity
  8
1
  6
Continuous
100
AcDbLine
 10
185.6589999999999
 20
70.241404
 30
0.0
 11
110.6589999999999
 21
70.241404
 31
0.0
  0
LINE
  5
A8D2
330
A7DA
100
AcDbEntity
  8
1
  6
Continuous
100
AcDbLine
 10
116.659
 20
72.741404
 30
0.0
 11
110.6589999999999
 21
70.241404
 31
0.0
  0
LINE
  5
A8D3
330
A7DA
100
AcDbEntity
  8
1
  6
Continuous
100
AcDbLine
 10
179.6589999999999
 20
72.741304
 30
0.0
 11
185.6589999999999
 21
70.241304
 31
0.0
  0
LINE
  5
A8D4
330
A7DA
100
AcDbEntity
  8
1
  6
Continuous
100
AcDbLine
 10
241.735
 20
122.766604
 30
0.0
 11
244.735
 21
122.766604
 31
0.0
  0
LINE
  5
A8D5
330
A7DA
100
AcDbEntity
  8
1
  6
Continuous
100
AcDbLine
 10
241.735
 20
232.7666039999999
 30
0.0
 11
244.735
 21
232.7666039999999
 31
0.0
  0
LINE
  5
A8D6
330
A7DA
100
AcDbEntity
  8
1
  6
Continuous
100
AcDbLine
 10
241.735
 20
232.7666039999999
 30
0.0
 11
241.735
 21
211.8666039999999
 31
0.0
  0
LINE
  5
A8D7
330
A7DA
100
AcDbEntity
  8
1
  6
Continuous
100
AcDbLine
 10
244.735
 20
232.7666039999999
 30
0.0
 11
244.735
 21
122.766604
 31
0.0
  0
LINE
  5
A8D8
330
A7DA
100
AcDbEntity
  8
1
  6
Continuous
100
AcDbLine
 10
239.2349999999999
 20
125.7666039999999
 30
0.0
 11
241.735
 21
122.766604
 31
0.0
  0
LINE
  5
A8D9
330
A7DA
100
AcDbEntity
  8
1
  6
Continuous
100
AcDbLine
 10
241.735
 20
232.7666039999999
 30
0.0
 11
239.2349999999999
 21
229.766604
 31
0.0
  0
LINE
  5
A8DA
330
A7DA
100
AcDbEntity
  8
4
  6
CENTER
100
AcDbLine
 10
232.0489999999999
 20
202.766604
 30
0.0
 11
268.5529999999999
 21
202.766604
 31
0.0
  0
LINE
  5
A8DB
330
A7DA
100
AcDbEntity
  8
1
  6
Continuous
100
AcDbLine
 10
251.7349999999999
 20
220.7666039999998
 30
0.0
 11
251.7349999999999
 21
211.766604
 31
0.0
  0
LINE
  5
A8DC
330
A7DA
100
AcDbEntity
  8
1
  6
Continuous
100
AcDbLine
 10
244.735
 20
211.766604
 30
0.0
 11
254.235
 21
211.766604
 31
0.0
  0
LINE
  5
A8DD
330
A7DA
100
AcDbEntity
  8
1
  6
Continuous
100
AcDbLine
 10
244.735
 20
193.766604
 30
0.0
 11
254.235
 21
193.766604
 31
0.0
  0
LINE
  5
A8DE
330
A7DA
100
AcDbEntity
  8
1
  6
Continuous
100
AcDbLine
 10
244.735
 20
221.766604
 30
0.0
 11
250.735
 21
221.766604
 31
0.0
  0
LINE
  5
A8DF
330
A7DA
100
AcDbEntity
  8
1
  6
Continuous
100
AcDbLine
 10
244.735
 20
125.7666039999999
 30
0.0
 11
250.735
 21
125.7666039999999
 31
0.0
  0
LINE
  5
A8E0
330
A7DA
100
AcDbEntity
  8
1
  6
Continuous
100
AcDbLine
 10
251.7349999999999
 20
193.766604
 30
0.0
 11
251.7349999999999
 21
126.7666039999999
 31
0.0
  0
LINE
  5
A8E1
330
A7DA
100
AcDbEntity
  8
4
  6
CENTER
100
AcDbLine
 10
242.545
 20
227.766604
 30
0.0
 11
250.6409999999999
 21
227.766604
 31
0.0
  0
LINE
  5
A8E2
330
A7DA
100
AcDbEntity
  8
1
  6
Continuous
100
AcDbLine
 10
244.735
 20
124.266604
 30
0.0
 11
248.235
 21
124.266604
 31
0.0
  0
LINE
  5
A8E3
330
A7DA
100
AcDbEntity
  8
1
  6
Continuous
100
AcDbLine
 10
244.735
 20
231.2666039999998
 30
0.0
 11
248.235
 21
231.2666039999998
 31
0.0
  0
LINE
  5
A8E4
330
A7DA
100
AcDbEntity
  8
1
  6
Continuous
100
AcDbLine
 10
244.735
 20
224.266604
 30
0.0
 11
248.235
 21
224.266604
 31
0.0
  0
LINE
  5
A8E5
330
A7DA
100
AcDbEntity
  8
1
  6
Continuous
100
AcDbLine
 10
248.735
 20
230.7666039999999
 30
0.0
 11
248.735
 21
224.7666039999999
 31
0.0
  0
LINE
  5
A8E6
330
A7DA
100
AcDbEntity
  8
1
  6
Continuous
100
AcDbLine
 10
248.235
 20
124.266604
 30
0.0
 11
248.735
 21
124.766604
 31
0.0
  0
LINE
  5
A8E7
330
A7DA
100
AcDbEntity
  8
1
  6
Continuous
100
AcDbLine
 10
248.735
 20
230.7666039999999
 30
0.0
 11
248.235
 21
231.2666039999998
 31
0.0
  0
LINE
  5
A8E8
330
A7DA
100
AcDbEntity
  8
1
  6
Continuous
100
AcDbLine
 10
248.235
 20
224.266604
 30
0.0
 11
248.735
 21
224.7666039999999
 31
0.0
  0
LINE
  5
A8E9
330
A7DA
100
AcDbEntity
  8
1
  6
Continuous
100
AcDbLine
 10
248.735
 20
125.7666039999999
 30
0.0
 11
248.735
 21
124.766604
 31
0.0
  0
LINE
  5
A8EA
330
A7DA
100
AcDbEntity
  8
1
  6
Continuous
100
AcDbLine
 10
248.235
 20
125.7666039999999
 30
0.0
 11
248.235
 21
124.266604
 31
0.0
  0
LINE
  5
A8EB
330
A7DA
100
AcDbEntity
  8
1
  6
Continuous
100
AcDbLine
 10
248.235
 20
231.2666039999998
 30
0.0
 11
248.235
 21
224.266604
 31
0.0
  0
LINE
  5
A8EC
330
A7DA
100
AcDbEntity
  8
1
  6
Continuous
100
AcDbLine
 10
263.735
 20
214.766604
 30
0.0
 11
263.735
 21
190.766604
 31
0.0
  0
LINE
  5
A8ED
330
A7DA
100
AcDbEntity
  8
1
  6
Continuous
100
AcDbLine
 10
265.735
 20
204.2666039999998
 30
0.0
 11
265.735
 21
201.266604
 31
0.0
  0
LINE
  5
A8EE
330
A7DA
100
AcDbEntity
  8
1
  6
Continuous
100
AcDbLine
 10
255.935
 20
214.766604
 30
0.0
 11
263.735
 21
214.766604
 31
0.0
  0
LINE
  5
A8EF
330
A7DA
100
AcDbEntity
  8
1
  6
Continuous
100
AcDbLine
 10
255.935
 20
190.766604
 30
0.0
 11
263.735
 21
190.766604
 31
0.0
  0
LINE
  5
A8F0
330
A7DA
100
AcDbEntity
  8
1
  6
Continuous
100
AcDbLine
 10
263.735
 20
200.766604
 30
0.0
 11
265.235
 21
200.766604
 31
0.0
  0
LINE
  5
A8F1
330
A7DA
100
AcDbEntity
  8
1
  6
Continuous
100
AcDbLine
 10
263.735
 20
204.766604
 30
0.0
 11
265.235
 21
204.766604
 31
0.0
  0
LINE
  5
A8F2
330
A7DA
100
AcDbEntity
  8
1
  6
Continuous
100
AcDbLine
 10
121.6589999999999
 20
48.241404
 30
0.0
 11
121.6589999999999
 21
45.94140399999999
 31
0.0
  0
LINE
  5
A8F3
330
A7DA
100
AcDbEntity
  8
1
  6
Continuous
100
AcDbLine
 10
124.553
 20
48.241404
 30
0.0
 11
124.553
 21
45.94140399999999
 31
0.0
  0
LINE
  5
A8F4
330
A7DA
100
AcDbEntity
  8
1
  6
Continuous
100
AcDbLine
 10
129.6589999999999
 20
45.94140399999999
 30
0.0
 11
121.6589999999999
 21
45.94140399999999
 31
0.0
  0
LINE
  5
A8F5
330
A7DA
100
AcDbEntity
  8
1
  6
Continuous
100
AcDbLine
 10
126.7649999999999
 20
48.241404
 30
0.0
 11
126.7649999999999
 21
45.94140399999999
 31
0.0
  0
LINE
  5
A8F6
330
A7DA
100
AcDbEntity
  8
1
  6
Continuous
100
AcDbLine
 10
129.6589999999999
 20
48.241404
 30
0.0
 11
129.6589999999999
 21
45.94140399999999
 31
0.0
  0
LINE
  5
A8F7
330
A7DA
100
AcDbEntity
  8
1
  6
Continuous
100
AcDbLine
 10
239.2349999999999
 20
211.8666039999999
 30
0.0
 11
243.435
 21
211.8666039999999
 31
0.0
  0
LINE
  5
A8F8
330
A7DA
100
AcDbEntity
  8
1
  6
Continuous
100
AcDbLine
 10
239.2349999999999
 20
191.666604
 30
0.0
 11
243.435
 21
191.666604
 31
0.0
  0
LINE
  5
A8F9
330
A7DA
100
AcDbEntity
  8
1
  6
Continuous
100
AcDbLine
 10
239.2349999999999
 20
229.766604
 30
0.0
 11
239.2349999999999
 21
211.8666039999999
 31
0.0
  0
LINE
  5
A8FA
330
A7DA
100
AcDbEntity
  8
1
  6
Continuous
100
AcDbLine
 10
241.735
 20
191.666604
 30
0.0
 11
241.735
 21
122.766604
 31
0.0
  0
LINE
  5
A8FB
330
A7DA
100
AcDbEntity
  8
1
  6
Continuous
100
AcDbLine
 10
243.435
 20
209.366604
 30
0.0
 11
243.735
 21
209.366604
 31
0.0
  0
LINE
  5
A8FC
330
A7DA
100
AcDbEntity
  8
1
  6
Continuous
100
AcDbLine
 10
243.435
 20
194.166604
 30
0.0
 11
243.735
 21
194.166604
 31
0.0
  0
LINE
  5
A8FD
330
A7DA
100
AcDbEntity
  8
1
  6
Continuous
100
AcDbLine
 10
243.735
 20
209.366604
 30
0.0
 11
243.735
 21
194.166604
 31
0.0
  0
LINE
  5
A8FE
330
A7DA
100
AcDbEntity
  8
1
  6
Continuous
100
AcDbLine
 10
243.435
 20
211.8666039999999
 30
0.0
 11
243.435
 21
209.366604
 31
0.0
  0
LINE
  5
A8FF
330
A7DA
100
AcDbEntity
  8
1
  6
Continuous
100
AcDbLine
 10
243.435
 20
194.166604
 30
0.0
 11
243.435
 21
191.666604
 31
0.0
  0
LINE
  5
A900
330
A7DA
100
AcDbEntity
  8
1
  6
Continuous
100
AcDbLine
 10
241.6349999999999
 20
211.766604
 30
0.0
 11
241.6349999999999
 21
191.766604
 31
0.0
  0
LINE
  5
A901
330
A7DA
100
AcDbEntity
  8
1
  6
Continuous
100
AcDbLine
 10
243.635
 20
209.366604
 30
0.0
 11
243.635
 21
194.166604
 31
0.0
  0
LINE
  5
A902
330
A7DA
100
AcDbEntity
  8
1
  6
Continuous
100
AcDbLine
 10
239.2349999999999
 20
211.766604
 30
0.0
 11
243.435
 21
211.766604
 31
0.0
  0
LINE
  5
A903
330
A7DA
100
AcDbEntity
  8
1
  6
Continuous
100
AcDbLine
 10
239.2349999999999
 20
191.766604
 30
0.0
 11
243.435
 21
191.766604
 31
0.0
  0
LINE
  5
A904
330
A7DA
100
AcDbEntity
  8
1
  6
Continuous
100
AcDbLine
 10
239.2349999999999
 20
191.666604
 30
0.0
 11
239.2349999999999
 21
125.7666039999999
 31
0.0
  0
LINE
  5
A905
330
A7DA
100
AcDbEntity
  8
1
  6
Continuous
100
AcDbLine
 10
239.2349999999999
 20
211.766604
 30
0.0
 11
239.2349999999999
 21
191.766604
 31
0.0
  0
LINE
  5
A906
330
A7DA
100
AcDbEntity
  8
1
  6
Continuous
100
AcDbLine
 10
37.21459999999999
 20
206.766604
 30
0.0
 11
37.21459999999999
 21
198.766604
 31
0.0
  0
LINE
  5
A907
330
A7DA
100
AcDbEntity
  8
1
  6
Continuous
100
AcDbLine
 10
39.5146
 20
198.766604
 30
0.0
 11
37.21459999999999
 21
198.766604
 31
0.0
  0
LINE
  5
A908
330
A7DA
100
AcDbEntity
  8
1
  6
Continuous
100
AcDbLine
 10
39.5146
 20
206.766604
 30
0.0
 11
37.21459999999999
 21
206.766604
 31
0.0
  0
LINE
  5
A909
330
A7DA
100
AcDbEntity
  8
1
  6
Continuous
100
AcDbLine
 10
37.5146
 20
201.660604
 30
0.0
 11
37.21459999999999
 21
201.660604
 31
0.0
  0
LINE
  5
A90A
330
A7DA
100
AcDbEntity
  8
1
  6
Continuous
100
AcDbLine
 10
37.5146
 20
203.8716039999999
 30
0.0
 11
37.21459999999999
 21
203.8716039999999
 31
0.0
  0
LINE
  5
A90B
330
A7DA
100
AcDbEntity
  8
1
  6
Continuous
100
AcDbLine
 10
61.5146
 20
122.766604
 30
0.0
 11
58.5146
 21
122.766604
 31
0.0
  0
LINE
  5
A90C
330
A7DA
100
AcDbEntity
  8
1
  6
Continuous
100
AcDbLine
 10
61.5146
 20
232.7666039999999
 30
0.0
 11
58.5146
 21
232.7666039999999
 31
0.0
  0
LINE
  5
A90D
330
A7DA
100
AcDbEntity
  8
1
  6
Continuous
100
AcDbLine
 10
58.5146
 20
232.7666039999999
 30
0.0
 11
58.5146
 21
122.766604
 31
0.0
  0
LINE
  5
A90E
330
A7DA
100
AcDbEntity
  8
1
  6
Continuous
100
AcDbLine
 10
64.0146
 20
125.7666039999999
 30
0.0
 11
61.5146
 21
122.766604
 31
0.0
  0
LINE
  5
A90F
330
A7DA
100
AcDbEntity
  8
1
  6
Continuous
100
AcDbLine
 10
61.5146
 20
232.7666039999999
 30
0.0
 11
64.0146
 21
229.766604
 31
0.0
  0
LINE
  5
A910
330
A7DA
100
AcDbEntity
  8
4
  6
CENTER
100
AcDbLine
 10
71.20029999999998
 20
202.766604
 30
0.0
 11
32.4896
 21
202.766604
 31
0.0
  0
LINE
  5
A911
330
A7DA
100
AcDbEntity
  8
1
  6
Continuous
100
AcDbLine
 10
58.5146
 20
221.766604
 30
0.0
 11
52.5146
 21
221.766604
 31
0.0
  0
LINE
  5
A912
330
A7DA
100
AcDbEntity
  8
1
  6
Continuous
100
AcDbLine
 10
54.5146
 20
125.7666039999999
 30
0.0
 11
52.5146
 21
125.7666039999999
 31
0.0
  0
LINE
  5
A913
330
A7DA
100
AcDbEntity
  8
1
  6
Continuous
100
AcDbLine
 10
51.5146
 20
220.7666039999998
 30
0.0
 11
51.5146
 21
215.766604
 31
0.0
  0
LINE
  5
A914
330
A7DA
100
AcDbEntity
  8
1
  6
Continuous
100
AcDbLine
 10
58.5146
 20
215.766604
 30
0.0
 11
48.5146
 21
215.766604
 31
0.0
  0
LINE
  5
A915
330
A7DA
100
AcDbEntity
  8
1
  6
Continuous
100
AcDbLine
 10
58.5146
 20
189.766604
 30
0.0
 11
48.5146
 21
189.766604
 31
0.0
  0
LINE
  5
A916
330
A7DA
100
AcDbEntity
  8
1
  6
Continuous
100
AcDbLine
 10
47.5146
 20
212.766604
 30
0.0
 11
47.3146
 21
212.766604
 31
0.0
  0
LINE
  5
A917
330
A7DA
100
AcDbEntity
  8
1
  6
Continuous
100
AcDbLine
 10
47.5146
 20
192.766604
 30
0.0
 11
47.3146
 21
192.766604
 31
0.0
  0
LINE
  5
A918
330
A7DA
100
AcDbEntity
  8
1
  6
Continuous
100
AcDbLine
 10
47.5146
 20
214.766604
 30
0.0
 11
47.5146
 21
190.766604
 31
0.0
  0
LINE
  5
A919
330
A7DA
100
AcDbEntity
  8
4
  6
CENTER
100
AcDbLine
 10
60.7047
 20
227.766604
 30
0.0
 11
52.6086
 21
227.766604
 31
0.0
  0
LINE
  5
A91A
330
A7DA
100
AcDbEntity
  8
1
  6
Continuous
100
AcDbLine
 10
58.5146
 20
124.266604
 30
0.0
 11
55.0146
 21
124.266604
 31
0.0
  0
LINE
  5
A91B
330
A7DA
100
AcDbEntity
  8
1
  6
Continuous
100
AcDbLine
 10
58.5146
 20
231.2666039999998
 30
0.0
 11
55.0146
 21
231.2666039999998
 31
0.0
  0
LINE
  5
A91C
330
A7DA
100
AcDbEntity
  8
1
  6
Continuous
100
AcDbLine
 10
58.5146
 20
224.266604
 30
0.0
 11
55.0146
 21
224.266604
 31
0.0
  0
LINE
  5
A91D
330
A7DA
100
AcDbEntity
  8
1
  6
Continuous
100
AcDbLine
 10
54.5146
 20
230.7666039999999
 30
0.0
 11
54.5146
 21
224.7666039999999
 31
0.0
  0
LINE
  5
A91E
330
A7DA
100
AcDbEntity
  8
1
  6
Continuous
100
AcDbLine
 10
55.0146
 20
124.266604
 30
0.0
 11
54.5146
 21
124.766604
 31
0.0
  0
LINE
  5
A91F
330
A7DA
100
AcDbEntity
  8
1
  6
Continuous
100
AcDbLine
 10
54.5146
 20
230.7666039999999
 30
0.0
 11
55.0146
 21
231.2666039999998
 31
0.0
  0
LINE
  5
A920
330
A7DA
100
AcDbEntity
  8
1
  6
Continuous
100
AcDbLine
 10
55.0146
 20
224.266604
 30
0.0
 11
54.5146
 21
224.7666039999999
 31
0.0
  0
LINE
  5
A921
330
A7DA
100
AcDbEntity
  8
1
  6
Continuous
100
AcDbLine
 10
54.5146
 20
130.7666039999998
 30
0.0
 11
54.5146
 21
124.766604
 31
0.0
  0
LINE
  5
A922
330
A7DA
100
AcDbEntity
  8
1
  6
Continuous
100
AcDbLine
 10
55.0146
 20
131.266604
 30
0.0
 11
55.0146
 21
124.266604
 31
0.0
  0
LINE
  5
A923
330
A7DA
100
AcDbEntity
  8
1
  6
Continuous
100
AcDbLine
 10
55.0146
 20
231.2666039999998
 30
0.0
 11
55.0146
 21
224.266604
 31
0.0
  0
LINE
  5
A924
330
A7DA
100
AcDbEntity
  8
1
  6
Continuous
100
AcDbLine
 10
47.3146
 20
214.766604
 30
0.0
 11
47.3146
 21
190.766604
 31
0.0
  0
LINE
  5
A925
330
A7DA
100
AcDbEntity
  8
1
  6
Continuous
100
AcDbLine
 10
39.5146
 20
214.766604
 30
0.0
 11
39.5146
 21
190.766604
 31
0.0
  0
LINE
  5
A926
330
A7DA
100
AcDbEntity
  8
1
  6
Continuous
100
AcDbLine
 10
37.5146
 20
204.2666039999998
 30
0.0
 11
37.5146
 21
201.266604
 31
0.0
  0
LINE
  5
A927
330
A7DA
100
AcDbEntity
  8
1
  6
Continuous
100
AcDbLine
 10
47.3146
 20
214.766604
 30
0.0
 11
39.5146
 21
214.766604
 31
0.0
  0
LINE
  5
A928
330
A7DA
100
AcDbEntity
  8
1
  6
Continuous
100
AcDbLine
 10
47.3146
 20
190.766604
 30
0.0
 11
39.5146
 21
190.766604
 31
0.0
  0
LINE
  5
A929
330
A7DA
100
AcDbEntity
  8
1
  6
Continuous
100
AcDbLine
 10
39.5146
 20
200.766604
 30
0.0
 11
38.0146
 21
200.766604
 31
0.0
  0
LINE
  5
A92A
330
A7DA
100
AcDbEntity
  8
1
  6
Continuous
100
AcDbLine
 10
39.5146
 20
204.766604
 30
0.0
 11
38.0146
 21
204.766604
 31
0.0
  0
LINE
  5
A92B
330
A7DA
100
AcDbEntity
  8
1
  6
Continuous
100
AcDbLine
 10
64.0146
 20
229.766604
 30
0.0
 11
64.0146
 21
210.766604
 31
0.0
  0
LINE
  5
A92C
330
A7DA
100
AcDbEntity
  8
1
  6
Continuous
100
AcDbLine
 10
61.5146
 20
232.7666039999999
 30
0.0
 11
61.5146
 21
122.766604
 31
0.0
  0
LINE
  5
A92D
330
A7DA
100
AcDbEntity
  8
1
  6
Continuous
100
AcDbLine
 10
64.0146
 20
194.766604
 30
0.0
 11
64.0146
 21
125.7666039999999
 31
0.0
  0
LINE
  5
A92E
330
A7DA
100
AcDbEntity
  8
1
  6
Continuous
100
AcDbLine
 10
58.5146
 20
131.266604
 30
0.0
 11
55.0146
 21
131.266604
 31
0.0
  0
LINE
  5
A92F
330
A7DA
100
AcDbEntity
  8
4
  6
CENTER
100
AcDbLine
 10
60.7764
 20
127.7666039999999
 30
0.0
 11
52.2121
 21
127.7666039999999
 31
0.0
  0
LINE
  5
A930
330
A7DA
100
AcDbEntity
  8
1
  6
Continuous
100
AcDbLine
 10
55.0146
 20
131.266604
 30
0.0
 11
54.5146
 21
130.7666039999998
 31
0.0
  0
LINE
  5
A931
330
A7DA
100
AcDbEntity
  8
1
  6
Continuous
100
AcDbLine
 10
51.5146
 20
189.766604
 30
0.0
 11
51.5146
 21
126.7666039999999
 31
0.0
  0
LINE
  5
A932
330
A7DA
100
AcDbEntity
  8
1
  6
Continuous
100
AcDbLine
 10
64.0146
 20
209.4866039999998
 30
0.0
 11
64.0146
 21
196.466604
 31
0.0
  0
LINE
  5
A933
330
A7DA
100
AcDbEntity
  8
1
  6
Continuous
100
AcDbLine
 10
65.0146
 20
208.716604
 30
0.0
 11
65.0146
 21
196.816604
 31
0.0
  0
LINE
  5
A934
330
A7DA
100
AcDbEntity
  8
4
  6
CENTER
100
AcDbLine
 10
14.32016
 20
202.766604
 30
0.0
 11
25.3778
 21
202.766604
 31
0.0
  0
LINE
  5
A935
330
A7DA
100
AcDbEntity
  8
1
  6
Continuous
100
AcDbLine
 10
20.2217
 20
207.3666039999999
 30
0.0
 11
20.2217
 21
198.166604
 31
0.0
  0
LINE
  5
A936
330
A7DA
100
AcDbEntity
  8
1
  6
Continuous
100
AcDbLine
 10
18.76013999999998
 20
198.394604
 30
0.0
 11
20.2217
 21
198.2666039999998
 31
0.0
  0
LINE
  5
A937
330
A7DA
100
AcDbEntity
  8
1
  6
Continuous
100
AcDbLine
 10
18.76014999999998
 20
207.1386039999999
 30
0.0
 11
20.2217
 21
207.266604
 31
0.0
  0
LINE
  5
A938
330
A7DA
100
AcDbEntity
  8
1
  6
Continuous
100
AcDbLine
 10
20.2218
 20
202.9426039999999
 30
0.0
 11
21.52179999999999
 21
203.2906039999998
 31
0.0
  0
LINE
  5
A939
330
A7DA
100
AcDbEntity
  8
1
  6
Continuous
100
AcDbLine
 10
20.2217
 20
202.242604
 30
0.0
 11
21.52169999999999
 21
202.590604
 31
0.0
  0
LINE
  5
A93A
330
A7DA
100
AcDbEntity
  8
1
  6
Continuous
100
AcDbLine
 10
20.2217
 20
198.166604
 30
0.0
 11
21.52169999999999
 21
198.166604
 31
0.0
  0
LINE
  5
A93B
330
A7DA
100
AcDbEntity
  8
1
  6
Continuous
100
AcDbLine
 10
21.52169999999999
 20
208.766604
 30
0.0
 11
21.52169999999999
 21
196.766604
 31
0.0
  0
LINE
  5
A93C
330
A7DA
100
AcDbEntity
  8
1
  6
Continuous
100
AcDbLine
 10
20.2217
 20
207.3666039999999
 30
0.0
 11
21.52169999999999
 21
207.3666039999999
 31
0.0
  0
LINE
  5
A93D
330
A7DA
100
AcDbEntity
  8
1
  6
Continuous
100
AcDbLine
 10
22.32169999999999
 20
208.766604
 30
0.0
 11
22.32169999999999
 21
196.766604
 31
0.0
  0
LINE
  5
A93E
330
A7DA
100
AcDbEntity
  8
1
  6
Continuous
100
AcDbLine
 10
21.52169999999999
 20
208.766604
 30
0.0
 11
22.32169999999999
 21
208.766604
 31
0.0
  0
LINE
  5
A93F
330
A7DA
100
AcDbEntity
  8
1
  6
Continuous
100
AcDbLine
 10
21.52169999999999
 20
196.766604
 30
0.0
 11
22.32169999999999
 21
196.766604
 31
0.0
  0
LINE
  5
A940
330
A7DA
100
AcDbEntity
  8
1
  6
Continuous
100
AcDbLine
 10
251.7349999999999
 20
189.766604
 30
0.0
 11
254.735
 21
189.766604
 31
0.0
  0
LINE
  5
A941
330
A7DA
100
AcDbEntity
  8
1
  6
Continuous
100
AcDbLine
 10
251.7349999999999
 20
215.766604
 30
0.0
 11
254.735
 21
215.766604
 31
0.0
  0
LINE
  5
A942
330
A7DA
100
AcDbEntity
  8
1
  6
Continuous
100
AcDbLine
 10
158.159
 20
63.741404
 30
0.0
 11
151.1589999999999
 21
63.741404
 31
0.0
  0
LINE
  5
A943
330
A7DA
100
AcDbEntity
  8
1
  6
Continuous
100
AcDbLine
 10
157.6589999999999
 20
63.241404
 30
0.0
 11
151.6589999999998
 21
63.241404
 31
0.0
  0
LINE
  5
A944
330
A7DA
100
AcDbEntity
  8
5
  6
PHANTOM
100
AcDbLine
 10
110.352
 20
205.253604
 30
0.0
 11
185.6959999999999
 21
161.753604
 31
0.0
  0
LINE
  5
A945
330
A7DA
100
AcDbEntity
  8
5
  6
PHANTOM
100
AcDbLine
 10
115.352
 20
213.9136039999999
 30
0.0
 11
190.6959999999999
 21
170.4136039999999
 31
0.0
  0
LINE
  5
A946
330
A7DA
100
AcDbEntity
  8
5
  6
PHANTOM
100
AcDbLine
 10
113.3029999999999
 20
213.364604
 30
0.0
 11
109.803
 21
207.302604
 31
0.0
  0
LINE
  5
A947
330
A7DA
100
AcDbEntity
  8
5
  6
PHANTOM
100
AcDbLine
 10
191.2449999999998
 20
168.364604
 30
0.0
 11
187.7449999999998
 21
162.302604
 31
0.0
  0
LINE
  5
A948
330
A7DA
100
AcDbEntity
  8
5
  6
PHANTOM
100
AcDbLine
 10
116.3899999999999
 20
200.612604
 30
0.0
 11
128.428
 21
193.6626039999999
 31
0.0
  0
LINE
  5
A949
330
A7DA
100
AcDbEntity
  8
5
  6
PHANTOM
100
AcDbLine
 10
123.14
 20
212.303604
 30
0.0
 11
135.1779999999999
 21
205.353604
 31
0.0
  0
LINE
  5
A94A
330
A7DA
100
AcDbEntity
  8
5
  6
PHANTOM
100
AcDbLine
 10
121.774
 20
211.937604
 30
0.0
 11
121.0239999999999
 21
210.6386039999999
 31
0.0
  0
LINE
  5
A94B
330
A7DA
100
AcDbEntity
  8
5
  6
PHANTOM
100
AcDbLine
 10
135.5439999999999
 20
203.987604
 30
0.0
 11
134.7939999999999
 21
202.6886039999999
 31
0.0
  0
LINE
  5
A94C
330
A7DA
100
AcDbEntity
  8
5
  6
PHANTOM
100
AcDbLine
 10
128.6589999999999
 20
218.7666039999998
 30
0.0
 11
121.6589999999999
 21
218.7666039999998
 31
0.0
  0
LINE
  5
A94D
330
A7DA
100
AcDbEntity
  8
5
  6
PHANTOM
100
AcDbLine
 10
130.159
 20
217.266604
 30
0.0
 11
130.159
 21
130.266604
 31
0.0
  0
LINE
  5
A94E
330
A7DA
100
AcDbEntity
  8
5
  6
PHANTOM
100
AcDbLine
 10
128.6589999999999
 20
128.7666039999998
 30
0.0
 11
121.6589999999999
 21
128.7666039999998
 31
0.0
  0
LINE
  5
A94F
330
A7DA
100
AcDbEntity
  8
5
  6
PHANTOM
100
AcDbLine
 10
120.1589999999999
 20
217.266604
 30
0.0
 11
120.1589999999999
 21
130.266604
 31
0.0
  0
LINE
  5
A950
330
A7DA
100
AcDbEntity
  8
5
  6
PHANTOM
100
AcDbLine
 10
119.1589999999999
 20
209.7166039999999
 30
0.0
 11
119.1589999999999
 21
195.816604
 31
0.0
  0
LINE
  5
A951
330
A7DA
100
AcDbEntity
  8
5
  6
PHANTOM
100
AcDbLine
 10
132.6589999999999
 20
209.7166039999999
 30
0.0
 11
132.6589999999999
 21
195.816604
 31
0.0
  0
LINE
  5
A952
330
A7DA
100
AcDbEntity
  8
4
  6
CENTER
100
AcDbLine
 10
125.6589999999999
 20
234.4246039999999
 30
0.0
 11
125.6589999999999
 21
120.8246039999999
 31
0.0
  0
LINE
  5
A953
330
A7DA
100
AcDbEntity
  8
1
  6
Continuous
100
AcDbLine
 10
148.859
 20
38.800804
 30
0.0
 11
160.4589999999998
 21
38.800804
 31
0.0
  0
LINE
  5
A954
330
A7DA
100
AcDbEntity
  8
1
  6
Continuous
100
AcDbLine
 10
150.359
 20
34.300804
 30
0.0
 11
158.959
 21
34.300804
 31
0.0
  0
LINE
  5
A955
330
A7DA
100
AcDbEntity
  8
4
  6
CENTER
100
AcDbLine
 10
154.6589999999999
 20
41.950804
 30
0.0
 11
154.6589999999999
 21
27.370304
 31
0.0
  0
LINE
  5
A956
330
A7DA
100
AcDbEntity
  8
1
  6
Continuous
100
AcDbLine
 10
158.459
 20
34.300804
 30
0.0
 11
158.459
 21
33.30080399999999
 31
0.0
  0
LINE
  5
A957
330
A7DA
100
AcDbEntity
  8
1
  6
Continuous
100
AcDbLine
 10
158.459
 20
33.30080399999999
 30
0.0
 11
150.859
 21
33.30080399999999
 31
0.0
  0
LINE
  5
A958
330
A7DA
100
AcDbEntity
  8
1
  6
Continuous
100
AcDbLine
 10
154.875
 20
34.30070399999999
 30
0.0
 11
155.143
 21
33.30070399999998
 31
0.0
  0
LINE
  5
A959
330
A7DA
100
AcDbEntity
  8
1
  6
Continuous
100
AcDbLine
 10
154.175
 20
34.30070399999999
 30
0.0
 11
154.443
 21
33.30070399999998
 31
0.0
  0
LINE
  5
A95A
330
A7DA
100
AcDbEntity
  8
1
  6
Continuous
100
AcDbLine
 10
150.859
 20
34.300804
 30
0.0
 11
150.859
 21
33.30080399999999
 31
0.0
  0
LINE
  5
A95B
330
A7DA
100
AcDbEntity
  8
1
  6
Continuous
100
AcDbLine
 10
151.257
 20
32.18130399999999
 30
0.0
 11
151.1589999999999
 21
33.30070399999998
 31
0.0
  0
LINE
  5
A95C
330
A7DA
100
AcDbEntity
  8
1
  6
Continuous
100
AcDbLine
 10
158.061
 20
32.181404
 30
0.0
 11
158.159
 21
33.30080399999999
 31
0.0
  0
LINE
  5
A95D
330
A7DA
100
AcDbEntity
  8
4
  6
CENTER
100
AcDbLine
 10
125.6589999999999
 20
13.415604
 30
0.0
 11
125.6589999999999
 21
24.473204
 31
0.0
  0
LINE
  5
A95E
330
A7DA
100
AcDbEntity
  8
1
  6
Continuous
100
AcDbLine
 10
121.059
 20
19.317104
 30
0.0
 11
130.2589999999999
 21
19.317104
 31
0.0
  0
LINE
  5
A95F
330
A7DA
100
AcDbEntity
  8
1
  6
Continuous
100
AcDbLine
 10
130.031
 20
17.85550399999999
 30
0.0
 11
130.159
 21
19.317004
 31
0.0
  0
LINE
  5
A960
330
A7DA
100
AcDbEntity
  8
1
  6
Continuous
100
AcDbLine
 10
121.287
 20
17.85550399999999
 30
0.0
 11
121.1589999999999
 21
19.317004
 31
0.0
  0
LINE
  5
A961
330
A7DA
100
AcDbEntity
  8
1
  6
Continuous
100
AcDbLine
 10
125.4829999999999
 20
19.317204
 30
0.0
 11
125.135
 21
20.617104
 31
0.0
  0
LINE
  5
A962
330
A7DA
100
AcDbEntity
  8
1
  6
Continuous
100
AcDbLine
 10
126.183
 20
19.317104
 30
0.0
 11
125.8349999999998
 21
20.617104
 31
0.0
  0
LINE
  5
A963
330
A7DA
100
AcDbEntity
  8
1
  6
Continuous
100
AcDbLine
 10
130.2589999999999
 20
19.317104
 30
0.0
 11
130.2589999999999
 21
20.617104
 31
0.0
  0
LINE
  5
A964
330
A7DA
100
AcDbEntity
  8
1
  6
Continuous
100
AcDbLine
 10
119.659
 20
20.617104
 30
0.0
 11
131.6589999999999
 21
20.617104
 31
0.0
  0
LINE
  5
A965
330
A7DA
100
AcDbEntity
  8
1
  6
Continuous
100
AcDbLine
 10
121.059
 20
19.317104
 30
0.0
 11
121.059
 21
20.617104
 31
0.0
  0
LINE
  5
A966
330
A7DA
100
AcDbEntity
  8
1
  6
Continuous
100
AcDbLine
 10
119.659
 20
21.417104
 30
0.0
 11
131.6589999999999
 21
21.417104
 31
0.0
  0
LINE
  5
A967
330
A7DA
100
AcDbEntity
  8
1
  6
Continuous
100
AcDbLine
 10
119.659
 20
20.617104
 30
0.0
 11
119.659
 21
21.417104
 31
0.0
  0
LINE
  5
A968
330
A7DA
100
AcDbEntity
  8
1
  6
Continuous
100
AcDbLine
 10
131.6589999999999
 20
20.617104
 30
0.0
 11
131.6589999999999
 21
21.417104
 31
0.0
  0
LINE
  5
A969
330
A7DA
100
AcDbEntity
  8
1
  6
Continuous
100
AcDbLine
 10
278.7279999999999
 20
231.5666039999999
 30
0.0
 11
278.7279999999999
 21
223.9666039999999
 31
0.0
  0
LINE
  5
A96A
330
A7DA
100
AcDbEntity
  8
4
  6
CENTER
100
AcDbLine
 10
271.0779999999999
 20
227.766604
 30
0.0
 11
285.658
 21
227.766604
 31
0.0
  0
LINE
  5
A96B
330
A7DA
100
AcDbEntity
  8
1
  6
Continuous
100
AcDbLine
 10
278.7279999999999
 20
223.9666039999999
 30
0.0
 11
279.728
 21
223.9666039999999
 31
0.0
  0
LINE
  5
A96C
330
A7DA
100
AcDbEntity
  8
1
  6
Continuous
100
AcDbLine
 10
279.728
 20
223.9666039999999
 30
0.0
 11
279.728
 21
231.5666039999999
 31
0.0
  0
LINE
  5
A96D
330
A7DA
100
AcDbEntity
  8
1
  6
Continuous
100
AcDbLine
 10
278.7279999999999
 20
227.982604
 30
0.0
 11
279.728
 21
228.250604
 31
0.0
  0
LINE
  5
A96E
330
A7DA
100
AcDbEntity
  8
1
  6
Continuous
100
AcDbLine
 10
278.7279999999999
 20
227.2826039999999
 30
0.0
 11
279.728
 21
227.5506039999999
 31
0.0
  0
LINE
  5
A96F
330
A7DA
100
AcDbEntity
  8
1
  6
Continuous
100
AcDbLine
 10
278.7279999999999
 20
231.5666039999999
 30
0.0
 11
279.728
 21
231.5666039999999
 31
0.0
  0
LINE
  5
A970
330
A7DA
100
AcDbEntity
  8
1
  6
Continuous
100
AcDbLine
 10
280.8469999999999
 20
231.168604
 30
0.0
 11
279.728
 21
231.2656039999999
 31
0.0
  0
LINE
  5
A971
330
A7DA
100
AcDbEntity
  8
1
  6
Continuous
100
AcDbLine
 10
280.8469999999999
 20
224.363604
 30
0.0
 11
279.728
 21
224.2656039999999
 31
0.0
  0
LINE
  5
A972
330
A7DA
100
AcDbEntity
  8
4
  6
CENTER
100
AcDbLine
 10
284.9299999999999
 20
202.766604
 30
0.0
 11
273.872
 21
202.766604
 31
0.0
  0
LINE
  5
A973
330
A7DA
100
AcDbEntity
  8
1
  6
Continuous
100
AcDbLine
 10
279.028
 20
207.3666039999999
 30
0.0
 11
279.028
 21
198.166604
 31
0.0
  0
LINE
  5
A974
330
A7DA
100
AcDbEntity
  8
1
  6
Continuous
100
AcDbLine
 10
280.4899999999999
 20
198.394604
 30
0.0
 11
279.028
 21
198.2666039999998
 31
0.0
  0
LINE
  5
A975
330
A7DA
100
AcDbEntity
  8
1
  6
Continuous
100
AcDbLine
 10
280.4899999999999
 20
207.1386039999999
 30
0.0
 11
279.028
 21
207.266604
 31
0.0
  0
LINE
  5
A976
330
A7DA
100
AcDbEntity
  8
1
  6
Continuous
100
AcDbLine
 10
279.028
 20
202.590604
 30
0.0
 11
277.728
 21
202.242604
 31
0.0
  0
LINE
  5
A977
330
A7DA
100
AcDbEntity
  8
1
  6
Continuous
100
AcDbLine
 10
279.028
 20
203.2906039999998
 30
0.0
 11
277.728
 21
202.9426039999999
 31
0.0
  0
LINE
  5
A978
330
A7DA
100
AcDbEntity
  8
1
  6
Continuous
100
AcDbLine
 10
279.028
 20
198.166604
 30
0.0
 11
277.728
 21
198.166604
 31
0.0
  0
LINE
  5
A979
330
A7DA
100
AcDbEntity
  8
1
  6
Continuous
100
AcDbLine
 10
277.728
 20
208.766604
 30
0.0
 11
277.728
 21
196.766604
 31
0.0
  0
LINE
  5
A97A
330
A7DA
100
AcDbEntity
  8
1
  6
Continuous
100
AcDbLine
 10
279.028
 20
207.3666039999999
 30
0.0
 11
277.728
 21
207.3666039999999
 31
0.0
  0
LINE
  5
A97B
330
A7DA
100
AcDbEntity
  8
1
  6
Continuous
100
AcDbLine
 10
276.928
 20
208.766604
 30
0.0
 11
276.928
 21
196.766604
 31
0.0
  0
LINE
  5
A97C
330
A7DA
100
AcDbEntity
  8
1
  6
Continuous
100
AcDbLine
 10
277.728
 20
208.766604
 30
0.0
 11
276.928
 21
208.766604
 31
0.0
  0
LINE
  5
A97D
330
A7DA
100
AcDbEntity
  8
1
  6
Continuous
100
AcDbLine
 10
277.728
 20
196.766604
 30
0.0
 11
276.928
 21
196.766604
 31
0.0
  0
LINE
  5
A97E
330
A7DA
100
AcDbEntity
  8
1
  6
Continuous
100
AcDbLine
 10
274.228
 20
232.566604
 30
0.0
 11
274.228
 21
222.966604
 31
0.0
  0
LINE
  5
A97F
330
A7DA
100
AcDbEntity
  8
1
  6
Continuous
100
AcDbLine
 10
20.52169999999998
 20
231.5666039999999
 30
0.0
 11
20.52169999999998
 21
223.9666039999999
 31
0.0
  0
LINE
  5
A980
330
A7DA
100
AcDbEntity
  8
4
  6
CENTER
100
AcDbLine
 10
28.1717
 20
227.766604
 30
0.0
 11
13.59118
 21
227.766604
 31
0.0
  0
LINE
  5
A981
330
A7DA
100
AcDbEntity
  8
1
  6
Continuous
100
AcDbLine
 10
20.52169999999998
 20
223.9666039999999
 30
0.0
 11
19.52168
 21
223.9666039999999
 31
0.0
  0
LINE
  5
A982
330
A7DA
100
AcDbEntity
  8
1
  6
Continuous
100
AcDbLine
 10
19.52168
 20
223.9666039999999
 30
0.0
 11
19.52168
 21
231.5666039999999
 31
0.0
  0
LINE
  5
A983
330
A7DA
100
AcDbEntity
  8
1
  6
Continuous
100
AcDbLine
 10
20.5216
 20
227.5506039999999
 30
0.0
 11
19.52162999999998
 21
227.2826039999999
 31
0.0
  0
LINE
  5
A984
330
A7DA
100
AcDbEntity
  8
1
  6
Continuous
100
AcDbLine
 10
20.5216
 20
228.250604
 30
0.0
 11
19.52163999999999
 21
227.982604
 31
0.0
  0
LINE
  5
A985
330
A7DA
100
AcDbEntity
  8
1
  6
Continuous
100
AcDbLine
 10
20.52169999999998
 20
231.5666039999999
 30
0.0
 11
19.52168
 21
231.5666039999999
 31
0.0
  0
LINE
  5
A986
330
A7DA
100
AcDbEntity
  8
1
  6
Continuous
100
AcDbLine
 10
18.40227
 20
231.168604
 30
0.0
 11
19.52165
 21
231.2666039999998
 31
0.0
  0
LINE
  5
A987
330
A7DA
100
AcDbEntity
  8
1
  6
Continuous
100
AcDbLine
 10
18.40231
 20
224.363604
 30
0.0
 11
19.52172999999999
 21
224.2656039999999
 31
0.0
  0
LINE
  5
A988
330
A7DA
100
AcDbEntity
  8
1
  6
Continuous
100
AcDbLine
 10
25.0217
 20
232.566604
 30
0.0
 11
25.0217
 21
222.966604
 31
0.0
  0
LINE
  5
A989
330
A7DA
100
AcDbEntity
  8
1
  6
Continuous
100
AcDbLine
 10
20.52169999999998
 20
131.566604
 30
0.0
 11
20.52169999999998
 21
123.966604
 31
0.0
  0
LINE
  5
A98A
330
A7DA
100
AcDbEntity
  8
4
  6
CENTER
100
AcDbLine
 10
28.1717
 20
127.7666039999999
 30
0.0
 11
13.59118
 21
127.7666039999999
 31
0.0
  0
LINE
  5
A98B
330
A7DA
100
AcDbEntity
  8
1
  6
Continuous
100
AcDbLine
 10
20.52169999999998
 20
123.966604
 30
0.0
 11
19.52168
 21
123.966604
 31
0.0
  0
LINE
  5
A98C
330
A7DA
100
AcDbEntity
  8
1
  6
Continuous
100
AcDbLine
 10
19.52168
 20
123.966604
 30
0.0
 11
19.52168
 21
131.566604
 31
0.0
  0
LINE
  5
A98D
330
A7DA
100
AcDbEntity
  8
1
  6
Continuous
100
AcDbLine
 10
20.5216
 20
127.550604
 30
0.0
 11
19.52163999999999
 21
127.2826039999999
 31
0.0
  0
LINE
  5
A98E
330
A7DA
100
AcDbEntity
  8
1
  6
Continuous
100
AcDbLine
 10
20.5216
 20
128.250604
 30
0.0
 11
19.52162999999998
 21
127.9826039999999
 31
0.0
  0
LINE
  5
A98F
330
A7DA
100
AcDbEntity
  8
1
  6
Continuous
100
AcDbLine
 10
20.52169999999998
 20
131.566604
 30
0.0
 11
19.52168
 21
131.566604
 31
0.0
  0
LINE
  5
A990
330
A7DA
100
AcDbEntity
  8
1
  6
Continuous
100
AcDbLine
 10
18.40227
 20
131.1686039999999
 30
0.0
 11
19.52165
 21
131.266604
 31
0.0
  0
LINE
  5
A991
330
A7DA
100
AcDbEntity
  8
1
  6
Continuous
100
AcDbLine
 10
18.40231
 20
124.363604
 30
0.0
 11
19.52172999999999
 21
124.265604
 31
0.0
  0
LINE
  5
A992
330
A7DA
100
AcDbEntity
  8
1
  6
Continuous
100
AcDbLine
 10
25.0217
 20
132.566604
 30
0.0
 11
25.0217
 21
122.966604
 31
0.0
  0
LINE
  5
A993
330
A7DA
100
AcDbEntity
  8
1
  6
Continuous
100
AcDbLine
 10
278.7279999999999
 20
131.566604
 30
0.0
 11
278.7279999999999
 21
123.966604
 31
0.0
  0
LINE
  5
A994
330
A7DA
100
AcDbEntity
  8
4
  6
CENTER
100
AcDbLine
 10
271.0779999999999
 20
127.7666039999999
 30
0.0
 11
285.658
 21
127.7666039999999
 31
0.0
  0
LINE
  5
A995
330
A7DA
100
AcDbEntity
  8
1
  6
Continuous
100
AcDbLine
 10
278.7279999999999
 20
123.966604
 30
0.0
 11
279.728
 21
123.966604
 31
0.0
  0
LINE
  5
A996
330
A7DA
100
AcDbEntity
  8
1
  6
Continuous
100
AcDbLine
 10
279.728
 20
123.966604
 30
0.0
 11
279.728
 21
131.566604
 31
0.0
  0
LINE
  5
A997
330
A7DA
100
AcDbEntity
  8
1
  6
Continuous
100
AcDbLine
 10
278.7279999999999
 20
127.9826039999999
 30
0.0
 11
279.728
 21
128.250604
 31
0.0
  0
LINE
  5
A998
330
A7DA
100
AcDbEntity
  8
1
  6
Continuous
100
AcDbLine
 10
278.7279999999999
 20
127.2826039999999
 30
0.0
 11
279.728
 21
127.550604
 31
0.0
  0
LINE
  5
A999
330
A7DA
100
AcDbEntity
  8
1
  6
Continuous
100
AcDbLine
 10
278.7279999999999
 20
131.566604
 30
0.0
 11
279.728
 21
131.566604
 31
0.0
  0
LINE
  5
A99A
330
A7DA
100
AcDbEntity
  8
1
  6
Continuous
100
AcDbLine
 10
280.8469999999999
 20
131.1686039999999
 30
0.0
 11
279.728
 21
131.266604
 31
0.0
  0
LINE
  5
A99B
330
A7DA
100
AcDbEntity
  8
1
  6
Continuous
100
AcDbLine
 10
280.8469999999999
 20
124.363604
 30
0.0
 11
279.728
 21
124.265604
 31
0.0
  0
LINE
  5
A99C
330
A7DA
100
AcDbEntity
  8
1
  6
Continuous
100
AcDbLine
 10
274.228
 20
132.566604
 30
0.0
 11
274.228
 21
122.966604
 31
0.0
  0
LINE
  5
A99D
330
A7DA
100
AcDbEntity
  8
1
  6
Continuous
100
AcDbLine
 10
385.439
 20
202.0446039999999
 30
0.0
 11
386.045
 21
202.327604
 31
0.0
  0
LINE
  5
A99E
330
A7DA
100
AcDbEntity
  8
1
  6
Continuous
100
AcDbLine
 10
386.045
 20
202.327604
 30
0.0
 11
387.1309999999999
 21
202.346604
 31
0.0
  0
LINE
  5
A99F
330
A7DA
100
AcDbEntity
  8
1
  6
Continuous
100
AcDbLine
 10
386.045
 20
203.205604
 30
0.0
 11
387.1309999999999
 21
203.1866039999999
 31
0.0
  0
LINE
  5
A9A0
330
A7DA
100
AcDbEntity
  8
1
  6
Continuous
100
AcDbLine
 10
385.439
 20
203.4876039999998
 30
0.0
 11
386.045
 21
203.205604
 31
0.0
  0
LINE
  5
A9A1
330
A7DA
100
AcDbEntity
  8
1
  6
Continuous
100
AcDbLine
 10
385.156
 20
204.094604
 30
0.0
 11
385.1369999999998
 21
205.179604
 31
0.0
  0
LINE
  5
A9A2
330
A7DA
100
AcDbEntity
  8
1
  6
Continuous
100
AcDbLine
 10
385.439
 20
203.4876039999998
 30
0.0
 11
385.156
 21
204.094604
 31
0.0
  0
LINE
  5
A9A3
330
A7DA
100
AcDbEntity
  8
1
  6
Continuous
100
AcDbLine
 10
383.9949999999998
 20
203.4876039999998
 30
0.0
 11
384.278
 21
204.094604
 31
0.0
  0
LINE
  5
A9A4
330
A7DA
100
AcDbEntity
  8
1
  6
Continuous
100
AcDbLine
 10
384.278
 20
204.094604
 30
0.0
 11
384.2969999999998
 21
205.179604
 31
0.0
  0
LINE
  5
A9A5
330
A7DA
100
AcDbEntity
  8
1
  6
Continuous
100
AcDbLine
 10
383.389
 20
203.205604
 30
0.0
 11
382.3030000000001
 21
203.1866039999999
 31
0.0
  0
LINE
  5
A9A6
330
A7DA
100
AcDbEntity
  8
1
  6
Continuous
100
AcDbLine
 10
383.9949999999998
 20
203.4876039999998
 30
0.0
 11
383.389
 21
203.205604
 31
0.0
  0
LINE
  5
A9A7
330
A7DA
100
AcDbEntity
  8
1
  6
Continuous
100
AcDbLine
 10
383.9949999999998
 20
202.0446039999999
 30
0.0
 11
383.389
 21
202.327604
 31
0.0
  0
LINE
  5
A9A8
330
A7DA
100
AcDbEntity
  8
1
  6
Continuous
100
AcDbLine
 10
383.389
 20
202.327604
 30
0.0
 11
382.3030000000001
 21
202.346604
 31
0.0
  0
LINE
  5
A9A9
330
A7DA
100
AcDbEntity
  8
1
  6
Continuous
100
AcDbLine
 10
384.278
 20
201.438604
 30
0.0
 11
384.2969999999998
 21
200.352604
 31
0.0
  0
LINE
  5
A9AA
330
A7DA
100
AcDbEntity
  8
1
  6
Continuous
100
AcDbLine
 10
383.9949999999998
 20
202.0446039999999
 30
0.0
 11
384.278
 21
201.438604
 31
0.0
  0
LINE
  5
A9AB
330
A7DA
100
AcDbEntity
  8
1
  6
Continuous
100
AcDbLine
 10
385.439
 20
202.0446039999999
 30
0.0
 11
385.156
 21
201.438604
 31
0.0
  0
LINE
  5
A9AC
330
A7DA
100
AcDbEntity
  8
1
  6
Continuous
100
AcDbLine
 10
385.156
 20
201.438604
 30
0.0
 11
385.1369999999998
 21
200.352604
 31
0.0
  0
LINE
  5
A9AD
330
A7DA
100
AcDbEntity
  8
1
  6
Continuous
100
AcDbLine
 10
356.389
 20
128.4376039999999
 30
0.0
 11
356.1519999999999
 21
128.944604
 31
0.0
  0
LINE
  5
A9AE
330
A7DA
100
AcDbEntity
  8
1
  6
Continuous
100
AcDbLine
 10
356.1519999999999
 20
128.944604
 30
0.0
 11
356.1369999999998
 21
129.8236039999999
 31
0.0
  0
LINE
  5
A9AF
330
A7DA
100
AcDbEntity
  8
1
  6
Continuous
100
AcDbLine
 10
355.282
 20
128.944604
 30
0.0
 11
355.2969999999998
 21
129.8236039999999
 31
0.0
  0
LINE
  5
A9B0
330
A7DA
100
AcDbEntity
  8
1
  6
Continuous
100
AcDbLine
 10
355.045
 20
128.4376039999999
 30
0.0
 11
355.282
 21
128.944604
 31
0.0
  0
LINE
  5
A9B1
330
A7DA
100
AcDbEntity
  8
1
  6
Continuous
100
AcDbLine
 10
355.045
 20
127.094604
 30
0.0
 11
354.5389999999999
 21
127.330604
 31
0.0
  0
LINE
  5
A9B2
330
A7DA
100
AcDbEntity
  8
1
  6
Continuous
100
AcDbLine
 10
354.5389999999999
 20
127.330604
 30
0.0
 11
353.6589999999998
 21
127.3466039999999
 31
0.0
  0
LINE
  5
A9B3
330
A7DA
100
AcDbEntity
  8
1
  6
Continuous
100
AcDbLine
 10
354.5389999999999
 20
128.201604
 30
0.0
 11
353.6589999999998
 21
128.1866039999999
 31
0.0
  0
LINE
  5
A9B4
330
A7DA
100
AcDbEntity
  8
1
  6
Continuous
100
AcDbLine
 10
355.045
 20
128.4376039999999
 30
0.0
 11
354.5389999999999
 21
128.201604
 31
0.0
  0
LINE
  5
A9B5
330
A7DA
100
AcDbEntity
  8
1
  6
Continuous
100
AcDbLine
 10
356.389
 20
127.094604
 30
0.0
 11
356.1519999999999
 21
126.5876039999999
 31
0.0
  0
LINE
  5
A9B6
330
A7DA
100
AcDbEntity
  8
1
  6
Continuous
100
AcDbLine
 10
356.1519999999999
 20
126.5876039999999
 30
0.0
 11
356.1369999999998
 21
125.7086039999999
 31
0.0
  0
LINE
  5
A9B7
330
A7DA
100
AcDbEntity
  8
1
  6
Continuous
100
AcDbLine
 10
355.282
 20
126.5876039999999
 30
0.0
 11
355.2969999999998
 21
125.7086039999999
 31
0.0
  0
LINE
  5
A9B8
330
A7DA
100
AcDbEntity
  8
1
  6
Continuous
100
AcDbLine
 10
355.045
 20
127.094604
 30
0.0
 11
355.282
 21
126.5876039999999
 31
0.0
  0
LINE
  5
A9B9
330
A7DA
100
AcDbEntity
  8
1
  6
Continuous
100
AcDbLine
 10
356.389
 20
128.4376039999999
 30
0.0
 11
356.895
 21
128.201604
 31
0.0
  0
LINE
  5
A9BA
330
A7DA
100
AcDbEntity
  8
1
  6
Continuous
100
AcDbLine
 10
356.895
 20
128.201604
 30
0.0
 11
357.7739999999999
 21
128.1866039999999
 31
0.0
  0
LINE
  5
A9BB
330
A7DA
100
AcDbEntity
  8
1
  6
Continuous
100
AcDbLine
 10
356.895
 20
127.330604
 30
0.0
 11
357.7739999999999
 21
127.3466039999999
 31
0.0
  0
LINE
  5
A9BC
330
A7DA
100
AcDbEntity
  8
1
  6
Continuous
100
AcDbLine
 10
356.389
 20
127.094604
 30
0.0
 11
356.895
 21
127.330604
 31
0.0
  0
LINE
  5
A9BD
330
A7DA
100
AcDbEntity
  8
1
  6
Continuous
100
AcDbLine
 10
350.9169999999999
 20
126.7666039999999
 30
0.0
 11
350.9169999999999
 21
128.7666039999998
 31
0.0
  0
LINE
  5
A9BE
330
A7DA
100
AcDbEntity
  8
1
  6
Continuous
100
AcDbLine
 10
360.517
 20
126.7666039999999
 30
0.0
 11
360.517
 21
128.7666039999998
 31
0.0
  0
LINE
  5
A9BF
330
A7DA
100
AcDbEntity
  8
1
  6
Continuous
100
AcDbLine
 10
385.389
 20
227.094604
 30
0.0
 11
385.895
 21
227.330604
 31
0.0
  0
LINE
  5
A9C0
330
A7DA
100
AcDbEntity
  8
1
  6
Continuous
100
AcDbLine
 10
385.895
 20
227.330604
 30
0.0
 11
386.7739999999998
 21
227.346604
 31
0.0
  0
LINE
  5
A9C1
330
A7DA
100
AcDbEntity
  8
1
  6
Continuous
100
AcDbLine
 10
385.895
 20
228.201604
 30
0.0
 11
386.7739999999998
 21
228.186604
 31
0.0
  0
LINE
  5
A9C2
330
A7DA
100
AcDbEntity
  8
1
  6
Continuous
100
AcDbLine
 10
385.389
 20
228.437604
 30
0.0
 11
385.895
 21
228.201604
 31
0.0
  0
LINE
  5
A9C3
330
A7DA
100
AcDbEntity
  8
1
  6
Continuous
100
AcDbLine
 10
384.045
 20
228.437604
 30
0.0
 11
384.282
 21
228.944604
 31
0.0
  0
LINE
  5
A9C4
330
A7DA
100
AcDbEntity
  8
1
  6
Continuous
100
AcDbLine
 10
384.282
 20
228.944604
 30
0.0
 11
384.2969999999998
 21
229.8236039999999
 31
0.0
  0
LINE
  5
A9C5
330
A7DA
100
AcDbEntity
  8
1
  6
Continuous
100
AcDbLine
 10
385.1519999999999
 20
228.944604
 30
0.0
 11
385.1369999999998
 21
229.8236039999999
 31
0.0
  0
LINE
  5
A9C6
330
A7DA
100
AcDbEntity
  8
1
  6
Continuous
100
AcDbLine
 10
385.389
 20
228.437604
 30
0.0
 11
385.1519999999999
 21
228.944604
 31
0.0
  0
LINE
  5
A9C7
330
A7DA
100
AcDbEntity
  8
1
  6
Continuous
100
AcDbLine
 10
384.045
 20
227.094604
 30
0.0
 11
383.5389999999999
 21
227.330604
 31
0.0
  0
LINE
  5
A9C8
330
A7DA
100
AcDbEntity
  8
1
  6
Continuous
100
AcDbLine
 10
383.5389999999999
 20
227.330604
 30
0.0
 11
382.6589999999998
 21
227.346604
 31
0.0
  0
LINE
  5
A9C9
330
A7DA
100
AcDbEntity
  8
1
  6
Continuous
100
AcDbLine
 10
383.5389999999999
 20
228.201604
 30
0.0
 11
382.6589999999998
 21
228.186604
 31
0.0
  0
LINE
  5
A9CA
330
A7DA
100
AcDbEntity
  8
1
  6
Continuous
100
AcDbLine
 10
384.045
 20
228.437604
 30
0.0
 11
383.5389999999999
 21
228.201604
 31
0.0
  0
LINE
  5
A9CB
330
A7DA
100
AcDbEntity
  8
1
  6
Continuous
100
AcDbLine
 10
385.389
 20
227.094604
 30
0.0
 11
385.1519999999999
 21
226.587604
 31
0.0
  0
LINE
  5
A9CC
330
A7DA
100
AcDbEntity
  8
1
  6
Continuous
100
AcDbLine
 10
385.1519999999999
 20
226.587604
 30
0.0
 11
385.1369999999998
 21
225.708604
 31
0.0
  0
LINE
  5
A9CD
330
A7DA
100
AcDbEntity
  8
1
  6
Continuous
100
AcDbLine
 10
384.282
 20
226.587604
 30
0.0
 11
384.2969999999998
 21
225.708604
 31
0.0
  0
LINE
  5
A9CE
330
A7DA
100
AcDbEntity
  8
1
  6
Continuous
100
AcDbLine
 10
384.045
 20
227.094604
 30
0.0
 11
384.282
 21
226.587604
 31
0.0
  0
LINE
  5
A9CF
330
A7DA
100
AcDbEntity
  8
1
  6
Continuous
100
AcDbLine
 10
383.717
 20
232.566604
 30
0.0
 11
385.7169999999999
 21
232.566604
 31
0.0
  0
LINE
  5
A9D0
330
A7DA
100
AcDbEntity
  8
1
  6
Continuous
100
AcDbLine
 10
383.717
 20
222.966604
 30
0.0
 11
385.7169999999999
 21
222.966604
 31
0.0
  0
LINE
  5
A9D1
330
A7DA
100
AcDbEntity
  8
4
  6
CENTER
100
AcDbLine
 10
377.7169999999999
 20
227.766604
 30
0.0
 11
391.717
 21
227.766604
 31
0.0
  0
LINE
  5
A9D2
330
A7DA
100
AcDbEntity
  8
1
  6
Continuous
100
AcDbLine
 10
238.235
 20
208.716604
 30
0.0
 11
238.235
 21
196.816604
 31
0.0
  0
LINE
  5
A9D3
330
A7DA
100
AcDbEntity
  8
1
  6
Continuous
100
AcDbLine
 10
110.6589999999999
 20
285.291604
 30
0.0
 11
110.6589999999999
 21
288.2916039999999
 31
0.0
  0
LINE
  5
A9D4
330
A7DA
100
AcDbEntity
  8
1
  6
Continuous
100
AcDbLine
 10
185.6589999999999
 20
285.291604
 30
0.0
 11
185.6589999999999
 21
288.2916039999999
 31
0.0
  0
LINE
  5
A9D5
330
A7DA
100
AcDbEntity
  8
1
  6
Continuous
100
AcDbLine
 10
112.6589999999999
 20
288.2916039999999
 30
0.0
 11
112.6589999999999
 21
298.291604
 31
0.0
  0
LINE
  5
A9D6
330
A7DA
100
AcDbEntity
  8
1
  6
Continuous
100
AcDbLine
 10
185.6589999999999
 20
288.2916039999999
 30
0.0
 11
110.6589999999999
 21
288.2916039999999
 31
0.0
  0
LINE
  5
A9D7
330
A7DA
100
AcDbEntity
  8
1
  6
Continuous
100
AcDbLine
 10
183.6589999999999
 20
292.291604
 30
0.0
 11
183.6589999999999
 21
297.791604
 31
0.0
  0
LINE
  5
A9D8
330
A7DA
100
AcDbEntity
  8
1
  6
Continuous
100
AcDbLine
 10
158.159
 20
292.291604
 30
0.0
 11
158.159
 21
297.791604
 31
0.0
  0
LINE
  5
A9D9
330
A7DA
100
AcDbEntity
  8
1
  6
Continuous
100
AcDbLine
 10
138.6589999999999
 20
296.2916039999999
 30
0.0
 11
138.6589999999999
 21
298.291604
 31
0.0
  0
LINE
  5
A9DA
330
A7DA
100
AcDbEntity
  8
1
  6
Continuous
100
AcDbLine
 10
179.6589999999999
 20
282.791604
 30
0.0
 11
116.659
 21
282.791604
 31
0.0
  0
LINE
  5
A9DB
330
A7DA
100
AcDbEntity
  8
1
  6
Continuous
100
AcDbLine
 10
113.6589999999999
 20
299.291604
 30
0.0
 11
137.6589999999999
 21
299.291604
 31
0.0
  0
LINE
  5
A9DC
330
A7DA
100
AcDbEntity
  8
1
  6
Continuous
100
AcDbLine
 10
175.6589999999999
 20
295.291604
 30
0.0
 11
159.159
 21
295.291604
 31
0.0
  0
LINE
  5
A9DD
330
A7DA
100
AcDbEntity
  8
1
  6
Continuous
100
AcDbLine
 10
113.1589999999999
 20
283.291604
 30
0.0
 11
113.1589999999999
 21
284.2496039999998
 31
0.0
  0
LINE
  5
A9DE
330
A7DA
100
AcDbEntity
  8
1
  6
Continuous
100
AcDbLine
 10
116.659
 20
282.791604
 30
0.0
 11
113.6589999999999
 21
282.791604
 31
0.0
  0
LINE
  5
A9DF
330
A7DA
100
AcDbEntity
  8
1
  6
Continuous
100
AcDbLine
 10
122.1589999999999
 20
288.2916039999999
 30
0.0
 11
122.1589999999999
 21
291.791604
 31
0.0
  0
LINE
  5
A9E0
330
A7DA
100
AcDbEntity
  8
1
  6
Continuous
100
AcDbLine
 10
129.159
 20
288.2916039999999
 30
0.0
 11
129.159
 21
291.791604
 31
0.0
  0
LINE
  5
A9E1
330
A7DA
100
AcDbEntity
  8
1
  6
Continuous
100
AcDbLine
 10
177.1589999999999
 20
288.2916039999999
 30
0.0
 11
177.1589999999999
 21
291.791604
 31
0.0
  0
LINE
  5
A9E2
330
A7DA
100
AcDbEntity
  8
1
  6
Continuous
100
AcDbLine
 10
129.159
 20
291.791604
 30
0.0
 11
122.1589999999999
 21
291.791604
 31
0.0
  0
LINE
  5
A9E3
330
A7DA
100
AcDbEntity
  8
1
  6
Continuous
100
AcDbLine
 10
128.6589999999999
 20
292.291604
 30
0.0
 11
122.6589999999999
 21
292.291604
 31
0.0
  0
LINE
  5
A9E4
330
A7DA
100
AcDbEntity
  8
1
  6
Continuous
100
AcDbLine
 10
177.1589999999999
 20
291.791604
 30
0.0
 11
177.6589999999999
 21
292.291604
 31
0.0
  0
LINE
  5
A9E5
330
A7DA
100
AcDbEntity
  8
1
  6
Continuous
100
AcDbLine
 10
122.1589999999999
 20
291.791604
 30
0.0
 11
122.6589999999999
 21
292.291604
 31
0.0
  0
LINE
  5
A9E6
330
A7DA
100
AcDbEntity
  8
1
  6
Continuous
100
AcDbLine
 10
129.159
 20
291.791604
 30
0.0
 11
128.6589999999999
 21
292.291604
 31
0.0
  0
LINE
  5
A9E7
330
A7DA
100
AcDbEntity
  8
4
  6
CENTER
100
AcDbLine
 10
180.6589999999999
 20
293.8796039999999
 30
0.0
 11
180.6589999999999
 21
286.5276039999999
 31
0.0
  0
LINE
  5
A9E8
330
A7DA
100
AcDbEntity
  8
1
  6
Continuous
100
AcDbLine
 10
176.6589999999999
 20
294.291604
 30
0.0
 11
176.6589999999999
 21
288.2916039999999
 31
0.0
  0
LINE
  5
A9E9
330
A7DA
100
AcDbEntity
  8
1
  6
Continuous
100
AcDbLine
 10
159.6589999999999
 20
294.291604
 30
0.0
 11
159.6589999999999
 21
288.2916039999999
 31
0.0
  0
LINE
  5
A9EA
330
A7DA
100
AcDbEntity
  8
1
  6
Continuous
100
AcDbLine
 10
135.495
 20
295.291604
 30
0.0
 11
135.495
 21
288.2916039999999
 31
0.0
  0
LINE
  5
A9EB
330
A7DA
100
AcDbEntity
  8
4
  6
CENTER
100
AcDbLine
 10
125.6589999999999
 20
279.231604
 30
0.0
 11
125.6589999999999
 21
311.1406039999998
 31
0.0
  0
LINE
  5
A9EC
330
A7DA
100
AcDbEntity
  8
1
  6
Continuous
100
AcDbLine
 10
157.159
 20
291.291604
 30
0.0
 11
141.659
 21
291.291604
 31
0.0
  0
LINE
  5
A9ED
330
A7DA
100
AcDbEntity
  8
1
  6
Continuous
100
AcDbLine
 10
140.659
 20
292.291604
 30
0.0
 11
140.659
 21
294.291604
 31
0.0
  0
LINE
  5
A9EE
330
A7DA
100
AcDbEntity
  8
1
  6
Continuous
100
AcDbLine
 10
139.6589999999999
 20
295.291604
 30
0.0
 11
135.495
 21
295.291604
 31
0.0
  0
LINE
  5
A9EF
330
A7DA
100
AcDbEntity
  8
1
  6
Continuous
100
AcDbLine
 10
137.6589999999999
 20
307.2916039999999
 30
0.0
 11
113.6589999999999
 21
307.2916039999999
 31
0.0
  0
LINE
  5
A9F0
330
A7DA
100
AcDbEntity
  8
1
  6
Continuous
100
AcDbLine
 10
137.6589999999999
 20
299.491604
 30
0.0
 11
113.6589999999999
 21
299.491604
 31
0.0
  0
LINE
  5
A9F1
330
A7DA
100
AcDbEntity
  8
1
  6
Continuous
100
AcDbLine
 10
113.6589999999999
 20
299.491604
 30
0.0
 11
113.6589999999999
 21
307.2916039999999
 31
0.0
  0
LINE
  5
A9F2
330
A7DA
100
AcDbEntity
  8
1
  6
Continuous
100
AcDbLine
 10
137.6589999999999
 20
299.491604
 30
0.0
 11
137.6589999999999
 21
307.2916039999999
 31
0.0
  0
LINE
  5
A9F3
330
A7DA
100
AcDbEntity
  8
1
  6
Continuous
100
AcDbLine
 10
114.1589999999999
 20
307.2916039999999
 30
0.0
 11
114.1589999999999
 21
308.791604
 31
0.0
  0
LINE
  5
A9F4
330
A7DA
100
AcDbEntity
  8
1
  6
Continuous
100
AcDbLine
 10
118.1589999999999
 20
307.2916039999999
 30
0.0
 11
118.1589999999999
 21
308.791604
 31
0.0
  0
LINE
  5
A9F5
330
A7DA
100
AcDbEntity
  8
1
  6
Continuous
100
AcDbLine
 10
133.159
 20
307.2916039999999
 30
0.0
 11
133.159
 21
308.791604
 31
0.0
  0
LINE
  5
A9F6
330
A7DA
100
AcDbEntity
  8
1
  6
Continuous
100
AcDbLine
 10
137.1589999999999
 20
307.2916039999999
 30
0.0
 11
137.1589999999999
 21
308.791604
 31
0.0
  0
LINE
  5
A9F7
330
A7DA
100
AcDbEntity
  8
1
  6
Continuous
100
AcDbLine
 10
117.659
 20
309.2916039999999
 30
0.0
 11
114.6589999999999
 21
309.2916039999999
 31
0.0
  0
LINE
  5
A9F8
330
A7DA
100
AcDbEntity
  8
1
  6
Continuous
100
AcDbLine
 10
136.6589999999999
 20
309.2916039999999
 30
0.0
 11
133.6589999999999
 21
309.2916039999999
 31
0.0
  0
LINE
  5
A9F9
330
A7DA
100
AcDbEntity
  8
1
  6
Continuous
100
AcDbLine
 10
115.659
 20
299.291604
 30
0.0
 11
115.659
 21
299.491604
 31
0.0
  0
LINE
  5
A9FA
330
A7DA
100
AcDbEntity
  8
1
  6
Continuous
100
AcDbLine
 10
135.6589999999999
 20
299.291604
 30
0.0
 11
135.6589999999999
 21
299.491604
 31
0.0
  0
LINE
  5
A9FB
330
A7DA
100
AcDbEntity
  8
1
  6
Continuous
100
AcDbLine
 10
130.6589999999999
 20
281.791604
 30
0.0
 11
123.6609999999999
 21
281.791604
 31
0.0
  0
LINE
  5
A9FC
330
A7DA
100
AcDbEntity
  8
1
  6
Continuous
100
AcDbLine
 10
130.6589999999999
 20
281.791604
 30
0.0
 11
136.6249999999998
 21
282.791604
 31
0.0
  0
LINE
  5
A9FD
330
A7DA
100
AcDbEntity
  8
5
  6
PHANTOM
100
AcDbLine
 10
126.1589999999999
 20
258.291604
 30
0.0
 11
126.1589999999999
 21
279.291604
 31
0.0
  0
LINE
  5
A9FE
330
A7DA
100
AcDbEntity
  8
5
  6
PHANTOM
100
AcDbLine
 10
119.746
 20
282.791604
 30
0.0
 11
120.1589999999999
 21
280.3256039999999
 31
0.0
  0
LINE
  5
A9FF
330
A7DA
100
AcDbEntity
  8
5
  6
PHANTOM
100
AcDbLine
 10
128.159
 20
256.291604
 30
0.0
 11
128.6589999999999
 21
256.291604
 31
0.0
  0
LINE
  5
AA00
330
A7DA
100
AcDbEntity
  8
5
  6
PHANTOM
100
AcDbLine
 10
130.159
 20
244.291604
 30
0.0
 11
130.159
 21
254.791604
 31
0.0
  0
LINE
  5
AA01
330
A7DA
100
AcDbEntity
  8
5
  6
PHANTOM
100
AcDbLine
 10
121.6589999999999
 20
242.7916039999999
 30
0.0
 11
128.6589999999999
 21
242.7916039999999
 31
0.0
  0
LINE
  5
AA02
330
A7DA
100
AcDbEntity
  8
5
  6
PHANTOM
100
AcDbLine
 10
120.1589999999999
 20
244.291604
 30
0.0
 11
120.1589999999999
 21
280.3256039999999
 31
0.0
  0
LINE
  5
AA03
330
A7DA
100
AcDbEntity
  8
5
  6
PHANTOM
100
AcDbLine
 10
126.1589999999999
 20
279.291604
 30
0.0
 11
128.6589999999999
 21
281.791604
 31
0.0
  0
LINE
  5
AA04
330
A7DA
100
AcDbEntity
  8
1
  6
Continuous
100
AcDbLine
 10
185.6589999999999
 20
285.291604
 30
0.0
 11
110.6589999999999
 21
285.291604
 31
0.0
  0
LINE
  5
AA05
330
A7DA
100
AcDbEntity
  8
1
  6
Continuous
100
AcDbLine
 10
116.659
 20
282.791604
 30
0.0
 11
110.6589999999999
 21
285.291604
 31
0.0
  0
LINE
  5
AA06
330
A7DA
100
AcDbEntity
  8
1
  6
Continuous
100
AcDbLine
 10
179.6589999999999
 20
282.791604
 30
0.0
 11
185.6589999999999
 21
285.291604
 31
0.0
  0
LINE
  5
AA07
330
A7DA
100
AcDbEntity
  8
1
  6
Continuous
100
AcDbLine
 10
121.6589999999999
 20
307.2916039999999
 30
0.0
 11
121.6589999999999
 21
309.591604
 31
0.0
  0
LINE
  5
AA08
330
A7DA
100
AcDbEntity
  8
1
  6
Continuous
100
AcDbLine
 10
124.553
 20
307.2916039999999
 30
0.0
 11
124.553
 21
309.591604
 31
0.0
  0
LINE
  5
AA09
330
A7DA
100
AcDbEntity
  8
1
  6
Continuous
100
AcDbLine
 10
129.6589999999999
 20
309.591604
 30
0.0
 11
121.6589999999999
 21
309.591604
 31
0.0
  0
LINE
  5
AA0A
330
A7DA
100
AcDbEntity
  8
1
  6
Continuous
100
AcDbLine
 10
126.7649999999999
 20
307.2916039999999
 30
0.0
 11
126.7649999999999
 21
309.591604
 31
0.0
  0
LINE
  5
AA0B
330
A7DA
100
AcDbEntity
  8
1
  6
Continuous
100
AcDbLine
 10
129.6589999999999
 20
307.2916039999999
 30
0.0
 11
129.6589999999999
 21
309.591604
 31
0.0
  0
LINE
  5
AA0C
330
A7DA
100
AcDbEntity
  8
1
  6
Continuous
100
AcDbLine
 10
184.159
 20
291.791604
 30
0.0
 11
177.1589999999999
 21
291.791604
 31
0.0
  0
LINE
  5
AA0D
330
A7DA
100
AcDbEntity
  8
1
  6
Continuous
100
AcDbLine
 10
183.6589999999999
 20
292.291604
 30
0.0
 11
177.6589999999999
 21
292.291604
 31
0.0
  0
LINE
  5
AA0E
330
A7DA
100
AcDbEntity
  8
1
  6
Continuous
100
AcDbLine
 10
174.859
 20
316.731604
 30
0.0
 11
186.4589999999998
 21
316.731604
 31
0.0
  0
LINE
  5
AA0F
330
A7DA
100
AcDbEntity
  8
1
  6
Continuous
100
AcDbLine
 10
176.359
 20
321.231604
 30
0.0
 11
184.959
 21
321.231604
 31
0.0
  0
LINE
  5
AA10
330
A7DA
100
AcDbEntity
  8
4
  6
CENTER
100
AcDbLine
 10
180.6589999999999
 20
313.581604
 30
0.0
 11
180.6589999999999
 21
328.1626039999999
 31
0.0
  0
LINE
  5
AA11
330
A7DA
100
AcDbEntity
  8
1
  6
Continuous
100
AcDbLine
 10
184.459
 20
321.231604
 30
0.0
 11
184.459
 21
322.2316039999999
 31
0.0
  0
LINE
  5
AA12
330
A7DA
100
AcDbEntity
  8
1
  6
Continuous
100
AcDbLine
 10
184.459
 20
322.2316039999999
 30
0.0
 11
176.859
 21
322.2316039999999
 31
0.0
  0
LINE
  5
AA13
330
A7DA
100
AcDbEntity
  8
1
  6
Continuous
100
AcDbLine
 10
180.4429999999999
 20
321.231604
 30
0.0
 11
180.175
 21
322.2316039999999
 31
0.0
  0
LINE
  5
AA14
330
A7DA
100
AcDbEntity
  8
1
  6
Continuous
100
AcDbLine
 10
181.143
 20
321.231604
 30
0.0
 11
180.875
 21
322.2316039999999
 31
0.0
  0
LINE
  5
AA15
330
A7DA
100
AcDbEntity
  8
1
  6
Continuous
100
AcDbLine
 10
176.859
 20
321.231604
 30
0.0
 11
176.859
 21
322.2316039999999
 31
0.0
  0
LINE
  5
AA16
330
A7DA
100
AcDbEntity
  8
1
  6
Continuous
100
AcDbLine
 10
177.2569999999998
 20
323.351604
 30
0.0
 11
177.1589999999999
 21
322.2316039999999
 31
0.0
  0
LINE
  5
AA17
330
A7DA
100
AcDbEntity
  8
1
  6
Continuous
100
AcDbLine
 10
184.0609999999998
 20
323.351604
 30
0.0
 11
184.159
 21
322.2316039999999
 31
0.0
  0
LINE
  5
AA18
330
A7DA
100
AcDbEntity
  8
4
  6
CENTER
100
AcDbLine
 10
125.6589999999999
 20
342.1176039999999
 30
0.0
 11
125.6589999999999
 21
331.059604
 31
0.0
  0
LINE
  5
AA19
330
A7DA
100
AcDbEntity
  8
1
  6
Continuous
100
AcDbLine
 10
121.059
 20
336.2156039999999
 30
0.0
 11
130.2589999999999
 21
336.2156039999999
 31
0.0
  0
LINE
  5
AA1A
330
A7DA
100
AcDbEntity
  8
1
  6
Continuous
100
AcDbLine
 10
130.031
 20
337.6776039999999
 30
0.0
 11
130.159
 21
336.2156039999999
 31
0.0
  0
LINE
  5
AA1B
330
A7DA
100
AcDbEntity
  8
1
  6
Continuous
100
AcDbLine
 10
121.287
 20
337.6776039999999
 30
0.0
 11
121.1589999999999
 21
336.2156039999999
 31
0.0
  0
LINE
  5
AA1C
330
A7DA
100
AcDbEntity
  8
1
  6
Continuous
100
AcDbLine
 10
125.8349999999998
 20
336.2156039999999
 30
0.0
 11
126.183
 21
334.915604
 31
0.0
  0
LINE
  5
AA1D
330
A7DA
100
AcDbEntity
  8
1
  6
Continuous
100
AcDbLine
 10
125.135
 20
336.2156039999999
 30
0.0
 11
125.4829999999999
 21
334.915604
 31
0.0
  0
LINE
  5
AA1E
330
A7DA
100
AcDbEntity
  8
1
  6
Continuous
100
AcDbLine
 10
130.2589999999999
 20
336.2156039999999
 30
0.0
 11
130.2589999999999
 21
334.915604
 31
0.0
  0
LINE
  5
AA1F
330
A7DA
100
AcDbEntity
  8
1
  6
Continuous
100
AcDbLine
 10
119.659
 20
334.915604
 30
0.0
 11
131.6589999999999
 21
334.915604
 31
0.0
  0
LINE
  5
AA20
330
A7DA
100
AcDbEntity
  8
1
  6
Continuous
100
AcDbLine
 10
121.059
 20
336.2156039999999
 30
0.0
 11
121.059
 21
334.915604
 31
0.0
  0
LINE
  5
AA21
330
A7DA
100
AcDbEntity
  8
1
  6
Continuous
100
AcDbLine
 10
119.659
 20
334.115604
 30
0.0
 11
131.6589999999999
 21
334.115604
 31
0.0
  0
LINE
  5
AA22
330
A7DA
100
AcDbEntity
  8
1
  6
Continuous
100
AcDbLine
 10
119.659
 20
334.915604
 30
0.0
 11
119.659
 21
334.115604
 31
0.0
  0
LINE
  5
AA23
330
A7DA
100
AcDbEntity
  8
1
  6
Continuous
100
AcDbLine
 10
131.6589999999999
 20
334.915604
 30
0.0
 11
131.6589999999999
 21
334.115604
 31
0.0
  0
LINE
  5
AA24
330
A7DA
100
AcDbEntity
  8
1
  6
Continuous
100
AcDbLine
 10
184.159
 20
291.791604
 30
0.0
 11
183.6589999999999
 21
292.291604
 31
0.0
  0
LINE
  5
AA25
330
A7DA
100
AcDbEntity
  8
1
  6
Continuous
100
AcDbLine
 10
184.159
 20
288.2916039999999
 30
0.0
 11
184.159
 21
291.791604
 31
0.0
  0
LINE
  5
AA26
330
A7DA
100
AcDbEntity
  8
1
  6
Continuous
100
AcDbLine
 10
350.7169999999999
 20
128.974604
 30
0.0
 11
350.7169999999999
 21
137.0576039999999
 31
0.0
  0
LINE
  5
AA27
330
A7DA
100
AcDbEntity
  8
1
  6
Continuous
100
AcDbLine
 10
330.3889999999999
 20
227.094604
 30
0.0
 11
330.8949999999999
 21
227.330604
 31
0.0
  0
LINE
  5
AA28
330
A7DA
100
AcDbEntity
  8
1
  6
Continuous
100
AcDbLine
 10
330.8949999999999
 20
227.330604
 30
0.0
 11
331.774
 21
227.346604
 31
0.0
  0
LINE
  5
AA29
330
A7DA
100
AcDbEntity
  8
1
  6
Continuous
100
AcDbLine
 10
330.8949999999999
 20
228.201604
 30
0.0
 11
331.774
 21
228.186604
 31
0.0
  0
LINE
  5
AA2A
330
A7DA
100
AcDbEntity
  8
1
  6
Continuous
100
AcDbLine
 10
330.3889999999999
 20
228.437604
 30
0.0
 11
330.8949999999999
 21
228.201604
 31
0.0
  0
LINE
  5
AA2B
330
A7DA
100
AcDbEntity
  8
1
  6
Continuous
100
AcDbLine
 10
329.045
 20
228.437604
 30
0.0
 11
329.2819999999999
 21
228.944604
 31
0.0
  0
LINE
  5
AA2C
330
A7DA
100
AcDbEntity
  8
1
  6
Continuous
100
AcDbLine
 10
329.2819999999999
 20
228.944604
 30
0.0
 11
329.2969999999999
 21
229.8236039999999
 31
0.0
  0
LINE
  5
AA2D
330
A7DA
100
AcDbEntity
  8
1
  6
Continuous
100
AcDbLine
 10
330.152
 20
228.944604
 30
0.0
 11
330.1369999999999
 21
229.8236039999999
 31
0.0
  0
LINE
  5
AA2E
330
A7DA
100
AcDbEntity
  8
1
  6
Continuous
100
AcDbLine
 10
330.3889999999999
 20
228.437604
 30
0.0
 11
330.152
 21
228.944604
 31
0.0
  0
LINE
  5
AA2F
330
A7DA
100
AcDbEntity
  8
1
  6
Continuous
100
AcDbLine
 10
329.045
 20
227.094604
 30
0.0
 11
328.539
 21
227.330604
 31
0.0
  0
LINE
  5
AA30
330
A7DA
100
AcDbEntity
  8
1
  6
Continuous
100
AcDbLine
 10
328.539
 20
227.330604
 30
0.0
 11
327.659
 21
227.346604
 31
0.0
  0
LINE
  5
AA31
330
A7DA
100
AcDbEntity
  8
1
  6
Continuous
100
AcDbLine
 10
328.539
 20
228.201604
 30
0.0
 11
327.659
 21
228.186604
 31
0.0
  0
LINE
  5
AA32
330
A7DA
100
AcDbEntity
  8
1
  6
Continuous
100
AcDbLine
 10
329.045
 20
228.437604
 30
0.0
 11
328.539
 21
228.201604
 31
0.0
  0
LINE
  5
AA33
330
A7DA
100
AcDbEntity
  8
1
  6
Continuous
100
AcDbLine
 10
330.3889999999999
 20
227.094604
 30
0.0
 11
330.152
 21
226.587604
 31
0.0
  0
LINE
  5
AA34
330
A7DA
100
AcDbEntity
  8
1
  6
Continuous
100
AcDbLine
 10
330.152
 20
226.587604
 30
0.0
 11
330.1369999999999
 21
225.708604
 31
0.0
  0
LINE
  5
AA35
330
A7DA
100
AcDbEntity
  8
1
  6
Continuous
100
AcDbLine
 10
329.2819999999999
 20
226.587604
 30
0.0
 11
329.2969999999999
 21
225.708604
 31
0.0
  0
LINE
  5
AA36
330
A7DA
100
AcDbEntity
  8
1
  6
Continuous
100
AcDbLine
 10
329.045
 20
227.094604
 30
0.0
 11
329.2819999999999
 21
226.587604
 31
0.0
  0
LINE
  5
AA37
330
A7DA
100
AcDbEntity
  8
1
  6
Continuous
100
AcDbLine
 10
328.7169999999999
 20
232.566604
 30
0.0
 11
330.7169999999999
 21
232.566604
 31
0.0
  0
LINE
  5
AA38
330
A7DA
100
AcDbEntity
  8
1
  6
Continuous
100
AcDbLine
 10
328.7169999999999
 20
222.966604
 30
0.0
 11
330.7169999999999
 21
222.966604
 31
0.0
  0
LINE
  5
AA39
330
A7DA
100
AcDbEntity
  8
4
  6
CENTER
100
AcDbLine
 10
329.7169999999999
 20
233.6936039999999
 30
0.0
 11
329.7169999999999
 21
221.7836039999999
 31
0.0
  0
LINE
  5
AA3A
330
A7DA
100
AcDbEntity
  8
4
  6
CENTER
100
AcDbLine
 10
322.717
 20
227.766604
 30
0.0
 11
336.7169999999999
 21
227.766604
 31
0.0
  0
LINE
  5
AA3B
330
A7DA
100
AcDbEntity
  8
1
  6
Continuous
100
AcDbLine
 10
385.389
 20
127.094604
 30
0.0
 11
385.895
 21
127.330604
 31
0.0
  0
LINE
  5
AA3C
330
A7DA
100
AcDbEntity
  8
1
  6
Continuous
100
AcDbLine
 10
385.895
 20
127.330604
 30
0.0
 11
386.7739999999998
 21
127.3466039999999
 31
0.0
  0
LINE
  5
AA3D
330
A7DA
100
AcDbEntity
  8
1
  6
Continuous
100
AcDbLine
 10
385.895
 20
128.201604
 30
0.0
 11
386.7739999999998
 21
128.1866039999999
 31
0.0
  0
LINE
  5
AA3E
330
A7DA
100
AcDbEntity
  8
1
  6
Continuous
100
AcDbLine
 10
385.3879999999999
 20
128.4376039999999
 30
0.0
 11
385.895
 21
128.201604
 31
0.0
  0
LINE
  5
AA3F
330
A7DA
100
AcDbEntity
  8
1
  6
Continuous
100
AcDbLine
 10
384.045
 20
128.4376039999999
 30
0.0
 11
384.282
 21
128.944604
 31
0.0
  0
LINE
  5
AA40
330
A7DA
100
AcDbEntity
  8
1
  6
Continuous
100
AcDbLine
 10
384.282
 20
128.944604
 30
0.0
 11
384.2969999999998
 21
129.8236039999999
 31
0.0
  0
LINE
  5
AA41
330
A7DA
100
AcDbEntity
  8
1
  6
Continuous
100
AcDbLine
 10
385.1519999999999
 20
128.944604
 30
0.0
 11
385.1369999999998
 21
129.8236039999999
 31
0.0
  0
LINE
  5
AA42
330
A7DA
100
AcDbEntity
  8
1
  6
Continuous
100
AcDbLine
 10
385.389
 20
128.4376039999999
 30
0.0
 11
385.1519999999999
 21
128.944604
 31
0.0
  0
LINE
  5
AA43
330
A7DA
100
AcDbEntity
  8
1
  6
Continuous
100
AcDbLine
 10
384.045
 20
127.094604
 30
0.0
 11
383.5389999999999
 21
127.330604
 31
0.0
  0
LINE
  5
AA44
330
A7DA
100
AcDbEntity
  8
1
  6
Continuous
100
AcDbLine
 10
383.5389999999999
 20
127.330604
 30
0.0
 11
382.6589999999998
 21
127.3466039999999
 31
0.0
  0
LINE
  5
AA45
330
A7DA
100
AcDbEntity
  8
1
  6
Continuous
100
AcDbLine
 10
383.5389999999999
 20
128.201604
 30
0.0
 11
382.6589999999998
 21
128.1866039999999
 31
0.0
  0
LINE
  5
AA46
330
A7DA
100
AcDbEntity
  8
1
  6
Continuous
100
AcDbLine
 10
384.045
 20
128.4376039999999
 30
0.0
 11
383.5389999999999
 21
128.201604
 31
0.0
  0
LINE
  5
AA47
330
A7DA
100
AcDbEntity
  8
1
  6
Continuous
100
AcDbLine
 10
385.389
 20
127.094604
 30
0.0
 11
385.1519999999999
 21
126.5876039999999
 31
0.0
  0
LINE
  5
AA48
330
A7DA
100
AcDbEntity
  8
1
  6
Continuous
100
AcDbLine
 10
385.1519999999999
 20
126.5876039999999
 30
0.0
 11
385.1369999999998
 21
125.7086039999999
 31
0.0
  0
LINE
  5
AA49
330
A7DA
100
AcDbEntity
  8
1
  6
Continuous
100
AcDbLine
 10
384.282
 20
126.5876039999999
 30
0.0
 11
384.2969999999998
 21
125.7086039999999
 31
0.0
  0
LINE
  5
AA4A
330
A7DA
100
AcDbEntity
  8
1
  6
Continuous
100
AcDbLine
 10
384.045
 20
127.094604
 30
0.0
 11
384.282
 21
126.5876039999999
 31
0.0
  0
LINE
  5
AA4B
330
A7DA
100
AcDbEntity
  8
1
  6
Continuous
100
AcDbLine
 10
383.717
 20
132.566604
 30
0.0
 11
385.7169999999999
 21
132.566604
 31
0.0
  0
LINE
  5
AA4C
330
A7DA
100
AcDbEntity
  8
1
  6
Continuous
100
AcDbLine
 10
383.717
 20
122.966604
 30
0.0
 11
385.7169999999999
 21
122.966604
 31
0.0
  0
LINE
  5
AA4D
330
A7DA
100
AcDbEntity
  8
4
  6
CENTER
100
AcDbLine
 10
377.7169999999999
 20
127.7666039999999
 30
0.0
 11
391.717
 21
127.7666039999999
 31
0.0
  0
LINE
  5
AA4E
330
A7DA
100
AcDbEntity
  8
1
  6
Continuous
100
AcDbLine
 10
358.37
 20
122.766604
 30
0.0
 11
395.7169999999999
 21
122.766604
 31
0.0
  0
LINE
  5
AA4F
330
A7DA
100
AcDbEntity
  8
4
  6
CENTER
100
AcDbLine
 10
158.6589999999999
 20
127.7666039999999
 30
0.0
 11
150.6589999999999
 21
127.7666039999999
 31
0.0
  0
LINE
  5
AA50
330
A7DA
100
AcDbEntity
  8
4
  6
CENTER
100
AcDbLine
 10
154.6589999999999
 20
131.7666039999998
 30
0.0
 11
154.6589999999999
 21
123.766604
 31
0.0
  0
LINE
  5
AA51
330
A7DA
100
AcDbEntity
  8
4
  6
CENTER
100
AcDbLine
 10
184.6589999999999
 20
227.766604
 30
0.0
 11
176.6589999999999
 21
227.766604
 31
0.0
  0
LINE
  5
AA52
330
A7DA
100
AcDbEntity
  8
4
  6
CENTER
100
AcDbLine
 10
180.6589999999999
 20
231.766604
 30
0.0
 11
180.6589999999999
 21
223.766604
 31
0.0
  0
LINE
  5
AA53
330
A7DA
100
AcDbEntity
  8
4
  6
CENTER
100
AcDbLine
 10
129.6589999999999
 20
227.766604
 30
0.0
 11
121.6589999999999
 21
227.766604
 31
0.0
  0
LINE
  5
AA54
330
A7DA
100
AcDbEntity
  8
4
  6
CENTER
100
AcDbLine
 10
129.6589999999999
 20
127.7666039999999
 30
0.0
 11
121.6589999999999
 21
127.7666039999999
 31
0.0
  0
LINE
  5
AA55
330
A7DA
100
AcDbEntity
  8
1
  6
Continuous
100
AcDbLine
 10
255.935
 20
214.766604
 30
0.0
 11
255.935
 21
211.766604
 31
0.0
  0
LINE
  5
AA56
330
A7DA
100
AcDbEntity
  8
1
  6
Continuous
100
AcDbLine
 10
255.735
 20
214.766604
 30
0.0
 11
255.735
 21
211.766604
 31
0.0
  0
ARC
  5
AA57
330
A7DA
100
AcDbEntity
  8
1
  6
Continuous
100
AcDbCircle
 10
114.6589999999999
 20
126.7666039999999
 30
0.0
 40
4.0
100
AcDbArc
 50
180.0
 51
270.0
  0
ARC
  5
AA58
330
A7DA
100
AcDbEntity
  8
1
  6
Continuous
100
AcDbCircle
 10
120.659
 20
129.7666039999998
 30
0.0
 40
4.0
100
AcDbArc
 50
180.0
 51
270.0
  0
ARC
  5
AA59
330
A7DA
100
AcDbEntity
  8
1
  6
Continuous
100
AcDbCircle
 10
181.6589999999999
 20
126.7666039999999
 30
0.0
 40
4.0
100
AcDbArc
 50
270.0
 51
0.0
  0
ARC
  5
AA5A
330
A7DA
100
AcDbEntity
  8
1
  6
Continuous
100
AcDbCircle
 10
181.6589999999999
 20
228.7666039999999
 30
0.0
 40
4.0
100
AcDbArc
 50
0.0
 51
90.0
  0
ARC
  5
AA5B
330
A7DA
100
AcDbEntity
  8
1
  6
Continuous
100
AcDbCircle
 10
114.6589999999999
 20
228.7666039999999
 30
0.0
 40
4.0
100
AcDbArc
 50
90.0
 51
180.0
  0
ARC
  5
AA5C
330
A7DA
100
AcDbEntity
  8
1
  6
Continuous
100
AcDbCircle
 10
120.659
 20
225.766604
 30
0.0
 40
4.0
100
AcDbArc
 50
90.0
 51
180.0
  0
ARC
  5
AA5D
330
A7DA
100
AcDbEntity
  8
1
  6
Continuous
100
AcDbCircle
 10
175.6589999999999
 20
225.766604
 30
0.0
 40
4.0
100
AcDbArc
 50
0.0
 51
90.0
  0
ARC
  5
AA5E
330
A7DA
100
AcDbEntity
  8
1
  6
Continuous
100
AcDbCircle
 10
-20.341059
 20
160.277604
 30
0.0
 40
200.0
100
AcDbArc
 50
351.044
 51
0.0
  0
ARC
  5
AA5F
330
A7DA
100
AcDbEntity
  8
1
  6
Continuous
100
AcDbCircle
 10
-20.341059
 20
160.277604
 30
0.0
 40
195.0
100
AcDbArc
 50
351.158
 51
0.0
  0
ARC
  5
AA60
330
A7DA
100
AcDbEntity
  8
1
  6
Continuous
100
AcDbCircle
 10
-20.341059
 20
160.277604
 30
0.0
 40
185.0
100
AcDbArc
 50
353.010868
 51
0.0
  0
ARC
  5
AA61
330
A7DA
100
AcDbEntity
  8
1
  6
Continuous
100
AcDbCircle
 10
173.27
 20
129.7666039999998
 30
0.0
 40
4.0
100
AcDbArc
 50
270.0
 51
351.044
  0
ARC
  5
AA62
330
A7DA
100
AcDbEntity
  8
1
  6
Continuous
100
AcDbCircle
 10
169.377
 20
130.7666039999998
 30
0.0
 40
3.0
100
AcDbArc
 50
270.0
 51
351.158
  0
ARC
  5
AA63
330
A7DA
100
AcDbEntity
  8
1
  6
Continuous
100
AcDbCircle
 10
125.6589999999999
 20
202.766604
 30
0.0
 40
12.6
100
AcDbArc
 50
37.5154
 51
322.4849999999999
  0
ARC
  5
AA64
330
A7DA
100
AcDbEntity
  8
1
  6
Continuous
100
AcDbCircle
 10
138.0329999999998
 20
212.2666039999999
 30
0.0
 40
3.0
100
AcDbArc
 50
217.5149999999999
 51
270.0
  0
ARC
  5
AA65
330
A7DA
100
AcDbEntity
  8
1
  6
Continuous
100
AcDbCircle
 10
138.0329999999998
 20
193.2666039999998
 30
0.0
 40
3.0
100
AcDbArc
 50
90.0
 51
142.485
  0
ARC
  5
AA66
330
A7DA
100
AcDbEntity
  8
1
  6
Continuous
100
AcDbCircle
 10
172.6589999999999
 20
217.766604
 30
0.0
 40
2.0
100
AcDbArc
 50
0.0
 51
90.0
  0
ARC
  5
AA67
330
A7DA
100
AcDbEntity
  8
1
  6
Continuous
100
AcDbCircle
 10
166.659
 20
217.766604
 30
0.0
 40
2.0
100
AcDbArc
 50
90.0
 51
175.011
  0
ARC
  5
AA68
330
A7DA
100
AcDbEntity
  8
1
  6
Continuous
100
AcDbCircle
 10
155.159
 20
186.7666039999998
 30
0.0
 40
9.5
100
AcDbArc
 50
0.0
 51
90.0
  0
ARC
  5
AA69
330
A7DA
100
AcDbEntity
  8
1
  6
Continuous
100
AcDbCircle
 10
155.203
 20
218.7666039999998
 30
0.0
 40
9.5
100
AcDbArc
 50
270.0
 51
355.0109999999999
  0
ARC
  5
AA6A
330
A7DA
100
AcDbEntity
  8
1
  6
Continuous
100
AcDbCircle
 10
134.8209999999999
 20
209.7166039999999
 30
0.0
 40
1.0
100
AcDbArc
 50
37.18189999999999
 51
90.0
  0
ARC
  5
AA6B
330
A7DA
100
AcDbEntity
  8
1
  6
Continuous
100
AcDbCircle
 10
125.6589999999999
 20
202.766604
 30
0.0
 40
12.5
100
AcDbArc
 50
28.6854
 51
37.18189999999999
  0
ARC
  5
AA6C
330
A7DA
100
AcDbEntity
  8
1
  6
Continuous
100
AcDbCircle
 10
125.6589999999999
 20
202.766604
 30
0.0
 40
12.5
100
AcDbArc
 50
322.818
 51
331.315
  0
ARC
  5
AA6D
330
A7DA
100
AcDbEntity
  8
1
  6
Continuous
100
AcDbCircle
 10
134.8209999999999
 20
195.816604
 30
0.0
 40
1.0
100
AcDbArc
 50
270.0
 51
322.818
  0
ARC
  5
AA6E
330
A7DA
100
AcDbEntity
  8
1
  6
Continuous
100
AcDbCircle
 10
155.705
 20
218.7666039999998
 30
0.0
 40
10.0
100
AcDbArc
 50
270.0
 51
354.7839999999998
  0
ARC
  5
AA6F
330
A7DA
100
AcDbEntity
  8
1
  6
Continuous
100
AcDbCircle
 10
166.659
 20
217.766604
 30
0.0
 40
1.0
100
AcDbArc
 50
90.0
 51
174.784
  0
ARC
  5
AA70
330
A7DA
100
AcDbEntity
  8
1
  6
Continuous
100
AcDbCircle
 10
173.1589999999999
 20
217.766604
 30
0.0
 40
1.0
100
AcDbArc
 50
0.0
 51
90.0
  0
ARC
  5
AA71
330
A7DA
100
AcDbEntity
  8
1
  6
Continuous
100
AcDbCircle
 10
172.1589999999999
 20
213.364604
 30
0.0
 40
2.0
100
AcDbArc
 50
302.471
 51
0.0
  0
ARC
  5
AA72
330
A7DA
100
AcDbEntity
  8
1
  6
Continuous
100
AcDbCircle
 10
169.659
 20
208.2176039999999
 30
0.0
 40
1.0
100
AcDbArc
 50
122.4709999999999
 51
180.0
  0
ARC
  5
AA73
330
A7DA
100
AcDbEntity
  8
1
  6
Continuous
100
AcDbCircle
 10
169.659
 20
197.1806039999999
 30
0.0
 40
1.0
100
AcDbArc
 50
180.0
 51
225.0
  0
ARC
  5
AA74
330
A7DA
100
AcDbEntity
  8
1
  6
Continuous
100
AcDbCircle
 10
172.1589999999999
 20
190.437604
 30
0.0
 40
2.0
100
AcDbArc
 50
0.0
 51
45.0
  0
ARC
  5
AA75
330
A7DA
100
AcDbEntity
  8
1
  6
Continuous
100
AcDbCircle
 10
-20.341059
 20
160.277604
 30
0.0
 40
194.5
100
AcDbArc
 50
351.1819999999998
 51
0.0
  0
ARC
  5
AA76
330
A7DA
100
AcDbEntity
  8
1
  6
Continuous
100
AcDbCircle
 10
169.8829999999998
 20
130.7666039999998
 30
0.0
 40
2.0
100
AcDbArc
 50
270.0
 51
351.1819999999998
  0
ARC
  5
AA77
330
A7DA
100
AcDbEntity
  8
1
  6
Continuous
100
AcDbCircle
 10
165.1589999999999
 20
131.266604
 30
0.0
 40
2.5
100
AcDbArc
 50
180.0
 51
270.0
  0
ARC
  5
AA78
330
A7DA
100
AcDbEntity
  8
1
  6
Continuous
100
AcDbCircle
 10
164.6589999999999
 20
134.766604
 30
0.0
 40
2.0
100
AcDbArc
 50
104.478
 51
180.0
  0
ARC
  5
AA79
330
A7DA
100
AcDbEntity
  8
1
  6
Continuous
100
AcDbCircle
 10
-20.341059
 20
160.277604
 30
0.0
 40
186.0
100
AcDbArc
 50
352.718
 51
0.0
  0
ARC
  5
AA7A
330
A7DA
100
AcDbEntity
  8
1
  6
Continuous
100
AcDbCircle
 10
155.6589999999999
 20
186.7666039999998
 30
0.0
 40
10.0
100
AcDbArc
 50
0.0
 51
90.0
  0
ARC
  5
AA7B
330
A7DA
100
AcDbEntity
  8
1
  6
Continuous
100
AcDbCircle
 10
123.6589999999999
 20
196.816604
 30
0.0
 40
2.0
100
AcDbArc
 50
180.0
 51
270.0
  0
ARC
  5
AA7C
330
A7DA
100
AcDbEntity
  8
1
  6
Continuous
100
AcDbCircle
 10
123.6589999999999
 20
208.716604
 30
0.0
 40
2.0
100
AcDbArc
 50
90.0
 51
180.0
  0
ARC
  5
AA7D
330
A7DA
100
AcDbEntity
  8
1
  6
Continuous
100
AcDbCircle
 10
185.1589999999999
 20
192.266604
 30
0.0
 40
0.5
100
AcDbArc
 50
270.0
 51
0.0
  0
ARC
  5
AA7E
330
A7DA
100
AcDbEntity
  8
1
  6
Continuous
100
AcDbCircle
 10
185.1589999999999
 20
211.266604
 30
0.0
 40
0.5
100
AcDbArc
 50
0.0
 51
90.0
  0
ARC
  5
AA7F
330
A7DA
100
AcDbEntity
  8
1
  6
Continuous
100
AcDbCircle
 10
174.9359999999998
 20
210.766604
 30
0.0
 40
1.0
100
AcDbArc
 50
90.0
 51
120.964
  0
ARC
  5
AA80
330
A7DA
100
AcDbEntity
  8
1
  6
Continuous
100
AcDbCircle
 10
175.0729999999999
 20
192.766604
 30
0.0
 40
1.0
100
AcDbArc
 50
225.0
 51
270.0
  0
ARC
  5
AA81
330
A7DA
100
AcDbEntity
  8
1
  6
Continuous
100
AcDbCircle
 10
170.659
 20
208.200604
 30
0.0
 40
1.0
100
AcDbArc
 50
120.964
 51
180.0
  0
ARC
  5
AA82
330
A7DA
100
AcDbEntity
  8
1
  6
Continuous
100
AcDbCircle
 10
170.659
 20
197.1806039999999
 30
0.0
 40
1.0
100
AcDbArc
 50
180.0
 51
225.0
  0
ARC
  5
AA83
330
A7DA
100
AcDbEntity
  8
1
  6
Continuous
100
AcDbCircle
 10
125.6589999999999
 20
202.766604
 30
0.0
 40
12.5
100
AcDbArc
 50
45.09949999999999
 51
314.9
  0
ARC
  5
AA84
330
A7DA
100
AcDbEntity
  8
1
  6
Continuous
100
AcDbCircle
 10
134.1299999999999
 20
211.266604
 30
0.0
 40
0.5
100
AcDbArc
 50
270.0
 51
45.09949999999999
  0
ARC
  5
AA85
330
A7DA
100
AcDbEntity
  8
1
  6
Continuous
100
AcDbCircle
 10
120.659
 20
196.766604
 30
0.0
 40
2.0
100
AcDbArc
 50
180.0
 51
270.0
  0
ARC
  5
AA86
330
A7DA
100
AcDbEntity
  8
1
  6
Continuous
100
AcDbCircle
 10
120.659
 20
208.766604
 30
0.0
 40
2.0
100
AcDbArc
 50
90.0
 51
180.0
  0
ARC
  5
AA87
330
A7DA
100
AcDbEntity
  8
1
  6
Continuous
100
AcDbCircle
 10
134.1299999999999
 20
194.2666039999998
 30
0.0
 40
0.5
100
AcDbArc
 50
314.9
 51
90.0
  0
ARC
  5
AA88
330
A7DA
100
AcDbEntity
  8
1
  6
Continuous
100
AcDbCircle
 10
113.6589999999999
 20
57.241404
 30
0.0
 40
1.0
100
AcDbArc
 50
180.0
 51
270.0
  0
ARC
  5
AA89
330
A7DA
100
AcDbEntity
  8
1
  6
Continuous
100
AcDbCircle
 10
137.6589999999999
 20
57.241404
 30
0.0
 40
1.0
100
AcDbArc
 50
270.0
 51
0.0
  0
ARC
  5
AA8A
330
A7DA
100
AcDbEntity
  8
1
  6
Continuous
100
AcDbCircle
 10
159.159
 20
57.741404
 30
0.0
 40
1.0
100
AcDbArc
 50
180.0
 51
270.0
  0
ARC
  5
AA8B
330
A7DA
100
AcDbEntity
  8
1
  6
Continuous
100
AcDbCircle
 10
182.6589999999999
 20
57.741404
 30
0.0
 40
1.0
100
AcDbArc
 50
270.0
 51
0.0
  0
ARC
  5
AA8C
330
A7DA
100
AcDbEntity
  8
1
  6
Continuous
100
AcDbCircle
 10
113.6589999999999
 20
72.241404
 30
0.0
 40
0.5
100
AcDbArc
 50
90.0
 51
180.0
  0
ARC
  5
AA8D
330
A7DA
100
AcDbEntity
  8
1
  6
Continuous
100
AcDbCircle
 10
395.7169999999999
 20
126.7666039999999
 30
0.0
 40
4.0
100
AcDbArc
 50
270.0
 51
0.0
  0
ARC
  5
AA8E
330
A7DA
100
AcDbEntity
  8
1
  6
Continuous
100
AcDbCircle
 10
395.7169999999999
 20
228.7666039999999
 30
0.0
 40
4.0
100
AcDbArc
 50
0.0
 51
90.0
  0
ARC
  5
AA8F
330
A7DA
100
AcDbEntity
  8
1
  6
Continuous
100
AcDbCircle
 10
328.7169999999999
 20
228.7666039999999
 30
0.0
 40
4.0
100
AcDbArc
 50
90.0
 51
130.969
  0
ARC
  5
AA90
330
A7DA
100
AcDbEntity
  8
1
  6
Continuous
100
AcDbCircle
 10
328.7169999999999
 20
126.7666039999999
 30
0.0
 40
4.0
100
AcDbArc
 50
180.0
 51
270.0
  0
ARC
  5
AA91
330
A7DA
100
AcDbEntity
  8
1
  6
Continuous
100
AcDbCircle
 10
530.717
 20
160.277604
 30
0.0
 40
197.0
100
AcDbArc
 50
180.0
 51
189.8909999999999
  0
ARC
  5
AA92
330
A7DA
100
AcDbEntity
  8
1
  6
Continuous
100
AcDbCircle
 10
340.998
 20
130.7666039999998
 30
0.0
 40
5.0
100
AcDbArc
 50
188.841
 51
270.0
  0
ARC
  5
AA93
330
A7DA
100
AcDbEntity
  8
1
  6
Continuous
100
AcDbCircle
 10
343.717
 20
217.766604
 30
0.0
 40
4.0
100
AcDbArc
 50
4.9885
 51
90.0
  0
ARC
  5
AA94
330
A7DA
100
AcDbEntity
  8
1
  6
Continuous
100
AcDbCircle
 10
337.717
 20
217.766604
 30
0.0
 40
4.0
100
AcDbArc
 50
90.0
 51
180.0
  0
ARC
  5
AA95
330
A7DA
100
AcDbEntity
  8
1
  6
Continuous
100
AcDbCircle
 10
395.7169999999999
 20
228.7666039999999
 30
0.0
 40
1.5
100
AcDbArc
 50
0.0
 51
90.0
  0
ARC
  5
AA96
330
A7DA
100
AcDbEntity
  8
1
  6
Continuous
100
AcDbCircle
 10
395.7169999999999
 20
126.7666039999999
 30
0.0
 40
1.5
100
AcDbArc
 50
270.0
 51
0.0
  0
ARC
  5
AA97
330
A7DA
100
AcDbEntity
  8
1
  6
Continuous
100
AcDbCircle
 10
328.2169999999999
 20
218.2666039999999
 30
0.0
 40
1.0
100
AcDbArc
 50
90.0
 51
180.0
  0
ARC
  5
AA98
330
A7DA
100
AcDbEntity
  8
1
  6
Continuous
100
AcDbCircle
 10
328.2169999999999
 20
215.266604
 30
0.0
 40
1.0
100
AcDbArc
 50
180.0
 51
270.0
  0
ARC
  5
AA99
330
A7DA
100
AcDbEntity
  8
1
  6
Continuous
100
AcDbCircle
 10
339.217
 20
229.2666039999998
 30
0.0
 40
1.0
100
AcDbArc
 50
90.0
 51
180.0
  0
ARC
  5
AA9A
330
A7DA
100
AcDbEntity
  8
1
  6
Continuous
100
AcDbCircle
 10
328.2169999999999
 20
126.266604
 30
0.0
 40
1.0
100
AcDbArc
 50
180.0
 51
270.0
  0
ARC
  5
AA9B
330
A7DA
100
AcDbEntity
  8
1
  6
Continuous
100
AcDbCircle
 10
335.66
 20
126.266604
 30
0.0
 40
1.0
100
AcDbArc
 50
270.0
 51
9.8909
  0
ARC
  5
AA9C
330
A7DA
100
AcDbEntity
  8
1
  6
Continuous
100
AcDbCircle
 10
355.7169999999999
 20
127.7666039999999
 30
0.0
 40
8.5
100
AcDbArc
 50
11.537
 51
90.0
  0
ARC
  5
AA9D
330
A7DA
100
AcDbEntity
  8
1
  6
Continuous
100
AcDbCircle
 10
363.065
 20
129.266604
 30
0.0
 40
1.0
100
AcDbArc
 50
270.0
 51
11.537
  0
ARC
  5
AA9E
330
A7DA
100
AcDbEntity
  8
1
  6
Continuous
100
AcDbCircle
 10
361.2169999999999
 20
127.266604
 30
0.0
 40
1.0
100
AcDbArc
 50
90.0
 51
134.424
  0
ARC
  5
AA9F
330
A7DA
100
AcDbEntity
  8
1
  6
Continuous
100
AcDbCircle
 10
361.2169999999999
 20
126.266604
 30
0.0
 40
1.0
100
AcDbArc
 50
214.8179999999999
 51
270.0
  0
ARC
  5
AAA0
330
A7DA
100
AcDbEntity
  8
1
  6
Continuous
100
AcDbCircle
 10
377.3680000000001
 20
129.266604
 30
0.0
 40
1.0
100
AcDbArc
 50
168.463
 51
270.0
  0
ARC
  5
AAA1
330
A7DA
100
AcDbEntity
  8
1
  6
Continuous
100
AcDbCircle
 10
392.065
 20
129.266604
 30
0.0
 40
1.0
100
AcDbArc
 50
270.0
 51
11.537
  0
ARC
  5
AAA2
330
A7DA
100
AcDbEntity
  8
1
  6
Continuous
100
AcDbCircle
 10
390.2169999999999
 20
126.266604
 30
0.0
 40
1.0
100
AcDbArc
 50
248.7839999999999
 51
270.0
  0
ARC
  5
AAA3
330
A7DA
100
AcDbEntity
  8
1
  6
Continuous
100
AcDbCircle
 10
379.217
 20
126.266604
 30
0.0
 40
1.0
100
AcDbArc
 50
270.0
 51
291.2129999999999
  0
ARC
  5
AAA4
330
A7DA
100
AcDbEntity
  8
1
  6
Continuous
100
AcDbCircle
 10
384.7169999999999
 20
127.7666039999999
 30
0.0
 40
8.5
100
AcDbArc
 50
11.537
 51
168.463
  0
ARC
  5
AAA5
330
A7DA
100
AcDbEntity
  8
1
  6
Continuous
100
AcDbCircle
 10
377.3680000000001
 20
226.266604
 30
0.0
 40
1.0
100
AcDbArc
 50
90.0
 51
191.5369999999998
  0
ARC
  5
AAA6
330
A7DA
100
AcDbEntity
  8
1
  6
Continuous
100
AcDbCircle
 10
392.065
 20
226.266604
 30
0.0
 40
1.0
100
AcDbArc
 50
348.463
 51
90.0
  0
ARC
  5
AAA7
330
A7DA
100
AcDbEntity
  8
1
  6
Continuous
100
AcDbCircle
 10
390.2169999999999
 20
229.2666039999998
 30
0.0
 40
1.0
100
AcDbArc
 50
90.0
 51
111.2149999999998
  0
ARC
  5
AAA8
330
A7DA
100
AcDbEntity
  8
1
  6
Continuous
100
AcDbCircle
 10
384.7169999999999
 20
202.766604
 30
0.0
 40
16.0
100
AcDbArc
 50
47.43149999999999
 51
73.6652
  0
ARC
  5
AAA9
330
A7DA
100
AcDbEntity
  8
1
  6
Continuous
100
AcDbCircle
 10
396.217
 20
215.286604
 30
0.0
 40
1.0
100
AcDbArc
 50
227.4309999999999
 51
0.0
  0
ARC
  5
AAAA
330
A7DA
100
AcDbEntity
  8
1
  6
Continuous
100
AcDbCircle
 10
384.7169999999999
 20
227.766604
 30
0.0
 40
8.5
100
AcDbArc
 50
191.5369999999998
 51
234.108
  0
ARC
  5
AAAB
330
A7DA
100
AcDbEntity
  8
1
  6
Continuous
100
AcDbCircle
 10
384.7169999999999
 20
227.766604
 30
0.0
 40
8.5
100
AcDbArc
 50
301.966
 51
348.463
  0
ARC
  5
AAAC
330
A7DA
100
AcDbEntity
  8
1
  6
Continuous
100
AcDbCircle
 10
328.2169999999999
 20
188.766604
 30
0.0
 40
1.0
100
AcDbArc
 50
90.0
 51
180.0
  0
ARC
  5
AAAD
330
A7DA
100
AcDbEntity
  8
1
  6
Continuous
100
AcDbCircle
 10
355.173
 20
218.7666039999998
 30
0.0
 40
7.5
100
AcDbArc
 50
184.9879999999998
 51
270.0
  0
ARC
  5
AAAE
330
A7DA
100
AcDbEntity
  8
1
  6
Continuous
100
AcDbCircle
 10
530.717
 20
160.277604
 30
0.0
 40
183.0
100
AcDbArc
 50
180.0
 51
186.6049999999999
  0
ARC
  5
AAAF
330
A7DA
100
AcDbEntity
  8
1
  6
Continuous
100
AcDbCircle
 10
332.189
 20
127.594604
 30
0.0
 40
1.0
100
AcDbArc
 50
180.0
 51
270.0
  0
ARC
  5
AAB0
330
A7DA
100
AcDbEntity
  8
1
  6
Continuous
100
AcDbCircle
 10
392.2449999999998
 20
127.594604
 30
0.0
 40
1.0
100
AcDbArc
 50
270.0
 51
0.0
  0
ARC
  5
AAB1
330
A7DA
100
AcDbEntity
  8
1
  6
Continuous
100
AcDbCircle
 10
392.2449999999998
 20
227.9376039999999
 30
0.0
 40
1.0
100
AcDbArc
 50
0.0
 51
90.0
  0
ARC
  5
AAB2
330
A7DA
100
AcDbEntity
  8
1
  6
Continuous
100
AcDbCircle
 10
345.717
 20
134.766604
 30
0.0
 40
5.5
100
AcDbArc
 50
24.61999999999999
 51
54.23600000000001
  0
ARC
  5
AAB3
330
A7DA
100
AcDbEntity
  8
1
  6
Continuous
100
AcDbCircle
 10
175.6589999999999
 20
61.241404
 30
0.0
 40
1.0
100
AcDbArc
 50
270.0
 51
0.0
  0
ARC
  5
AAB4
330
A7DA
100
AcDbEntity
  8
1
  6
Continuous
100
AcDbCircle
 10
160.6589999999999
 20
61.241404
 30
0.0
 40
1.0
100
AcDbArc
 50
180.0
 51
270.0
  0
ARC
  5
AAB5
330
A7DA
100
AcDbEntity
  8
5
  6
PHANTOM
100
AcDbCircle
 10
189.1589999999999
 20
211.266604
 30
0.0
 40
0.5
100
AcDbArc
 50
0.0
 51
90.0
  0
ARC
  5
AAB6
330
A7DA
100
AcDbEntity
  8
5
  6
PHANTOM
100
AcDbCircle
 10
189.1589999999999
 20
192.266604
 30
0.0
 40
0.5
100
AcDbArc
 50
270.0
 51
0.0
  0
CIRCLE
  5
AAB7
330
A7DA
100
AcDbEntity
  8
1
  6
Continuous
100
AcDbCircle
 10
338.2169999999999
 20
202.766604
 30
0.0
 40
2.35
  0
ARC
  5
AAB8
330
A7DA
100
AcDbEntity
  8
1
  6
Continuous
100
AcDbCircle
 10
338.2169999999999
 20
202.766604
 30
0.0
 40
1.5
100
AcDbArc
 50
77.093
 51
102.907
  0
ARC
  5
AAB9
330
A7DA
100
AcDbEntity
  8
1
  6
Continuous
100
AcDbCircle
 10
338.2169999999999
 20
202.766604
 30
0.0
 40
1.5
100
AcDbArc
 50
347.093
 51
12.90699999999998
  0
ARC
  5
AABA
330
A7DA
100
AcDbEntity
  8
1
  6
Continuous
100
AcDbCircle
 10
338.2169999999999
 20
202.766604
 30
0.0
 40
1.5
100
AcDbArc
 50
167.093
 51
192.907
  0
ARC
  5
AABB
330
A7DA
100
AcDbEntity
  8
1
  6
Continuous
100
AcDbCircle
 10
338.2169999999999
 20
202.766604
 30
0.0
 40
1.5
100
AcDbArc
 50
257.093
 51
282.9069999999999
  0
CIRCLE
  5
AABC
330
A7DA
100
AcDbEntity
  8
1
  6
Continuous
100
AcDbCircle
 10
347.2169999999999
 20
202.766604
 30
0.0
 40
2.35
  0
ARC
  5
AABD
330
A7DA
100
AcDbEntity
  8
1
  6
Continuous
100
AcDbCircle
 10
347.2169999999999
 20
202.766604
 30
0.0
 40
1.5
100
AcDbArc
 50
77.093
 51
102.907
  0
ARC
  5
AABE
330
A7DA
100
AcDbEntity
  8
1
  6
Continuous
100
AcDbCircle
 10
347.2169999999999
 20
202.766604
 30
0.0
 40
1.5
100
AcDbArc
 50
347.093
 51
12.90699999999998
  0
ARC
  5
AABF
330
A7DA
100
AcDbEntity
  8
1
  6
Continuous
100
AcDbCircle
 10
347.2169999999999
 20
202.766604
 30
0.0
 40
1.5
100
AcDbArc
 50
167.093
 51
192.907
  0
ARC
  5
AAC0
330
A7DA
100
AcDbEntity
  8
1
  6
Continuous
100
AcDbCircle
 10
347.2169999999999
 20
202.766604
 30
0.0
 40
1.5
100
AcDbArc
 50
257.093
 51
282.9069999999999
  0
ARC
  5
AAC1
330
A7DA
100
AcDbEntity
  8
1
  6
Continuous
100
AcDbCircle
 10
157.159
 20
63.241404
 30
0.0
 40
1.0
100
AcDbArc
 50
0.0
 51
24.2952
  0
ARC
  5
AAC2
330
A7DA
100
AcDbEntity
  8
1
  6
Continuous
100
AcDbCircle
 10
141.659
 20
63.241404
 30
0.0
 40
1.0
100
AcDbArc
 50
90.0
 51
180.0
  0
ARC
  5
AAC3
330
A7DA
100
AcDbEntity
  8
1
  6
Continuous
100
AcDbCircle
 10
139.6589999999999
 20
61.241404
 30
0.0
 40
1.0
100
AcDbArc
 50
270.0
 51
0.0
  0
ARC
  5
AAC4
330
A7DA
100
AcDbEntity
  8
1
  6
Continuous
100
AcDbCircle
 10
139.6589999999999
 20
59.241404
 30
0.0
 40
1.0
100
AcDbArc
 50
90.0
 51
180.0
  0
CIRCLE
  5
AAC5
330
A7DA
100
AcDbEntity
  8
1
  6
Continuous
100
AcDbCircle
 10
384.7169999999999
 20
202.766604
 30
0.0
 40
12.0
  0
CIRCLE
  5
AAC6
330
A7DA
100
AcDbEntity
  8
1
  6
Continuous
100
AcDbCircle
 10
384.7169999999999
 20
202.766604
 30
0.0
 40
13.0
  0
ARC
  5
AAC7
330
A7DA
100
AcDbEntity
  8
1
  6
Continuous
100
AcDbCircle
 10
384.7169999999999
 20
202.766604
 30
0.0
 40
6.5
100
AcDbArc
 50
180.0
 51
0.0
  0
ARC
  5
AAC8
330
A7DA
100
AcDbEntity
  8
1
  6
Continuous
100
AcDbCircle
 10
377.217
 20
210.812604
 30
0.0
 40
1.0
100
AcDbArc
 50
0.0
 51
132.9859999999999
  0
ARC
  5
AAC9
330
A7DA
100
AcDbEntity
  8
1
  6
Continuous
100
AcDbCircle
 10
392.2169999999999
 20
210.812604
 30
0.0
 40
1.0
100
AcDbArc
 50
47.01409999999999
 51
180.0
  0
CIRCLE
  5
AACA
330
A7DA
100
AcDbEntity
  8
1
  6
Continuous
100
AcDbCircle
 10
375.217
 20
202.766604
 30
0.0
 40
2.0
  0
CIRCLE
  5
AACB
330
A7DA
100
AcDbEntity
  8
1
  6
Continuous
100
AcDbCircle
 10
394.2169999999999
 20
202.766604
 30
0.0
 40
2.0
  0
ARC
  5
AACC
330
A7DA
100
AcDbEntity
  8
1
  6
Continuous
100
AcDbCircle
 10
379.0489999999999
 20
219.934604
 30
0.0
 40
1.167799999999999
100
AcDbArc
 50
270.0
 51
54.1081
  0
ARC
  5
AACD
330
A7DA
100
AcDbEntity
  8
1
  6
Continuous
100
AcDbCircle
 10
370.717
 20
214.766604
 30
0.0
 40
1.0
100
AcDbArc
 50
0.0
 51
90.0
  0
ARC
  5
AACE
330
A7DA
100
AcDbEntity
  8
1
  6
Continuous
100
AcDbCircle
 10
370.717
 20
212.2666039999999
 30
0.0
 40
1.0
100
AcDbArc
 50
270.0
 51
0.0
  0
ARC
  5
AACF
330
A7DA
100
AcDbEntity
  8
1
  6
Continuous
100
AcDbCircle
 10
370.717
 20
190.766604
 30
0.0
 40
1.0
100
AcDbArc
 50
270.0
 51
0.0
  0
ARC
  5
AAD0
330
A7DA
100
AcDbEntity
  8
1
  6
Continuous
100
AcDbCircle
 10
370.717
 20
193.2666039999998
 30
0.0
 40
1.0
100
AcDbArc
 50
0.0
 51
90.0
  0
ARC
  5
AAD1
330
A7DA
100
AcDbEntity
  8
1
  6
Continuous
100
AcDbCircle
 10
114.6589999999999
 20
46.74140399999997
 30
0.0
 40
0.5
100
AcDbArc
 50
180.0
 51
270.0
  0
ARC
  5
AAD2
330
A7DA
100
AcDbEntity
  8
1
  6
Continuous
100
AcDbCircle
 10
136.6589999999999
 20
46.74140399999997
 30
0.0
 40
0.5
100
AcDbArc
 50
270.0
 51
0.0
  0
ARC
  5
AAD3
330
A7DA
100
AcDbEntity
  8
1
  6
Continuous
100
AcDbCircle
 10
117.659
 20
46.74140399999997
 30
0.0
 40
0.5
100
AcDbArc
 50
270.0
 51
0.0
  0
ARC
  5
AAD4
330
A7DA
100
AcDbEntity
  8
1
  6
Continuous
100
AcDbCircle
 10
133.6589999999999
 20
46.74140399999997
 30
0.0
 40
0.5
100
AcDbArc
 50
180.0
 51
270.0
  0
ARC
  5
AAD5
330
A7DA
100
AcDbEntity
  8
1
  6
Continuous
100
AcDbCircle
 10
125.6589999999999
 20
67.241404
 30
0.0
 40
6.799999999999998
100
AcDbArc
 50
107.0829999999999
 51
126.032
  0
ARC
  5
AAD6
330
A7DA
100
AcDbEntity
  8
5
  6
PHANTOM
100
AcDbCircle
 10
128.159
 20
97.24160400000002
 30
0.0
 40
2.0
100
AcDbArc
 50
90.0
 51
180.0
  0
ARC
  5
AAD7
330
A7DA
100
AcDbEntity
  8
5
  6
PHANTOM
100
AcDbCircle
 10
128.6589999999999
 20
100.741604
 30
0.0
 40
1.5
100
AcDbArc
 50
270.0
 51
0.0
  0
ARC
  5
AAD8
330
A7DA
100
AcDbEntity
  8
5
  6
PHANTOM
100
AcDbCircle
 10
128.6589999999999
 20
111.241604
 30
0.0
 40
1.5
100
AcDbArc
 50
0.0
 51
90.0
  0
ARC
  5
AAD9
330
A7DA
100
AcDbEntity
  8
5
  6
PHANTOM
100
AcDbCircle
 10
121.6589999999999
 20
111.241604
 30
0.0
 40
1.5
100
AcDbArc
 50
90.0
 51
180.0
  0
ARC
  5
AADA
330
A7DA
100
AcDbEntity
  8
1
  6
Continuous
100
AcDbCircle
 10
125.6589999999999
 20
202.766604
 30
0.0
 40
10.7
100
AcDbArc
 50
47.9868
 51
48.3884
  0
ARC
  5
AADB
330
A7DA
100
AcDbEntity
  8
1
  6
Continuous
100
AcDbCircle
 10
125.6589999999999
 20
202.766604
 30
0.0
 40
10.7
100
AcDbArc
 50
311.612
 51
312.0129999999999
  0
ARC
  5
AADC
330
A7DA
100
AcDbEntity
  8
1
  6
Continuous
100
AcDbCircle
 10
125.6589999999999
 20
202.766604
 30
0.0
 40
10.74999999999998
100
AcDbArc
 50
311.911
 51
312.3079999999998
  0
ARC
  5
AADD
330
A7DA
100
AcDbEntity
  8
1
  6
Continuous
100
AcDbCircle
 10
125.6589999999999
 20
202.766604
 30
0.0
 40
10.74999999999998
100
AcDbArc
 50
47.69179999999999
 51
48.0892
  0
ARC
  5
AADE
330
A7DA
100
AcDbEntity
  8
1
  6
Continuous
100
AcDbCircle
 10
384.7169999999999
 20
202.766604
 30
0.0
 40
16.0
100
AcDbArc
 50
270.0
 51
312.568
  0
ARC
  5
AADF
330
A7DA
100
AcDbEntity
  8
1
  6
Continuous
100
AcDbCircle
 10
396.217
 20
190.246604
 30
0.0
 40
1.0
100
AcDbArc
 50
0.0
 51
132.5679999999999
  0
ARC
  5
AAE0
330
A7DA
100
AcDbEntity
  8
1
  6
Continuous
100
AcDbCircle
 10
370.717
 20
195.266604
 30
0.0
 40
1.0
100
AcDbArc
 50
180.0
 51
270.0
  0
ARC
  5
AAE1
330
A7DA
100
AcDbEntity
  8
1
  6
Continuous
100
AcDbCircle
 10
370.717
 20
210.2666039999999
 30
0.0
 40
1.0
100
AcDbArc
 50
90.0
 51
180.0
  0
ARC
  5
AAE2
330
A7DA
100
AcDbEntity
  8
1
  6
Continuous
100
AcDbCircle
 10
254.235
 20
210.766604
 30
0.0
 40
1.0
100
AcDbArc
 50
0.0
 51
90.0
  0
ARC
  5
AAE3
330
A7DA
100
AcDbEntity
  8
1
  6
Continuous
100
AcDbCircle
 10
254.235
 20
194.766604
 30
0.0
 40
1.0
100
AcDbArc
 50
270.0
 51
0.0
  0
ARC
  5
AAE4
330
A7DA
100
AcDbEntity
  8
1
  6
Continuous
100
AcDbCircle
 10
250.735
 20
220.7666039999998
 30
0.0
 40
1.0
100
AcDbArc
 50
0.0
 51
90.0
  0
ARC
  5
AAE5
330
A7DA
100
AcDbEntity
  8
1
  6
Continuous
100
AcDbCircle
 10
250.735
 20
126.7666039999999
 30
0.0
 40
1.0
100
AcDbArc
 50
270.0
 51
0.0
  0
ARC
  5
AAE6
330
A7DA
100
AcDbEntity
  8
1
  6
Continuous
100
AcDbCircle
 10
254.735
 20
214.766604
 30
0.0
 40
1.0
100
AcDbArc
 50
0.0
 51
90.0
  0
ARC
  5
AAE7
330
A7DA
100
AcDbEntity
  8
1
  6
Continuous
100
AcDbCircle
 10
254.735
 20
190.766604
 30
0.0
 40
1.0
100
AcDbArc
 50
270.0
 51
0.0
  0
ARC
  5
AAE8
330
A7DA
100
AcDbEntity
  8
1
  6
Continuous
100
AcDbCircle
 10
265.235
 20
204.2666039999998
 30
0.0
 40
0.5
100
AcDbArc
 50
0.0
 51
90.0
  0
ARC
  5
AAE9
330
A7DA
100
AcDbEntity
  8
1
  6
Continuous
100
AcDbCircle
 10
265.235
 20
201.266604
 30
0.0
 40
0.5
100
AcDbArc
 50
270.0
 51
0.0
  0
ARC
  5
AAEA
330
A7DA
100
AcDbEntity
  8
1
  6
Continuous
100
AcDbCircle
 10
52.5146
 20
220.7666039999998
 30
0.0
 40
1.0
100
AcDbArc
 50
90.0
 51
180.0
  0
ARC
  5
AAEB
330
A7DA
100
AcDbEntity
  8
1
  6
Continuous
100
AcDbCircle
 10
52.5146
 20
126.7666039999999
 30
0.0
 40
1.0
100
AcDbArc
 50
180.0
 51
270.0
  0
ARC
  5
AAEC
330
A7DA
100
AcDbEntity
  8
1
  6
Continuous
100
AcDbCircle
 10
48.5146
 20
214.766604
 30
0.0
 40
1.0
100
AcDbArc
 50
90.0
 51
180.0
  0
ARC
  5
AAED
330
A7DA
100
AcDbEntity
  8
1
  6
Continuous
100
AcDbCircle
 10
48.5146
 20
190.766604
 30
0.0
 40
1.0
100
AcDbArc
 50
180.0
 51
270.0
  0
ARC
  5
AAEE
330
A7DA
100
AcDbEntity
  8
1
  6
Continuous
100
AcDbCircle
 10
38.0146
 20
204.2666039999998
 30
0.0
 40
0.5
100
AcDbArc
 50
90.0
 51
180.0
  0
ARC
  5
AAEF
330
A7DA
100
AcDbEntity
  8
1
  6
Continuous
100
AcDbCircle
 10
38.0146
 20
201.266604
 30
0.0
 40
0.5
100
AcDbArc
 50
180.0
 51
270.0
  0
ARC
  5
AAF0
330
A7DA
100
AcDbEntity
  8
1
  6
Continuous
100
AcDbCircle
 10
82.3812
 20
202.766604
 30
0.0
 40
20.0333
100
AcDbArc
 50
156.463
 51
203.5369999999999
  0
ARC
  5
AAF1
330
A7DA
100
AcDbEntity
  8
1
  6
Continuous
100
AcDbCircle
 10
63.0146
 20
208.716604
 30
0.0
 40
2.0
100
AcDbArc
 50
0.0
 51
63.59320000000001
  0
ARC
  5
AAF2
330
A7DA
100
AcDbEntity
  8
1
  6
Continuous
100
AcDbCircle
 10
63.0146
 20
196.816604
 30
0.0
 40
2.0
100
AcDbArc
 50
296.4069999999999
 51
0.0
  0
ARC
  5
AAF3
330
A7DA
100
AcDbEntity
  8
1
  6
Continuous
100
AcDbCircle
 10
18.8996
 20
199.9886039999999
 30
0.0
 40
1.6
100
AcDbArc
 50
195.494
 51
265.0
  0
ARC
  5
AAF4
330
A7DA
100
AcDbEntity
  8
1
  6
Continuous
100
AcDbCircle
 10
28.9217
 20
202.766604
 30
0.0
 40
12.0
100
AcDbArc
 50
164.5059999999998
 51
195.494
  0
ARC
  5
AAF5
330
A7DA
100
AcDbEntity
  8
1
  6
Continuous
100
AcDbCircle
 10
18.8996
 20
205.544604
 30
0.0
 40
1.6
100
AcDbArc
 50
95.00010000000001
 51
164.5059999999998
  0
ARC
  5
AAF6
330
A7DA
100
AcDbEntity
  8
5
  6
PHANTOM
100
AcDbCircle
 10
114.602
 20
212.614604
 30
0.0
 40
1.5
100
AcDbArc
 50
60.0
 51
150.0
  0
ARC
  5
AAF7
330
A7DA
100
AcDbEntity
  8
5
  6
PHANTOM
100
AcDbCircle
 10
189.9459999999999
 20
169.114604
 30
0.0
 40
1.5
100
AcDbArc
 50
330.0
 51
60.0
  0
ARC
  5
AAF8
330
A7DA
100
AcDbEntity
  8
5
  6
PHANTOM
100
AcDbCircle
 10
186.446
 20
163.052604
 30
0.0
 40
1.5
100
AcDbArc
 50
239.9999999999999
 51
330.0
  0
ARC
  5
AAF9
330
A7DA
100
AcDbEntity
  8
5
  6
PHANTOM
100
AcDbCircle
 10
111.102
 20
206.5526039999999
 30
0.0
 40
1.5
100
AcDbArc
 50
150.0
 51
239.9999999999999
  0
ARC
  5
AAFA
330
A7DA
100
AcDbEntity
  8
5
  6
PHANTOM
100
AcDbCircle
 10
122.6399999999999
 20
211.4376039999999
 30
0.0
 40
1.0
100
AcDbArc
 50
60.0
 51
150.0
  0
ARC
  5
AAFB
330
A7DA
100
AcDbEntity
  8
5
  6
PHANTOM
100
AcDbCircle
 10
134.678
 20
204.487604
 30
0.0
 40
1.0
100
AcDbArc
 50
330.0
 51
60.0
  0
ARC
  5
AAFC
330
A7DA
100
AcDbEntity
  8
5
  6
PHANTOM
100
AcDbCircle
 10
128.9279999999999
 20
194.528604
 30
0.0
 40
1.0
100
AcDbArc
 50
239.9999999999999
 51
330.0
  0
ARC
  5
AAFD
330
A7DA
100
AcDbEntity
  8
5
  6
PHANTOM
100
AcDbCircle
 10
116.89
 20
201.4786039999999
 30
0.0
 40
1.0
100
AcDbArc
 50
150.0
 51
239.9999999999999
  0
ARC
  5
AAFE
330
A7DA
100
AcDbEntity
  8
5
  6
PHANTOM
100
AcDbCircle
 10
121.6589999999999
 20
217.266604
 30
0.0
 40
1.5
100
AcDbArc
 50
90.0
 51
180.0
  0
ARC
  5
AAFF
330
A7DA
100
AcDbEntity
  8
5
  6
PHANTOM
100
AcDbCircle
 10
128.6589999999999
 20
217.266604
 30
0.0
 40
1.5
100
AcDbArc
 50
0.0
 51
90.0
  0
ARC
  5
AB00
330
A7DA
100
AcDbEntity
  8
5
  6
PHANTOM
100
AcDbCircle
 10
121.6589999999999
 20
130.266604
 30
0.0
 40
1.5
100
AcDbArc
 50
180.0
 51
270.0
  0
ARC
  5
AB01
330
A7DA
100
AcDbEntity
  8
5
  6
PHANTOM
100
AcDbCircle
 10
128.6589999999999
 20
130.266604
 30
0.0
 40
1.5
100
AcDbArc
 50
270.0
 51
0.0
  0
ARC
  5
AB02
330
A7DA
100
AcDbEntity
  8
5
  6
PHANTOM
100
AcDbCircle
 10
120.1589999999999
 20
209.7166039999999
 30
0.0
 40
1.0
100
AcDbArc
 50
90.0
 51
180.0
  0
ARC
  5
AB03
330
A7DA
100
AcDbEntity
  8
5
  6
PHANTOM
100
AcDbCircle
 10
120.1589999999999
 20
195.816604
 30
0.0
 40
1.0
100
AcDbArc
 50
180.0
 51
270.0
  0
ARC
  5
AB04
330
A7DA
100
AcDbEntity
  8
5
  6
PHANTOM
100
AcDbCircle
 10
131.6589999999999
 20
195.816604
 30
0.0
 40
1.0
100
AcDbArc
 50
270.0
 51
0.0
  0
ARC
  5
AB05
330
A7DA
100
AcDbEntity
  8
5
  6
PHANTOM
100
AcDbCircle
 10
131.6589999999999
 20
209.7166039999999
 30
0.0
 40
1.0
100
AcDbArc
 50
0.0
 51
90.0
  0
ARC
  5
AB06
330
A7DA
100
AcDbEntity
  8
1
  6
Continuous
100
AcDbCircle
 10
151.459
 20
38.800804
 30
0.0
 40
9.0
100
AcDbArc
 50
331.9269999999999
 51
0.0
  0
ARC
  5
AB07
330
A7DA
100
AcDbEntity
  8
1
  6
Continuous
100
AcDbCircle
 10
158.959
 20
34.800804
 30
0.0
 40
0.5
100
AcDbArc
 50
270.0
 51
331.9269999999999
  0
ARC
  5
AB08
330
A7DA
100
AcDbEntity
  8
1
  6
Continuous
100
AcDbCircle
 10
150.359
 20
34.800804
 30
0.0
 40
0.5
100
AcDbArc
 50
208.0719999999999
 51
270.0
  0
ARC
  5
AB09
330
A7DA
100
AcDbEntity
  8
1
  6
Continuous
100
AcDbCircle
 10
157.859
 20
38.800804
 30
0.0
 40
9.0
100
AcDbArc
 50
180.0
 51
208.0719999999999
  0
ARC
  5
AB0A
330
A7DA
100
AcDbEntity
  8
1
  6
Continuous
100
AcDbCircle
 10
152.552
 20
32.29470399999998
 30
0.0
 40
1.3
100
AcDbArc
 50
185.0
 51
254.119
  0
ARC
  5
AB0B
330
A7DA
100
AcDbEntity
  8
1
  6
Continuous
100
AcDbCircle
 10
154.6589999999999
 20
39.700804
 30
0.0
 40
9.0
100
AcDbArc
 50
254.119
 51
285.8809999999999
  0
ARC
  5
AB0C
330
A7DA
100
AcDbEntity
  8
1
  6
Continuous
100
AcDbCircle
 10
156.766
 20
32.29470399999998
 30
0.0
 40
1.3
100
AcDbArc
 50
285.8809999999999
 51
355.0
  0
ARC
  5
AB0D
330
A7DA
100
AcDbEntity
  8
1
  6
Continuous
100
AcDbCircle
 10
128.437
 20
17.995004
 30
0.0
 40
1.6
100
AcDbArc
 50
285.494
 51
355.0
  0
ARC
  5
AB0E
330
A7DA
100
AcDbEntity
  8
1
  6
Continuous
100
AcDbCircle
 10
125.6589999999999
 20
28.01700399999999
 30
0.0
 40
12.0
100
AcDbArc
 50
254.5059999999998
 51
285.494
  0
ARC
  5
AB0F
330
A7DA
100
AcDbEntity
  8
1
  6
Continuous
100
AcDbCircle
 10
122.8809999999999
 20
17.995004
 30
0.0
 40
1.6
100
AcDbArc
 50
185.0
 51
254.5059999999998
  0
ARC
  5
AB10
330
A7DA
100
AcDbEntity
  8
1
  6
Continuous
100
AcDbCircle
 10
280.35
 20
205.544604
 30
0.0
 40
1.6
100
AcDbArc
 50
15.494
 51
84.99990000000002
  0
ARC
  5
AB11
330
A7DA
100
AcDbEntity
  8
1
  6
Continuous
100
AcDbCircle
 10
280.7339999999999
 20
229.873604
 30
0.0
 40
1.3
100
AcDbArc
 50
15.8809
 51
85.0
  0
ARC
  5
AB12
330
A7DA
100
AcDbEntity
  8
1
  6
Continuous
100
AcDbCircle
 10
273.3279999999999
 20
227.766604
 30
0.0
 40
9.0
100
AcDbArc
 50
344.1190000000001
 51
15.8809
  0
ARC
  5
AB13
330
A7DA
100
AcDbEntity
  8
1
  6
Continuous
100
AcDbCircle
 10
280.7339999999999
 20
225.659604
 30
0.0
 40
1.3
100
AcDbArc
 50
275.0
 51
344.1190000000001
  0
ARC
  5
AB14
330
A7DA
100
AcDbEntity
  8
1
  6
Continuous
100
AcDbCircle
 10
280.35
 20
199.9886039999999
 30
0.0
 40
1.6
100
AcDbArc
 50
275.0
 51
344.5059999999998
  0
ARC
  5
AB15
330
A7DA
100
AcDbEntity
  8
1
  6
Continuous
100
AcDbCircle
 10
270.3279999999999
 20
202.766604
 30
0.0
 40
12.0
100
AcDbArc
 50
344.5059999999998
 51
15.494
  0
ARC
  5
AB16
330
A7DA
100
AcDbEntity
  8
1
  6
Continuous
100
AcDbCircle
 10
274.103
 20
223.067604
 30
0.0
 40
9.5
100
AcDbArc
 50
62.7219
 51
89.24739999999998
  0
ARC
  5
AB17
330
A7DA
100
AcDbEntity
  8
1
  6
Continuous
100
AcDbCircle
 10
274.103
 20
232.465604
 30
0.0
 40
9.5
100
AcDbArc
 50
270.7529999999998
 51
297.278
  0
ARC
  5
AB18
330
A7DA
100
AcDbEntity
  8
1
  6
Continuous
100
AcDbCircle
 10
278.228
 20
231.066604
 30
0.0
 40
0.5
100
AcDbArc
 50
0.0
 51
62.7219
  0
ARC
  5
AB19
330
A7DA
100
AcDbEntity
  8
1
  6
Continuous
100
AcDbCircle
 10
278.228
 20
224.4666039999999
 30
0.0
 40
0.5
100
AcDbArc
 50
297.278
 51
0.0
  0
ARC
  5
AB1A
330
A7DA
100
AcDbEntity
  8
1
  6
Continuous
100
AcDbCircle
 10
18.5156
 20
229.873604
 30
0.0
 40
1.3
100
AcDbArc
 50
95.0
 51
164.119
  0
ARC
  5
AB1B
330
A7DA
100
AcDbEntity
  8
1
  6
Continuous
100
AcDbCircle
 10
25.9217
 20
227.766604
 30
0.0
 40
9.0
100
AcDbArc
 50
164.119
 51
195.8809999999998
  0
ARC
  5
AB1C
330
A7DA
100
AcDbEntity
  8
1
  6
Continuous
100
AcDbCircle
 10
18.5156
 20
225.659604
 30
0.0
 40
1.3
100
AcDbArc
 50
195.8809999999998
 51
265.0
  0
ARC
  5
AB1D
330
A7DA
100
AcDbEntity
  8
1
  6
Continuous
100
AcDbCircle
 10
25.1465
 20
223.067604
 30
0.0
 40
9.5
100
AcDbArc
 50
90.7526
 51
117.2779999999999
  0
ARC
  5
AB1E
330
A7DA
100
AcDbEntity
  8
1
  6
Continuous
100
AcDbCircle
 10
25.1465
 20
232.465604
 30
0.0
 40
9.5
100
AcDbArc
 50
242.722
 51
269.247
  0
ARC
  5
AB1F
330
A7DA
100
AcDbEntity
  8
1
  6
Continuous
100
AcDbCircle
 10
21.0217
 20
231.066604
 30
0.0
 40
0.5
100
AcDbArc
 50
117.2779999999999
 51
180.0
  0
ARC
  5
AB20
330
A7DA
100
AcDbEntity
  8
1
  6
Continuous
100
AcDbCircle
 10
21.0217
 20
224.4666039999999
 30
0.0
 40
0.5
100
AcDbArc
 50
180.0
 51
242.722
  0
ARC
  5
AB21
330
A7DA
100
AcDbEntity
  8
1
  6
Continuous
100
AcDbCircle
 10
18.5156
 20
129.873604
 30
0.0
 40
1.3
100
AcDbArc
 50
95.0
 51
164.119
  0
ARC
  5
AB22
330
A7DA
100
AcDbEntity
  8
1
  6
Continuous
100
AcDbCircle
 10
25.9217
 20
127.7666039999999
 30
0.0
 40
9.0
100
AcDbArc
 50
164.119
 51
195.8809999999998
  0
ARC
  5
AB23
330
A7DA
100
AcDbEntity
  8
1
  6
Continuous
100
AcDbCircle
 10
18.5156
 20
125.659604
 30
0.0
 40
1.3
100
AcDbArc
 50
195.8809999999998
 51
265.0
  0
ARC
  5
AB24
330
A7DA
100
AcDbEntity
  8
1
  6
Continuous
100
AcDbCircle
 10
25.1465
 20
123.067604
 30
0.0
 40
9.5
100
AcDbArc
 50
90.7526
 51
117.2779999999999
  0
ARC
  5
AB25
330
A7DA
100
AcDbEntity
  8
1
  6
Continuous
100
AcDbCircle
 10
25.1465
 20
132.465604
 30
0.0
 40
9.5
100
AcDbArc
 50
242.722
 51
269.247
  0
ARC
  5
AB26
330
A7DA
100
AcDbEntity
  8
1
  6
Continuous
100
AcDbCircle
 10
21.0217
 20
131.066604
 30
0.0
 40
0.5
100
AcDbArc
 50
117.2779999999999
 51
180.0
  0
ARC
  5
AB27
330
A7DA
100
AcDbEntity
  8
1
  6
Continuous
100
AcDbCircle
 10
21.0217
 20
124.466604
 30
0.0
 40
0.5
100
AcDbArc
 50
180.0
 51
242.722
  0
ARC
  5
AB28
330
A7DA
100
AcDbEntity
  8
1
  6
Continuous
100
AcDbCircle
 10
280.7339999999999
 20
129.873604
 30
0.0
 40
1.3
100
AcDbArc
 50
15.8809
 51
85.0
  0
ARC
  5
AB29
330
A7DA
100
AcDbEntity
  8
1
  6
Continuous
100
AcDbCircle
 10
273.3279999999999
 20
127.7666039999999
 30
0.0
 40
9.0
100
AcDbArc
 50
344.1190000000001
 51
15.8809
  0
ARC
  5
AB2A
330
A7DA
100
AcDbEntity
  8
1
  6
Continuous
100
AcDbCircle
 10
280.7339999999999
 20
125.659604
 30
0.0
 40
1.3
100
AcDbArc
 50
275.0
 51
344.1190000000001
  0
ARC
  5
AB2B
330
A7DA
100
AcDbEntity
  8
1
  6
Continuous
100
AcDbCircle
 10
274.103
 20
123.067604
 30
0.0
 40
9.5
100
AcDbArc
 50
62.7219
 51
89.24739999999998
  0
ARC
  5
AB2C
330
A7DA
100
AcDbEntity
  8
1
  6
Continuous
100
AcDbCircle
 10
274.103
 20
132.465604
 30
0.0
 40
9.5
100
AcDbArc
 50
270.7529999999998
 51
297.278
  0
ARC
  5
AB2D
330
A7DA
100
AcDbEntity
  8
1
  6
Continuous
100
AcDbCircle
 10
278.228
 20
131.066604
 30
0.0
 40
0.5
100
AcDbArc
 50
0.0
 51
62.7219
  0
ARC
  5
AB2E
330
A7DA
100
AcDbEntity
  8
1
  6
Continuous
100
AcDbCircle
 10
278.228
 20
124.466604
 30
0.0
 40
0.5
100
AcDbArc
 50
297.278
 51
0.0
  0
CIRCLE
  5
AB2F
330
A7DA
100
AcDbEntity
  8
1
  6
Continuous
100
AcDbCircle
 10
384.7169999999999
 20
202.766604
 30
0.0
 40
6.0
  0
CIRCLE
  5
AB30
330
A7DA
100
AcDbEntity
  8
1
  6
Continuous
100
AcDbCircle
 10
384.7169999999999
 20
202.766604
 30
0.0
 40
4.599999999999997
  0
ARC
  5
AB31
330
A7DA
100
AcDbEntity
  8
1
  6
Continuous
100
AcDbCircle
 10
384.7169999999999
 20
202.766604
 30
0.0
 40
2.45
100
AcDbArc
 50
350.129
 51
9.870889999999999
  0
ARC
  5
AB32
330
A7DA
100
AcDbEntity
  8
1
  6
Continuous
100
AcDbCircle
 10
384.7169999999999
 20
202.766604
 30
0.0
 40
2.45
100
AcDbArc
 50
80.12909999999996
 51
99.87090000000002
  0
ARC
  5
AB33
330
A7DA
100
AcDbEntity
  8
1
  6
Continuous
100
AcDbCircle
 10
384.7169999999999
 20
202.766604
 30
0.0
 40
2.45
100
AcDbArc
 50
170.129
 51
189.871
  0
ARC
  5
AB34
330
A7DA
100
AcDbEntity
  8
1
  6
Continuous
100
AcDbCircle
 10
384.7169999999999
 20
202.766604
 30
0.0
 40
2.45
100
AcDbArc
 50
260.129
 51
279.8709999999999
  0
CIRCLE
  5
AB35
330
A7DA
100
AcDbEntity
  8
1
  6
Continuous
100
AcDbCircle
 10
384.7169999999999
 20
202.766604
 30
0.0
 40
4.5
  0
ARC
  5
AB36
330
A7DA
100
AcDbEntity
  8
1
  6
Continuous
100
AcDbCircle
 10
355.7169999999999
 20
127.7666039999999
 30
0.0
 40
2.1
100
AcDbArc
 50
78.46299999999998
 51
101.537
  0
ARC
  5
AB37
330
A7DA
100
AcDbEntity
  8
1
  6
Continuous
100
AcDbCircle
 10
355.7169999999999
 20
127.7666039999999
 30
0.0
 40
2.1
100
AcDbArc
 50
168.463
 51
191.5369999999998
  0
ARC
  5
AB38
330
A7DA
100
AcDbEntity
  8
1
  6
Continuous
100
AcDbCircle
 10
355.7169999999999
 20
127.7666039999999
 30
0.0
 40
2.1
100
AcDbArc
 50
258.4629999999999
 51
281.5369999999999
  0
ARC
  5
AB39
330
A7DA
100
AcDbEntity
  8
1
  6
Continuous
100
AcDbCircle
 10
355.7169999999999
 20
127.7666039999999
 30
0.0
 40
2.1
100
AcDbArc
 50
348.463
 51
11.537
  0
CIRCLE
  5
AB3A
330
A7DA
100
AcDbEntity
  8
1
  6
Continuous
100
AcDbCircle
 10
355.7169999999999
 20
127.7666039999999
 30
0.0
 40
3.5
  0
ARC
  5
AB3B
330
A7DA
100
AcDbEntity
  8
1
  6
Continuous
100
AcDbCircle
 10
355.7169999999999
 20
126.7666039999999
 30
0.0
 40
4.800049999999997
100
AcDbArc
 50
180.0
 51
0.0
  0
ARC
  5
AB3C
330
A7DA
100
AcDbEntity
  8
1
  6
Continuous
100
AcDbCircle
 10
355.7169999999999
 20
128.7666039999998
 30
0.0
 40
4.800049999999997
100
AcDbArc
 50
0.0
 51
180.0
  0
ARC
  5
AB3D
330
A7DA
100
AcDbEntity
  8
1
  6
Continuous
100
AcDbCircle
 10
355.7169999999999
 20
126.771604
 30
0.0
 40
3.599139999999998
100
AcDbArc
 50
183.9699999999999
 51
356.0299999999998
  0
ARC
  5
AB3E
330
A7DA
100
AcDbEntity
  8
1
  6
Continuous
100
AcDbCircle
 10
355.7169999999999
 20
128.761604
 30
0.0
 40
3.599139999999998
100
AcDbArc
 50
3.97118
 51
176.029
  0
ARC
  5
AB3F
330
A7DA
100
AcDbEntity
  8
1
  6
Continuous
100
AcDbCircle
 10
384.7169999999999
 20
227.766604
 30
0.0
 40
2.1
100
AcDbArc
 50
348.463
 51
11.537
  0
ARC
  5
AB40
330
A7DA
100
AcDbEntity
  8
1
  6
Continuous
100
AcDbCircle
 10
384.7169999999999
 20
227.766604
 30
0.0
 40
2.1
100
AcDbArc
 50
78.46299999999998
 51
101.537
  0
ARC
  5
AB41
330
A7DA
100
AcDbEntity
  8
1
  6
Continuous
100
AcDbCircle
 10
384.7169999999999
 20
227.766604
 30
0.0
 40
2.1
100
AcDbArc
 50
168.463
 51
191.5369999999998
  0
ARC
  5
AB42
330
A7DA
100
AcDbEntity
  8
1
  6
Continuous
100
AcDbCircle
 10
384.7169999999999
 20
227.766604
 30
0.0
 40
2.1
100
AcDbArc
 50
258.4629999999999
 51
281.5369999999999
  0
CIRCLE
  5
AB43
330
A7DA
100
AcDbEntity
  8
1
  6
Continuous
100
AcDbCircle
 10
384.7169999999999
 20
227.766604
 30
0.0
 40
3.5
  0
ARC
  5
AB44
330
A7DA
100
AcDbEntity
  8
1
  6
Continuous
100
AcDbCircle
 10
383.717
 20
227.766604
 30
0.0
 40
4.800049999999997
100
AcDbArc
 50
90.0
 51
270.0
  0
ARC
  5
AB45
330
A7DA
100
AcDbEntity
  8
1
  6
Continuous
100
AcDbCircle
 10
385.7169999999999
 20
227.766604
 30
0.0
 40
4.800049999999997
100
AcDbArc
 50
270.0
 51
90.0
  0
ARC
  5
AB46
330
A7DA
100
AcDbEntity
  8
1
  6
Continuous
100
AcDbCircle
 10
383.7219999999998
 20
227.766604
 30
0.0
 40
3.599139999999998
100
AcDbArc
 50
93.97000000000003
 51
266.0299999999998
  0
ARC
  5
AB47
330
A7DA
100
AcDbEntity
  8
1
  6
Continuous
100
AcDbCircle
 10
385.712
 20
227.766604
 30
0.0
 40
3.599139999999998
100
AcDbArc
 50
273.971
 51
86.0288
  0
ARC
  5
AB48
330
A7DA
100
AcDbEntity
  8
1
  6
Continuous
100
AcDbCircle
 10
240.235
 20
196.816604
 30
0.0
 40
2.0
100
AcDbArc
 50
180.0
 51
239.9999999999999
  0
ARC
  5
AB49
330
A7DA
100
AcDbEntity
  8
1
  6
Continuous
100
AcDbCircle
 10
240.235
 20
208.716604
 30
0.0
 40
2.0
100
AcDbArc
 50
119.9999999999999
 51
180.0
  0
ARC
  5
AB4A
330
A7DA
100
AcDbEntity
  8
1
  6
Continuous
100
AcDbCircle
 10
113.6589999999999
 20
298.291604
 30
0.0
 40
1.0
100
AcDbArc
 50
90.00010000000001
 51
180.0
  0
ARC
  5
AB4B
330
A7DA
100
AcDbEntity
  8
1
  6
Continuous
100
AcDbCircle
 10
137.6589999999999
 20
298.291604
 30
0.0
 40
1.0
100
AcDbArc
 50
0.0
 51
90.00010000000001
  0
ARC
  5
AB4C
330
A7DA
100
AcDbEntity
  8
1
  6
Continuous
100
AcDbCircle
 10
159.159
 20
297.791604
 30
0.0
 40
1.0
100
AcDbArc
 50
90.00010000000001
 51
180.0
  0
ARC
  5
AB4D
330
A7DA
100
AcDbEntity
  8
1
  6
Continuous
100
AcDbCircle
 10
182.6589999999999
 20
297.791604
 30
0.0
 40
1.0
100
AcDbArc
 50
0.0
 51
90.00010000000001
  0
ARC
  5
AB4E
330
A7DA
100
AcDbEntity
  8
1
  6
Continuous
100
AcDbCircle
 10
113.6589999999999
 20
283.291604
 30
0.0
 40
0.5
100
AcDbArc
 50
180.0
 51
270.0
  0
ARC
  5
AB4F
330
A7DA
100
AcDbEntity
  8
1
  6
Continuous
100
AcDbCircle
 10
175.6589999999999
 20
294.291604
 30
0.0
 40
1.0
100
AcDbArc
 50
0.0
 51
90.00010000000001
  0
ARC
  5
AB50
330
A7DA
100
AcDbEntity
  8
1
  6
Continuous
100
AcDbCircle
 10
160.6589999999999
 20
294.291604
 30
0.0
 40
1.0
100
AcDbArc
 50
90.00010000000001
 51
180.0
  0
ARC
  5
AB51
330
A7DA
100
AcDbEntity
  8
1
  6
Continuous
100
AcDbCircle
 10
141.659
 20
292.291604
 30
0.0
 40
1.0
100
AcDbArc
 50
180.0
 51
270.0
  0
ARC
  5
AB52
330
A7DA
100
AcDbEntity
  8
1
  6
Continuous
100
AcDbCircle
 10
139.6589999999999
 20
294.291604
 30
0.0
 40
1.0
100
AcDbArc
 50
0.0
 51
90.00010000000001
  0
ARC
  5
AB53
330
A7DA
100
AcDbEntity
  8
1
  6
Continuous
100
AcDbCircle
 10
139.6589999999999
 20
296.2916039999999
 30
0.0
 40
1.0
100
AcDbArc
 50
180.0
 51
270.0
  0
ARC
  5
AB54
330
A7DA
100
AcDbEntity
  8
1
  6
Continuous
100
AcDbCircle
 10
114.6589999999999
 20
308.791604
 30
0.0
 40
0.5
100
AcDbArc
 50
90.00010000000001
 51
180.0
  0
ARC
  5
AB55
330
A7DA
100
AcDbEntity
  8
1
  6
Continuous
100
AcDbCircle
 10
136.6589999999999
 20
308.791604
 30
0.0
 40
0.5
100
AcDbArc
 50
0.0
 51
90.00010000000001
  0
ARC
  5
AB56
330
A7DA
100
AcDbEntity
  8
1
  6
Continuous
100
AcDbCircle
 10
117.659
 20
308.791604
 30
0.0
 40
0.5
100
AcDbArc
 50
0.0
 51
90.00010000000001
  0
ARC
  5
AB57
330
A7DA
100
AcDbEntity
  8
1
  6
Continuous
100
AcDbCircle
 10
133.6589999999999
 20
308.791604
 30
0.0
 40
0.5
100
AcDbArc
 50
90.00010000000001
 51
180.0
  0
ARC
  5
AB58
330
A7DA
100
AcDbEntity
  8
1
  6
Continuous
100
AcDbCircle
 10
125.6589999999999
 20
288.2916039999999
 30
0.0
 40
6.799999999999998
100
AcDbArc
 50
233.9679999999999
 51
252.917
  0
ARC
  5
AB59
330
A7DA
100
AcDbEntity
  8
5
  6
PHANTOM
100
AcDbCircle
 10
128.159
 20
258.291604
 30
0.0
 40
2.0
100
AcDbArc
 50
180.0
 51
270.0
  0
ARC
  5
AB5A
330
A7DA
100
AcDbEntity
  8
5
  6
PHANTOM
100
AcDbCircle
 10
128.6589999999999
 20
254.791604
 30
0.0
 40
1.5
100
AcDbArc
 50
0.0
 51
90.00010000000001
  0
ARC
  5
AB5B
330
A7DA
100
AcDbEntity
  8
5
  6
PHANTOM
100
AcDbCircle
 10
128.6589999999999
 20
244.291604
 30
0.0
 40
1.5
100
AcDbArc
 50
270.0
 51
0.0
  0
ARC
  5
AB5C
330
A7DA
100
AcDbEntity
  8
5
  6
PHANTOM
100
AcDbCircle
 10
121.6589999999999
 20
244.291604
 30
0.0
 40
1.5
100
AcDbArc
 50
180.0
 51
270.0
  0
ARC
  5
AB5D
330
A7DA
100
AcDbEntity
  8
1
  6
Continuous
100
AcDbCircle
 10
177.459
 20
316.731604
 30
0.0
 40
9.0
100
AcDbArc
 50
0.0
 51
28.0725
  0
ARC
  5
AB5E
330
A7DA
100
AcDbEntity
  8
1
  6
Continuous
100
AcDbCircle
 10
184.959
 20
320.731604
 30
0.0
 40
0.5
100
AcDbArc
 50
28.0725
 51
90.00010000000001
  0
ARC
  5
AB5F
330
A7DA
100
AcDbEntity
  8
1
  6
Continuous
100
AcDbCircle
 10
176.359
 20
320.731604
 30
0.0
 40
0.5
100
AcDbArc
 50
90.00010000000001
 51
151.928
  0
ARC
  5
AB60
330
A7DA
100
AcDbEntity
  8
1
  6
Continuous
100
AcDbCircle
 10
183.859
 20
316.731604
 30
0.0
 40
9.0
100
AcDbArc
 50
151.928
 51
180.0
  0
ARC
  5
AB61
330
A7DA
100
AcDbEntity
  8
1
  6
Continuous
100
AcDbCircle
 10
178.5519999999999
 20
323.2376039999999
 30
0.0
 40
1.3
100
AcDbArc
 50
105.881
 51
175.0
  0
ARC
  5
AB62
330
A7DA
100
AcDbEntity
  8
1
  6
Continuous
100
AcDbCircle
 10
180.6589999999999
 20
315.831604
 30
0.0
 40
9.0
100
AcDbArc
 50
74.11920000000002
 51
105.881
  0
ARC
  5
AB63
330
A7DA
100
AcDbEntity
  8
1
  6
Continuous
100
AcDbCircle
 10
182.7659999999999
 20
323.2376039999999
 30
0.0
 40
1.3
100
AcDbArc
 50
5.000059999999998
 51
74.11920000000002
  0
ARC
  5
AB64
330
A7DA
100
AcDbEntity
  8
1
  6
Continuous
100
AcDbCircle
 10
128.437
 20
337.5376039999999
 30
0.0
 40
1.6
100
AcDbArc
 50
5.000119999999999
 51
74.50610000000001
  0
ARC
  5
AB65
330
A7DA
100
AcDbEntity
  8
1
  6
Continuous
100
AcDbCircle
 10
125.6589999999999
 20
327.515604
 30
0.0
 40
12.0
100
AcDbArc
 50
74.50610000000001
 51
105.4939999999999
  0
ARC
  5
AB66
330
A7DA
100
AcDbEntity
  8
1
  6
Continuous
100
AcDbCircle
 10
122.8809999999999
 20
337.5376039999999
 30
0.0
 40
1.6
100
AcDbArc
 50
105.4939999999999
 51
175.0
  0
ARC
  5
AB67
330
A7DA
100
AcDbEntity
  8
1
  6
Continuous
100
AcDbCircle
 10
159.159
 20
294.291604
 30
0.0
 40
1.0
100
AcDbArc
 50
90.0
 51
180.0
  0
ARC
  5
AB68
330
A7DA
100
AcDbEntity
  8
1
  6
Continuous
100
AcDbCircle
 10
157.159
 20
292.291604
 30
0.0
 40
1.0
100
AcDbArc
 50
270.0
 51
0.0
  0
ARC
  5
AB69
330
A7DA
100
AcDbEntity
  8
1
  6
Continuous
100
AcDbCircle
 10
345.717
 20
131.266604
 30
0.0
 40
5.5
100
AcDbArc
 50
270.0
 51
335.38
  0
ARC
  5
AB6A
330
A7DA
100
AcDbEntity
  8
1
  6
Continuous
100
AcDbCircle
 10
329.7169999999999
 20
227.766604
 30
0.0
 40
2.1
100
AcDbArc
 50
348.463
 51
11.537
  0
ARC
  5
AB6B
330
A7DA
100
AcDbEntity
  8
1
  6
Continuous
100
AcDbCircle
 10
329.7169999999999
 20
227.766604
 30
0.0
 40
2.1
100
AcDbArc
 50
78.46299999999998
 51
101.537
  0
ARC
  5
AB6C
330
A7DA
100
AcDbEntity
  8
1
  6
Continuous
100
AcDbCircle
 10
329.7169999999999
 20
227.766604
 30
0.0
 40
2.1
100
AcDbArc
 50
168.463
 51
191.5369999999998
  0
ARC
  5
AB6D
330
A7DA
100
AcDbEntity
  8
1
  6
Continuous
100
AcDbCircle
 10
329.7169999999999
 20
227.766604
 30
0.0
 40
2.1
100
AcDbArc
 50
258.4629999999999
 51
281.5369999999999
  0
CIRCLE
  5
AB6E
330
A7DA
100
AcDbEntity
  8
1
  6
Continuous
100
AcDbCircle
 10
329.7169999999999
 20
227.766604
 30
0.0
 40
3.5
  0
ARC
  5
AB6F
330
A7DA
100
AcDbEntity
  8
1
  6
Continuous
100
AcDbCircle
 10
328.7169999999999
 20
227.766604
 30
0.0
 40
4.800049999999997
100
AcDbArc
 50
90.0
 51
270.0
  0
ARC
  5
AB70
330
A7DA
100
AcDbEntity
  8
1
  6
Continuous
100
AcDbCircle
 10
330.7169999999999
 20
227.766604
 30
0.0
 40
4.800049999999997
100
AcDbArc
 50
270.0
 51
90.0
  0
ARC
  5
AB71
330
A7DA
100
AcDbEntity
  8
1
  6
Continuous
100
AcDbCircle
 10
328.722
 20
227.766604
 30
0.0
 40
3.599139999999998
100
AcDbArc
 50
93.97000000000003
 51
266.0299999999998
  0
ARC
  5
AB72
330
A7DA
100
AcDbEntity
  8
1
  6
Continuous
100
AcDbCircle
 10
330.7119999999998
 20
227.766604
 30
0.0
 40
3.599139999999998
100
AcDbArc
 50
273.971
 51
86.0288
  0
ARC
  5
AB73
330
A7DA
100
AcDbEntity
  8
1
  6
Continuous
100
AcDbCircle
 10
379.217
 20
229.2666039999998
 30
0.0
 40
1.0
100
AcDbArc
 50
68.7851
 51
90.0
  0
ARC
  5
AB74
330
A7DA
100
AcDbEntity
  8
1
  6
Continuous
100
AcDbCircle
 10
384.7169999999999
 20
127.7666039999999
 30
0.0
 40
2.1
100
AcDbArc
 50
348.463
 51
11.537
  0
ARC
  5
AB75
330
A7DA
100
AcDbEntity
  8
1
  6
Continuous
100
AcDbCircle
 10
384.7169999999999
 20
127.7666039999999
 30
0.0
 40
2.1
100
AcDbArc
 50
78.46299999999998
 51
101.537
  0
ARC
  5
AB76
330
A7DA
100
AcDbEntity
  8
1
  6
Continuous
100
AcDbCircle
 10
384.7169999999999
 20
127.7666039999999
 30
0.0
 40
2.1
100
AcDbArc
 50
168.463
 51
191.5369999999998
  0
ARC
  5
AB77
330
A7DA
100
AcDbEntity
  8
1
  6
Continuous
100
AcDbCircle
 10
384.7169999999999
 20
127.7666039999999
 30
0.0
 40
2.1
100
AcDbArc
 50
258.4629999999999
 51
281.5369999999999
  0
CIRCLE
  5
AB78
330
A7DA
100
AcDbEntity
  8
1
  6
Continuous
100
AcDbCircle
 10
384.7169999999999
 20
127.7666039999999
 30
0.0
 40
3.5
  0
ARC
  5
AB79
330
A7DA
100
AcDbEntity
  8
1
  6
Continuous
100
AcDbCircle
 10
383.717
 20
127.7666039999999
 30
0.0
 40
4.800049999999997
100
AcDbArc
 50
90.0
 51
270.0
  0
ARC
  5
AB7A
330
A7DA
100
AcDbEntity
  8
1
  6
Continuous
100
AcDbCircle
 10
385.7169999999999
 20
127.7666039999999
 30
0.0
 40
4.800049999999997
100
AcDbArc
 50
270.0
 51
90.0
  0
ARC
  5
AB7B
330
A7DA
100
AcDbEntity
  8
1
  6
Continuous
100
AcDbCircle
 10
383.7219999999998
 20
127.7666039999999
 30
0.0
 40
3.599139999999998
100
AcDbArc
 50
93.9691
 51
266.0289999999998
  0
ARC
  5
AB7C
330
A7DA
100
AcDbEntity
  8
1
  6
Continuous
100
AcDbCircle
 10
385.712
 20
127.7666039999999
 30
0.0
 40
3.599139999999998
100
AcDbArc
 50
273.9719999999999
 51
86.0297
  0
CIRCLE
  5
AB7D
330
A7DA
100
AcDbEntity
  8
1
  6
Continuous
100
AcDbCircle
 10
329.7169999999999
 20
227.766604
 30
0.0
 40
3.799999999999998
  0
CIRCLE
  5
AB7E
330
A7DA
100
AcDbEntity
  8
1
  6
Continuous
100
AcDbCircle
 10
384.7169999999999
 20
227.766604
 30
0.0
 40
3.799999999999998
  0
CIRCLE
  5
AB7F
330
A7DA
100
AcDbEntity
  8
1
  6
Continuous
100
AcDbCircle
 10
384.7169999999999
 20
127.7666039999999
 30
0.0
 40
3.799999999999998
  0
CIRCLE
  5
AB80
330
A7DA
100
AcDbEntity
  8
1
  6
Continuous
100
AcDbCircle
 10
355.7169999999999
 20
127.7666039999999
 30
0.0
 40
3.799999999999998
  0
ARC
  5
AB81
330
A7DA
100
AcDbEntity
  8
1
  6
Continuous
100
AcDbCircle
 10
122.459
 20
38.800804
 30
0.0
 40
9.0
100
AcDbArc
 50
331.9269999999999
 51
0.0
  0
LINE
  5
AB82
330
A7DA
100
AcDbEntity
  8
1
  6
Continuous
100
AcDbLine
 10
119.859
 20
38.800804
 30
0.0
 11
131.459
 21
38.800804
 31
0.0
  0
ARC
  5
AB83
330
A7DA
100
AcDbEntity
  8
1
  6
Continuous
100
AcDbCircle
 10
127.766
 20
32.29470399999998
 30
0.0
 40
1.3
100
AcDbArc
 50
285.8809999999999
 51
355.0
  0
ARC
  5
AB84
330
A7DA
100
AcDbEntity
  8
1
  6
Continuous
100
AcDbCircle
 10
125.6589999999999
 20
39.700804
 30
0.0
 40
9.0
100
AcDbArc
 50
254.119
 51
285.8809999999999
  0
ARC
  5
AB85
330
A7DA
100
AcDbEntity
  8
1
  6
Continuous
100
AcDbCircle
 10
123.552
 20
32.29470399999998
 30
0.0
 40
1.3
100
AcDbArc
 50
185.0
 51
254.119
  0
ARC
  5
AB86
330
A7DA
100
AcDbEntity
  8
1
  6
Continuous
100
AcDbCircle
 10
128.859
 20
38.800804
 30
0.0
 40
9.0
100
AcDbArc
 50
180.0
 51
208.0719999999999
  0
ARC
  5
AB87
330
A7DA
100
AcDbEntity
  8
1
  6
Continuous
100
AcDbCircle
 10
121.3589999999999
 20
34.800804
 30
0.0
 40
0.5
100
AcDbArc
 50
208.0719999999999
 51
270.0
  0
ARC
  5
AB88
330
A7DA
100
AcDbEntity
  8
1
  6
Continuous
100
AcDbCircle
 10
129.959
 20
34.800804
 30
0.0
 40
0.5
100
AcDbArc
 50
270.0
 51
331.9269999999999
  0
LINE
  5
AB89
330
A7DA
100
AcDbEntity
  8
1
  6
Continuous
100
AcDbLine
 10
129.061
 20
32.181404
 30
0.0
 11
129.159
 21
33.30080399999999
 31
0.0
  0
LINE
  5
AB8A
330
A7DA
100
AcDbEntity
  8
1
  6
Continuous
100
AcDbLine
 10
122.257
 20
32.18130399999999
 30
0.0
 11
122.1589999999999
 21
33.30070399999998
 31
0.0
  0
LINE
  5
AB8B
330
A7DA
100
AcDbEntity
  8
1
  6
Continuous
100
AcDbLine
 10
121.859
 20
34.300804
 30
0.0
 11
121.859
 21
33.30080399999999
 31
0.0
  0
LINE
  5
AB8C
330
A7DA
100
AcDbEntity
  8
1
  6
Continuous
100
AcDbLine
 10
125.1749999999999
 20
34.30070399999999
 30
0.0
 11
125.4429999999999
 21
33.30070399999998
 31
0.0
  0
LINE
  5
AB8D
330
A7DA
100
AcDbEntity
  8
1
  6
Continuous
100
AcDbLine
 10
125.875
 20
34.30070399999999
 30
0.0
 11
126.1429999999998
 21
33.30070399999998
 31
0.0
  0
LINE
  5
AB8E
330
A7DA
100
AcDbEntity
  8
1
  6
Continuous
100
AcDbLine
 10
129.459
 20
33.30080399999999
 30
0.0
 11
121.859
 21
33.30080399999999
 31
0.0
  0
LINE
  5
AB8F
330
A7DA
100
AcDbEntity
  8
1
  6
Continuous
100
AcDbLine
 10
129.459
 20
34.300804
 30
0.0
 11
129.459
 21
33.30080399999999
 31
0.0
  0
LINE
  5
AB90
330
A7DA
100
AcDbEntity
  8
4
  6
CENTER
100
AcDbLine
 10
125.6589999999999
 20
41.950804
 30
0.0
 11
125.6589999999999
 21
27.370304
 31
0.0
  0
LINE
  5
AB91
330
A7DA
100
AcDbEntity
  8
1
  6
Continuous
100
AcDbLine
 10
121.3589999999999
 20
34.300804
 30
0.0
 11
129.959
 21
34.300804
 31
0.0
  0
ARC
  5
AB92
330
A7DA
100
AcDbEntity
  8
1
  6
Continuous
100
AcDbCircle
 10
122.459
 20
316.731604
 30
0.0
 40
9.0
100
AcDbArc
 50
0.0
 51
28.0725
  0
LINE
  5
AB93
330
A7DA
100
AcDbEntity
  8
1
  6
Continuous
100
AcDbLine
 10
119.859
 20
316.731604
 30
0.0
 11
131.459
 21
316.731604
 31
0.0
  0
ARC
  5
AB94
330
A7DA
100
AcDbEntity
  8
1
  6
Continuous
100
AcDbCircle
 10
128.859
 20
316.731604
 30
0.0
 40
9.0
100
AcDbArc
 50
151.928
 51
180.0
  0
LINE
  5
AB95
330
A7DA
100
AcDbEntity
  8
4
  6
CENTER
100
AcDbLine
 10
125.6589999999999
 20
313.581604
 30
0.0
 11
125.6589999999999
 21
328.1626039999999
 31
0.0
  0
ARC
  5
AB96
330
A7DA
100
AcDbEntity
  8
1
  6
Continuous
100
AcDbCircle
 10
127.766
 20
323.2376039999999
 30
0.0
 40
1.3
100
AcDbArc
 50
5.000059999999998
 51
74.11920000000002
  0
ARC
  5
AB97
330
A7DA
100
AcDbEntity
  8
1
  6
Continuous
100
AcDbCircle
 10
125.6589999999999
 20
315.831604
 30
0.0
 40
9.0
100
AcDbArc
 50
74.11920000000002
 51
105.881
  0
ARC
  5
AB98
330
A7DA
100
AcDbEntity
  8
1
  6
Continuous
100
AcDbCircle
 10
123.552
 20
323.2376039999999
 30
0.0
 40
1.3
100
AcDbArc
 50
105.881
 51
175.0
  0
ARC
  5
AB99
330
A7DA
100
AcDbEntity
  8
1
  6
Continuous
100
AcDbCircle
 10
121.3589999999999
 20
320.731604
 30
0.0
 40
0.5
100
AcDbArc
 50
90.00010000000001
 51
151.928
  0
ARC
  5
AB9A
330
A7DA
100
AcDbEntity
  8
1
  6
Continuous
100
AcDbCircle
 10
129.959
 20
320.731604
 30
0.0
 40
0.5
100
AcDbArc
 50
28.0725
 51
90.00010000000001
  0
LINE
  5
AB9B
330
A7DA
100
AcDbEntity
  8
1
  6
Continuous
100
AcDbLine
 10
129.061
 20
323.351604
 30
0.0
 11
129.159
 21
322.2316039999999
 31
0.0
  0
LINE
  5
AB9C
330
A7DA
100
AcDbEntity
  8
1
  6
Continuous
100
AcDbLine
 10
122.257
 20
323.351604
 30
0.0
 11
122.1589999999999
 21
322.2316039999999
 31
0.0
  0
LINE
  5
AB9D
330
A7DA
100
AcDbEntity
  8
1
  6
Continuous
100
AcDbLine
 10
121.859
 20
321.231604
 30
0.0
 11
121.859
 21
322.2316039999999
 31
0.0
  0
LINE
  5
AB9E
330
A7DA
100
AcDbEntity
  8
1
  6
Continuous
100
AcDbLine
 10
126.1429999999998
 20
321.231604
 30
0.0
 11
125.875
 21
322.2316039999999
 31
0.0
  0
LINE
  5
AB9F
330
A7DA
100
AcDbEntity
  8
1
  6
Continuous
100
AcDbLine
 10
125.4429999999999
 20
321.231604
 30
0.0
 11
125.1749999999999
 21
322.2316039999999
 31
0.0
  0
LINE
  5
ABA0
330
A7DA
100
AcDbEntity
  8
1
  6
Continuous
100
AcDbLine
 10
129.459
 20
322.2316039999999
 30
0.0
 11
121.859
 21
322.2316039999999
 31
0.0
  0
LINE
  5
ABA1
330
A7DA
100
AcDbEntity
  8
1
  6
Continuous
100
AcDbLine
 10
129.459
 20
321.231604
 30
0.0
 11
129.459
 21
322.2316039999999
 31
0.0
  0
LINE
  5
ABA2
330
A7DA
100
AcDbEntity
  8
1
  6
Continuous
100
AcDbLine
 10
121.3589999999999
 20
321.231604
 30
0.0
 11
129.959
 21
321.231604
 31
0.0
  0
LINE
  5
ABA3
330
A7DA
100
AcDbEntity
  8
1
  6
Continuous
100
AcDbLine
 10
347.717
 20
186.7666039999998
 30
0.0
 11
347.717
 21
160.277604
 31
0.0
  0
LINE
  5
ABA4
330
A7DA
100
AcDbEntity
  8
1
  6
Continuous
100
AcDbLine
 10
338.890789
 20
140.7110519999999
 30
0.0
 11
342.3690329999999
 21
140.7110519999999
 31
0.0
  0
LINE
  5
ABA5
330
A7DA
100
AcDbEntity
  8
1
  6
Continuous
100
AcDbLine
 10
342.285442
 20
140.1554949999998
 30
0.0
 11
340.7169999999999
 21
140.1554949999998
 31
0.0
  0
LINE
  5
ABA6
330
A7DA
100
AcDbEntity
  8
1
  6
Continuous
100
AcDbLine
 10
338.8886509999999
 20
139.5999389999998
 30
0.0
 11
342.5453489999999
 21
139.5999389999998
 31
0.0
  0
LINE
  5
ABA7
330
A7DA
100
AcDbEntity
  8
1
  6
Continuous
100
AcDbLine
 10
338.77839
 20
139.044382
 30
0.0
 11
342.65561
 21
139.044382
 31
0.0
  0
LINE
  5
ABA8
330
A7DA
100
AcDbEntity
  8
1
  6
Continuous
100
AcDbLine
 10
338.77839
 20
138.4888249999999
 30
0.0
 11
342.65561
 21
138.4888249999999
 31
0.0
  0
LINE
  5
ABA9
330
A7DA
100
AcDbEntity
  8
1
  6
Continuous
100
AcDbLine
 10
338.825283
 20
137.933269
 30
0.0
 11
342.608717
 21
137.933269
 31
0.0
  0
LINE
  5
ABAA
330
A7DA
100
AcDbEntity
  8
1
  6
Continuous
100
AcDbLine
 10
342.4447779999999
 20
137.3777119999998
 30
0.0
 11
341.383668
 21
137.3777119999998
 31
0.0
  0
ARC
  5
ABAB
330
A7DA
100
AcDbEntity
  8
1
  6
Continuous
100
AcDbCircle
 10
342.160437
 20
137.099934
 30
0.0
 40
0.277778
100
AcDbArc
 50
270.0
 51
344.742477
  0
ARC
  5
ABAC
330
A7DA
100
AcDbEntity
  8
1
  6
Continuous
100
AcDbCircle
 10
336.0503239999999
 20
138.766604
 30
0.0
 40
7.16668
100
AcDbArc
 50
324.4623219999998
 51
35.537678
  0
ARC
  5
ABAD
330
A7DA
100
AcDbEntity
  8
1
  6
Continuous
100
AcDbCircle
 10
345.3836749999999
 20
138.766604
 30
0.0
 40
7.16668
100
AcDbArc
 50
144.4623219999998
 51
215.5376779999999
  0
LINE
  5
ABAE
330
A7DA
100
AcDbEntity
  8
1
  6
Continuous
100
AcDbLine
 10
340.7169999999999
 20
138.4888249999999
 30
0.0
 11
340.7169999999999
 21
137.933269
 31
0.0
  0
LINE
  5
ABAF
330
A7DA
100
AcDbEntity
  8
1
  6
Continuous
100
AcDbLine
 10
339.2735629999999
 20
136.822156
 30
0.0
 11
342.160437
 21
136.822156
 31
0.0
  0
ARC
  5
ABB0
330
A7DA
100
AcDbEntity
  8
1
  6
Continuous
100
AcDbCircle
 10
339.2735629999999
 20
137.099934
 30
0.0
 40
0.277778
100
AcDbArc
 50
195.2575229999999
 51
270.0
  0
ARC
  5
ABB1
330
A7DA
100
AcDbEntity
  8
1
  6
Continuous
100
AcDbCircle
 10
345.3836749999999
 20
138.766604
 30
0.0
 40
6.611124
100
AcDbArc
 50
193.2681189999999
 51
195.2575229999999
  0
ARC
  5
ABB2
330
A7DA
100
AcDbEntity
  8
1
  6
Continuous
100
AcDbCircle
 10
345.3836749999999
 20
138.766604
 30
0.0
 40
6.611124
100
AcDbArc
 50
192.7289439999999
 51
193.2681189999999
  0
ARC
  5
ABB3
330
A7DA
100
AcDbEntity
  8
1
  6
Continuous
100
AcDbCircle
 10
338.9892209999998
 20
137.322157
 30
0.0
 40
0.055556
100
AcDbArc
 50
90.0
 51
192.7289439999999
  0
LINE
  5
ABB4
330
A7DA
100
AcDbEntity
  8
1
  6
Continuous
100
AcDbLine
 10
340.0503319999998
 20
137.3777119999998
 30
0.0
 11
338.9892209999998
 21
137.3777119999998
 31
0.0
  0
ARC
  5
ABB5
330
A7DA
100
AcDbEntity
  8
1
  6
Continuous
100
AcDbCircle
 10
341.7420009999998
 20
135.988821
 30
0.0
 40
0.277778
100
AcDbArc
 50
270.0
 51
333.985634
  0
ARC
  5
ABB6
330
A7DA
100
AcDbEntity
  8
1
  6
Continuous
100
AcDbCircle
 10
336.0503239999999
 20
138.766604
 30
0.0
 40
6.611124
100
AcDbArc
 50
333.985634
 51
334.7714879999998
  0
ARC
  5
ABB7
330
A7DA
100
AcDbEntity
  8
1
  6
Continuous
100
AcDbCircle
 10
336.0503239999999
 20
138.766604
 30
0.0
 40
6.611124
100
AcDbArc
 50
333.985634
 51
337.056046
  0
ARC
  5
ABB8
330
A7DA
100
AcDbEntity
  8
1
  6
Continuous
100
AcDbCircle
 10
342.0872589999999
 20
136.2110429999999
 30
0.0
 40
0.055556
100
AcDbArc
 50
337.056046
 51
90.0
  0
LINE
  5
ABB9
330
A7DA
100
AcDbEntity
  8
1
  6
Continuous
100
AcDbLine
 10
339.3467409999999
 20
136.2665989999999
 30
0.0
 11
342.0872589999999
 21
136.2665989999999
 31
0.0
  0
ARC
  5
ABBA
330
A7DA
100
AcDbEntity
  8
1
  6
Continuous
100
AcDbCircle
 10
339.3467409999999
 20
136.2110429999999
 30
0.0
 40
0.055556
100
AcDbArc
 50
90.0
 51
202.9439539999999
  0
ARC
  5
ABBB
330
A7DA
100
AcDbEntity
  8
1
  6
Continuous
100
AcDbCircle
 10
345.3836749999999
 20
138.766604
 30
0.0
 40
6.611124
100
AcDbArc
 50
202.9439539999999
 51
206.014366
  0
ARC
  5
ABBC
330
A7DA
100
AcDbEntity
  8
1
  6
Continuous
100
AcDbCircle
 10
339.691999
 20
135.988821
 30
0.0
 40
0.277778
100
AcDbArc
 50
206.014366
 51
270.0
  0
LINE
  5
ABBD
330
A7DA
100
AcDbEntity
  8
1
  6
Continuous
100
AcDbLine
 10
341.7420009999998
 20
135.7110419999999
 30
0.0
 11
339.691999
 21
135.7110419999999
 31
0.0
  0
LINE
  5
ABBE
330
A7DA
100
AcDbEntity
  8
1
  6
Continuous
100
AcDbLine
 10
339.1932689999998
 20
135.155486
 30
0.0
 11
341.5880839999999
 21
135.155486
 31
0.0
  0
ARC
  5
ABBF
330
A7DA
100
AcDbEntity
  8
1
  6
Continuous
100
AcDbCircle
 10
340.7169999999999
 20
135.4332639999997
 30
0.0
 40
1.431785999999998
100
AcDbArc
 50
270.0
 51
324.4623219999998
  0
ARC
  5
ABC0
330
A7DA
100
AcDbEntity
  8
1
  6
Continuous
100
AcDbCircle
 10
340.7169999999999
 20
135.4332639999997
 30
0.0
 40
1.431785999999998
100
AcDbArc
 50
215.5376779999999
 51
256.537439
  0
LINE
  5
ABC1
330
A7DA
100
AcDbEntity
  8
1
  6
Continuous
100
AcDbLine
 10
340.7169999999999
 20
143.531729
 30
0.0
 11
340.7169999999999
 21
142.383601
 31
0.0
  0
LINE
  5
ABC2
330
A7DA
100
AcDbEntity
  8
1
  6
Continuous
100
AcDbLine
 10
341.7566219999998
 20
142.1050349999999
 30
0.0
 11
339.414423
 21
142.732625
 31
0.0
  0
LINE
  5
ABC3
330
A7DA
100
AcDbEntity
  8
1
  6
Continuous
100
AcDbLine
 10
340.7169999999999
 20
141.544387
 30
0.0
 11
342.0495639999999
 21
141.544387
 31
0.0
  0
LINE
  5
ABC4
330
A7DA
100
AcDbEntity
  8
1
  6
Continuous
100
AcDbLine
 10
340.4392219999999
 20
141.8221649999999
 30
0.0
 11
339.2523839999999
 21
141.8221649999999
 31
0.0
  0
ARC
  5
ABC5
330
A7DA
100
AcDbEntity
  8
1
  6
Continuous
100
AcDbCircle
 10
340.4392219999999
 20
141.544387
 30
0.0
 40
0.277778
100
AcDbArc
 50
270.0
 51
90.0
  0
LINE
  5
ABC6
330
A7DA
100
AcDbEntity
  8
1
  6
Continuous
100
AcDbLine
 10
339.1525189999999
 20
141.2666079999999
 30
0.0
 11
340.4392219999999
 21
141.2666079999999
 31
0.0
  0
LINE
  5
ABC7
330
A7DA
100
AcDbEntity
  8
1
  6
Continuous
100
AcDbLine
 10
340.7169999999999
 20
140.1554949999998
 30
0.0
 11
340.7169999999999
 21
139.877717
 31
0.0
  0
ARC
  5
ABC8
330
A7DA
100
AcDbEntity
  8
1
  6
Continuous
100
AcDbCircle
 10
338.8886509999999
 20
139.655494
 30
0.0
 40
0.055556
100
AcDbArc
 50
172.207076
 51
270.0
  0
ARC
  5
ABC9
330
A7DA
100
AcDbEntity
  8
1
  6
Continuous
100
AcDbCircle
 10
345.3836749999999
 20
138.766604
 30
0.0
 40
6.611124
100
AcDbArc
 50
169.895817
 51
172.207076
  0
ARC
  5
ABCA
330
A7DA
100
AcDbEntity
  8
1
  6
Continuous
100
AcDbCircle
 10
339.1485579999999
 20
139.877717
 30
0.0
 40
0.277778
100
AcDbArc
 50
90.0
 51
169.895817
  0
LINE
  5
ABCB
330
A7DA
100
AcDbEntity
  8
1
  6
Continuous
100
AcDbLine
 10
340.0503319999998
 20
140.1554949999998
 30
0.0
 11
339.1485579999999
 21
140.1554949999998
 31
0.0
  0
ARC
  5
ABCC
330
A7DA
100
AcDbEntity
  8
1
  6
Continuous
100
AcDbCircle
 10
340.7169999999999
 20
142.0999429999999
 30
0.0
 40
1.431785999999998
100
AcDbArc
 50
35.537678
 51
45.69883899999999
  0
ARC
  5
ABCD
330
A7DA
100
AcDbEntity
  8
1
  6
Continuous
100
AcDbCircle
 10
340.7169999999999
 20
142.0999429999999
 30
0.0
 40
1.431785999999998
100
AcDbArc
 50
62.24965499999999
 51
144.4623219999998
  0
ARC
  5
ABCE
330
A7DA
100
AcDbEntity
  8
1
  6
Continuous
100
AcDbCircle
 10
342.4447779999999
 20
137.322157
 30
0.0
 40
0.055556
100
AcDbArc
 50
347.2710559999999
 51
90.0
  0
ARC
  5
ABCF
330
A7DA
100
AcDbEntity
  8
1
  6
Continuous
100
AcDbCircle
 10
336.0503239999999
 20
138.766604
 30
0.0
 40
6.611124
100
AcDbArc
 50
344.7937120000001
 51
347.2710559999999
  0
ARC
  5
ABD0
330
A7DA
100
AcDbEntity
  8
1
  6
Continuous
100
AcDbCircle
 10
336.0503239999999
 20
138.766604
 30
0.0
 40
6.611124
100
AcDbArc
 50
344.742477
 51
344.7937120000001
  0
ARC
  5
ABD1
330
A7DA
100
AcDbEntity
  8
1
  6
Continuous
100
AcDbCircle
 10
342.285442
 20
139.877717
 30
0.0
 40
0.277778
100
AcDbArc
 50
10.104183
 51
90.0
  0
ARC
  5
ABD2
330
A7DA
100
AcDbEntity
  8
1
  6
Continuous
100
AcDbCircle
 10
336.0503239999999
 20
138.766604
 30
0.0
 40
6.611124
100
AcDbArc
 50
7.792924000000001
 51
10.104183
  0
ARC
  5
ABD3
330
A7DA
100
AcDbEntity
  8
1
  6
Continuous
100
AcDbCircle
 10
342.5453489999999
 20
139.655494
 30
0.0
 40
0.055556
100
AcDbArc
 50
270.0
 51
7.792924000000001
  0
ARC
  5
ABD4
330
A7DA
100
AcDbEntity
  8
1
  6
Continuous
100
AcDbCircle
 10
340.3880819999999
 20
148.0919309999999
 30
0.0
 40
1.026092
100
AcDbArc
 50
131.0679
 51
228.932
  0
ARC
  5
ABD5
330
A7DA
100
AcDbEntity
  8
1
  6
Continuous
100
AcDbCircle
 10
340.919392
 20
148.0919309999999
 30
0.0
 40
1.026092
100
AcDbArc
 50
311.0679999999999
 51
48.932
  0
ARC
  5
ABD6
330
A7DA
100
AcDbEntity
  8
1
  6
Continuous
100
AcDbCircle
 10
340.6536699999999
 20
147.7870809999998
 30
0.0
 40
1.430489999999997
100
AcDbArc
 50
48.932
 51
131.0679
  0
ARC
  5
ABD7
330
A7DA
100
AcDbEntity
  8
1
  6
Continuous
100
AcDbCircle
 10
340.6536699999999
 20
148.396781
 30
0.0
 40
1.430489999999997
100
AcDbArc
 50
228.932
 51
311.0679999999999
  0
LINE
  5
ABD8
330
A7DA
100
AcDbEntity
  8
1
  6
Continuous
100
AcDbLine
 10
339.392462
 20
144.337251
 30
0.0
 11
339.392462
 21
146.521987
 31
0.0
  0
LINE
  5
ABD9
330
A7DA
100
AcDbEntity
  8
1
  6
Continuous
100
AcDbLine
 10
339.392462
 20
145.4247949999999
 30
0.0
 11
342.0724619999999
 21
145.4247949999999
 31
0.0
  0
LINE
  5
ABDA
330
A7DA
100
AcDbEntity
  8
1
  6
Continuous
100
AcDbLine
 10
340.751892
 20
169.3358889999998
 30
0.0
 11
340.751892
 21
171.0149089999999
 31
0.0
  0
ARC
  5
ABDB
330
A7DA
100
AcDbEntity
  8
1
  6
Continuous
100
AcDbCircle
 10
341.0146659999999
 20
157.6760129999998
 30
0.0
 40
0.9647999999999999
100
AcDbArc
 50
359.5819999999998
 51
101.6540999999999
  0
ARC
  5
ABDC
330
A7DA
100
AcDbEntity
  8
1
  6
Continuous
100
AcDbCircle
 10
340.9538299999999
 20
157.668911
 30
0.0
 40
1.026092
100
AcDbArc
 50
311.0679999999999
 51
6.590999999999998
  0
ARC
  5
ABDD
330
A7DA
100
AcDbEntity
  8
1
  6
Continuous
100
AcDbCircle
 10
340.688108
 20
157.973895
 30
0.0
 40
1.430489999999997
100
AcDbArc
 50
228.932
 51
311.0679999999999
  0
ARC
  5
ABDE
330
A7DA
100
AcDbEntity
  8
1
  6
Continuous
100
AcDbCircle
 10
340.42252
 20
157.668911
 30
0.0
 40
1.026092
100
AcDbArc
 50
160.8071999999999
 51
228.932
  0
ARC
  5
ABDF
330
A7DA
100
AcDbEntity
  8
1
  6
Continuous
100
AcDbCircle
 10
340.102796
 20
157.7802649999999
 30
0.0
 40
0.687613
100
AcDbArc
 50
95.65924
 51
160.8071999999999
  0
ARC
  5
ABE0
330
A7DA
100
AcDbEntity
  8
1
  6
Continuous
100
AcDbCircle
 10
341.224912
 20
151.015409
 30
0.0
 40
0.687613
100
AcDbArc
 50
19.19299999999999
 51
84.34099999999999
  0
ARC
  5
ABE1
330
A7DA
100
AcDbEntity
  8
1
  6
Continuous
100
AcDbCircle
 10
340.0541539999999
 20
151.015409
 30
0.0
 40
0.687613
100
AcDbArc
 50
95.65924
 51
160.8071999999999
  0
ARC
  5
ABE2
330
A7DA
100
AcDbEntity
  8
1
  6
Continuous
100
AcDbCircle
 10
340.3738779999998
 20
150.9040549999998
 30
0.0
 40
1.026092
100
AcDbArc
 50
160.8071999999999
 51
228.932
  0
ARC
  5
ABE3
330
A7DA
100
AcDbEntity
  8
1
  6
Continuous
100
AcDbCircle
 10
340.905188
 20
150.9040549999998
 30
0.0
 40
1.026092
100
AcDbArc
 50
311.0679999999999
 51
19.19299999999999
  0
ARC
  5
ABE4
330
A7DA
100
AcDbEntity
  8
1
  6
Continuous
100
AcDbCircle
 10
340.6394660000001
 20
151.2089049999999
 30
0.0
 40
1.430489999999997
100
AcDbArc
 50
228.932
 51
311.0679999999999
  0
LINE
  5
ABE5
330
A7DA
100
AcDbEntity
  8
1
  6
Continuous
100
AcDbLine
 10
340.824788
 20
161.271769
 30
0.0
 11
339.256318
 21
160.369011
 31
0.0
  0
LINE
  5
ABE6
330
A7DA
100
AcDbEntity
  8
1
  6
Continuous
100
AcDbLine
 10
340.829612
 20
161.271769
 30
0.0
 11
339.2545759999998
 21
162.181093
 31
0.0
  0
LINE
  5
ABE7
330
A7DA
100
AcDbEntity
  8
1
  6
Continuous
100
AcDbLine
 10
339.2758819999999
 20
159.3976449999999
 30
0.0
 11
342.0918919999999
 21
159.3976449999999
 31
0.0
  0
LINE
  5
ABE8
330
A7DA
100
AcDbEntity
  8
1
  6
Continuous
100
AcDbLine
 10
341.2192839999999
 20
158.620847
 30
0.0
 11
342.0724619999999
 21
158.620847
 31
0.0
  0
LINE
  5
ABE9
330
A7DA
100
AcDbEntity
  8
1
  6
Continuous
100
AcDbLine
 10
340.829612
 20
161.271769
 30
0.0
 11
342.0918919999999
 21
161.271769
 31
0.0
  0
LINE
  5
ABEA
330
A7DA
100
AcDbEntity
  8
1
  6
Continuous
100
AcDbLine
 10
339.343954
 20
163.7720749999998
 30
0.0
 11
342.082244
 21
162.7089189999999
 31
0.0
  0
LINE
  5
ABEB
330
A7DA
100
AcDbEntity
  8
1
  6
Continuous
100
AcDbLine
 10
339.2758819999999
 20
155.484577
 30
0.0
 11
342.0918919999999
 21
155.484577
 31
0.0
  0
LINE
  5
ABEC
330
A7DA
100
AcDbEntity
  8
1
  6
Continuous
100
AcDbLine
 10
339.2758819999999
 20
154.5425569999999
 30
0.0
 11
342.0918919999999
 21
154.5425569999999
 31
0.0
  0
LINE
  5
ABED
330
A7DA
100
AcDbEntity
  8
1
  6
Continuous
100
AcDbLine
 10
340.8198299999999
 20
157.6790949999999
 30
0.0
 11
340.8198299999999
 21
158.620847
 31
0.0
  0
LINE
  5
ABEE
330
A7DA
100
AcDbEntity
  8
1
  6
Continuous
100
AcDbLine
 10
339.2758819999999
 20
152.804577
 30
0.0
 11
342.0918919999999
 21
152.804577
 31
0.0
  0
LINE
  5
ABEF
330
A7DA
100
AcDbEntity
  8
1
  6
Continuous
100
AcDbLine
 10
340.683954
 20
152.804577
 30
0.0
 11
340.683954
 21
154.5425569999999
 31
0.0
  0
LINE
  5
ABF0
330
A7DA
100
AcDbEntity
  8
1
  6
Continuous
100
AcDbLine
 10
339.3391299999998
 20
163.7720749999998
 30
0.0
 11
342.082244
 21
164.7868569999999
 31
0.0
  0
LINE
  5
ABF1
330
A7DA
100
AcDbEntity
  8
1
  6
Continuous
100
AcDbLine
 10
341.276234
 20
163.029313
 30
0.0
 11
341.276234
 21
164.4905829999999
 31
0.0
  0
LINE
  5
ABF2
330
A7DA
100
AcDbEntity
  8
1
  6
Continuous
100
AcDbLine
 10
339.391792
 20
169.3358889999998
 30
0.0
 11
342.071792
 21
169.3358889999998
 31
0.0
  0
LINE
  5
ABF3
330
A7DA
100
AcDbEntity
  8
1
  6
Continuous
100
AcDbLine
 10
339.4118919999999
 20
167.4953989999998
 30
0.0
 11
342.0918919999999
 21
167.4953989999998
 31
0.0
  0
LINE
  5
ABF4
330
A7DA
100
AcDbEntity
  8
1
  6
Continuous
100
AcDbLine
 10
339.4118919999999
 20
166.4448389999998
 30
0.0
 11
339.4118919999999
 21
168.555339
 31
0.0
  0
ARC
  5
ABF5
330
A7DA
100
AcDbEntity
  8
1
  6
Continuous
100
AcDbCircle
 10
341.230808
 20
182.3368449999999
 30
0.0
 40
0.776182
100
AcDbArc
 50
314.0719999999999
 51
45.92699999999999
  0
ARC
  5
ABF6
330
A7DA
100
AcDbEntity
  8
1
  6
Continuous
100
AcDbCircle
 10
341.1868559999998
 20
182.2915529999999
 30
0.0
 40
0.8392929999999998
100
AcDbArc
 50
45.92699999999999
 51
90.0
  0
ARC
  5
ABF7
330
A7DA
100
AcDbEntity
  8
1
  6
Continuous
100
AcDbCircle
 10
341.1868559999998
 20
182.382137
 30
0.0
 40
0.8392929999999998
100
AcDbArc
 50
270.0
 51
314.0719999999999
  0
ARC
  5
ABF8
330
A7DA
100
AcDbEntity
  8
1
  6
Continuous
100
AcDbCircle
 10
340.1033319999999
 20
182.3368449999999
 30
0.0
 40
0.776182
100
AcDbArc
 50
134.0724999999999
 51
225.9279999999999
  0
ARC
  5
ABF9
330
A7DA
100
AcDbEntity
  8
1
  6
Continuous
100
AcDbCircle
 10
340.147284
 20
182.2915529999999
 30
0.0
 40
0.8392929999999998
100
AcDbArc
 50
90.0
 51
134.0724999999999
  0
ARC
  5
ABFA
330
A7DA
100
AcDbEntity
  8
1
  6
Continuous
100
AcDbCircle
 10
340.147284
 20
182.382137
 30
0.0
 40
0.8392929999999998
100
AcDbArc
 50
225.9279999999999
 51
270.0
  0
LINE
  5
ABFB
330
A7DA
100
AcDbEntity
  8
1
  6
Continuous
100
AcDbLine
 10
340.147284
 20
183.130795
 30
0.0
 11
341.1868559999998
 21
183.130795
 31
0.0
  0
LINE
  5
ABFC
330
A7DA
100
AcDbEntity
  8
1
  6
Continuous
100
AcDbLine
 10
340.147284
 20
181.5428949999999
 30
0.0
 11
341.1868559999998
 21
181.5428949999999
 31
0.0
  0
LINE
  5
ABFD
330
A7DA
100
AcDbEntity
  8
1
  6
Continuous
100
AcDbLine
 10
339.364188
 20
178.082074
 30
0.0
 11
341.429798
 21
176.6099499999999
 31
0.0
  0
LINE
  5
ABFE
330
A7DA
100
AcDbEntity
  8
1
  6
Continuous
100
AcDbLine
 10
339.364188
 20
178.082074
 30
0.0
 11
342.0441879999998
 21
178.082074
 31
0.0
  0
LINE
  5
ABFF
330
A7DA
100
AcDbEntity
  8
1
  6
Continuous
100
AcDbLine
 10
341.429798
 20
176.6099499999999
 30
0.0
 11
341.429798
 21
178.3532899999999
 31
0.0
  0
LINE
  5
AC00
330
A7DA
100
AcDbEntity
  8
1
  6
Continuous
100
AcDbLine
 10
339.41417
 20
172.8553989999998
 30
0.0
 11
342.0894799999999
 21
171.816497
 31
0.0
  0
LINE
  5
AC01
330
A7DA
100
AcDbEntity
  8
1
  6
Continuous
100
AcDbLine
 10
339.391792
 20
171.0149089999999
 30
0.0
 11
342.071792
 21
171.0149089999999
 31
0.0
  0
LINE
  5
AC02
330
A7DA
100
AcDbEntity
  8
1
  6
Continuous
100
AcDbLine
 10
339.4094799999999
 20
172.8553989999998
 30
0.0
 11
342.0894799999999
 21
173.846731
 31
0.0
  0
LINE
  5
AC03
330
A7DA
100
AcDbEntity
  8
1
  6
Continuous
100
AcDbLine
 10
341.280924
 20
172.137829
 30
0.0
 11
341.280924
 21
173.5495189999998
 31
0.0
  0
LINE
  5
AC04
330
A7DA
100
AcDbEntity
  8
1
  6
Continuous
100
AcDbLine
 10
340.751892
 20
175.115577
 30
0.0
 11
340.751892
 21
175.955221
 31
0.0
  0
LINE
  5
AC05
330
A7DA
100
AcDbEntity
  8
1
  6
Continuous
100
AcDbLine
 10
125.570605
 20
162.92841
 30
0.0
 11
130.926954
 21
165.8072029999999
 31
0.0
  0
LINE
  5
AC06
330
A7DA
100
AcDbEntity
  8
1
  6
Continuous
100
AcDbLine
 10
125.570605
 20
162.92841
 30
0.0
 11
131.2740629999999
 21
160.819266
 31
0.0
  0
LINE
  5
AC07
330
A7DA
100
AcDbEntity
  8
1
  6
Continuous
100
AcDbLine
 10
131.2740629999999
 20
160.819266
 30
0.0
 11
131.170143
 21
162.312586
 31
0.0
  0
LINE
  5
AC08
330
A7DA
100
AcDbEntity
  8
1
  6
Continuous
100
AcDbLine
 10
131.0309659999997
 20
164.312552
 30
0.0
 11
130.926954
 21
165.8072029999999
 31
0.0
  0
ARC
  5
AC09
330
A7DA
100
AcDbEntity
  8
1
  6
Continuous
100
AcDbCircle
 10
125.570605
 20
202.92841
 30
0.0
 40
39.0
100
AcDbArc
 50
278.048382
 51
321.9516179999998
  0
ARC
  5
AC0A
330
A7DA
100
AcDbEntity
  8
1
  6
Continuous
100
AcDbCircle
 10
125.570605
 20
202.92841
 30
0.0
 40
41.0
100
AcDbArc
 50
277.8496529999998
 51
322.150347
  0
LINE
  5
AC0B
330
A7DA
100
AcDbEntity
  8
1
  6
Continuous
100
AcDbLine
 10
160.211621
 20
182.92841
 30
0.0
 11
159.186464
 21
176.9344979999999
 31
0.0
  0
LINE
  5
AC0C
330
A7DA
100
AcDbEntity
  8
1
  6
Continuous
100
AcDbLine
 10
160.211621
 20
182.92841
 30
0.0
 11
155.0403389999999
 21
179.729072
 31
0.0
  0
LINE
  5
AC0D
330
A7DA
100
AcDbEntity
  8
1
  6
Continuous
100
AcDbLine
 10
159.186464
 20
176.9344979999999
 30
0.0
 11
157.9451709999998
 21
177.771155
 31
0.0
  0
LINE
  5
AC0E
330
A7DA
100
AcDbEntity
  8
1
  6
Continuous
100
AcDbLine
 10
156.2827379999999
 20
178.891669
 30
0.0
 11
155.0403389999999
 21
179.729072
 31
0.0
  0
LINE
  5
AC0F
330
A7DA
100
AcDbEntity
  8
1
  6
Continuous
100
AcDbLine
 10
339.2336049999999
 20
179.3775179999999
 30
0.0
 11
340.7406049999999
 21
179.3775179999999
 31
0.0
  0
LWPOLYLINE
  5
AC10
330
A7DA
100
AcDbEntity
  8
1
  6
Continuous
100
AcDbPolyline
 90
       10
 70
     0
 43
0.0
 10
341.1696049999998
 20
180.873518
 10
341.3223949999999
 20
180.862133
 10
341.4705649999999
 20
180.828418
 10
341.609605
 20
180.773308
 10
341.735225
 20
180.698508
 10
341.8437399999999
 20
180.606328
 10
341.931685
 20
180.4995179999998
 10
341.99653
 20
180.381378
 10
342.0362399999999
 20
180.255428
 10
342.049605
 20
180.125518
  0
LWPOLYLINE
  5
AC1C
330
A7DA
100
AcDbEntity
  8
1
  6
Continuous
100
AcDbPolyline
 90
       10
 70
     0
 43
0.0
 10
340.2786049999999
 20
180.102528
 10
340.2921349999999
 20
180.236398
 10
340.33234
 20
180.366198
 10
340.3979549999998
 20
180.488023
 10
340.487055
 20
180.5981329999999
 10
340.5968899999999
 20
180.693118
 10
340.724105
 20
180.7702279999998
 10
340.8648499999998
 20
180.827043
 10
341.0148899999999
 20
180.861803
 10
341.1696049999998
 20
180.873518
  0
LWPOLYLINE
  5
AC28
330
A7DA
100
AcDbEntity
  8
1
  6
Continuous
100
AcDbPolyline
 90
       10
 70
     0
 43
0.0
 10
342.049605
 20
180.125518
 10
342.03877
 20
179.997533
 10
342.006485
 20
179.873453
 10
341.953795
 20
179.7570179999999
 10
341.8823499999998
 20
179.651803
 10
341.794185
 20
179.5609429999999
 10
341.6921049999999
 20
179.487243
 10
341.579135
 20
179.432958
 10
341.458795
 20
179.3997379999999
 10
341.3346049999999
 20
179.388518
  0
LWPOLYLINE
  5
AC34
330
A7DA
100
AcDbEntity
  8
1
  6
Continuous
100
AcDbPolyline
 90
       10
 70
     0
 43
0.0
 10
340.7406049999999
 20
179.388518
 10
340.660415
 20
179.3993529999999
 10
340.5825899999999
 20
179.4316379999999
 10
340.5096049999999
 20
179.484328
 10
340.44366
 20
179.5557729999999
 10
340.3866799999998
 20
179.6439379999999
 10
340.3404799999999
 20
179.7460179999999
 10
340.3064899999999
 20
179.858933
 10
340.2856449999999
 20
179.979328
 10
340.2786049999999
 20
180.1035179999999
  0
LINE
  5
AC40
330
A7DA
100
AcDbEntity
  8
1
  6
Continuous
100
AcDbLine
 10
339.2336049999999
 20
179.3665179999999
 30
0.0
 11
339.2336049999999
 21
180.829518
 31
0.0
  0
LWPOLYLINE
  5
AC41
330
A7DA
100
AcDbEntity
  8
1
  6
Continuous
100
AcDbPolyline
 90
       10
 70
     0
 43
0.0
 10
126.594361
 20
159.1085789999999
 10
126.3407399999999
 20
159.0807439999998
 10
126.0947669999999
 20
158.998064
 10
125.864021
 20
158.86302
 10
125.65546
 20
158.6798139999999
 10
125.4754249999999
 20
158.45396
 10
125.329357
 20
158.1922089999999
 10
125.221804
 20
157.902691
 10
125.1558659999999
 20
157.594088
 10
125.1215219999999
 20
157.1014319999999
  0
LWPOLYLINE
  5
AC4D
330
A7DA
100
AcDbEntity
  8
1
  6
Continuous
100
AcDbPolyline
 90
       10
 70
     0
 43
0.0
 10
127.8483409999999
 20
158.1990989999999
 10
127.829049
 20
158.3570179999999
 10
127.771862
 20
158.510183
 10
127.6785019999999
 20
158.6538389999998
 10
127.5517259999999
 20
158.783716
 10
127.395461
 20
158.8958159999999
 10
127.214461
 20
158.986695
 10
127.014168
 20
159.0537349999999
 10
126.800716
 20
159.09473
 10
126.580581
 20
159.1085789999999
  0
LINE
  5
AC59
330
A7DA
100
AcDbEntity
  8
1
  6
Continuous
100
AcDbLine
 10
141.549642
 20
159.101432
 30
0.0
 11
143.805351
 21
159.101432
 31
0.0
  0
LINE
  5
AC5A
330
A7DA
100
AcDbEntity
  8
1
  6
Continuous
100
AcDbLine
 10
129.69881
 20
155.1014319999999
 30
0.0
 11
132.261753
 21
155.1014319999999
 31
0.0
  0
LINE
  5
AC5B
330
A7DA
100
AcDbEntity
  8
1
  6
Continuous
100
AcDbLine
 10
141.549642
 20
157.1014319999999
 30
0.0
 11
143.1901579999999
 21
157.1014319999999
 31
0.0
  0
LWPOLYLINE
  5
AC5C
330
A7DA
100
AcDbEntity
  8
1
  6
Continuous
100
AcDbPolyline
 90
       10
 70
     0
 43
0.0
 10
126.594361
 20
155.094286
 10
126.3407399999999
 20
155.122121
 10
126.0947669999999
 20
155.204801
 10
125.864021
 20
155.3398449999999
 10
125.65546
 20
155.523051
 10
125.4754249999999
 20
155.748905
 10
125.329357
 20
156.010656
 10
125.221804
 20
156.3001739999999
 10
125.1558659999999
 20
156.608777
 10
125.1215219999999
 20
157.1014319999999
  0
LWPOLYLINE
  5
AC68
330
A7DA
100
AcDbEntity
  8
1
  6
Continuous
100
AcDbPolyline
 90
       10
 70
     0
 43
0.0
 10
127.8483409999999
 20
156.0037659999998
 10
127.829049
 20
155.8458469999998
 10
127.771862
 20
155.6926819999999
 10
127.6785019999999
 20
155.549026
 10
127.5517259999999
 20
155.419149
 10
127.395461
 20
155.307049
 10
127.214461
 20
155.21617
 10
127.014168
 20
155.14913
 10
126.800716
 20
155.108135
 10
126.580581
 20
155.094286
  0
LINE
  5
AC74
330
A7DA
100
AcDbEntity
  8
1
  6
Continuous
100
AcDbLine
 10
129.69881
 20
159.101432
 30
0.0
 11
129.69881
 21
155.1014319999999
 31
0.0
  0
LINE
  5
AC75
330
A7DA
100
AcDbEntity
  8
1
  6
Continuous
100
AcDbLine
 10
141.549642
 20
155.1014319999999
 30
0.0
 11
143.805351
 21
155.1014319999999
 31
0.0
  0
LWPOLYLINE
  5
AC76
330
A7DA
100
AcDbEntity
  8
1
  6
Continuous
100
AcDbPolyline
 90
       10
 70
     0
 43
0.0
 10
134.3204899999998
 20
155.094286
 10
134.0668689999999
 20
155.122121
 10
133.820896
 20
155.204801
 10
133.59015
 20
155.3398449999999
 10
133.3815899999999
 20
155.523051
 10
133.2015539999999
 20
155.748905
 10
133.055486
 20
156.010656
 10
132.947933
 20
156.3001739999999
 10
132.8819959999999
 20
156.608777
 10
132.847652
 20
157.1014319999999
  0
LWPOLYLINE
  5
AC82
330
A7DA
100
AcDbEntity
  8
1
  6
Continuous
100
AcDbPolyline
 90
       10
 70
     0
 43
0.0
 10
134.3204899999998
 20
159.1085789999999
 10
134.0668689999999
 20
159.0807439999998
 10
133.820896
 20
158.998064
 10
133.59015
 20
158.86302
 10
133.3815899999999
 20
158.6798139999999
 10
133.2015539999999
 20
158.45396
 10
133.055486
 20
158.1922089999999
 10
132.947933
 20
157.902691
 10
132.8819959999999
 20
157.594088
 10
132.847652
 20
157.1014319999999
  0
LWPOLYLINE
  5
AC8E
330
A7DA
100
AcDbEntity
  8
1
  6
Continuous
100
AcDbPolyline
 90
       10
 70
     0
 43
0.0
 10
134.3204899999998
 20
159.1085789999999
 10
134.5741109999999
 20
159.0807439999998
 10
134.820084
 20
158.998064
 10
135.0508299999999
 20
158.86302
 10
135.25939
 20
158.6798139999999
 10
135.439426
 20
158.45396
 10
135.5854939999999
 20
158.1922089999999
 10
135.6930469999998
 20
157.902691
 10
135.7589839999999
 20
157.594088
 10
135.793328
 20
157.1014319999999
  0
LWPOLYLINE
  5
AC9A
330
A7DA
100
AcDbEntity
  8
1
  6
Continuous
100
AcDbPolyline
 90
       10
 70
     0
 43
0.0
 10
134.3204899999998
 20
155.094286
 10
134.5741109999999
 20
155.122121
 10
134.820084
 20
155.204801
 10
135.0508299999999
 20
155.3398449999999
 10
135.25939
 20
155.523051
 10
135.439426
 20
155.748905
 10
135.5854939999999
 20
156.010656
 10
135.6930469999998
 20
156.3001739999999
 10
135.7589839999999
 20
156.608777
 10
135.793328
 20
157.1014319999999
  0
LINE
  5
ACA6
330
A7DA
100
AcDbEntity
  8
1
  6
Continuous
100
AcDbLine
 10
141.549642
 20
155.1014319999999
 30
0.0
 11
143.805351
 21
155.1014319999999
 31
0.0
  0
LINE
  5
ACA7
330
A7DA
100
AcDbEntity
  8
1
  6
Continuous
100
AcDbLine
 10
141.549642
 20
155.1014319999999
 30
0.0
 11
143.805351
 21
155.1014319999999
 31
0.0
  0
LWPOLYLINE
  5
ACA8
330
A7DA
100
AcDbEntity
  8
1
  6
Continuous
100
AcDbPolyline
 90
       30
 70
     0
 43
0.0
 10
138.731746
 20
157.3860339999999
 10
138.4822749999998
 20
157.4022189999998
 10
138.327955
 20
157.438804
 10
138.1825929999999
 20
157.498725
 10
138.050405
 20
157.580101
 10
137.9352289999999
 20
157.6806719999999
 10
137.840304
 20
157.797504
 10
137.7684129999998
 20
157.9273579999999
 10
137.7215149999998
 20
158.0663969999999
 10
137.7011149999999
 20
158.210629
 10
137.707664
 20
158.3559159999998
 10
137.741087
 20
158.4981909999999
 10
137.8003309999998
 20
158.6331649999999
 10
137.8836639999998
 20
158.757148
 10
137.9888269999999
 20
158.8665269999999
 10
138.1127349999999
 20
158.958065
 10
138.2517729999999
 20
159.029278
 10
138.402028
 20
159.078058
 10
138.559209
 20
159.1029749999998
 10
138.718647
 20
159.103276
 10
138.8759029999999
 20
159.079112
 10
139.026384
 20
159.031009
 10
139.165874
 20
158.9603979999999
 10
139.290233
 20
158.8693869999999
 10
139.3959989999999
 20
158.760535
 10
139.4800089999999
 20
158.636929
 10
139.540006
 20
158.502106
 10
139.5741069999999
 20
158.3600559999999
 10
139.5814839999999
 20
158.2147699999999
 10
139.5617609999999
 20
158.0704619999999
  0
LWPOLYLINE
  5
ACC8
330
A7DA
100
AcDbEntity
  8
1
  6
Continuous
100
AcDbPolyline
 90
       25
 70
     0
 43
0.0
 10
138.731746
 20
157.3860339999999
 10
138.731746
 20
157.3860339999999
 10
138.731746
 20
157.3860339999999
 10
138.731746
 20
157.3860339999999
 10
138.731746
 20
157.3860339999999
 10
138.731746
 20
157.3860339999999
 10
138.731746
 20
157.3860339999999
 10
138.9003689999998
 20
157.3541919999998
 10
139.0616889999998
 20
157.290883
 10
139.2111909999998
 20
157.1980649999999
 10
139.3445089999999
 20
157.0782979999999
 10
139.4578019999999
 20
156.934968
 10
139.5479099999998
 20
156.772368
 10
139.612197
 20
156.595013
 10
139.648782
 20
156.4080979999999
 10
139.656687
 20
156.2168919999998
 10
139.6356089999999
 20
156.02704
 10
139.586151
 20
155.8438139999998
 10
139.5098189999999
 20
155.6725559999999
 10
139.4087209999999
 20
155.518236
 10
139.2857919999999
 20
155.38522
 10
139.14457
 20
155.2773469999999
 10
138.9891209999998
 20
155.197778
 10
138.8238859999999
 20
155.148697
 10
138.6487139999998
 20
155.1315329999999
  0
LWPOLYLINE
  5
ACE3
330
A7DA
100
AcDbEntity
  8
1
  6
Continuous
100
AcDbPolyline
 90
       10
 70
     0
 43
0.0
 10
138.6487139999998
 20
155.1315329999999
 10
138.47836
 20
155.147718
 10
138.3128989999999
 20
155.195971
 10
138.1570739999999
 20
155.274712
 10
138.0154
 20
155.381833
 10
137.8919439999999
 20
155.514171
 10
137.7901689999999
 20
155.667889
 10
137.713084
 20
155.838695
 10
137.6628739999999
 20
156.0216199999999
 10
137.6409679999998
 20
156.2114719999998
  0
LINE
  5
ACEF
330
A7DA
100
AcDbEntity
  8
1
  6
Continuous
100
AcDbLine
 10
141.549642
 20
159.101432
 30
0.0
 11
141.549642
 21
155.1014319999999
 31
0.0
  0
LINE
  5
ACF0
330
A7DA
100
AcDbEntity
  8
1
  6
Continuous
100
AcDbLine
 10
151.7813439999999
 20
188.648223
 30
0.0
 11
153.135982
 21
188.648223
 31
0.0
  0
LWPOLYLINE
  5
ACF1
330
A7DA
100
AcDbEntity
  8
1
  6
Continuous
100
AcDbPolyline
 90
       10
 70
     0
 43
0.0
 10
148.605308
 20
184.655428
 10
148.351687
 20
184.6832639999998
 10
148.1057139999998
 20
184.7659439999999
 10
147.8749679999999
 20
184.9009879999999
 10
147.6664079999999
 20
185.0841929999999
 10
147.4863719999999
 20
185.310047
 10
147.3403039999998
 20
185.571798
 10
147.232751
 20
185.8613159999999
 10
147.166814
 20
186.1699189999999
 10
147.1324699999998
 20
186.662575
  0
LWPOLYLINE
  5
ACFD
330
A7DA
100
AcDbEntity
  8
1
  6
Continuous
100
AcDbPolyline
 90
       10
 70
     0
 43
0.0
 10
148.605308
 20
188.669722
 10
148.351687
 20
188.641886
 10
148.1057139999998
 20
188.559206
 10
147.8749679999999
 20
188.424162
 10
147.6664079999999
 20
188.240957
 10
147.4863719999999
 20
188.015103
 10
147.3403039999998
 20
187.753352
 10
147.232751
 20
187.4638339999999
 10
147.166814
 20
187.155231
 10
147.1324699999998
 20
186.662575
  0
LWPOLYLINE
  5
AD09
330
A7DA
100
AcDbEntity
  8
1
  6
Continuous
100
AcDbPolyline
 90
       10
 70
     0
 43
0.0
 10
148.605308
 20
188.669722
 10
148.8589289999999
 20
188.641886
 10
149.104902
 20
188.559206
 10
149.3356479999999
 20
188.424162
 10
149.544208
 20
188.240957
 10
149.7242439999999
 20
188.015103
 10
149.870312
 20
187.753352
 10
149.9778649999998
 20
187.4638339999999
 10
150.0438019999999
 20
187.155231
 10
150.0781459999998
 20
186.662575
  0
LWPOLYLINE
  5
AD15
330
A7DA
100
AcDbEntity
  8
1
  6
Continuous
100
AcDbPolyline
 90
       10
 70
     0
 43
0.0
 10
148.605308
 20
184.655428
 10
148.8589289999999
 20
184.6832639999998
 10
149.104902
 20
184.7659439999999
 10
149.3356479999999
 20
184.9009879999999
 10
149.544208
 20
185.0841929999999
 10
149.7242439999999
 20
185.310047
 10
149.870312
 20
185.571798
 10
149.9778649999998
 20
185.8613159999999
 10
150.0438019999999
 20
186.1699189999999
 10
150.0781459999998
 20
186.662575
  0
LINE
  5
AD21
330
A7DA
100
AcDbEntity
  8
1
  6
Continuous
100
AcDbLine
 10
151.7813439999999
 20
188.648223
 30
0.0
 11
151.7813439999999
 21
184.648223
 31
0.0
  0
LINE
  5
AD22
330
A7DA
100
AcDbEntity
  8
1
  6
Continuous
100
AcDbLine
 10
151.7813439999999
 20
186.648223
 30
0.0
 11
153.135982
 21
186.648223
 31
0.0
  0
ARC
  5
AD23
330
A7DA
100
AcDbEntity
  8
1
  6
Continuous
100
AcDbCircle
 10
153.135982
 20
187.648223
 30
0.0
 40
1.0
100
AcDbArc
 50
270.0
 51
90.0
  0
LINE
  5
AD24
330
A7DA
100
AcDbEntity
  8
1
  6
Continuous
100
AcDbLine
 10
155.646848
 20
184.648223
 30
0.0
 11
157.9025579999999
 21
184.648223
 31
0.0
  0
LINE
  5
AD25
330
A7DA
100
AcDbEntity
  8
1
  6
Continuous
100
AcDbLine
 10
155.646848
 20
184.648223
 30
0.0
 11
157.9025579999999
 21
184.648223
 31
0.0
  0
LINE
  5
AD26
330
A7DA
100
AcDbEntity
  8
1
  6
Continuous
100
AcDbLine
 10
155.646848
 20
184.648223
 30
0.0
 11
157.9025579999999
 21
184.648223
 31
0.0
  0
LINE
  5
AD27
330
A7DA
100
AcDbEntity
  8
1
  6
Continuous
100
AcDbLine
 10
155.646848
 20
188.648223
 30
0.0
 11
157.9025579999999
 21
188.648223
 31
0.0
  0
LINE
  5
AD28
330
A7DA
100
AcDbEntity
  8
1
  6
Continuous
100
AcDbLine
 10
155.646848
 20
186.648223
 30
0.0
 11
157.287365
 21
186.648223
 31
0.0
  0
LINE
  5
AD29
330
A7DA
100
AcDbEntity
  8
1
  6
Continuous
100
AcDbLine
 10
155.646848
 20
188.648223
 30
0.0
 11
155.646848
 21
184.648223
 31
0.0
  0
LINE
  5
AD2A
330
A7DA
100
AcDbEntity
  8
1
  6
Continuous
100
AcDbLine
 10
159.5899839999999
 20
188.648223
 30
0.0
 11
159.5899839999999
 21
184.648223
 31
0.0
  0
LINE
  5
AD2B
330
A7DA
100
AcDbEntity
  8
1
  6
Continuous
100
AcDbLine
 10
161.889984
 20
188.648223
 30
0.0
 11
161.889984
 21
184.648223
 31
0.0
  0
LINE
  5
AD2C
330
A7DA
100
AcDbEntity
  8
1
  6
Continuous
100
AcDbLine
 10
159.5899839999999
 20
188.648223
 30
0.0
 11
161.889984
 21
184.648223
 31
0.0
  0
LINE
  5
AD2D
330
A7DA
100
AcDbEntity
  8
1
  6
Continuous
100
AcDbLine
 10
161.6589999999999
 20
135.100133
 30
0.0
 11
161.6589999999999
 21
131.266604
 31
0.0
  0
ARC
  5
AD2E
330
A7DA
100
AcDbEntity
  8
1
  6
Continuous
100
AcDbCircle
 10
164.6589999999999
 20
135.100133
 30
0.0
 40
3.0
100
AcDbArc
 50
117.274195
 51
180.0
  0
ARC
  5
AD2F
330
A7DA
100
AcDbEntity
  8
1
  6
Continuous
100
AcDbCircle
 10
165.1589999999999
 20
131.266604
 30
0.0
 40
3.5
100
AcDbArc
 50
180.0
 51
270.0
  0
ARC
  5
AD30
330
A7DA
100
AcDbEntity
  8
1
  6
Continuous
100
AcDbCircle
 10
355.2169999999999
 20
186.7666039999998
 30
0.0
 40
7.5
100
AcDbArc
 50
90.0
 51
180.0
  0
LINE
  5
AD31
330
A7DA
100
AcDbEntity
  8
1
  6
Continuous
100
AcDbLine
 10
256.8349999999999
 20
211.766604
 30
0.0
 11
256.8349999999999
 21
193.766604
 31
0.0
  0
LINE
  5
AD32
330
A7DA
100
AcDbEntity
  8
1
  6
Continuous
100
AcDbLine
 10
255.235
 20
211.766604
 30
0.0
 11
255.235
 21
193.766604
 31
0.0
  0
LINE
  5
AD33
330
A7DA
100
AcDbEntity
  8
1
  6
Continuous
100
AcDbLine
 10
255.935
 20
193.766604
 30
0.0
 11
255.935
 21
190.766604
 31
0.0
  0
LINE
  5
AD34
330
A7DA
100
AcDbEntity
  8
1
  6
Continuous
100
AcDbLine
 10
255.735
 20
193.766604
 30
0.0
 11
255.735
 21
190.766604
 31
0.0
  0
LINE
  5
AD35
330
A7DA
100
AcDbEntity
  8
1
  6
Continuous
100
AcDbLine
 10
183.6589999999999
 20
298.7916039999999
 30
0.0
 11
183.6589999999999
 21
300.391604
 31
0.0
  0
LINE
  5
AD36
330
A7DA
100
AcDbEntity
  8
1
  6
Continuous
100
AcDbLine
 10
183.6589999999999
 20
298.7916039999999
 30
0.0
 11
158.159
 21
298.7916039999999
 31
0.0
  0
LINE
  5
AD37
330
A7DA
100
AcDbEntity
  8
1
  6
Continuous
100
AcDbLine
 10
158.159
 20
298.7916039999999
 30
0.0
 11
158.159
 21
300.391604
 31
0.0
  0
LINE
  5
AD38
330
A7DA
100
AcDbEntity
  8
1
  6
Continuous
100
AcDbLine
 10
158.159
 20
56.741404
 30
0.0
 11
158.159
 21
55.141404
 31
0.0
  0
LINE
  5
AD39
330
A7DA
100
AcDbEntity
  8
1
  6
Continuous
100
AcDbLine
 10
183.6589999999999
 20
56.741404
 30
0.0
 11
183.6589999999999
 21
55.141404
 31
0.0
  0
LINE
  5
AD3A
330
A7DA
100
AcDbEntity
  8
1
  6
Continuous
100
AcDbLine
 10
255.235
 20
211.766604
 30
0.0
 11
256.8349999999999
 21
211.766604
 31
0.0
  0
LINE
  5
AD3B
330
A7DA
100
AcDbEntity
  8
1
  6
Continuous
100
AcDbLine
 10
255.235
 20
193.766604
 30
0.0
 11
256.8349999999999
 21
193.766604
 31
0.0
  0
LINE
  5
AD3C
330
A7DA
100
AcDbEntity
  8
1
  6
Continuous
100
AcDbLine
 10
329.7169999999999
 20
211.766604
 30
0.0
 11
349.2169999999999
 21
211.766604
 31
0.0
  0
LINE
  5
AD3D
330
A7DA
100
AcDbEntity
  8
1
  6
Continuous
100
AcDbLine
 10
329.7169999999999
 20
193.766604
 30
0.0
 11
349.2169999999999
 21
193.766604
 31
0.0
  0
LINE
  5
AD3E
330
A7DA
100
AcDbEntity
  8
1
  6
Continuous
100
AcDbLine
 10
326.717
 20
208.766604
 30
0.0
 11
326.717
 21
196.766604
 31
0.0
  0
LINE
  5
AD3F
330
A7DA
100
AcDbEntity
  8
1
  6
Continuous
100
AcDbLine
 10
352.217
 20
208.766604
 30
0.0
 11
352.217
 21
196.766604
 31
0.0
  0
ARC
  5
AD40
330
A7DA
100
AcDbEntity
  8
1
  6
Continuous
100
AcDbCircle
 10
349.2169999999999
 20
208.766604
 30
0.0
 40
3.0
100
AcDbArc
 50
0.0
 51
90.0
  0
ARC
  5
AD41
330
A7DA
100
AcDbEntity
  8
1
  6
Continuous
100
AcDbCircle
 10
349.2169999999999
 20
196.766604
 30
0.0
 40
3.0
100
AcDbArc
 50
270.0
 51
0.0
  0
ARC
  5
AD42
330
A7DA
100
AcDbEntity
  8
1
  6
Continuous
100
AcDbCircle
 10
329.7169999999999
 20
196.766604
 30
0.0
 40
3.0
100
AcDbArc
 50
180.0
 51
270.0
  0
ARC
  5
AD43
330
A7DA
100
AcDbEntity
  8
1
  6
Continuous
100
AcDbCircle
 10
329.7169999999999
 20
208.766604
 30
0.0
 40
3.0
100
AcDbArc
 50
90.0
 51
180.0
  0
LINE
  5
AD44
330
A7DA
100
AcDbEntity
  8
1
  6
Continuous
100
AcDbLine
 10
183.6589999999999
 20
300.391604
 30
0.0
 11
158.159
 21
300.391604
 31
0.0
  0
LINE
  5
AD45
330
A7DA
100
AcDbEntity
  8
1
  6
Continuous
100
AcDbLine
 10
183.6589999999999
 20
55.141404
 30
0.0
 11
158.159
 21
55.141404
 31
0.0
  0
ENDSEC
  0
SECTION
  2
OBJECTS
  0
DICTIONARY
  5
A7C8
330
0
100
AcDbDictionary
281
     1
  3
ACAD_CIP_PREVIOUS_PRODUCT_INFO
350
ADAB
  3
ACAD_COLOR
350
AD8D
  3
ACAD_DETAILVIEWSTYLE
350
ADA6
  3
ACAD_GROUP
350
A7C9
  3
ACAD_LAYOUT
350
A7D5
  3
ACAD_MATERIAL
350
AD5B
  3
ACAD_MLEADERSTYLE
350
ADA2
  3
ACAD_MLINESTYLE
350
A7D2
  3
ACAD_PLOTSETTINGS
350
A7D4
  3
ACAD_PLOTSTYLENAME
350
AD59
  3
ACAD_SCALELIST
350
AD90
  3
ACAD_SECTIONVIEWSTYLE
350
ADA4
  3
ACAD_TABLESTYLE
350
AD8E
  3
ACAD_VISUALSTYLE
350
AD74
  3
ACDB_RECOMPOSE_DATA
350
ADC9
  3
AcDbVariableDictionary
350
ADBC
  3
DWGPROPS
350
ADCA
  0
DICTIONARY
  5
ADAC
330
A7CC
100
AcDbDictionary
280
     1
281
     1
  3
ADSK_XREC_LAYER_RECONCILED
360
ADAD
  0
DICTIONARY
  5
ADAE
330
A7E2
100
AcDbDictionary
280
     1
281
     1
  3
ADSK_XREC_LAYER_RECONCILED
360
ADAF
  0
DICTIONARY
  5
ADB0
330
A7E3
100
AcDbDictionary
280
     1
281
     1
  3
ADSK_XREC_LAYER_RECONCILED
360
ADB1
  0
DICTIONARY
  5
ADB2
330
A7E4
100
AcDbDictionary
280
     1
281
     1
  3
ADSK_XREC_LAYER_RECONCILED
360
ADB3
  0
DICTIONARY
  5
ADB4
330
A7E5
100
AcDbDictionary
280
     1
281
     1
  3
ADSK_XREC_LAYER_RECONCILED
360
ADB5
  0
DICTIONARY
  5
ADB6
330
A7E6
100
AcDbDictionary
280
     1
281
     1
  3
ADSK_XREC_LAYER_RECONCILED
360
ADB7
  0
DICTIONARY
  5
ADB8
330
A7E7
100
AcDbDictionary
280
     1
281
     1
  3
ADSK_XREC_LAYER_RECONCILED
360
ADB9
  0
DICTIONARY
  5
ADBA
330
A7E8
100
AcDbDictionary
280
     1
281
     1
  3
ADSK_XREC_LAYER_RECONCILED
360
ADBB
  0
DICTIONARY
  5
AD54
330
A7DA
100
AcDbDictionary
281
     1
  3
ACAD_LAYOUTSELFREF
350
AD55
  0
DICTIONARY
  5
AD52
330
A7D6
100
AcDbDictionary
281
     1
  3
ACAD_LAYOUTSELFREF
350
AD53
  0
XRECORD
  5
ADAB
102
{ACAD_REACTORS
330
A7C8
102
}
330
A7C8
100
AcDbXrecord
280
     1
300
ACDLT
300
2014
300
ACDLT_F_S
  0
DICTIONARY
  5
AD8D
102
{ACAD_REACTORS
330
A7C8
102
}
330
A7C8
100
AcDbDictionary
281
     1
  0
DICTIONARY
  5
ADA6
102
{ACAD_REACTORS
330
A7C8
102
}
330
A7C8
100
AcDbDictionary
281
     1
  3
Imperial24
350
ADA7
  0
DICTIONARY
  5
A7C9
102
{ACAD_REACTORS
330
A7C8
102
}
330
A7C8
100
AcDbDictionary
281
     1
  0
DICTIONARY
  5
A7D5
102
{ACAD_REACTORS
330
A7C8
102
}
330
A7C8
100
AcDbDictionary
281
     1
  3
Model
350
ADA8
  3
レイアウト1
350
ADA9
  0
DICTIONARY
  5
AD5B
102
{ACAD_REACTORS
330
A7C8
102
}
330
A7C8
100
AcDbDictionary
281
     1
  3
ByBlock
350
AD64
  3
ByLayer
350
AD5C
  3
Global
350
AD6C
  0
DICTIONARY
  5
ADA2
102
{ACAD_REACTORS
330
A7C8
102
}
330
A7C8
100
AcDbDictionary
281
     1
  3
Standard
350
ADA3
  0
DICTIONARY
  5
A7D2
102
{ACAD_REACTORS
330
A7C8
102
}
330
A7C8
100
AcDbDictionary
281
     1
  3
STANDARD
350
A7D3
  0
DICTIONARY
  5
A7D4
102
{ACAD_REACTORS
330
A7C8
102
}
330
A7C8
100
AcDbDictionary
281
     1
  0
ACDBDICTIONARYWDFLT
  5
AD59
102
{ACAD_REACTORS
330
A7C8
102
}
330
A7C8
100
AcDbDictionary
281
     1
  3
Normal
350
AD5A
100
AcDbDictionaryWithDefault
340
AD5A
  0
DICTIONARY
  5
AD90
102
{ACAD_REACTORS
330
A7C8
102
}
330
A7C8
100
AcDbDictionary
281
     1
  3
A0
350
AD91
  3
A1
350
AD92
  3
A2
350
AD93
  3
A3
350
AD94
  3
A4
350
AD95
  3
A5
350
AD96
  3
A6
350
AD97
  3
A7
350
AD98
  3
A8
350
AD99
  3
A9
350
AD9A
  3
B0
350
AD9B
  3
B1
350
AD9C
  3
B2
350
AD9D
  3
B3
350
AD9E
  3
B4
350
AD9F
  3
B5
350
ADA0
  3
B6
350
ADA1
  0
DICTIONARY
  5
ADA4
102
{ACAD_REACTORS
330
A7C8
102
}
330
A7C8
100
AcDbDictionary
281
     1
  3
Imperial24
350
ADA5
  0
DICTIONARY
  5
AD8E
102
{ACAD_REACTORS
330
A7C8
102
}
330
A7C8
100
AcDbDictionary
281
     1
  3
Standard
350
AD8F
  0
DICTIONARY
  5
AD74
102
{ACAD_REACTORS
330
A7C8
102
}
330
A7C8
100
AcDbDictionary
281
     1
  3
2dWireframe
350
AD7A
  3
Basic
350
AD79
  3
Brighten
350
AD80
  3
ColorChange
350
AD84
  3
Conceptual
350
AD7D
  3
Dim
350
AD7F
  3
EdgeColorOff
350
AD8C
  3
Facepattern
350
AD83
  3
Flat
350
AD75
  3
FlatWithEdges
350
AD76
  3
Gouraud
350
AD77
  3
GouraudWithEdges
350
AD78
  3
Hidden
350
AD7C
  3
JitterOff
350
AD8A
  3
Linepattern
350
AD82
  3
OverhangOff
350
AD8B
  3
Realistic
350
AD7E
  3
Shaded
350
AD89
  3
Shaded with edges
350
AD88
  3
Shades of Gray
350
AD85
  3
Sketchy
350
AD86
  3
Thicken
350
AD81
  3
Wireframe
350
AD7B
  3
X-Ray
350
AD87
  0
XRECORD
  5
ADC9
102
{ACAD_REACTORS
330
A7C8
102
}
330
A7C8
100
AcDbXrecord
280
     1
 90
        1
330
AD8F
  0
DICTIONARY
  5
ADBC
102
{ACAD_REACTORS
330
A7C8
102
}
330
A7C8
100
AcDbDictionary
281
     1
  3
CANNOSCALE
350
ADC1
  3
CMLEADERSTYLE
350
ADBE
  3
CTABLESTYLE
350
ADBD
  3
CVIEWDETAILSTYLE
350
ADBF
  3
CVIEWSECTIONSTYLE
350
ADC0
  3
DIMASSOC
350
ADC4
  3
INDEXCTL
350
ADC3
  3
SORTENTS
350
ADC2
  3
XCLIPFRAME
350
ADC5
  0
XRECORD
  5
ADCA
102
{ACAD_REACTORS
330
A7C8
102
}
330
A7C8
100
AcDbXrecord
280
     1
  1
DWGPROPS COOKIE
  2

  3

  4

  6

  7

  8
Yoshitsune
  9

300
=
301
=
302
=
303
=
304
=
305
=
306
=
307
=
308
=
309
=
 40
0.000018587962963
 41
2450737.565963889
 42
2457192.643420741
  1

 90
        0
  0
XRECORD
  5
ADAD
102
{ACAD_REACTORS
330
ADAC
102
}
330
ADAC
100
AcDbXrecord
280
     1
290
     1
  0
XRECORD
  5
ADAF
102
{ACAD_REACTORS
330
ADAE
102
}
330
ADAE
100
AcDbXrecord
280
     1
290
     1
  0
XRECORD
  5
ADB1
102
{ACAD_REACTORS
330
ADB0
102
}
330
ADB0
100
AcDbXrecord
280
     1
290
     1
  0
XRECORD
  5
ADB3
102
{ACAD_REACTORS
330
ADB2
102
}
330
ADB2
100
AcDbXrecord
280
     1
290
     1
  0
XRECORD
  5
ADB5
102
{ACAD_REACTORS
330
ADB4
102
}
330
ADB4
100
AcDbXrecord
280
     1
290
     1
  0
XRECORD
  5
ADB7
102
{ACAD_REACTORS
330
ADB6
102
}
330
ADB6
100
AcDbXrecord
280
     1
290
     1
  0
XRECORD
  5
ADB9
102
{ACAD_REACTORS
330
ADB8
102
}
330
ADB8
100
AcDbXrecord
280
     1
290
     1
  0
XRECORD
  5
ADBB
102
{ACAD_REACTORS
330
ADBA
102
}
330
ADBA
100
AcDbXrecord
280
     1
290
     1
  0
XRECORD
  5
AD55
102
{ACAD_REACTORS
330
AD54
102
}
330
AD54
100
AcDbXrecord
280
     1
340
A7DA
  0
XRECORD
  5
AD53
102
{ACAD_REACTORS
330
AD52
102
}
330
AD52
100
AcDbXrecord
280
     1
340
A7D6
  0
ACDBDETAILVIEWSTYLE
  5
ADA7
102
{ACAD_XDICTIONARY
360
AE02
102
}
102
{ACAD_REACTORS
330
ADA6
102
}
330
ADA6
100
AcDbModelDocViewStyle
 70
     0
  3
Imperial24
290
     0
100
AcDbDetailViewStyle
 70
     0
 71
     0
 90
        3
 71
     1
340
A7CD
 40
0.24
340
0
 40
0.24
300

 40
0.36
280
     3
 71
     2
340
A7D1
 90
       25
 71
     3
340
A7CD
 40
0.24
 90
        1
 40
0.75
 90
        1
300
%<\AcVar ViewType \f "%tc1">% %<\AcVar ViewDetailId>%\PSCALE %<\AcVar ViewScale \f "%sn">%
 71
     4
340
A7D1
 90
       25
340
A7D1
 90
       25
280
     0
  0
LAYOUT
  5
ADA8
102
{ACAD_XDICTIONARY
360
AE04
102
}
102
{ACAD_REACTORS
330
A7D5
102
}
330
A7D5
100
AcDbPlotSettings
  1

  2
Canon LBP9100C
  4

  6

 40
0.0
 41
0.0
 42
0.0
 43
0.0
 44
0.0
 45
0.0
 46
0.0
 47
0.0
 48
0.0
 49
0.0
140
0.0
141
0.0
142
1.0
143
1.0
 70
  1712
 72
     0
 73
     0
 74
     0
  7

 75
     0
147
1.0
148
0.0
149
0.0
100
AcDbLayout
  1
Model
 70
     1
 71
     0
 10
0.0
 20
0.0
 11
12.0
 21
9.0
 12
0.0
 22
0.0
 32
0.0
 14
0.0
 24
0.0
 34
0.0
 15
0.0
 25
0.0
 35
0.0
146
0.0
 13
0.0
 23
0.0
 33
0.0
 16
1.0
 26
0.0
 36
0.0
 17
0.0
 27
1.0
 37
0.0
 76
     0
330
A7DA
331
AD51
  0
LAYOUT
  5
ADA9
102
{ACAD_XDICTIONARY
360
AE06
102
}
102
{ACAD_REACTORS
330
A7D5
102
}
330
A7D5
100
AcDbPlotSettings
  1

  2
Canon LBP9100C
  4

  6

 40
0.0
 41
0.0
 42
0.0
 43
0.0
 44
0.0
 45
0.0
 46
0.0
 47
0.0
 48
0.0
 49
0.0
140
0.0
141
0.0
142
1.0
143
1.0
 70
   688
 72
     0
 73
     0
 74
     5
  7

 75
    16
147
1.0
148
0.0
149
0.0
100
AcDbLayout
  1
レイアウト1
 70
     0
 71
     1
 10
0.0
 20
0.0
 11
420.0
 21
297.0
 12
0.0
 22
0.0
 32
0.0
 14
1.000000000000000E+20
 24
1.000000000000000E+20
 34
1.000000000000000E+20
 15
-1.000000000000000E+20
 25
-1.000000000000000E+20
 35
-1.000000000000000E+20
146
0.0
 13
0.0
 23
0.0
 33
0.0
 16
1.0
 26
0.0
 36
0.0
 17
0.0
 27
1.0
 37
0.0
 76
     0
330
A7D6
  0
MATERIAL
  5
AD64
102
{ACAD_XDICTIONARY
360
AD65
102
}
102
{ACAD_REACTORS
330
AD5B
102
}
330
AD5B
100
AcDbMaterial
  1
ByBlock
 72
     0
 43
0.0208333333333333
 43
0.0
 43
0.0
 43
0.0
 43
0.0
 43
0.0208333333333333
 43
0.0
 43
0.0
 43
0.0
 43
0.0
 43
1.0
 43
0.0
 43
0.0
 43
0.0
 43
0.0
 43
1.0
 77
     0
 47
0.0208333333333333
 47
0.0
 47
0.0
 47
0.0
 47
0.0
 47
0.0208333333333333
 47
0.0
 47
0.0
 47
0.0
 47
0.0
 47
1.0
 47
0.0
 47
0.0
 47
0.0
 47
0.0
 47
1.0
171
     0
 49
0.0208333333333333
 49
0.0
 49
0.0
 49
0.0
 49
0.0
 49
0.0208333333333333
 49
0.0
 49
0.0
 49
0.0
 49
0.0
 49
1.0
 49
0.0
 49
0.0
 49
0.0
 49
0.0
 49
1.0
175
     0
142
0.0208333333333333
142
0.0
142
0.0
142
0.0
142
0.0
142
0.0208333333333333
142
0.0
142
0.0
142
0.0
142
0.0
142
1.0
142
0.0
142
0.0
142
0.0
142
0.0
142
1.0
179
     0
144
0.0208333333333333
144
0.0
144
0.0
144
0.0
144
0.0
144
0.0208333333333333
144
0.0
144
0.0
144
0.0
144
0.0
144
1.0
144
0.0
144
0.0
144
0.0
144
0.0
144
1.0
147
0.0208333333333333
147
0.0
147
0.0
147
0.0
147
0.0
147
0.0208333333333333
147
0.0
147
0.0
147
0.0
147
0.0
147
1.0
147
0.0
147
0.0
147
0.0
147
0.0
147
1.0
  0
MATERIAL
  5
AD5C
102
{ACAD_XDICTIONARY
360
AD5D
102
}
102
{ACAD_REACTORS
330
AD5B
102
}
330
AD5B
100
AcDbMaterial
  1
ByLayer
 72
     0
 43
0.0208333333333333
 43
0.0
 43
0.0
 43
0.0
 43
0.0
 43
0.0208333333333333
 43
0.0
 43
0.0
 43
0.0
 43
0.0
 43
1.0
 43
0.0
 43
0.0
 43
0.0
 43
0.0
 43
1.0
 77
     0
 47
0.0208333333333333
 47
0.0
 47
0.0
 47
0.0
 47
0.0
 47
0.0208333333333333
 47
0.0
 47
0.0
 47
0.0
 47
0.0
 47
1.0
 47
0.0
 47
0.0
 47
0.0
 47
0.0
 47
1.0
171
     0
 49
0.0208333333333333
 49
0.0
 49
0.0
 49
0.0
 49
0.0
 49
0.0208333333333333
 49
0.0
 49
0.0
 49
0.0
 49
0.0
 49
1.0
 49
0.0
 49
0.0
 49
0.0
 49
0.0
 49
1.0
175
     0
142
0.0208333333333333
142
0.0
142
0.0
142
0.0
142
0.0
142
0.0208333333333333
142
0.0
142
0.0
142
0.0
142
0.0
142
1.0
142
0.0
142
0.0
142
0.0
142
0.0
142
1.0
179
     0
144
0.0208333333333333
144
0.0
144
0.0
144
0.0
144
0.0
144
0.0208333333333333
144
0.0
144
0.0
144
0.0
144
0.0
144
1.0
144
0.0
144
0.0
144
0.0
144
0.0
144
1.0
147
0.0208333333333333
147
0.0
147
0.0
147
0.0
147
0.0
147
0.0208333333333333
147
0.0
147
0.0
147
0.0
147
0.0
147
1.0
147
0.0
147
0.0
147
0.0
147
0.0
147
1.0
  0
MATERIAL
  5
AD6C
102
{ACAD_XDICTIONARY
360
AD6D
102
}
102
{ACAD_REACTORS
330
AD5B
102
}
330
AD5B
100
AcDbMaterial
  1
Global
 72
     0
 43
0.0208333333333333
 43
0.0
 43
0.0
 43
0.0
 43
0.0
 43
0.0208333333333333
 43
0.0
 43
0.0
 43
0.0
 43
0.0
 43
1.0
 43
0.0
 43
0.0
 43
0.0
 43
0.0
 43
1.0
 77
     0
 47
0.0208333333333333
 47
0.0
 47
0.0
 47
0.0
 47
0.0
 47
0.0208333333333333
 47
0.0
 47
0.0
 47
0.0
 47
0.0
 47
1.0
 47
0.0
 47
0.0
 47
0.0
 47
0.0
 47
1.0
171
     0
 49
0.0208333333333333
 49
0.0
 49
0.0
 49
0.0
 49
0.0
 49
0.0208333333333333
 49
0.0
 49
0.0
 49
0.0
 49
0.0
 49
1.0
 49
0.0
 49
0.0
 49
0.0
 49
0.0
 49
1.0
175
     0
142
0.0208333333333333
142
0.0
142
0.0
142
0.0
142
0.0
142
0.0208333333333333
142
0.0
142
0.0
142
0.0
142
0.0
142
1.0
142
0.0
142
0.0
142
0.0
142
0.0
142
1.0
179
     0
144
0.0208333333333333
144
0.0
144
0.0
144
0.0
144
0.0
144
0.0208333333333333
144
0.0
144
0.0
144
0.0
144
0.0
144
1.0
144
0.0
144
0.0
144
0.0
144
0.0
144
1.0
147
0.0208333333333333
147
0.0
147
0.0
147
0.0
147
0.0
147
0.0208333333333333
147
0.0
147
0.0
147
0.0
147
0.0
147
1.0
147
0.0
147
0.0
147
0.0
147
0.0
147
1.0
  0
MLEADERSTYLE
  5
ADA3
102
{ACAD_REACTORS
330
ADA2
102
}
330
ADA2
100
AcDbMLeaderStyle
170
     2
171
     1
172
     0
 90
        2
 40
0.0
 41
0.0
173
     1
 91
-1056964608
340
A7CF
 92
       -2
290
     1
 42
0.09
291
     1
 43
0.36
  3
Standard
 44
0.18
300

342
A7CD
174
     1
178
     6
175
     1
176
     0
 93
-1056964608
 45
0.18
292
     0
297
     0
 46
0.18
 94
-1056964608
 47
1.0
 49
1.0
140
1.0
293
     1
141
0.0
294
     1
177
     0
142
1.0
295
     0
296
     0
143
0.125
1001
ACAD_MLEADERVER
1070
     2
  0
MLINESTYLE
  5
A7D3
102
{ACAD_REACTORS
330
A7D2
102
}
330
A7D2
100
AcDbMlineStyle
  2
STANDARD
 70
     0
  3

 62
   256
 51
90.0
 52
90.0
 71
     2
 49
0.5
 62
   256
  6
BYLAYER
 49
-0.5
 62
   256
  6
BYLAYER
  0
ACDBPLACEHOLDER
  5
AD5A
102
{ACAD_REACTORS
330
AD59
102
}
330
AD59
  0
SCALE
  5
AD91
102
{ACAD_REACTORS
330
AD90
102
}
330
AD90
100
AcDbScale
 70
     0
300
1:1
140
1.0
141
1.0
290
     1
  0
SCALE
  5
AD92
102
{ACAD_REACTORS
330
AD90
102
}
330
AD90
100
AcDbScale
 70
     0
300
1/128" = 1'-0"
140
0.0078125
141
12.0
290
     0
  0
SCALE
  5
AD93
102
{ACAD_REACTORS
330
AD90
102
}
330
AD90
100
AcDbScale
 70
     0
300
1/64" = 1'-0"
140
0.015625
141
12.0
290
     0
  0
SCALE
  5
AD94
102
{ACAD_REACTORS
330
AD90
102
}
330
AD90
100
AcDbScale
 70
     0
300
1/32" = 1'-0"
140
0.03125
141
12.0
290
     0
  0
SCALE
  5
AD95
102
{ACAD_REACTORS
330
AD90
102
}
330
AD90
100
AcDbScale
 70
     0
300
1/16" = 1'-0"
140
0.0625
141
12.0
290
     0
  0
SCALE
  5
AD96
102
{ACAD_REACTORS
330
AD90
102
}
330
AD90
100
AcDbScale
 70
     0
300
3/32" = 1'-0"
140
0.09375
141
12.0
290
     0
  0
SCALE
  5
AD97
102
{ACAD_REACTORS
330
AD90
102
}
330
AD90
100
AcDbScale
 70
     0
300
1/8" = 1'-0"
140
0.125
141
12.0
290
     0
  0
SCALE
  5
AD98
102
{ACAD_REACTORS
330
AD90
102
}
330
AD90
100
AcDbScale
 70
     0
300
3/16" = 1'-0"
140
0.1875
141
12.0
290
     0
  0
SCALE
  5
AD99
102
{ACAD_REACTORS
330
AD90
102
}
330
AD90
100
AcDbScale
 70
     0
300
1/4" = 1'-0"
140
0.25
141
12.0
290
     0
  0
SCALE
  5
AD9A
102
{ACAD_REACTORS
330
AD90
102
}
330
AD90
100
AcDbScale
 70
     0
300
3/8" = 1'-0"
140
0.375
141
12.0
290
     0
  0
SCALE
  5
AD9B
102
{ACAD_REACTORS
330
AD90
102
}
330
AD90
100
AcDbScale
 70
     0
300
1/2" = 1'-0"
140
0.5
141
12.0
290
     0
  0
SCALE
  5
AD9C
102
{ACAD_REACTORS
330
AD90
102
}
330
AD90
100
AcDbScale
 70
     0
300
3/4" = 1'-0"
140
0.75
141
12.0
290
     0
  0
SCALE
  5
AD9D
102
{ACAD_REACTORS
330
AD90
102
}
330
AD90
100
AcDbScale
 70
     0
300
1" = 1'-0"
140
1.0
141
12.0
290
     0
  0
SCALE
  5
AD9E
102
{ACAD_REACTORS
330
AD90
102
}
330
AD90
100
AcDbScale
 70
     0
300
1-1/2" = 1'-0"
140
1.5
141
12.0
290
     0
  0
SCALE
  5
AD9F
102
{ACAD_REACTORS
330
AD90
102
}
330
AD90
100
AcDbScale
 70
     0
300
3" = 1'-0"
140
3.0
141
12.0
290
     0
  0
SCALE
  5
ADA0
102
{ACAD_REACTORS
330
AD90
102
}
330
AD90
100
AcDbScale
 70
     0
300
6" = 1'-0"
140
6.0
141
12.0
290
     0
  0
SCALE
  5
ADA1
102
{ACAD_REACTORS
330
AD90
102
}
330
AD90
100
AcDbScale
 70
     0
300
1'-0" = 1'-0"
140
12.0
141
12.0
290
     0
  0
ACDBSECTIONVIEWSTYLE
  5
ADA5
102
{ACAD_XDICTIONARY
360
AE00
102
}
102
{ACAD_REACTORS
330
ADA4
102
}
330
ADA4
100
AcDbModelDocViewStyle
 70
     0
  3
Imperial24
290
     0
100
AcDbSectionViewStyle
 70
     0
 71
     0
 90
       78
 71
     1
340
A7CD
 40
0.24
340
0
340
0
 40
0.24
300
I, O, Q, S, X, Z
 40
0.48
 90
        3
 40
0.18
 90
        1
 71
     2
340
A7D1
 90
       25
340
A7D1
 90
       50
 40
0.24
 40
0.0
 40
0.24
 71
     3
340
A7CD
 40
0.24
 90
        1
 40
0.75
 90
        1
300
%<\AcVar ViewType \f "%tc1">% %<\AcVar ViewSectionStartId>%-%<\AcVar ViewSectionEndId>%\PSCALE %<\AcVar ViewScale \f "%sn">%
 71
     4
300
ANSI31
 40
1.0
 90
        0
290
     0
290
     0
 90
        6
 40
0.0
 40
1.570796326794896
 40
0.2617993877991494
 40
1.308996938995747
 40
-0.2617993877991494
 40
1.832595714594046
  0
TABLESTYLE
  5
AD8F
102
{ACAD_XDICTIONARY
360
ADC7
102
}
102
{ACAD_REACTORS
330
AD8E
102
}
330
AD8E
100
AcDbTableStyle
  3
Standard
 70
     0
 71
     0
 40
0.06
 41
0.06
280
     0
281
     0
  7
STANDARD
140
0.18
170
     2
 62
     0
 63
     7
283
     0
274
    -2
284
     1
 64
     0
275
    -2
285
     1
 65
     0
276
    -2
286
     1
 66
     0
277
    -2
287
     1
 67
     0
278
    -2
288
     1
 68
     0
279
    -2
289
     1
 69
     0
  7
STANDARD
140
0.25
170
     5
 62
     0
 63
     7
283
     0
274
    -2
284
     1
 64
     0
275
    -2
285
     1
 65
     0
276
    -2
286
     1
 66
     0
277
    -2
287
     1
 67
     0
278
    -2
288
     1
 68
     0
279
    -2
289
     1
 69
     0
  7
STANDARD
140
0.18
170
     5
 62
     0
 63
     7
283
     0
274
    -2
284
     1
 64
     0
275
    -2
285
     1
 65
     0
276
    -2
286
     1
 66
     0
277
    -2
287
     1
 67
     0
278
    -2
288
     1
 68
     0
279
    -2
289
     1
 69
     0
  0
VISUALSTYLE
  5
AD7A
102
{ACAD_XDICTIONARY
360
ADD8
102
}
102
{ACAD_REACTORS
330
AD74
102
}
330
AD74
100
AcDbVisualStyle
  2
2dWireframe
 70
     4
 71
     0
 72
     2
 73
     0
 90
        0
 40
-0.6
 41
-30.0
 62
     5
 63
     7
 74
     1
 91
        4
 64
     7
 65
   257
 75
     1
175
     1
 42
1.0
 92
        0
 66
   257
 43
1.0
 76
     1
 77
     6
 78
     2
 67
     7
 79
     5
170
     0
171
     0
290
     0
174
     0
 93
        1
 44
0.0
173
     0
291
     0
 45
0.0
1001
ACAD
1000
AcDbSavedByObjectVersion
1070
     0
  0
VISUALSTYLE
  5
AD79
102
{ACAD_XDICTIONARY
360
ADD6
102
}
102
{ACAD_REACTORS
330
AD74
102
}
330
AD74
100
AcDbVisualStyle
  2
Basic
 70
     7
 71
     1
 72
     0
 73
     1
 90
        0
 40
-0.6
 41
-30.0
 62
     5
 63
     7
 74
     0
 91
        4
 64
     7
 65
   257
 75
     1
175
     1
 42
1.0
 92
        8
 66
     7
 43
1.0
 76
     1
 77
     6
 78
     2
 67
     7
 79
     5
170
     0
171
     0
290
     0
174
     0
 93
        1
 44
0.0
173
     0
291
     1
 45
0.0
1001
ACAD
1000
AcDbSavedByObjectVersion
1070
     0
  0
VISUALSTYLE
  5
AD80
102
{ACAD_XDICTIONARY
360
ADE4
102
}
102
{ACAD_REACTORS
330
AD74
102
}
330
AD74
100
AcDbVisualStyle
  2
Brighten
 70
    12
 71
     2
 72
     2
 73
     0
 90
        0
 40
-0.6
 41
-30.0
 62
     5
 63
     7
 74
     1
 91
        4
 64
     7
 65
   257
 75
     1
175
     1
 42
1.0
 92
        8
 66
     7
 43
1.0
 76
     1
 77
     6
 78
     2
 67
     7
 79
     5
170
     0
171
     0
290
     0
174
     0
 93
        1
 44
50.0
173
     0
291
     1
 45
0.0
1001
ACAD
1000
AcDbSavedByObjectVersion
1070
     0
  0
VISUALSTYLE
  5
AD84
102
{ACAD_XDICTIONARY
360
ADEC
102
}
102
{ACAD_REACTORS
330
AD74
102
}
330
AD74
100
AcDbVisualStyle
  2
ColorChange
 70
    16
 71
     2
 72
     2
 73
     3
 90
        0
 40
-0.6
 41
-30.0
 62
     5
 63
     8
 74
     1
 91
        4
 64
     7
 65
   257
 75
     1
175
     1
 42
1.0
 92
        8
 66
     8
 43
1.0
 76
     1
 77
     6
 78
     2
 67
     7
 79
     5
170
     0
171
     0
290
     0
174
     0
 93
        1
 44
0.0
173
     0
291
     1
 45
0.0
1001
ACAD
1000
AcDbSavedByObjectVersion
1070
     0
  0
VISUALSTYLE
  5
AD7D
102
{ACAD_XDICTIONARY
360
ADDE
102
}
102
{ACAD_REACTORS
330
AD74
102
}
330
AD74
100
AcDbVisualStyle
  2
Conceptual
 70
     9
 71
     3
 72
     2
 73
     0
 90
        0
 40
-0.6
 41
-30.0
 62
     5
 63
     7
 74
     2
 91
        2
 64
     7
 65
   257
 75
     1
175
     1
 42
179.0
 92
        8
 66
     7
 43
1.0
 76
     1
 77
     6
 78
     2
 67
     7
 79
     3
170
     0
171
     0
290
     0
174
     0
 93
        1
 44
0.0
173
     0
291
     0
 45
0.0
1001
ACAD
1000
AcDbSavedByObjectVersion
1070
     0
  0
VISUALSTYLE
  5
AD7F
102
{ACAD_XDICTIONARY
360
ADE2
102
}
102
{ACAD_REACTORS
330
AD74
102
}
330
AD74
100
AcDbVisualStyle
  2
Dim
 70
    11
 71
     2
 72
     2
 73
     0
 90
        0
 40
-0.6
 41
-30.0
 62
     5
 63
     7
 74
     1
 91
        4
 64
     7
 65
   257
 75
     1
175
     1
 42
1.0
 92
        8
 66
     7
 43
1.0
 76
     1
 77
     6
 78
     2
 67
     7
 79
     5
170
     0
171
     0
290
     0
174
     0
 93
        1
 44
-50.0
173
     0
291
     1
 45
0.0
1001
ACAD
1000
AcDbSavedByObjectVersion
1070
     0
  0
VISUALSTYLE
  5
AD8C
102
{ACAD_XDICTIONARY
360
ADFC
102
}
102
{ACAD_REACTORS
330
AD74
102
}
330
AD74
100
AcDbVisualStyle
  2
EdgeColorOff
 70
    22
 71
     2
 72
     2
 73
     0
 90
        0
 40
-0.6
 41
-30.0
 62
     5
 63
     7
 74
     1
 91
        4
 64
     7
 65
   257
 75
     1
175
     1
 42
1.0
 92
        8
 66
     7
 43
1.0
 76
     1
 77
     6
 78
     2
 67
     7
 79
     5
170
     0
171
     0
290
     0
174
     0
 93
        1
 44
0.0
173
     0
291
     1
 45
0.0
1001
ACAD
1000
AcDbSavedByObjectVersion
1070
     0
  0
VISUALSTYLE
  5
AD83
102
{ACAD_XDICTIONARY
360
ADEA
102
}
102
{ACAD_REACTORS
330
AD74
102
}
330
AD74
100
AcDbVisualStyle
  2
Facepattern
 70
    15
 71
     2
 72
     2
 73
     0
 90
        0
 40
-0.6
 41
-30.0
 62
     5
 63
     7
 74
     1
 91
        4
 64
     7
 65
   257
 75
     1
175
     1
 42
1.0
 92
        8
 66
     7
 43
1.0
 76
     1
 77
     6
 78
     2
 67
     7
 79
     5
170
     0
171
     0
290
     0
174
     0
 93
        1
 44
0.0
173
     0
291
     1
 45
0.0
1001
ACAD
1000
AcDbSavedByObjectVersion
1070
     0
  0
VISUALSTYLE
  5
AD75
102
{ACAD_XDICTIONARY
360
ADCE
102
}
102
{ACAD_REACTORS
330
AD74
102
}
330
AD74
100
AcDbVisualStyle
  2
Flat
 70
     0
 71
     2
 72
     1
 73
     1
 90
        2
 40
-0.6
 41
30.0
 62
     5
 63
     7
 74
     0
 91
        0
 64
     7
 65
   257
 75
     1
175
     1
 42
1.0
 92
        8
 66
     7
 43
1.0
 76
     1
 77
     6
 78
     2
 67
     7
 79
     5
170
     0
171
     0
290
     0
174
     0
 93
       13
 44
0.0
173
     0
291
     1
 45
0.0
1001
ACAD
1000
AcDbSavedByObjectVersion
1070
     0
  0
VISUALSTYLE
  5
AD76
102
{ACAD_XDICTIONARY
360
ADD0
102
}
102
{ACAD_REACTORS
330
AD74
102
}
330
AD74
100
AcDbVisualStyle
  2
FlatWithEdges
 70
     1
 71
     2
 72
     1
 73
     1
 90
        2
 40
-0.6
 41
30.0
 62
     5
 63
     7
 74
     1
 91
        0
 64
     7
 65
   257
 75
     1
175
     1
 42
1.0
 92
        0
 66
   257
 43
1.0
 76
     1
 77
     6
 78
     2
 67
     7
 79
     5
170
     0
171
     0
290
     0
174
     0
 93
       13
 44
0.0
173
     0
291
     1
 45
0.0
1001
ACAD
1000
AcDbSavedByObjectVersion
1070
     0
  0
VISUALSTYLE
  5
AD77
102
{ACAD_XDICTIONARY
360
ADD2
102
}
102
{ACAD_REACTORS
330
AD74
102
}
330
AD74
100
AcDbVisualStyle
  2
Gouraud
 70
     2
 71
     2
 72
     2
 73
     1
 90
        2
 40
-0.6
 41
30.0
 62
     5
 63
     7
 74
     0
 91
        0
 64
     7
 65
   257
 75
     1
175
     1
 42
1.0
 92
        0
 66
     7
 43
1.0
 76
     1
 77
     6
 78
     2
 67
     7
 79
     5
170
     0
171
     0
290
     0
174
     0
 93
       13
 44
0.0
173
     0
291
     1
 45
0.0
1001
ACAD
1000
AcDbSavedByObjectVersion
1070
     0
  0
VISUALSTYLE
  5
AD78
102
{ACAD_XDICTIONARY
360
ADD4
102
}
102
{ACAD_REACTORS
330
AD74
102
}
330
AD74
100
AcDbVisualStyle
  2
GouraudWithEdges
 70
     3
 71
     2
 72
     2
 73
     1
 90
        2
 40
-0.6
 41
30.0
 62
     5
 63
     7
 74
     1
 91
        0
 64
     7
 65
   257
 75
     1
175
     1
 42
1.0
 92
        0
 66
   257
 43
1.0
 76
     1
 77
     6
 78
     2
 67
     7
 79
     5
170
     0
171
     0
290
     0
174
     0
 93
       13
 44
0.0
173
     0
291
     1
 45
0.0
1001
ACAD
1000
AcDbSavedByObjectVersion
1070
     0
  0
VISUALSTYLE
  5
AD7C
102
{ACAD_XDICTIONARY
360
ADDC
102
}
102
{ACAD_REACTORS
330
AD74
102
}
330
AD74
100
AcDbVisualStyle
  2
Hidden
 70
     6
 71
     1
 72
     2
 73
     2
 90
        0
 40
-0.6
 41
-30.0
 62
     5
 63
     7
 74
     2
 91
        2
 64
     7
 65
   257
 75
     2
175
     1
 42
40.0
 92
        0
 66
   257
 43
1.0
 76
     1
 77
     6
 78
     2
 67
     7
 79
     3
170
     0
171
     0
290
     0
174
     0
 93
        1
 44
0.0
173
     0
291
     0
 45
0.0
1001
ACAD
1000
AcDbSavedByObjectVersion
1070
     0
  0
VISUALSTYLE
  5
AD8A
102
{ACAD_XDICTIONARY
360
ADF8
102
}
102
{ACAD_REACTORS
330
AD74
102
}
330
AD74
100
AcDbVisualStyle
  2
JitterOff
 70
    20
 71
     2
 72
     2
 73
     0
 90
        0
 40
-0.6
 41
-30.0
 62
     5
 63
     7
 74
     1
 91
        4
 64
     7
 65
   257
 75
     1
175
     1
 42
1.0
 92
       10
 66
     7
 43
1.0
 76
     1
 77
     6
 78
     2
 67
     7
 79
     5
170
     0
171
     0
290
     0
174
     0
 93
        1
 44
0.0
173
     0
291
     1
 45
0.0
1001
ACAD
1000
AcDbSavedByObjectVersion
1070
     0
  0
VISUALSTYLE
  5
AD82
102
{ACAD_XDICTIONARY
360
ADE8
102
}
102
{ACAD_REACTORS
330
AD74
102
}
330
AD74
100
AcDbVisualStyle
  2
Linepattern
 70
    14
 71
     2
 72
     2
 73
     0
 90
        0
 40
-0.6
 41
-30.0
 62
     5
 63
     7
 74
     1
 91
        4
 64
     7
 65
   257
 75
     7
175
     7
 42
1.0
 92
        8
 66
     7
 43
1.0
 76
     1
 77
     6
 78
     2
 67
     7
 79
     5
170
     0
171
     0
290
     0
174
     0
 93
        1
 44
0.0
173
     0
291
     1
 45
0.0
1001
ACAD
1000
AcDbSavedByObjectVersion
1070
     0
  0
VISUALSTYLE
  5
AD8B
102
{ACAD_XDICTIONARY
360
ADFA
102
}
102
{ACAD_REACTORS
330
AD74
102
}
330
AD74
100
AcDbVisualStyle
  2
OverhangOff
 70
    21
 71
     2
 72
     2
 73
     0
 90
        0
 40
-0.6
 41
-30.0
 62
     5
 63
     7
 74
     1
 91
        4
 64
     7
 65
   257
 75
     1
175
     1
 42
1.0
 92
        9
 66
     7
 43
1.0
 76
     1
 77
     6
 78
     2
 67
     7
 79
     5
170
     0
171
     0
290
     0
174
     0
 93
        1
 44
0.0
173
     0
291
     1
 45
0.0
1001
ACAD
1000
AcDbSavedByObjectVersion
1070
     0
  0
VISUALSTYLE
  5
AD7E
102
{ACAD_XDICTIONARY
360
ADE0
102
}
102
{ACAD_REACTORS
330
AD74
102
}
330
AD74
100
AcDbVisualStyle
  2
Realistic
 70
     8
 71
     2
 72
     3
 73
     0
 90
        2
 40
-0.6
 41
30.0
 62
     5
 63
     7
 74
     0
 91
        0
 64
     7
 65
   257
 75
     1
175
     1
 42
1.0
 92
        8
 66
   257
 43
1.0
 76
     1
 77
     6
 78
     2
 67
     7
 79
     3
170
     0
171
     0
290
     0
174
     0
 93
       13
 44
0.0
173
     0
291
     0
 45
0.0
1001
ACAD
1000
AcDbSavedByObjectVersion
1070
     0
  0
VISUALSTYLE
  5
AD89
102
{ACAD_XDICTIONARY
360
ADF6
102
}
102
{ACAD_REACTORS
330
AD74
102
}
330
AD74
100
AcDbVisualStyle
  2
Shaded
 70
    27
 71
     2
 72
     2
 73
     1
 90
        2
 40
-0.6
 41
30.0
 62
     5
 63
     7
 74
     0
 91
        4
 64
     7
 65
   257
 75
     1
175
     1
 42
1.0
 92
        8
 66
   257
 43
1.0
 76
     1
 77
     6
 78
     2
 67
     8
 79
     3
170
     0
171
     0
290
     0
174
     0
 93
        5
 44
0.0
173
     0
291
     0
 45
0.0
1001
ACAD
1000
AcDbSavedByObjectVersion
1070
     0
  0
VISUALSTYLE
  5
AD88
102
{ACAD_XDICTIONARY
360
ADF4
102
}
102
{ACAD_REACTORS
330
AD74
102
}
330
AD74
100
AcDbVisualStyle
  2
Shaded with edges
 70
    26
 71
     2
 72
     2
 73
     1
 90
        2
 40
-0.6
 41
30.0
 62
     5
 63
     7
 74
     1
 91
       10
 64
     7
 65
   257
 75
     2
175
     1
 42
1.0
 92
        8
 66
   257
 43
1.0
 76
     1
 77
     6
 78
     2
 67
     7
 79
     3
170
     0
171
     0
290
     0
174
     0
 93
        5
 44
0.0
173
     0
291
     0
 45
0.0
1001
ACAD
1000
AcDbSavedByObjectVersion
1070
     0
  0
VISUALSTYLE
  5
AD85
102
{ACAD_XDICTIONARY
360
ADEE
102
}
102
{ACAD_REACTORS
330
AD74
102
}
330
AD74
100
AcDbVisualStyle
  2
Shades of Gray
 70
    23
 71
     2
 72
     2
 73
     3
 90
        0
 40
-0.6
 41
-30.0
 62
     5
 63
     7
 74
     2
 91
        2
 64
     7
 65
     7
 75
     1
175
     1
 42
40.0
 92
        8
 66
     7
 43
1.0
 76
     1
 77
     6
 78
     2
 67
     7
 79
     3
170
     0
171
     0
290
     0
174
     0
 93
        1
 44
0.0
173
     0
291
     0
 45
0.0
1001
ACAD
1000
AcDbSavedByObjectVersion
1070
     0
  0
VISUALSTYLE
  5
AD86
102
{ACAD_XDICTIONARY
360
ADF0
102
}
102
{ACAD_REACTORS
330
AD74
102
}
330
AD74
100
AcDbVisualStyle
  2
Sketchy
 70
    24
 71
     1
 72
     2
 73
     2
 90
        0
 40
-0.6
 41
-30.0
 62
     5
 63
     7
 74
     2
 91
        2
 64
     7
 65
     7
 75
     1
175
     1
 42
40.0
 92
       11
 66
     7
 43
1.0
 76
     1
 77
     6
 78
     2
 67
     7
 79
     6
170
     0
171
     0
290
     0
174
     0
 93
        1
 44
0.0
173
     0
291
     0
 45
0.0
1001
ACAD
1000
AcDbSavedByObjectVersion
1070
     0
  0
VISUALSTYLE
  5
AD81
102
{ACAD_XDICTIONARY
360
ADE6
102
}
102
{ACAD_REACTORS
330
AD74
102
}
330
AD74
100
AcDbVisualStyle
  2
Thicken
 70
    13
 71
     2
 72
     2
 73
     0
 90
        0
 40
-0.6
 41
-30.0
 62
     5
 63
     7
 74
     1
 91
        4
 64
     7
 65
   257
 75
     1
175
     1
 42
1.0
 92
       12
 66
     7
 43
1.0
 76
     1
 77
     6
 78
     2
 67
     7
 79
     5
170
     0
171
     0
290
     0
174
     0
 93
        1
 44
0.0
173
     0
291
     1
 45
0.0
1001
ACAD
1000
AcDbSavedByObjectVersion
1070
     0
  0
VISUALSTYLE
  5
AD7B
102
{ACAD_XDICTIONARY
360
ADDA
102
}
102
{ACAD_REACTORS
330
AD74
102
}
330
AD74
100
AcDbVisualStyle
  2
Wireframe
 70
     5
 71
     0
 72
     2
 73
     0
 90
        0
 40
-0.6
 41
-30.0
 62
     5
 63
     7
 74
     1
 91
        4
 64
     7
 65
   257
 75
     1
175
     1
 42
1.0
 92
        0
 66
   257
 43
1.0
 76
     1
 77
     6
 78
     2
 67
     7
 79
     3
170
     0
171
     0
290
     0
174
     0
 93
        1
 44
0.0
173
     0
291
     0
 45
0.0
1001
ACAD
1000
AcDbSavedByObjectVersion
1070
     0
  0
VISUALSTYLE
  5
AD87
102
{ACAD_XDICTIONARY
360
ADF2
102
}
102
{ACAD_REACTORS
330
AD74
102
}
330
AD74
100
AcDbVisualStyle
  2
X-Ray
 70
    25
 71
     2
 72
     2
 73
     1
 90
        1
 40
0.5
 41
-30.0
 62
     5
 63
     7
 74
     1
 91
        0
 64
     7
 65
   257
 75
     1
175
     1
 42
1.0
 92
        8
 66
     7
 43
1.0
 76
     1
 77
     6
 78
     2
 67
     7
 79
     3
170
     0
171
     0
290
     0
174
     0
 93
       13
 44
0.0
173
     0
291
     0
 45
0.0
1001
ACAD
1000
AcDbSavedByObjectVersion
1070
     0
  0
DICTIONARYVAR
  5
ADC1
102
{ACAD_REACTORS
330
ADBC
102
}
330
ADBC
100
DictionaryVariables
280
     0
  1
1:1
  0
DICTIONARYVAR
  5
ADBE
102
{ACAD_REACTORS
330
ADBC
102
}
330
ADBC
100
DictionaryVariables
280
     0
  1
STANDARD
  0
DICTIONARYVAR
  5
ADBD
102
{ACAD_REACTORS
330
ADBC
102
}
330
ADBC
100
DictionaryVariables
280
     0
  1
STANDARD
  0
DICTIONARYVAR
  5
ADBF
102
{ACAD_REACTORS
330
ADBC
102
}
330
ADBC
100
DictionaryVariables
280
     0
  1
Imperial24
  0
DICTIONARYVAR
  5
ADC0
102
{ACAD_REACTORS
330
ADBC
102
}
330
ADBC
100
DictionaryVariables
280
     0
  1
Imperial24
  0
DICTIONARYVAR
  5
ADC4
102
{ACAD_REACTORS
330
ADBC
102
}
330
ADBC
100
DictionaryVariables
280
     0
  1
1
  0
DICTIONARYVAR
  5
ADC3
102
{ACAD_REACTORS
330
ADBC
102
}
330
ADBC
100
DictionaryVariables
280
     0
  1
0
  0
DICTIONARYVAR
  5
ADC2
102
{ACAD_REACTORS
330
ADBC
102
}
330
ADBC
100
DictionaryVariables
280
     0
  1
127
  0
DICTIONARYVAR
  5
ADC5
102
{ACAD_REACTORS
330
ADBC
102
}
330
ADBC
100
DictionaryVariables
280
     0
  1
2
  0
DICTIONARY
  5
AE02
330
ADA7
100
AcDbDictionary
280
     1
281
     1
  3
ACAD_XREC_ROUNDTRIP
360
AE03
  0
DICTIONARY
  5
AE04
330
ADA8
100
AcDbDictionary
280
     1
281
     1
  3
ACAD_XREC_ROUNDTRIP
360
AE05
  0
DICTIONARY
  5
AE06
330
ADA9
100
AcDbDictionary
280
     1
281
     1
  3
ACAD_XREC_ROUNDTRIP
360
AE07
  0
DICTIONARY
  5
AD65
330
AD64
100
AcDbDictionary
280
     1
281
     1
  3
ACAD_XREC_ROUNDTRIP
360
ADCC
  3
BUMPTILE
360
AD67
  3
DIFFUSETILE
360
AD66
  3
OPACITYTILE
360
AD6A
  3
REFLECTIONTILE
360
AD69
  3
REFRACTIONTILE
360
AD6B
  3
SPECULARTILE
360
AD68
  0
DICTIONARY
  5
AD5D
330
AD5C
100
AcDbDictionary
280
     1
281
     1
  3
ACAD_XREC_ROUNDTRIP
360
ADCB
  3
BUMPTILE
360
AD5F
  3
DIFFUSETILE
360
AD5E
  3
OPACITYTILE
360
AD62
  3
REFLECTIONTILE
360
AD61
  3
REFRACTIONTILE
360
AD63
  3
SPECULARTILE
360
AD60
  0
DICTIONARY
  5
AD6D
330
AD6C
100
AcDbDictionary
280
     1
281
     1
  3
ACAD_XREC_ROUNDTRIP
360
ADCD
  3
BUMPTILE
360
AD6F
  3
DIFFUSETILE
360
AD6E
  3
OPACITYTILE
360
AD72
  3
REFLECTIONTILE
360
AD71
  3
REFRACTIONTILE
360
AD73
  3
SPECULARTILE
360
AD70
  0
DICTIONARY
  5
AE00
330
ADA5
100
AcDbDictionary
280
     1
281
     1
  3
ACAD_XREC_ROUNDTRIP
360
AE01
  0
DICTIONARY
  5
ADC7
330
AD8F
100
AcDbDictionary
280
     1
281
     1
  3
ACAD_ROUNDTRIP_2008_TABLESTYLE_CELLSTYLEMAP
360
ADC8
  3
ACAD_XREC_ROUNDTRIP
360
ADFE
  0
DICTIONARY
  5
ADD8
330
AD7A
100
AcDbDictionary
280
     1
281
     1
  3
ACAD_XREC_ROUNDTRIP
360
ADD9
  0
DICTIONARY
  5
ADD6
330
AD79
100
AcDbDictionary
280
     1
281
     1
  3
ACAD_XREC_ROUNDTRIP
360
ADD7
  0
DICTIONARY
  5
ADE4
330
AD80
100
AcDbDictionary
280
     1
281
     1
  3
ACAD_XREC_ROUNDTRIP
360
ADE5
  0
DICTIONARY
  5
ADEC
330
AD84
100
AcDbDictionary
280
     1
281
     1
  3
ACAD_XREC_ROUNDTRIP
360
ADED
  0
DICTIONARY
  5
ADDE
330
AD7D
100
AcDbDictionary
280
     1
281
     1
  3
ACAD_XREC_ROUNDTRIP
360
ADDF
  0
DICTIONARY
  5
ADE2
330
AD7F
100
AcDbDictionary
280
     1
281
     1
  3
ACAD_XREC_ROUNDTRIP
360
ADE3
  0
DICTIONARY
  5
ADFC
330
AD8C
100
AcDbDictionary
280
     1
281
     1
  3
ACAD_XREC_ROUNDTRIP
360
ADFD
  0
DICTIONARY
  5
ADEA
330
AD83
100
AcDbDictionary
280
     1
281
     1
  3
ACAD_XREC_ROUNDTRIP
360
ADEB
  0
DICTIONARY
  5
ADCE
330
AD75
100
AcDbDictionary
280
     1
281
     1
  3
ACAD_XREC_ROUNDTRIP
360
ADCF
  0
DICTIONARY
  5
ADD0
330
AD76
100
AcDbDictionary
280
     1
281
     1
  3
ACAD_XREC_ROUNDTRIP
360
ADD1
  0
DICTIONARY
  5
ADD2
330
AD77
100
AcDbDictionary
280
     1
281
     1
  3
ACAD_XREC_ROUNDTRIP
360
ADD3
  0
DICTIONARY
  5
ADD4
330
AD78
100
AcDbDictionary
280
     1
281
     1
  3
ACAD_XREC_ROUNDTRIP
360
ADD5
  0
DICTIONARY
  5
ADDC
330
AD7C
100
AcDbDictionary
280
     1
281
     1
  3
ACAD_XREC_ROUNDTRIP
360
ADDD
  0
DICTIONARY
  5
ADF8
330
AD8A
100
AcDbDictionary
280
     1
281
     1
  3
ACAD_XREC_ROUNDTRIP
360
ADF9
  0
DICTIONARY
  5
ADE8
330
AD82
100
AcDbDictionary
280
     1
281
     1
  3
ACAD_XREC_ROUNDTRIP
360
ADE9
  0
DICTIONARY
  5
ADFA
330
AD8B
100
AcDbDictionary
280
     1
281
     1
  3
ACAD_XREC_ROUNDTRIP
360
ADFB
  0
DICTIONARY
  5
ADE0
330
AD7E
100
AcDbDictionary
280
     1
281
     1
  3
ACAD_XREC_ROUNDTRIP
360
ADE1
  0
DICTIONARY
  5
ADF6
330
AD89
100
AcDbDictionary
280
     1
281
     1
  3
ACAD_XREC_ROUNDTRIP
360
ADF7
  0
DICTIONARY
  5
ADF4
330
AD88
100
AcDbDictionary
280
     1
281
     1
  3
ACAD_XREC_ROUNDTRIP
360
ADF5
  0
DICTIONARY
  5
ADEE
330
AD85
100
AcDbDictionary
280
     1
281
     1
  3
ACAD_XREC_ROUNDTRIP
360
ADEF
  0
DICTIONARY
  5
ADF0
330
AD86
100
AcDbDictionary
280
     1
281
     1
  3
ACAD_XREC_ROUNDTRIP
360
ADF1
  0
DICTIONARY
  5
ADE6
330
AD81
100
AcDbDictionary
280
     1
281
     1
  3
ACAD_XREC_ROUNDTRIP
360
ADE7
  0
DICTIONARY
  5
ADDA
330
AD7B
100
AcDbDictionary
280
     1
281
     1
  3
ACAD_XREC_ROUNDTRIP
360
ADDB
  0
DICTIONARY
  5
ADF2
330
AD87
100
AcDbDictionary
280
     1
281
     1
  3
ACAD_XREC_ROUNDTRIP
360
ADF3
  0
XRECORD
  5
AE03
102
{ACAD_REACTORS
330
AE02
102
}
330
AE02
100
AcDbXrecord
280
     1
102
DISPLAYNAME
  1
Imperial24
102
FLAGS
 90
        0
  0
XRECORD
  5
AE05
102
{ACAD_REACTORS
330
AE04
102
}
330
AE04
100
AcDbXrecord
280
     1
102
SHADEPLOT
 70
     0
102
SHADEPLOTRESLEVEL
 70
     2
102
SHADEPLOTCUSTOMDPI
 70
   300
  0
XRECORD
  5
AE07
102
{ACAD_REACTORS
330
AE06
102
}
330
AE06
100
AcDbXrecord
280
     1
102
SHADEPLOT
 70
     0
102
SHADEPLOTRESLEVEL
 70
     2
102
SHADEPLOTCUSTOMDPI
 70
   300
  0
XRECORD
  5
ADCC
102
{ACAD_REACTORS
330
AD65
102
}
330
AD65
100
AcDbXrecord
280
     1
102
MATERIAL
148
0.0
149
0.0
149
0.0
 93
        0
 94
      127
282
     0
 72
     0
 77
     0
171
     0
175
     0
179
     0
273
     0
  0
XRECORD
  5
AD67
102
{ACAD_REACTORS
330
AD65
102
}
330
AD65
100
AcDbXrecord
280
     1
270
     1
271
     1
  0
XRECORD
  5
AD66
102
{ACAD_REACTORS
330
AD65
102
}
330
AD65
100
AcDbXrecord
280
     1
270
     1
271
     1
  0
XRECORD
  5
AD6A
102
{ACAD_REACTORS
330
AD65
102
}
330
AD65
100
AcDbXrecord
280
     1
270
     1
271
     1
  0
XRECORD
  5
AD69
102
{ACAD_REACTORS
330
AD65
102
}
330
AD65
100
AcDbXrecord
280
     1
270
     1
271
     1
  0
XRECORD
  5
AD6B
102
{ACAD_REACTORS
330
AD65
102
}
330
AD65
100
AcDbXrecord
280
     1
270
     1
271
     1
  0
XRECORD
  5
AD68
102
{ACAD_REACTORS
330
AD65
102
}
330
AD65
100
AcDbXrecord
280
     1
270
     1
271
     1
  0
XRECORD
  5
ADCB
102
{ACAD_REACTORS
330
AD5D
102
}
330
AD5D
100
AcDbXrecord
280
     1
102
MATERIAL
148
0.0
149
0.0
149
0.0
 93
        0
 94
      127
282
     0
 72
     0
 77
     0
171
     0
175
     0
179
     0
273
     0
  0
XRECORD
  5
AD5F
102
{ACAD_REACTORS
330
AD5D
102
}
330
AD5D
100
AcDbXrecord
280
     1
270
     1
271
     1
  0
XRECORD
  5
AD5E
102
{ACAD_REACTORS
330
AD5D
102
}
330
AD5D
100
AcDbXrecord
280
     1
270
     1
271
     1
  0
XRECORD
  5
AD62
102
{ACAD_REACTORS
330
AD5D
102
}
330
AD5D
100
AcDbXrecord
280
     1
270
     1
271
     1
  0
XRECORD
  5
AD61
102
{ACAD_REACTORS
330
AD5D
102
}
330
AD5D
100
AcDbXrecord
280
     1
270
     1
271
     1
  0
XRECORD
  5
AD63
102
{ACAD_REACTORS
330
AD5D
102
}
330
AD5D
100
AcDbXrecord
280
     1
270
     1
271
     1
  0
XRECORD
  5
AD60
102
{ACAD_REACTORS
330
AD5D
102
}
330
AD5D
100
AcDbXrecord
280
     1
270
     1
271
     1
  0
XRECORD
  5
ADCD
102
{ACAD_REACTORS
330
AD6D
102
}
330
AD6D
100
AcDbXrecord
280
     1
102
MATERIAL
148
0.0
149
0.0
149
0.0
 93
        0
 94
      127
282
     0
 72
     0
 77
     0
171
     0
175
     0
179
     0
273
     0
  0
XRECORD
  5
AD6F
102
{ACAD_REACTORS
330
AD6D
102
}
330
AD6D
100
AcDbXrecord
280
     1
270
     1
271
     1
  0
XRECORD
  5
AD6E
102
{ACAD_REACTORS
330
AD6D
102
}
330
AD6D
100
AcDbXrecord
280
     1
270
     1
271
     1
  0
XRECORD
  5
AD72
102
{ACAD_REACTORS
330
AD6D
102
}
330
AD6D
100
AcDbXrecord
280
     1
270
     1
271
     1
  0
XRECORD
  5
AD71
102
{ACAD_REACTORS
330
AD6D
102
}
330
AD6D
100
AcDbXrecord
280
     1
270
     1
271
     1
  0
XRECORD
  5
AD73
102
{ACAD_REACTORS
330
AD6D
102
}
330
AD6D
100
AcDbXrecord
280
     1
270
     1
271
     1
  0
XRECORD
  5
AD70
102
{ACAD_REACTORS
330
AD6D
102
}
330
AD6D
100
AcDbXrecord
280
     1
270
     1
271
     1
  0
XRECORD
  5
AE01
102
{ACAD_REACTORS
330
AE00
102
}
330
AE00
100
AcDbXrecord
280
     1
102
DISPLAYNAME
  1
Imperial24
102
FLAGS
 90
        0
  0
CELLSTYLEMAP
  5
ADC8
102
{ACAD_REACTORS
330
ADC7
102
}
330
ADC7
100
AcDbCellStyleMap
 90
        3
300
CELLSTYLE
  1
TABLEFORMAT_BEGIN
 90
        5
170
     1
 91
        0
 92
    32768
 62
   257
 93
        1
300
CONTENTFORMAT
  1
CONTENTFORMAT_BEGIN
 90
        0
 91
        0
 92
      512
 93
        0
300

 40
0.0
140
1.0
 94
        5
 62
     0
340
A7CD
144
0.25
309
CONTENTFORMAT_END
171
     0
 94
        0
309
TABLEFORMAT_END
  1
CELLSTYLE_BEGIN
 90
        1
 91
        1
300
_TITLE
309
CELLSTYLE_END
300
CELLSTYLE
  1
TABLEFORMAT_BEGIN
 90
        5
170
     1
 91
        0
 92
        0
 62
   257
 93
        1
300
CONTENTFORMAT
  1
CONTENTFORMAT_BEGIN
 90
        0
 91
        0
 92
      512
 93
        0
300

 40
0.0
140
1.0
 94
        5
 62
     0
340
A7CD
144
0.18
309
CONTENTFORMAT_END
171
     0
 94
        0
309
TABLEFORMAT_END
  1
CELLSTYLE_BEGIN
 90
        2
 91
        1
300
_HEADER
309
CELLSTYLE_END
300
CELLSTYLE
  1
TABLEFORMAT_BEGIN
 90
        5
170
     1
 91
        0
 92
        0
 62
   257
 93
        1
300
CONTENTFORMAT
  1
CONTENTFORMAT_BEGIN
 90
        0
 91
        0
 92
      512
 93
        0
300

 40
0.0
140
1.0
 94
        2
 62
     0
340
A7CD
144
0.18
309
CONTENTFORMAT_END
171
     0
 94
        0
309
TABLEFORMAT_END
  1
CELLSTYLE_BEGIN
 90
        3
 91
        2
300
_DATA
309
CELLSTYLE_END
  0
XRECORD
  5
ADFE
102
{ACAD_REACTORS
330
ADC7
102
}
330
ADC7
100
AcDbXrecord
280
     1
102
ACAD_ROUNDTRIP_PRE2007_TABLESTYLE
 90
      512
 91
        0
  1

 92
      512
 93
        0
  2

 94
      512
 95
        0
  3

  0
XRECORD
  5
ADD9
102
{ACAD_REACTORS
330
ADD8
102
}
330
ADD8
100
AcDbXrecord
280
     1
102
RTVSPost2010Prop28
280
     1
102
RTVSPost2010PropOp28
 70
     1
102
RTVSPost2010Prop29
280
     1
102
RTVSPost2010PropOp29
 70
     1
102
RTVSPost2010Prop30
280
     0
102
RTVSPost2010PropOp30
 70
     1
102
RTVSPost2010Prop31
280
     0
102
RTVSPost2010PropOp31
 70
     1
102
RTVSPost2010Prop32
280
     0
102
RTVSPost2010PropOp32
 70
     1
102
RTVSPost2010Prop33
280
     0
102
RTVSPost2010PropOp33
 70
     1
102
RTVSPost2010Prop34
280
     0
102
RTVSPost2010PropOp34
 70
     1
102
RTVSPost2010Prop35
280
     0
102
RTVSPost2010PropOp35
 70
     1
102
RTVSPost2010Prop36
280
     0
102
RTVSPost2010PropOp36
 70
     1
102
RTVSPost2010Prop37
 90
       50
102
RTVSPost2010PropOp37
 70
     1
102
RTVSPost2010Prop38
140
0.0
102
RTVSPost2010PropOp38
 70
     1
102
RTVSPost2010Prop39
140
1.0
102
RTVSPost2010PropOp39
 70
     1
102
RTVSPost2010Prop40
 90
        0
102
RTVSPost2010PropOp40
 70
     1
102
RTVSPost2010Prop41ColorIndex
 90
       18
102
RTVSPost2010Prop41ColorRGB
 90
        0
102
RTVSPost2010PropOp41
 70
     1
102
RTVSPost2010Prop42
 90
       50
102
RTVSPost2010PropOp42
 70
     1
102
RTVSPost2010Prop43
 90
        3
102
RTVSPost2010PropOp43
 70
     1
102
RTVSPost2010Prop44ColorIndex
 90
        5
102
RTVSPost2010Prop44ColorRGB
 90
      255
102
RTVSPost2010PropOp44
 70
     1
102
RTVSPost2010Prop45
280
     0
102
RTVSPost2010PropOp45
 70
     1
102
RTVSPost2010Prop46
 90
       50
102
RTVSPost2010PropOp46
 70
     1
102
RTVSPost2010Prop47
 90
       50
102
RTVSPost2010PropOp47
 70
     1
102
RTVSPost2010Prop48
 90
       50
102
RTVSPost2010PropOp48
 70
     1
102
RTVSPost2010Prop49
280
     0
102
RTVSPost2010PropOp49
 70
     1
102
RTVSPost2010Prop50
 90
       50
102
RTVSPost2010PropOp50
 70
     1
102
RTVSPost2010Prop51ColorIndex
 90
      256
102
RTVSPost2010Prop51ColorRGB
 90
-16777216
102
RTVSPost2010PropOp51
 70
     0
102
RTVSPost2010Prop52
140
1.0
102
RTVSPost2010PropOp52
 70
     0
102
RTVSPost2010Prop53
 90
        2
102
RTVSPost2010PropOp53
 70
     1
102
RTVSPost2010Prop54
  1
strokes_ogs.tif
102
RTVSPost2010PropOp54
 70
     1
102
RTVSPost2010Prop55
280
     0
102
RTVSPost2010PropOp55
 70
     1
102
RTVSPost2010Prop56
140
1.0
102
RTVSPost2010PropOp56
 70
     1
102
RTVSPost2010Prop57
140
1.0
102
RTVSPost2010PropOp57
 70
     1
102
RTVSPropertyOp0
 70
     1
102
RTVSPropertyOp1
 70
     1
102
RTVSPropertyOp2
 70
     1
102
RTVSPropertyOp3
 70
     1
102
RTVSPropertyOp4
 70
     1
102
RTVSPropertyOp5
 70
     1
102
RTVSPropertyOp6
 70
     1
102
RTVSPropertyOp7
 70
     1
102
RTVSPropertyOp8
 70
     1
102
RTVSPropertyOp9
 70
     1
102
RTVSPropertyOp10
 70
     1
102
RTVSPropertyOp11
 70
     1
102
RTVSPropertyOp12
 70
     1
102
RTVSPropertyOp13
 70
     1
102
RTVSPropertyOp14
 70
     1
102
RTVSPropertyOp15
 70
     1
102
RTVSPropertyOp16
 70
     1
102
RTVSPropertyOp17
 70
     1
102
RTVSPropertyOp18
 70
     1
102
RTVSPropertyOp19
 70
     1
102
RTVSPropertyOp20
 70
     1
102
RTVSPropertyOp21
 70
     1
102
RTVSPropertyOp22
 70
     1
102
RTVSPropertyOp23
 70
     1
102
RTVSPropertyOp24
 70
     1
102
RTVSPropertyOp25
 70
     1
102
RTVSPropertyOp26
 70
     1
102
RTVSPropertyOp27
 70
     1
102
RTVSPropertyOp28
 70
     1
102
RTVSPropertyOp29
 70
     1
102
RTVSPropertyOp30
 70
     1
102
RTVSPropertyOp31
 70
     1
102
RTVSPropertyOp32
 70
     1
102
RTVSPropertyOp33
 70
     1
102
RTVSPropertyOp34
 70
     1
102
RTVSPropertyOp35
 70
     1
102
RTVSPropertyOp36
 70
     1
102
RTVSPropertyOp37
 70
     1
102
RTVSPropertyOp38
 70
     1
102
RTVSPropertyOp39
 70
     1
102
RTVSPropertyOp40
 70
     1
102
RTVSPropertyOp41
 70
     1
102
RTVSPropertyOp42
 70
     1
102
RTVSPropertyOp43
 70
     1
102
RTVSPropertyOp44
 70
     1
102
RTVSPropertyOp45
 70
     1
102
RTVSPropertyOp46
 70
     1
102
RTVSPropertyOp47
 70
     1
102
RTVSPropertyOp48
 70
     1
102
RTVSPropertyOp49
 70
     1
102
RTVSPropertyOp50
 70
     1
102
RTVSPropertyOp51
 70
     0
102
RTVSPropertyOp52
 70
     0
102
RTVSPropertyOp53
 70
     1
102
RTVSPropertyOp54
 70
     1
102
RTVSPropertyOp55
 70
     1
102
RTVSPropertyOp56
 70
     1
102
RTVSPropertyOp57
 70
     1
102
RTVSPropertyOp58
 70
     1
102
RTVSPropertyOp59
 70
     1
102
RTVSPropertyOp60
 70
     1
102
RTVSPropertyOp61
 70
     1
102
RTVSPropertyOp62
 70
     1
  0
XRECORD
  5
ADD7
102
{ACAD_REACTORS
330
ADD6
102
}
330
ADD6
100
AcDbXrecord
280
     1
102
RTVSPost2010Prop28
280
     0
102
RTVSPost2010PropOp28
 70
     1
102
RTVSPost2010Prop29
280
     1
102
RTVSPost2010PropOp29
 70
     1
102
RTVSPost2010Prop30
280
     1
102
RTVSPost2010PropOp30
 70
     1
102
RTVSPost2010Prop31
280
     0
102
RTVSPost2010PropOp31
 70
     1
102
RTVSPost2010Prop32
280
     0
102
RTVSPost2010PropOp32
 70
     1
102
RTVSPost2010Prop33
280
     0
102
RTVSPost2010PropOp33
 70
     1
102
RTVSPost2010Prop34
280
     0
102
RTVSPost2010PropOp34
 70
     1
102
RTVSPost2010Prop35
280
     0
102
RTVSPost2010PropOp35
 70
     1
102
RTVSPost2010Prop36
280
     0
102
RTVSPost2010PropOp36
 70
     1
102
RTVSPost2010Prop37
 90
       50
102
RTVSPost2010PropOp37
 70
     1
102
RTVSPost2010Prop38
140
0.0
102
RTVSPost2010PropOp38
 70
     1
102
RTVSPost2010Prop39
140
1.0
102
RTVSPost2010PropOp39
 70
     1
102
RTVSPost2010Prop40
 90
        0
102
RTVSPost2010PropOp40
 70
     1
102
RTVSPost2010Prop41ColorIndex
 90
       18
102
RTVSPost2010Prop41ColorRGB
 90
        0
102
RTVSPost2010PropOp41
 70
     1
102
RTVSPost2010Prop42
 90
       50
102
RTVSPost2010PropOp42
 70
     1
102
RTVSPost2010Prop43
 90
        3
102
RTVSPost2010PropOp43
 70
     1
102
RTVSPost2010Prop44ColorIndex
 90
        5
102
RTVSPost2010Prop44ColorRGB
 90
      255
102
RTVSPost2010PropOp44
 70
     1
102
RTVSPost2010Prop45
280
     0
102
RTVSPost2010PropOp45
 70
     1
102
RTVSPost2010Prop46
 90
       50
102
RTVSPost2010PropOp46
 70
     1
102
RTVSPost2010Prop47
 90
       50
102
RTVSPost2010PropOp47
 70
     1
102
RTVSPost2010Prop48
 90
       50
102
RTVSPost2010PropOp48
 70
     1
102
RTVSPost2010Prop49
280
     0
102
RTVSPost2010PropOp49
 70
     1
102
RTVSPost2010Prop50
 90
       50
102
RTVSPost2010PropOp50
 70
     1
102
RTVSPost2010Prop51ColorIndex
 90
      256
102
RTVSPost2010Prop51ColorRGB
 90
-16777216
102
RTVSPost2010PropOp51
 70
     0
102
RTVSPost2010Prop52
140
1.0
102
RTVSPost2010PropOp52
 70
     0
102
RTVSPost2010Prop53
 90
        2
102
RTVSPost2010PropOp53
 70
     1
102
RTVSPost2010Prop54
  1
strokes_ogs.tif
102
RTVSPost2010PropOp54
 70
     1
102
RTVSPost2010Prop55
280
     0
102
RTVSPost2010PropOp55
 70
     1
102
RTVSPost2010Prop56
140
1.0
102
RTVSPost2010PropOp56
 70
     1
102
RTVSPost2010Prop57
140
1.0
102
RTVSPost2010PropOp57
 70
     1
102
RTVSPropertyOp0
 70
     1
102
RTVSPropertyOp1
 70
     1
102
RTVSPropertyOp2
 70
     1
102
RTVSPropertyOp3
 70
     1
102
RTVSPropertyOp4
 70
     1
102
RTVSPropertyOp5
 70
     1
102
RTVSPropertyOp6
 70
     1
102
RTVSPropertyOp7
 70
     1
102
RTVSPropertyOp8
 70
     1
102
RTVSPropertyOp9
 70
     1
102
RTVSPropertyOp10
 70
     1
102
RTVSPropertyOp11
 70
     1
102
RTVSPropertyOp12
 70
     1
102
RTVSPropertyOp13
 70
     1
102
RTVSPropertyOp14
 70
     1
102
RTVSPropertyOp15
 70
     1
102
RTVSPropertyOp16
 70
     1
102
RTVSPropertyOp17
 70
     1
102
RTVSPropertyOp18
 70
     1
102
RTVSPropertyOp19
 70
     1
102
RTVSPropertyOp20
 70
     1
102
RTVSPropertyOp21
 70
     1
102
RTVSPropertyOp22
 70
     1
102
RTVSPropertyOp23
 70
     1
102
RTVSPropertyOp24
 70
     1
102
RTVSPropertyOp25
 70
     1
102
RTVSPropertyOp26
 70
     1
102
RTVSPropertyOp27
 70
     1
102
RTVSPropertyOp28
 70
     1
102
RTVSPropertyOp29
 70
     1
102
RTVSPropertyOp30
 70
     1
102
RTVSPropertyOp31
 70
     1
102
RTVSPropertyOp32
 70
     1
102
RTVSPropertyOp33
 70
     1
102
RTVSPropertyOp34
 70
     1
102
RTVSPropertyOp35
 70
     1
102
RTVSPropertyOp36
 70
     1
102
RTVSPropertyOp37
 70
     1
102
RTVSPropertyOp38
 70
     1
102
RTVSPropertyOp39
 70
     1
102
RTVSPropertyOp40
 70
     1
102
RTVSPropertyOp41
 70
     1
102
RTVSPropertyOp42
 70
     1
102
RTVSPropertyOp43
 70
     1
102
RTVSPropertyOp44
 70
     1
102
RTVSPropertyOp45
 70
     1
102
RTVSPropertyOp46
 70
     1
102
RTVSPropertyOp47
 70
     1
102
RTVSPropertyOp48
 70
     1
102
RTVSPropertyOp49
 70
     1
102
RTVSPropertyOp50
 70
     1
102
RTVSPropertyOp51
 70
     0
102
RTVSPropertyOp52
 70
     0
102
RTVSPropertyOp53
 70
     1
102
RTVSPropertyOp54
 70
     1
102
RTVSPropertyOp55
 70
     1
102
RTVSPropertyOp56
 70
     1
102
RTVSPropertyOp57
 70
     1
102
RTVSPropertyOp58
 70
     1
102
RTVSPropertyOp59
 70
     1
102
RTVSPropertyOp60
 70
     1
102
RTVSPropertyOp61
 70
     1
102
RTVSPropertyOp62
 70
     1
  0
XRECORD
  5
ADE5
102
{ACAD_REACTORS
330
ADE4
102
}
330
ADE4
100
AcDbXrecord
280
     1
102
RTVSPost2010Prop28
280
     0
102
RTVSPost2010PropOp28
 70
     1
102
RTVSPost2010Prop29
280
     1
102
RTVSPost2010PropOp29
 70
     1
102
RTVSPost2010Prop30
280
     1
102
RTVSPost2010PropOp30
 70
     1
102
RTVSPost2010Prop31
280
     0
102
RTVSPost2010PropOp31
 70
     1
102
RTVSPost2010Prop32
280
     0
102
RTVSPost2010PropOp32
 70
     1
102
RTVSPost2010Prop33
280
     0
102
RTVSPost2010PropOp33
 70
     1
102
RTVSPost2010Prop34
280
     0
102
RTVSPost2010PropOp34
 70
     1
102
RTVSPost2010Prop35
280
     0
102
RTVSPost2010PropOp35
 70
     1
102
RTVSPost2010Prop36
280
     0
102
RTVSPost2010PropOp36
 70
     1
102
RTVSPost2010Prop37
 90
       50
102
RTVSPost2010PropOp37
 70
     1
102
RTVSPost2010Prop38
140
0.0
102
RTVSPost2010PropOp38
 70
     1
102
RTVSPost2010Prop39
140
1.0
102
RTVSPost2010PropOp39
 70
     1
102
RTVSPost2010Prop40
 90
        0
102
RTVSPost2010PropOp40
 70
     1
102
RTVSPost2010Prop41ColorIndex
 90
       18
102
RTVSPost2010Prop41ColorRGB
 90
        0
102
RTVSPost2010PropOp41
 70
     1
102
RTVSPost2010Prop42
 90
       50
102
RTVSPost2010PropOp42
 70
     1
102
RTVSPost2010Prop43
 90
        3
102
RTVSPost2010PropOp43
 70
     1
102
RTVSPost2010Prop44ColorIndex
 90
        5
102
RTVSPost2010Prop44ColorRGB
 90
      255
102
RTVSPost2010PropOp44
 70
     1
102
RTVSPost2010Prop45
280
     0
102
RTVSPost2010PropOp45
 70
     1
102
RTVSPost2010Prop46
 90
       50
102
RTVSPost2010PropOp46
 70
     1
102
RTVSPost2010Prop47
 90
       50
102
RTVSPost2010PropOp47
 70
     1
102
RTVSPost2010Prop48
 90
       50
102
RTVSPost2010PropOp48
 70
     1
102
RTVSPost2010Prop49
280
     0
102
RTVSPost2010PropOp49
 70
     1
102
RTVSPost2010Prop50
 90
       50
102
RTVSPost2010PropOp50
 70
     1
102
RTVSPost2010Prop51ColorIndex
 90
      256
102
RTVSPost2010Prop51ColorRGB
 90
-16777216
102
RTVSPost2010PropOp51
 70
     0
102
RTVSPost2010Prop52
140
1.0
102
RTVSPost2010PropOp52
 70
     0
102
RTVSPost2010Prop53
 90
        2
102
RTVSPost2010PropOp53
 70
     1
102
RTVSPost2010Prop54
  1
strokes_ogs.tif
102
RTVSPost2010PropOp54
 70
     1
102
RTVSPost2010Prop55
280
     0
102
RTVSPost2010PropOp55
 70
     1
102
RTVSPost2010Prop56
140
1.0
102
RTVSPost2010PropOp56
 70
     1
102
RTVSPost2010Prop57
140
1.0
102
RTVSPost2010PropOp57
 70
     1
102
RTVSPropertyOp0
 70
     1
102
RTVSPropertyOp1
 70
     1
102
RTVSPropertyOp2
 70
     1
102
RTVSPropertyOp3
 70
     1
102
RTVSPropertyOp4
 70
     1
102
RTVSPropertyOp5
 70
     1
102
RTVSPropertyOp6
 70
     1
102
RTVSPropertyOp7
 70
     1
102
RTVSPropertyOp8
 70
     1
102
RTVSPropertyOp9
 70
     1
102
RTVSPropertyOp10
 70
     1
102
RTVSPropertyOp11
 70
     1
102
RTVSPropertyOp12
 70
     1
102
RTVSPropertyOp13
 70
     1
102
RTVSPropertyOp14
 70
     1
102
RTVSPropertyOp15
 70
     1
102
RTVSPropertyOp16
 70
     1
102
RTVSPropertyOp17
 70
     1
102
RTVSPropertyOp18
 70
     1
102
RTVSPropertyOp19
 70
     1
102
RTVSPropertyOp20
 70
     1
102
RTVSPropertyOp21
 70
     1
102
RTVSPropertyOp22
 70
     1
102
RTVSPropertyOp23
 70
     1
102
RTVSPropertyOp24
 70
     1
102
RTVSPropertyOp25
 70
     1
102
RTVSPropertyOp26
 70
     1
102
RTVSPropertyOp27
 70
     1
102
RTVSPropertyOp28
 70
     1
102
RTVSPropertyOp29
 70
     1
102
RTVSPropertyOp30
 70
     1
102
RTVSPropertyOp31
 70
     1
102
RTVSPropertyOp32
 70
     1
102
RTVSPropertyOp33
 70
     1
102
RTVSPropertyOp34
 70
     1
102
RTVSPropertyOp35
 70
     1
102
RTVSPropertyOp36
 70
     1
102
RTVSPropertyOp37
 70
     1
102
RTVSPropertyOp38
 70
     1
102
RTVSPropertyOp39
 70
     1
102
RTVSPropertyOp40
 70
     1
102
RTVSPropertyOp41
 70
     1
102
RTVSPropertyOp42
 70
     1
102
RTVSPropertyOp43
 70
     1
102
RTVSPropertyOp44
 70
     1
102
RTVSPropertyOp45
 70
     1
102
RTVSPropertyOp46
 70
     1
102
RTVSPropertyOp47
 70
     1
102
RTVSPropertyOp48
 70
     1
102
RTVSPropertyOp49
 70
     1
102
RTVSPropertyOp50
 70
     1
102
RTVSPropertyOp51
 70
     0
102
RTVSPropertyOp52
 70
     0
102
RTVSPropertyOp53
 70
     1
102
RTVSPropertyOp54
 70
     1
102
RTVSPropertyOp55
 70
     1
102
RTVSPropertyOp56
 70
     1
102
RTVSPropertyOp57
 70
     1
102
RTVSPropertyOp58
 70
     1
102
RTVSPropertyOp59
 70
     1
102
RTVSPropertyOp60
 70
     1
102
RTVSPropertyOp61
 70
     1
102
RTVSPropertyOp62
 70
     1
  0
XRECORD
  5
ADED
102
{ACAD_REACTORS
330
ADEC
102
}
330
ADEC
100
AcDbXrecord
280
     1
102
RTVSPost2010Prop28
280
     0
102
RTVSPost2010PropOp28
 70
     1
102
RTVSPost2010Prop29
280
     1
102
RTVSPost2010PropOp29
 70
     1
102
RTVSPost2010Prop30
280
     1
102
RTVSPost2010PropOp30
 70
     1
102
RTVSPost2010Prop31
280
     0
102
RTVSPost2010PropOp31
 70
     1
102
RTVSPost2010Prop32
280
     0
102
RTVSPost2010PropOp32
 70
     1
102
RTVSPost2010Prop33
280
     0
102
RTVSPost2010PropOp33
 70
     1
102
RTVSPost2010Prop34
280
     0
102
RTVSPost2010PropOp34
 70
     1
102
RTVSPost2010Prop35
280
     0
102
RTVSPost2010PropOp35
 70
     1
102
RTVSPost2010Prop36
280
     0
102
RTVSPost2010PropOp36
 70
     1
102
RTVSPost2010Prop37
 90
       50
102
RTVSPost2010PropOp37
 70
     1
102
RTVSPost2010Prop38
140
0.0
102
RTVSPost2010PropOp38
 70
     1
102
RTVSPost2010Prop39
140
1.0
102
RTVSPost2010PropOp39
 70
     1
102
RTVSPost2010Prop40
 90
        0
102
RTVSPost2010PropOp40
 70
     1
102
RTVSPost2010Prop41ColorIndex
 90
       18
102
RTVSPost2010Prop41ColorRGB
 90
        0
102
RTVSPost2010PropOp41
 70
     1
102
RTVSPost2010Prop42
 90
       50
102
RTVSPost2010PropOp42
 70
     1
102
RTVSPost2010Prop43
 90
        3
102
RTVSPost2010PropOp43
 70
     1
102
RTVSPost2010Prop44ColorIndex
 90
        5
102
RTVSPost2010Prop44ColorRGB
 90
      255
102
RTVSPost2010PropOp44
 70
     1
102
RTVSPost2010Prop45
280
     0
102
RTVSPost2010PropOp45
 70
     1
102
RTVSPost2010Prop46
 90
       50
102
RTVSPost2010PropOp46
 70
     1
102
RTVSPost2010Prop47
 90
       50
102
RTVSPost2010PropOp47
 70
     1
102
RTVSPost2010Prop48
 90
       50
102
RTVSPost2010PropOp48
 70
     1
102
RTVSPost2010Prop49
280
     0
102
RTVSPost2010PropOp49
 70
     1
102
RTVSPost2010Prop50
 90
       50
102
RTVSPost2010PropOp50
 70
     1
102
RTVSPost2010Prop51ColorIndex
 90
      256
102
RTVSPost2010Prop51ColorRGB
 90
-16777216
102
RTVSPost2010PropOp51
 70
     0
102
RTVSPost2010Prop52
140
1.0
102
RTVSPost2010PropOp52
 70
     0
102
RTVSPost2010Prop53
 90
        2
102
RTVSPost2010PropOp53
 70
     1
102
RTVSPost2010Prop54
  1
strokes_ogs.tif
102
RTVSPost2010PropOp54
 70
     1
102
RTVSPost2010Prop55
280
     0
102
RTVSPost2010PropOp55
 70
     1
102
RTVSPost2010Prop56
140
1.0
102
RTVSPost2010PropOp56
 70
     1
102
RTVSPost2010Prop57
140
1.0
102
RTVSPost2010PropOp57
 70
     1
102
RTVSPropertyOp0
 70
     1
102
RTVSPropertyOp1
 70
     1
102
RTVSPropertyOp2
 70
     1
102
RTVSPropertyOp3
 70
     1
102
RTVSPropertyOp4
 70
     1
102
RTVSPropertyOp5
 70
     1
102
RTVSPropertyOp6
 70
     1
102
RTVSPropertyOp7
 70
     1
102
RTVSPropertyOp8
 70
     1
102
RTVSPropertyOp9
 70
     1
102
RTVSPropertyOp10
 70
     1
102
RTVSPropertyOp11
 70
     1
102
RTVSPropertyOp12
 70
     1
102
RTVSPropertyOp13
 70
     1
102
RTVSPropertyOp14
 70
     1
102
RTVSPropertyOp15
 70
     1
102
RTVSPropertyOp16
 70
     1
102
RTVSPropertyOp17
 70
     1
102
RTVSPropertyOp18
 70
     1
102
RTVSPropertyOp19
 70
     1
102
RTVSPropertyOp20
 70
     1
102
RTVSPropertyOp21
 70
     1
102
RTVSPropertyOp22
 70
     1
102
RTVSPropertyOp23
 70
     1
102
RTVSPropertyOp24
 70
     1
102
RTVSPropertyOp25
 70
     1
102
RTVSPropertyOp26
 70
     1
102
RTVSPropertyOp27
 70
     1
102
RTVSPropertyOp28
 70
     1
102
RTVSPropertyOp29
 70
     1
102
RTVSPropertyOp30
 70
     1
102
RTVSPropertyOp31
 70
     1
102
RTVSPropertyOp32
 70
     1
102
RTVSPropertyOp33
 70
     1
102
RTVSPropertyOp34
 70
     1
102
RTVSPropertyOp35
 70
     1
102
RTVSPropertyOp36
 70
     1
102
RTVSPropertyOp37
 70
     1
102
RTVSPropertyOp38
 70
     1
102
RTVSPropertyOp39
 70
     1
102
RTVSPropertyOp40
 70
     1
102
RTVSPropertyOp41
 70
     1
102
RTVSPropertyOp42
 70
     1
102
RTVSPropertyOp43
 70
     1
102
RTVSPropertyOp44
 70
     1
102
RTVSPropertyOp45
 70
     1
102
RTVSPropertyOp46
 70
     1
102
RTVSPropertyOp47
 70
     1
102
RTVSPropertyOp48
 70
     1
102
RTVSPropertyOp49
 70
     1
102
RTVSPropertyOp50
 70
     1
102
RTVSPropertyOp51
 70
     0
102
RTVSPropertyOp52
 70
     0
102
RTVSPropertyOp53
 70
     1
102
RTVSPropertyOp54
 70
     1
102
RTVSPropertyOp55
 70
     1
102
RTVSPropertyOp56
 70
     1
102
RTVSPropertyOp57
 70
     1
102
RTVSPropertyOp58
 70
     1
102
RTVSPropertyOp59
 70
     1
102
RTVSPropertyOp60
 70
     1
102
RTVSPropertyOp61
 70
     1
102
RTVSPropertyOp62
 70
     1
  0
XRECORD
  5
ADDF
102
{ACAD_REACTORS
330
ADDE
102
}
330
ADDE
100
AcDbXrecord
280
     1
102
RTVSPost2010Prop28
280
     0
102
RTVSPost2010PropOp28
 70
     1
102
RTVSPost2010Prop29
280
     1
102
RTVSPost2010PropOp29
 70
     1
102
RTVSPost2010Prop30
280
     1
102
RTVSPost2010PropOp30
 70
     1
102
RTVSPost2010Prop31
280
     0
102
RTVSPost2010PropOp31
 70
     1
102
RTVSPost2010Prop32
280
     0
102
RTVSPost2010PropOp32
 70
     1
102
RTVSPost2010Prop33
280
     0
102
RTVSPost2010PropOp33
 70
     1
102
RTVSPost2010Prop34
280
     0
102
RTVSPost2010PropOp34
 70
     1
102
RTVSPost2010Prop35
280
     0
102
RTVSPost2010PropOp35
 70
     1
102
RTVSPost2010Prop36
280
     0
102
RTVSPost2010PropOp36
 70
     1
102
RTVSPost2010Prop37
 90
       50
102
RTVSPost2010PropOp37
 70
     1
102
RTVSPost2010Prop38
140
0.0
102
RTVSPost2010PropOp38
 70
     1
102
RTVSPost2010Prop39
140
1.0
102
RTVSPost2010PropOp39
 70
     1
102
RTVSPost2010Prop40
 90
        0
102
RTVSPost2010PropOp40
 70
     1
102
RTVSPost2010Prop41ColorIndex
 90
       18
102
RTVSPost2010Prop41ColorRGB
 90
        0
102
RTVSPost2010PropOp41
 70
     1
102
RTVSPost2010Prop42
 90
       50
102
RTVSPost2010PropOp42
 70
     1
102
RTVSPost2010Prop43
 90
        3
102
RTVSPost2010PropOp43
 70
     1
102
RTVSPost2010Prop44ColorIndex
 90
        5
102
RTVSPost2010Prop44ColorRGB
 90
      255
102
RTVSPost2010PropOp44
 70
     1
102
RTVSPost2010Prop45
280
     0
102
RTVSPost2010PropOp45
 70
     1
102
RTVSPost2010Prop46
 90
       50
102
RTVSPost2010PropOp46
 70
     1
102
RTVSPost2010Prop47
 90
       50
102
RTVSPost2010PropOp47
 70
     1
102
RTVSPost2010Prop48
 90
       50
102
RTVSPost2010PropOp48
 70
     1
102
RTVSPost2010Prop49
280
     0
102
RTVSPost2010PropOp49
 70
     1
102
RTVSPost2010Prop50
 90
       50
102
RTVSPost2010PropOp50
 70
     1
102
RTVSPost2010Prop51ColorIndex
 90
      256
102
RTVSPost2010Prop51ColorRGB
 90
-16777216
102
RTVSPost2010PropOp51
 70
     0
102
RTVSPost2010Prop52
140
1.0
102
RTVSPost2010PropOp52
 70
     0
102
RTVSPost2010Prop53
 90
        2
102
RTVSPost2010PropOp53
 70
     1
102
RTVSPost2010Prop54
  1
strokes_ogs.tif
102
RTVSPost2010PropOp54
 70
     1
102
RTVSPost2010Prop55
280
     0
102
RTVSPost2010PropOp55
 70
     1
102
RTVSPost2010Prop56
140
1.0
102
RTVSPost2010PropOp56
 70
     1
102
RTVSPost2010Prop57
140
1.0
102
RTVSPost2010PropOp57
 70
     1
102
RTVSPropertyOp0
 70
     1
102
RTVSPropertyOp1
 70
     1
102
RTVSPropertyOp2
 70
     1
102
RTVSPropertyOp3
 70
     1
102
RTVSPropertyOp4
 70
     1
102
RTVSPropertyOp5
 70
     1
102
RTVSPropertyOp6
 70
     1
102
RTVSPropertyOp7
 70
     1
102
RTVSPropertyOp8
 70
     1
102
RTVSPropertyOp9
 70
     1
102
RTVSPropertyOp10
 70
     1
102
RTVSPropertyOp11
 70
     1
102
RTVSPropertyOp12
 70
     1
102
RTVSPropertyOp13
 70
     1
102
RTVSPropertyOp14
 70
     1
102
RTVSPropertyOp15
 70
     1
102
RTVSPropertyOp16
 70
     1
102
RTVSPropertyOp17
 70
     1
102
RTVSPropertyOp18
 70
     1
102
RTVSPropertyOp19
 70
     1
102
RTVSPropertyOp20
 70
     1
102
RTVSPropertyOp21
 70
     1
102
RTVSPropertyOp22
 70
     1
102
RTVSPropertyOp23
 70
     1
102
RTVSPropertyOp24
 70
     1
102
RTVSPropertyOp25
 70
     1
102
RTVSPropertyOp26
 70
     1
102
RTVSPropertyOp27
 70
     1
102
RTVSPropertyOp28
 70
     1
102
RTVSPropertyOp29
 70
     1
102
RTVSPropertyOp30
 70
     1
102
RTVSPropertyOp31
 70
     1
102
RTVSPropertyOp32
 70
     1
102
RTVSPropertyOp33
 70
     1
102
RTVSPropertyOp34
 70
     1
102
RTVSPropertyOp35
 70
     1
102
RTVSPropertyOp36
 70
     1
102
RTVSPropertyOp37
 70
     1
102
RTVSPropertyOp38
 70
     1
102
RTVSPropertyOp39
 70
     1
102
RTVSPropertyOp40
 70
     1
102
RTVSPropertyOp41
 70
     1
102
RTVSPropertyOp42
 70
     1
102
RTVSPropertyOp43
 70
     1
102
RTVSPropertyOp44
 70
     1
102
RTVSPropertyOp45
 70
     1
102
RTVSPropertyOp46
 70
     1
102
RTVSPropertyOp47
 70
     1
102
RTVSPropertyOp48
 70
     1
102
RTVSPropertyOp49
 70
     1
102
RTVSPropertyOp50
 70
     1
102
RTVSPropertyOp51
 70
     0
102
RTVSPropertyOp52
 70
     0
102
RTVSPropertyOp53
 70
     1
102
RTVSPropertyOp54
 70
     1
102
RTVSPropertyOp55
 70
     1
102
RTVSPropertyOp56
 70
     1
102
RTVSPropertyOp57
 70
     1
102
RTVSPropertyOp58
 70
     1
102
RTVSPropertyOp59
 70
     1
102
RTVSPropertyOp60
 70
     1
102
RTVSPropertyOp61
 70
     1
102
RTVSPropertyOp62
 70
     1
  0
XRECORD
  5
ADE3
102
{ACAD_REACTORS
330
ADE2
102
}
330
ADE2
100
AcDbXrecord
280
     1
102
RTVSPost2010Prop28
280
     0
102
RTVSPost2010PropOp28
 70
     1
102
RTVSPost2010Prop29
280
     1
102
RTVSPost2010PropOp29
 70
     1
102
RTVSPost2010Prop30
280
     1
102
RTVSPost2010PropOp30
 70
     1
102
RTVSPost2010Prop31
280
     0
102
RTVSPost2010PropOp31
 70
     1
102
RTVSPost2010Prop32
280
     0
102
RTVSPost2010PropOp32
 70
     1
102
RTVSPost2010Prop33
280
     0
102
RTVSPost2010PropOp33
 70
     1
102
RTVSPost2010Prop34
280
     0
102
RTVSPost2010PropOp34
 70
     1
102
RTVSPost2010Prop35
280
     0
102
RTVSPost2010PropOp35
 70
     1
102
RTVSPost2010Prop36
280
     0
102
RTVSPost2010PropOp36
 70
     1
102
RTVSPost2010Prop37
 90
       50
102
RTVSPost2010PropOp37
 70
     1
102
RTVSPost2010Prop38
140
0.0
102
RTVSPost2010PropOp38
 70
     1
102
RTVSPost2010Prop39
140
1.0
102
RTVSPost2010PropOp39
 70
     1
102
RTVSPost2010Prop40
 90
        0
102
RTVSPost2010PropOp40
 70
     1
102
RTVSPost2010Prop41ColorIndex
 90
       18
102
RTVSPost2010Prop41ColorRGB
 90
        0
102
RTVSPost2010PropOp41
 70
     1
102
RTVSPost2010Prop42
 90
       50
102
RTVSPost2010PropOp42
 70
     1
102
RTVSPost2010Prop43
 90
        3
102
RTVSPost2010PropOp43
 70
     1
102
RTVSPost2010Prop44ColorIndex
 90
        5
102
RTVSPost2010Prop44ColorRGB
 90
      255
102
RTVSPost2010PropOp44
 70
     1
102
RTVSPost2010Prop45
280
     0
102
RTVSPost2010PropOp45
 70
     1
102
RTVSPost2010Prop46
 90
       50
102
RTVSPost2010PropOp46
 70
     1
102
RTVSPost2010Prop47
 90
       50
102
RTVSPost2010PropOp47
 70
     1
102
RTVSPost2010Prop48
 90
       50
102
RTVSPost2010PropOp48
 70
     1
102
RTVSPost2010Prop49
280
     0
102
RTVSPost2010PropOp49
 70
     1
102
RTVSPost2010Prop50
 90
       50
102
RTVSPost2010PropOp50
 70
     1
102
RTVSPost2010Prop51ColorIndex
 90
      256
102
RTVSPost2010Prop51ColorRGB
 90
-16777216
102
RTVSPost2010PropOp51
 70
     0
102
RTVSPost2010Prop52
140
1.0
102
RTVSPost2010PropOp52
 70
     0
102
RTVSPost2010Prop53
 90
        2
102
RTVSPost2010PropOp53
 70
     1
102
RTVSPost2010Prop54
  1
strokes_ogs.tif
102
RTVSPost2010PropOp54
 70
     1
102
RTVSPost2010Prop55
280
     0
102
RTVSPost2010PropOp55
 70
     1
102
RTVSPost2010Prop56
140
1.0
102
RTVSPost2010PropOp56
 70
     1
102
RTVSPost2010Prop57
140
1.0
102
RTVSPost2010PropOp57
 70
     1
102
RTVSPropertyOp0
 70
     1
102
RTVSPropertyOp1
 70
     1
102
RTVSPropertyOp2
 70
     1
102
RTVSPropertyOp3
 70
     1
102
RTVSPropertyOp4
 70
     1
102
RTVSPropertyOp5
 70
     1
102
RTVSPropertyOp6
 70
     1
102
RTVSPropertyOp7
 70
     1
102
RTVSPropertyOp8
 70
     1
102
RTVSPropertyOp9
 70
     1
102
RTVSPropertyOp10
 70
     1
102
RTVSPropertyOp11
 70
     1
102
RTVSPropertyOp12
 70
     1
102
RTVSPropertyOp13
 70
     1
102
RTVSPropertyOp14
 70
     1
102
RTVSPropertyOp15
 70
     1
102
RTVSPropertyOp16
 70
     1
102
RTVSPropertyOp17
 70
     1
102
RTVSPropertyOp18
 70
     1
102
RTVSPropertyOp19
 70
     1
102
RTVSPropertyOp20
 70
     1
102
RTVSPropertyOp21
 70
     1
102
RTVSPropertyOp22
 70
     1
102
RTVSPropertyOp23
 70
     1
102
RTVSPropertyOp24
 70
     1
102
RTVSPropertyOp25
 70
     1
102
RTVSPropertyOp26
 70
     1
102
RTVSPropertyOp27
 70
     1
102
RTVSPropertyOp28
 70
     1
102
RTVSPropertyOp29
 70
     1
102
RTVSPropertyOp30
 70
     1
102
RTVSPropertyOp31
 70
     1
102
RTVSPropertyOp32
 70
     1
102
RTVSPropertyOp33
 70
     1
102
RTVSPropertyOp34
 70
     1
102
RTVSPropertyOp35
 70
     1
102
RTVSPropertyOp36
 70
     1
102
RTVSPropertyOp37
 70
     1
102
RTVSPropertyOp38
 70
     1
102
RTVSPropertyOp39
 70
     1
102
RTVSPropertyOp40
 70
     1
102
RTVSPropertyOp41
 70
     1
102
RTVSPropertyOp42
 70
     1
102
RTVSPropertyOp43
 70
     1
102
RTVSPropertyOp44
 70
     1
102
RTVSPropertyOp45
 70
     1
102
RTVSPropertyOp46
 70
     1
102
RTVSPropertyOp47
 70
     1
102
RTVSPropertyOp48
 70
     1
102
RTVSPropertyOp49
 70
     1
102
RTVSPropertyOp50
 70
     1
102
RTVSPropertyOp51
 70
     0
102
RTVSPropertyOp52
 70
     0
102
RTVSPropertyOp53
 70
     1
102
RTVSPropertyOp54
 70
     1
102
RTVSPropertyOp55
 70
     1
102
RTVSPropertyOp56
 70
     1
102
RTVSPropertyOp57
 70
     1
102
RTVSPropertyOp58
 70
     1
102
RTVSPropertyOp59
 70
     1
102
RTVSPropertyOp60
 70
     1
102
RTVSPropertyOp61
 70
     1
102
RTVSPropertyOp62
 70
     1
  0
XRECORD
  5
ADFD
102
{ACAD_REACTORS
330
ADFC
102
}
330
ADFC
100
AcDbXrecord
280
     1
102
RTVSPost2010Prop28
280
     0
102
RTVSPost2010PropOp28
 70
     1
102
RTVSPost2010Prop29
280
     1
102
RTVSPost2010PropOp29
 70
     1
102
RTVSPost2010Prop30
280
     1
102
RTVSPost2010PropOp30
 70
     1
102
RTVSPost2010Prop31
280
     0
102
RTVSPost2010PropOp31
 70
     1
102
RTVSPost2010Prop32
280
     0
102
RTVSPost2010PropOp32
 70
     1
102
RTVSPost2010Prop33
280
     0
102
RTVSPost2010PropOp33
 70
     1
102
RTVSPost2010Prop34
280
     0
102
RTVSPost2010PropOp34
 70
     1
102
RTVSPost2010Prop35
280
     0
102
RTVSPost2010PropOp35
 70
     1
102
RTVSPost2010Prop36
280
     0
102
RTVSPost2010PropOp36
 70
     1
102
RTVSPost2010Prop37
 90
       50
102
RTVSPost2010PropOp37
 70
     0
102
RTVSPost2010Prop38
140
0.0
102
RTVSPost2010PropOp38
 70
     0
102
RTVSPost2010Prop39
140
1.0
102
RTVSPost2010PropOp39
 70
     0
102
RTVSPost2010Prop40
 90
        0
102
RTVSPost2010PropOp40
 70
     0
102
RTVSPost2010Prop41ColorIndex
 90
       18
102
RTVSPost2010Prop41ColorRGB
 90
        0
102
RTVSPost2010PropOp41
 70
     0
102
RTVSPost2010Prop42
 90
       50
102
RTVSPost2010PropOp42
 70
     0
102
RTVSPost2010Prop43
 90
        3
102
RTVSPost2010PropOp43
 70
     0
102
RTVSPost2010Prop44ColorIndex
 90
        5
102
RTVSPost2010Prop44ColorRGB
 90
      255
102
RTVSPost2010PropOp44
 70
     0
102
RTVSPost2010Prop45
280
     0
102
RTVSPost2010PropOp45
 70
     1
102
RTVSPost2010Prop46
 90
       50
102
RTVSPost2010PropOp46
 70
     0
102
RTVSPost2010Prop47
 90
       50
102
RTVSPost2010PropOp47
 70
     0
102
RTVSPost2010Prop48
 90
       50
102
RTVSPost2010PropOp48
 70
     0
102
RTVSPost2010Prop49
280
     0
102
RTVSPost2010PropOp49
 70
     1
102
RTVSPost2010Prop50
 90
       50
102
RTVSPost2010PropOp50
 70
     0
102
RTVSPost2010Prop51ColorIndex
 90
      256
102
RTVSPost2010Prop51ColorRGB
 90
-16777216
102
RTVSPost2010PropOp51
 70
     0
102
RTVSPost2010Prop52
140
1.0
102
RTVSPost2010PropOp52
 70
     0
102
RTVSPost2010Prop53
 90
        2
102
RTVSPost2010PropOp53
 70
     0
102
RTVSPost2010Prop54
  1
strokes_ogs.tif
102
RTVSPost2010PropOp54
 70
     0
102
RTVSPost2010Prop55
280
     0
102
RTVSPost2010PropOp55
 70
     1
102
RTVSPost2010Prop56
140
1.0
102
RTVSPost2010PropOp56
 70
     0
102
RTVSPost2010Prop57
140
1.0
102
RTVSPost2010PropOp57
 70
     0
102
RTVSPropertyOp0
 70
     0
102
RTVSPropertyOp1
 70
     0
102
RTVSPropertyOp2
 70
     0
102
RTVSPropertyOp3
 70
     0
102
RTVSPropertyOp4
 70
     0
102
RTVSPropertyOp5
 70
     0
102
RTVSPropertyOp6
 70
     0
102
RTVSPropertyOp7
 70
     0
102
RTVSPropertyOp8
 70
     0
102
RTVSPropertyOp9
 70
     0
102
RTVSPropertyOp10
 70
     0
102
RTVSPropertyOp11
 70
     0
102
RTVSPropertyOp12
 70
     0
102
RTVSPropertyOp13
 70
     0
102
RTVSPropertyOp14
 70
     2
102
RTVSPropertyOp15
 70
     0
102
RTVSPropertyOp16
 70
     0
102
RTVSPropertyOp17
 70
     0
102
RTVSPropertyOp18
 70
     0
102
RTVSPropertyOp19
 70
     0
102
RTVSPropertyOp20
 70
     0
102
RTVSPropertyOp21
 70
     0
102
RTVSPropertyOp22
 70
     0
102
RTVSPropertyOp23
 70
     0
102
RTVSPropertyOp24
 70
     0
102
RTVSPropertyOp25
 70
     0
102
RTVSPropertyOp26
 70
     0
102
RTVSPropertyOp27
 70
     0
102
RTVSPropertyOp28
 70
     1
102
RTVSPropertyOp29
 70
     1
102
RTVSPropertyOp30
 70
     1
102
RTVSPropertyOp31
 70
     1
102
RTVSPropertyOp32
 70
     1
102
RTVSPropertyOp33
 70
     1
102
RTVSPropertyOp34
 70
     1
102
RTVSPropertyOp35
 70
     1
102
RTVSPropertyOp36
 70
     1
102
RTVSPropertyOp37
 70
     0
102
RTVSPropertyOp38
 70
     0
102
RTVSPropertyOp39
 70
     0
102
RTVSPropertyOp40
 70
     0
102
RTVSPropertyOp41
 70
     0
102
RTVSPropertyOp42
 70
     0
102
RTVSPropertyOp43
 70
     0
102
RTVSPropertyOp44
 70
     0
102
RTVSPropertyOp45
 70
     1
102
RTVSPropertyOp46
 70
     0
102
RTVSPropertyOp47
 70
     0
102
RTVSPropertyOp48
 70
     0
102
RTVSPropertyOp49
 70
     1
102
RTVSPropertyOp50
 70
     0
102
RTVSPropertyOp51
 70
     0
102
RTVSPropertyOp52
 70
     0
102
RTVSPropertyOp53
 70
     0
102
RTVSPropertyOp54
 70
     0
102
RTVSPropertyOp55
 70
     1
102
RTVSPropertyOp56
 70
     0
102
RTVSPropertyOp57
 70
     0
102
RTVSPropertyOp58
 70
     0
102
RTVSPropertyOp59
 70
     0
102
RTVSPropertyOp60
 70
     0
102
RTVSPropertyOp61
 70
     0
102
RTVSPropertyOp62
 70
     0
  0
XRECORD
  5
ADEB
102
{ACAD_REACTORS
330
ADEA
102
}
330
ADEA
100
AcDbXrecord
280
     1
102
RTVSPost2010Prop28
280
     0
102
RTVSPost2010PropOp28
 70
     1
102
RTVSPost2010Prop29
280
     1
102
RTVSPost2010PropOp29
 70
     1
102
RTVSPost2010Prop30
280
     1
102
RTVSPost2010PropOp30
 70
     1
102
RTVSPost2010Prop31
280
     0
102
RTVSPost2010PropOp31
 70
     1
102
RTVSPost2010Prop32
280
     0
102
RTVSPost2010PropOp32
 70
     1
102
RTVSPost2010Prop33
280
     0
102
RTVSPost2010PropOp33
 70
     1
102
RTVSPost2010Prop34
280
     0
102
RTVSPost2010PropOp34
 70
     1
102
RTVSPost2010Prop35
280
     0
102
RTVSPost2010PropOp35
 70
     1
102
RTVSPost2010Prop36
280
     0
102
RTVSPost2010PropOp36
 70
     1
102
RTVSPost2010Prop37
 90
       50
102
RTVSPost2010PropOp37
 70
     1
102
RTVSPost2010Prop38
140
0.0
102
RTVSPost2010PropOp38
 70
     1
102
RTVSPost2010Prop39
140
1.0
102
RTVSPost2010PropOp39
 70
     1
102
RTVSPost2010Prop40
 90
        0
102
RTVSPost2010PropOp40
 70
     1
102
RTVSPost2010Prop41ColorIndex
 90
       18
102
RTVSPost2010Prop41ColorRGB
 90
        0
102
RTVSPost2010PropOp41
 70
     1
102
RTVSPost2010Prop42
 90
       50
102
RTVSPost2010PropOp42
 70
     1
102
RTVSPost2010Prop43
 90
        3
102
RTVSPost2010PropOp43
 70
     1
102
RTVSPost2010Prop44ColorIndex
 90
        5
102
RTVSPost2010Prop44ColorRGB
 90
      255
102
RTVSPost2010PropOp44
 70
     1
102
RTVSPost2010Prop45
280
     0
102
RTVSPost2010PropOp45
 70
     1
102
RTVSPost2010Prop46
 90
       50
102
RTVSPost2010PropOp46
 70
     1
102
RTVSPost2010Prop47
 90
       50
102
RTVSPost2010PropOp47
 70
     1
102
RTVSPost2010Prop48
 90
       50
102
RTVSPost2010PropOp48
 70
     1
102
RTVSPost2010Prop49
280
     0
102
RTVSPost2010PropOp49
 70
     1
102
RTVSPost2010Prop50
 90
       50
102
RTVSPost2010PropOp50
 70
     1
102
RTVSPost2010Prop51ColorIndex
 90
      256
102
RTVSPost2010Prop51ColorRGB
 90
-16777216
102
RTVSPost2010PropOp51
 70
     0
102
RTVSPost2010Prop52
140
1.0
102
RTVSPost2010PropOp52
 70
     0
102
RTVSPost2010Prop53
 90
        2
102
RTVSPost2010PropOp53
 70
     1
102
RTVSPost2010Prop54
  1
strokes_ogs.tif
102
RTVSPost2010PropOp54
 70
     1
102
RTVSPost2010Prop55
280
     0
102
RTVSPost2010PropOp55
 70
     1
102
RTVSPost2010Prop56
140
1.0
102
RTVSPost2010PropOp56
 70
     1
102
RTVSPost2010Prop57
140
1.0
102
RTVSPost2010PropOp57
 70
     1
102
RTVSPropertyOp0
 70
     1
102
RTVSPropertyOp1
 70
     1
102
RTVSPropertyOp2
 70
     1
102
RTVSPropertyOp3
 70
     1
102
RTVSPropertyOp4
 70
     1
102
RTVSPropertyOp5
 70
     1
102
RTVSPropertyOp6
 70
     1
102
RTVSPropertyOp7
 70
     1
102
RTVSPropertyOp8
 70
     1
102
RTVSPropertyOp9
 70
     1
102
RTVSPropertyOp10
 70
     1
102
RTVSPropertyOp11
 70
     1
102
RTVSPropertyOp12
 70
     1
102
RTVSPropertyOp13
 70
     1
102
RTVSPropertyOp14
 70
     1
102
RTVSPropertyOp15
 70
     1
102
RTVSPropertyOp16
 70
     1
102
RTVSPropertyOp17
 70
     1
102
RTVSPropertyOp18
 70
     1
102
RTVSPropertyOp19
 70
     1
102
RTVSPropertyOp20
 70
     1
102
RTVSPropertyOp21
 70
     1
102
RTVSPropertyOp22
 70
     1
102
RTVSPropertyOp23
 70
     1
102
RTVSPropertyOp24
 70
     1
102
RTVSPropertyOp25
 70
     1
102
RTVSPropertyOp26
 70
     1
102
RTVSPropertyOp27
 70
     1
102
RTVSPropertyOp28
 70
     1
102
RTVSPropertyOp29
 70
     1
102
RTVSPropertyOp30
 70
     1
102
RTVSPropertyOp31
 70
     1
102
RTVSPropertyOp32
 70
     1
102
RTVSPropertyOp33
 70
     1
102
RTVSPropertyOp34
 70
     1
102
RTVSPropertyOp35
 70
     1
102
RTVSPropertyOp36
 70
     1
102
RTVSPropertyOp37
 70
     1
102
RTVSPropertyOp38
 70
     1
102
RTVSPropertyOp39
 70
     1
102
RTVSPropertyOp40
 70
     1
102
RTVSPropertyOp41
 70
     1
102
RTVSPropertyOp42
 70
     1
102
RTVSPropertyOp43
 70
     1
102
RTVSPropertyOp44
 70
     1
102
RTVSPropertyOp45
 70
     1
102
RTVSPropertyOp46
 70
     1
102
RTVSPropertyOp47
 70
     1
102
RTVSPropertyOp48
 70
     1
102
RTVSPropertyOp49
 70
     1
102
RTVSPropertyOp50
 70
     1
102
RTVSPropertyOp51
 70
     0
102
RTVSPropertyOp52
 70
     0
102
RTVSPropertyOp53
 70
     1
102
RTVSPropertyOp54
 70
     1
102
RTVSPropertyOp55
 70
     1
102
RTVSPropertyOp56
 70
     1
102
RTVSPropertyOp57
 70
     1
102
RTVSPropertyOp58
 70
     1
102
RTVSPropertyOp59
 70
     1
102
RTVSPropertyOp60
 70
     1
102
RTVSPropertyOp61
 70
     1
102
RTVSPropertyOp62
 70
     1
  0
XRECORD
  5
ADCF
102
{ACAD_REACTORS
330
ADCE
102
}
330
ADCE
100
AcDbXrecord
280
     1
102
RTVSPost2010Prop28
280
     0
102
RTVSPost2010PropOp28
 70
     1
102
RTVSPost2010Prop29
280
     1
102
RTVSPost2010PropOp29
 70
     1
102
RTVSPost2010Prop30
280
     1
102
RTVSPost2010PropOp30
 70
     1
102
RTVSPost2010Prop31
280
     0
102
RTVSPost2010PropOp31
 70
     1
102
RTVSPost2010Prop32
280
     0
102
RTVSPost2010PropOp32
 70
     1
102
RTVSPost2010Prop33
280
     0
102
RTVSPost2010PropOp33
 70
     1
102
RTVSPost2010Prop34
280
     0
102
RTVSPost2010PropOp34
 70
     1
102
RTVSPost2010Prop35
280
     0
102
RTVSPost2010PropOp35
 70
     1
102
RTVSPost2010Prop36
280
     0
102
RTVSPost2010PropOp36
 70
     1
102
RTVSPost2010Prop37
 90
       50
102
RTVSPost2010PropOp37
 70
     1
102
RTVSPost2010Prop38
140
0.0
102
RTVSPost2010PropOp38
 70
     1
102
RTVSPost2010Prop39
140
1.0
102
RTVSPost2010PropOp39
 70
     1
102
RTVSPost2010Prop40
 90
        0
102
RTVSPost2010PropOp40
 70
     1
102
RTVSPost2010Prop41ColorIndex
 90
       18
102
RTVSPost2010Prop41ColorRGB
 90
        0
102
RTVSPost2010PropOp41
 70
     1
102
RTVSPost2010Prop42
 90
       50
102
RTVSPost2010PropOp42
 70
     1
102
RTVSPost2010Prop43
 90
        3
102
RTVSPost2010PropOp43
 70
     1
102
RTVSPost2010Prop44ColorIndex
 90
        5
102
RTVSPost2010Prop44ColorRGB
 90
      255
102
RTVSPost2010PropOp44
 70
     1
102
RTVSPost2010Prop45
280
     0
102
RTVSPost2010PropOp45
 70
     1
102
RTVSPost2010Prop46
 90
       50
102
RTVSPost2010PropOp46
 70
     1
102
RTVSPost2010Prop47
 90
       50
102
RTVSPost2010PropOp47
 70
     1
102
RTVSPost2010Prop48
 90
       50
102
RTVSPost2010PropOp48
 70
     1
102
RTVSPost2010Prop49
280
     0
102
RTVSPost2010PropOp49
 70
     1
102
RTVSPost2010Prop50
 90
       50
102
RTVSPost2010PropOp50
 70
     1
102
RTVSPost2010Prop51ColorIndex
 90
      256
102
RTVSPost2010Prop51ColorRGB
 90
-16777216
102
RTVSPost2010PropOp51
 70
     0
102
RTVSPost2010Prop52
140
1.0
102
RTVSPost2010PropOp52
 70
     0
102
RTVSPost2010Prop53
 90
        2
102
RTVSPost2010PropOp53
 70
     1
102
RTVSPost2010Prop54
  1
strokes_ogs.tif
102
RTVSPost2010PropOp54
 70
     1
102
RTVSPost2010Prop55
280
     0
102
RTVSPost2010PropOp55
 70
     1
102
RTVSPost2010Prop56
140
1.0
102
RTVSPost2010PropOp56
 70
     1
102
RTVSPost2010Prop57
140
1.0
102
RTVSPost2010PropOp57
 70
     1
102
RTVSPropertyOp0
 70
     1
102
RTVSPropertyOp1
 70
     1
102
RTVSPropertyOp2
 70
     1
102
RTVSPropertyOp3
 70
     1
102
RTVSPropertyOp4
 70
     1
102
RTVSPropertyOp5
 70
     1
102
RTVSPropertyOp6
 70
     1
102
RTVSPropertyOp7
 70
     1
102
RTVSPropertyOp8
 70
     1
102
RTVSPropertyOp9
 70
     1
102
RTVSPropertyOp10
 70
     1
102
RTVSPropertyOp11
 70
     1
102
RTVSPropertyOp12
 70
     1
102
RTVSPropertyOp13
 70
     1
102
RTVSPropertyOp14
 70
     1
102
RTVSPropertyOp15
 70
     1
102
RTVSPropertyOp16
 70
     1
102
RTVSPropertyOp17
 70
     1
102
RTVSPropertyOp18
 70
     1
102
RTVSPropertyOp19
 70
     1
102
RTVSPropertyOp20
 70
     1
102
RTVSPropertyOp21
 70
     1
102
RTVSPropertyOp22
 70
     1
102
RTVSPropertyOp23
 70
     1
102
RTVSPropertyOp24
 70
     1
102
RTVSPropertyOp25
 70
     1
102
RTVSPropertyOp26
 70
     1
102
RTVSPropertyOp27
 70
     1
102
RTVSPropertyOp28
 70
     1
102
RTVSPropertyOp29
 70
     1
102
RTVSPropertyOp30
 70
     1
102
RTVSPropertyOp31
 70
     1
102
RTVSPropertyOp32
 70
     1
102
RTVSPropertyOp33
 70
     1
102
RTVSPropertyOp34
 70
     1
102
RTVSPropertyOp35
 70
     1
102
RTVSPropertyOp36
 70
     1
102
RTVSPropertyOp37
 70
     1
102
RTVSPropertyOp38
 70
     1
102
RTVSPropertyOp39
 70
     1
102
RTVSPropertyOp40
 70
     1
102
RTVSPropertyOp41
 70
     1
102
RTVSPropertyOp42
 70
     1
102
RTVSPropertyOp43
 70
     1
102
RTVSPropertyOp44
 70
     1
102
RTVSPropertyOp45
 70
     1
102
RTVSPropertyOp46
 70
     1
102
RTVSPropertyOp47
 70
     1
102
RTVSPropertyOp48
 70
     1
102
RTVSPropertyOp49
 70
     1
102
RTVSPropertyOp50
 70
     1
102
RTVSPropertyOp51
 70
     0
102
RTVSPropertyOp52
 70
     0
102
RTVSPropertyOp53
 70
     1
102
RTVSPropertyOp54
 70
     1
102
RTVSPropertyOp55
 70
     1
102
RTVSPropertyOp56
 70
     1
102
RTVSPropertyOp57
 70
     1
102
RTVSPropertyOp58
 70
     1
102
RTVSPropertyOp59
 70
     1
102
RTVSPropertyOp60
 70
     1
102
RTVSPropertyOp61
 70
     1
102
RTVSPropertyOp62
 70
     1
  0
XRECORD
  5
ADD1
102
{ACAD_REACTORS
330
ADD0
102
}
330
ADD0
100
AcDbXrecord
280
     1
102
RTVSPost2010Prop28
280
     0
102
RTVSPost2010PropOp28
 70
     1
102
RTVSPost2010Prop29
280
     1
102
RTVSPost2010PropOp29
 70
     1
102
RTVSPost2010Prop30
280
     1
102
RTVSPost2010PropOp30
 70
     1
102
RTVSPost2010Prop31
280
     0
102
RTVSPost2010PropOp31
 70
     1
102
RTVSPost2010Prop32
280
     0
102
RTVSPost2010PropOp32
 70
     1
102
RTVSPost2010Prop33
280
     0
102
RTVSPost2010PropOp33
 70
     1
102
RTVSPost2010Prop34
280
     0
102
RTVSPost2010PropOp34
 70
     1
102
RTVSPost2010Prop35
280
     0
102
RTVSPost2010PropOp35
 70
     1
102
RTVSPost2010Prop36
280
     0
102
RTVSPost2010PropOp36
 70
     1
102
RTVSPost2010Prop37
 90
       50
102
RTVSPost2010PropOp37
 70
     1
102
RTVSPost2010Prop38
140
0.0
102
RTVSPost2010PropOp38
 70
     1
102
RTVSPost2010Prop39
140
1.0
102
RTVSPost2010PropOp39
 70
     1
102
RTVSPost2010Prop40
 90
        0
102
RTVSPost2010PropOp40
 70
     1
102
RTVSPost2010Prop41ColorIndex
 90
       18
102
RTVSPost2010Prop41ColorRGB
 90
        0
102
RTVSPost2010PropOp41
 70
     1
102
RTVSPost2010Prop42
 90
       50
102
RTVSPost2010PropOp42
 70
     1
102
RTVSPost2010Prop43
 90
        3
102
RTVSPost2010PropOp43
 70
     1
102
RTVSPost2010Prop44ColorIndex
 90
        5
102
RTVSPost2010Prop44ColorRGB
 90
      255
102
RTVSPost2010PropOp44
 70
     1
102
RTVSPost2010Prop45
280
     0
102
RTVSPost2010PropOp45
 70
     1
102
RTVSPost2010Prop46
 90
       50
102
RTVSPost2010PropOp46
 70
     1
102
RTVSPost2010Prop47
 90
       50
102
RTVSPost2010PropOp47
 70
     1
102
RTVSPost2010Prop48
 90
       50
102
RTVSPost2010PropOp48
 70
     1
102
RTVSPost2010Prop49
280
     0
102
RTVSPost2010PropOp49
 70
     1
102
RTVSPost2010Prop50
 90
       50
102
RTVSPost2010PropOp50
 70
     1
102
RTVSPost2010Prop51ColorIndex
 90
      256
102
RTVSPost2010Prop51ColorRGB
 90
-16777216
102
RTVSPost2010PropOp51
 70
     0
102
RTVSPost2010Prop52
140
1.0
102
RTVSPost2010PropOp52
 70
     0
102
RTVSPost2010Prop53
 90
        2
102
RTVSPost2010PropOp53
 70
     1
102
RTVSPost2010Prop54
  1
strokes_ogs.tif
102
RTVSPost2010PropOp54
 70
     1
102
RTVSPost2010Prop55
280
     0
102
RTVSPost2010PropOp55
 70
     1
102
RTVSPost2010Prop56
140
1.0
102
RTVSPost2010PropOp56
 70
     1
102
RTVSPost2010Prop57
140
1.0
102
RTVSPost2010PropOp57
 70
     1
102
RTVSPropertyOp0
 70
     1
102
RTVSPropertyOp1
 70
     1
102
RTVSPropertyOp2
 70
     1
102
RTVSPropertyOp3
 70
     1
102
RTVSPropertyOp4
 70
     1
102
RTVSPropertyOp5
 70
     1
102
RTVSPropertyOp6
 70
     1
102
RTVSPropertyOp7
 70
     1
102
RTVSPropertyOp8
 70
     1
102
RTVSPropertyOp9
 70
     1
102
RTVSPropertyOp10
 70
     1
102
RTVSPropertyOp11
 70
     1
102
RTVSPropertyOp12
 70
     1
102
RTVSPropertyOp13
 70
     1
102
RTVSPropertyOp14
 70
     1
102
RTVSPropertyOp15
 70
     1
102
RTVSPropertyOp16
 70
     1
102
RTVSPropertyOp17
 70
     1
102
RTVSPropertyOp18
 70
     1
102
RTVSPropertyOp19
 70
     1
102
RTVSPropertyOp20
 70
     1
102
RTVSPropertyOp21
 70
     1
102
RTVSPropertyOp22
 70
     1
102
RTVSPropertyOp23
 70
     1
102
RTVSPropertyOp24
 70
     1
102
RTVSPropertyOp25
 70
     1
102
RTVSPropertyOp26
 70
     1
102
RTVSPropertyOp27
 70
     1
102
RTVSPropertyOp28
 70
     1
102
RTVSPropertyOp29
 70
     1
102
RTVSPropertyOp30
 70
     1
102
RTVSPropertyOp31
 70
     1
102
RTVSPropertyOp32
 70
     1
102
RTVSPropertyOp33
 70
     1
102
RTVSPropertyOp34
 70
     1
102
RTVSPropertyOp35
 70
     1
102
RTVSPropertyOp36
 70
     1
102
RTVSPropertyOp37
 70
     1
102
RTVSPropertyOp38
 70
     1
102
RTVSPropertyOp39
 70
     1
102
RTVSPropertyOp40
 70
     1
102
RTVSPropertyOp41
 70
     1
102
RTVSPropertyOp42
 70
     1
102
RTVSPropertyOp43
 70
     1
102
RTVSPropertyOp44
 70
     1
102
RTVSPropertyOp45
 70
     1
102
RTVSPropertyOp46
 70
     1
102
RTVSPropertyOp47
 70
     1
102
RTVSPropertyOp48
 70
     1
102
RTVSPropertyOp49
 70
     1
102
RTVSPropertyOp50
 70
     1
102
RTVSPropertyOp51
 70
     0
102
RTVSPropertyOp52
 70
     0
102
RTVSPropertyOp53
 70
     1
102
RTVSPropertyOp54
 70
     1
102
RTVSPropertyOp55
 70
     1
102
RTVSPropertyOp56
 70
     1
102
RTVSPropertyOp57
 70
     1
102
RTVSPropertyOp58
 70
     1
102
RTVSPropertyOp59
 70
     1
102
RTVSPropertyOp60
 70
     1
102
RTVSPropertyOp61
 70
     1
102
RTVSPropertyOp62
 70
     1
  0
XRECORD
  5
ADD3
102
{ACAD_REACTORS
330
ADD2
102
}
330
ADD2
100
AcDbXrecord
280
     1
102
RTVSPost2010Prop28
280
     0
102
RTVSPost2010PropOp28
 70
     1
102
RTVSPost2010Prop29
280
     1
102
RTVSPost2010PropOp29
 70
     1
102
RTVSPost2010Prop30
280
     1
102
RTVSPost2010PropOp30
 70
     1
102
RTVSPost2010Prop31
280
     0
102
RTVSPost2010PropOp31
 70
     1
102
RTVSPost2010Prop32
280
     0
102
RTVSPost2010PropOp32
 70
     1
102
RTVSPost2010Prop33
280
     0
102
RTVSPost2010PropOp33
 70
     1
102
RTVSPost2010Prop34
280
     0
102
RTVSPost2010PropOp34
 70
     1
102
RTVSPost2010Prop35
280
     0
102
RTVSPost2010PropOp35
 70
     1
102
RTVSPost2010Prop36
280
     0
102
RTVSPost2010PropOp36
 70
     1
102
RTVSPost2010Prop37
 90
       50
102
RTVSPost2010PropOp37
 70
     1
102
RTVSPost2010Prop38
140
0.0
102
RTVSPost2010PropOp38
 70
     1
102
RTVSPost2010Prop39
140
1.0
102
RTVSPost2010PropOp39
 70
     1
102
RTVSPost2010Prop40
 90
        0
102
RTVSPost2010PropOp40
 70
     1
102
RTVSPost2010Prop41ColorIndex
 90
       18
102
RTVSPost2010Prop41ColorRGB
 90
        0
102
RTVSPost2010PropOp41
 70
     1
102
RTVSPost2010Prop42
 90
       50
102
RTVSPost2010PropOp42
 70
     1
102
RTVSPost2010Prop43
 90
        3
102
RTVSPost2010PropOp43
 70
     1
102
RTVSPost2010Prop44ColorIndex
 90
        5
102
RTVSPost2010Prop44ColorRGB
 90
      255
102
RTVSPost2010PropOp44
 70
     1
102
RTVSPost2010Prop45
280
     0
102
RTVSPost2010PropOp45
 70
     1
102
RTVSPost2010Prop46
 90
       50
102
RTVSPost2010PropOp46
 70
     1
102
RTVSPost2010Prop47
 90
       50
102
RTVSPost2010PropOp47
 70
     1
102
RTVSPost2010Prop48
 90
       50
102
RTVSPost2010PropOp48
 70
     1
102
RTVSPost2010Prop49
280
     0
102
RTVSPost2010PropOp49
 70
     1
102
RTVSPost2010Prop50
 90
       50
102
RTVSPost2010PropOp50
 70
     1
102
RTVSPost2010Prop51ColorIndex
 90
      256
102
RTVSPost2010Prop51ColorRGB
 90
-16777216
102
RTVSPost2010PropOp51
 70
     0
102
RTVSPost2010Prop52
140
1.0
102
RTVSPost2010PropOp52
 70
     0
102
RTVSPost2010Prop53
 90
        2
102
RTVSPost2010PropOp53
 70
     1
102
RTVSPost2010Prop54
  1
strokes_ogs.tif
102
RTVSPost2010PropOp54
 70
     1
102
RTVSPost2010Prop55
280
     0
102
RTVSPost2010PropOp55
 70
     1
102
RTVSPost2010Prop56
140
1.0
102
RTVSPost2010PropOp56
 70
     1
102
RTVSPost2010Prop57
140
1.0
102
RTVSPost2010PropOp57
 70
     1
102
RTVSPropertyOp0
 70
     1
102
RTVSPropertyOp1
 70
     1
102
RTVSPropertyOp2
 70
     1
102
RTVSPropertyOp3
 70
     1
102
RTVSPropertyOp4
 70
     1
102
RTVSPropertyOp5
 70
     1
102
RTVSPropertyOp6
 70
     1
102
RTVSPropertyOp7
 70
     1
102
RTVSPropertyOp8
 70
     1
102
RTVSPropertyOp9
 70
     1
102
RTVSPropertyOp10
 70
     1
102
RTVSPropertyOp11
 70
     1
102
RTVSPropertyOp12
 70
     1
102
RTVSPropertyOp13
 70
     1
102
RTVSPropertyOp14
 70
     1
102
RTVSPropertyOp15
 70
     1
102
RTVSPropertyOp16
 70
     1
102
RTVSPropertyOp17
 70
     1
102
RTVSPropertyOp18
 70
     1
102
RTVSPropertyOp19
 70
     1
102
RTVSPropertyOp20
 70
     1
102
RTVSPropertyOp21
 70
     1
102
RTVSPropertyOp22
 70
     1
102
RTVSPropertyOp23
 70
     1
102
RTVSPropertyOp24
 70
     1
102
RTVSPropertyOp25
 70
     1
102
RTVSPropertyOp26
 70
     1
102
RTVSPropertyOp27
 70
     1
102
RTVSPropertyOp28
 70
     1
102
RTVSPropertyOp29
 70
     1
102
RTVSPropertyOp30
 70
     1
102
RTVSPropertyOp31
 70
     1
102
RTVSPropertyOp32
 70
     1
102
RTVSPropertyOp33
 70
     1
102
RTVSPropertyOp34
 70
     1
102
RTVSPropertyOp35
 70
     1
102
RTVSPropertyOp36
 70
     1
102
RTVSPropertyOp37
 70
     1
102
RTVSPropertyOp38
 70
     1
102
RTVSPropertyOp39
 70
     1
102
RTVSPropertyOp40
 70
     1
102
RTVSPropertyOp41
 70
     1
102
RTVSPropertyOp42
 70
     1
102
RTVSPropertyOp43
 70
     1
102
RTVSPropertyOp44
 70
     1
102
RTVSPropertyOp45
 70
     1
102
RTVSPropertyOp46
 70
     1
102
RTVSPropertyOp47
 70
     1
102
RTVSPropertyOp48
 70
     1
102
RTVSPropertyOp49
 70
     1
102
RTVSPropertyOp50
 70
     1
102
RTVSPropertyOp51
 70
     0
102
RTVSPropertyOp52
 70
     0
102
RTVSPropertyOp53
 70
     1
102
RTVSPropertyOp54
 70
     1
102
RTVSPropertyOp55
 70
     1
102
RTVSPropertyOp56
 70
     1
102
RTVSPropertyOp57
 70
     1
102
RTVSPropertyOp58
 70
     1
102
RTVSPropertyOp59
 70
     1
102
RTVSPropertyOp60
 70
     1
102
RTVSPropertyOp61
 70
     1
102
RTVSPropertyOp62
 70
     1
  0
XRECORD
  5
ADD5
102
{ACAD_REACTORS
330
ADD4
102
}
330
ADD4
100
AcDbXrecord
280
     1
102
RTVSPost2010Prop28
280
     0
102
RTVSPost2010PropOp28
 70
     1
102
RTVSPost2010Prop29
280
     1
102
RTVSPost2010PropOp29
 70
     1
102
RTVSPost2010Prop30
280
     1
102
RTVSPost2010PropOp30
 70
     1
102
RTVSPost2010Prop31
280
     0
102
RTVSPost2010PropOp31
 70
     1
102
RTVSPost2010Prop32
280
     0
102
RTVSPost2010PropOp32
 70
     1
102
RTVSPost2010Prop33
280
     0
102
RTVSPost2010PropOp33
 70
     1
102
RTVSPost2010Prop34
280
     0
102
RTVSPost2010PropOp34
 70
     1
102
RTVSPost2010Prop35
280
     0
102
RTVSPost2010PropOp35
 70
     1
102
RTVSPost2010Prop36
280
     0
102
RTVSPost2010PropOp36
 70
     1
102
RTVSPost2010Prop37
 90
       50
102
RTVSPost2010PropOp37
 70
     1
102
RTVSPost2010Prop38
140
0.0
102
RTVSPost2010PropOp38
 70
     1
102
RTVSPost2010Prop39
140
1.0
102
RTVSPost2010PropOp39
 70
     1
102
RTVSPost2010Prop40
 90
        0
102
RTVSPost2010PropOp40
 70
     1
102
RTVSPost2010Prop41ColorIndex
 90
       18
102
RTVSPost2010Prop41ColorRGB
 90
        0
102
RTVSPost2010PropOp41
 70
     1
102
RTVSPost2010Prop42
 90
       50
102
RTVSPost2010PropOp42
 70
     1
102
RTVSPost2010Prop43
 90
        3
102
RTVSPost2010PropOp43
 70
     1
102
RTVSPost2010Prop44ColorIndex
 90
        5
102
RTVSPost2010Prop44ColorRGB
 90
      255
102
RTVSPost2010PropOp44
 70
     1
102
RTVSPost2010Prop45
280
     0
102
RTVSPost2010PropOp45
 70
     1
102
RTVSPost2010Prop46
 90
       50
102
RTVSPost2010PropOp46
 70
     1
102
RTVSPost2010Prop47
 90
       50
102
RTVSPost2010PropOp47
 70
     1
102
RTVSPost2010Prop48
 90
       50
102
RTVSPost2010PropOp48
 70
     1
102
RTVSPost2010Prop49
280
     0
102
RTVSPost2010PropOp49
 70
     1
102
RTVSPost2010Prop50
 90
       50
102
RTVSPost2010PropOp50
 70
     1
102
RTVSPost2010Prop51ColorIndex
 90
      256
102
RTVSPost2010Prop51ColorRGB
 90
-16777216
102
RTVSPost2010PropOp51
 70
     0
102
RTVSPost2010Prop52
140
1.0
102
RTVSPost2010PropOp52
 70
     0
102
RTVSPost2010Prop53
 90
        2
102
RTVSPost2010PropOp53
 70
     1
102
RTVSPost2010Prop54
  1
strokes_ogs.tif
102
RTVSPost2010PropOp54
 70
     1
102
RTVSPost2010Prop55
280
     0
102
RTVSPost2010PropOp55
 70
     1
102
RTVSPost2010Prop56
140
1.0
102
RTVSPost2010PropOp56
 70
     1
102
RTVSPost2010Prop57
140
1.0
102
RTVSPost2010PropOp57
 70
     1
102
RTVSPropertyOp0
 70
     1
102
RTVSPropertyOp1
 70
     1
102
RTVSPropertyOp2
 70
     1
102
RTVSPropertyOp3
 70
     1
102
RTVSPropertyOp4
 70
     1
102
RTVSPropertyOp5
 70
     1
102
RTVSPropertyOp6
 70
     1
102
RTVSPropertyOp7
 70
     1
102
RTVSPropertyOp8
 70
     1
102
RTVSPropertyOp9
 70
     1
102
RTVSPropertyOp10
 70
     1
102
RTVSPropertyOp11
 70
     1
102
RTVSPropertyOp12
 70
     1
102
RTVSPropertyOp13
 70
     1
102
RTVSPropertyOp14
 70
     1
102
RTVSPropertyOp15
 70
     1
102
RTVSPropertyOp16
 70
     1
102
RTVSPropertyOp17
 70
     1
102
RTVSPropertyOp18
 70
     1
102
RTVSPropertyOp19
 70
     1
102
RTVSPropertyOp20
 70
     1
102
RTVSPropertyOp21
 70
     1
102
RTVSPropertyOp22
 70
     1
102
RTVSPropertyOp23
 70
     1
102
RTVSPropertyOp24
 70
     1
102
RTVSPropertyOp25
 70
     1
102
RTVSPropertyOp26
 70
     1
102
RTVSPropertyOp27
 70
     1
102
RTVSPropertyOp28
 70
     1
102
RTVSPropertyOp29
 70
     1
102
RTVSPropertyOp30
 70
     1
102
RTVSPropertyOp31
 70
     1
102
RTVSPropertyOp32
 70
     1
102
RTVSPropertyOp33
 70
     1
102
RTVSPropertyOp34
 70
     1
102
RTVSPropertyOp35
 70
     1
102
RTVSPropertyOp36
 70
     1
102
RTVSPropertyOp37
 70
     1
102
RTVSPropertyOp38
 70
     1
102
RTVSPropertyOp39
 70
     1
102
RTVSPropertyOp40
 70
     1
102
RTVSPropertyOp41
 70
     1
102
RTVSPropertyOp42
 70
     1
102
RTVSPropertyOp43
 70
     1
102
RTVSPropertyOp44
 70
     1
102
RTVSPropertyOp45
 70
     1
102
RTVSPropertyOp46
 70
     1
102
RTVSPropertyOp47
 70
     1
102
RTVSPropertyOp48
 70
     1
102
RTVSPropertyOp49
 70
     1
102
RTVSPropertyOp50
 70
     1
102
RTVSPropertyOp51
 70
     0
102
RTVSPropertyOp52
 70
     0
102
RTVSPropertyOp53
 70
     1
102
RTVSPropertyOp54
 70
     1
102
RTVSPropertyOp55
 70
     1
102
RTVSPropertyOp56
 70
     1
102
RTVSPropertyOp57
 70
     1
102
RTVSPropertyOp58
 70
     1
102
RTVSPropertyOp59
 70
     1
102
RTVSPropertyOp60
 70
     1
102
RTVSPropertyOp61
 70
     1
102
RTVSPropertyOp62
 70
     1
  0
XRECORD
  5
ADDD
102
{ACAD_REACTORS
330
ADDC
102
}
330
ADDC
100
AcDbXrecord
280
     1
102
RTVSPost2010Prop28
280
     0
102
RTVSPost2010PropOp28
 70
     1
102
RTVSPost2010Prop29
280
     1
102
RTVSPost2010PropOp29
 70
     1
102
RTVSPost2010Prop30
280
     1
102
RTVSPost2010PropOp30
 70
     1
102
RTVSPost2010Prop31
280
     0
102
RTVSPost2010PropOp31
 70
     1
102
RTVSPost2010Prop32
280
     0
102
RTVSPost2010PropOp32
 70
     1
102
RTVSPost2010Prop33
280
     0
102
RTVSPost2010PropOp33
 70
     1
102
RTVSPost2010Prop34
280
     0
102
RTVSPost2010PropOp34
 70
     1
102
RTVSPost2010Prop35
280
     0
102
RTVSPost2010PropOp35
 70
     1
102
RTVSPost2010Prop36
280
     0
102
RTVSPost2010PropOp36
 70
     1
102
RTVSPost2010Prop37
 90
       50
102
RTVSPost2010PropOp37
 70
     1
102
RTVSPost2010Prop38
140
0.0
102
RTVSPost2010PropOp38
 70
     1
102
RTVSPost2010Prop39
140
1.0
102
RTVSPost2010PropOp39
 70
     1
102
RTVSPost2010Prop40
 90
        0
102
RTVSPost2010PropOp40
 70
     1
102
RTVSPost2010Prop41ColorIndex
 90
       18
102
RTVSPost2010Prop41ColorRGB
 90
        0
102
RTVSPost2010PropOp41
 70
     1
102
RTVSPost2010Prop42
 90
       50
102
RTVSPost2010PropOp42
 70
     1
102
RTVSPost2010Prop43
 90
        3
102
RTVSPost2010PropOp43
 70
     1
102
RTVSPost2010Prop44ColorIndex
 90
        5
102
RTVSPost2010Prop44ColorRGB
 90
      255
102
RTVSPost2010PropOp44
 70
     1
102
RTVSPost2010Prop45
280
     0
102
RTVSPost2010PropOp45
 70
     1
102
RTVSPost2010Prop46
 90
       50
102
RTVSPost2010PropOp46
 70
     1
102
RTVSPost2010Prop47
 90
       50
102
RTVSPost2010PropOp47
 70
     1
102
RTVSPost2010Prop48
 90
       50
102
RTVSPost2010PropOp48
 70
     1
102
RTVSPost2010Prop49
280
     0
102
RTVSPost2010PropOp49
 70
     1
102
RTVSPost2010Prop50
 90
       50
102
RTVSPost2010PropOp50
 70
     1
102
RTVSPost2010Prop51ColorIndex
 90
      256
102
RTVSPost2010Prop51ColorRGB
 90
-16777216
102
RTVSPost2010PropOp51
 70
     0
102
RTVSPost2010Prop52
140
1.0
102
RTVSPost2010PropOp52
 70
     0
102
RTVSPost2010Prop53
 90
        2
102
RTVSPost2010PropOp53
 70
     1
102
RTVSPost2010Prop54
  1
strokes_ogs.tif
102
RTVSPost2010PropOp54
 70
     1
102
RTVSPost2010Prop55
280
     0
102
RTVSPost2010PropOp55
 70
     1
102
RTVSPost2010Prop56
140
1.0
102
RTVSPost2010PropOp56
 70
     1
102
RTVSPost2010Prop57
140
1.0
102
RTVSPost2010PropOp57
 70
     1
102
RTVSPropertyOp0
 70
     1
102
RTVSPropertyOp1
 70
     1
102
RTVSPropertyOp2
 70
     1
102
RTVSPropertyOp3
 70
     1
102
RTVSPropertyOp4
 70
     1
102
RTVSPropertyOp5
 70
     1
102
RTVSPropertyOp6
 70
     1
102
RTVSPropertyOp7
 70
     1
102
RTVSPropertyOp8
 70
     1
102
RTVSPropertyOp9
 70
     1
102
RTVSPropertyOp10
 70
     1
102
RTVSPropertyOp11
 70
     1
102
RTVSPropertyOp12
 70
     1
102
RTVSPropertyOp13
 70
     1
102
RTVSPropertyOp14
 70
     1
102
RTVSPropertyOp15
 70
     1
102
RTVSPropertyOp16
 70
     1
102
RTVSPropertyOp17
 70
     1
102
RTVSPropertyOp18
 70
     1
102
RTVSPropertyOp19
 70
     1
102
RTVSPropertyOp20
 70
     1
102
RTVSPropertyOp21
 70
     1
102
RTVSPropertyOp22
 70
     1
102
RTVSPropertyOp23
 70
     1
102
RTVSPropertyOp24
 70
     1
102
RTVSPropertyOp25
 70
     1
102
RTVSPropertyOp26
 70
     1
102
RTVSPropertyOp27
 70
     1
102
RTVSPropertyOp28
 70
     1
102
RTVSPropertyOp29
 70
     1
102
RTVSPropertyOp30
 70
     1
102
RTVSPropertyOp31
 70
     1
102
RTVSPropertyOp32
 70
     1
102
RTVSPropertyOp33
 70
     1
102
RTVSPropertyOp34
 70
     1
102
RTVSPropertyOp35
 70
     1
102
RTVSPropertyOp36
 70
     1
102
RTVSPropertyOp37
 70
     1
102
RTVSPropertyOp38
 70
     1
102
RTVSPropertyOp39
 70
     1
102
RTVSPropertyOp40
 70
     1
102
RTVSPropertyOp41
 70
     1
102
RTVSPropertyOp42
 70
     1
102
RTVSPropertyOp43
 70
     1
102
RTVSPropertyOp44
 70
     1
102
RTVSPropertyOp45
 70
     1
102
RTVSPropertyOp46
 70
     1
102
RTVSPropertyOp47
 70
     1
102
RTVSPropertyOp48
 70
     1
102
RTVSPropertyOp49
 70
     1
102
RTVSPropertyOp50
 70
     1
102
RTVSPropertyOp51
 70
     0
102
RTVSPropertyOp52
 70
     0
102
RTVSPropertyOp53
 70
     1
102
RTVSPropertyOp54
 70
     1
102
RTVSPropertyOp55
 70
     1
102
RTVSPropertyOp56
 70
     1
102
RTVSPropertyOp57
 70
     1
102
RTVSPropertyOp58
 70
     1
102
RTVSPropertyOp59
 70
     1
102
RTVSPropertyOp60
 70
     1
102
RTVSPropertyOp61
 70
     1
102
RTVSPropertyOp62
 70
     1
  0
XRECORD
  5
ADF9
102
{ACAD_REACTORS
330
ADF8
102
}
330
ADF8
100
AcDbXrecord
280
     1
102
RTVSPost2010Prop28
280
     0
102
RTVSPost2010PropOp28
 70
     1
102
RTVSPost2010Prop29
280
     1
102
RTVSPost2010PropOp29
 70
     1
102
RTVSPost2010Prop30
280
     1
102
RTVSPost2010PropOp30
 70
     1
102
RTVSPost2010Prop31
280
     0
102
RTVSPost2010PropOp31
 70
     1
102
RTVSPost2010Prop32
280
     0
102
RTVSPost2010PropOp32
 70
     1
102
RTVSPost2010Prop33
280
     0
102
RTVSPost2010PropOp33
 70
     1
102
RTVSPost2010Prop34
280
     0
102
RTVSPost2010PropOp34
 70
     1
102
RTVSPost2010Prop35
280
     0
102
RTVSPost2010PropOp35
 70
     1
102
RTVSPost2010Prop36
280
     0
102
RTVSPost2010PropOp36
 70
     1
102
RTVSPost2010Prop37
 90
       50
102
RTVSPost2010PropOp37
 70
     0
102
RTVSPost2010Prop38
140
0.0
102
RTVSPost2010PropOp38
 70
     0
102
RTVSPost2010Prop39
140
1.0
102
RTVSPost2010PropOp39
 70
     0
102
RTVSPost2010Prop40
 90
        0
102
RTVSPost2010PropOp40
 70
     0
102
RTVSPost2010Prop41ColorIndex
 90
       18
102
RTVSPost2010Prop41ColorRGB
 90
        0
102
RTVSPost2010PropOp41
 70
     0
102
RTVSPost2010Prop42
 90
       50
102
RTVSPost2010PropOp42
 70
     0
102
RTVSPost2010Prop43
 90
        3
102
RTVSPost2010PropOp43
 70
     0
102
RTVSPost2010Prop44ColorIndex
 90
        5
102
RTVSPost2010Prop44ColorRGB
 90
      255
102
RTVSPost2010PropOp44
 70
     0
102
RTVSPost2010Prop45
280
     0
102
RTVSPost2010PropOp45
 70
     1
102
RTVSPost2010Prop46
 90
       50
102
RTVSPost2010PropOp46
 70
     0
102
RTVSPost2010Prop47
 90
       50
102
RTVSPost2010PropOp47
 70
     0
102
RTVSPost2010Prop48
 90
       50
102
RTVSPost2010PropOp48
 70
     0
102
RTVSPost2010Prop49
280
     0
102
RTVSPost2010PropOp49
 70
     1
102
RTVSPost2010Prop50
 90
       50
102
RTVSPost2010PropOp50
 70
     0
102
RTVSPost2010Prop51ColorIndex
 90
      256
102
RTVSPost2010Prop51ColorRGB
 90
-16777216
102
RTVSPost2010PropOp51
 70
     0
102
RTVSPost2010Prop52
140
1.0
102
RTVSPost2010PropOp52
 70
     0
102
RTVSPost2010Prop53
 90
        2
102
RTVSPost2010PropOp53
 70
     0
102
RTVSPost2010Prop54
  1
strokes_ogs.tif
102
RTVSPost2010PropOp54
 70
     0
102
RTVSPost2010Prop55
280
     0
102
RTVSPost2010PropOp55
 70
     1
102
RTVSPost2010Prop56
140
1.0
102
RTVSPost2010PropOp56
 70
     0
102
RTVSPost2010Prop57
140
1.0
102
RTVSPost2010PropOp57
 70
     0
102
RTVSPropertyOp0
 70
     0
102
RTVSPropertyOp1
 70
     0
102
RTVSPropertyOp2
 70
     0
102
RTVSPropertyOp3
 70
     0
102
RTVSPropertyOp4
 70
     0
102
RTVSPropertyOp5
 70
     0
102
RTVSPropertyOp6
 70
     0
102
RTVSPropertyOp7
 70
     0
102
RTVSPropertyOp8
 70
     0
102
RTVSPropertyOp9
 70
     0
102
RTVSPropertyOp10
 70
     0
102
RTVSPropertyOp11
 70
     0
102
RTVSPropertyOp12
 70
     0
102
RTVSPropertyOp13
 70
     0
102
RTVSPropertyOp14
 70
     2
102
RTVSPropertyOp15
 70
     0
102
RTVSPropertyOp16
 70
     0
102
RTVSPropertyOp17
 70
     0
102
RTVSPropertyOp18
 70
     0
102
RTVSPropertyOp19
 70
     0
102
RTVSPropertyOp20
 70
     0
102
RTVSPropertyOp21
 70
     0
102
RTVSPropertyOp22
 70
     0
102
RTVSPropertyOp23
 70
     0
102
RTVSPropertyOp24
 70
     0
102
RTVSPropertyOp25
 70
     0
102
RTVSPropertyOp26
 70
     0
102
RTVSPropertyOp27
 70
     0
102
RTVSPropertyOp28
 70
     1
102
RTVSPropertyOp29
 70
     1
102
RTVSPropertyOp30
 70
     1
102
RTVSPropertyOp31
 70
     1
102
RTVSPropertyOp32
 70
     1
102
RTVSPropertyOp33
 70
     1
102
RTVSPropertyOp34
 70
     1
102
RTVSPropertyOp35
 70
     1
102
RTVSPropertyOp36
 70
     1
102
RTVSPropertyOp37
 70
     0
102
RTVSPropertyOp38
 70
     0
102
RTVSPropertyOp39
 70
     0
102
RTVSPropertyOp40
 70
     0
102
RTVSPropertyOp41
 70
     0
102
RTVSPropertyOp42
 70
     0
102
RTVSPropertyOp43
 70
     0
102
RTVSPropertyOp44
 70
     0
102
RTVSPropertyOp45
 70
     1
102
RTVSPropertyOp46
 70
     0
102
RTVSPropertyOp47
 70
     0
102
RTVSPropertyOp48
 70
     0
102
RTVSPropertyOp49
 70
     1
102
RTVSPropertyOp50
 70
     0
102
RTVSPropertyOp51
 70
     0
102
RTVSPropertyOp52
 70
     0
102
RTVSPropertyOp53
 70
     0
102
RTVSPropertyOp54
 70
     0
102
RTVSPropertyOp55
 70
     1
102
RTVSPropertyOp56
 70
     0
102
RTVSPropertyOp57
 70
     0
102
RTVSPropertyOp58
 70
     0
102
RTVSPropertyOp59
 70
     0
102
RTVSPropertyOp60
 70
     0
102
RTVSPropertyOp61
 70
     0
102
RTVSPropertyOp62
 70
     0
  0
XRECORD
  5
ADE9
102
{ACAD_REACTORS
330
ADE8
102
}
330
ADE8
100
AcDbXrecord
280
     1
102
RTVSPost2010Prop28
280
     0
102
RTVSPost2010PropOp28
 70
     1
102
RTVSPost2010Prop29
280
     1
102
RTVSPost2010PropOp29
 70
     1
102
RTVSPost2010Prop30
280
     1
102
RTVSPost2010PropOp30
 70
     1
102
RTVSPost2010Prop31
280
     0
102
RTVSPost2010PropOp31
 70
     1
102
RTVSPost2010Prop32
280
     0
102
RTVSPost2010PropOp32
 70
     1
102
RTVSPost2010Prop33
280
     0
102
RTVSPost2010PropOp33
 70
     1
102
RTVSPost2010Prop34
280
     0
102
RTVSPost2010PropOp34
 70
     1
102
RTVSPost2010Prop35
280
     0
102
RTVSPost2010PropOp35
 70
     1
102
RTVSPost2010Prop36
280
     0
102
RTVSPost2010PropOp36
 70
     1
102
RTVSPost2010Prop37
 90
       50
102
RTVSPost2010PropOp37
 70
     1
102
RTVSPost2010Prop38
140
0.0
102
RTVSPost2010PropOp38
 70
     1
102
RTVSPost2010Prop39
140
1.0
102
RTVSPost2010PropOp39
 70
     1
102
RTVSPost2010Prop40
 90
        0
102
RTVSPost2010PropOp40
 70
     1
102
RTVSPost2010Prop41ColorIndex
 90
       18
102
RTVSPost2010Prop41ColorRGB
 90
        0
102
RTVSPost2010PropOp41
 70
     1
102
RTVSPost2010Prop42
 90
       50
102
RTVSPost2010PropOp42
 70
     1
102
RTVSPost2010Prop43
 90
        3
102
RTVSPost2010PropOp43
 70
     1
102
RTVSPost2010Prop44ColorIndex
 90
        5
102
RTVSPost2010Prop44ColorRGB
 90
      255
102
RTVSPost2010PropOp44
 70
     1
102
RTVSPost2010Prop45
280
     0
102
RTVSPost2010PropOp45
 70
     1
102
RTVSPost2010Prop46
 90
       50
102
RTVSPost2010PropOp46
 70
     1
102
RTVSPost2010Prop47
 90
       50
102
RTVSPost2010PropOp47
 70
     1
102
RTVSPost2010Prop48
 90
       50
102
RTVSPost2010PropOp48
 70
     1
102
RTVSPost2010Prop49
280
     0
102
RTVSPost2010PropOp49
 70
     1
102
RTVSPost2010Prop50
 90
       50
102
RTVSPost2010PropOp50
 70
     1
102
RTVSPost2010Prop51ColorIndex
 90
      256
102
RTVSPost2010Prop51ColorRGB
 90
-16777216
102
RTVSPost2010PropOp51
 70
     0
102
RTVSPost2010Prop52
140
1.0
102
RTVSPost2010PropOp52
 70
     0
102
RTVSPost2010Prop53
 90
        2
102
RTVSPost2010PropOp53
 70
     1
102
RTVSPost2010Prop54
  1
strokes_ogs.tif
102
RTVSPost2010PropOp54
 70
     1
102
RTVSPost2010Prop55
280
     0
102
RTVSPost2010PropOp55
 70
     1
102
RTVSPost2010Prop56
140
1.0
102
RTVSPost2010PropOp56
 70
     1
102
RTVSPost2010Prop57
140
1.0
102
RTVSPost2010PropOp57
 70
     1
102
RTVSPropertyOp0
 70
     1
102
RTVSPropertyOp1
 70
     1
102
RTVSPropertyOp2
 70
     1
102
RTVSPropertyOp3
 70
     1
102
RTVSPropertyOp4
 70
     1
102
RTVSPropertyOp5
 70
     1
102
RTVSPropertyOp6
 70
     1
102
RTVSPropertyOp7
 70
     1
102
RTVSPropertyOp8
 70
     1
102
RTVSPropertyOp9
 70
     1
102
RTVSPropertyOp10
 70
     1
102
RTVSPropertyOp11
 70
     1
102
RTVSPropertyOp12
 70
     1
102
RTVSPropertyOp13
 70
     1
102
RTVSPropertyOp14
 70
     1
102
RTVSPropertyOp15
 70
     1
102
RTVSPropertyOp16
 70
     1
102
RTVSPropertyOp17
 70
     1
102
RTVSPropertyOp18
 70
     1
102
RTVSPropertyOp19
 70
     1
102
RTVSPropertyOp20
 70
     1
102
RTVSPropertyOp21
 70
     1
102
RTVSPropertyOp22
 70
     1
102
RTVSPropertyOp23
 70
     1
102
RTVSPropertyOp24
 70
     1
102
RTVSPropertyOp25
 70
     1
102
RTVSPropertyOp26
 70
     1
102
RTVSPropertyOp27
 70
     1
102
RTVSPropertyOp28
 70
     1
102
RTVSPropertyOp29
 70
     1
102
RTVSPropertyOp30
 70
     1
102
RTVSPropertyOp31
 70
     1
102
RTVSPropertyOp32
 70
     1
102
RTVSPropertyOp33
 70
     1
102
RTVSPropertyOp34
 70
     1
102
RTVSPropertyOp35
 70
     1
102
RTVSPropertyOp36
 70
     1
102
RTVSPropertyOp37
 70
     1
102
RTVSPropertyOp38
 70
     1
102
RTVSPropertyOp39
 70
     1
102
RTVSPropertyOp40
 70
     1
102
RTVSPropertyOp41
 70
     1
102
RTVSPropertyOp42
 70
     1
102
RTVSPropertyOp43
 70
     1
102
RTVSPropertyOp44
 70
     1
102
RTVSPropertyOp45
 70
     1
102
RTVSPropertyOp46
 70
     1
102
RTVSPropertyOp47
 70
     1
102
RTVSPropertyOp48
 70
     1
102
RTVSPropertyOp49
 70
     1
102
RTVSPropertyOp50
 70
     1
102
RTVSPropertyOp51
 70
     0
102
RTVSPropertyOp52
 70
     0
102
RTVSPropertyOp53
 70
     1
102
RTVSPropertyOp54
 70
     1
102
RTVSPropertyOp55
 70
     1
102
RTVSPropertyOp56
 70
     1
102
RTVSPropertyOp57
 70
     1
102
RTVSPropertyOp58
 70
     1
102
RTVSPropertyOp59
 70
     1
102
RTVSPropertyOp60
 70
     1
102
RTVSPropertyOp61
 70
     1
102
RTVSPropertyOp62
 70
     1
  0
XRECORD
  5
ADFB
102
{ACAD_REACTORS
330
ADFA
102
}
330
ADFA
100
AcDbXrecord
280
     1
102
RTVSPost2010Prop28
280
     0
102
RTVSPost2010PropOp28
 70
     1
102
RTVSPost2010Prop29
280
     1
102
RTVSPost2010PropOp29
 70
     1
102
RTVSPost2010Prop30
280
     1
102
RTVSPost2010PropOp30
 70
     1
102
RTVSPost2010Prop31
280
     0
102
RTVSPost2010PropOp31
 70
     1
102
RTVSPost2010Prop32
280
     0
102
RTVSPost2010PropOp32
 70
     1
102
RTVSPost2010Prop33
280
     0
102
RTVSPost2010PropOp33
 70
     1
102
RTVSPost2010Prop34
280
     0
102
RTVSPost2010PropOp34
 70
     1
102
RTVSPost2010Prop35
280
     0
102
RTVSPost2010PropOp35
 70
     1
102
RTVSPost2010Prop36
280
     0
102
RTVSPost2010PropOp36
 70
     1
102
RTVSPost2010Prop37
 90
       50
102
RTVSPost2010PropOp37
 70
     0
102
RTVSPost2010Prop38
140
0.0
102
RTVSPost2010PropOp38
 70
     0
102
RTVSPost2010Prop39
140
1.0
102
RTVSPost2010PropOp39
 70
     0
102
RTVSPost2010Prop40
 90
        0
102
RTVSPost2010PropOp40
 70
     0
102
RTVSPost2010Prop41ColorIndex
 90
       18
102
RTVSPost2010Prop41ColorRGB
 90
        0
102
RTVSPost2010PropOp41
 70
     0
102
RTVSPost2010Prop42
 90
       50
102
RTVSPost2010PropOp42
 70
     0
102
RTVSPost2010Prop43
 90
        3
102
RTVSPost2010PropOp43
 70
     0
102
RTVSPost2010Prop44ColorIndex
 90
        5
102
RTVSPost2010Prop44ColorRGB
 90
      255
102
RTVSPost2010PropOp44
 70
     0
102
RTVSPost2010Prop45
280
     0
102
RTVSPost2010PropOp45
 70
     1
102
RTVSPost2010Prop46
 90
       50
102
RTVSPost2010PropOp46
 70
     0
102
RTVSPost2010Prop47
 90
       50
102
RTVSPost2010PropOp47
 70
     0
102
RTVSPost2010Prop48
 90
       50
102
RTVSPost2010PropOp48
 70
     0
102
RTVSPost2010Prop49
280
     0
102
RTVSPost2010PropOp49
 70
     1
102
RTVSPost2010Prop50
 90
       50
102
RTVSPost2010PropOp50
 70
     0
102
RTVSPost2010Prop51ColorIndex
 90
      256
102
RTVSPost2010Prop51ColorRGB
 90
-16777216
102
RTVSPost2010PropOp51
 70
     0
102
RTVSPost2010Prop52
140
1.0
102
RTVSPost2010PropOp52
 70
     0
102
RTVSPost2010Prop53
 90
        2
102
RTVSPost2010PropOp53
 70
     0
102
RTVSPost2010Prop54
  1
strokes_ogs.tif
102
RTVSPost2010PropOp54
 70
     0
102
RTVSPost2010Prop55
280
     0
102
RTVSPost2010PropOp55
 70
     1
102
RTVSPost2010Prop56
140
1.0
102
RTVSPost2010PropOp56
 70
     0
102
RTVSPost2010Prop57
140
1.0
102
RTVSPost2010PropOp57
 70
     0
102
RTVSPropertyOp0
 70
     0
102
RTVSPropertyOp1
 70
     0
102
RTVSPropertyOp2
 70
     0
102
RTVSPropertyOp3
 70
     0
102
RTVSPropertyOp4
 70
     0
102
RTVSPropertyOp5
 70
     0
102
RTVSPropertyOp6
 70
     0
102
RTVSPropertyOp7
 70
     0
102
RTVSPropertyOp8
 70
     0
102
RTVSPropertyOp9
 70
     0
102
RTVSPropertyOp10
 70
     0
102
RTVSPropertyOp11
 70
     0
102
RTVSPropertyOp12
 70
     0
102
RTVSPropertyOp13
 70
     0
102
RTVSPropertyOp14
 70
     2
102
RTVSPropertyOp15
 70
     0
102
RTVSPropertyOp16
 70
     0
102
RTVSPropertyOp17
 70
     0
102
RTVSPropertyOp18
 70
     0
102
RTVSPropertyOp19
 70
     0
102
RTVSPropertyOp20
 70
     0
102
RTVSPropertyOp21
 70
     0
102
RTVSPropertyOp22
 70
     0
102
RTVSPropertyOp23
 70
     0
102
RTVSPropertyOp24
 70
     0
102
RTVSPropertyOp25
 70
     0
102
RTVSPropertyOp26
 70
     0
102
RTVSPropertyOp27
 70
     0
102
RTVSPropertyOp28
 70
     1
102
RTVSPropertyOp29
 70
     1
102
RTVSPropertyOp30
 70
     1
102
RTVSPropertyOp31
 70
     1
102
RTVSPropertyOp32
 70
     1
102
RTVSPropertyOp33
 70
     1
102
RTVSPropertyOp34
 70
     1
102
RTVSPropertyOp35
 70
     1
102
RTVSPropertyOp36
 70
     1
102
RTVSPropertyOp37
 70
     0
102
RTVSPropertyOp38
 70
     0
102
RTVSPropertyOp39
 70
     0
102
RTVSPropertyOp40
 70
     0
102
RTVSPropertyOp41
 70
     0
102
RTVSPropertyOp42
 70
     0
102
RTVSPropertyOp43
 70
     0
102
RTVSPropertyOp44
 70
     0
102
RTVSPropertyOp45
 70
     1
102
RTVSPropertyOp46
 70
     0
102
RTVSPropertyOp47
 70
     0
102
RTVSPropertyOp48
 70
     0
102
RTVSPropertyOp49
 70
     1
102
RTVSPropertyOp50
 70
     0
102
RTVSPropertyOp51
 70
     0
102
RTVSPropertyOp52
 70
     0
102
RTVSPropertyOp53
 70
     0
102
RTVSPropertyOp54
 70
     0
102
RTVSPropertyOp55
 70
     1
102
RTVSPropertyOp56
 70
     0
102
RTVSPropertyOp57
 70
     0
102
RTVSPropertyOp58
 70
     0
102
RTVSPropertyOp59
 70
     0
102
RTVSPropertyOp60
 70
     0
102
RTVSPropertyOp61
 70
     0
102
RTVSPropertyOp62
 70
     0
  0
XRECORD
  5
ADE1
102
{ACAD_REACTORS
330
ADE0
102
}
330
ADE0
100
AcDbXrecord
280
     1
102
RTVSPost2010Prop28
280
     0
102
RTVSPost2010PropOp28
 70
     1
102
RTVSPost2010Prop29
280
     1
102
RTVSPost2010PropOp29
 70
     1
102
RTVSPost2010Prop30
280
     1
102
RTVSPost2010PropOp30
 70
     1
102
RTVSPost2010Prop31
280
     0
102
RTVSPost2010PropOp31
 70
     1
102
RTVSPost2010Prop32
280
     0
102
RTVSPost2010PropOp32
 70
     1
102
RTVSPost2010Prop33
280
     0
102
RTVSPost2010PropOp33
 70
     1
102
RTVSPost2010Prop34
280
     0
102
RTVSPost2010PropOp34
 70
     1
102
RTVSPost2010Prop35
280
     0
102
RTVSPost2010PropOp35
 70
     1
102
RTVSPost2010Prop36
280
     0
102
RTVSPost2010PropOp36
 70
     1
102
RTVSPost2010Prop37
 90
       50
102
RTVSPost2010PropOp37
 70
     1
102
RTVSPost2010Prop38
140
0.0
102
RTVSPost2010PropOp38
 70
     1
102
RTVSPost2010Prop39
140
1.0
102
RTVSPost2010PropOp39
 70
     1
102
RTVSPost2010Prop40
 90
        0
102
RTVSPost2010PropOp40
 70
     1
102
RTVSPost2010Prop41ColorIndex
 90
       18
102
RTVSPost2010Prop41ColorRGB
 90
        0
102
RTVSPost2010PropOp41
 70
     1
102
RTVSPost2010Prop42
 90
       50
102
RTVSPost2010PropOp42
 70
     1
102
RTVSPost2010Prop43
 90
        3
102
RTVSPost2010PropOp43
 70
     1
102
RTVSPost2010Prop44ColorIndex
 90
        5
102
RTVSPost2010Prop44ColorRGB
 90
      255
102
RTVSPost2010PropOp44
 70
     1
102
RTVSPost2010Prop45
280
     0
102
RTVSPost2010PropOp45
 70
     1
102
RTVSPost2010Prop46
 90
       50
102
RTVSPost2010PropOp46
 70
     1
102
RTVSPost2010Prop47
 90
       50
102
RTVSPost2010PropOp47
 70
     1
102
RTVSPost2010Prop48
 90
       50
102
RTVSPost2010PropOp48
 70
     1
102
RTVSPost2010Prop49
280
     0
102
RTVSPost2010PropOp49
 70
     1
102
RTVSPost2010Prop50
 90
       50
102
RTVSPost2010PropOp50
 70
     1
102
RTVSPost2010Prop51ColorIndex
 90
      256
102
RTVSPost2010Prop51ColorRGB
 90
-16777216
102
RTVSPost2010PropOp51
 70
     0
102
RTVSPost2010Prop52
140
1.0
102
RTVSPost2010PropOp52
 70
     0
102
RTVSPost2010Prop53
 90
        2
102
RTVSPost2010PropOp53
 70
     1
102
RTVSPost2010Prop54
  1
strokes_ogs.tif
102
RTVSPost2010PropOp54
 70
     1
102
RTVSPost2010Prop55
280
     0
102
RTVSPost2010PropOp55
 70
     1
102
RTVSPost2010Prop56
140
1.0
102
RTVSPost2010PropOp56
 70
     1
102
RTVSPost2010Prop57
140
1.0
102
RTVSPost2010PropOp57
 70
     1
102
RTVSPropertyOp0
 70
     1
102
RTVSPropertyOp1
 70
     1
102
RTVSPropertyOp2
 70
     1
102
RTVSPropertyOp3
 70
     1
102
RTVSPropertyOp4
 70
     1
102
RTVSPropertyOp5
 70
     1
102
RTVSPropertyOp6
 70
     1
102
RTVSPropertyOp7
 70
     1
102
RTVSPropertyOp8
 70
     1
102
RTVSPropertyOp9
 70
     1
102
RTVSPropertyOp10
 70
     1
102
RTVSPropertyOp11
 70
     1
102
RTVSPropertyOp12
 70
     1
102
RTVSPropertyOp13
 70
     1
102
RTVSPropertyOp14
 70
     1
102
RTVSPropertyOp15
 70
     1
102
RTVSPropertyOp16
 70
     1
102
RTVSPropertyOp17
 70
     1
102
RTVSPropertyOp18
 70
     1
102
RTVSPropertyOp19
 70
     1
102
RTVSPropertyOp20
 70
     1
102
RTVSPropertyOp21
 70
     1
102
RTVSPropertyOp22
 70
     1
102
RTVSPropertyOp23
 70
     1
102
RTVSPropertyOp24
 70
     1
102
RTVSPropertyOp25
 70
     1
102
RTVSPropertyOp26
 70
     1
102
RTVSPropertyOp27
 70
     1
102
RTVSPropertyOp28
 70
     1
102
RTVSPropertyOp29
 70
     1
102
RTVSPropertyOp30
 70
     1
102
RTVSPropertyOp31
 70
     1
102
RTVSPropertyOp32
 70
     1
102
RTVSPropertyOp33
 70
     1
102
RTVSPropertyOp34
 70
     1
102
RTVSPropertyOp35
 70
     1
102
RTVSPropertyOp36
 70
     1
102
RTVSPropertyOp37
 70
     1
102
RTVSPropertyOp38
 70
     1
102
RTVSPropertyOp39
 70
     1
102
RTVSPropertyOp40
 70
     1
102
RTVSPropertyOp41
 70
     1
102
RTVSPropertyOp42
 70
     1
102
RTVSPropertyOp43
 70
     1
102
RTVSPropertyOp44
 70
     1
102
RTVSPropertyOp45
 70
     1
102
RTVSPropertyOp46
 70
     1
102
RTVSPropertyOp47
 70
     1
102
RTVSPropertyOp48
 70
     1
102
RTVSPropertyOp49
 70
     1
102
RTVSPropertyOp50
 70
     1
102
RTVSPropertyOp51
 70
     0
102
RTVSPropertyOp52
 70
     0
102
RTVSPropertyOp53
 70
     1
102
RTVSPropertyOp54
 70
     1
102
RTVSPropertyOp55
 70
     1
102
RTVSPropertyOp56
 70
     1
102
RTVSPropertyOp57
 70
     1
102
RTVSPropertyOp58
 70
     1
102
RTVSPropertyOp59
 70
     1
102
RTVSPropertyOp60
 70
     1
102
RTVSPropertyOp61
 70
     1
102
RTVSPropertyOp62
 70
     1
  0
XRECORD
  5
ADF7
102
{ACAD_REACTORS
330
ADF6
102
}
330
ADF6
100
AcDbXrecord
280
     1
102
RTVSPost2010Prop28
280
     0
102
RTVSPost2010PropOp28
 70
     1
102
RTVSPost2010Prop29
280
     1
102
RTVSPost2010PropOp29
 70
     1
102
RTVSPost2010Prop30
280
     1
102
RTVSPost2010PropOp30
 70
     1
102
RTVSPost2010Prop31
280
     0
102
RTVSPost2010PropOp31
 70
     1
102
RTVSPost2010Prop32
280
     0
102
RTVSPost2010PropOp32
 70
     1
102
RTVSPost2010Prop33
280
     0
102
RTVSPost2010PropOp33
 70
     1
102
RTVSPost2010Prop34
280
     0
102
RTVSPost2010PropOp34
 70
     1
102
RTVSPost2010Prop35
280
     0
102
RTVSPost2010PropOp35
 70
     1
102
RTVSPost2010Prop36
280
     0
102
RTVSPost2010PropOp36
 70
     1
102
RTVSPost2010Prop37
 90
       50
102
RTVSPost2010PropOp37
 70
     1
102
RTVSPost2010Prop38
140
0.0
102
RTVSPost2010PropOp38
 70
     1
102
RTVSPost2010Prop39
140
1.0
102
RTVSPost2010PropOp39
 70
     1
102
RTVSPost2010Prop40
 90
        0
102
RTVSPost2010PropOp40
 70
     1
102
RTVSPost2010Prop41ColorIndex
 90
       18
102
RTVSPost2010Prop41ColorRGB
 90
        0
102
RTVSPost2010PropOp41
 70
     1
102
RTVSPost2010Prop42
 90
       50
102
RTVSPost2010PropOp42
 70
     1
102
RTVSPost2010Prop43
 90
        3
102
RTVSPost2010PropOp43
 70
     1
102
RTVSPost2010Prop44ColorIndex
 90
        5
102
RTVSPost2010Prop44ColorRGB
 90
      255
102
RTVSPost2010PropOp44
 70
     1
102
RTVSPost2010Prop45
280
     0
102
RTVSPost2010PropOp45
 70
     1
102
RTVSPost2010Prop46
 90
       50
102
RTVSPost2010PropOp46
 70
     1
102
RTVSPost2010Prop47
 90
       50
102
RTVSPost2010PropOp47
 70
     1
102
RTVSPost2010Prop48
 90
       50
102
RTVSPost2010PropOp48
 70
     1
102
RTVSPost2010Prop49
280
     0
102
RTVSPost2010PropOp49
 70
     1
102
RTVSPost2010Prop50
 90
       50
102
RTVSPost2010PropOp50
 70
     1
102
RTVSPost2010Prop51ColorIndex
 90
      256
102
RTVSPost2010Prop51ColorRGB
 90
-16777216
102
RTVSPost2010PropOp51
 70
     0
102
RTVSPost2010Prop52
140
1.0
102
RTVSPost2010PropOp52
 70
     0
102
RTVSPost2010Prop53
 90
        2
102
RTVSPost2010PropOp53
 70
     1
102
RTVSPost2010Prop54
  1
strokes_ogs.tif
102
RTVSPost2010PropOp54
 70
     1
102
RTVSPost2010Prop55
280
     0
102
RTVSPost2010PropOp55
 70
     1
102
RTVSPost2010Prop56
140
1.0
102
RTVSPost2010PropOp56
 70
     1
102
RTVSPost2010Prop57
140
1.0
102
RTVSPost2010PropOp57
 70
     1
102
RTVSPropertyOp0
 70
     1
102
RTVSPropertyOp1
 70
     1
102
RTVSPropertyOp2
 70
     1
102
RTVSPropertyOp3
 70
     1
102
RTVSPropertyOp4
 70
     1
102
RTVSPropertyOp5
 70
     1
102
RTVSPropertyOp6
 70
     1
102
RTVSPropertyOp7
 70
     1
102
RTVSPropertyOp8
 70
     1
102
RTVSPropertyOp9
 70
     1
102
RTVSPropertyOp10
 70
     1
102
RTVSPropertyOp11
 70
     1
102
RTVSPropertyOp12
 70
     1
102
RTVSPropertyOp13
 70
     1
102
RTVSPropertyOp14
 70
     1
102
RTVSPropertyOp15
 70
     1
102
RTVSPropertyOp16
 70
     1
102
RTVSPropertyOp17
 70
     1
102
RTVSPropertyOp18
 70
     1
102
RTVSPropertyOp19
 70
     1
102
RTVSPropertyOp20
 70
     1
102
RTVSPropertyOp21
 70
     1
102
RTVSPropertyOp22
 70
     1
102
RTVSPropertyOp23
 70
     1
102
RTVSPropertyOp24
 70
     1
102
RTVSPropertyOp25
 70
     1
102
RTVSPropertyOp26
 70
     1
102
RTVSPropertyOp27
 70
     1
102
RTVSPropertyOp28
 70
     1
102
RTVSPropertyOp29
 70
     1
102
RTVSPropertyOp30
 70
     1
102
RTVSPropertyOp31
 70
     1
102
RTVSPropertyOp32
 70
     1
102
RTVSPropertyOp33
 70
     1
102
RTVSPropertyOp34
 70
     1
102
RTVSPropertyOp35
 70
     1
102
RTVSPropertyOp36
 70
     1
102
RTVSPropertyOp37
 70
     1
102
RTVSPropertyOp38
 70
     1
102
RTVSPropertyOp39
 70
     1
102
RTVSPropertyOp40
 70
     1
102
RTVSPropertyOp41
 70
     1
102
RTVSPropertyOp42
 70
     1
102
RTVSPropertyOp43
 70
     1
102
RTVSPropertyOp44
 70
     1
102
RTVSPropertyOp45
 70
     1
102
RTVSPropertyOp46
 70
     1
102
RTVSPropertyOp47
 70
     1
102
RTVSPropertyOp48
 70
     1
102
RTVSPropertyOp49
 70
     1
102
RTVSPropertyOp50
 70
     1
102
RTVSPropertyOp51
 70
     0
102
RTVSPropertyOp52
 70
     0
102
RTVSPropertyOp53
 70
     1
102
RTVSPropertyOp54
 70
     1
102
RTVSPropertyOp55
 70
     1
102
RTVSPropertyOp56
 70
     1
102
RTVSPropertyOp57
 70
     1
102
RTVSPropertyOp58
 70
     1
102
RTVSPropertyOp59
 70
     1
102
RTVSPropertyOp60
 70
     1
102
RTVSPropertyOp61
 70
     1
102
RTVSPropertyOp62
 70
     1
  0
XRECORD
  5
ADF5
102
{ACAD_REACTORS
330
ADF4
102
}
330
ADF4
100
AcDbXrecord
280
     1
102
RTVSPost2010Prop28
280
     0
102
RTVSPost2010PropOp28
 70
     1
102
RTVSPost2010Prop29
280
     1
102
RTVSPost2010PropOp29
 70
     1
102
RTVSPost2010Prop30
280
     1
102
RTVSPost2010PropOp30
 70
     1
102
RTVSPost2010Prop31
280
     0
102
RTVSPost2010PropOp31
 70
     1
102
RTVSPost2010Prop32
280
     0
102
RTVSPost2010PropOp32
 70
     1
102
RTVSPost2010Prop33
280
     0
102
RTVSPost2010PropOp33
 70
     1
102
RTVSPost2010Prop34
280
     0
102
RTVSPost2010PropOp34
 70
     1
102
RTVSPost2010Prop35
280
     0
102
RTVSPost2010PropOp35
 70
     1
102
RTVSPost2010Prop36
280
     0
102
RTVSPost2010PropOp36
 70
     1
102
RTVSPost2010Prop37
 90
       50
102
RTVSPost2010PropOp37
 70
     1
102
RTVSPost2010Prop38
140
0.0
102
RTVSPost2010PropOp38
 70
     1
102
RTVSPost2010Prop39
140
1.0
102
RTVSPost2010PropOp39
 70
     1
102
RTVSPost2010Prop40
 90
        0
102
RTVSPost2010PropOp40
 70
     1
102
RTVSPost2010Prop41ColorIndex
 90
       18
102
RTVSPost2010Prop41ColorRGB
 90
        0
102
RTVSPost2010PropOp41
 70
     1
102
RTVSPost2010Prop42
 90
       50
102
RTVSPost2010PropOp42
 70
     1
102
RTVSPost2010Prop43
 90
        3
102
RTVSPost2010PropOp43
 70
     1
102
RTVSPost2010Prop44ColorIndex
 90
        5
102
RTVSPost2010Prop44ColorRGB
 90
      255
102
RTVSPost2010PropOp44
 70
     1
102
RTVSPost2010Prop45
280
     0
102
RTVSPost2010PropOp45
 70
     1
102
RTVSPost2010Prop46
 90
       50
102
RTVSPost2010PropOp46
 70
     1
102
RTVSPost2010Prop47
 90
       50
102
RTVSPost2010PropOp47
 70
     1
102
RTVSPost2010Prop48
 90
       50
102
RTVSPost2010PropOp48
 70
     1
102
RTVSPost2010Prop49
280
     0
102
RTVSPost2010PropOp49
 70
     1
102
RTVSPost2010Prop50
 90
       50
102
RTVSPost2010PropOp50
 70
     1
102
RTVSPost2010Prop51ColorIndex
 90
      256
102
RTVSPost2010Prop51ColorRGB
 90
-16777216
102
RTVSPost2010PropOp51
 70
     0
102
RTVSPost2010Prop52
140
1.0
102
RTVSPost2010PropOp52
 70
     0
102
RTVSPost2010Prop53
 90
        2
102
RTVSPost2010PropOp53
 70
     1
102
RTVSPost2010Prop54
  1
strokes_ogs.tif
102
RTVSPost2010PropOp54
 70
     1
102
RTVSPost2010Prop55
280
     0
102
RTVSPost2010PropOp55
 70
     1
102
RTVSPost2010Prop56
140
1.0
102
RTVSPost2010PropOp56
 70
     1
102
RTVSPost2010Prop57
140
1.0
102
RTVSPost2010PropOp57
 70
     1
102
RTVSPropertyOp0
 70
     1
102
RTVSPropertyOp1
 70
     1
102
RTVSPropertyOp2
 70
     1
102
RTVSPropertyOp3
 70
     1
102
RTVSPropertyOp4
 70
     1
102
RTVSPropertyOp5
 70
     1
102
RTVSPropertyOp6
 70
     1
102
RTVSPropertyOp7
 70
     1
102
RTVSPropertyOp8
 70
     1
102
RTVSPropertyOp9
 70
     1
102
RTVSPropertyOp10
 70
     1
102
RTVSPropertyOp11
 70
     1
102
RTVSPropertyOp12
 70
     1
102
RTVSPropertyOp13
 70
     1
102
RTVSPropertyOp14
 70
     1
102
RTVSPropertyOp15
 70
     1
102
RTVSPropertyOp16
 70
     1
102
RTVSPropertyOp17
 70
     1
102
RTVSPropertyOp18
 70
     1
102
RTVSPropertyOp19
 70
     1
102
RTVSPropertyOp20
 70
     1
102
RTVSPropertyOp21
 70
     1
102
RTVSPropertyOp22
 70
     1
102
RTVSPropertyOp23
 70
     1
102
RTVSPropertyOp24
 70
     1
102
RTVSPropertyOp25
 70
     1
102
RTVSPropertyOp26
 70
     1
102
RTVSPropertyOp27
 70
     1
102
RTVSPropertyOp28
 70
     1
102
RTVSPropertyOp29
 70
     1
102
RTVSPropertyOp30
 70
     1
102
RTVSPropertyOp31
 70
     1
102
RTVSPropertyOp32
 70
     1
102
RTVSPropertyOp33
 70
     1
102
RTVSPropertyOp34
 70
     1
102
RTVSPropertyOp35
 70
     1
102
RTVSPropertyOp36
 70
     1
102
RTVSPropertyOp37
 70
     1
102
RTVSPropertyOp38
 70
     1
102
RTVSPropertyOp39
 70
     1
102
RTVSPropertyOp40
 70
     1
102
RTVSPropertyOp41
 70
     1
102
RTVSPropertyOp42
 70
     1
102
RTVSPropertyOp43
 70
     1
102
RTVSPropertyOp44
 70
     1
102
RTVSPropertyOp45
 70
     1
102
RTVSPropertyOp46
 70
     1
102
RTVSPropertyOp47
 70
     1
102
RTVSPropertyOp48
 70
     1
102
RTVSPropertyOp49
 70
     1
102
RTVSPropertyOp50
 70
     1
102
RTVSPropertyOp51
 70
     0
102
RTVSPropertyOp52
 70
     0
102
RTVSPropertyOp53
 70
     1
102
RTVSPropertyOp54
 70
     1
102
RTVSPropertyOp55
 70
     1
102
RTVSPropertyOp56
 70
     1
102
RTVSPropertyOp57
 70
     1
102
RTVSPropertyOp58
 70
     1
102
RTVSPropertyOp59
 70
     1
102
RTVSPropertyOp60
 70
     1
102
RTVSPropertyOp61
 70
     1
102
RTVSPropertyOp62
 70
     1
  0
XRECORD
  5
ADEF
102
{ACAD_REACTORS
330
ADEE
102
}
330
ADEE
100
AcDbXrecord
280
     1
102
RTVSPost2010Prop28
280
     0
102
RTVSPost2010PropOp28
 70
     1
102
RTVSPost2010Prop29
280
     1
102
RTVSPost2010PropOp29
 70
     1
102
RTVSPost2010Prop30
280
     1
102
RTVSPost2010PropOp30
 70
     1
102
RTVSPost2010Prop31
280
     0
102
RTVSPost2010PropOp31
 70
     1
102
RTVSPost2010Prop32
280
     0
102
RTVSPost2010PropOp32
 70
     1
102
RTVSPost2010Prop33
280
     0
102
RTVSPost2010PropOp33
 70
     1
102
RTVSPost2010Prop34
280
     0
102
RTVSPost2010PropOp34
 70
     1
102
RTVSPost2010Prop35
280
     0
102
RTVSPost2010PropOp35
 70
     1
102
RTVSPost2010Prop36
280
     0
102
RTVSPost2010PropOp36
 70
     1
102
RTVSPost2010Prop37
 90
       50
102
RTVSPost2010PropOp37
 70
     1
102
RTVSPost2010Prop38
140
0.0
102
RTVSPost2010PropOp38
 70
     1
102
RTVSPost2010Prop39
140
1.0
102
RTVSPost2010PropOp39
 70
     1
102
RTVSPost2010Prop40
 90
        0
102
RTVSPost2010PropOp40
 70
     1
102
RTVSPost2010Prop41ColorIndex
 90
       18
102
RTVSPost2010Prop41ColorRGB
 90
        0
102
RTVSPost2010PropOp41
 70
     1
102
RTVSPost2010Prop42
 90
       50
102
RTVSPost2010PropOp42
 70
     1
102
RTVSPost2010Prop43
 90
        3
102
RTVSPost2010PropOp43
 70
     1
102
RTVSPost2010Prop44ColorIndex
 90
        5
102
RTVSPost2010Prop44ColorRGB
 90
      255
102
RTVSPost2010PropOp44
 70
     1
102
RTVSPost2010Prop45
280
     0
102
RTVSPost2010PropOp45
 70
     1
102
RTVSPost2010Prop46
 90
       50
102
RTVSPost2010PropOp46
 70
     1
102
RTVSPost2010Prop47
 90
       50
102
RTVSPost2010PropOp47
 70
     1
102
RTVSPost2010Prop48
 90
       50
102
RTVSPost2010PropOp48
 70
     1
102
RTVSPost2010Prop49
280
     0
102
RTVSPost2010PropOp49
 70
     1
102
RTVSPost2010Prop50
 90
       50
102
RTVSPost2010PropOp50
 70
     1
102
RTVSPost2010Prop51ColorIndex
 90
      256
102
RTVSPost2010Prop51ColorRGB
 90
-16777216
102
RTVSPost2010PropOp51
 70
     0
102
RTVSPost2010Prop52
140
1.0
102
RTVSPost2010PropOp52
 70
     0
102
RTVSPost2010Prop53
 90
        2
102
RTVSPost2010PropOp53
 70
     1
102
RTVSPost2010Prop54
  1
strokes_ogs.tif
102
RTVSPost2010PropOp54
 70
     1
102
RTVSPost2010Prop55
280
     0
102
RTVSPost2010PropOp55
 70
     1
102
RTVSPost2010Prop56
140
1.0
102
RTVSPost2010PropOp56
 70
     1
102
RTVSPost2010Prop57
140
1.0
102
RTVSPost2010PropOp57
 70
     1
102
RTVSPropertyOp0
 70
     1
102
RTVSPropertyOp1
 70
     1
102
RTVSPropertyOp2
 70
     1
102
RTVSPropertyOp3
 70
     1
102
RTVSPropertyOp4
 70
     1
102
RTVSPropertyOp5
 70
     1
102
RTVSPropertyOp6
 70
     1
102
RTVSPropertyOp7
 70
     1
102
RTVSPropertyOp8
 70
     1
102
RTVSPropertyOp9
 70
     1
102
RTVSPropertyOp10
 70
     1
102
RTVSPropertyOp11
 70
     1
102
RTVSPropertyOp12
 70
     1
102
RTVSPropertyOp13
 70
     1
102
RTVSPropertyOp14
 70
     1
102
RTVSPropertyOp15
 70
     1
102
RTVSPropertyOp16
 70
     1
102
RTVSPropertyOp17
 70
     1
102
RTVSPropertyOp18
 70
     1
102
RTVSPropertyOp19
 70
     1
102
RTVSPropertyOp20
 70
     1
102
RTVSPropertyOp21
 70
     1
102
RTVSPropertyOp22
 70
     1
102
RTVSPropertyOp23
 70
     1
102
RTVSPropertyOp24
 70
     1
102
RTVSPropertyOp25
 70
     1
102
RTVSPropertyOp26
 70
     1
102
RTVSPropertyOp27
 70
     1
102
RTVSPropertyOp28
 70
     1
102
RTVSPropertyOp29
 70
     1
102
RTVSPropertyOp30
 70
     1
102
RTVSPropertyOp31
 70
     1
102
RTVSPropertyOp32
 70
     1
102
RTVSPropertyOp33
 70
     1
102
RTVSPropertyOp34
 70
     1
102
RTVSPropertyOp35
 70
     1
102
RTVSPropertyOp36
 70
     1
102
RTVSPropertyOp37
 70
     1
102
RTVSPropertyOp38
 70
     1
102
RTVSPropertyOp39
 70
     1
102
RTVSPropertyOp40
 70
     1
102
RTVSPropertyOp41
 70
     1
102
RTVSPropertyOp42
 70
     1
102
RTVSPropertyOp43
 70
     1
102
RTVSPropertyOp44
 70
     1
102
RTVSPropertyOp45
 70
     1
102
RTVSPropertyOp46
 70
     1
102
RTVSPropertyOp47
 70
     1
102
RTVSPropertyOp48
 70
     1
102
RTVSPropertyOp49
 70
     1
102
RTVSPropertyOp50
 70
     1
102
RTVSPropertyOp51
 70
     0
102
RTVSPropertyOp52
 70
     0
102
RTVSPropertyOp53
 70
     1
102
RTVSPropertyOp54
 70
     1
102
RTVSPropertyOp55
 70
     1
102
RTVSPropertyOp56
 70
     1
102
RTVSPropertyOp57
 70
     1
102
RTVSPropertyOp58
 70
     1
102
RTVSPropertyOp59
 70
     1
102
RTVSPropertyOp60
 70
     1
102
RTVSPropertyOp61
 70
     1
102
RTVSPropertyOp62
 70
     1
  0
XRECORD
  5
ADF1
102
{ACAD_REACTORS
330
ADF0
102
}
330
ADF0
100
AcDbXrecord
280
     1
102
RTVSPost2010Prop28
280
     0
102
RTVSPost2010PropOp28
 70
     1
102
RTVSPost2010Prop29
280
     1
102
RTVSPost2010PropOp29
 70
     1
102
RTVSPost2010Prop30
280
     1
102
RTVSPost2010PropOp30
 70
     1
102
RTVSPost2010Prop31
280
     0
102
RTVSPost2010PropOp31
 70
     1
102
RTVSPost2010Prop32
280
     0
102
RTVSPost2010PropOp32
 70
     1
102
RTVSPost2010Prop33
280
     0
102
RTVSPost2010PropOp33
 70
     1
102
RTVSPost2010Prop34
280
     0
102
RTVSPost2010PropOp34
 70
     1
102
RTVSPost2010Prop35
280
     0
102
RTVSPost2010PropOp35
 70
     1
102
RTVSPost2010Prop36
280
     0
102
RTVSPost2010PropOp36
 70
     1
102
RTVSPost2010Prop37
 90
       50
102
RTVSPost2010PropOp37
 70
     1
102
RTVSPost2010Prop38
140
0.0
102
RTVSPost2010PropOp38
 70
     1
102
RTVSPost2010Prop39
140
1.0
102
RTVSPost2010PropOp39
 70
     1
102
RTVSPost2010Prop40
 90
        0
102
RTVSPost2010PropOp40
 70
     1
102
RTVSPost2010Prop41ColorIndex
 90
       18
102
RTVSPost2010Prop41ColorRGB
 90
        0
102
RTVSPost2010PropOp41
 70
     1
102
RTVSPost2010Prop42
 90
       50
102
RTVSPost2010PropOp42
 70
     1
102
RTVSPost2010Prop43
 90
        3
102
RTVSPost2010PropOp43
 70
     1
102
RTVSPost2010Prop44ColorIndex
 90
        5
102
RTVSPost2010Prop44ColorRGB
 90
      255
102
RTVSPost2010PropOp44
 70
     1
102
RTVSPost2010Prop45
280
     0
102
RTVSPost2010PropOp45
 70
     1
102
RTVSPost2010Prop46
 90
       50
102
RTVSPost2010PropOp46
 70
     1
102
RTVSPost2010Prop47
 90
       50
102
RTVSPost2010PropOp47
 70
     1
102
RTVSPost2010Prop48
 90
       50
102
RTVSPost2010PropOp48
 70
     1
102
RTVSPost2010Prop49
280
     0
102
RTVSPost2010PropOp49
 70
     1
102
RTVSPost2010Prop50
 90
       50
102
RTVSPost2010PropOp50
 70
     1
102
RTVSPost2010Prop51ColorIndex
 90
      256
102
RTVSPost2010Prop51ColorRGB
 90
-16777216
102
RTVSPost2010PropOp51
 70
     0
102
RTVSPost2010Prop52
140
1.0
102
RTVSPost2010PropOp52
 70
     0
102
RTVSPost2010Prop53
 90
        2
102
RTVSPost2010PropOp53
 70
     1
102
RTVSPost2010Prop54
  1
strokes_ogs.tif
102
RTVSPost2010PropOp54
 70
     1
102
RTVSPost2010Prop55
280
     0
102
RTVSPost2010PropOp55
 70
     1
102
RTVSPost2010Prop56
140
1.0
102
RTVSPost2010PropOp56
 70
     1
102
RTVSPost2010Prop57
140
1.0
102
RTVSPost2010PropOp57
 70
     1
102
RTVSPropertyOp0
 70
     1
102
RTVSPropertyOp1
 70
     1
102
RTVSPropertyOp2
 70
     1
102
RTVSPropertyOp3
 70
     1
102
RTVSPropertyOp4
 70
     1
102
RTVSPropertyOp5
 70
     1
102
RTVSPropertyOp6
 70
     1
102
RTVSPropertyOp7
 70
     1
102
RTVSPropertyOp8
 70
     1
102
RTVSPropertyOp9
 70
     1
102
RTVSPropertyOp10
 70
     1
102
RTVSPropertyOp11
 70
     1
102
RTVSPropertyOp12
 70
     1
102
RTVSPropertyOp13
 70
     1
102
RTVSPropertyOp14
 70
     1
102
RTVSPropertyOp15
 70
     1
102
RTVSPropertyOp16
 70
     1
102
RTVSPropertyOp17
 70
     1
102
RTVSPropertyOp18
 70
     1
102
RTVSPropertyOp19
 70
     1
102
RTVSPropertyOp20
 70
     1
102
RTVSPropertyOp21
 70
     1
102
RTVSPropertyOp22
 70
     1
102
RTVSPropertyOp23
 70
     1
102
RTVSPropertyOp24
 70
     1
102
RTVSPropertyOp25
 70
     1
102
RTVSPropertyOp26
 70
     1
102
RTVSPropertyOp27
 70
     1
102
RTVSPropertyOp28
 70
     1
102
RTVSPropertyOp29
 70
     1
102
RTVSPropertyOp30
 70
     1
102
RTVSPropertyOp31
 70
     1
102
RTVSPropertyOp32
 70
     1
102
RTVSPropertyOp33
 70
     1
102
RTVSPropertyOp34
 70
     1
102
RTVSPropertyOp35
 70
     1
102
RTVSPropertyOp36
 70
     1
102
RTVSPropertyOp37
 70
     1
102
RTVSPropertyOp38
 70
     1
102
RTVSPropertyOp39
 70
     1
102
RTVSPropertyOp40
 70
     1
102
RTVSPropertyOp41
 70
     1
102
RTVSPropertyOp42
 70
     1
102
RTVSPropertyOp43
 70
     1
102
RTVSPropertyOp44
 70
     1
102
RTVSPropertyOp45
 70
     1
102
RTVSPropertyOp46
 70
     1
102
RTVSPropertyOp47
 70
     1
102
RTVSPropertyOp48
 70
     1
102
RTVSPropertyOp49
 70
     1
102
RTVSPropertyOp50
 70
     1
102
RTVSPropertyOp51
 70
     0
102
RTVSPropertyOp52
 70
     0
102
RTVSPropertyOp53
 70
     1
102
RTVSPropertyOp54
 70
     1
102
RTVSPropertyOp55
 70
     1
102
RTVSPropertyOp56
 70
     1
102
RTVSPropertyOp57
 70
     1
102
RTVSPropertyOp58
 70
     1
102
RTVSPropertyOp59
 70
     1
102
RTVSPropertyOp60
 70
     1
102
RTVSPropertyOp61
 70
     1
102
RTVSPropertyOp62
 70
     1
  0
XRECORD
  5
ADE7
102
{ACAD_REACTORS
330
ADE6
102
}
330
ADE6
100
AcDbXrecord
280
     1
102
RTVSPost2010Prop28
280
     0
102
RTVSPost2010PropOp28
 70
     1
102
RTVSPost2010Prop29
280
     1
102
RTVSPost2010PropOp29
 70
     1
102
RTVSPost2010Prop30
280
     1
102
RTVSPost2010PropOp30
 70
     1
102
RTVSPost2010Prop31
280
     0
102
RTVSPost2010PropOp31
 70
     1
102
RTVSPost2010Prop32
280
     0
102
RTVSPost2010PropOp32
 70
     1
102
RTVSPost2010Prop33
280
     0
102
RTVSPost2010PropOp33
 70
     1
102
RTVSPost2010Prop34
280
     0
102
RTVSPost2010PropOp34
 70
     1
102
RTVSPost2010Prop35
280
     0
102
RTVSPost2010PropOp35
 70
     1
102
RTVSPost2010Prop36
280
     0
102
RTVSPost2010PropOp36
 70
     1
102
RTVSPost2010Prop37
 90
       50
102
RTVSPost2010PropOp37
 70
     1
102
RTVSPost2010Prop38
140
0.0
102
RTVSPost2010PropOp38
 70
     1
102
RTVSPost2010Prop39
140
1.0
102
RTVSPost2010PropOp39
 70
     1
102
RTVSPost2010Prop40
 90
        0
102
RTVSPost2010PropOp40
 70
     1
102
RTVSPost2010Prop41ColorIndex
 90
       18
102
RTVSPost2010Prop41ColorRGB
 90
        0
102
RTVSPost2010PropOp41
 70
     1
102
RTVSPost2010Prop42
 90
       50
102
RTVSPost2010PropOp42
 70
     1
102
RTVSPost2010Prop43
 90
        3
102
RTVSPost2010PropOp43
 70
     1
102
RTVSPost2010Prop44ColorIndex
 90
        5
102
RTVSPost2010Prop44ColorRGB
 90
      255
102
RTVSPost2010PropOp44
 70
     1
102
RTVSPost2010Prop45
280
     0
102
RTVSPost2010PropOp45
 70
     1
102
RTVSPost2010Prop46
 90
       50
102
RTVSPost2010PropOp46
 70
     1
102
RTVSPost2010Prop47
 90
       50
102
RTVSPost2010PropOp47
 70
     1
102
RTVSPost2010Prop48
 90
       50
102
RTVSPost2010PropOp48
 70
     1
102
RTVSPost2010Prop49
280
     0
102
RTVSPost2010PropOp49
 70
     1
102
RTVSPost2010Prop50
 90
       50
102
RTVSPost2010PropOp50
 70
     1
102
RTVSPost2010Prop51ColorIndex
 90
      256
102
RTVSPost2010Prop51ColorRGB
 90
-16777216
102
RTVSPost2010PropOp51
 70
     0
102
RTVSPost2010Prop52
140
1.0
102
RTVSPost2010PropOp52
 70
     0
102
RTVSPost2010Prop53
 90
        2
102
RTVSPost2010PropOp53
 70
     1
102
RTVSPost2010Prop54
  1
strokes_ogs.tif
102
RTVSPost2010PropOp54
 70
     1
102
RTVSPost2010Prop55
280
     0
102
RTVSPost2010PropOp55
 70
     1
102
RTVSPost2010Prop56
140
1.0
102
RTVSPost2010PropOp56
 70
     1
102
RTVSPost2010Prop57
140
1.0
102
RTVSPost2010PropOp57
 70
     1
102
RTVSPropertyOp0
 70
     1
102
RTVSPropertyOp1
 70
     1
102
RTVSPropertyOp2
 70
     1
102
RTVSPropertyOp3
 70
     1
102
RTVSPropertyOp4
 70
     1
102
RTVSPropertyOp5
 70
     1
102
RTVSPropertyOp6
 70
     1
102
RTVSPropertyOp7
 70
     1
102
RTVSPropertyOp8
 70
     1
102
RTVSPropertyOp9
 70
     1
102
RTVSPropertyOp10
 70
     1
102
RTVSPropertyOp11
 70
     1
102
RTVSPropertyOp12
 70
     1
102
RTVSPropertyOp13
 70
     1
102
RTVSPropertyOp14
 70
     1
102
RTVSPropertyOp15
 70
     1
102
RTVSPropertyOp16
 70
     1
102
RTVSPropertyOp17
 70
     1
102
RTVSPropertyOp18
 70
     1
102
RTVSPropertyOp19
 70
     1
102
RTVSPropertyOp20
 70
     1
102
RTVSPropertyOp21
 70
     1
102
RTVSPropertyOp22
 70
     1
102
RTVSPropertyOp23
 70
     1
102
RTVSPropertyOp24
 70
     1
102
RTVSPropertyOp25
 70
     1
102
RTVSPropertyOp26
 70
     1
102
RTVSPropertyOp27
 70
     1
102
RTVSPropertyOp28
 70
     1
102
RTVSPropertyOp29
 70
     1
102
RTVSPropertyOp30
 70
     1
102
RTVSPropertyOp31
 70
     1
102
RTVSPropertyOp32
 70
     1
102
RTVSPropertyOp33
 70
     1
102
RTVSPropertyOp34
 70
     1
102
RTVSPropertyOp35
 70
     1
102
RTVSPropertyOp36
 70
     1
102
RTVSPropertyOp37
 70
     1
102
RTVSPropertyOp38
 70
     1
102
RTVSPropertyOp39
 70
     1
102
RTVSPropertyOp40
 70
     1
102
RTVSPropertyOp41
 70
     1
102
RTVSPropertyOp42
 70
     1
102
RTVSPropertyOp43
 70
     1
102
RTVSPropertyOp44
 70
     1
102
RTVSPropertyOp45
 70
     1
102
RTVSPropertyOp46
 70
     1
102
RTVSPropertyOp47
 70
     1
102
RTVSPropertyOp48
 70
     1
102
RTVSPropertyOp49
 70
     1
102
RTVSPropertyOp50
 70
     1
102
RTVSPropertyOp51
 70
     0
102
RTVSPropertyOp52
 70
     0
102
RTVSPropertyOp53
 70
     1
102
RTVSPropertyOp54
 70
     1
102
RTVSPropertyOp55
 70
     1
102
RTVSPropertyOp56
 70
     1
102
RTVSPropertyOp57
 70
     1
102
RTVSPropertyOp58
 70
     1
102
RTVSPropertyOp59
 70
     1
102
RTVSPropertyOp60
 70
     1
102
RTVSPropertyOp61
 70
     1
102
RTVSPropertyOp62
 70
     1
  0
XRECORD
  5
ADDB
102
{ACAD_REACTORS
330
ADDA
102
}
330
ADDA
100
AcDbXrecord
280
     1
102
RTVSPost2010Prop28
280
     0
102
RTVSPost2010PropOp28
 70
     1
102
RTVSPost2010Prop29
280
     1
102
RTVSPost2010PropOp29
 70
     1
102
RTVSPost2010Prop30
280
     1
102
RTVSPost2010PropOp30
 70
     1
102
RTVSPost2010Prop31
280
     0
102
RTVSPost2010PropOp31
 70
     1
102
RTVSPost2010Prop32
280
     0
102
RTVSPost2010PropOp32
 70
     1
102
RTVSPost2010Prop33
280
     0
102
RTVSPost2010PropOp33
 70
     1
102
RTVSPost2010Prop34
280
     0
102
RTVSPost2010PropOp34
 70
     1
102
RTVSPost2010Prop35
280
     0
102
RTVSPost2010PropOp35
 70
     1
102
RTVSPost2010Prop36
280
     0
102
RTVSPost2010PropOp36
 70
     1
102
RTVSPost2010Prop37
 90
       50
102
RTVSPost2010PropOp37
 70
     1
102
RTVSPost2010Prop38
140
0.0
102
RTVSPost2010PropOp38
 70
     1
102
RTVSPost2010Prop39
140
1.0
102
RTVSPost2010PropOp39
 70
     1
102
RTVSPost2010Prop40
 90
        0
102
RTVSPost2010PropOp40
 70
     1
102
RTVSPost2010Prop41ColorIndex
 90
       18
102
RTVSPost2010Prop41ColorRGB
 90
        0
102
RTVSPost2010PropOp41
 70
     1
102
RTVSPost2010Prop42
 90
       50
102
RTVSPost2010PropOp42
 70
     1
102
RTVSPost2010Prop43
 90
        3
102
RTVSPost2010PropOp43
 70
     1
102
RTVSPost2010Prop44ColorIndex
 90
        5
102
RTVSPost2010Prop44ColorRGB
 90
      255
102
RTVSPost2010PropOp44
 70
     1
102
RTVSPost2010Prop45
280
     0
102
RTVSPost2010PropOp45
 70
     1
102
RTVSPost2010Prop46
 90
       50
102
RTVSPost2010PropOp46
 70
     1
102
RTVSPost2010Prop47
 90
       50
102
RTVSPost2010PropOp47
 70
     1
102
RTVSPost2010Prop48
 90
       50
102
RTVSPost2010PropOp48
 70
     1
102
RTVSPost2010Prop49
280
     0
102
RTVSPost2010PropOp49
 70
     1
102
RTVSPost2010Prop50
 90
       50
102
RTVSPost2010PropOp50
 70
     1
102
RTVSPost2010Prop51ColorIndex
 90
      256
102
RTVSPost2010Prop51ColorRGB
 90
-16777216
102
RTVSPost2010PropOp51
 70
     0
102
RTVSPost2010Prop52
140
1.0
102
RTVSPost2010PropOp52
 70
     0
102
RTVSPost2010Prop53
 90
        2
102
RTVSPost2010PropOp53
 70
     1
102
RTVSPost2010Prop54
  1
strokes_ogs.tif
102
RTVSPost2010PropOp54
 70
     1
102
RTVSPost2010Prop55
280
     0
102
RTVSPost2010PropOp55
 70
     1
102
RTVSPost2010Prop56
140
1.0
102
RTVSPost2010PropOp56
 70
     1
102
RTVSPost2010Prop57
140
1.0
102
RTVSPost2010PropOp57
 70
     1
102
RTVSPropertyOp0
 70
     1
102
RTVSPropertyOp1
 70
     1
102
RTVSPropertyOp2
 70
     1
102
RTVSPropertyOp3
 70
     1
102
RTVSPropertyOp4
 70
     1
102
RTVSPropertyOp5
 70
     1
102
RTVSPropertyOp6
 70
     1
102
RTVSPropertyOp7
 70
     1
102
RTVSPropertyOp8
 70
     1
102
RTVSPropertyOp9
 70
     1
102
RTVSPropertyOp10
 70
     1
102
RTVSPropertyOp11
 70
     1
102
RTVSPropertyOp12
 70
     1
102
RTVSPropertyOp13
 70
     1
102
RTVSPropertyOp14
 70
     1
102
RTVSPropertyOp15
 70
     1
102
RTVSPropertyOp16
 70
     1
102
RTVSPropertyOp17
 70
     1
102
RTVSPropertyOp18
 70
     1
102
RTVSPropertyOp19
 70
     1
102
RTVSPropertyOp20
 70
     1
102
RTVSPropertyOp21
 70
     1
102
RTVSPropertyOp22
 70
     1
102
RTVSPropertyOp23
 70
     1
102
RTVSPropertyOp24
 70
     1
102
RTVSPropertyOp25
 70
     1
102
RTVSPropertyOp26
 70
     1
102
RTVSPropertyOp27
 70
     1
102
RTVSPropertyOp28
 70
     1
102
RTVSPropertyOp29
 70
     1
102
RTVSPropertyOp30
 70
     1
102
RTVSPropertyOp31
 70
     1
102
RTVSPropertyOp32
 70
     1
102
RTVSPropertyOp33
 70
     1
102
RTVSPropertyOp34
 70
     1
102
RTVSPropertyOp35
 70
     1
102
RTVSPropertyOp36
 70
     1
102
RTVSPropertyOp37
 70
     1
102
RTVSPropertyOp38
 70
     1
102
RTVSPropertyOp39
 70
     1
102
RTVSPropertyOp40
 70
     1
102
RTVSPropertyOp41
 70
     1
102
RTVSPropertyOp42
 70
     1
102
RTVSPropertyOp43
 70
     1
102
RTVSPropertyOp44
 70
     1
102
RTVSPropertyOp45
 70
     1
102
RTVSPropertyOp46
 70
     1
102
RTVSPropertyOp47
 70
     1
102
RTVSPropertyOp48
 70
     1
102
RTVSPropertyOp49
 70
     1
102
RTVSPropertyOp50
 70
     1
102
RTVSPropertyOp51
 70
     0
102
RTVSPropertyOp52
 70
     0
102
RTVSPropertyOp53
 70
     1
102
RTVSPropertyOp54
 70
     1
102
RTVSPropertyOp55
 70
     1
102
RTVSPropertyOp56
 70
     1
102
RTVSPropertyOp57
 70
     1
102
RTVSPropertyOp58
 70
     1
102
RTVSPropertyOp59
 70
     1
102
RTVSPropertyOp60
 70
     1
102
RTVSPropertyOp61
 70
     1
102
RTVSPropertyOp62
 70
     1
  0
XRECORD
  5
ADF3
102
{ACAD_REACTORS
330
ADF2
102
}
330
ADF2
100
AcDbXrecord
280
     1
102
RTVSPost2010Prop28
280
     0
102
RTVSPost2010PropOp28
 70
     1
102
RTVSPost2010Prop29
280
     1
102
RTVSPost2010PropOp29
 70
     1
102
RTVSPost2010Prop30
280
     1
102
RTVSPost2010PropOp30
 70
     1
102
RTVSPost2010Prop31
280
     0
102
RTVSPost2010PropOp31
 70
     1
102
RTVSPost2010Prop32
280
     0
102
RTVSPost2010PropOp32
 70
     1
102
RTVSPost2010Prop33
280
     0
102
RTVSPost2010PropOp33
 70
     1
102
RTVSPost2010Prop34
280
     0
102
RTVSPost2010PropOp34
 70
     1
102
RTVSPost2010Prop35
280
     0
102
RTVSPost2010PropOp35
 70
     1
102
RTVSPost2010Prop36
280
     0
102
RTVSPost2010PropOp36
 70
     1
102
RTVSPost2010Prop37
 90
       50
102
RTVSPost2010PropOp37
 70
     1
102
RTVSPost2010Prop38
140
0.0
102
RTVSPost2010PropOp38
 70
     1
102
RTVSPost2010Prop39
140
1.0
102
RTVSPost2010PropOp39
 70
     1
102
RTVSPost2010Prop40
 90
        0
102
RTVSPost2010PropOp40
 70
     1
102
RTVSPost2010Prop41ColorIndex
 90
       18
102
RTVSPost2010Prop41ColorRGB
 90
        0
102
RTVSPost2010PropOp41
 70
     1
102
RTVSPost2010Prop42
 90
       50
102
RTVSPost2010PropOp42
 70
     1
102
RTVSPost2010Prop43
 90
        3
102
RTVSPost2010PropOp43
 70
     1
102
RTVSPost2010Prop44ColorIndex
 90
        5
102
RTVSPost2010Prop44ColorRGB
 90
      255
102
RTVSPost2010PropOp44
 70
     1
102
RTVSPost2010Prop45
280
     0
102
RTVSPost2010PropOp45
 70
     1
102
RTVSPost2010Prop46
 90
       50
102
RTVSPost2010PropOp46
 70
     1
102
RTVSPost2010Prop47
 90
       50
102
RTVSPost2010PropOp47
 70
     1
102
RTVSPost2010Prop48
 90
       50
102
RTVSPost2010PropOp48
 70
     1
102
RTVSPost2010Prop49
280
     0
102
RTVSPost2010PropOp49
 70
     1
102
RTVSPost2010Prop50
 90
       50
102
RTVSPost2010PropOp50
 70
     1
102
RTVSPost2010Prop51ColorIndex
 90
      256
102
RTVSPost2010Prop51ColorRGB
 90
-16777216
102
RTVSPost2010PropOp51
 70
     0
102
RTVSPost2010Prop52
140
1.0
102
RTVSPost2010PropOp52
 70
     0
102
RTVSPost2010Prop53
 90
        2
102
RTVSPost2010PropOp53
 70
     1
102
RTVSPost2010Prop54
  1
strokes_ogs.tif
102
RTVSPost2010PropOp54
 70
     1
102
RTVSPost2010Prop55
280
     0
102
RTVSPost2010PropOp55
 70
     1
102
RTVSPost2010Prop56
140
1.0
102
RTVSPost2010PropOp56
 70
     1
102
RTVSPost2010Prop57
140
1.0
102
RTVSPost2010PropOp57
 70
     1
102
RTVSPropertyOp0
 70
     1
102
RTVSPropertyOp1
 70
     1
102
RTVSPropertyOp2
 70
     1
102
RTVSPropertyOp3
 70
     1
102
RTVSPropertyOp4
 70
     1
102
RTVSPropertyOp5
 70
     1
102
RTVSPropertyOp6
 70
     1
102
RTVSPropertyOp7
 70
     1
102
RTVSPropertyOp8
 70
     1
102
RTVSPropertyOp9
 70
     1
102
RTVSPropertyOp10
 70
     1
102
RTVSPropertyOp11
 70
     1
102
RTVSPropertyOp12
 70
     1
102
RTVSPropertyOp13
 70
     1
102
RTVSPropertyOp14
 70
     1
102
RTVSPropertyOp15
 70
     1
102
RTVSPropertyOp16
 70
     1
102
RTVSPropertyOp17
 70
     1
102
RTVSPropertyOp18
 70
     1
102
RTVSPropertyOp19
 70
     1
102
RTVSPropertyOp20
 70
     1
102
RTVSPropertyOp21
 70
     1
102
RTVSPropertyOp22
 70
     1
102
RTVSPropertyOp23
 70
     1
102
RTVSPropertyOp24
 70
     1
102
RTVSPropertyOp25
 70
     1
102
RTVSPropertyOp26
 70
     1
102
RTVSPropertyOp27
 70
     1
102
RTVSPropertyOp28
 70
     1
102
RTVSPropertyOp29
 70
     1
102
RTVSPropertyOp30
 70
     1
102
RTVSPropertyOp31
 70
     1
102
RTVSPropertyOp32
 70
     1
102
RTVSPropertyOp33
 70
     1
102
RTVSPropertyOp34
 70
     1
102
RTVSPropertyOp35
 70
     1
102
RTVSPropertyOp36
 70
     1
102
RTVSPropertyOp37
 70
     1
102
RTVSPropertyOp38
 70
     1
102
RTVSPropertyOp39
 70
     1
102
RTVSPropertyOp40
 70
     1
102
RTVSPropertyOp41
 70
     1
102
RTVSPropertyOp42
 70
     1
102
RTVSPropertyOp43
 70
     1
102
RTVSPropertyOp44
 70
     1
102
RTVSPropertyOp45
 70
     1
102
RTVSPropertyOp46
 70
     1
102
RTVSPropertyOp47
 70
     1
102
RTVSPropertyOp48
 70
     1
102
RTVSPropertyOp49
 70
     1
102
RTVSPropertyOp50
 70
     1
102
RTVSPropertyOp51
 70
     0
102
RTVSPropertyOp52
 70
     0
102
RTVSPropertyOp53
 70
     1
102
RTVSPropertyOp54
 70
     1
102
RTVSPropertyOp55
 70
     1
102
RTVSPropertyOp56
 70
     1
102
RTVSPropertyOp57
 70
     1
102
RTVSPropertyOp58
 70
     1
102
RTVSPropertyOp59
 70
     1
102
RTVSPropertyOp60
 70
     1
102
RTVSPropertyOp61
 70
     1
102
RTVSPropertyOp62
 70
     1
  0
ENDSEC
  0
EOF
