  0
SECTION
  2
HEADER
  9
$ACADVER
  1
AC1027
  9
$DWGCODEPAGE
  3
ANSI_932
  9
$LTSCALE
 40
20.0
  9
$FILLMODE
 70
     1
  9
$CLAYER
  8
0
  9
$PDMODE
 70
     0
  9
$SPLFRAME
 70
     0
  9
$SPLINETYPE
 70
     6
  9
$SPLINESEGS
 70
     8
  9
$DIMASZ
 40
2.000000
  9
$DIMEXE
 40
1.500000
  9
$DIMEXO
 40
0.800000
  9
$DIMTAD
 70
     1
  9
$DIMTIH
 70
     0
  9
$DIMTOH
 70
     0
  9
$DIMTVP
 40
0.500000
  9
$DIMTXT
 40
3.100000
  9
$EXTMIN
 10
0.000000
 20
0.000000
 30
0.000000
  9
$EXTMAX
 10
594.000000
 20
841.000000
 30
0.000000
  9
$MEASUREMENT
 70
  1
  9
$LIMMIN
 10
0.000000
 20
0.000000
  9
$LIMMAX
 10
594.000000
 20
841.000000
  9
$HANDSEED
  5
124
  9
$LWDISPLAY
290
     0
  9
$DIMBLK
  1
_OPEN
  9
$DIMDEC
 70
     2
  9
$DIMADEC
 70
     2
  9
$DIMAUNIT
 70
     0
  9
$DIMZIN
 70
     8
  9
$DIMAZIN
 70
     2
  9
$DIMTOFL
 70
     1
  0
ENDSEC
  0
SECTION
  2
CLASSES
  0
ENDSEC
  0
SECTION
  2
TABLES
  0
TABLE
  2
VPORT
  5
EF
100
AcDbSymbolTable
 70
     1
  0
VPORT
  5
F0
100
AcDbSymbolTableRecord
100
AcDbViewportTableRecord
  2
*ACTIVE
 70
     0
 12
150.749684
 22
149.750000
 40
263.499999
 41
1.068309
  0
ENDTAB
  0
TABLE
  2
LTYPE
  5
F1
100
AcDbSymbolTable
 70
     2
  0
LTYPE
  5
F2
100
AcDbSymbolTableRecord
100
AcDbLinetypeTableRecord
  2
BYBLOCK
 70
     0
  3

 72
    65
 73
     0
 40
0.0
  0
LTYPE
  5
F3
100
AcDbSymbolTableRecord
100
AcDbLinetypeTableRecord
  2
BYLAYER
 70
     0
  3

 72
    65
 73
     0
 40
0.0
  0
LTYPE
  5
F4
100
AcDbSymbolTableRecord
100
AcDbLinetypeTableRecord
  2
CONTINUOUS
 70
     0
  3
Solid line (NEC CAE2D for Win R18.0 : 2024.02.02)
 72
    65
 73
     0
 40
0.0
  0
LTYPE
  5
F5
100
AcDbSymbolTableRecord
100
AcDbLinetypeTableRecord
  2
CENTER
 70
     0
  3
____ _ ____ _ ____ _ ____ _ ____ _ ____
 72
    65
 73
     4
 40
2.0
 49
1.25
 74
     0
 49
-0.25
 74
     0
 49
0.25
 74
     0
 49
-0.25
 74
     0
  0
ENDTAB
  0
TABLE
  2
LAYER
  5
F6
100
AcDbSymbolTable
 70
    15
  0
LAYER
  5
F7
100
AcDbSymbolTableRecord
100
AcDbLayerTableRecord
  2
0
 70
     0
 62
     7
  6
CONTINUOUS
370
    -3
390

  0
LAYER
  5
F8
100
AcDbSymbolTableRecord
100
AcDbLayerTableRecord
  2
DXF0
 70
     0
 62
     7
  6
CONTINUOUS
370
    -3
390

  0
LAYER
  5
F9
100
AcDbSymbolTableRecord
100
AcDbLayerTableRecord
  2
A0
 70
     0
 62
     9
  6
CONTINUOUS
370
    -3
390

  0
LAYER
  5
FA
100
AcDbSymbolTableRecord
100
AcDbLayerTableRecord
  2
A4
 70
     0
 62
     9
  6
CONTINUOUS
370
    -3
390

  0
LAYER
  5
FB
100
AcDbSymbolTableRecord
100
AcDbLayerTableRecord
  2
A5
 70
     0
 62
     8
  6
CONTINUOUS
370
    -3
390

  0
LAYER
  5
FC
100
AcDbSymbolTableRecord
100
AcDbLayerTableRecord
  2
A6
 70
     0
 62
    12
  6
CONTINUOUS
370
    -3
390

  0
LAYER
  5
FD
100
AcDbSymbolTableRecord
100
AcDbLayerTableRecord
  2
A8
 70
     0
 62
    10
  6
CONTINUOUS
370
    -3
390

  0
LAYER
  5
FE
100
AcDbSymbolTableRecord
100
AcDbLayerTableRecord
  2
A9
 70
     0
 62
     9
  6
CONTINUOUS
370
    -3
390

  0
LAYER
  5
FF
100
AcDbSymbolTableRecord
100
AcDbLayerTableRecord
  2
A10
 70
     0
 62
     6
  6
CONTINUOUS
370
    -3
390

  0
LAYER
  5
100
100
AcDbSymbolTableRecord
100
AcDbLayerTableRecord
  2
A20
 70
     0
 62
     1
  6
CONTINUOUS
370
    -3
390

  0
LAYER
  5
101
100
AcDbSymbolTableRecord
100
AcDbLayerTableRecord
  2
A30
 70
     0
 62
     1
  6
CONTINUOUS
370
    -3
390

  0
LAYER
  5
102
100
AcDbSymbolTableRecord
100
AcDbLayerTableRecord
  2
A40
 70
     0
 62
     9
  6
CONTINUOUS
370
    -3
390

  0
LAYER
  5
103
100
AcDbSymbolTableRecord
100
AcDbLayerTableRecord
  2
A50
 70
     0
 62
    12
  6
CONTINUOUS
370
    -3
390

  0
LAYER
  5
104
100
AcDbSymbolTableRecord
100
AcDbLayerTableRecord
  2
A1023
 70
     0
 62
     8
  6
CONTINUOUS
370
    -3
390

  0
LAYER
  5
105
100
AcDbSymbolTableRecord
100
AcDbLayerTableRecord
  2
DXF1023
 70
     0
 62
    16
  6
CONTINUOUS
370
    -3
390

  0
ENDTAB
  0
TABLE
  2
STYLE
  5
106
100
AcDbSymbolTable
 70
     4
  0
STYLE
  5
107
100
AcDbSymbolTableRecord
100
AcDbTextStyleTableRecord
  2
STANDARD
 70
    64
 40
0.0
 41
1.0
 50
0.0
 71
     0
 42
3.000000000000000
  3
TXT
  4

  0
STYLE
  5
108
100
AcDbSymbolTableRecord
100
AcDbTextStyleTableRecord
  2
ANKTATE
 70
    68
 40
0.0
 41
1.0
 50
0.0
 71
     0
 42
3.000000000000000
  3
TXT
  4

  0
STYLE
  5
109
100
AcDbSymbolTableRecord
100
AcDbTextStyleTableRecord
  2
KNJYOKO
 70
    64
 40
0.0
 41
1.0
 50
0.0
 71
     0
 42
3.000000000000000
  3
TXT
  4
BIGFONT
  0
STYLE
  5
10A
100
AcDbSymbolTableRecord
100
AcDbTextStyleTableRecord
  2
KNJTATE
 70
    68
 40
0.0
 41
1.0
 50
0.0
 71
     0
 42
3.000000000000000
  3
TXT
  4
BIGFONT
  0
ENDTAB
  0
TABLE
  2
VIEW
  5
10B
100
AcDbSymbolTable
 70
     0
  0
ENDTAB
  0
TABLE
  2
UCS
  5
10C
100
AcDbSymbolTable
 70
     0
  0
ENDTAB
  0
TABLE
  2
APPID
  5
10D
100
AcDbSymbolTable
 70
     1
  0
APPID
  5
10E
100
AcDbSymbolTableRecord
100
AcDbRegAppTableRecord
  2
ACAD
 70
     0
  0
ENDTAB
  0
TABLE
  2
DIMSTYLE
  5
10F
100
AcDbSymbolTable
 70
     2
100
AcDbDimStyleTable
  0
DIMSTYLE
105
110
100
AcDbSymbolTableRecord
100
AcDbDimStyleTableRecord
  2
STANDARD
 70
     0
 41
2.000000
 44
1.500000
 42
0.800000
145
0.661290
140
3.100000
144
1.000000
146
0.645161
340
107
  0
DIMSTYLE
105
111
100
AcDbSymbolTableRecord
100
AcDbDimStyleTableRecord
  2
DXF001
 70
     0
 41
2.000000
 44
1.500000
 42
0.800000
145
0.661290
140
3.100000
144
1.000000
146
0.645161
 77
     1
 73
     0
 74
     0
271
     2
179
     2
275
     0
 78
     8
 79
     2
172
     1
340
107
  0
ENDTAB
  0
TABLE
  2
BLOCK_RECORD
  5
112
100
AcDbSymbolTable
 70
    12
  0
BLOCK_RECORD
  5
113
100
AcDbSymbolTableRecord
100
AcDbBlockTableRecord
  2
*MODEL_SPACE
  0
BLOCK_RECORD
  5
114
100
AcDbSymbolTableRecord
100
AcDbBlockTableRecord
  2
*PAPER_SPACE
  0
BLOCK_RECORD
  5
115
100
AcDbSymbolTableRecord
100
AcDbBlockTableRecord
  2
*PAPER_SPACE0
  0
BLOCK_RECORD
  5
1
100
AcDbSymbolTableRecord
100
AcDbBlockTableRecord
  2
_NONE
  0
BLOCK_RECORD
  5
4
100
AcDbSymbolTableRecord
100
AcDbBlockTableRecord
  2
_CLOSED
  0
BLOCK_RECORD
  5
B
100
AcDbSymbolTableRecord
100
AcDbBlockTableRecord
  2
_DOT
  0
BLOCK_RECORD
  5
13
100
AcDbSymbolTableRecord
100
AcDbBlockTableRecord
  2
_OPEN
  0
BLOCK_RECORD
  5
19
100
AcDbSymbolTableRecord
100
AcDbBlockTableRecord
  2
_ORIGIN
  0
BLOCK_RECORD
  5
1E
100
AcDbSymbolTableRecord
100
AcDbBlockTableRecord
  2
_OPEN30
  0
BLOCK_RECORD
  5
24
100
AcDbSymbolTableRecord
100
AcDbBlockTableRecord
  2
_BOXFILLED
  0
BLOCK_RECORD
  5
29
100
AcDbSymbolTableRecord
100
AcDbBlockTableRecord
  2
_BOXBLANK
  0
BLOCK_RECORD
  5
31
100
AcDbSymbolTableRecord
100
AcDbBlockTableRecord
  2
_OBLIQUE
  0
BLOCK_RECORD
  5
35
100
AcDbSymbolTableRecord
100
AcDbBlockTableRecord
  2
_OPEN90
  0
BLOCK_RECORD
  5
3B
100
AcDbSymbolTableRecord
100
AcDbBlockTableRecord
  2
_CLOSEDBLANK
  0
BLOCK_RECORD
  5
41
100
AcDbSymbolTableRecord
100
AcDbBlockTableRecord
  2
_DOTBLANK
  0
ENDTAB
  0
ENDSEC
  0
SECTION
  2
BLOCKS
  0
BLOCK
  5
116
100
AcDbEntity
  8
0
100
AcDbBlockBegin
  2
*MODEL_SPACE
 70
     0
 10
0.0
 20
0.0
 30
0.0
  3
*MODEL_SPACE
  1

  0
ENDBLK
  5
117
100
AcDbEntity
  8
0
100
AcDbBlockEnd
  0
BLOCK
  5
118
100
AcDbEntity
  8
0
100
AcDbBlockBegin
  2
*PAPER_SPACE
 70
     0
 10
0.0
 20
0.0
 30
0.0
  3
*PAPER_SPACE
  1

  0
ENDBLK
  5
119
100
AcDbEntity
  8
0
100
AcDbBlockEnd
  0
BLOCK
  5
11A
100
AcDbEntity
  8
0
100
AcDbBlockBegin
  2
*PAPER_SPACE0
 70
     0
 10
0.0
 20
0.0
 30
0.0
  3
*PAPER_SPACE0
  1

  0
ENDBLK
  5
11B
100
AcDbEntity
  8
0
100
AcDbBlockEnd
  0
BLOCK
  5
2
330
1
100
AcDbEntity
  8
0
100
AcDbBlockBegin
  2
_NONE
 70
     0
 10
0.0
 20
0.0
 30
0.0
  3
_NONE
  1

  0
ENDBLK
  5
3
330
1
100
AcDbEntity
  8
0
100
AcDbBlockEnd
  0
BLOCK
  5
5
330
4
100
AcDbEntity
  8
0
100
AcDbBlockBegin
  2
_CLOSED
 70
     0
 10
0.0
 20
0.0
 30
0.0
  3
_CLOSED
  1

  0
LINE
  5
6
330
4
100
AcDbEntity
  8
0
  6
BYBLOCK
 62
     0
370
    -2
100
AcDbLine
 10
-1.0
 20
0.166667
 30
0.0
 11
0.0
 21
0.0
 31
0.0
  0
LINE
  5
7
330
4
100
AcDbEntity
  8
0
  6
BYBLOCK
 62
     0
370
    -2
100
AcDbLine
 10
0.0
 20
0.0
 30
0.0
 11
-1.0
 21
-0.166667
 31
0.0
  0
LINE
  5
8
330
4
100
AcDbEntity
  8
0
  6
BYBLOCK
 62
     0
370
    -2
100
AcDbLine
 10
-1.0
 20
0.166667
 30
0.0
 11
-1.0
 21
-0.166667
 31
0.0
  0
LINE
  5
9
330
4
100
AcDbEntity
  8
0
  6
BYBLOCK
 62
     0
370
    -2
100
AcDbLine
 10
0.0
 20
0.0
 30
0.0
 11
-1.0
 21
0.0
 31
0.0
  0
ENDBLK
  5
A
330
4
100
AcDbEntity
  8
0
100
AcDbBlockEnd
  0
BLOCK
  5
C
330
B
100
AcDbEntity
  8
0
100
AcDbBlockBegin
  2
_DOT
 70
     0
 10
0.0
 20
0.0
 30
0.0
  3
_DOT
  1

  0
POLYLINE
  5
D
330
B
100
AcDbEntity
  8
0
  6
BYBLOCK
 62
     0
370
    -2
100
AcDb2dPolyline
 66
     1
 10
0.0
 20
0.0
 30
0.0
 70
     1
 40
0.5
 41
0.5
  0
VERTEX
  5
E
330
B
100
AcDbEntity
  8
0
  6
BYBLOCK
 62
     0
370
    -2
100
AcDbVertex
100
AcDb2dVertex
 10
-0.25
 20
0.0
 30
0.0
 42
1.0
  0
VERTEX
  5
F
330
B
100
AcDbEntity
  8
0
  6
BYBLOCK
 62
     0
370
    -2
100
AcDbVertex
100
AcDb2dVertex
 10
0.25
 20
0.0
 30
0.0
 42
1.0
  0
SEQEND
  5
10
330
B
100
AcDbEntity
  8
0
  6
BYBLOCK
 62
     0
370
    -2
  0
LINE
  5
11
330
B
100
AcDbEntity
  8
0
  6
BYBLOCK
 62
     0
370
    -2
100
AcDbLine
 10
-0.5
 20
0.0
 30
0.0
 11
-1.0
 21
0.0
 31
0.0
  0
ENDBLK
  5
12
330
B
100
AcDbEntity
  8
0
100
AcDbBlockEnd
  0
BLOCK
  5
14
330
13
100
AcDbEntity
  8
0
100
AcDbBlockBegin
  2
_OPEN
 70
     0
 10
0.0
 20
0.0
 30
0.0
  3
_OPEN
  1

  0
LINE
  5
15
330
13
100
AcDbEntity
  8
0
  6
BYBLOCK
 62
     0
370
    -2
100
AcDbLine
 10
-1.0
 20
0.166667
 30
0.0
 11
0.0
 21
0.0
 31
0.0
  0
LINE
  5
16
330
13
100
AcDbEntity
  8
0
  6
BYBLOCK
 62
     0
370
    -2
100
AcDbLine
 10
0.0
 20
0.0
 30
0.0
 11
-1.0
 21
-0.166667
 31
0.0
  0
LINE
  5
17
330
13
100
AcDbEntity
  8
0
  6
BYBLOCK
 62
     0
370
    -2
100
AcDbLine
 10
0.0
 20
0.0
 30
0.0
 11
-1.0
 21
0.0
 31
0.0
  0
ENDBLK
  5
18
330
13
100
AcDbEntity
  8
0
100
AcDbBlockEnd
  0
BLOCK
  5
1A
330
19
100
AcDbEntity
  8
0
100
AcDbBlockBegin
  2
_ORIGIN
 70
     0
 10
0.0
 20
0.0
 30
0.0
  3
_ORIGIN
  1

  0
CIRCLE
  5
1B
330
19
100
AcDbEntity
  8
0
  6
BYBLOCK
 62
     0
370
    -2
100
AcDbCircle
 10
0.0
 20
0.0
 30
0.0
 40
0.5
  0
LINE
  5
1C
330
19
100
AcDbEntity
  8
0
  6
BYBLOCK
 62
     0
370
    -2
100
AcDbLine
 10
0.0
 20
0.0
 30
0.0
 11
-1.0
 21
0.0
 31
0.0
  0
ENDBLK
  5
1D
330
19
100
AcDbEntity
  8
0
100
AcDbBlockEnd
  0
BLOCK
  5
1F
330
1E
100
AcDbEntity
  8
0
100
AcDbBlockBegin
  2
_OPEN30
 70
     0
 10
0.0
 20
0.0
 30
0.0
  3
_OPEN30
  1

  0
LINE
  5
20
330
1E
100
AcDbEntity
  8
0
  6
BYBLOCK
 62
     0
370
    -2
100
AcDbLine
 10
-1.0
 20
0.267949
 30
0.0
 11
0.0
 21
0.0
 31
0.0
  0
LINE
  5
21
330
1E
100
AcDbEntity
  8
0
  6
BYBLOCK
 62
     0
370
    -2
100
AcDbLine
 10
0.0
 20
0.0
 30
0.0
 11
-1.0
 21
-0.267949
 31
0.0
  0
LINE
  5
22
330
1E
100
AcDbEntity
  8
0
  6
BYBLOCK
 62
     0
370
    -2
100
AcDbLine
 10
0.0
 20
0.0
 30
0.0
 11
-1.0
 21
0.0
 31
0.0
  0
ENDBLK
  5
23
330
1E
100
AcDbEntity
  8
0
100
AcDbBlockEnd
  0
BLOCK
  5
25
330
24
100
AcDbEntity
  8
0
100
AcDbBlockBegin
  2
_BOXFILLED
 70
     0
 10
0.0
 20
0.0
 30
0.0
  3
_BOXFILLED
  1

  0
SOLID
  5
26
330
24
100
AcDbEntity
  8
0
  6
BYBLOCK
 62
     0
370
    -2
100
AcDbTrace
 10
-0.5
 20
0.5
 30
0.0
 11
0.5
 21
0.5
 31
0.0
 12
-0.5
 22
-0.5
 32
0.0
 13
0.5
 23
-0.5
 33
0.0
  0
LINE
  5
27
330
24
100
AcDbEntity
  8
0
  6
BYBLOCK
 62
     0
370
    -2
100
AcDbLine
 10
-0.5
 20
0.0
 30
0.0
 11
-1.0
 21
0.0
 31
0.0
  0
ENDBLK
  5
28
330
24
100
AcDbEntity
  8
0
100
AcDbBlockEnd
  0
BLOCK
  5
2A
330
29
100
AcDbEntity
  8
0
100
AcDbBlockBegin
  2
_BOXBLANK
 70
     0
 10
0.0
 20
0.0
 30
0.0
  3
_BOXBLANK
  1

  0
LINE
  5
2B
330
29
100
AcDbEntity
  8
0
  6
BYBLOCK
 62
     0
370
    -2
100
AcDbLine
 10
-0.5
 20
-0.5
 30
0.0
 11
0.5
 21
-0.5
 31
0.0
  0
LINE
  5
2C
330
29
100
AcDbEntity
  8
0
  6
BYBLOCK
 62
     0
370
    -2
100
AcDbLine
 10
0.5
 20
-0.5
 30
0.0
 11
0.5
 21
0.5
 31
0.0
  0
LINE
  5
2D
330
29
100
AcDbEntity
  8
0
  6
BYBLOCK
 62
     0
370
    -2
100
AcDbLine
 10
0.5
 20
0.5
 30
0.0
 11
-0.5
 21
0.5
 31
0.0
  0
LINE
  5
2E
330
29
100
AcDbEntity
  8
0
  6
BYBLOCK
 62
     0
370
    -2
100
AcDbLine
 10
-0.5
 20
0.5
 30
0.0
 11
-0.5
 21
-0.5
 31
0.0
  0
LINE
  5
2F
330
29
100
AcDbEntity
  8
0
  6
BYBLOCK
 62
     0
370
    -2
100
AcDbLine
 10
-0.5
 20
0.0
 30
0.0
 11
-1.0
 21
0.0
 31
0.0
  0
ENDBLK
  5
30
330
29
100
AcDbEntity
  8
0
100
AcDbBlockEnd
  0
BLOCK
  5
32
330
31
100
AcDbEntity
  8
0
100
AcDbBlockBegin
  2
_OBLIQUE
 70
     0
 10
0.0
 20
0.0
 30
0.0
  3
_OBLIQUE
  1

  0
LINE
  5
33
330
31
100
AcDbEntity
  8
0
  6
BYBLOCK
 62
     0
370
    -2
100
AcDbLine
 10
-0.5
 20
-0.5
 30
0.0
 11
0.5
 21
0.5
 31
0.0
  0
ENDBLK
  5
34
330
31
100
AcDbEntity
  8
0
100
AcDbBlockEnd
  0
BLOCK
  5
36
330
35
100
AcDbEntity
  8
0
100
AcDbBlockBegin
  2
_OPEN90
 70
     0
 10
0.0
 20
0.0
 30
0.0
  3
_OPEN90
  1

  0
LINE
  5
37
330
35
100
AcDbEntity
  8
0
  6
BYBLOCK
 62
     0
370
    -2
100
AcDbLine
 10
-0.5
 20
0.5
 30
0.0
 11
0.0
 21
0.0
 31
0.0
  0
LINE
  5
38
330
35
100
AcDbEntity
  8
0
  6
BYBLOCK
 62
     0
370
    -2
100
AcDbLine
 10
0.0
 20
0.0
 30
0.0
 11
-0.5
 21
-0.5
 31
0.0
  0
LINE
  5
39
330
35
100
AcDbEntity
  8
0
  6
BYBLOCK
 62
     0
370
    -2
100
AcDbLine
 10
0.0
 20
0.0
 30
0.0
 11
-1.0
 21
0.0
 31
0.0
  0
ENDBLK
  5
3A
330
35
100
AcDbEntity
  8
0
100
AcDbBlockEnd
  0
BLOCK
  5
3C
330
3B
100
AcDbEntity
  8
0
100
AcDbBlockBegin
  2
_CLOSEDBLANK
 70
     0
 10
0.0
 20
0.0
 30
0.0
  3
_CLOSEDBLANK
  1

  0
LINE
  5
3D
330
3B
100
AcDbEntity
  8
0
  6
BYBLOCK
 62
     0
370
    -2
100
AcDbLine
 10
-1.0
 20
0.1666666666666666
 30
0.0
 11
0.0
 21
0.0
 31
0.0
  0
LINE
  5
3E
330
3B
100
AcDbEntity
  8
0
  6
BYBLOCK
 62
     0
370
    -2
100
AcDbLine
 10
0.0
 20
0.0
 30
0.0
 11
-1.0
 21
-0.1666666666666666
 31
0.0
  0
LINE
  5
3F
330
3B
100
AcDbEntity
  8
0
  6
BYBLOCK
 62
     0
370
    -2
100
AcDbLine
 10
-1.0
 20
0.1666666666666666
 30
0.0
 11
-1.0
 21
-0.1666666666666666
 31
0.0
  0
ENDBLK
  5
40
330
3B
100
AcDbEntity
  8
0
100
AcDbBlockEnd
  0
BLOCK
  5
42
330
41
100
AcDbEntity
  8
0
100
AcDbBlockBegin
  2
_DOTBLANK
 70
     0
 10
0.0
 20
0.0
 30
0.0
  3
_DOTBLANK
  1

  0
CIRCLE
  5
43
330
41
100
AcDbEntity
  8
0
  6
BYBLOCK
 62
     0
370
    -2
100
AcDbCircle
 10
0.0
 20
0.0
 30
0.0
 40
0.5
  0
LINE
  5
44
330
41
100
AcDbEntity
  8
0
  6
BYBLOCK
 62
     0
370
    -2
100
AcDbLine
 10
-0.5
 20
0.0
 30
0.0
 11
-1.0
 21
0.0
 31
0.0
  0
ENDBLK
  5
45
330
41
100
AcDbEntity
  8
0
100
AcDbBlockEnd
  0
ENDSEC
  0
SECTION
  2
ENTITIES
  0
MTEXT
  5
46
100
AcDbEntity
  8
A8
  6
CONTINUOUS
 62
7
100
AcDbMText
 10
9.999997526638502
 20
18.00000076076889
 30
0.000000000000000
 40
3.000000000000000
 41
0.000000000000000
 44
0.6739999771118164
 71
     7
 72
     1
  1
{\H0.94x;{TYPE No.THA-472-W-1.6}}
 11
1.000000000000000
 21
0.000000000000000
 31
0.000000000000000
  7
STANDARD
  0
LINE
  5
47
100
AcDbEntity
  8
A4
  6
CONTINUOUS
 62
7
100
AcDbLine
 10
68.49936977005640
 20
171.4999999999987
 30
0.000000000000000
 11
154.4993697700575
 21
171.4999999999987
 31
0.000000000000000
  0
LINE
  5
48
100
AcDbEntity
  8
A6
  6
CONTINUOUS
 62
7
100
AcDbLine
 10
164.3493697701112
 20
247.9999999999554
 30
0.000000000000000
 11
164.3493697701112
 21
272.9999999998724
 31
0.000000000000000
  0
LINE
  5
49
100
AcDbEntity
  8
A6
  6
CONTINUOUS
 62
7
100
AcDbLine
 10
58.64936977002831
 20
247.9999999998787
 30
0.000000000000000
 11
58.64936977002831
 21
272.9999999998725
 31
0.000000000000000
  0
LINE
  5
4A
100
AcDbEntity
  8
A6
  6
CONTINUOUS
 62
7
100
AcDbLine
 10
49.99936977005366
 20
246.9999999998790
 30
0.000000000000000
 11
49.99936977005366
 21
247.9999999998787
 31
0.000000000000000
  0
LINE
  5
4B
100
AcDbEntity
  8
A6
  6
CONTINUOUS
 62
7
100
AcDbLine
 10
141.4993697700286
 20
266.9999999998566
 30
0.000000000000000
 11
141.4993697700286
 21
269.9999999998558
 31
0.000000000000000
  0
LINE
  5
4C
100
AcDbEntity
  8
A6
  6
CONTINUOUS
 62
7
100
AcDbLine
 10
81.49936977002854
 20
266.9999999998566
 30
0.000000000000000
 11
81.49936977002854
 21
269.9999999998558
 31
0.000000000000000
  0
LINE
  5
4D
100
AcDbEntity
  8
A10
  6
CONTINUOUS
 62
7
100
AcDbLine
 10
116.4993697700286
 20
266.9999999998565
 30
0.000000000000000
 11
116.4993697700286
 21
269.9999999998561
 31
0.000000000000000
  0
LINE
  5
4E
100
AcDbEntity
  8
A10
  6
CONTINUOUS
 62
7
100
AcDbLine
 10
106.4993697700285
 20
266.9999999998566
 30
0.000000000000000
 11
106.4993697700285
 21
269.9999999998558
 31
0.000000000000000
  0
LINE
  5
4F
100
AcDbEntity
  8
A6
  6
CONTINUOUS
 62
7
100
AcDbLine
 10
106.4993697700285
 20
266.9999999998566
 30
0.000000000000000
 11
81.49936977002854
 21
266.9999999998566
 31
0.000000000000000
  0
LINE
  5
50
100
AcDbEntity
  8
A6
  6
CONTINUOUS
 62
7
100
AcDbLine
 10
141.4993697700285
 20
266.9999999998566
 30
0.000000000000000
 11
116.4993697700285
 21
266.9999999998566
 31
0.000000000000000
  0
LINE
  5
51
100
AcDbEntity
  8
A6
  6
CONTINUOUS
 62
7
100
AcDbLine
 10
81.49936977002854
 20
269.9999999998558
 30
0.000000000000000
 11
106.4993697700285
 21
269.9999999998558
 31
0.000000000000000
  0
LINE
  5
52
100
AcDbEntity
  8
A6
  6
CONTINUOUS
 62
7
100
AcDbLine
 10
116.4993697700285
 20
269.9999999998558
 30
0.000000000000000
 11
141.4993697700285
 21
269.9999999998558
 31
0.000000000000000
  0
LINE
  5
53
100
AcDbEntity
  8
A6
  6
CONTINUOUS
 62
7
100
AcDbLine
 10
58.64936977002834
 20
272.9999999998724
 30
0.000000000000000
 11
73.49936977008640
 21
272.9999999998724
 31
0.000000000000000
  0
LINE
  5
54
100
AcDbEntity
  8
A6
  6
CONTINUOUS
 62
7
100
AcDbLine
 10
140.9993697700610
 20
267.4999999998788
 30
0.000000000000000
 11
140.9993697700610
 21
269.4999999998788
 31
0.000000000000000
  0
LINE
  5
55
100
AcDbEntity
  8
A6
  6
CONTINUOUS
 62
7
100
AcDbLine
 10
116.9993697700611
 20
267.4999999998788
 30
0.000000000000000
 11
116.9993697700611
 21
269.4999999998788
 31
0.000000000000000
  0
LINE
  5
56
100
AcDbEntity
  8
A6
  6
CONTINUOUS
 62
7
100
AcDbLine
 10
116.9993697700611
 20
267.4999999998788
 30
0.000000000000000
 11
140.9993697700610
 21
267.4999999998788
 31
0.000000000000000
  0
LINE
  5
57
100
AcDbEntity
  8
A6
  6
CONTINUOUS
 62
7
100
AcDbLine
 10
105.9993697700611
 20
269.9999999998788
 30
0.000000000000000
 11
105.9993697700611
 21
269.4999999998788
 31
0.000000000000000
  0
LINE
  5
58
100
AcDbEntity
  8
A6
  6
CONTINUOUS
 62
7
100
AcDbLine
 10
105.9993697700611
 20
269.9999999998788
 30
0.000000000000000
 11
81.99936977006105
 21
269.9999999998788
 31
0.000000000000000
  0
LINE
  5
59
100
AcDbEntity
  8
A6
  6
CONTINUOUS
 62
7
100
AcDbLine
 10
81.99936977006105
 20
269.4999999998788
 30
0.000000000000000
 11
81.99936977006105
 21
269.9999999998788
 31
0.000000000000000
  0
LINE
  5
5A
100
AcDbEntity
  8
A6
  6
CONTINUOUS
 62
7
100
AcDbLine
 10
105.9993697700611
 20
269.4999999998788
 30
0.000000000000000
 11
105.9993697700611
 21
267.4999999998788
 31
0.000000000000000
  0
LINE
  5
5B
100
AcDbEntity
  8
A6
  6
CONTINUOUS
 62
7
100
AcDbLine
 10
105.9993697700611
 20
269.4999999998788
 30
0.000000000000000
 11
81.99936977006105
 21
269.4999999998788
 31
0.000000000000000
  0
LINE
  5
5C
100
AcDbEntity
  8
A6
  6
CONTINUOUS
 62
7
100
AcDbLine
 10
81.99936977006105
 20
267.4999999998788
 30
0.000000000000000
 11
81.99936977006105
 21
269.4999999998788
 31
0.000000000000000
  0
LINE
  5
5D
100
AcDbEntity
  8
A6
  6
CONTINUOUS
 62
7
100
AcDbLine
 10
81.99936977006105
 20
267.4999999998788
 30
0.000000000000000
 11
105.9993697700611
 21
267.4999999998788
 31
0.000000000000000
  0
LINE
  5
5E
100
AcDbEntity
  8
A6
  6
CONTINUOUS
 62
7
100
AcDbLine
 10
140.9993697700610
 20
269.9999999998788
 30
0.000000000000000
 11
116.9993697700611
 21
269.9999999998788
 31
0.000000000000000
  0
LINE
  5
5F
100
AcDbEntity
  8
A6
  6
CONTINUOUS
 62
7
100
AcDbLine
 10
140.9993697700610
 20
269.4999999998788
 30
0.000000000000000
 11
140.9993697700610
 21
269.9999999998788
 31
0.000000000000000
  0
LINE
  5
60
100
AcDbEntity
  8
A6
  6
CONTINUOUS
 62
7
100
AcDbLine
 10
140.9993697700610
 20
269.4999999998788
 30
0.000000000000000
 11
116.9993697700611
 21
269.4999999998788
 31
0.000000000000000
  0
LINE
  5
61
100
AcDbEntity
  8
A6
  6
CONTINUOUS
 62
7
100
AcDbLine
 10
116.9993697700611
 20
269.4999999998788
 30
0.000000000000000
 11
116.9993697700611
 21
269.9999999998788
 31
0.000000000000000
  0
LINE
  5
62
100
AcDbEntity
  8
A6
  6
CENTER
 62
1
100
AcDbLine
 10
111.4993697700988
 20
231.6999999998789
 30
0.000000000000000
 11
111.4993697700595
 21
281.4999999998788
 31
0.000000000000000
  0
LINE
  5
63
100
AcDbEntity
  8
A6
  6
CONTINUOUS
 62
7
100
AcDbLine
 10
68.49936977005503
 20
249.6999999998787
 30
0.000000000000000
 11
154.4993697700550
 21
249.6999999998787
 31
0.000000000000000
  0
LINE
  5
64
100
AcDbEntity
  8
A6
  6
CONTINUOUS
 62
7
100
AcDbLine
 10
68.49936977005503
 20
252.6999999998787
 30
0.000000000000000
 11
154.4993697700550
 21
252.6999999998787
 31
0.000000000000000
  0
LINE
  5
65
100
AcDbEntity
  8
A10
  6
CONTINUOUS
 62
7
100
AcDbLine
 10
70.99936977005507
 20
247.9999999998641
 30
0.000000000000000
 11
70.99936977006757
 21
249.6999999998787
 31
0.000000000000000
  0
LINE
  5
66
100
AcDbEntity
  8
A10
  6
CONTINUOUS
 62
7
100
AcDbLine
 10
151.9993697700551
 20
247.9999999998640
 30
0.000000000000000
 11
151.9993697700426
 21
249.6999999998787
 31
0.000000000000000
  0
LINE
  5
67
100
AcDbEntity
  8
A10
  6
CONTINUOUS
 62
7
100
AcDbLine
 10
151.9993697700549
 20
257.3999999998790
 30
0.000000000000000
 11
151.9993697700549
 21
252.6999999998789
 31
0.000000000000000
  0
LINE
  5
68
100
AcDbEntity
  8
A10
  6
CONTINUOUS
 62
7
100
AcDbLine
 10
70.99936977005503
 20
257.3999999998790
 30
0.000000000000000
 11
70.99936977005503
 21
252.6999999998789
 31
0.000000000000000
  0
LINE
  5
69
100
AcDbEntity
  8
A10
  6
CONTINUOUS
 62
7
100
AcDbLine
 10
112.9993697700843
 20
247.9999999998787
 30
0.000000000000000
 11
112.9993697700824
 21
249.6999999998787
 31
0.000000000000000
  0
LINE
  5
6A
100
AcDbEntity
  8
A10
  6
CONTINUOUS
 62
7
100
AcDbLine
 10
112.9993697700790
 20
252.6999999998787
 30
0.000000000000000
 11
112.9993697700739
 21
257.3999999998790
 31
0.000000000000000
  0
LINE
  5
6B
100
AcDbEntity
  8
A10
  6
CONTINUOUS
 62
7
100
AcDbLine
 10
109.9993697700843
 20
247.9999999998787
 30
0.000000000000000
 11
109.9993697700824
 21
249.6999999998787
 31
0.000000000000000
  0
LINE
  5
6C
100
AcDbEntity
  8
A10
  6
CONTINUOUS
 62
7
100
AcDbLine
 10
109.9993697700790
 20
252.6999999998789
 30
0.000000000000000
 11
109.9993697700739
 21
257.3999999998790
 31
0.000000000000000
  0
LINE
  5
6D
100
AcDbEntity
  8
A6
  6
CONTINUOUS
 62
7
100
AcDbLine
 10
68.49936977005503
 20
247.9999999998789
 30
0.000000000000000
 11
68.49936977005500
 21
257.3999999998790
 31
0.000000000000000
  0
LINE
  5
6E
100
AcDbEntity
  8
A6
  6
CONTINUOUS
 62
7
100
AcDbLine
 10
154.4993697700550
 20
247.9999999998789
 30
0.000000000000000
 11
154.4993697700550
 21
257.3999999998790
 31
0.000000000000000
  0
LINE
  5
6F
100
AcDbEntity
  8
A6
  6
CONTINUOUS
 62
7
100
AcDbLine
 10
149.4993697700510
 20
272.9999999998724
 30
0.000000000000000
 11
164.3493697701112
 21
272.9999999998724
 31
0.000000000000000
  0
LINE
  5
70
100
AcDbEntity
  8
A10
  6
CONTINUOUS
 62
7
100
AcDbLine
 10
78.49936977006162
 20
272.9999999998724
 30
0.000000000000000
 11
144.4993697700568
 21
272.9999999998724
 31
0.000000000000000
  0
LINE
  5
71
100
AcDbEntity
  8
A10
  6
CONTINUOUS
 62
7
100
AcDbLine
 10
75.49936977008508
 20
270.9999999998723
 30
0.000000000000000
 11
73.49936977008636
 21
272.9999999998723
 31
0.000000000000000
  0
LINE
  5
72
100
AcDbEntity
  8
A6
  6
CONTINUOUS
 62
7
100
AcDbLine
 10
49.99936977005365
 20
247.9999999998788
 30
0.000000000000000
 11
172.9993697700540
 21
247.9999999998789
 31
0.000000000000000
  0
LINE
  5
73
100
AcDbEntity
  8
A10
  6
CONTINUOUS
 62
7
100
AcDbLine
 10
67.34936977002123
 20
279.9999999998787
 30
0.000000000000000
 11
155.6493697701112
 21
279.9999999998787
 31
0.000000000000000
  0
ARC
  5
74
100
AcDbEntity
  8
A10
  6
CONTINUOUS
 62
7
100
AcDbCircle
 10
155.6493697701112
 20
272.7999999998725
 30
0.000000000000000
 40
7.200000000000000
100
AcDbArc
 50
1.591754176585380
 51
90.00000000000000
  0
ARC
  5
75
100
AcDbEntity
  8
A10
  6
CONTINUOUS
 62
7
100
AcDbCircle
 10
67.34936977002123
 20
272.7999999998036
 30
0.000000000000000
 40
7.200000000000000
100
AcDbArc
 50
90.00000000009049
 51
178.4082458228662
  0
LINE
  5
76
100
AcDbEntity
  8
A4
  6
CENTER
 62
1
100
AcDbLine
 10
111.4993697699997
 20
172.9999999999986
 30
0.000000000000000
 11
111.4993697699997
 21
48.49999999999983
 31
0.000000000000000
  0
LINE
  5
77
100
AcDbEntity
  8
A10
  6
CONTINUOUS
 62
7
100
AcDbLine
 10
151.9993697700550
 20
257.3999999998790
 30
0.000000000000000
 11
154.4993697700550
 21
257.3999999998790
 31
0.000000000000000
  0
LINE
  5
78
100
AcDbEntity
  8
A10
  6
CONTINUOUS
 62
7
100
AcDbLine
 10
68.49936977005500
 20
257.3999999998790
 30
0.000000000000000
 11
70.99936977005503
 21
257.3999999998790
 31
0.000000000000000
  0
LINE
  5
79
100
AcDbEntity
  8
A10
  6
CONTINUOUS
 62
7
100
AcDbLine
 10
109.9993697700739
 20
257.3999999998790
 30
0.000000000000000
 11
112.9993697700738
 21
257.3999999998790
 31
0.000000000000000
  0
LINE
  5
7A
100
AcDbEntity
  8
A10
  6
CONTINUOUS
 62
7
100
AcDbLine
 10
146.4993697700734
 20
257.9999999999512
 30
0.000000000000000
 11
146.4993697700590
 21
270.9999999998724
 31
0.000000000000000
  0
LINE
  5
7B
100
AcDbEntity
  8
A10
  6
CONTINUOUS
 62
7
100
AcDbLine
 10
147.4993697700734
 20
257.9999999999513
 30
0.000000000000000
 11
147.4993697700590
 21
270.9999999998781
 31
0.000000000000000
  0
LINE
  5
7C
100
AcDbEntity
  8
A6
  6
CONTINUOUS
 62
7
100
AcDbLine
 10
149.4993697700512
 20
272.9999999998726
 30
0.000000000000000
 11
147.4993697700533
 21
270.9999999998723
 31
0.000000000000000
  0
LINE
  5
7D
100
AcDbEntity
  8
A10
  6
CONTINUOUS
 62
7
100
AcDbLine
 10
75.49936977007825
 20
257.9999999998724
 30
0.000000000000000
 11
75.49936977006384
 21
270.9999999998936
 31
0.000000000000000
  0
LINE
  5
7E
100
AcDbEntity
  8
A10
  6
CONTINUOUS
 62
7
100
AcDbLine
 10
76.49936977007825
 20
257.9999999998725
 30
0.000000000000000
 11
76.49936977006384
 21
270.9999999998724
 31
0.000000000000000
  0
LINE
  5
7F
100
AcDbEntity
  8
A10
  6
CONTINUOUS
 62
7
100
AcDbLine
 10
146.4993697700734
 20
257.9999999999512
 30
0.000000000000000
 11
147.4993697700734
 21
257.9999999999512
 31
0.000000000000000
  0
LINE
  5
80
100
AcDbEntity
  8
A10
  6
CONTINUOUS
 62
7
100
AcDbLine
 10
76.49936977007825
 20
257.9999999998726
 30
0.000000000000000
 11
75.49936977007825
 21
257.9999999998726
 31
0.000000000000000
  0
LINE
  5
81
100
AcDbEntity
  8
A10
  6
CONTINUOUS
 62
7
100
AcDbLine
 10
166.0260843027550
 20
249.9499044516075
 30
0.000000000000000
 11
164.3493697701080
 21
249.9499044516112
 31
0.000000000000000
  0
ARC
  5
82
100
AcDbEntity
  8
A10
  6
CONTINUOUS
 62
7
100
AcDbCircle
 10
166.0493697698859
 20
250.4604380672056
 30
0.000000000000000
 40
0.5000000000000000
100
AcDbArc
 50
279.7198677024006
 51
376.8465233048485
  0
ARC
  5
83
100
AcDbEntity
  8
A10
  6
CONTINUOUS
 62
7
100
AcDbCircle
 10
164.7493697700414
 20
258.0499044517284
 30
0.000000000000000
 40
8.199999999999999
100
AcDbArc
 50
278.9572160592983
 51
279.7198677011427
  0
LINE
  5
84
100
AcDbEntity
  8
A10
  6
CONTINUOUS
 62
7
100
AcDbLine
 10
166.5284601034215
 20
250.6035200454850
 30
0.000000000000000
 11
164.3493697700540
 21
257.8999044517283
 31
0.000000000000000
  0
LINE
  5
85
100
AcDbEntity
  8
A10
  6
CONTINUOUS
 62
7
100
AcDbLine
 10
56.97265523741436
 20
249.9499044515214
 30
0.000000000000000
 11
58.64936977006138
 21
249.9499044515278
 31
0.000000000000000
  0
ARC
  5
86
100
AcDbEntity
  8
A10
  6
CONTINUOUS
 62
7
100
AcDbCircle
 10
56.94936977028267
 20
250.4604380671194
 30
0.000000000000000
 40
0.5000000000000000
100
AcDbArc
 50
163.1534766952420
 51
260.2801322976899
  0
ARC
  5
87
100
AcDbEntity
  8
A10
  6
CONTINUOUS
 62
7
100
AcDbCircle
 10
58.24936977011517
 20
258.0499044516442
 30
0.000000000000000
 40
8.199999999999999
100
AcDbArc
 50
260.2801322989478
 51
261.0427839407922
  0
LINE
  5
88
100
AcDbEntity
  8
A10
  6
CONTINUOUS
 62
7
100
AcDbLine
 10
56.47027943674684
 20
250.6035200453981
 30
0.000000000000000
 11
58.64936977010279
 21
257.8999044516449
 31
0.000000000000000
  0
LINE
  5
89
100
AcDbEntity
  8
A4
  6
CONTINUOUS
 62
7
100
AcDbLine
 10
154.4993697700564
 20
171.4999999999987
 30
0.000000000000000
 11
154.4993697700564
 21
168.9999999999987
 31
0.000000000000000
  0
LINE
  5
8A
100
AcDbEntity
  8
A4
  6
CONTINUOUS
 62
7
100
AcDbLine
 10
68.49936977005643
 20
171.4999999999987
 30
0.000000000000000
 11
68.49936977005643
 21
168.9999999999987
 31
0.000000000000000
  0
LINE
  5
8B
100
AcDbEntity
  8
A4
  6
CENTER
 62
1
100
AcDbLine
 10
111.4993697699997
 20
172.9999999999987
 30
0.000000000000000
 11
111.4993697699997
 21
48.49999999999983
 31
0.000000000000000
  0
SPLINE
  5
8C
100
AcDbEntity
  8
A10
  6
CONTINUOUS
 62
1
100
AcDbSpline
210
0.000000000000000
220
0.000000000000000
230
1.000000000000000
 70
     8
 71
     3
 72
    14
 73
    10
 74
     0
 42
1.000000000000000e-07
 43
1.000000000000000e-07
 12
-0.07591081213095663
 22
0.4614322213028004
 32
0.000000000000000
 13
-0.1749519482619633
 23
0.5557977892824510
 33
0.000000000000000
 40
0.000000000000000
 40
0.000000000000000
 40
0.000000000000000
 40
0.000000000000000
 40
0.9787225031288583
 40
1.783528369678147
 40
3.329212828823942
 40
4.141089277721550
 40
5.806138909442626
 40
7.148920635549446
 40
8.145569685654769
 40
8.145569685654769
 40
8.145569685654769
 40
8.145569685654769
 10
60.85541116263869
 20
156.2376888937092
 30
0.000000000000000
 10
60.83064595595090
 20
156.3882269265951
 30
0.000000000000000
 10
60.78551626028400
 20
156.6625527457207
 30
0.000000000000000
 10
60.83701542618962
 20
157.3911669683903
 30
0.000000000000000
 10
62.08757783724047
 20
156.6713537602720
 30
0.000000000000000
 10
60.78498134264635
 20
157.0149225683015
 30
0.000000000000000
 10
62.18047542639567
 20
156.1486523940394
 30
0.000000000000000
 10
61.04996238436286
 20
155.6196269629302
 30
0.000000000000000
 10
60.91353306032181
 20
156.0530437807962
 30
0.000000000000000
 10
60.85541116263869
 20
156.2376888937092
 30
0.000000000000000
  0
SPLINE
  5
8D
100
AcDbEntity
  8
A10
  6
CONTINUOUS
 62
1
100
AcDbSpline
210
0.000000000000000
220
0.000000000000000
230
1.000000000000000
 70
     8
 71
     3
 72
    12
 73
     8
 74
     0
 42
1.000000000000000e-07
 43
1.000000000000000e-07
 12
-0.2166539913173153
 22
-0.6564007652684154
 32
0.000000000000000
 13
0.4394867800380950
 23
-0.2048344752289495
 33
0.000000000000000
 40
0.000000000000000
 40
0.000000000000000
 40
0.000000000000000
 40
0.000000000000000
 40
1.437811610078280
 40
2.395586377864828
 40
2.995162730171498
 40
4.609016324049298
 40
5.554425788836191
 40
5.554425788836191
 40
5.554425788836191
 40
5.554425788836191
 10
62.91388337000137
 20
156.7242368699949
 30
0.000000000000000
 10
62.81004749530609
 20
156.4096433229392
 30
0.000000000000000
 10
62.63704304520309
 20
155.8854884123736
 30
0.000000000000000
 10
62.20291146398074
 20
156.3754427386982
 30
0.000000000000000
 10
61.49815432646471
 20
156.2400964987011
 30
0.000000000000000
 10
62.40046428919538
 20
156.9635294557249
 30
0.000000000000000
 10
62.77538504950246
 20
156.7887876871936
 30
0.000000000000000
 10
62.91388337000137
 20
156.7242368699949
 30
0.000000000000000
  0
SPLINE
  5
8E
100
AcDbEntity
  8
A10
  6
CONTINUOUS
 62
1
100
AcDbSpline
210
0.000000000000000
220
0.000000000000000
230
1.000000000000000
 70
     8
 71
     3
 72
    14
 73
    10
 74
     0
 42
1.000000000000000e-07
 43
1.000000000000000e-07
 12
-0.1494323208519290
 22
0.5030211482595632
 32
0.000000000000000
 13
-0.1273368194590603
 23
0.5944567789092616
 33
0.000000000000000
 40
0.000000000000000
 40
0.000000000000000
 40
0.000000000000000
 40
0.000000000000000
 40
0.5571443088701327
 40
1.036440542161265
 40
1.455887361762801
 40
2.267763494741168
 40
3.187944610203516
 40
4.155960148063572
 40
4.606326675375718
 40
4.606326675375718
 40
4.606326675375718
 40
4.606326675375718
 10
62.18031850039722
 20
155.1897391207810
 30
0.000000000000000
 10
62.15256671135592
 20
155.2831575774457
 30
0.000000000000000
 10
62.10094080614260
 20
155.4569414146526
 30
0.000000000000000
 10
62.28758854368732
 20
155.6850285804987
 30
0.000000000000000
 10
61.93803186402658
 20
155.9820581385617
 30
0.000000000000000
 10
62.58663095895020
 20
155.7079961725602
 30
0.000000000000000
 10
62.76758719803354
 20
155.3067419146799
 30
0.000000000000000
 10
62.25963866777545
 20
154.8194423644877
 30
0.000000000000000
 10
62.19943458079013
 20
155.1004979757295
 30
0.000000000000000
 10
62.18031850039722
 20
155.1897391207810
 30
0.000000000000000
  0
SPLINE
  5
8F
100
AcDbEntity
  8
A10
  6
CONTINUOUS
 62
1
100
AcDbSpline
210
0.000000000000000
220
0.000000000000000
230
1.000000000000000
 70
     8
 71
     3
 72
    15
 73
    11
 74
     0
 42
1.000000000000000e-07
 43
1.000000000000000e-07
 12
-0.6893704521356341
 22
0.2865688758715237
 32
0.000000000000000
 13
-0.5464919106639172
 23
-0.1764191847489656
 33
0.000000000000000
 40
0.000000000000000
 40
0.000000000000000
 40
0.000000000000000
 40
0.000000000000000
 40
1.547278782900274
 40
3.072307287326454
 40
4.123673921230293
 40
5.195413438639240
 40
7.459754900589280
 40
8.234334857603814
 40
9.512468443045469
 40
9.879480059204450
 40
9.879480059204450
 40
9.879480059204450
 40
9.879480059204450
 10
61.18306587832910
 20
154.1863015772853
 30
0.000000000000000
 10
60.82751645361316
 20
154.3341022244438
 30
0.000000000000000
 10
60.12153049902543
 20
154.6275781063306
 30
0.000000000000000
 10
61.21387985252306
 20
154.6160206876823
 30
0.000000000000000
 10
61.79066048423522
 20
155.0828352709390
 30
0.000000000000000
 10
62.05912254525776
 20
154.2297944062258
 30
0.000000000000000
 10
62.01687531110758
 20
153.0027185579833
 30
0.000000000000000
 10
61.37212508542154
 20
153.6394865564952
 30
0.000000000000000
 10
61.54960835296095
 20
154.3046292657438
 30
0.000000000000000
 10
61.24992217144597
 20
154.2078842073240
 30
0.000000000000000
 10
61.18306587832910
 20
154.1863015772853
 30
0.000000000000000
  0
SPLINE
  5
90
100
AcDbEntity
  8
A10
  6
CONTINUOUS
 62
1
100
AcDbSpline
210
0.000000000000000
220
0.000000000000000
230
1.000000000000000
 70
     8
 71
     3
 72
    15
 73
    11
 74
     0
 42
1.000000000000000e-07
 43
1.000000000000000e-07
 12
-0.3011790336508682
 22
0.6485493129911788
 32
0.000000000000000
 13
-0.3038075720811548
 23
0.5973233005658471
 33
0.000000000000000
 40
0.000000000000000
 40
0.000000000000000
 40
0.000000000000000
 40
0.000000000000000
 40
1.401341084807380
 40
3.256802983785870
 40
5.186399225547176
 40
7.287638078970287
 40
8.639071352665045
 40
9.883893069359308
 40
11.24301593038800
 40
12.33382516141846
 40
12.33382516141846
 40
12.33382516141846
 40
12.33382516141846
 10
61.11569758277972
 20
152.6218628710159
 30
0.000000000000000
 10
60.97501273153387
 20
152.9248091369553
 30
0.000000000000000
 10
60.64805247305128
 20
153.6288749161827
 30
0.000000000000000
 10
61.89048457056026
 20
152.6630187507918
 30
0.000000000000000
 10
62.80964280167518
 20
154.0207728989845
 30
0.000000000000000
 10
62.83358766771664
 20
152.5756850798185
 30
0.000000000000000
 10
61.86608909436370
 20
151.6736632572753
 30
0.000000000000000
 10
62.17457577421476
 20
153.1199285615353
 30
0.000000000000000
 10
61.47426559102485
 20
151.9168737731632
 30
0.000000000000000
 10
61.22616295080741
 20
152.4046742809603
 30
0.000000000000000
 10
61.11569758277972
 20
152.6218628710159
 30
0.000000000000000
  0
SPLINE
  5
91
100
AcDbEntity
  8
A10
  6
CONTINUOUS
 62
1
100
AcDbSpline
210
0.000000000000000
220
0.000000000000000
230
1.000000000000000
 70
     8
 71
     3
 72
    15
 73
    11
 74
     0
 42
1.000000000000000e-07
 43
1.000000000000000e-07
 12
0.2508042990934030
 22
0.4057242501364726
 32
0.000000000000000
 13
0.5507795595947300
 23
0.3631257408385409
 33
0.000000000000000
 40
0.000000000000000
 40
0.000000000000000
 40
0.000000000000000
 40
0.000000000000000
 40
1.212996784253355
 40
2.274967410824405
 40
3.790635971675303
 40
4.460146340469033
 40
5.269811747789930
 40
7.190268604786363
 40
8.393898480074260
 40
9.055664412636933
 40
9.055664412636933
 40
9.055664412636933
 40
9.055664412636933
 10
63.51535084946079
 20
151.0649091184667
 30
0.000000000000000
 10
63.61675911888653
 20
151.2289565220364
 30
0.000000000000000
 10
63.80694965453097
 20
151.5366263376503
 30
0.000000000000000
 10
63.78855622092681
 20
152.4113319534378
 30
0.000000000000000
 10
65.00648694170548
 20
151.7224575276413
 30
0.000000000000000
 10
64.04843751966712
 20
151.5378278341395
 30
0.000000000000000
 10
65.21082491393929
 20
151.3842106301827
 30
0.000000000000000
 10
64.00923291945185
 20
150.9167807466123
 30
0.000000000000000
 10
63.05138117265813
 20
150.7590166253977
 30
0.000000000000000
 10
63.39385513316358
 20
150.9848077036255
 30
0.000000000000000
 10
63.51535084946079
 20
151.0649091184667
 30
0.000000000000000
  0
SPLINE
  5
92
100
AcDbEntity
  8
A10
  6
CONTINUOUS
 62
1
100
AcDbSpline
210
0.000000000000000
220
0.000000000000000
230
1.000000000000000
 70
     8
 71
     3
 72
    14
 73
    10
 74
     0
 42
1.000000000000000e-07
 43
1.000000000000000e-07
 12
-0.2342045331457996
 22
-0.4006469908044892
 32
0.000000000000000
 13
-0.6999520235847854
 23
-0.1023363618782014
 33
0.000000000000000
 40
0.000000000000000
 40
0.000000000000000
 40
0.000000000000000
 40
0.000000000000000
 40
0.7900502899259934
 40
1.720163378593611
 40
2.113126752931555
 40
2.861811788597586
 40
3.671477037526894
 40
4.714066134324685
 40
5.522484538741952
 40
5.522484538741952
 40
5.522484538741952
 40
5.522484538741952
 10
63.24587766726347
 20
152.7565991765709
 30
0.000000000000000
 10
63.18419988082553
 20
152.6510887528232
 30
0.000000000000000
 10
63.04990986048608
 20
152.4213626590478
 30
0.000000000000000
 10
62.91630351240713
 20
151.9337004936885
 30
0.000000000000000
 10
63.27309267638191
 20
151.8705225457315
 30
0.000000000000000
 10
63.77633995501185
 20
151.8029757735250
 30
0.000000000000000
 10
63.26903124537910
 20
152.3146408057034
 30
0.000000000000000
 10
63.86636784867039
 20
152.8473178338597
 30
0.000000000000000
 10
63.43449569995516
 20
152.7841760426987
 30
0.000000000000000
 10
63.24587766726347
 20
152.7565991765709
 30
0.000000000000000
  0
SPLINE
  5
93
100
AcDbEntity
  8
A10
  6
CONTINUOUS
 62
1
100
AcDbSpline
210
0.000000000000000
220
0.000000000000000
230
1.000000000000000
 70
     8
 71
     3
 72
    13
 73
     9
 74
     0
 42
1.000000000000000e-07
 43
1.000000000000000e-07
 12
0.03331976716583540
 22
0.5691097191177050
 32
0.000000000000000
 13
-0.3237396280936764
 23
0.2902369608999606
 33
0.000000000000000
 40
0.000000000000000
 40
0.000000000000000
 40
0.000000000000000
 40
0.000000000000000
 40
0.8246127393565452
 40
1.962780125931454
 40
3.450916906357687
 40
4.395971081732740
 40
6.225340313061069
 40
7.315224388033089
 40
7.315224388033089
 40
7.315224388033089
 40
7.315224388033089
 10
62.97640505615357
 20
153.9243142054392
 30
0.000000000000000
 10
62.98556369097935
 20
154.0807459135979
 30
0.000000000000000
 10
63.00736348324438
 20
154.4530916623175
 30
0.000000000000000
 10
63.89043410135571
 20
154.3848523782150
 30
0.000000000000000
 10
63.76671815872976
 20
153.6936852325165
 30
0.000000000000000
 10
64.59826805121168
 20
153.0388407206087
 30
0.000000000000000
 10
63.40904393775020
 20
153.5364475889822
 30
0.000000000000000
 10
63.09401794451912
 20
153.8188726582215
 30
0.000000000000000
 10
62.97640505615357
 20
153.9243142054392
 30
0.000000000000000
  0
LINE
  5
94
100
AcDbEntity
  8
A10
  6
CONTINUOUS
 62
7
100
AcDbLine
 10
155.8493697699996
 20
82.10645518787157
 30
0.000000000000000
 11
67.14936976999967
 21
82.10645518786971
 31
0.000000000000000
  0
LINE
  5
95
100
AcDbEntity
  8
A10
  6
CONTINUOUS
 62
7
100
AcDbLine
 10
144.4993697700568
 20
272.9999999998724
 30
0.000000000000000
 11
146.4993697700590
 21
270.9999999998724
 31
0.000000000000000
  0
LINE
  5
96
100
AcDbEntity
  8
A10
  6
CONTINUOUS
 62
7
100
AcDbLine
 10
78.49936977006159
 20
272.9999999998723
 30
0.000000000000000
 11
76.49936977006381
 21
270.9999999998723
 31
0.000000000000000
  0
LINE
  5
97
100
AcDbEntity
  8
A4
  6
CONTINUOUS
 62
7
100
AcDbLine
 10
59.28691441500582
 20
169.0000000000212
 30
0.000000000000000
 11
163.7112003412021
 21
169.0000000000212
 31
0.000000000000000
  0
LINE
  5
98
100
AcDbEntity
  8
A4
  6
CONTINUOUS
 62
7
100
AcDbLine
 10
80.84905465497856
 20
50.00000000000001
 30
0.000000000000000
 11
59.28691441498979
 21
50.00000000000001
 31
0.000000000000000
  0
ARC
  5
99
100
AcDbEntity
  8
A4
  6
CONTINUOUS
 62
7
100
AcDbCircle
 10
80.84905465497856
 20
50.30000000000001
 30
0.000000000000000
 40
0.3000000000000000
100
AcDbArc
 50
270.0000000000000
 51
360.0000000000000
  0
LINE
  5
9A
100
AcDbEntity
  8
A10
  6
CONTINUOUS
 62
7
100
AcDbLine
 10
141.8882453463766
 20
50.15174850906585
 30
0.000000000000000
 11
81.10986396352236
 21
50.15174850906585
 31
0.000000000000000
  0
ARC
  5
9B
100
AcDbEntity
  8
A4
  6
CONTINUOUS
 62
7
100
AcDbCircle
 10
142.1490546549485
 20
50.30000000000001
 30
0.000000000000000
 40
0.3000000000000000
100
AcDbArc
 50
209.6151419302197
 51
270.0000000000000
  0
LINE
  5
9C
100
AcDbEntity
  8
A4
  6
CONTINUOUS
 62
7
100
AcDbLine
 10
142.1490546549485
 20
50.00000000000001
 30
0.000000000000000
 11
163.7116923447094
 21
50.00000000000001
 31
0.000000000000000
  0
ARC
  5
9D
100
AcDbEntity
  8
A4
  6
CONTINUOUS
 62
7
100
AcDbCircle
 10
154.4990546545900
 20
68.10187899994577
 30
0.000000000000000
 40
6.000000000000001
100
AcDbArc
 50
270.0000000000000
 51
360.0000000000000
  0
LINE
  5
9E
100
AcDbEntity
  8
A4
  6
CONTINUOUS
 62
7
100
AcDbLine
 10
68.49905465533710
 20
62.10187899994577
 30
0.000000000000000
 11
154.4990546545900
 21
62.10187899994577
 31
0.000000000000000
  0
LINE
  5
9F
100
AcDbEntity
  8
A4
  6
CONTINUOUS
 62
7
100
AcDbLine
 10
160.4990546545899
 20
112.6542948277042
 30
0.000000000000000
 11
160.4990546545899
 21
68.10187899994577
 31
0.000000000000000
  0
LINE
  5
A0
100
AcDbEntity
  8
A4
  6
CONTINUOUS
 62
7
100
AcDbLine
 10
62.99905465533710
 20
110.3000000000850
 30
0.000000000000000
 11
159.9990546545899
 21
110.3000000000850
 31
0.000000000000000
  0
ARC
  5
A1
100
AcDbEntity
  8
A4
  6
CONTINUOUS
 62
7
100
AcDbCircle
 10
159.9990546545899
 20
109.8000000000850
 30
0.000000000000000
 40
0.5000000000000000
100
AcDbArc
 50
0.000000000000000
 51
89.97705182264059
  0
LINE
  5
A2
100
AcDbEntity
  8
A4
  6
CONTINUOUS
 62
7
100
AcDbLine
 10
62.49905465533710
 20
112.6542948277042
 30
0.000000000000000
 11
62.49905465533710
 21
68.10187899994577
 31
0.000000000000000
  0
ARC
  5
A3
100
AcDbEntity
  8
A4
  6
CONTINUOUS
 62
7
100
AcDbCircle
 10
62.99905465533710
 20
109.8000000000850
 30
0.000000000000000
 40
0.5000000000000000
100
AcDbArc
 50
89.97705182264059
 51
180.0000000000000
  0
ARC
  5
A4
100
AcDbEntity
  8
A4
  6
CONTINUOUS
 62
7
100
AcDbCircle
 10
68.49905465533710
 20
68.10187899994577
 30
0.000000000000000
 40
6.000000000000001
100
AcDbArc
 50
180.0000000000000
 51
270.0000000000000
  0
LINE
  5
A5
100
AcDbEntity
  8
A4
  6
CONTINUOUS
 62
7
100
AcDbLine
 10
68.49905465493431
 20
171.4999999999749
 30
0.000000000000000
 11
68.49905465493431
 21
168.9999999999749
 31
0.000000000000000
  0
LINE
  5
A6
100
AcDbEntity
  8
A4
  6
CONTINUOUS
 62
7
100
AcDbLine
 10
154.4990546549928
 20
171.4999999999749
 30
0.000000000000000
 11
68.49905465493431
 21
171.4999999999749
 31
0.000000000000000
  0
LINE
  5
A7
100
AcDbEntity
  8
A4
  6
CONTINUOUS
 62
7
100
AcDbLine
 10
154.4990546549928
 20
171.4999999999749
 30
0.000000000000000
 11
154.4990546549928
 21
168.9999999999749
 31
0.000000000000000
  0
ARC
  5
A8
100
AcDbEntity
  8
A10
  6
CONTINUOUS
 62
7
100
AcDbCircle
 10
-87.00126046000064
 20
109.4999999998460
 30
0.000000000000000
 40
260.0000000000000
100
AcDbArc
 50
347.3001084426740
 51
372.6998915574012
  0
ARC
  5
A9
100
AcDbEntity
  8
A4
  6
CONTINUOUS
 62
7
100
AcDbCircle
 10
163.7112242710502
 20
53.00000000000001
 30
0.000000000000000
 40
3.000000000000000
100
AcDbArc
 50
270.0000000000000
 51
347.3001084426739
  0
ARC
  5
AA
100
AcDbEntity
  8
A4
  6
CONTINUOUS
 62
7
100
AcDbCircle
 10
163.7112242709760
 20
166.0000000000212
 30
0.000000000000000
 40
3.000000000000000
100
AcDbArc
 50
12.69989155740116
 51
90.00000000000000
  0
ARC
  5
AB
100
AcDbEntity
  8
A10
  6
CONTINUOUS
 62
7
100
AcDbCircle
 10
310.0000000000000
 20
109.4999999998460
 30
0.000000000000000
 40
260.0000000000000
100
AcDbArc
 50
167.3001084425987
 51
192.6998915573260
  0
ARC
  5
AC
100
AcDbEntity
  8
A4
  6
CONTINUOUS
 62
7
100
AcDbCircle
 10
59.28751526902336
 20
166.0000000000212
 30
0.000000000000000
 40
3.000000000000000
100
AcDbArc
 50
90.00000000000000
 51
167.3001084425988
  0
ARC
  5
AD
100
AcDbEntity
  8
A4
  6
CONTINUOUS
 62
7
100
AcDbCircle
 10
59.28751526894918
 20
53.00000000000001
 30
0.000000000000000
 40
3.000000000000000
100
AcDbArc
 50
192.6998915573261
 51
270.0000000000000
  0
ARC
  5
AE
100
AcDbEntity
  8
A5
  6
CONTINUOUS
 62
7
100
AcDbCircle
 10
263.6993697700008
 20
168.9999999999749
 30
0.000000000000000
 40
2.500000000000000
100
AcDbArc
 50
90.00000000000000
 51
180.0000000000000
  0
ARC
  5
AF
100
AcDbEntity
  8
A5
  6
CONTINUOUS
 62
7
100
AcDbCircle
 10
279.4993697699912
 20
94.66390529664301
 30
0.000000000000000
 40
5.000000000000000
100
AcDbArc
 50
329.4232803927686
 51
360.0000000000000
  0
LINE
  5
B0
100
AcDbEntity
  8
A5
  6
CONTINUOUS
 62
7
100
AcDbLine
 10
264.4993697700007
 20
54.94337567295182
 30
0.000000000000000
 11
261.9993697700007
 21
53.49999999997483
 31
0.000000000000000
  0
LINE
  5
B1
100
AcDbEntity
  8
A5
  6
CONTINUOUS
 62
7
100
AcDbLine
 10
261.9993697700008
 20
53.49999999997482
 30
0.000000000000000
 11
261.1993697701808
 21
53.49999999997488
 31
0.000000000000000
  0
LINE
  5
B2
100
AcDbEntity
  8
A5
  6
CONTINUOUS
 62
7
100
AcDbLine
 10
261.1993697701793
 20
54.49999999986457
 30
0.000000000000000
 11
259.4993697700007
 21
54.49999999986477
 31
0.000000000000000
  0
LINE
  5
B3
100
AcDbEntity
  8
A5
  6
CONTINUOUS
 62
7
100
AcDbLine
 10
259.4993697700007
 20
55.80000000013587
 30
0.000000000000000
 11
264.4993697700007
 21
55.80000000013583
 31
0.000000000000000
  0
LINE
  5
B4
100
AcDbEntity
  8
A5
  6
CONTINUOUS
 62
7
100
AcDbLine
 10
264.4993697700007
 20
55.80000000013581
 30
0.000000000000000
 11
264.4993697700007
 21
54.94337567295179
 31
0.000000000000000
  0
LINE
  5
B5
100
AcDbEntity
  8
A5
  6
CONTINUOUS
 62
7
100
AcDbLine
 10
268.8993697699015
 20
162.7999999994707
 30
0.000000000000000
 11
264.1993697700008
 21
169.3000000000200
 31
0.000000000000000
  0
LINE
  5
B6
100
AcDbEntity
  8
A5
  6
CONTINUOUS
 62
7
100
AcDbLine
 10
264.1993697700008
 20
169.3000000000200
 30
0.000000000000000
 11
264.1993697700008
 21
171.4999999999749
 31
0.000000000000000
  0
LINE
  5
B7
100
AcDbEntity
  8
A5
  6
CONTINUOUS
 62
7
100
AcDbLine
 10
264.1993697700008
 20
171.4999999999749
 30
0.000000000000000
 11
263.6993697700008
 21
171.4999999999749
 31
0.000000000000000
  0
LINE
  5
B8
100
AcDbEntity
  8
A5
  6
CONTINUOUS
 62
7
100
AcDbLine
 10
261.1993697700008
 20
168.9999999999749
 30
0.000000000000000
 11
261.1993697700008
 21
166.4999999999748
 31
0.000000000000000
  0
LINE
  5
B9
100
AcDbEntity
  8
A5
  6
CONTINUOUS
 62
7
100
AcDbLine
 10
261.1993697700008
 20
166.4999999999748
 30
0.000000000000000
 11
259.4993697700050
 21
166.4999999999748
 31
0.000000000000000
  0
LINE
  5
BA
100
AcDbEntity
  8
A5
  6
CONTINUOUS
 62
7
100
AcDbLine
 10
269.4993697700007
 20
58.39812099940895
 30
0.000000000000000
 11
269.4993697700007
 21
66.89812099938888
 31
0.000000000000000
  0
LINE
  5
BB
100
AcDbEntity
  8
A5
  6
CONTINUOUS
 62
7
100
AcDbLine
 10
259.4993697700007
 20
58.39812099940884
 30
0.000000000000000
 11
269.4993697700007
 21
58.39812099940892
 31
0.000000000000000
  0
LINE
  5
BC
100
AcDbEntity
  8
A5
  6
CONTINUOUS
 62
7
100
AcDbLine
 10
269.3992742203650
 20
118.7999999999749
 30
0.000000000000000
 11
274.5029957700008
 21
118.7999999999749
 31
0.000000000000000
  0
LINE
  5
BD
100
AcDbEntity
  8
A5
  6
CONTINUOUS
 62
7
100
AcDbLine
 10
274.5029957700009
 20
131.7999999999749
 30
0.000000000000000
 11
269.3992742203648
 21
131.7999999999749
 31
0.000000000000000
  0
LINE
  5
BE
100
AcDbEntity
  8
A5
  6
CONTINUOUS
 62
7
100
AcDbLine
 10
259.4993697700007
 20
132.7999999999749
 30
0.000000000000000
 11
274.5029957700008
 21
132.7999999999749
 31
0.000000000000000
  0
LINE
  5
BF
100
AcDbEntity
  8
A5
  6
CONTINUOUS
 62
7
100
AcDbLine
 10
274.5029957700008
 20
117.7999999999749
 30
0.000000000000000
 11
259.4993697700007
 21
117.7999999999749
 31
0.000000000000000
  0
LINE
  5
C0
100
AcDbEntity
  8
A5
  6
CONTINUOUS
 62
7
100
AcDbLine
 10
269.4993697700007
 20
67.90999999986821
 30
0.000000000000000
 11
269.4993697700007
 21
66.89812099938888
 31
0.000000000000000
  0
LINE
  5
C1
100
AcDbEntity
  8
A5
  6
CONTINUOUS
 62
7
100
AcDbLine
 10
283.8041137170011
 20
92.12044710931589
 30
0.000000000000000
 11
269.4993697700008
 21
67.90999999986830
 31
0.000000000000000
  0
LINE
  5
C2
100
AcDbEntity
  8
A5
  6
CONTINUOUS
 62
7
100
AcDbLine
 10
284.4993697699912
 20
162.7999999994656
 30
0.000000000000000
 11
259.4993697700007
 21
162.7999999994706
 31
0.000000000000000
  0
LINE
  5
C3
100
AcDbEntity
  8
A5
  6
CONTINUOUS
 62
7
100
AcDbLine
 10
261.4669853447684
 20
118.7999999999749
 30
0.000000000000000
 11
261.4492742215750
 21
118.7999999999749
 31
0.000000000000000
  0
LINE
  5
C4
100
AcDbEntity
  8
A5
  6
CONTINUOUS
 62
7
100
AcDbLine
 10
261.4669853447684
 20
131.7999999999749
 30
0.000000000000000
 11
261.4492742215750
 21
131.7999999999749
 31
0.000000000000000
  0
LINE
  5
C5
100
AcDbEntity
  8
A5
  6
CONTINUOUS
 62
7
100
AcDbLine
 10
261.4492742215750
 20
118.7999999999749
 30
0.000000000000000
 11
261.4492742215750
 21
131.7999999999749
 31
0.000000000000000
  0
LINE
  5
C6
100
AcDbEntity
  8
A5
  6
CONTINUOUS
 62
7
100
AcDbLine
 10
269.3992742203649
 20
118.7999999999749
 30
0.000000000000000
 11
261.4492742215750
 21
118.7999999999749
 31
0.000000000000000
  0
LINE
  5
C7
100
AcDbEntity
  8
A5
  6
CONTINUOUS
 62
7
100
AcDbLine
 10
269.3992742203648
 20
131.7999999999749
 30
0.000000000000000
 11
262.1028898154200
 21
131.7999999999749
 31
0.000000000000000
  0
LINE
  5
C8
100
AcDbEntity
  8
A5
  6
CONTINUOUS
 62
7
100
AcDbLine
 10
262.9493697700008
 20
120.7999999999749
 30
0.000000000000000
 11
269.7993697700760
 21
120.7999999999749
 31
0.000000000000000
  0
LINE
  5
C9
100
AcDbEntity
  8
A5
  6
CONTINUOUS
 62
7
100
AcDbLine
 10
262.9493697700008
 20
129.7999999999749
 30
0.000000000000000
 11
262.9493697700008
 21
120.7999999999749
 31
0.000000000000000
  0
LINE
  5
CA
100
AcDbEntity
  8
A5
  6
CONTINUOUS
 62
7
100
AcDbLine
 10
269.7993697700618
 20
129.7999999999749
 30
0.000000000000000
 11
262.9493697700007
 21
129.7999999999749
 31
0.000000000000000
  0
LINE
  5
CB
100
AcDbEntity
  8
A5
  6
CONTINUOUS
 62
7
100
AcDbLine
 10
262.1028898154200
 20
118.7999999999749
 30
0.000000000000000
 11
261.4669853447684
 21
118.7999999999749
 31
0.000000000000000
  0
LINE
  5
CC
100
AcDbEntity
  8
A5
  6
CONTINUOUS
 62
7
100
AcDbLine
 10
262.1028898154200
 20
131.7999999999749
 30
0.000000000000000
 11
261.4669853447684
 21
131.7999999999749
 31
0.000000000000000
  0
LINE
  5
CD
100
AcDbEntity
  8
A5
  6
CONTINUOUS
 62
7
100
AcDbLine
 10
257.0917902641774
 20
50.00000000006411
 30
0.000000000000000
 11
259.4993697700007
 21
49.99999999997480
 31
0.000000000000000
  0
LINE
  5
CE
100
AcDbEntity
  8
A5
  6
CONTINUOUS
 62
7
100
AcDbLine
 10
284.4993697699912
 20
94.66390529664301
 30
0.000000000000000
 11
284.4993697699912
 21
162.7999999994656
 31
0.000000000000000
  0
LINE
  5
CF
100
AcDbEntity
  8
A5
  6
CONTINUOUS
 62
7
100
AcDbLine
 10
259.4993697701863
 20
49.99999999997480
 30
0.000000000000000
 11
259.4993697700008
 21
168.9999999999749
 31
0.000000000000000
  0
LINE
  5
D0
100
AcDbEntity
  8
A5
  6
CONTINUOUS
 62
7
100
AcDbLine
 10
291.4993697699997
 20
84.20137393674526
 30
0.000000000000000
 11
291.4993697699997
 21
154.3000000001339
 31
0.000000000000000
  0
ARC
  5
D1
100
AcDbEntity
  8
A5
  6
CONTINUOUS
 62
7
100
AcDbCircle
 10
284.4993697699998
 20
154.3000000001339
 30
0.000000000000000
 40
7.000000000000000
100
AcDbArc
 50
0.000000000000000
 51
90.00000000000000
  0
LINE
  5
D2
100
AcDbEntity
  8
A10
  6
CONTINUOUS
 62
7
100
AcDbLine
 10
272.1496223016941
 20
61.95213153182802
 30
0.000000000000000
 11
289.4491172383053
 21
79.25162646843945
 31
0.000000000000000
  0
ARC
  5
D3
100
AcDbEntity
  8
A5
  6
CONTINUOUS
 62
7
100
AcDbCircle
 10
284.4993697699997
 20
84.20137393674526
 30
0.000000000000000
 40
7.000000000000000
100
AcDbArc
 50
315.0000000000000
 51
360.0000000000000
  0
ARC
  5
D4
100
AcDbEntity
  8
A10
  6
CONTINUOUS
 62
7
100
AcDbCircle
 10
267.1998748333883
 20
66.90187900013382
 30
0.000000000000000
 40
7.000000000000000
100
AcDbArc
 50
289.1777129852407
 51
314.9999999999998
  0
LINE
  5
D5
100
AcDbEntity
  8
A10
  6
CONTINUOUS
 62
7
100
AcDbLine
 10
53.18834145552675
 20
233.1999999998790
 30
0.000000000000000
 11
169.8103980846773
 21
233.1999999998790
 31
0.000000000000000
  0
ARC
  5
D6
100
AcDbEntity
  8
A6
  6
CONTINUOUS
 62
7
100
AcDbCircle
 10
169.8103980846773
 20
236.1999999998790
 30
0.000000000000000
 40
3.000000000000000
100
AcDbArc
 50
270.0000000000000
 51
359.0000000000004
  0
LINE
  5
D7
100
AcDbEntity
  8
A6
  6
CONTINUOUS
 62
7
100
AcDbLine
 10
172.8099411701465
 20
236.1476427805671
 30
0.000000000000000
 11
172.9993697700339
 21
246.9999999998882
 31
0.000000000000000
  0
LINE
  5
D8
100
AcDbEntity
  8
A6
  6
CONTINUOUS
 62
7
100
AcDbLine
 10
50.18879837005773
 20
236.1476427804313
 30
0.000000000000000
 11
49.99936977014621
 21
246.9999999997520
 31
0.000000000000000
  0
ARC
  5
D9
100
AcDbEntity
  8
A6
  6
CONTINUOUS
 62
7
100
AcDbCircle
 10
53.18834145552675
 20
236.1999999997499
 30
0.000000000000000
 40
3.000000000000000
100
AcDbArc
 50
181.0000000001266
 51
270.0000000001269
  0
LINE
  5
DA
100
AcDbEntity
  8
A10
  6
CONTINUOUS
 62
7
100
AcDbLine
 10
49.99936977003343
 20
246.9999999998790
 30
0.000000000000000
 11
172.9993697700338
 21
246.9999999998790
 31
0.000000000000000
  0
LINE
  5
DB
100
AcDbEntity
  8
A5
  6
CONTINUOUS
 62
7
100
AcDbLine
 10
244.7745283611652
 20
116.2769564282040
 30
0.000000000000000
 11
254.1198941898622
 21
52.58954072271158
 31
0.000000000000000
  0
ARC
  5
DC
100
AcDbEntity
  8
A5
  6
CONTINUOUS
 62
7
100
AcDbCircle
 10
257.0999721975816
 20
53.02488355965407
 30
0.000000000000000
 40
3.000000000000000
100
AcDbArc
 50
188.3583141430554
 51
268.9999999978746
  0
LINE
  5
DD
100
AcDbEntity
  8
A5
  6
CONTINUOUS
 62
7
100
AcDbLine
 10
257.0357512936731
 20
50.02554755556529
 30
0.000000000000000
 11
258.4993697700005
 21
49.99999999997654
 31
0.000000000000000
  0
LINE
  5
DE
100
AcDbEntity
  8
A10
  6
CONTINUOUS
 62
7
100
AcDbLine
 10
259.4993697701862
 20
49.99999999997492
 30
0.000000000000000
 11
258.4993697701862
 21
49.99999999997492
 31
0.000000000000000
  0
ARC
  5
DF
100
AcDbEntity
  8
A10
  6
CONTINUOUS
 62
7
100
AcDbCircle
 10
251.6993697700814
 20
117.3000000000901
 30
0.000000000000000
 40
7.000000000000000
100
AcDbArc
 50
178.9646319802351
 51
188.3478941807285
  0
ARC
  5
E0
100
AcDbEntity
  8
A10
  6
CONTINUOUS
 62
7
100
AcDbCircle
 10
399.6752060314395
 20
114.6256995772228
 30
0.000000000000000
 40
155.0000000000000
100
AcDbArc
 50
160.2590131797888
 51
178.9646319802352
  0
ARC
  5
E1
100
AcDbEntity
  8
A5
  6
CONTINUOUS
 62
7
100
AcDbCircle
 10
256.6083735326894
 20
165.9665355538075
 30
0.000000000000000
 40
3.000000000000000
100
AcDbArc
 50
90.99999999821890
 51
160.2590131797889
  0
LINE
  5
E2
100
AcDbEntity
  8
A5
  6
CONTINUOUS
 62
7
100
AcDbLine
 10
256.5560163134708
 20
168.9660786392784
 30
0.000000000000000
 11
258.4993697700010
 21
168.9999999999801
 31
0.000000000000000
  0
LINE
  5
E3
100
AcDbEntity
  8
A10
  6
CONTINUOUS
 62
7
100
AcDbLine
 10
258.4993697700007
 20
168.9999999999749
 30
0.000000000000000
 11
259.4993697700008
 21
168.9999999999749
 31
0.000000000000000
  0
LINE
  5
E4
100
AcDbEntity
  8
A10
  6
CONTINUOUS
 62
7
100
AcDbLine
 10
258.4993697701861
 20
49.99999999997325
 30
0.000000000000000
 11
258.4993697700007
 21
168.9999999999734
 31
0.000000000000000
  0
LINE
  5
E5
100
AcDbEntity
  8
A10
  6
CONTINUOUS
 62
7
100
AcDbLine
 10
172.9993697700541
 20
247.9999999998789
 30
0.000000000000000
 11
172.9993697700541
 21
246.9999999998882
 31
0.000000000000000
  0
LINE
  5
E6
100
AcDbEntity
  8
A10
  6
CONTINUOUS
 62
7
100
AcDbLine
 10
263.8944427700004
 20
55.80000000013580
 30
0.000000000000000
 11
263.8944427700004
 21
58.39812099940886
 31
0.000000000000000
  0
LINE
  5
E7
100
AcDbEntity
  8
A10
  6
CONTINUOUS
 62
7
100
AcDbLine
 10
263.8944427700004
 20
59.89812099942291
 30
0.000000000000000
 11
263.8944427700004
 21
59.90187900013383
 31
0.000000000000000
  0
LINE
  5
E8
100
AcDbEntity
  8
A10
  6
CONTINUOUS
 62
7
100
AcDbLine
 10
269.7993697700790
 20
118.7999999999749
 30
0.000000000000000
 11
269.7993697700759
 21
120.7999999999749
 31
0.000000000000000
  0
LINE
  5
E9
100
AcDbEntity
  8
A10
  6
CONTINUOUS
 62
7
100
AcDbLine
 10
269.7993697700620
 20
129.7999999999749
 30
0.000000000000000
 11
269.7993697700588
 21
131.7999999999749
 31
0.000000000000000
  0
LINE
  5
EA
100
AcDbEntity
  8
A10
  6
CONTINUOUS
 62
7
100
AcDbLine
 10
274.5029957700008
 20
132.7999999999749
 30
0.000000000000000
 11
274.5029957700008
 21
131.7999999999749
 31
0.000000000000000
  0
LINE
  5
EB
100
AcDbEntity
  8
A10
  6
CONTINUOUS
 62
7
100
AcDbLine
 10
274.5029957700008
 20
118.7999999999749
 30
0.000000000000000
 11
274.5029957700008
 21
117.7999999999749
 31
0.000000000000000
  0
LINE
  5
EC
100
AcDbEntity
  8
A10
  6
CONTINUOUS
 62
7
100
AcDbLine
 10
259.4993697700476
 20
138.7999999997130
 30
0.000000000000000
 11
284.4993697699911
 21
137.7999999997130
 31
0.000000000000000
  0
LINE
  5
ED
100
AcDbEntity
  8
A10
  6
CONTINUOUS
 62
7
100
AcDbLine
 10
284.4993697699912
 20
112.7999999997130
 30
0.000000000000000
 11
259.4993697700900
 21
111.7999999997130
 31
0.000000000000000
  0
LINE
  5
EE
100
AcDbEntity
  8
A10
  6
CONTINUOUS
 62
7
100
AcDbLine
 10
261.1993697701807
 20
53.49999999997487
 30
0.000000000000000
 11
261.1993697701792
 21
54.49999999986456
 31
0.000000000000000
  0
ENDSEC
  0
SECTION
  2
OBJECTS
  0
DICTIONARY
  5
11C
100
AcDbDictionary
  3
ACAD_GROUP
350
11D
  3
ACAD_LAYOUT
350
11E
  3
ACAD_MLINESTYLE
350
11F
  0
DICTIONARY
  5
11D
102
{ACAD_REACTORS
330
11C
102
}
330
11C
100
AcDbDictionary
  0
DICTIONARY
  5
11E
102
{ACAD_REACTORS
330
11C
102
}
330
11C
100
AcDbDictionary
  3
Model
350
120
  3
ﾚｲｱｳﾄ1
350
121
  3
ﾚｲｱｳﾄ2
350
122
  0
DICTIONARY
  5
11F
102
{ACAD_REACTORS
330
11C
102
}
330
11C
100
AcDbDictionary
  3
STANDARD
350
123
  0
LAYOUT
  5
120
102
{ACAD_REACTORS
330
11E
102
}
330
11E
100
AcDbPlotSettings
 70
11952
  4
A1
 44
594.000000
 45
841.000000
 73
  1
 72
  1
100
AcDbLayout
  1
Model
 71
0
330
113
  0
LAYOUT
  5
121
102
{ACAD_REACTORS
330
11E
102
}
330
11E
100
AcDbPlotSettings
100
AcDbLayout
  1
ﾚｲｱｳﾄ1
 71
1
330
114
  0
LAYOUT
  5
122
102
{ACAD_REACTORS
330
11E
102
}
330
11E
100
AcDbPlotSettings
100
AcDbLayout
  1
ﾚｲｱｳﾄ2
 71
2
330
115
  0
MLINESTYLE
  5
123
102
{ACAD_REACTORS
330
11F
102
}
330
11F
100
AcDbMlineStyle
  2
STANDARD
 70
     0
  3

 62
   256
 51
90.00
 52
90.00
 71
     2
 49
0.50
 62
   256
  6
BYLAYER
 49
-0.50
 62
   256
  6
BYLAYER
  0
ENDSEC
  0
EOF
