  0
SECTION
  2
HEADER
  9
$ACADVER
  1
AC1015
  9
$ACADMAINTVER
 70
    20
  9
$DWGCODEPAGE
  3
ANSI_932
  9
$INSBASE
 10
0.0
 20
0.0
 30
0.0
  9
$EXTMIN
 10
13.745742
 20
9.999999999999998
 30
0.0
  9
$EXTMAX
 10
709.595178
 20
421.325922
 30
0.0
  9
$LIMMIN
 10
0.0
 20
0.0
  9
$LIMMAX
 10
792.0
 20
546.0
  9
$ORTHOMODE
 70
     0
  9
$REGENMODE
 70
     1
  9
$FILLMODE
 70
     1
  9
$QTEXTMODE
 70
     0
  9
$MIRRTEXT
 70
     1
  9
$LTSCALE
 40
20.0
  9
$ATTMODE
 70
     1
  9
$TEXTSIZE
 40
5.0
  9
$TRACEWID
 40
1.0
  9
$TEXTSTYLE
  7
STANDARD
  9
$CLAYER
  8
0
  9
$CELTYPE
  6
BYLAYER
  9
$CECOLOR
 62
   256
  9
$CELTSCALE
 40
1.0
  9
$DISPSILH
 70
     0
  9
$DIMSCALE
 40
1.0
  9
$DIMASZ
 40
2.5
  9
$DIMEXO
 40
1.0
  9
$DIMDLI
 40
10.0
  9
$DIMRND
 40
0.0
  9
$DIMDLE
 40
0.0
  9
$DIMEXE
 40
1.0
  9
$DIMTP
 40
0.0
  9
$DIMTM
 40
0.0
  9
$DIMTXT
 40
3.2
  9
$DIMCEN
 40
0.0
  9
$DIMTSZ
 40
0.0
  9
$DIMTOL
 70
     0
  9
$DIMLIM
 70
     0
  9
$DIMTIH
 70
     0
  9
$DIMTOH
 70
     0
  9
$DIMSE1
 70
     0
  9
$DIMSE2
 70
     0
  9
$DIMTAD
 70
     3
  9
$DIMZIN
 70
     8
  9
$DIMBLK
  1

  9
$DIMASO
 70
     1
  9
$DIMSHO
 70
     1
  9
$DIMPOST
  1

  9
$DIMAPOST
  1

  9
$DIMALT
 70
     0
  9
$DIMALTD
 70
     2
  9
$DIMALTF
 40
25.4
  9
$DIMLFAC
 40
1.0
  9
$DIMTOFL
 70
     1
  9
$DIMTVP
 40
0.0
  9
$DIMTIX
 70
     0
  9
$DIMSOXD
 70
     0
  9
$DIMSAH
 70
     1
  9
$DIMBLK1
  1
OPEN
  9
$DIMBLK2
  1
OPEN
  9
$DIMSTYLE
  2
STANDARD
  9
$DIMCLRD
 70
     0
  9
$DIMCLRE
 70
     0
  9
$DIMCLRT
 70
     0
  9
$DIMTFAC
 40
1.0
  9
$DIMGAP
 40
1.0
  9
$DIMJUST
 70
     0
  9
$DIMSD1
 70
     0
  9
$DIMSD2
 70
     0
  9
$DIMTOLJ
 70
     1
  9
$DIMTZIN
 70
     0
  9
$DIMALTZ
 70
     0
  9
$DIMALTTZ
 70
     0
  9
$DIMUPT
 70
     0
  9
$DIMDEC
 70
     4
  9
$DIMTDEC
 70
     4
  9
$DIMALTU
 70
     2
  9
$DIMALTTD
 70
     2
  9
$DIMTXSTY
  7
STANDARD
  9
$DIMAUNIT
 70
     0
  9
$DIMADEC
 70
     0
  9
$DIMALTRND
 40
0.0
  9
$DIMAZIN
 70
     0
  9
$DIMDSEP
 70
    46
  9
$DIMATFIT
 70
     3
  9
$DIMFRAC
 70
     0
  9
$DIMLDRBLK
  1
OPEN
  9
$DIMLUNIT
 70
     2
  9
$DIMLWD
 70
    -2
  9
$DIMLWE
 70
    -2
  9
$DIMTMOVE
 70
     0
  9
$LUNITS
 70
     2
  9
$LUPREC
 70
     4
  9
$SKETCHINC
 40
1.0
  9
$FILLETRAD
 40
2.5
  9
$AUNITS
 70
     0
  9
$AUPREC
 70
     2
  9
$MENU
  1
.
  9
$ELEVATION
 40
0.0
  9
$PELEVATION
 40
0.0
  9
$THICKNESS
 40
0.0
  9
$LIMCHECK
 70
     0
  9
$CHAMFERA
 40
10.0
  9
$CHAMFERB
 40
10.0
  9
$CHAMFERC
 40
0.0
  9
$CHAMFERD
 40
0.0
  9
$SKPOLY
 70
     0
  9
$TDCREATE
 40
2451344.700121991
  9
$TDUCREATE
 40
2451344.325121991
  9
$TDUPDATE
 40
2457192.643552106
  9
$TDUUPDATE
 40
2457192.268552106
  9
$TDINDWG
 40
0.0000155093
  9
$TDUSRTIMER
 40
0.0000151852
  9
$USRTIMER
 70
     1
  9
$ANGBASE
 50
0.0
  9
$ANGDIR
 70
     0
  9
$PDMODE
 70
     0
  9
$PDSIZE
 40
0.0
  9
$PLINEWID
 40
0.0
  9
$SPLFRAME
 70
     0
  9
$SPLINETYPE
 70
     6
  9
$SPLINESEGS
 70
     8
  9
$HANDSEED
  5
C375
  9
$SURFTAB1
 70
     6
  9
$SURFTAB2
 70
     6
  9
$SURFTYPE
 70
     6
  9
$SURFU
 70
     6
  9
$SURFV
 70
     6
  9
$UCSBASE
  2

  9
$UCSNAME
  2

  9
$UCSORG
 10
0.0
 20
0.0
 30
0.0
  9
$UCSXDIR
 10
1.0
 20
0.0
 30
0.0
  9
$UCSYDIR
 10
0.0
 20
1.0
 30
0.0
  9
$UCSORTHOREF
  2

  9
$UCSORTHOVIEW
 70
     0
  9
$UCSORGTOP
 10
0.0
 20
0.0
 30
0.0
  9
$UCSORGBOTTOM
 10
0.0
 20
0.0
 30
0.0
  9
$UCSORGLEFT
 10
0.0
 20
0.0
 30
0.0
  9
$UCSORGRIGHT
 10
0.0
 20
0.0
 30
0.0
  9
$UCSORGFRONT
 10
0.0
 20
0.0
 30
0.0
  9
$UCSORGBACK
 10
0.0
 20
0.0
 30
0.0
  9
$PUCSBASE
  2

  9
$PUCSNAME
  2

  9
$PUCSORG
 10
0.0
 20
0.0
 30
0.0
  9
$PUCSXDIR
 10
1.0
 20
0.0
 30
0.0
  9
$PUCSYDIR
 10
0.0
 20
1.0
 30
0.0
  9
$PUCSORTHOREF
  2

  9
$PUCSORTHOVIEW
 70
     0
  9
$PUCSORGTOP
 10
0.0
 20
0.0
 30
0.0
  9
$PUCSORGBOTTOM
 10
0.0
 20
0.0
 30
0.0
  9
$PUCSORGLEFT
 10
0.0
 20
0.0
 30
0.0
  9
$PUCSORGRIGHT
 10
0.0
 20
0.0
 30
0.0
  9
$PUCSORGFRONT
 10
0.0
 20
0.0
 30
0.0
  9
$PUCSORGBACK
 10
0.0
 20
0.0
 30
0.0
  9
$USERI1
 70
     0
  9
$USERI2
 70
     0
  9
$USERI3
 70
     0
  9
$USERI4
 70
     0
  9
$USERI5
 70
     0
  9
$USERR1
 40
0.0
  9
$USERR2
 40
0.0
  9
$USERR3
 40
0.0
  9
$USERR4
 40
0.0
  9
$USERR5
 40
0.0
  9
$WORLDVIEW
 70
     1
  9
$SHADEDGE
 70
     3
  9
$SHADEDIF
 70
    70
  9
$TILEMODE
 70
     1
  9
$MAXACTVP
 70
    16
  9
$PINSBASE
 10
0.0
 20
0.0
 30
0.0
  9
$PLIMCHECK
 70
     0
  9
$PEXTMIN
 10
1.000000000000000E+20
 20
1.000000000000000E+20
 30
1.000000000000000E+20
  9
$PEXTMAX
 10
-1.000000000000000E+20
 20
-1.000000000000000E+20
 30
-1.000000000000000E+20
  9
$PLIMMIN
 10
0.0
 20
0.0
  9
$PLIMMAX
 10
420.0
 20
297.0
  9
$UNITMODE
 70
     0
  9
$VISRETAIN
 70
     0
  9
$PLINEGEN
 70
     0
  9
$PSLTSCALE
 70
     0
  9
$TREEDEPTH
 70
  3020
  9
$CMLSTYLE
  2
STANDARD
  9
$CMLJUST
 70
     0
  9
$CMLSCALE
 40
1.0
  9
$PROXYGRAPHICS
 70
     1
  9
$MEASUREMENT
 70
     0
  9
$CELWEIGHT
370
    -1
  9
$ENDCAPS
280
     0
  9
$JOINSTYLE
280
     0
  9
$LWDISPLAY
290
     0
  9
$INSUNITS
 70
     0
  9
$HYPERLINKBASE
  1

  9
$STYLESHEET
  1

  9
$XEDIT
290
     1
  9
$CEPSNTYPE
380
     0
  9
$PSTYLEMODE
290
     1
  9
$FINGERPRINTGUID
  2
{AB31C4D9-13F4-40D8-8A86-D36131B74F56}
  9
$VERSIONGUID
  2
{C7E67616-4236-4FE0-A00A-53B9364BB5AD}
  9
$EXTNAMES
290
     1
  9
$PSVPSCALE
 40
0.0
  9
$OLESTARTUP
290
     0
  0
ENDSEC
  0
SECTION
  2
CLASSES
  0
CLASS
  1
ACDBDICTIONARYWDFLT
  2
AcDbDictionaryWithDefault
  3
ObjectDBX Classes
 90
        0
280
     0
281
     0
  0
CLASS
  1
ACDBPLACEHOLDER
  2
AcDbPlaceHolder
  3
ObjectDBX Classes
 90
        0
280
     0
281
     0
  0
CLASS
  1
LAYOUT
  2
AcDbLayout
  3
ObjectDBX Classes
 90
        0
280
     0
281
     0
  0
CLASS
  1
DICTIONARYVAR
  2
AcDbDictionaryVar
  3
ObjectDBX Classes
 90
        0
280
     0
281
     0
  0
CLASS
  1
MATERIAL
  2
AcDbMaterial
  3
ObjectDBX Classes
 90
     1153
280
     0
281
     0
  0
CLASS
  1
VISUALSTYLE
  2
AcDbVisualStyle
  3
ObjectDBX Classes
 90
     4095
280
     0
281
     0
  0
CLASS
  1
TABLESTYLE
  2
AcDbTableStyle
  3
ObjectDBX Classes
 90
     4095
280
     0
281
     0
  0
CLASS
  1
SCALE
  2
AcDbScale
  3
ObjectDBX Classes
 90
     1153
280
     0
281
     0
  0
CLASS
  1
MLEADERSTYLE
  2
AcDbMLeaderStyle
  3
ACDB_MLEADERSTYLE_CLASS
 90
     4095
280
     0
281
     0
  0
CLASS
  1
ACDBSECTIONVIEWSTYLE
  2
AcDbSectionViewStyle
  3
ObjectDBX Classes
 90
     1025
280
     0
281
     0
  0
CLASS
  1
ACDBDETAILVIEWSTYLE
  2
AcDbDetailViewStyle
  3
ObjectDBX Classes
 90
     1025
280
     0
281
     0
  0
CLASS
  1
CELLSTYLEMAP
  2
AcDbCellStyleMap
  3
ObjectDBX Classes
 90
     1152
280
     0
281
     0
  0
ENDSEC
  0
SECTION
  2
TABLES
  0
TABLE
  2
VPORT
  5
C01F
330
0
100
AcDbSymbolTable
 70
     1
  0
VPORT
  5
C2BE
330
C01F
100
AcDbSymbolTableRecord
100
AcDbViewportTableRecord
  2
*ACTIVE
 70
     0
 10
0.0
 20
0.0
 11
1.0
 21
1.0
 12
486.2413794086728
 22
215.6598370199322
 13
0.0
 23
0.0
 14
10.0
 24
10.0
 15
10.0
 25
10.0
 16
0.0
 26
0.0
 36
1.0
 17
0.0
 27
0.0
 37
0.0
 40
415.9586778224133
 41
1.899603698811096
 42
50.0
 43
0.0
 44
0.0
 50
0.0
 51
0.0
 71
     0
 72
   100
 73
     1
 74
     0
 75
     0
 76
     0
 77
     0
 78
     0
281
     0
 65
     1
110
0.0
120
0.0
130
0.0
111
1.0
121
0.0
131
0.0
112
0.0
122
1.0
132
0.0
 79
     0
146
0.0
1001
ACAD_NAV_VCDISPLAY
1070
     3
  0
ENDTAB
  0
TABLE
  2
LTYPE
  5
C01C
330
0
100
AcDbSymbolTable
 70
     4
  0
LTYPE
  5
C02A
330
C01C
100
AcDbSymbolTableRecord
100
AcDbLinetypeTableRecord
  2
BYBLOCK
 70
     0
  3

 72
    65
 73
     0
 40
0.0
  0
LTYPE
  5
C02B
330
C01C
100
AcDbSymbolTableRecord
100
AcDbLinetypeTableRecord
  2
BYLAYER
 70
     0
  3

 72
    65
 73
     0
 40
0.0
  0
LTYPE
  5
C02C
330
C01C
100
AcDbSymbolTableRecord
100
AcDbLinetypeTableRecord
  2
CONTINUOUS
 70
     0
  3
Solid line
 72
    65
 73
     0
 40
0.0
  0
LTYPE
  5
C03A
330
C01C
100
AcDbSymbolTableRecord
100
AcDbLinetypeTableRecord
  2
DASHED
 70
     0
  3
__ __ __ __ __ __ __ __ __ __ __ __ __ __ __ __
 72
    65
 73
     2
 40
0.75
 49
0.5
 74
     0
 49
-0.25
 74
     0
  0
LTYPE
  5
C03B
330
C01C
100
AcDbSymbolTableRecord
100
AcDbLinetypeTableRecord
  2
CENTER
 70
     0
  3
____ _ ____ _ ____ _ ____ _ ____ _ ____ _ ____ 
 72
    65
 73
     4
 40
2.0
 49
1.25
 74
     0
 49
-0.25
 74
     0
 49
0.25
 74
     0
 49
-0.25
 74
     0
  0
LTYPE
  5
C03C
330
C01C
100
AcDbSymbolTableRecord
100
AcDbLinetypeTableRecord
  2
PHANTOM
 70
     0
  3
______  __  __  ______  __  __  ______  __  __ 
 72
    65
 73
     6
 40
2.5
 49
1.25
 74
     0
 49
-0.25
 74
     0
 49
0.25
 74
     0
 49
-0.25
 74
     0
 49
0.25
 74
     0
 49
-0.25
 74
     0
  0
ENDTAB
  0
TABLE
  2
LAYER
  5
C019
330
0
100
AcDbSymbolTable
 70
     8
  0
LAYER
  5
C027
102
{ACAD_XDICTIONARY
360
C319
102
}
330
C019
100
AcDbSymbolTableRecord
100
AcDbLayerTableRecord
  2
0
 70
     0
 62
     7
  6
CONTINUOUS
370
    -3
390
C2C7
  0
LAYER
  5
C03D
102
{ACAD_XDICTIONARY
360
C31B
102
}
330
C019
100
AcDbSymbolTableRecord
100
AcDbLayerTableRecord
  2
4
 70
     0
 62
     1
  6
CENTER
370
    -3
390
C2C7
  0
LAYER
  5
C03E
102
{ACAD_XDICTIONARY
360
C31D
102
}
330
C019
100
AcDbSymbolTableRecord
100
AcDbLayerTableRecord
  2
5
 70
     0
 62
     6
  6
PHANTOM
370
    -3
390
C2C7
  0
LAYER
  5
C03F
102
{ACAD_XDICTIONARY
360
C31F
102
}
330
C019
100
AcDbSymbolTableRecord
100
AcDbLayerTableRecord
  2
1
 70
     0
 62
     7
  6
CONTINUOUS
370
    -3
390
C2C7
  0
LAYER
  5
C040
102
{ACAD_XDICTIONARY
360
C321
102
}
330
C019
100
AcDbSymbolTableRecord
100
AcDbLayerTableRecord
  2
2
 70
     0
 62
     4
  6
CONTINUOUS
370
    -3
390
C2C7
  0
LAYER
  5
C041
102
{ACAD_XDICTIONARY
360
C323
102
}
330
C019
100
AcDbSymbolTableRecord
100
AcDbLayerTableRecord
  2
3
 70
     0
 62
     2
  6
DASHED
370
    -3
390
C2C7
  0
LAYER
  5
C042
102
{ACAD_XDICTIONARY
360
C325
102
}
330
C019
100
AcDbSymbolTableRecord
100
AcDbLayerTableRecord
  2
6
 70
     0
 62
     5
  6
CONTINUOUS
370
    -3
390
C2C7
  0
LAYER
  5
C043
102
{ACAD_XDICTIONARY
360
C327
102
}
330
C019
100
AcDbSymbolTableRecord
100
AcDbLayerTableRecord
  2
7
 70
     0
 62
     3
  6
CONTINUOUS
370
    -3
390
C2C7
  0
ENDTAB
  0
TABLE
  2
STYLE
  5
C01A
330
0
100
AcDbSymbolTable
 70
     1
  0
STYLE
  5
C028
330
C01A
100
AcDbSymbolTableRecord
100
AcDbTextStyleTableRecord
  2
STANDARD
 70
     0
 40
0.0
 41
1.0
 50
0.0
 71
     0
 42
5.0
  3
txt
  4

  0
ENDTAB
  0
TABLE
  2
VIEW
  5
C01D
330
0
100
AcDbSymbolTable
 70
     0
  0
ENDTAB
  0
TABLE
  2
UCS
  5
C01E
330
0
100
AcDbSymbolTable
 70
     0
  0
ENDTAB
  0
TABLE
  2
APPID
  5
C020
330
0
100
AcDbSymbolTable
 70
     3
  0
APPID
  5
C029
330
C020
100
AcDbSymbolTableRecord
100
AcDbRegAppTableRecord
  2
ACAD
 70
     0
  0
APPID
  5
C333
330
C020
100
AcDbSymbolTableRecord
100
AcDbRegAppTableRecord
  2
ACAD_NAV_VCDISPLAY
 70
     0
  0
APPID
  5
C36C
330
C020
100
AcDbSymbolTableRecord
100
AcDbRegAppTableRecord
  2
ACAD_MLEADERVER
 70
     0
  0
ENDTAB
  0
TABLE
  2
DIMSTYLE
  5
C021
330
0
100
AcDbSymbolTable
 70
     1
100
AcDbDimStyleTable
 71
     0
  0
DIMSTYLE
105
C045
330
C021
100
AcDbSymbolTableRecord
100
AcDbDimStyleTableRecord
  2
STANDARD
 70
     0
 41
2.5
 42
1.0
 43
10.0
 44
1.0
 73
     0
 74
     0
 77
     3
 78
     8
140
3.2
141
0.0
147
1.0
172
     1
173
     1
284
     8
285
     8
286
     8
340
C028
  0
ENDTAB
  0
TABLE
  2
BLOCK_RECORD
  5
C018
330
0
100
AcDbSymbolTable
 70
     1
  0
BLOCK_RECORD
  5
C035
102
{ACAD_XDICTIONARY
360
C2C1
102
}
330
C018
100
AcDbSymbolTableRecord
100
AcDbBlockTableRecord
  2
*MODEL_SPACE
340
C315
  0
BLOCK_RECORD
  5
C031
102
{ACAD_XDICTIONARY
360
C2BF
102
}
330
C018
100
AcDbSymbolTableRecord
100
AcDbBlockTableRecord
  2
*PAPER_SPACE
340
C316
  0
BLOCK_RECORD
  5
C04D
330
C018
100
AcDbSymbolTableRecord
100
AcDbBlockTableRecord
  2
_OPEN
340
0
  0
ENDTAB
  0
ENDSEC
  0
SECTION
  2
BLOCKS
  0
BLOCK
  5
C036
330
C035
100
AcDbEntity
  8
0
100
AcDbBlockBegin
  2
*MODEL_SPACE
 70
     0
 10
0.0
 20
0.0
 30
0.0
  3
*MODEL_SPACE
  1

  0
ENDBLK
  5
C037
330
C035
100
AcDbEntity
  8
0
100
AcDbBlockEnd
  0
BLOCK
  5
C032
330
C031
100
AcDbEntity
 67
     1
  8
0
100
AcDbBlockBegin
  2
*PAPER_SPACE
 70
     0
 10
0.0
 20
0.0
 30
0.0
  3
*PAPER_SPACE
  1

  0
ENDBLK
  5
C033
330
C031
100
AcDbEntity
 67
     1
  8
0
100
AcDbBlockEnd
  0
BLOCK
  5
C04E
330
C04D
100
AcDbEntity
  8
0
100
AcDbBlockBegin
  2
_OPEN
 70
     0
 10
0.0
 20
0.0
 30
0.0
  3
_OPEN
  1

  0
LINE
  5
C04F
330
C04D
100
AcDbEntity
  8
0
  6
ByBlock
 62
     0
100
AcDbLine
 10
-1.0
 20
0.166667
 30
0.0
 11
0.0
 21
0.0
 31
0.0
  0
LINE
  5
C050
330
C04D
100
AcDbEntity
  8
0
  6
ByBlock
 62
     0
100
AcDbLine
 10
0.0
 20
0.0
 30
0.0
 11
-1.0
 21
-0.166667
 31
0.0
  0
LINE
  5
C051
330
C04D
100
AcDbEntity
  8
0
  6
ByBlock
 62
     0
100
AcDbLine
 10
0.0
 20
0.0
 30
0.0
 11
-1.0
 21
0.0
 31
0.0
  0
ENDBLK
  5
C052
330
C04D
100
AcDbEntity
  8
0
100
AcDbBlockEnd
  0
ENDSEC
  0
SECTION
  2
ENTITIES
  0
LINE
  5
C053
330
C035
100
AcDbEntity
  8
4
  6
CENTER
100
AcDbLine
 10
292.9534209999999
 20
57.000001
 30
0.0
 11
254.690348
 21
57.000001
 31
0.0
  0
ARC
  5
C054
330
C035
100
AcDbEntity
  8
1
  6
Continuous
100
AcDbCircle
 10
267.916473
 20
57.000001
 30
0.0
 40
10.54339799999998
100
AcDbArc
 50
116.930926
 51
243.0690740000001
  0
LINE
  5
C055
330
C035
100
AcDbEntity
  8
1
  6
Continuous
100
AcDbLine
 10
260.494436
 20
282.3097649999999
 30
0.0
 11
257.6660089999999
 21
279.4813379999999
 31
0.0
  0
LINE
  5
C056
330
C035
100
AcDbEntity
  8
1
  6
Continuous
100
AcDbLine
 10
257.6660089999999
 20
278.0671239999999
 30
0.0
 11
259.2123079999999
 21
276.520825
 31
0.0
  0
LINE
  5
C057
330
C035
100
AcDbEntity
  8
5
  6
PHANTOM
100
AcDbLine
 10
260.969667
 20
268.077175
 30
0.0
 11
215.875998
 21
222.983506
 31
0.0
  0
LINE
  5
C058
330
C035
100
AcDbEntity
  8
5
  6
PHANTOM
100
AcDbLine
 10
259.2123079999999
 20
274.8050969999999
 30
0.0
 11
193.248581
 21
208.8413699999999
 31
0.0
  0
ARC
  5
C059
330
C035
100
AcDbEntity
  8
1
  6
Continuous
100
AcDbCircle
 10
52.145742
 20
177.162961
 30
0.0
 40
2.0
100
AcDbArc
 50
270.0
 51
0.0
  0
ARC
  5
C05A
330
C035
100
AcDbEntity
  8
1
  6
Continuous
100
AcDbCircle
 10
52.145742
 20
176.662961
 30
0.0
 40
2.5
100
AcDbArc
 50
270.0
 51
0.0
  0
ARC
  5
C05B
330
C035
100
AcDbEntity
  8
1
  6
Continuous
100
AcDbCircle
 10
37.345742
 20
177.162961
 30
0.0
 40
2.0
100
AcDbArc
 50
180.0
 51
270.0
  0
ARC
  5
C05C
330
C035
100
AcDbEntity
  8
1
  6
Continuous
100
AcDbCircle
 10
37.345742
 20
176.662961
 30
0.0
 40
2.5
100
AcDbArc
 50
180.0
 51
270.0
  0
LINE
  5
C05D
330
C035
100
AcDbEntity
  8
1
  6
Continuous
100
AcDbLine
 10
31.745742
 20
296.162961
 30
0.0
 11
31.745742
 21
164.162961
 31
0.0
  0
LINE
  5
C05E
330
C035
100
AcDbEntity
  8
1
  6
Continuous
100
AcDbLine
 10
57.745742
 20
164.162961
 30
0.0
 11
57.745742
 21
296.162961
 31
0.0
  0
LINE
  5
C05F
330
C035
100
AcDbEntity
  8
1
  6
Continuous
100
AcDbLine
 10
60.745742
 20
296.162961
 30
0.0
 11
60.745742
 21
164.162961
 31
0.0
  0
LINE
  5
C060
330
C035
100
AcDbEntity
  8
1
  6
Continuous
100
AcDbLine
 10
28.74574199999999
 20
296.162961
 30
0.0
 11
28.74574199999999
 21
164.162961
 31
0.0
  0
LINE
  5
C061
330
C035
100
AcDbEntity
  8
4
  6
CENTER
100
AcDbLine
 10
44.745742
 20
304.8892299999999
 30
0.0
 11
44.745742
 21
155.1464249999999
 31
0.0
  0
TEXT
  5
C062
330
C035
100
AcDbEntity
  8
7
  6
Continuous
100
AcDbText
 10
13.745742
 20
18.0
 30
0.0
 40
3.0
  1
TYPE No.THA-505-1
100
AcDbText
  0
TEXT
  5
C063
330
C035
100
AcDbEntity
  8
7
  6
Continuous
100
AcDbText
 10
13.745742
 20
26.0
 30
0.0
 40
3.0
  1
CODE No.13095
100
AcDbText
  0
TEXT
  5
C064
330
C035
100
AcDbEntity
  8
1
  6
Continuous
100
AcDbText
 10
13.745742
 20
10.0
 30
0.0
 40
1.399999999999999
  1
LAYER
100
AcDbText
  0
TEXT
  5
C065
330
C035
100
AcDbEntity
  8
7
  6
Continuous
100
AcDbText
 10
33.725253
 20
10.04873699999998
 30
0.0
 40
1.399999999999999
  1
7
100
AcDbText
  0
TEXT
  5
C066
330
C035
100
AcDbEntity
  8
6
  6
Continuous
100
AcDbText
 10
31.725253
 20
10.04873699999998
 30
0.0
 40
1.399999999999999
  1
6
100
AcDbText
  0
TEXT
  5
C067
330
C035
100
AcDbEntity
  8
4
  6
CENTER
100
AcDbText
 10
27.72525299999999
 20
10.04873699999998
 30
0.0
 40
1.399999999999999
  1
4
100
AcDbText
  0
TEXT
  5
C068
330
C035
100
AcDbEntity
  8
5
  6
PHANTOM
100
AcDbText
 10
29.725253
 20
10.04873699999998
 30
0.0
 40
1.399999999999999
  1
5
100
AcDbText
  0
TEXT
  5
C069
330
C035
100
AcDbEntity
  8
3
  6
DASHED
100
AcDbText
 10
25.725253
 20
10.04873699999998
 30
0.0
 40
1.399999999999999
  1
3
100
AcDbText
  0
TEXT
  5
C06A
330
C035
100
AcDbEntity
  8
1
  6
Continuous
100
AcDbText
 10
21.72525299999999
 20
10.04873699999998
 30
0.0
 40
1.399999999999999
  1
1
100
AcDbText
  0
TEXT
  5
C06B
330
C035
100
AcDbEntity
  8
2
  6
Continuous
100
AcDbText
 10
23.72525299999999
 20
10.04873699999998
 30
0.0
 40
1.399999999999999
  1
2
100
AcDbText
  0
LINE
  5
C06C
330
C035
100
AcDbEntity
  8
1
  6
Continuous
100
AcDbLine
 10
33.745742
 20
162.162961
 30
0.0
 11
55.745742
 21
162.162961
 31
0.0
  0
LINE
  5
C06D
330
C035
100
AcDbEntity
  8
1
  6
Continuous
100
AcDbLine
 10
55.745742
 20
159.162961
 30
0.0
 11
33.745742
 21
159.162961
 31
0.0
  0
ARC
  5
C06E
330
C035
100
AcDbEntity
  8
1
  6
Continuous
100
AcDbCircle
 10
33.745742
 20
164.162961
 30
0.0
 40
2.0
100
AcDbArc
 50
180.0
 51
270.0
  0
ARC
  5
C06F
330
C035
100
AcDbEntity
  8
1
  6
Continuous
100
AcDbCircle
 10
33.745742
 20
164.162961
 30
0.0
 40
5.0
100
AcDbArc
 50
180.0
 51
270.0
  0
LINE
  5
C070
330
C035
100
AcDbEntity
  8
1
  6
Continuous
100
AcDbLine
 10
52.145742
 20
175.162961
 30
0.0
 11
37.345742
 21
175.162961
 31
0.0
  0
LINE
  5
C071
330
C035
100
AcDbEntity
  8
1
  6
Continuous
100
AcDbLine
 10
52.145742
 20
174.162961
 30
0.0
 11
37.345742
 21
174.162961
 31
0.0
  0
LINE
  5
C072
330
C035
100
AcDbEntity
  8
4
  6
CENTER
100
AcDbLine
 10
48.776855
 20
166.162961
 30
0.0
 11
41.309417
 21
166.162961
 31
0.0
  0
ARC
  5
C073
330
C035
100
AcDbEntity
  8
1
  6
Continuous
100
AcDbCircle
 10
55.745742
 20
164.162961
 30
0.0
 40
2.0
100
AcDbArc
 50
270.0
 51
0.0
  0
ARC
  5
C074
330
C035
100
AcDbEntity
  8
1
  6
Continuous
100
AcDbCircle
 10
55.745742
 20
164.162961
 30
0.0
 40
5.0
100
AcDbArc
 50
270.0
 51
0.0
  0
LINE
  5
C075
330
C035
100
AcDbEntity
  8
4
  6
CENTER
100
AcDbLine
 10
24.134313
 20
275.662961
 30
0.0
 11
150.3339879999998
 21
275.662961
 31
0.0
  0
LINE
  5
C076
330
C035
100
AcDbEntity
  8
5
  6
PHANTOM
100
AcDbLine
 10
44.745742
 20
285.062961
 30
0.0
 11
143.2457419999998
 21
285.062961
 31
0.0
  0
LINE
  5
C077
330
C035
100
AcDbEntity
  8
5
  6
PHANTOM
100
AcDbLine
 10
44.745742
 20
266.2629609999999
 30
0.0
 11
143.2457419999998
 21
266.2629609999999
 31
0.0
  0
LINE
  5
C078
330
C035
100
AcDbEntity
  8
1
  6
Continuous
100
AcDbLine
 10
54.145742
 20
275.662961
 30
0.0
 11
54.145742
 21
177.162961
 31
0.0
  0
LINE
  5
C079
330
C035
100
AcDbEntity
  8
1
  6
Continuous
100
AcDbLine
 10
35.345742
 20
275.662961
 30
0.0
 11
35.345742
 21
177.162961
 31
0.0
  0
LINE
  5
C07A
330
C035
100
AcDbEntity
  8
1
  6
Continuous
100
AcDbLine
 10
54.64574200000001
 20
275.712961
 30
0.0
 11
54.64574200000001
 21
176.662961
 31
0.0
  0
LINE
  5
C07B
330
C035
100
AcDbEntity
  8
1
  6
Continuous
100
AcDbLine
 10
34.845742
 20
275.712961
 30
0.0
 11
34.845742
 21
176.662961
 31
0.0
  0
ARC
  5
C07C
330
C035
100
AcDbEntity
  8
1
  6
Continuous
100
AcDbCircle
 10
37.345742
 20
195.162961
 30
0.0
 40
2.5
100
AcDbArc
 50
143.130102
 51
180.0
  0
ARC
  5
C07D
330
C035
100
AcDbEntity
  8
1
  6
Continuous
100
AcDbCircle
 10
52.145742
 20
195.162961
 30
0.0
 40
2.5
100
AcDbArc
 50
0.0
 51
36.869898
  0
LINE
  5
C07E
330
C035
100
AcDbEntity
  8
1
  6
Continuous
100
AcDbLine
 10
55.745742
 20
298.162961
 30
0.0
 11
33.745742
 21
298.162961
 31
0.0
  0
LINE
  5
C07F
330
C035
100
AcDbEntity
  8
1
  6
Continuous
100
AcDbLine
 10
55.745742
 20
301.1629609999999
 30
0.0
 11
33.745742
 21
301.1629609999999
 31
0.0
  0
ARC
  5
C080
330
C035
100
AcDbEntity
  8
1
  6
Continuous
100
AcDbCircle
 10
40.44491899999999
 20
272.0654579999999
 30
0.0
 40
5.099553
100
AcDbArc
 50
149.273212
 51
179.3037379999999
  0
ARC
  5
C081
330
C035
100
AcDbEntity
  8
1
  6
Continuous
100
AcDbCircle
 10
44.745742
 20
275.662961
 30
0.0
 40
9.4
100
AcDbArc
 50
102.865072
 51
167.134928
  0
ARC
  5
C082
330
C035
100
AcDbEntity
  8
1
  6
Continuous
100
AcDbCircle
 10
44.745742
 20
275.712961
 30
0.0
 40
9.9
100
AcDbArc
 50
0.0
 51
180.0
  0
ARC
  5
C083
330
C035
100
AcDbEntity
  8
1
  6
Continuous
100
AcDbCircle
 10
44.745742
 20
275.662961
 30
0.0
 40
9.4
100
AcDbArc
 50
102.865072
 51
180.0
  0
ARC
  5
C084
330
C035
100
AcDbEntity
  8
1
  6
Continuous
100
AcDbCircle
 10
33.745742
 20
296.162961
 30
0.0
 40
2.0
100
AcDbArc
 50
90.0
 51
180.0
  0
ARC
  5
C085
330
C035
100
AcDbEntity
  8
1
  6
Continuous
100
AcDbCircle
 10
33.745742
 20
296.162961
 30
0.0
 40
5.0
100
AcDbArc
 50
90.0
 51
180.0
  0
ARC
  5
C086
330
C035
100
AcDbEntity
  8
1
  6
Continuous
100
AcDbCircle
 10
44.745742
 20
275.662961
 30
0.0
 40
9.4
100
AcDbArc
 50
0.0
 51
77.134928
  0
ARC
  5
C087
330
C035
100
AcDbEntity
  8
1
  6
Continuous
100
AcDbCircle
 10
47.58192
 20
271.1856529999999
 30
0.0
 40
6.808118999999998
100
AcDbArc
 50
30.79360100000001
 51
55.96370600000001
  0
LINE
  5
C088
330
C035
100
AcDbEntity
  8
1
  6
Continuous
100
AcDbLine
 10
46.83870699999999
 20
284.826994
 30
0.0
 11
42.652777
 21
284.826994
 31
0.0
  0
ARC
  5
C089
330
C035
100
AcDbEntity
  8
1
  6
Continuous
100
AcDbCircle
 10
44.78887799999998
 20
266.040296
 30
0.0
 40
12.734008
100
AcDbArc
 50
73.79338
 51
90.194089
  0
ARC
  5
C08A
330
C035
100
AcDbEntity
  8
1
  6
Continuous
100
AcDbCircle
 10
42.265706
 20
270.8491179999999
 30
0.0
 40
7.287119999999998
100
AcDbArc
 50
124.875766
 51
148.366927
  0
ARC
  5
C08B
330
C035
100
AcDbEntity
  8
1
  6
Continuous
100
AcDbCircle
 10
44.08648
 20
268.102345
 30
0.0
 40
10.58195199999999
100
AcDbArc
 50
106.1193379999999
 51
124.459656
  0
ARC
  5
C08C
330
C035
100
AcDbEntity
  8
1
  6
Continuous
100
AcDbCircle
 10
44.73700499999998
 20
265.7957249999999
 30
0.0
 40
12.97850799999999
100
AcDbArc
 50
89.96143000000001
 51
106.051101
  0
ARC
  5
C08D
330
C035
100
AcDbEntity
  8
1
  6
Continuous
100
AcDbCircle
 10
45.64193099999999
 20
268.6038049999999
 30
0.0
 40
10.03481599999999
100
AcDbArc
 50
55.035673
 51
74.38533300000002
  0
ARC
  5
C08E
330
C035
100
AcDbEntity
  8
1
  6
Continuous
100
AcDbCircle
 10
49.221754
 20
272.1147399999999
 30
0.0
 40
4.924004
100
AcDbArc
 50
0.147628
 51
31.27542099999999
  0
LINE
  5
C08F
330
C035
100
AcDbEntity
  8
4
  6
CENTER
100
AcDbLine
 10
48.776855
 20
294.162961
 30
0.0
 11
41.309417
 21
294.162961
 31
0.0
  0
ARC
  5
C090
330
C035
100
AcDbEntity
  8
1
  6
Continuous
100
AcDbCircle
 10
55.745742
 20
296.162961
 30
0.0
 40
2.0
100
AcDbArc
 50
0.0
 51
90.0
  0
ARC
  5
C091
330
C035
100
AcDbEntity
  8
1
  6
Continuous
100
AcDbCircle
 10
55.745742
 20
296.162961
 30
0.0
 40
5.0
100
AcDbArc
 50
0.0
 51
90.0
  0
LINE
  5
C092
330
C035
100
AcDbEntity
  8
5
  6
PHANTOM
100
AcDbLine
 10
193.248581
 20
207.427157
 30
0.0
 11
196.0770079999998
 21
204.5987299999999
 31
0.0
  0
ARC
  5
C093
330
C035
100
AcDbEntity
  8
5
  6
PHANTOM
100
AcDbCircle
 10
193.9556879999999
 20
208.1342639999999
 30
0.0
 40
1.0
100
AcDbArc
 50
135.0
 51
225.0
  0
ARC
  5
C094
330
C035
100
AcDbEntity
  8
5
  6
PHANTOM
100
AcDbCircle
 10
220.118639
 20
218.740865
 30
0.0
 40
6.0
100
AcDbArc
 50
135.0
 51
225.0
  0
LINE
  5
C095
330
C035
100
AcDbEntity
  8
5
  6
PHANTOM
100
AcDbLine
 10
217.714476
 20
209.83132
 30
0.0
 11
207.319822
 21
199.436666
 31
0.0
  0
ARC
  5
C096
330
C035
100
AcDbEntity
  8
5
  6
PHANTOM
100
AcDbCircle
 10
204.4913949999999
 20
202.265093
 30
0.0
 40
4.0
100
AcDbArc
 50
229.5170919999999
 51
315.0
  0
ARC
  5
C097
330
C035
100
AcDbEntity
  8
5
  6
PHANTOM
100
AcDbCircle
 10
267.1412399999999
 20
275.662961
 30
0.0
 40
100.5
100
AcDbArc
 50
225.0
 51
229.5170919999999
  0
ARC
  5
C098
330
C035
100
AcDbEntity
  8
5
  6
PHANTOM
100
AcDbCircle
 10
216.3002619999998
 20
211.2455329999999
 30
0.0
 40
2.0
100
AcDbArc
 50
315.0
 51
45.0
  0
LINE
  5
C099
330
C035
100
AcDbEntity
  8
5
  6
PHANTOM
100
AcDbLine
 10
217.714476
 20
212.659747
 30
0.0
 11
215.875998
 21
214.4982249999999
 31
0.0
  0
ARC
  5
C09A
330
C035
100
AcDbEntity
  8
5
  6
PHANTOM
100
AcDbCircle
 10
143.2457419999998
 20
283.0629609999999
 30
0.0
 40
2.0
100
AcDbArc
 50
0.0
 51
90.0
  0
ARC
  5
C09B
330
C035
100
AcDbEntity
  8
5
  6
PHANTOM
100
AcDbCircle
 10
143.2457419999998
 20
268.2629609999998
 30
0.0
 40
2.0
100
AcDbArc
 50
270.0
 51
0.0
  0
LINE
  5
C09C
330
C035
100
AcDbEntity
  8
5
  6
PHANTOM
100
AcDbLine
 10
145.2457419999998
 20
283.0629609999999
 30
0.0
 11
145.2457419999998
 21
268.2629609999998
 31
0.0
  0
ARC
  5
C09D
330
C035
100
AcDbEntity
  8
1
  6
Continuous
100
AcDbCircle
 10
258.3731159999999
 20
278.774231
 30
0.0
 40
1.0
100
AcDbArc
 50
135.0
 51
225.0
  0
ARC
  5
C09E
330
C035
100
AcDbEntity
  8
1
  6
Continuous
100
AcDbCircle
 10
277.74124
 20
176.8169499999999
 30
0.0
 40
3.0
100
AcDbArc
 50
318.5903779999998
 51
0.0
  0
ARC
  5
C09F
330
C035
100
AcDbEntity
  8
1
  6
Continuous
100
AcDbCircle
 10
263.1412399999999
 20
176.162961
 30
0.0
 40
1.0
100
AcDbArc
 50
180.0
 51
270.0
  0
LINE
  5
C0A0
330
C035
100
AcDbEntity
  8
1
  6
Continuous
100
AcDbLine
 10
266.1412399999999
 20
301.1629609999999
 30
0.0
 11
266.1412399999999
 21
159.162961
 31
0.0
  0
LINE
  5
C0A1
330
C035
100
AcDbEntity
  8
1
  6
Continuous
100
AcDbLine
 10
269.1412399999999
 20
287.1629609999999
 30
0.0
 11
269.1412399999999
 21
173.1677919999999
 31
0.0
  0
LINE
  5
C0A2
330
C035
100
AcDbEntity
  8
1
  6
Continuous
100
AcDbLine
 10
264.6412399999999
 20
301.1629609999999
 30
0.0
 11
264.6412399999999
 21
159.162961
 31
0.0
  0
LINE
  5
C0A3
330
C035
100
AcDbEntity
  8
1
  6
Continuous
100
AcDbLine
 10
267.1412399999999
 20
301.1629609999999
 30
0.0
 11
267.1412399999999
 21
159.162961
 31
0.0
  0
LINE
  5
C0A4
330
C035
100
AcDbEntity
  8
1
  6
Continuous
100
AcDbLine
 10
263.1412399999999
 20
298.162961
 30
0.0
 11
263.1412399999999
 21
162.162961
 31
0.0
  0
LINE
  5
C0A5
330
C035
100
AcDbEntity
  8
1
  6
Continuous
100
AcDbLine
 10
460.475433
 20
285.662961
 30
0.0
 11
460.475433
 21
174.662961
 31
0.0
  0
LINE
  5
C0A6
330
C035
100
AcDbEntity
  8
1
  6
Continuous
100
AcDbLine
 10
435.075433
 20
285.662961
 30
0.0
 11
435.075433
 21
174.662961
 31
0.0
  0
LINE
  5
C0A7
330
C035
100
AcDbEntity
  8
1
  6
Continuous
100
AcDbLine
 10
459.2754329999998
 20
276.6629609999998
 30
0.0
 11
459.2754329999998
 21
174.662961
 31
0.0
  0
LINE
  5
C0A8
330
C035
100
AcDbEntity
  8
1
  6
Continuous
100
AcDbLine
 10
436.275433
 20
276.6629609999998
 30
0.0
 11
436.275433
 21
174.662961
 31
0.0
  0
LINE
  5
C0A9
330
C035
100
AcDbEntity
  8
1
  6
Continuous
100
AcDbLine
 10
463.7754329999999
 20
296.162961
 30
0.0
 11
463.7754329999999
 21
164.162961
 31
0.0
  0
LINE
  5
C0AA
330
C035
100
AcDbEntity
  8
1
  6
Continuous
100
AcDbLine
 10
431.775433
 20
296.162961
 30
0.0
 11
431.775433
 21
164.162961
 31
0.0
  0
LINE
  5
C0AB
330
C035
100
AcDbEntity
  8
4
  6
CENTER
100
AcDbLine
 10
447.775433
 20
305.514161
 30
0.0
 11
447.775433
 21
154.9073459999999
 31
0.0
  0
LINE
  5
C0AC
330
C035
100
AcDbEntity
  8
1
  6
Continuous
100
AcDbLine
 10
263.1411989999999
 20
44.00000099999998
 30
0.0
 11
263.1411989999999
 21
70.000001
 31
0.0
  0
LINE
  5
C0AD
330
C035
100
AcDbEntity
  8
1
  6
Continuous
100
AcDbLine
 10
267.1411989999999
 20
41.00000099999999
 30
0.0
 11
267.1411989999999
 21
73.00000099999998
 31
0.0
  0
LINE
  5
C0AE
330
C035
100
AcDbEntity
  8
1
  6
Continuous
100
AcDbLine
 10
264.6411989999999
 20
41.00000099999999
 30
0.0
 11
264.6411989999999
 21
73.00000099999998
 31
0.0
  0
LINE
  5
C0AF
330
C035
100
AcDbEntity
  8
1
  6
Continuous
100
AcDbLine
 10
266.1411989999999
 20
41.00000099999999
 30
0.0
 11
266.1411989999999
 21
73.00000099999998
 31
0.0
  0
LINE
  5
C0B0
330
C035
100
AcDbEntity
  8
1
  6
Continuous
100
AcDbLine
 10
266.1411989999999
 20
41.00000099999999
 30
0.0
 11
264.6411989999999
 21
41.00000099999999
 31
0.0
  0
LINE
  5
C0B1
330
C035
100
AcDbEntity
  8
1
  6
Continuous
100
AcDbLine
 10
267.1411989999999
 20
41.00000099999999
 30
0.0
 11
266.1411989999999
 21
41.00000099999999
 31
0.0
  0
LINE
  5
C0B2
330
C035
100
AcDbEntity
  8
1
  6
Continuous
100
AcDbLine
 10
264.6411989999999
 20
41.00000099999999
 30
0.0
 11
263.1411989999999
 21
44.00000099999998
 31
0.0
  0
ARC
  5
C0B3
330
C035
100
AcDbEntity
  8
1
  6
Continuous
100
AcDbCircle
 10
278.2411989999999
 20
66.00000099999999
 30
0.0
 40
2.5
100
AcDbArc
 50
0.0
 51
90.0
  0
LINE
  5
C0B4
330
C035
100
AcDbEntity
  8
1
  6
Continuous
100
AcDbLine
 10
283.741199
 20
45.75000099999999
 30
0.0
 11
283.741199
 21
66.742001
 31
0.0
  0
LINE
  5
C0B5
330
C035
100
AcDbEntity
  8
1
  6
Continuous
100
AcDbLine
 10
269.1411989999999
 20
60.500001
 30
0.0
 11
269.1411989999999
 21
68.700001
 31
0.0
  0
LINE
  5
C0B6
330
C035
100
AcDbEntity
  8
1
  6
Continuous
100
AcDbLine
 10
283.341199
 20
46.50000099999998
 30
0.0
 11
283.341199
 21
67.500001
 31
0.0
  0
LINE
  5
C0B7
330
C035
100
AcDbEntity
  8
1
  6
Continuous
100
AcDbLine
 10
285.841199
 20
45.75000099999999
 30
0.0
 11
285.841199
 21
66.742001
 31
0.0
  0
LINE
  5
C0B8
330
C035
100
AcDbEntity
  8
1
  6
Continuous
100
AcDbLine
 10
282.341199
 20
45.500001
 30
0.0
 11
269.1411989999999
 21
45.500001
 31
0.0
  0
LINE
  5
C0B9
330
C035
100
AcDbEntity
  8
1
  6
Continuous
100
AcDbLine
 10
262.1411989999999
 20
48.179034
 30
0.0
 11
262.1411989999999
 21
65.82096700000001
 31
0.0
  0
ARC
  5
C0BA
330
C035
100
AcDbEntity
  8
1
  6
Continuous
100
AcDbCircle
 10
268.1411989999999
 20
45.300001
 30
0.0
 40
1.0
100
AcDbArc
 50
270.0
 51
0.0
  0
LINE
  5
C0BB
330
C035
100
AcDbEntity
  8
1
  6
Continuous
100
AcDbLine
 10
268.1411989999999
 20
44.30000099999999
 30
0.0
 11
267.1411989999999
 21
44.30000099999999
 31
0.0
  0
LINE
  5
C0BC
330
C035
100
AcDbEntity
  8
1
  6
Continuous
100
AcDbLine
 10
271.1411989999999
 20
60.000001
 30
0.0
 11
271.1411989999999
 21
54.00000099999999
 31
0.0
  0
LINE
  5
C0BD
330
C035
100
AcDbEntity
  8
1
  6
Continuous
100
AcDbLine
 10
270.6411989999999
 20
53.50000099999999
 30
0.0
 11
267.1411989999999
 21
53.50000099999999
 31
0.0
  0
LINE
  5
C0BE
330
C035
100
AcDbEntity
  8
1
  6
Continuous
100
AcDbLine
 10
270.6411989999999
 20
53.50000099999999
 30
0.0
 11
271.1411989999999
 21
54.00000099999999
 31
0.0
  0
LINE
  5
C0BF
330
C035
100
AcDbEntity
  8
1
  6
Continuous
100
AcDbLine
 10
270.6411989999999
 20
60.500001
 30
0.0
 11
267.1411989999999
 21
60.500001
 31
0.0
  0
LINE
  5
C0C0
330
C035
100
AcDbEntity
  8
1
  6
Continuous
100
AcDbLine
 10
270.6411989999999
 20
53.50000099999999
 30
0.0
 11
270.6411989999999
 21
60.500001
 31
0.0
  0
LINE
  5
C0C1
330
C035
100
AcDbEntity
  8
1
  6
Continuous
100
AcDbLine
 10
271.1411989999999
 20
60.000001
 30
0.0
 11
270.6411989999999
 21
60.500001
 31
0.0
  0
LINE
  5
C0C2
330
C035
100
AcDbEntity
  8
1
  6
Continuous
100
AcDbLine
 10
269.1411989999999
 20
45.300001
 30
0.0
 11
269.1411989999999
 21
53.50000099999999
 31
0.0
  0
ARC
  5
C0C3
330
C035
100
AcDbEntity
  8
1
  6
Continuous
100
AcDbCircle
 10
282.341199
 20
46.50000099999998
 30
0.0
 40
1.0
100
AcDbArc
 50
270.0
 51
0.0
  0
ARC
  5
C0C4
330
C035
100
AcDbEntity
  8
1
  6
Continuous
100
AcDbCircle
 10
278.2411989999999
 20
48.000001
 30
0.0
 40
2.5
100
AcDbArc
 50
270.0
 51
0.0
  0
LINE
  5
C0C5
330
C035
100
AcDbEntity
  8
1
  6
Continuous
100
AcDbLine
 10
280.7411989999998
 20
48.000001
 30
0.0
 11
280.7411989999998
 21
66.00000099999999
 31
0.0
  0
LINE
  5
C0C6
330
C035
100
AcDbEntity
  8
1
  6
Continuous
100
AcDbLine
 10
283.741199
 20
47.669851
 30
0.0
 11
283.341199
 21
47.669851
 31
0.0
  0
LINE
  5
C0C7
330
C035
100
AcDbEntity
  8
1
  6
Continuous
100
AcDbLine
 10
287.841199
 20
52.000001
 30
0.0
 11
285.841199
 21
52.000001
 31
0.0
  0
LINE
  5
C0C8
330
C035
100
AcDbEntity
  8
1
  6
Continuous
100
AcDbLine
 10
285.841199
 20
45.75000099999999
 30
0.0
 11
283.741199
 21
45.75000099999999
 31
0.0
  0
LINE
  5
C0C9
330
C035
100
AcDbEntity
  8
1
  6
Continuous
100
AcDbLine
 10
287.841199
 20
56.343147
 30
0.0
 11
285.841199
 21
56.343147
 31
0.0
  0
LINE
  5
C0CA
330
C035
100
AcDbEntity
  8
1
  6
Continuous
100
AcDbLine
 10
287.841199
 20
57.656855
 30
0.0
 11
285.841199
 21
57.656855
 31
0.0
  0
LINE
  5
C0CB
330
C035
100
AcDbEntity
  8
1
  6
Continuous
100
AcDbLine
 10
287.841199
 20
62.000001
 30
0.0
 11
285.841199
 21
62.000001
 31
0.0
  0
LINE
  5
C0CC
330
C035
100
AcDbEntity
  8
1
  6
Continuous
100
AcDbLine
 10
287.841199
 20
52.000001
 30
0.0
 11
287.841199
 21
62.000001
 31
0.0
  0
LINE
  5
C0CD
330
C035
100
AcDbEntity
  8
1
  6
Continuous
100
AcDbLine
 10
282.341199
 20
68.50000099999999
 30
0.0
 11
269.1411989999999
 21
68.50000099999999
 31
0.0
  0
ARC
  5
C0CE
330
C035
100
AcDbEntity
  8
1
  6
Continuous
100
AcDbCircle
 10
268.1411989999999
 20
68.700001
 30
0.0
 40
1.0
100
AcDbArc
 50
0.0
 51
90.0
  0
LINE
  5
C0CF
330
C035
100
AcDbEntity
  8
1
  6
Continuous
100
AcDbLine
 10
268.1411989999999
 20
69.700001
 30
0.0
 11
267.1411989999999
 21
69.700001
 31
0.0
  0
LINE
  5
C0D0
330
C035
100
AcDbEntity
  8
1
  6
Continuous
100
AcDbLine
 10
267.1411989999999
 20
73.00000099999998
 30
0.0
 11
266.1411989999999
 21
73.00000099999998
 31
0.0
  0
LINE
  5
C0D1
330
C035
100
AcDbEntity
  8
1
  6
Continuous
100
AcDbLine
 10
266.1411989999999
 20
73.00000099999998
 30
0.0
 11
264.6411989999999
 21
73.00000099999998
 31
0.0
  0
LINE
  5
C0D2
330
C035
100
AcDbEntity
  8
1
  6
Continuous
100
AcDbLine
 10
264.6411989999999
 20
73.00000099999998
 30
0.0
 11
263.1411989999999
 21
70.000001
 31
0.0
  0
ARC
  5
C0D3
330
C035
100
AcDbEntity
  8
1
  6
Continuous
100
AcDbCircle
 10
282.341199
 20
67.500001
 30
0.0
 40
1.0
100
AcDbArc
 50
0.0
 51
90.0
  0
LINE
  5
C0D4
330
C035
100
AcDbEntity
  8
1
  6
Continuous
100
AcDbLine
 10
283.741199
 20
66.330151
 30
0.0
 11
283.341199
 21
66.330151
 31
0.0
  0
LINE
  5
C0D5
330
C035
100
AcDbEntity
  8
1
  6
Continuous
100
AcDbLine
 10
285.841199
 20
66.742001
 30
0.0
 11
283.741199
 21
66.742001
 31
0.0
  0
LINE
  5
C0D6
330
C035
100
AcDbEntity
  8
1
  6
Continuous
100
AcDbLine
 10
331.447402
 20
51.00000099999999
 30
0.0
 11
330.647402
 21
51.00000099999999
 31
0.0
  0
LINE
  5
C0D7
330
C035
100
AcDbEntity
  8
1
  6
Continuous
100
AcDbLine
 10
331.447402
 20
63.000001
 30
0.0
 11
330.647402
 21
63.000001
 31
0.0
  0
LINE
  5
C0D8
330
C035
100
AcDbEntity
  8
1
  6
Continuous
100
AcDbLine
 10
332.747402
 20
52.500001
 30
0.0
 11
334.2089009999999
 21
52.627865
 31
0.0
  0
LINE
  5
C0D9
330
C035
100
AcDbEntity
  8
1
  6
Continuous
100
AcDbLine
 10
332.747402
 20
52.400001
 30
0.0
 11
331.447402
 21
52.400001
 31
0.0
  0
ARC
  5
C0DA
330
C035
100
AcDbEntity
  8
1
  6
Continuous
100
AcDbCircle
 10
324.0474019999999
 20
57.000001
 30
0.0
 40
12.0
100
AcDbArc
 50
344.506032
 51
15.493968
  0
LINE
  5
C0DB
330
C035
100
AcDbEntity
  8
1
  6
Continuous
100
AcDbLine
 10
331.447402
 20
57.000001
 30
0.0
 11
332.747402
 21
58.300001
 31
0.0
  0
LINE
  5
C0DC
330
C035
100
AcDbEntity
  8
1
  6
Continuous
100
AcDbLine
 10
332.747402
 20
57.000001
 30
0.0
 11
331.447402
 21
55.700001
 31
0.0
  0
ARC
  5
C0DD
330
C035
100
AcDbEntity
  8
1
  6
Continuous
100
AcDbCircle
 10
334.0694509999999
 20
54.221777
 30
0.0
 40
1.6
100
AcDbArc
 50
275.0
 51
344.506032
  0
LINE
  5
C0DE
330
C035
100
AcDbEntity
  8
1
  6
Continuous
100
AcDbLine
 10
332.747402
 20
61.50000099999999
 30
0.0
 11
334.2089009999999
 21
61.37213599999999
 31
0.0
  0
LINE
  5
C0DF
330
C035
100
AcDbEntity
  8
1
  6
Continuous
100
AcDbLine
 10
332.747402
 20
61.600001
 30
0.0
 11
331.447402
 21
61.600001
 31
0.0
  0
ARC
  5
C0E0
330
C035
100
AcDbEntity
  8
1
  6
Continuous
100
AcDbCircle
 10
334.0694509999999
 20
59.778225
 30
0.0
 40
1.6
100
AcDbArc
 50
15.493968
 51
85.0
  0
LINE
  5
C0E1
330
C035
100
AcDbEntity
  8
1
  6
Continuous
100
AcDbLine
 10
332.747402
 20
52.400001
 30
0.0
 11
332.747402
 21
61.600001
 31
0.0
  0
LINE
  5
C0E2
330
C035
100
AcDbEntity
  8
4
  6
CENTER
100
AcDbLine
 10
337.747402
 20
57.000001
 30
0.0
 11
327.77259
 21
57.000001
 31
0.0
  0
LINE
  5
C0E3
330
C035
100
AcDbEntity
  8
1
  6
Continuous
100
AcDbLine
 10
331.447402
 20
51.00000099999999
 30
0.0
 11
331.447402
 21
63.000001
 31
0.0
  0
LINE
  5
C0E4
330
C035
100
AcDbEntity
  8
1
  6
Continuous
100
AcDbLine
 10
330.647402
 20
51.00000099999999
 30
0.0
 11
330.647402
 21
63.000001
 31
0.0
  0
ARC
  5
C0E5
330
C035
100
AcDbEntity
  8
1
  6
Continuous
100
AcDbCircle
 10
369.968025
 20
54.904324
 30
0.0
 40
1.3
100
AcDbArc
 50
275.0
 51
344.1191499999998
  0
ARC
  5
C0E6
330
C035
100
AcDbEntity
  8
1
  6
Continuous
100
AcDbCircle
 10
369.968025
 20
59.11834599999998
 30
0.0
 40
1.3
100
AcDbArc
 50
15.88085
 51
85.0
  0
LINE
  5
C0E7
330
C035
100
AcDbEntity
  8
4
  6
CENTER
100
AcDbLine
 10
374.1025669999999
 20
57.011335
 30
0.0
 11
360.1478
 21
57.011335
 31
0.0
  0
LINE
  5
C0E8
330
C035
100
AcDbEntity
  8
1
  6
Continuous
100
AcDbLine
 10
368.961913
 20
53.51133499999999
 30
0.0
 11
370.0813279999999
 21
53.609271
 31
0.0
  0
LINE
  5
C0E9
330
C035
100
AcDbEntity
  8
1
  6
Continuous
100
AcDbLine
 10
368.961913
 20
60.51133499999998
 30
0.0
 11
370.0813279999999
 21
60.413399
 31
0.0
  0
LINE
  5
C0EA
330
C035
100
AcDbEntity
  8
1
  6
Continuous
100
AcDbLine
 10
368.961913
 20
53.211335
 30
0.0
 11
368.961913
 21
60.81133499999999
 31
0.0
  0
LINE
  5
C0EB
330
C035
100
AcDbEntity
  8
1
  6
Continuous
100
AcDbLine
 10
367.9619129999999
 20
50.01133499999999
 30
0.0
 11
362.961913
 21
50.01133499999999
 31
0.0
  0
LINE
  5
C0EC
330
C035
100
AcDbEntity
  8
1
  6
Continuous
100
AcDbLine
 10
367.9619129999999
 20
64.011335
 30
0.0
 11
362.961913
 21
64.011335
 31
0.0
  0
LINE
  5
C0ED
330
C035
100
AcDbEntity
  8
1
  6
Continuous
100
AcDbLine
 10
367.9619129999999
 20
50.01133499999999
 30
0.0
 11
367.9619129999999
 21
64.011335
 31
0.0
  0
LINE
  5
C0EE
330
C035
100
AcDbEntity
  8
1
  6
Continuous
100
AcDbLine
 10
362.961913
 20
50.01133499999999
 30
0.0
 11
362.961913
 21
64.011335
 31
0.0
  0
LINE
  5
C0EF
330
C035
100
AcDbEntity
  8
1
  6
Continuous
100
AcDbLine
 10
368.961913
 20
60.81133499999999
 30
0.0
 11
367.9619129999999
 21
60.81133499999999
 31
0.0
  0
LINE
  5
C0F0
330
C035
100
AcDbEntity
  8
1
  6
Continuous
100
AcDbLine
 10
368.961913
 20
57.011335
 30
0.0
 11
367.9619129999999
 21
56.01133499999999
 31
0.0
  0
LINE
  5
C0F1
330
C035
100
AcDbEntity
  8
1
  6
Continuous
100
AcDbLine
 10
367.9619129999999
 20
57.011335
 30
0.0
 11
368.961913
 21
58.01133499999998
 31
0.0
  0
LINE
  5
C0F2
330
C035
100
AcDbEntity
  8
1
  6
Continuous
100
AcDbLine
 10
368.961913
 20
53.211335
 30
0.0
 11
367.9619129999999
 21
53.211335
 31
0.0
  0
ARC
  5
C0F3
330
C035
100
AcDbEntity
  8
1
  6
Continuous
100
AcDbCircle
 10
362.561913
 20
57.011335
 30
0.0
 40
9.0
100
AcDbArc
 50
344.1191499999998
 51
15.88085
  0
ARC
  5
C0F4
330
C035
100
AcDbEntity
  8
1
  6
Continuous
100
AcDbCircle
 10
267.1412399999999
 20
275.662961
 30
0.0
 40
103.4999999999999
100
AcDbArc
 50
270.0
 51
274.517092
  0
LINE
  5
C0F5
330
C035
100
AcDbEntity
  8
1
  6
Continuous
100
AcDbLine
 10
270.64124
 20
169.662961
 30
0.0
 11
271.1412399999999
 21
169.162961
 31
0.0
  0
ARC
  5
C0F6
330
C035
100
AcDbEntity
  8
1
  6
Continuous
100
AcDbCircle
 10
268.1412399999999
 20
173.1677919999999
 30
0.0
 40
1.0
100
AcDbArc
 50
270.553591
 51
0.0
  0
LINE
  5
C0F7
330
C035
100
AcDbEntity
  8
1
  6
Continuous
100
AcDbLine
 10
270.64124
 20
169.662961
 30
0.0
 11
267.1412399999999
 21
169.662961
 31
0.0
  0
LINE
  5
C0F8
330
C035
100
AcDbEntity
  8
4
  6
CENTER
100
AcDbLine
 10
273.1854799999999
 20
166.162961
 30
0.0
 11
261.988293
 21
166.162961
 31
0.0
  0
LINE
  5
C0F9
330
C035
100
AcDbEntity
  8
1
  6
Continuous
100
AcDbLine
 10
271.1412399999999
 20
163.162961
 30
0.0
 11
270.64124
 21
162.662961
 31
0.0
  0
LINE
  5
C0FA
330
C035
100
AcDbEntity
  8
1
  6
Continuous
100
AcDbLine
 10
266.1412399999999
 20
159.162961
 30
0.0
 11
267.1412399999999
 21
159.162961
 31
0.0
  0
LINE
  5
C0FB
330
C035
100
AcDbEntity
  8
1
  6
Continuous
100
AcDbLine
 10
266.1412399999999
 20
159.162961
 30
0.0
 11
264.6412399999999
 21
159.162961
 31
0.0
  0
LINE
  5
C0FC
330
C035
100
AcDbEntity
  8
1
  6
Continuous
100
AcDbLine
 10
264.6412399999999
 20
159.162961
 30
0.0
 11
263.1412399999999
 21
162.162961
 31
0.0
  0
LINE
  5
C0FD
330
C035
100
AcDbEntity
  8
1
  6
Continuous
100
AcDbLine
 10
270.64124
 20
162.662961
 30
0.0
 11
267.1412399999999
 21
162.662961
 31
0.0
  0
LINE
  5
C0FE
330
C035
100
AcDbEntity
  8
1
  6
Continuous
100
AcDbLine
 10
270.64124
 20
169.662961
 30
0.0
 11
270.64124
 21
162.662961
 31
0.0
  0
LINE
  5
C0FF
330
C035
100
AcDbEntity
  8
1
  6
Continuous
100
AcDbLine
 10
271.1412399999999
 20
163.162961
 30
0.0
 11
271.1412399999999
 21
169.162961
 31
0.0
  0
ARC
  5
C100
330
C035
100
AcDbEntity
  8
1
  6
Continuous
100
AcDbCircle
 10
274.7412399999999
 20
179.462701
 30
0.0
 40
7.0
100
AcDbArc
 50
274.517092
 51
318.5903779999998
  0
ARC
  5
C101
330
C035
100
AcDbEntity
  8
1
  6
Continuous
100
AcDbCircle
 10
369.968025
 20
164.0559499999999
 30
0.0
 40
1.3
100
AcDbArc
 50
275.0
 51
344.1191499999998
  0
ARC
  5
C102
330
C035
100
AcDbEntity
  8
1
  6
Continuous
100
AcDbCircle
 10
369.968025
 20
168.269972
 30
0.0
 40
1.3
100
AcDbArc
 50
15.88085
 51
85.0
  0
LINE
  5
C103
330
C035
100
AcDbEntity
  8
4
  6
CENTER
100
AcDbLine
 10
374.1025669999999
 20
166.162961
 30
0.0
 11
360.1478
 21
166.162961
 31
0.0
  0
LINE
  5
C104
330
C035
100
AcDbEntity
  8
1
  6
Continuous
100
AcDbLine
 10
368.961913
 20
162.362961
 30
0.0
 11
368.961913
 21
169.962961
 31
0.0
  0
LINE
  5
C105
330
C035
100
AcDbEntity
  8
1
  6
Continuous
100
AcDbLine
 10
367.9619129999999
 20
170.662961
 30
0.0
 11
367.9619129999999
 21
160.662961
 31
0.0
  0
LINE
  5
C106
330
C035
100
AcDbEntity
  8
1
  6
Continuous
100
AcDbLine
 10
367.9619129999999
 20
162.362961
 30
0.0
 11
367.9619129999999
 21
169.962961
 31
0.0
  0
ARC
  5
C107
330
C035
100
AcDbEntity
  8
1
  6
Continuous
100
AcDbCircle
 10
367.4619129999999
 20
170.662961
 30
0.0
 40
0.5
100
AcDbArc
 50
0.0
 51
90.0
  0
LINE
  5
C108
330
C035
100
AcDbEntity
  8
1
  6
Continuous
100
AcDbLine
 10
368.961913
 20
169.962961
 30
0.0
 11
367.9619129999999
 21
169.962961
 31
0.0
  0
LINE
  5
C109
330
C035
100
AcDbEntity
  8
1
  6
Continuous
100
AcDbLine
 10
368.961913
 20
166.162961
 30
0.0
 11
367.9619129999999
 21
165.162961
 31
0.0
  0
LINE
  5
C10A
330
C035
100
AcDbEntity
  8
1
  6
Continuous
100
AcDbLine
 10
367.9619129999999
 20
166.162961
 30
0.0
 11
368.961913
 21
167.162961
 31
0.0
  0
ARC
  5
C10B
330
C035
100
AcDbEntity
  8
1
  6
Continuous
100
AcDbCircle
 10
367.4619129999999
 20
160.662961
 30
0.0
 40
0.5
100
AcDbArc
 50
270.0
 51
0.0
  0
LINE
  5
C10C
330
C035
100
AcDbEntity
  8
1
  6
Continuous
100
AcDbLine
 10
368.961913
 20
162.362961
 30
0.0
 11
367.9619129999999
 21
162.362961
 31
0.0
  0
LINE
  5
C10D
330
C035
100
AcDbEntity
  8
1
  6
Continuous
100
AcDbLine
 10
368.961913
 20
162.662961
 30
0.0
 11
370.0813279999999
 21
162.7608969999998
 31
0.0
  0
LINE
  5
C10E
330
C035
100
AcDbEntity
  8
1
  6
Continuous
100
AcDbLine
 10
368.961913
 20
169.662961
 30
0.0
 11
370.0813279999999
 21
169.5650249999999
 31
0.0
  0
LINE
  5
C10F
330
C035
100
AcDbEntity
  8
1
  6
Continuous
100
AcDbLine
 10
362.961913
 20
171.162961
 30
0.0
 11
362.961913
 21
160.162961
 31
0.0
  0
LINE
  5
C110
330
C035
100
AcDbEntity
  8
1
  6
Continuous
100
AcDbLine
 10
362.961913
 20
171.162961
 30
0.0
 11
367.4619129999999
 21
171.162961
 31
0.0
  0
LINE
  5
C111
330
C035
100
AcDbEntity
  8
1
  6
Continuous
100
AcDbLine
 10
362.961913
 20
160.162961
 30
0.0
 11
367.4619129999999
 21
160.162961
 31
0.0
  0
ARC
  5
C112
330
C035
100
AcDbEntity
  8
1
  6
Continuous
100
AcDbCircle
 10
362.561913
 20
166.162961
 30
0.0
 40
9.0
100
AcDbArc
 50
344.1191499999998
 51
15.88085
  0
ARC
  5
C113
330
C035
100
AcDbEntity
  8
1
  6
Continuous
100
AcDbCircle
 10
447.775433
 20
168.01459
 30
0.0
 40
7.851628999999997
100
AcDbArc
 50
229.3987049999998
 51
310.601295
  0
LINE
  5
C114
330
C035
100
AcDbEntity
  8
1
  6
Continuous
100
AcDbLine
 10
444.114829
 20
171.162961
 30
0.0
 11
451.609915
 21
171.162961
 31
0.0
  0
CIRCLE
  5
C115
330
C035
100
AcDbEntity
  8
1
  6
Continuous
100
AcDbCircle
 10
447.775433
 20
166.162961
 30
0.0
 40
3.799999999999998
  0
CIRCLE
  5
C116
330
C035
100
AcDbEntity
  8
1
  6
Continuous
100
AcDbCircle
 10
447.775433
 20
166.162961
 30
0.0
 40
3.5
  0
LINE
  5
C117
330
C035
100
AcDbEntity
  8
1
  6
Continuous
100
AcDbLine
 10
457.975433
 20
172.162961
 30
0.0
 11
437.5754329999998
 21
172.162961
 31
0.0
  0
LINE
  5
C118
330
C035
100
AcDbEntity
  8
1
  6
Continuous
100
AcDbLine
 10
458.775433
 20
159.162961
 30
0.0
 11
436.775433
 21
159.162961
 31
0.0
  0
LINE
  5
C119
330
C035
100
AcDbEntity
  8
4
  6
CENTER
100
AcDbLine
 10
438.686915
 20
166.162961
 30
0.0
 11
456.6841269999998
 21
166.162961
 31
0.0
  0
LINE
  5
C11A
330
C035
100
AcDbEntity
  8
1
  6
Continuous
100
AcDbLine
 10
457.975433
 20
175.8571499999999
 30
0.0
 11
437.5754329999998
 21
175.8571499999999
 31
0.0
  0
ARC
  5
C11B
330
C035
100
AcDbEntity
  8
1
  6
Continuous
100
AcDbCircle
 10
437.5754329999998
 20
174.662961
 30
0.0
 40
2.5
100
AcDbArc
 50
180.0
 51
270.0
  0
ARC
  5
C11C
330
C035
100
AcDbEntity
  8
1
  6
Continuous
100
AcDbCircle
 10
436.775433
 20
164.162961
 30
0.0
 40
5.0
100
AcDbArc
 50
180.0
 51
270.0
  0
ARC
  5
C11D
330
C035
100
AcDbEntity
  8
1
  6
Continuous
100
AcDbCircle
 10
447.775433
 20
166.162961
 30
0.0
 40
2.1
100
AcDbArc
 50
123.4629999999998
 51
146.537
  0
ARC
  5
C11E
330
C035
100
AcDbEntity
  8
1
  6
Continuous
100
AcDbCircle
 10
447.775433
 20
166.162961
 30
0.0
 40
2.1
100
AcDbArc
 50
213.463
 51
236.5369999999999
  0
LINE
  5
C11F
330
C035
100
AcDbEntity
  8
1
  6
Continuous
100
AcDbLine
 10
446.634375
 20
166.6882709999998
 30
0.0
 11
446.023505
 21
167.320919
 31
0.0
  0
LINE
  5
C120
330
C035
100
AcDbEntity
  8
1
  6
Continuous
100
AcDbLine
 10
446.634445
 20
165.637581
 30
0.0
 11
446.023505
 21
165.0050029999999
 31
0.0
  0
ARC
  5
C121
330
C035
100
AcDbEntity
  8
1
  6
Continuous
100
AcDbCircle
 10
447.775433
 20
166.162961
 30
0.0
 40
2.1
100
AcDbArc
 50
33.463
 51
56.537
  0
ARC
  5
C122
330
C035
100
AcDbEntity
  8
1
  6
Continuous
100
AcDbCircle
 10
447.775433
 20
166.162961
 30
0.0
 40
2.1
100
AcDbArc
 50
303.4629999999999
 51
326.5369999999998
  0
LINE
  5
C123
330
C035
100
AcDbEntity
  8
1
  6
Continuous
100
AcDbLine
 10
447.775433
 20
167.1127469999998
 30
0.0
 11
448.3008129999998
 21
167.3039489999998
 31
0.0
  0
LINE
  5
C124
330
C035
100
AcDbEntity
  8
1
  6
Continuous
100
AcDbLine
 10
448.3008129999998
 20
167.3039489999998
 30
0.0
 11
448.933391
 21
167.914889
 31
0.0
  0
LINE
  5
C125
330
C035
100
AcDbEntity
  8
1
  6
Continuous
100
AcDbLine
 10
448.916491
 20
166.6882709999998
 30
0.0
 11
449.5273609999999
 21
167.320919
 31
0.0
  0
LINE
  5
C126
330
C035
100
AcDbEntity
  8
1
  6
Continuous
100
AcDbLine
 10
448.7252189999998
 20
166.162961
 30
0.0
 11
448.916491
 21
166.6882709999998
 31
0.0
  0
LINE
  5
C127
330
C035
100
AcDbEntity
  8
1
  6
Continuous
100
AcDbLine
 10
446.8256469999998
 20
166.162961
 30
0.0
 11
446.634375
 21
166.6882709999998
 31
0.0
  0
LINE
  5
C128
330
C035
100
AcDbEntity
  8
1
  6
Continuous
100
AcDbLine
 10
447.2500519999998
 20
167.3039489999998
 30
0.0
 11
446.617475
 21
167.914889
 31
0.0
  0
LINE
  5
C129
330
C035
100
AcDbEntity
  8
1
  6
Continuous
100
AcDbLine
 10
447.775433
 20
167.1127469999998
 30
0.0
 11
447.2500519999998
 21
167.3039489999998
 31
0.0
  0
LINE
  5
C12A
330
C035
100
AcDbEntity
  8
1
  6
Continuous
100
AcDbLine
 10
447.775433
 20
165.213175
 30
0.0
 11
447.2501229999998
 21
165.021903
 31
0.0
  0
LINE
  5
C12B
330
C035
100
AcDbEntity
  8
1
  6
Continuous
100
AcDbLine
 10
447.2500519999998
 20
165.021832
 30
0.0
 11
446.617475
 21
164.411034
 31
0.0
  0
LINE
  5
C12C
330
C035
100
AcDbEntity
  8
1
  6
Continuous
100
AcDbLine
 10
446.8256469999998
 20
166.162961
 30
0.0
 11
446.634375
 21
165.6375099999999
 31
0.0
  0
LINE
  5
C12D
330
C035
100
AcDbEntity
  8
1
  6
Continuous
100
AcDbLine
 10
447.775433
 20
165.213175
 30
0.0
 11
448.3008129999998
 21
165.021832
 31
0.0
  0
LINE
  5
C12E
330
C035
100
AcDbEntity
  8
1
  6
Continuous
100
AcDbLine
 10
448.3008129999998
 20
165.021832
 30
0.0
 11
448.933391
 21
164.411034
 31
0.0
  0
LINE
  5
C12F
330
C035
100
AcDbEntity
  8
1
  6
Continuous
100
AcDbLine
 10
448.916491
 20
165.6375099999999
 30
0.0
 11
449.5273609999999
 21
165.0050029999999
 31
0.0
  0
LINE
  5
C130
330
C035
100
AcDbEntity
  8
1
  6
Continuous
100
AcDbLine
 10
448.7252189999998
 20
166.162961
 30
0.0
 11
448.916491
 21
165.6375099999999
 31
0.0
  0
ARC
  5
C131
330
C035
100
AcDbEntity
  8
1
  6
Continuous
100
AcDbCircle
 10
446.1883219999998
 20
166.162961
 30
0.0
 40
5.412889999999999
100
AcDbArc
 50
112.5237199999998
 51
229.3987049999998
  0
ARC
  5
C132
330
C035
100
AcDbEntity
  8
1
  6
Continuous
100
AcDbCircle
 10
438.7754329999999
 20
174.662961
 30
0.0
 40
2.5
100
AcDbArc
 50
180.0
 51
270.0
  0
ARC
  5
C133
330
C035
100
AcDbEntity
  8
1
  6
Continuous
100
AcDbCircle
 10
447.775433
 20
164.311333
 30
0.0
 40
7.851628999999997
100
AcDbArc
 50
49.39870500000001
 51
60.766642
  0
ARC
  5
C134
330
C035
100
AcDbEntity
  8
1
  6
Continuous
100
AcDbCircle
 10
449.3625429999998
 20
166.162961
 30
0.0
 40
5.412889999999999
100
AcDbArc
 50
310.601295
 51
49.39870500000001
  0
ARC
  5
C135
330
C035
100
AcDbEntity
  8
1
  6
Continuous
100
AcDbCircle
 10
457.975433
 20
174.662961
 30
0.0
 40
2.5
100
AcDbArc
 50
270.0
 51
0.0
  0
ARC
  5
C136
330
C035
100
AcDbEntity
  8
1
  6
Continuous
100
AcDbCircle
 10
456.775433
 20
174.662961
 30
0.0
 40
2.5
100
AcDbArc
 50
270.0
 51
0.0
  0
ARC
  5
C137
330
C035
100
AcDbEntity
  8
1
  6
Continuous
100
AcDbCircle
 10
458.775433
 20
164.162961
 30
0.0
 40
5.0
100
AcDbArc
 50
270.0
 51
0.0
  0
ARC
  5
C138
330
C035
100
AcDbEntity
  8
1
  6
Continuous
100
AcDbCircle
 10
282.3412399999999
 20
264.1629609999998
 30
0.0
 40
1.0
100
AcDbArc
 50
270.0
 51
0.0
  0
LINE
  5
C139
330
C035
100
AcDbEntity
  8
1
  6
Continuous
100
AcDbLine
 10
273.591702
 20
273.662961
 30
0.0
 11
273.591702
 21
263.162961
 31
0.0
  0
LINE
  5
C13A
330
C035
100
AcDbEntity
  8
1
  6
Continuous
100
AcDbLine
 10
262.14124
 20
269.9497579999999
 30
0.0
 11
262.14124
 21
176.162961
 31
0.0
  0
LINE
  5
C13B
330
C035
100
AcDbEntity
  8
1
  6
Continuous
100
AcDbLine
 10
271.1412399999999
 20
260.7124989999999
 30
0.0
 11
271.1412399999999
 21
202.662961
 31
0.0
  0
ARC
  5
C13C
330
C035
100
AcDbEntity
  8
1
  6
Continuous
100
AcDbCircle
 10
277.74124
 20
196.662961
 30
0.0
 40
3.0
100
AcDbArc
 50
0.0
 51
90.0
  0
LINE
  5
C13D
330
C035
100
AcDbEntity
  8
1
  6
Continuous
100
AcDbLine
 10
280.74124
 20
196.662961
 30
0.0
 11
280.74124
 21
176.8169499999999
 31
0.0
  0
LINE
  5
C13E
330
C035
100
AcDbEntity
  8
1
  6
Continuous
100
AcDbLine
 10
277.74124
 20
199.662961
 30
0.0
 11
274.1412399999999
 21
199.662961
 31
0.0
  0
ARC
  5
C13F
330
C035
100
AcDbEntity
  8
1
  6
Continuous
100
AcDbCircle
 10
274.1412399999999
 20
202.662961
 30
0.0
 40
3.0
100
AcDbArc
 50
180.0
 51
270.0
  0
LINE
  5
C140
330
C035
100
AcDbEntity
  8
1
  6
Continuous
100
AcDbLine
 10
273.591702
 20
263.162961
 30
0.0
 11
282.3412399999999
 21
263.162961
 31
0.0
  0
LINE
  5
C141
330
C035
100
AcDbEntity
  8
1
  6
Continuous
100
AcDbLine
 10
273.591702
 20
263.162961
 30
0.0
 11
271.1412399999999
 21
260.7124989999999
 31
0.0
  0
LINE
  5
C142
330
C035
100
AcDbEntity
  8
1
  6
Continuous
100
AcDbLine
 10
285.54124
 20
287.962961
 30
0.0
 11
285.54124
 21
283.4162069999998
 31
0.0
  0
LINE
  5
C143
330
C035
100
AcDbEntity
  8
1
  6
Continuous
100
AcDbLine
 10
283.3412399999999
 20
286.362835
 30
0.0
 11
283.3412399999999
 21
264.1629609999998
 31
0.0
  0
LINE
  5
C144
330
C035
100
AcDbEntity
  8
4
  6
CENTER
100
AcDbLine
 10
289.396972
 20
275.662961
 30
0.0
 11
261.988293
 21
275.662961
 31
0.0
  0
ARC
  5
C145
330
C035
100
AcDbEntity
  8
5
  6
PHANTOM
100
AcDbCircle
 10
263.1412399999999
 20
284.0629609999999
 30
0.0
 40
1.0
100
AcDbArc
 50
90.0
 51
180.0
  0
ARC
  5
C146
330
C035
100
AcDbEntity
  8
5
  6
PHANTOM
100
AcDbCircle
 10
252.1412399999999
 20
281.876165
 30
0.0
 40
10.0
100
AcDbArc
 50
315.0
 51
0.0
  0
ARC
  5
C147
330
C035
100
AcDbEntity
  8
1
  6
Continuous
100
AcDbCircle
 10
267.1412399999999
 20
275.662961
 30
0.0
 40
9.4
100
AcDbArc
 50
115.184337
 51
135.0
  0
LINE
  5
C148
330
C035
100
AcDbEntity
  8
5
  6
PHANTOM
100
AcDbLine
 10
262.14124
 20
284.0629609999999
 30
0.0
 11
262.14124
 21
281.876165
 31
0.0
  0
ARC
  5
C149
330
C035
100
AcDbEntity
  8
5
  6
PHANTOM
100
AcDbCircle
 10
258.14124
 20
270.9056019999998
 30
0.0
 40
4.0
100
AcDbArc
 50
315.0
 51
0.0
  0
ARC
  5
C14A
330
C035
100
AcDbEntity
  8
1
  6
Continuous
100
AcDbCircle
 10
252.1412399999999
 20
269.4497579999999
 30
0.0
 40
10.0
100
AcDbArc
 50
0.0
 51
45.0
  0
LINE
  5
C14B
330
C035
100
AcDbEntity
  8
1
  6
Continuous
100
AcDbLine
 10
285.8412399999999
 20
283.962961
 30
0.0
 11
285.54124
 21
283.962961
 31
0.0
  0
LINE
  5
C14C
330
C035
100
AcDbEntity
  8
1
  6
Continuous
100
AcDbLine
 10
285.8412399999999
 20
285.405747
 30
0.0
 11
285.54124
 21
285.405747
 31
0.0
  0
LINE
  5
C14D
330
C035
100
AcDbEntity
  8
1
  6
Continuous
100
AcDbLine
 10
287.8412399999999
 20
280.6629609999998
 30
0.0
 11
285.8412399999999
 21
280.6629609999998
 31
0.0
  0
LINE
  5
C14E
330
C035
100
AcDbEntity
  8
1
  6
Continuous
100
AcDbLine
 10
287.8412399999999
 20
275.006107
 30
0.0
 11
285.8412399999999
 21
275.006107
 31
0.0
  0
LINE
  5
C14F
330
C035
100
AcDbEntity
  8
1
  6
Continuous
100
AcDbLine
 10
287.8412399999999
 20
276.319815
 30
0.0
 11
285.8412399999999
 21
276.319815
 31
0.0
  0
LINE
  5
C150
330
C035
100
AcDbEntity
  8
1
  6
Continuous
100
AcDbLine
 10
285.3412399999999
 20
283.2162069999998
 30
0.0
 11
283.74124
 21
283.2162069999998
 31
0.0
  0
ARC
  5
C151
330
C035
100
AcDbEntity
  8
1
  6
Continuous
100
AcDbCircle
 10
283.54124
 20
284.123215
 30
0.0
 40
0.2
100
AcDbArc
 50
0.0
 51
90.0
  0
LINE
  5
C152
330
C035
100
AcDbEntity
  8
1
  6
Continuous
100
AcDbLine
 10
283.54124
 20
284.323215
 30
0.0
 11
283.3412399999999
 21
284.323215
 31
0.0
  0
LINE
  5
C153
330
C035
100
AcDbEntity
  8
1
  6
Continuous
100
AcDbLine
 10
283.74124
 20
281.5629609999998
 30
0.0
 11
283.8412399999999
 21
281.5629609999998
 31
0.0
  0
ARC
  5
C154
330
C035
100
AcDbEntity
  8
1
  6
Continuous
100
AcDbCircle
 10
285.3412399999999
 20
283.4162069999998
 30
0.0
 40
0.2
100
AcDbArc
 50
270.0
 51
0.0
  0
LINE
  5
C155
330
C035
100
AcDbEntity
  8
1
  6
Continuous
100
AcDbLine
 10
287.8412399999999
 20
270.6629609999998
 30
0.0
 11
285.8412399999999
 21
270.6629609999998
 31
0.0
  0
LINE
  5
C156
330
C035
100
AcDbEntity
  8
1
  6
Continuous
100
AcDbLine
 10
283.74124
 20
269.7629609999999
 30
0.0
 11
283.8412399999999
 21
269.7629609999999
 31
0.0
  0
LINE
  5
C157
330
C035
100
AcDbEntity
  8
1
  6
Continuous
100
AcDbLine
 10
283.3412399999999
 20
265.6629609999999
 30
0.0
 11
283.54124
 21
265.6629609999999
 31
0.0
  0
ARC
  5
C158
330
C035
100
AcDbEntity
  8
1
  6
Continuous
100
AcDbCircle
 10
283.48499
 20
265.9129609999999
 30
0.0
 40
0.25625
100
AcDbArc
 50
282.680383
 51
0.0
  0
LINE
  5
C159
330
C035
100
AcDbEntity
  8
1
  6
Continuous
100
AcDbLine
 10
285.8412399999999
 20
271.5129609999999
 30
0.0
 11
283.8412399999999
 21
271.5129609999999
 31
0.0
  0
LINE
  5
C15A
330
C035
100
AcDbEntity
  8
1
  6
Continuous
100
AcDbLine
 10
285.8412399999999
 20
270.037961
 30
0.0
 11
283.8412399999999
 21
270.037961
 31
0.0
  0
LINE
  5
C15B
330
C035
100
AcDbEntity
  8
1
  6
Continuous
100
AcDbLine
 10
285.8412399999999
 20
264.4129609999998
 30
0.0
 11
283.8412399999999
 21
264.4129609999998
 31
0.0
  0
LINE
  5
C15C
330
C035
100
AcDbEntity
  8
1
  6
Continuous
100
AcDbLine
 10
283.74124
 20
284.123215
 30
0.0
 11
283.74124
 21
265.9129609999999
 31
0.0
  0
LINE
  5
C15D
330
C035
100
AcDbEntity
  8
1
  6
Continuous
100
AcDbLine
 10
285.8412399999999
 20
285.405747
 30
0.0
 11
285.8412399999999
 21
264.4129609999998
 31
0.0
  0
LINE
  5
C15E
330
C035
100
AcDbEntity
  8
1
  6
Continuous
100
AcDbLine
 10
287.8412399999999
 20
280.6629609999998
 30
0.0
 11
287.8412399999999
 21
270.6629609999998
 31
0.0
  0
LINE
  5
C15F
330
C035
100
AcDbEntity
  8
1
  6
Continuous
100
AcDbLine
 10
283.8412399999999
 20
283.2162069999998
 30
0.0
 11
283.8412399999999
 21
264.4129609999998
 31
0.0
  0
LINE
  5
C160
330
C035
100
AcDbEntity
  8
1
  6
Continuous
100
AcDbLine
 10
267.1412399999999
 20
288.162961
 30
0.0
 11
285.3412399999999
 21
288.162961
 31
0.0
  0
LINE
  5
C161
330
C035
100
AcDbEntity
  8
1
  6
Continuous
100
AcDbLine
 10
270.64124
 20
297.6629609999998
 30
0.0
 11
271.1412399999999
 21
297.1629609999999
 31
0.0
  0
LINE
  5
C162
330
C035
100
AcDbEntity
  8
1
  6
Continuous
100
AcDbLine
 10
266.1412399999999
 20
301.1629609999999
 30
0.0
 11
267.1412399999999
 21
301.1629609999999
 31
0.0
  0
LINE
  5
C163
330
C035
100
AcDbEntity
  8
1
  6
Continuous
100
AcDbLine
 10
266.1412399999999
 20
301.1629609999999
 30
0.0
 11
264.6412399999999
 21
301.1629609999999
 31
0.0
  0
LINE
  5
C164
330
C035
100
AcDbEntity
  8
1
  6
Continuous
100
AcDbLine
 10
264.6412399999999
 20
301.1629609999999
 30
0.0
 11
263.1412399999999
 21
298.162961
 31
0.0
  0
LINE
  5
C165
330
C035
100
AcDbEntity
  8
1
  6
Continuous
100
AcDbLine
 10
270.64124
 20
297.6629609999998
 30
0.0
 11
267.1412399999999
 21
297.6629609999998
 31
0.0
  0
LINE
  5
C166
330
C035
100
AcDbEntity
  8
4
  6
CENTER
100
AcDbLine
 10
273.8707289999999
 20
294.162961
 30
0.0
 11
261.988293
 21
294.162961
 31
0.0
  0
LINE
  5
C167
330
C035
100
AcDbEntity
  8
1
  6
Continuous
100
AcDbLine
 10
271.1412399999999
 20
291.1629609999998
 30
0.0
 11
270.64124
 21
290.6629609999999
 31
0.0
  0
ARC
  5
C168
330
C035
100
AcDbEntity
  8
1
  6
Continuous
100
AcDbCircle
 10
268.1412399999999
 20
287.1629609999999
 30
0.0
 40
1.0
100
AcDbArc
 50
0.0
 51
90.0
  0
LINE
  5
C169
330
C035
100
AcDbEntity
  8
1
  6
Continuous
100
AcDbLine
 10
270.64124
 20
290.6629609999999
 30
0.0
 11
267.1412399999999
 21
290.6629609999999
 31
0.0
  0
LINE
  5
C16A
330
C035
100
AcDbEntity
  8
1
  6
Continuous
100
AcDbLine
 10
270.64124
 20
297.6629609999998
 30
0.0
 11
270.64124
 21
290.6629609999999
 31
0.0
  0
LINE
  5
C16B
330
C035
100
AcDbEntity
  8
1
  6
Continuous
100
AcDbLine
 10
271.1412399999999
 20
291.1629609999998
 30
0.0
 11
271.1412399999999
 21
297.1629609999999
 31
0.0
  0
LINE
  5
C16C
330
C035
100
AcDbEntity
  8
1
  6
Continuous
100
AcDbLine
 10
285.3412399999999
 20
286.362835
 30
0.0
 11
283.3412399999999
 21
286.362835
 31
0.0
  0
ARC
  5
C16D
330
C035
100
AcDbEntity
  8
1
  6
Continuous
100
AcDbCircle
 10
285.3412399999999
 20
286.562835
 30
0.0
 40
0.2
100
AcDbArc
 50
270.0
 51
0.0
  0
ARC
  5
C16E
330
C035
100
AcDbEntity
  8
1
  6
Continuous
100
AcDbCircle
 10
285.3412399999999
 20
287.962961
 30
0.0
 40
0.2
100
AcDbArc
 50
0.0
 51
90.0
  0
ARC
  5
C16F
330
C035
100
AcDbEntity
  8
1
  6
Continuous
100
AcDbCircle
 10
324.0474019999999
 20
275.6629919999999
 30
0.0
 40
12.0
100
AcDbArc
 50
344.506032
 51
15.493968
  0
LINE
  5
C170
330
C035
100
AcDbEntity
  8
1
  6
Continuous
100
AcDbLine
 10
330.647402
 20
281.662992
 30
0.0
 11
330.647402
 21
269.6629919999999
 31
0.0
  0
LINE
  5
C171
330
C035
100
AcDbEntity
  8
1
  6
Continuous
100
AcDbLine
 10
332.747402
 20
280.262992
 30
0.0
 11
332.747402
 21
271.062992
 31
0.0
  0
LINE
  5
C172
330
C035
100
AcDbEntity
  8
1
  6
Continuous
100
AcDbLine
 10
331.447402
 20
281.662992
 30
0.0
 11
331.447402
 21
269.6629919999999
 31
0.0
  0
LINE
  5
C173
330
C035
100
AcDbEntity
  8
1
  6
Continuous
100
AcDbLine
 10
332.747402
 20
271.062992
 30
0.0
 11
331.447402
 21
271.062992
 31
0.0
  0
LINE
  5
C174
330
C035
100
AcDbEntity
  8
1
  6
Continuous
100
AcDbLine
 10
331.447402
 20
269.6629919999999
 30
0.0
 11
330.647402
 21
269.6629919999999
 31
0.0
  0
LINE
  5
C175
330
C035
100
AcDbEntity
  8
1
  6
Continuous
100
AcDbLine
 10
332.747402
 20
271.1629919999999
 30
0.0
 11
334.2089009999999
 21
271.2908569999999
 31
0.0
  0
LINE
  5
C176
330
C035
100
AcDbEntity
  8
1
  6
Continuous
100
AcDbLine
 10
332.747402
 20
280.262992
 30
0.0
 11
331.447402
 21
280.262992
 31
0.0
  0
LINE
  5
C177
330
C035
100
AcDbEntity
  8
1
  6
Continuous
100
AcDbLine
 10
331.447402
 20
281.662992
 30
0.0
 11
330.647402
 21
281.662992
 31
0.0
  0
LINE
  5
C178
330
C035
100
AcDbEntity
  8
1
  6
Continuous
100
AcDbLine
 10
332.747402
 20
280.1629919999999
 30
0.0
 11
334.2089009999999
 21
280.035128
 31
0.0
  0
LINE
  5
C179
330
C035
100
AcDbEntity
  8
1
  6
Continuous
100
AcDbLine
 10
332.747402
 20
275.6629919999999
 30
0.0
 11
331.447402
 21
274.362992
 31
0.0
  0
LINE
  5
C17A
330
C035
100
AcDbEntity
  8
1
  6
Continuous
100
AcDbLine
 10
332.747402
 20
276.9629919999998
 30
0.0
 11
331.447402
 21
275.6629919999999
 31
0.0
  0
ARC
  5
C17B
330
C035
100
AcDbEntity
  8
1
  6
Continuous
100
AcDbCircle
 10
334.0694509999999
 20
272.884768
 30
0.0
 40
1.6
100
AcDbArc
 50
275.0
 51
344.506032
  0
LINE
  5
C17C
330
C035
100
AcDbEntity
  8
4
  6
CENTER
100
AcDbLine
 10
337.747402
 20
275.6629919999999
 30
0.0
 11
328.3273359999999
 21
275.6629919999999
 31
0.0
  0
ARC
  5
C17D
330
C035
100
AcDbEntity
  8
1
  6
Continuous
100
AcDbCircle
 10
334.0694509999999
 20
278.441216
 30
0.0
 40
1.6
100
AcDbArc
 50
15.493968
 51
85.0
  0
ARC
  5
C17E
330
C035
100
AcDbEntity
  8
1
  6
Continuous
100
AcDbCircle
 10
369.968025
 20
292.0559499999999
 30
0.0
 40
1.3
100
AcDbArc
 50
275.0
 51
344.1191499999998
  0
ARC
  5
C17F
330
C035
100
AcDbEntity
  8
1
  6
Continuous
100
AcDbCircle
 10
369.968025
 20
296.2699719999998
 30
0.0
 40
1.3
100
AcDbArc
 50
15.88085
 51
85.0
  0
LINE
  5
C180
330
C035
100
AcDbEntity
  8
4
  6
CENTER
100
AcDbLine
 10
374.1025669999999
 20
294.162961
 30
0.0
 11
360.1478
 21
294.162961
 31
0.0
  0
LINE
  5
C181
330
C035
100
AcDbEntity
  8
1
  6
Continuous
100
AcDbLine
 10
367.9619129999999
 20
289.662961
 30
0.0
 11
367.9619129999999
 21
299.6629609999999
 31
0.0
  0
ARC
  5
C182
330
C035
100
AcDbEntity
  8
1
  6
Continuous
100
AcDbCircle
 10
367.4619129999999
 20
289.662961
 30
0.0
 40
0.5
100
AcDbArc
 50
270.0
 51
0.0
  0
ARC
  5
C183
330
C035
100
AcDbEntity
  8
1
  6
Continuous
100
AcDbCircle
 10
367.4619129999999
 20
299.6629609999999
 30
0.0
 40
0.5
100
AcDbArc
 50
0.0
 51
90.0
  0
LINE
  5
C184
330
C035
100
AcDbEntity
  8
1
  6
Continuous
100
AcDbLine
 10
368.961913
 20
297.9629609999999
 30
0.0
 11
368.961913
 21
290.3629609999999
 31
0.0
  0
LINE
  5
C185
330
C035
100
AcDbEntity
  8
1
  6
Continuous
100
AcDbLine
 10
367.9619129999999
 20
297.9629609999999
 30
0.0
 11
367.9619129999999
 21
290.3629609999999
 31
0.0
  0
LINE
  5
C186
330
C035
100
AcDbEntity
  8
1
  6
Continuous
100
AcDbLine
 10
368.961913
 20
290.6629609999999
 30
0.0
 11
370.0813279999999
 21
290.760897
 31
0.0
  0
LINE
  5
C187
330
C035
100
AcDbEntity
  8
1
  6
Continuous
100
AcDbLine
 10
368.961913
 20
290.3629609999999
 30
0.0
 11
367.9619129999999
 21
290.3629609999999
 31
0.0
  0
LINE
  5
C188
330
C035
100
AcDbEntity
  8
1
  6
Continuous
100
AcDbLine
 10
368.961913
 20
297.6629609999998
 30
0.0
 11
370.0813279999999
 21
297.565025
 31
0.0
  0
LINE
  5
C189
330
C035
100
AcDbEntity
  8
1
  6
Continuous
100
AcDbLine
 10
368.961913
 20
297.9629609999999
 30
0.0
 11
367.9619129999999
 21
297.9629609999999
 31
0.0
  0
LINE
  5
C18A
330
C035
100
AcDbEntity
  8
1
  6
Continuous
100
AcDbLine
 10
367.9619129999999
 20
294.162961
 30
0.0
 11
368.961913
 21
295.1629609999999
 31
0.0
  0
LINE
  5
C18B
330
C035
100
AcDbEntity
  8
1
  6
Continuous
100
AcDbLine
 10
368.961913
 20
294.162961
 30
0.0
 11
367.9619129999999
 21
293.1629609999998
 31
0.0
  0
LINE
  5
C18C
330
C035
100
AcDbEntity
  8
1
  6
Continuous
100
AcDbLine
 10
362.961913
 20
289.1629609999998
 30
0.0
 11
362.961913
 21
300.162961
 31
0.0
  0
LINE
  5
C18D
330
C035
100
AcDbEntity
  8
1
  6
Continuous
100
AcDbLine
 10
362.961913
 20
289.1629609999998
 30
0.0
 11
367.4619129999999
 21
289.1629609999998
 31
0.0
  0
LINE
  5
C18E
330
C035
100
AcDbEntity
  8
1
  6
Continuous
100
AcDbLine
 10
362.961913
 20
300.162961
 30
0.0
 11
367.4619129999999
 21
300.162961
 31
0.0
  0
ARC
  5
C18F
330
C035
100
AcDbEntity
  8
1
  6
Continuous
100
AcDbCircle
 10
362.561913
 20
294.162961
 30
0.0
 40
9.0
100
AcDbArc
 50
344.1191499999998
 51
15.88085
  0
ARC
  5
C190
330
C035
100
AcDbEntity
  8
1
  6
Continuous
100
AcDbCircle
 10
458.275433
 20
264.1629609999998
 30
0.0
 40
1.0
100
AcDbArc
 50
270.0
 51
0.0
  0
ARC
  5
C191
330
C035
100
AcDbEntity
  8
1
  6
Continuous
100
AcDbCircle
 10
437.275433
 20
264.1629609999998
 30
0.0
 40
1.0
100
AcDbArc
 50
180.0
 51
270.0
  0
ARC
  5
C192
330
C035
100
AcDbEntity
  8
1
  6
Continuous
100
AcDbCircle
 10
447.775433
 20
274.6629609999998
 30
0.0
 40
11.5
100
AcDbArc
 50
180.0
 51
0.0
  0
LINE
  5
C193
330
C035
100
AcDbEntity
  8
1
  6
Continuous
100
AcDbLine
 10
458.275433
 20
260.7124989999999
 30
0.0
 11
437.275433
 21
260.7124989999999
 31
0.0
  0
LINE
  5
C194
330
C035
100
AcDbEntity
  8
1
  6
Continuous
100
AcDbLine
 10
458.275433
 20
263.162961
 30
0.0
 11
437.275433
 21
263.162961
 31
0.0
  0
LINE
  5
C195
330
C035
100
AcDbEntity
  8
1
  6
Continuous
100
AcDbLine
 10
456.775433
 20
199.662961
 30
0.0
 11
438.7754329999999
 21
199.662961
 31
0.0
  0
ARC
  5
C196
330
C035
100
AcDbEntity
  8
1
  6
Continuous
100
AcDbCircle
 10
438.7754329999999
 20
197.162961
 30
0.0
 40
2.5
100
AcDbArc
 50
90.0
 51
180.0
  0
ARC
  5
C197
330
C035
100
AcDbEntity
  8
1
  6
Continuous
100
AcDbCircle
 10
437.275433
 20
261.7124989999999
 30
0.0
 40
1.0
100
AcDbArc
 50
180.0
 51
270.0
  0
ARC
  5
C198
330
C035
100
AcDbEntity
  8
1
  6
Continuous
100
AcDbCircle
 10
456.775433
 20
197.162961
 30
0.0
 40
2.5
100
AcDbArc
 50
0.0
 51
90.0
  0
ARC
  5
C199
330
C035
100
AcDbEntity
  8
1
  6
Continuous
100
AcDbCircle
 10
458.275433
 20
261.7124989999999
 30
0.0
 40
1.0
100
AcDbArc
 50
270.0
 51
0.0
  0
CIRCLE
  5
C19A
330
C035
100
AcDbEntity
  8
1
  6
Continuous
100
AcDbCircle
 10
447.775433
 20
294.162961
 30
0.0
 40
3.5
  0
CIRCLE
  5
C19B
330
C035
100
AcDbEntity
  8
1
  6
Continuous
100
AcDbCircle
 10
447.775433
 20
294.162961
 30
0.0
 40
3.799999999999998
  0
LINE
  5
C19C
330
C035
100
AcDbEntity
  8
1
  6
Continuous
100
AcDbLine
 10
444.114829
 20
289.1629609999998
 30
0.0
 11
451.609915
 21
289.1629609999998
 31
0.0
  0
ARC
  5
C19D
330
C035
100
AcDbEntity
  8
1
  6
Continuous
100
AcDbCircle
 10
447.775433
 20
292.3113329999998
 30
0.0
 40
7.851628999999997
100
AcDbArc
 50
49.39870500000001
 51
130.6012949999999
  0
CIRCLE
  5
C19E
330
C035
100
AcDbEntity
  8
1
  6
Continuous
100
AcDbCircle
 10
447.775433
 20
275.662961
 30
0.0
 40
4.5
  0
CIRCLE
  5
C19F
330
C035
100
AcDbEntity
  8
1
  6
Continuous
100
AcDbCircle
 10
447.775433
 20
275.662961
 30
0.0
 40
4.599999999999997
  0
CIRCLE
  5
C1A0
330
C035
100
AcDbEntity
  8
1
  6
Continuous
100
AcDbCircle
 10
447.775433
 20
275.662961
 30
0.0
 40
6.0
  0
ARC
  5
C1A1
330
C035
100
AcDbEntity
  8
1
  6
Continuous
100
AcDbCircle
 10
447.775433
 20
275.662961
 30
0.0
 40
8.599999999999997
100
AcDbArc
 50
61.931684
 51
118.068316
  0
ARC
  5
C1A2
330
C035
100
AcDbEntity
  8
1
  6
Continuous
100
AcDbCircle
 10
447.775433
 20
275.662961
 30
0.0
 40
11.25
100
AcDbArc
 50
210.0
 51
60.0
  0
LINE
  5
C1A3
330
C035
100
AcDbEntity
  8
1
  6
Continuous
100
AcDbLine
 10
457.975433
 20
288.162961
 30
0.0
 11
437.5754329999998
 21
288.162961
 31
0.0
  0
ARC
  5
C1A4
330
C035
100
AcDbEntity
  8
1
  6
Continuous
100
AcDbCircle
 10
447.775433
 20
276.6629609999998
 30
0.0
 40
11.5
100
AcDbArc
 50
0.0
 51
180.0
  0
LINE
  5
C1A5
330
C035
100
AcDbEntity
  8
1
  6
Continuous
100
AcDbLine
 10
458.775433
 20
301.1629609999999
 30
0.0
 11
436.775433
 21
301.1629609999999
 31
0.0
  0
LINE
  5
C1A6
330
C035
100
AcDbEntity
  8
4
  6
CENTER
100
AcDbLine
 10
438.280365
 20
294.162961
 30
0.0
 11
457.7826149999999
 21
294.162961
 31
0.0
  0
LINE
  5
C1A7
330
C035
100
AcDbEntity
  8
4
  6
CENTER
100
AcDbLine
 10
463.873681
 20
275.662961
 30
0.0
 11
433.1158409999998
 21
275.662961
 31
0.0
  0
ARC
  5
C1A8
330
C035
100
AcDbEntity
  8
1
  6
Continuous
100
AcDbCircle
 10
447.775433
 20
275.662961
 30
0.0
 40
8.3
100
AcDbArc
 50
60.0
 51
210.0
  0
ARC
  5
C1A9
330
C035
100
AcDbEntity
  8
1
  6
Continuous
100
AcDbCircle
 10
437.5754329999998
 20
285.662961
 30
0.0
 40
2.5
100
AcDbArc
 50
90.0
 51
180.0
  0
LINE
  5
C1AA
330
C035
100
AcDbEntity
  8
1
  6
Continuous
100
AcDbLine
 10
443.327962
 20
283.3662069999999
 30
0.0
 11
441.5978579999999
 21
286.362835
 31
0.0
  0
LINE
  5
C1AB
330
C035
100
AcDbEntity
  8
1
  6
Continuous
100
AcDbLine
 10
448.795929
 20
275.662961
 30
0.0
 11
449.0247489999998
 21
276.2914379999999
 31
0.0
  0
LINE
  5
C1AC
330
C035
100
AcDbEntity
  8
1
  6
Continuous
100
AcDbLine
 10
449.0247489999998
 20
276.2914379999999
 30
0.0
 11
449.779232
 21
277.072791
 31
0.0
  0
LINE
  5
C1AD
330
C035
100
AcDbEntity
  8
1
  6
Continuous
100
AcDbLine
 10
448.4039799999997
 20
276.9122069999998
 30
0.0
 11
449.185262
 21
277.66676
 31
0.0
  0
LINE
  5
C1AE
330
C035
100
AcDbEntity
  8
1
  6
Continuous
100
AcDbLine
 10
447.775433
 20
276.6834579999999
 30
0.0
 11
448.4039799999997
 21
276.9122069999998
 31
0.0
  0
LINE
  5
C1AF
330
C035
100
AcDbEntity
  8
1
  6
Continuous
100
AcDbLine
 10
447.1469559999999
 20
276.9122779999999
 30
0.0
 11
446.365674
 21
277.66669
 31
0.0
  0
LINE
  5
C1B0
330
C035
100
AcDbEntity
  8
1
  6
Continuous
100
AcDbLine
 10
447.775433
 20
276.6834579999999
 30
0.0
 11
447.1469559999999
 21
276.9122779999999
 31
0.0
  0
LINE
  5
C1B1
330
C035
100
AcDbEntity
  8
1
  6
Continuous
100
AcDbLine
 10
446.7549359999998
 20
275.662961
 30
0.0
 11
446.5261869999998
 21
276.2915089999999
 31
0.0
  0
LINE
  5
C1B2
330
C035
100
AcDbEntity
  8
1
  6
Continuous
100
AcDbLine
 10
446.526258
 20
276.2914379999999
 30
0.0
 11
445.771704
 21
277.07272
 31
0.0
  0
LINE
  5
C1B3
330
C035
100
AcDbEntity
  8
1
  6
Continuous
100
AcDbLine
 10
446.526258
 20
275.034485
 30
0.0
 11
445.771704
 21
274.253202
 31
0.0
  0
LINE
  5
C1B4
330
C035
100
AcDbEntity
  8
1
  6
Continuous
100
AcDbLine
 10
446.7549359999998
 20
275.662961
 30
0.0
 11
446.526258
 21
275.034485
 31
0.0
  0
LINE
  5
C1B5
330
C035
100
AcDbEntity
  8
1
  6
Continuous
100
AcDbLine
 10
447.775433
 20
274.642465
 30
0.0
 11
447.147027
 21
274.413716
 31
0.0
  0
LINE
  5
C1B6
330
C035
100
AcDbEntity
  8
1
  6
Continuous
100
AcDbLine
 10
447.147027
 20
274.413716
 30
0.0
 11
446.365674
 21
273.6592329999999
 31
0.0
  0
LINE
  5
C1B7
330
C035
100
AcDbEntity
  8
1
  6
Continuous
100
AcDbLine
 10
448.4039799999997
 20
274.413716
 30
0.0
 11
449.185262
 21
273.659162
 31
0.0
  0
LINE
  5
C1B8
330
C035
100
AcDbEntity
  8
1
  6
Continuous
100
AcDbLine
 10
447.775433
 20
274.642465
 30
0.0
 11
448.4039799999997
 21
274.413716
 31
0.0
  0
LINE
  5
C1B9
330
C035
100
AcDbEntity
  8
1
  6
Continuous
100
AcDbLine
 10
448.795929
 20
275.662961
 30
0.0
 11
449.0247489999998
 21
275.034485
 31
0.0
  0
LINE
  5
C1BA
330
C035
100
AcDbEntity
  8
1
  6
Continuous
100
AcDbLine
 10
449.0247489999998
 20
275.034485
 30
0.0
 11
449.779232
 21
274.2531319999998
 31
0.0
  0
ARC
  5
C1BB
330
C035
100
AcDbEntity
  8
1
  6
Continuous
100
AcDbCircle
 10
447.775433
 20
275.662961
 30
0.0
 40
2.45
100
AcDbArc
 50
35.129
 51
54.87089
  0
ARC
  5
C1BC
330
C035
100
AcDbEntity
  8
1
  6
Continuous
100
AcDbCircle
 10
447.775433
 20
275.662961
 30
0.0
 40
2.45
100
AcDbArc
 50
125.1291
 51
144.8709
  0
ARC
  5
C1BD
330
C035
100
AcDbEntity
  8
1
  6
Continuous
100
AcDbCircle
 10
447.775433
 20
275.662961
 30
0.0
 40
2.45
100
AcDbArc
 50
215.1289999999999
 51
234.871
  0
ARC
  5
C1BE
330
C035
100
AcDbEntity
  8
1
  6
Continuous
100
AcDbCircle
 10
447.775433
 20
275.662961
 30
0.0
 40
2.45
100
AcDbArc
 50
305.129
 51
324.8709999999999
  0
ARC
  5
C1BF
330
C035
100
AcDbEntity
  8
1
  6
Continuous
100
AcDbCircle
 10
443.5877689999998
 20
283.5162069999999
 30
0.0
 40
0.3
100
AcDbArc
 50
210.0
 51
298.0683159999998
  0
LINE
  5
C1C0
330
C035
100
AcDbEntity
  8
1
  6
Continuous
100
AcDbLine
 10
440.5874219999998
 20
271.5129609999999
 30
0.0
 11
438.0326469999998
 21
270.037961
 31
0.0
  0
ARC
  5
C1C1
330
C035
100
AcDbEntity
  8
1
  6
Continuous
100
AcDbCircle
 10
447.775433
 20
275.662961
 30
0.0
 40
9.5
100
AcDbArc
 50
119.9999999999999
 51
210.0
  0
ARC
  5
C1C2
330
C035
100
AcDbEntity
  8
1
  6
Continuous
100
AcDbCircle
 10
447.775433
 20
275.662961
 30
0.0
 40
10.0
100
AcDbArc
 50
119.9999999999999
 51
210.0
  0
ARC
  5
C1C3
330
C035
100
AcDbEntity
  8
1
  6
Continuous
100
AcDbCircle
 10
436.775433
 20
296.162961
 30
0.0
 40
5.0
100
AcDbArc
 50
90.0
 51
180.0
  0
LINE
  5
C1C4
330
C035
100
AcDbEntity
  8
1
  6
Continuous
100
AcDbLine
 10
448.7252189999998
 20
294.162961
 30
0.0
 11
448.916491
 21
294.688412
 31
0.0
  0
LINE
  5
C1C5
330
C035
100
AcDbEntity
  8
1
  6
Continuous
100
AcDbLine
 10
448.916491
 20
294.688412
 30
0.0
 11
449.5273609999999
 21
295.3209189999999
 31
0.0
  0
LINE
  5
C1C6
330
C035
100
AcDbEntity
  8
1
  6
Continuous
100
AcDbLine
 10
448.3008129999998
 20
295.3040899999999
 30
0.0
 11
448.933391
 21
295.914889
 31
0.0
  0
LINE
  5
C1C7
330
C035
100
AcDbEntity
  8
1
  6
Continuous
100
AcDbLine
 10
447.775433
 20
295.112747
 30
0.0
 11
448.3008129999998
 21
295.3040899999999
 31
0.0
  0
LINE
  5
C1C8
330
C035
100
AcDbEntity
  8
1
  6
Continuous
100
AcDbLine
 10
446.8256469999998
 20
294.162961
 30
0.0
 11
446.634375
 21
294.688412
 31
0.0
  0
LINE
  5
C1C9
330
C035
100
AcDbEntity
  8
1
  6
Continuous
100
AcDbLine
 10
446.634445
 20
294.6883419999998
 30
0.0
 11
446.023505
 21
295.3209189999999
 31
0.0
  0
LINE
  5
C1CA
330
C035
100
AcDbEntity
  8
1
  6
Continuous
100
AcDbLine
 10
447.2500519999998
 20
295.3040899999999
 30
0.0
 11
446.617475
 21
295.914889
 31
0.0
  0
LINE
  5
C1CB
330
C035
100
AcDbEntity
  8
1
  6
Continuous
100
AcDbLine
 10
447.775433
 20
295.112747
 30
0.0
 11
447.2501229999998
 21
295.3040189999999
 31
0.0
  0
LINE
  5
C1CC
330
C035
100
AcDbEntity
  8
1
  6
Continuous
100
AcDbLine
 10
447.775433
 20
293.2131749999999
 30
0.0
 11
447.2500519999998
 21
293.021974
 31
0.0
  0
LINE
  5
C1CD
330
C035
100
AcDbEntity
  8
1
  6
Continuous
100
AcDbLine
 10
447.2500519999998
 20
293.021974
 30
0.0
 11
446.617475
 21
292.411034
 31
0.0
  0
LINE
  5
C1CE
330
C035
100
AcDbEntity
  8
1
  6
Continuous
100
AcDbLine
 10
446.634375
 20
293.6376519999999
 30
0.0
 11
446.023505
 21
293.0050029999998
 31
0.0
  0
LINE
  5
C1CF
330
C035
100
AcDbEntity
  8
1
  6
Continuous
100
AcDbLine
 10
446.8256469999998
 20
294.162961
 30
0.0
 11
446.634375
 21
293.6376519999999
 31
0.0
  0
LINE
  5
C1D0
330
C035
100
AcDbEntity
  8
1
  6
Continuous
100
AcDbLine
 10
448.7252189999998
 20
294.162961
 30
0.0
 11
448.916491
 21
293.6376519999999
 31
0.0
  0
LINE
  5
C1D1
330
C035
100
AcDbEntity
  8
1
  6
Continuous
100
AcDbLine
 10
448.916491
 20
293.6376519999999
 30
0.0
 11
449.5273609999999
 21
293.0050029999998
 31
0.0
  0
LINE
  5
C1D2
330
C035
100
AcDbEntity
  8
1
  6
Continuous
100
AcDbLine
 10
448.3008129999998
 20
293.021974
 30
0.0
 11
448.933391
 21
292.411034
 31
0.0
  0
LINE
  5
C1D3
330
C035
100
AcDbEntity
  8
1
  6
Continuous
100
AcDbLine
 10
447.775433
 20
293.2131749999999
 30
0.0
 11
448.3008129999998
 21
293.021974
 31
0.0
  0
ARC
  5
C1D4
330
C035
100
AcDbEntity
  8
1
  6
Continuous
100
AcDbCircle
 10
447.775433
 20
294.162961
 30
0.0
 40
2.1
100
AcDbArc
 50
33.463
 51
56.537
  0
ARC
  5
C1D5
330
C035
100
AcDbEntity
  8
1
  6
Continuous
100
AcDbCircle
 10
447.775433
 20
294.162961
 30
0.0
 40
2.1
100
AcDbArc
 50
123.4629999999998
 51
146.537
  0
ARC
  5
C1D6
330
C035
100
AcDbEntity
  8
1
  6
Continuous
100
AcDbCircle
 10
447.775433
 20
294.162961
 30
0.0
 40
2.1
100
AcDbArc
 50
213.463
 51
236.5369999999999
  0
ARC
  5
C1D7
330
C035
100
AcDbEntity
  8
1
  6
Continuous
100
AcDbCircle
 10
447.775433
 20
294.162961
 30
0.0
 40
2.1
100
AcDbArc
 50
303.4629999999999
 51
326.5369999999998
  0
ARC
  5
C1D8
330
C035
100
AcDbEntity
  8
1
  6
Continuous
100
AcDbCircle
 10
446.1883219999998
 20
294.162961
 30
0.0
 40
5.412889999999999
100
AcDbArc
 50
130.6012949999999
 51
247.4762799999998
  0
LINE
  5
C1D9
330
C035
100
AcDbEntity
  8
1
  6
Continuous
100
AcDbLine
 10
452.222904
 20
283.3662069999999
 30
0.0
 11
453.953008
 21
286.362835
 31
0.0
  0
ARC
  5
C1DA
330
C035
100
AcDbEntity
  8
1
  6
Continuous
100
AcDbCircle
 10
457.975433
 20
285.662961
 30
0.0
 40
2.5
100
AcDbArc
 50
0.0
 51
90.0
  0
LINE
  5
C1DB
330
C035
100
AcDbEntity
  8
1
  6
Continuous
100
AcDbLine
 10
451.9254329999998
 20
282.8509719999999
 30
0.0
 11
452.222904
 21
283.3662069999999
 31
0.0
  0
ARC
  5
C1DC
330
C035
100
AcDbEntity
  8
1
  6
Continuous
100
AcDbCircle
 10
451.9630969999998
 20
283.5162069999999
 30
0.0
 40
0.3
100
AcDbArc
 50
241.931684
 51
330.0
  0
ARC
  5
C1DD
330
C035
100
AcDbEntity
  8
1
  6
Continuous
100
AcDbCircle
 10
449.3625429999998
 20
294.162961
 30
0.0
 40
5.412889999999999
100
AcDbArc
 50
310.601295
 51
49.39870500000001
  0
ARC
  5
C1DE
330
C035
100
AcDbEntity
  8
1
  6
Continuous
100
AcDbCircle
 10
447.775433
 20
296.01459
 30
0.0
 40
7.851628999999997
100
AcDbArc
 50
299.233358
 51
310.601295
  0
ARC
  5
C1DF
330
C035
100
AcDbEntity
  8
1
  6
Continuous
100
AcDbCircle
 10
458.775433
 20
296.162961
 30
0.0
 40
5.0
100
AcDbArc
 50
0.0
 51
90.0
  0
LINE
  5
C1E0
330
C035
100
AcDbEntity
  8
4
  6
CENTER
100
AcDbLine
 10
292.9534209999999
 20
405.325922
 30
0.0
 11
254.690348
 21
405.325922
 31
0.0
  0
ARC
  5
C1E1
330
C035
100
AcDbEntity
  8
1
  6
Continuous
100
AcDbCircle
 10
267.916473
 20
405.325922
 30
0.0
 40
10.54339799999998
100
AcDbArc
 50
116.930926
 51
243.0690740000001
  0
LINE
  5
C1E2
330
C035
100
AcDbEntity
  8
1
  6
Continuous
100
AcDbLine
 10
283.341199
 20
399.148322
 30
0.0
 11
283.341199
 21
394.825922
 31
0.0
  0
LINE
  5
C1E3
330
C035
100
AcDbEntity
  8
1
  6
Continuous
100
AcDbLine
 10
269.1411989999999
 20
401.825922
 30
0.0
 11
269.1411989999999
 21
393.625922
 31
0.0
  0
LINE
  5
C1E4
330
C035
100
AcDbEntity
  8
1
  6
Continuous
100
AcDbLine
 10
283.741199
 20
399.148322
 30
0.0
 11
283.741199
 21
395.5839219999999
 31
0.0
  0
LINE
  5
C1E5
330
C035
100
AcDbEntity
  8
1
  6
Continuous
100
AcDbLine
 10
267.1411989999999
 20
421.325922
 30
0.0
 11
267.1411989999999
 21
389.325922
 31
0.0
  0
LINE
  5
C1E6
330
C035
100
AcDbEntity
  8
1
  6
Continuous
100
AcDbLine
 10
264.6411989999999
 20
421.325922
 30
0.0
 11
264.6411989999999
 21
389.325922
 31
0.0
  0
LINE
  5
C1E7
330
C035
100
AcDbEntity
  8
1
  6
Continuous
100
AcDbLine
 10
266.1411989999999
 20
421.325922
 30
0.0
 11
266.1411989999999
 21
389.325922
 31
0.0
  0
LINE
  5
C1E8
330
C035
100
AcDbEntity
  8
1
  6
Continuous
100
AcDbLine
 10
263.1411989999999
 20
418.325922
 30
0.0
 11
263.1411989999999
 21
392.3259219999998
 31
0.0
  0
LINE
  5
C1E9
330
C035
100
AcDbEntity
  8
1
  6
Continuous
100
AcDbLine
 10
285.841199
 20
416.5759219999998
 30
0.0
 11
285.841199
 21
395.5839219999999
 31
0.0
  0
LINE
  5
C1EA
330
C035
100
AcDbEntity
  8
1
  6
Continuous
100
AcDbLine
 10
282.341199
 20
393.8259219999998
 30
0.0
 11
269.1411989999999
 21
393.8259219999998
 31
0.0
  0
ARC
  5
C1EB
330
C035
100
AcDbEntity
  8
1
  6
Continuous
100
AcDbCircle
 10
268.1411989999999
 20
393.625922
 30
0.0
 40
1.0
100
AcDbArc
 50
270.0
 51
0.0
  0
LINE
  5
C1EC
330
C035
100
AcDbEntity
  8
1
  6
Continuous
100
AcDbLine
 10
268.1411989999999
 20
392.625922
 30
0.0
 11
267.1411989999999
 21
392.625922
 31
0.0
  0
LINE
  5
C1ED
330
C035
100
AcDbEntity
  8
1
  6
Continuous
100
AcDbLine
 10
264.6411989999999
 20
389.325922
 30
0.0
 11
263.1411989999999
 21
392.3259219999998
 31
0.0
  0
LINE
  5
C1EE
330
C035
100
AcDbEntity
  8
1
  6
Continuous
100
AcDbLine
 10
266.1411989999999
 20
389.325922
 30
0.0
 11
264.6411989999999
 21
389.325922
 31
0.0
  0
LINE
  5
C1EF
330
C035
100
AcDbEntity
  8
1
  6
Continuous
100
AcDbLine
 10
267.1411989999999
 20
389.325922
 30
0.0
 11
266.1411989999999
 21
389.325922
 31
0.0
  0
ARC
  5
C1F0
330
C035
100
AcDbEntity
  8
1
  6
Continuous
100
AcDbCircle
 10
282.341199
 20
394.825922
 30
0.0
 40
1.0
100
AcDbArc
 50
270.0
 51
0.0
  0
LINE
  5
C1F1
330
C035
100
AcDbEntity
  8
1
  6
Continuous
100
AcDbLine
 10
283.741199
 20
395.9957719999999
 30
0.0
 11
283.341199
 21
395.9957719999999
 31
0.0
  0
LINE
  5
C1F2
330
C035
100
AcDbEntity
  8
1
  6
Continuous
100
AcDbLine
 10
285.841199
 20
395.5839219999999
 30
0.0
 11
283.741199
 21
395.5839219999999
 31
0.0
  0
ARC
  5
C1F3
330
C035
100
AcDbEntity
  8
1
  6
Continuous
100
AcDbCircle
 10
268.1411989999999
 20
417.025922
 30
0.0
 40
1.0
100
AcDbArc
 50
0.0
 51
90.0
  0
LINE
  5
C1F4
330
C035
100
AcDbEntity
  8
1
  6
Continuous
100
AcDbLine
 10
282.341199
 20
416.825922
 30
0.0
 11
269.1411989999999
 21
416.825922
 31
0.0
  0
LINE
  5
C1F5
330
C035
100
AcDbEntity
  8
1
  6
Continuous
100
AcDbLine
 10
269.1411989999999
 20
417.025922
 30
0.0
 11
269.1411989999999
 21
408.825922
 31
0.0
  0
LINE
  5
C1F6
330
C035
100
AcDbEntity
  8
1
  6
Continuous
100
AcDbLine
 10
271.1411989999999
 20
402.3259219999998
 30
0.0
 11
271.1411989999999
 21
408.325922
 31
0.0
  0
LINE
  5
C1F7
330
C035
100
AcDbEntity
  8
1
  6
Continuous
100
AcDbLine
 10
270.6411989999999
 20
408.825922
 30
0.0
 11
267.1411989999999
 21
408.825922
 31
0.0
  0
LINE
  5
C1F8
330
C035
100
AcDbEntity
  8
1
  6
Continuous
100
AcDbLine
 10
270.6411989999999
 20
408.825922
 30
0.0
 11
271.1411989999999
 21
408.325922
 31
0.0
  0
LINE
  5
C1F9
330
C035
100
AcDbEntity
  8
1
  6
Continuous
100
AcDbLine
 10
270.6411989999999
 20
401.825922
 30
0.0
 11
267.1411989999999
 21
401.825922
 31
0.0
  0
LINE
  5
C1FA
330
C035
100
AcDbEntity
  8
1
  6
Continuous
100
AcDbLine
 10
270.6411989999999
 20
408.825922
 30
0.0
 11
270.6411989999999
 21
401.825922
 31
0.0
  0
LINE
  5
C1FB
330
C035
100
AcDbEntity
  8
1
  6
Continuous
100
AcDbLine
 10
271.1411989999999
 20
402.3259219999998
 30
0.0
 11
270.6411989999999
 21
401.825922
 31
0.0
  0
ARC
  5
C1FC
330
C035
100
AcDbEntity
  8
1
  6
Continuous
100
AcDbCircle
 10
282.341199
 20
415.8259219999997
 30
0.0
 40
1.0
100
AcDbArc
 50
0.0
 51
90.0
  0
LINE
  5
C1FD
330
C035
100
AcDbEntity
  8
1
  6
Continuous
100
AcDbLine
 10
283.741199
 20
416.5759219999998
 30
0.0
 11
283.741199
 21
411.503522
 31
0.0
  0
LINE
  5
C1FE
330
C035
100
AcDbEntity
  8
1
  6
Continuous
100
AcDbLine
 10
285.5411989999998
 20
411.503522
 30
0.0
 11
283.341199
 21
411.503522
 31
0.0
  0
LINE
  5
C1FF
330
C035
100
AcDbEntity
  8
1
  6
Continuous
100
AcDbLine
 10
283.741199
 20
414.656072
 30
0.0
 11
283.341199
 21
414.656072
 31
0.0
  0
LINE
  5
C200
330
C035
100
AcDbEntity
  8
1
  6
Continuous
100
AcDbLine
 10
287.841199
 20
410.3259219999998
 30
0.0
 11
285.841199
 21
410.3259219999998
 31
0.0
  0
LINE
  5
C201
330
C035
100
AcDbEntity
  8
1
  6
Continuous
100
AcDbLine
 10
285.841199
 20
416.5759219999998
 30
0.0
 11
283.741199
 21
416.5759219999998
 31
0.0
  0
LINE
  5
C202
330
C035
100
AcDbEntity
  8
1
  6
Continuous
100
AcDbLine
 10
285.5411989999998
 20
399.148322
 30
0.0
 11
283.341199
 21
399.148322
 31
0.0
  0
LINE
  5
C203
330
C035
100
AcDbEntity
  8
1
  6
Continuous
100
AcDbLine
 10
287.841199
 20
400.325922
 30
0.0
 11
285.841199
 21
400.325922
 31
0.0
  0
LINE
  5
C204
330
C035
100
AcDbEntity
  8
1
  6
Continuous
100
AcDbLine
 10
287.841199
 20
405.982776
 30
0.0
 11
285.841199
 21
405.982776
 31
0.0
  0
LINE
  5
C205
330
C035
100
AcDbEntity
  8
1
  6
Continuous
100
AcDbLine
 10
287.841199
 20
404.669068
 30
0.0
 11
285.841199
 21
404.669068
 31
0.0
  0
LINE
  5
C206
330
C035
100
AcDbEntity
  8
1
  6
Continuous
100
AcDbLine
 10
285.841199
 20
398.1379219999998
 30
0.0
 11
283.741199
 21
398.1379219999998
 31
0.0
  0
LINE
  5
C207
330
C035
100
AcDbEntity
  8
1
  6
Continuous
100
AcDbLine
 10
285.5411989999998
 20
411.503522
 30
0.0
 11
285.5411989999998
 21
399.148322
 31
0.0
  0
LINE
  5
C208
330
C035
100
AcDbEntity
  8
1
  6
Continuous
100
AcDbLine
 10
283.341199
 20
415.8259219999997
 30
0.0
 11
283.341199
 21
411.503522
 31
0.0
  0
LINE
  5
C209
330
C035
100
AcDbEntity
  8
1
  6
Continuous
100
AcDbLine
 10
287.841199
 20
410.3259219999998
 30
0.0
 11
287.841199
 21
400.325922
 31
0.0
  0
LINE
  5
C20A
330
C035
100
AcDbEntity
  8
1
  6
Continuous
100
AcDbLine
 10
268.1411989999999
 20
418.0259219999999
 30
0.0
 11
267.1411989999999
 21
418.0259219999999
 31
0.0
  0
LINE
  5
C20B
330
C035
100
AcDbEntity
  8
1
  6
Continuous
100
AcDbLine
 10
264.6411989999999
 20
421.325922
 30
0.0
 11
263.1411989999999
 21
418.325922
 31
0.0
  0
LINE
  5
C20C
330
C035
100
AcDbEntity
  8
1
  6
Continuous
100
AcDbLine
 10
266.1411989999999
 20
421.325922
 30
0.0
 11
264.6411989999999
 21
421.325922
 31
0.0
  0
LINE
  5
C20D
330
C035
100
AcDbEntity
  8
1
  6
Continuous
100
AcDbLine
 10
267.1411989999999
 20
421.325922
 30
0.0
 11
266.1411989999999
 21
421.325922
 31
0.0
  0
LINE
  5
C20E
330
C035
100
AcDbEntity
  8
1
  6
Continuous
100
AcDbLine
 10
332.747402
 20
409.825922
 30
0.0
 11
334.2089009999999
 21
409.698058
 31
0.0
  0
LINE
  5
C20F
330
C035
100
AcDbEntity
  8
1
  6
Continuous
100
AcDbLine
 10
331.447402
 20
411.3259219999997
 30
0.0
 11
330.647402
 21
411.3259219999997
 31
0.0
  0
LINE
  5
C210
330
C035
100
AcDbEntity
  8
1
  6
Continuous
100
AcDbLine
 10
332.747402
 20
409.925922
 30
0.0
 11
331.447402
 21
409.925922
 31
0.0
  0
ARC
  5
C211
330
C035
100
AcDbEntity
  8
1
  6
Continuous
100
AcDbCircle
 10
324.0474019999999
 20
405.325922
 30
0.0
 40
12.0
100
AcDbArc
 50
344.506032
 51
15.493968
  0
LINE
  5
C212
330
C035
100
AcDbEntity
  8
1
  6
Continuous
100
AcDbLine
 10
332.747402
 20
400.825922
 30
0.0
 11
334.2089009999999
 21
400.9537869999999
 31
0.0
  0
LINE
  5
C213
330
C035
100
AcDbEntity
  8
1
  6
Continuous
100
AcDbLine
 10
331.447402
 20
399.325922
 30
0.0
 11
330.647402
 21
399.325922
 31
0.0
  0
LINE
  5
C214
330
C035
100
AcDbEntity
  8
1
  6
Continuous
100
AcDbLine
 10
332.747402
 20
400.7259219999999
 30
0.0
 11
331.447402
 21
400.7259219999999
 31
0.0
  0
LINE
  5
C215
330
C035
100
AcDbEntity
  8
1
  6
Continuous
100
AcDbLine
 10
331.447402
 20
405.325922
 30
0.0
 11
332.747402
 21
406.625922
 31
0.0
  0
LINE
  5
C216
330
C035
100
AcDbEntity
  8
1
  6
Continuous
100
AcDbLine
 10
332.747402
 20
405.325922
 30
0.0
 11
331.447402
 21
404.025922
 31
0.0
  0
LINE
  5
C217
330
C035
100
AcDbEntity
  8
4
  6
CENTER
100
AcDbLine
 10
337.747402
 20
405.325922
 30
0.0
 11
327.77259
 21
405.325922
 31
0.0
  0
ARC
  5
C218
330
C035
100
AcDbEntity
  8
1
  6
Continuous
100
AcDbCircle
 10
334.0694509999999
 20
402.547698
 30
0.0
 40
1.6
100
AcDbArc
 50
275.0
 51
344.506032
  0
ARC
  5
C219
330
C035
100
AcDbEntity
  8
1
  6
Continuous
100
AcDbCircle
 10
334.0694509999999
 20
408.1041459999998
 30
0.0
 40
1.6
100
AcDbArc
 50
15.493968
 51
85.0
  0
LINE
  5
C21A
330
C035
100
AcDbEntity
  8
1
  6
Continuous
100
AcDbLine
 10
331.447402
 20
411.3259219999997
 30
0.0
 11
331.447402
 21
399.325922
 31
0.0
  0
LINE
  5
C21B
330
C035
100
AcDbEntity
  8
1
  6
Continuous
100
AcDbLine
 10
332.747402
 20
409.925922
 30
0.0
 11
332.747402
 21
400.7259219999999
 31
0.0
  0
LINE
  5
C21C
330
C035
100
AcDbEntity
  8
1
  6
Continuous
100
AcDbLine
 10
330.647402
 20
411.3259219999997
 30
0.0
 11
330.647402
 21
399.325922
 31
0.0
  0
ARC
  5
C21D
330
C035
100
AcDbEntity
  8
1
  6
Continuous
100
AcDbCircle
 10
369.968025
 20
407.4215979999998
 30
0.0
 40
1.3
100
AcDbArc
 50
15.88085
 51
85.0
  0
ARC
  5
C21E
330
C035
100
AcDbEntity
  8
1
  6
Continuous
100
AcDbCircle
 10
369.968025
 20
403.2075759999998
 30
0.0
 40
1.3
100
AcDbArc
 50
275.0
 51
344.1191499999998
  0
LINE
  5
C21F
330
C035
100
AcDbEntity
  8
4
  6
CENTER
100
AcDbLine
 10
374.1025669999999
 20
405.3145869999998
 30
0.0
 11
360.1478
 21
405.3145869999998
 31
0.0
  0
LINE
  5
C220
330
C035
100
AcDbEntity
  8
1
  6
Continuous
100
AcDbLine
 10
367.9619129999999
 20
412.314587
 30
0.0
 11
362.961913
 21
412.314587
 31
0.0
  0
LINE
  5
C221
330
C035
100
AcDbEntity
  8
1
  6
Continuous
100
AcDbLine
 10
368.961913
 20
409.114587
 30
0.0
 11
368.961913
 21
401.514587
 31
0.0
  0
LINE
  5
C222
330
C035
100
AcDbEntity
  8
1
  6
Continuous
100
AcDbLine
 10
368.961913
 20
401.514587
 30
0.0
 11
367.9619129999999
 21
401.514587
 31
0.0
  0
LINE
  5
C223
330
C035
100
AcDbEntity
  8
1
  6
Continuous
100
AcDbLine
 10
368.961913
 20
405.3145869999998
 30
0.0
 11
367.9619129999999
 21
404.314587
 31
0.0
  0
LINE
  5
C224
330
C035
100
AcDbEntity
  8
1
  6
Continuous
100
AcDbLine
 10
367.9619129999999
 20
405.3145869999998
 30
0.0
 11
368.961913
 21
406.314587
 31
0.0
  0
LINE
  5
C225
330
C035
100
AcDbEntity
  8
1
  6
Continuous
100
AcDbLine
 10
368.961913
 20
409.114587
 30
0.0
 11
367.9619129999999
 21
409.114587
 31
0.0
  0
LINE
  5
C226
330
C035
100
AcDbEntity
  8
1
  6
Continuous
100
AcDbLine
 10
368.961913
 20
408.8145869999998
 30
0.0
 11
370.0813279999999
 21
408.7166509999998
 31
0.0
  0
LINE
  5
C227
330
C035
100
AcDbEntity
  8
1
  6
Continuous
100
AcDbLine
 10
368.961913
 20
401.814587
 30
0.0
 11
370.0813279999999
 21
401.912523
 31
0.0
  0
LINE
  5
C228
330
C035
100
AcDbEntity
  8
1
  6
Continuous
100
AcDbLine
 10
367.9619129999999
 20
398.314587
 30
0.0
 11
362.961913
 21
398.314587
 31
0.0
  0
LINE
  5
C229
330
C035
100
AcDbEntity
  8
1
  6
Continuous
100
AcDbLine
 10
367.9619129999999
 20
412.314587
 30
0.0
 11
367.9619129999999
 21
398.314587
 31
0.0
  0
LINE
  5
C22A
330
C035
100
AcDbEntity
  8
1
  6
Continuous
100
AcDbLine
 10
362.961913
 20
412.314587
 30
0.0
 11
362.961913
 21
398.314587
 31
0.0
  0
ARC
  5
C22B
330
C035
100
AcDbEntity
  8
1
  6
Continuous
100
AcDbCircle
 10
362.561913
 20
405.3145869999998
 30
0.0
 40
9.0
100
AcDbArc
 50
344.1191499999998
 51
15.88085
  0
ARC
  5
C22C
330
C035
100
AcDbEntity
  8
1
  6
Continuous
100
AcDbCircle
 10
624.8096259999997
 20
176.8169499999999
 30
0.0
 40
3.0
100
AcDbArc
 50
180.0
 51
221.409622
  0
ARC
  5
C22D
330
C035
100
AcDbEntity
  8
1
  6
Continuous
100
AcDbCircle
 10
639.409626
 20
176.162961
 30
0.0
 40
1.0
100
AcDbArc
 50
270.0
 51
0.0
  0
LINE
  5
C22E
330
C035
100
AcDbEntity
  8
1
  6
Continuous
100
AcDbLine
 10
633.4096259999999
 20
287.1629609999999
 30
0.0
 11
633.4096259999999
 21
173.1677919999999
 31
0.0
  0
LINE
  5
C22F
330
C035
100
AcDbEntity
  8
1
  6
Continuous
100
AcDbLine
 10
639.409626
 20
298.162961
 30
0.0
 11
639.409626
 21
162.162961
 31
0.0
  0
LINE
  5
C230
330
C035
100
AcDbEntity
  8
1
  6
Continuous
100
AcDbLine
 10
635.409626
 20
301.1629609999999
 30
0.0
 11
635.409626
 21
159.162961
 31
0.0
  0
LINE
  5
C231
330
C035
100
AcDbEntity
  8
1
  6
Continuous
100
AcDbLine
 10
637.9096259999998
 20
301.1629609999999
 30
0.0
 11
637.9096259999998
 21
159.162961
 31
0.0
  0
LINE
  5
C232
330
C035
100
AcDbEntity
  8
1
  6
Continuous
100
AcDbLine
 10
636.409626
 20
301.1629609999999
 30
0.0
 11
636.409626
 21
159.162961
 31
0.0
  0
LINE
  5
C233
330
C035
100
AcDbEntity
  8
1
  6
Continuous
100
AcDbLine
 10
549.5889529999998
 20
160.162961
 30
0.0
 11
545.0889529999998
 21
160.162961
 31
0.0
  0
LINE
  5
C234
330
C035
100
AcDbEntity
  8
1
  6
Continuous
100
AcDbLine
 10
549.5889529999998
 20
171.162961
 30
0.0
 11
545.0889529999998
 21
171.162961
 31
0.0
  0
LINE
  5
C235
330
C035
100
AcDbEntity
  8
4
  6
CENTER
100
AcDbLine
 10
538.448299
 20
166.162961
 30
0.0
 11
552.403066
 21
166.162961
 31
0.0
  0
ARC
  5
C236
330
C035
100
AcDbEntity
  8
1
  6
Continuous
100
AcDbCircle
 10
549.988953
 20
166.162961
 30
0.0
 40
9.0
100
AcDbArc
 50
164.1191499999998
 51
195.88085
  0
LINE
  5
C237
330
C035
100
AcDbEntity
  8
1
  6
Continuous
100
AcDbLine
 10
543.5889529999998
 20
169.662961
 30
0.0
 11
542.4695379999998
 21
169.5650249999999
 31
0.0
  0
ARC
  5
C238
330
C035
100
AcDbEntity
  8
1
  6
Continuous
100
AcDbCircle
 10
542.582841
 20
168.269972
 30
0.0
 40
1.3
100
AcDbArc
 50
95.0
 51
164.1191499999998
  0
LINE
  5
C239
330
C035
100
AcDbEntity
  8
1
  6
Continuous
100
AcDbLine
 10
543.5889529999998
 20
162.662961
 30
0.0
 11
542.4695379999998
 21
162.7608969999998
 31
0.0
  0
ARC
  5
C23A
330
C035
100
AcDbEntity
  8
1
  6
Continuous
100
AcDbCircle
 10
542.582841
 20
164.0559499999999
 30
0.0
 40
1.3
100
AcDbArc
 50
195.88085
 51
265.0
  0
LINE
  5
C23B
330
C035
100
AcDbEntity
  8
1
  6
Continuous
100
AcDbLine
 10
543.5889529999998
 20
162.362961
 30
0.0
 11
544.5889529999998
 21
162.362961
 31
0.0
  0
ARC
  5
C23C
330
C035
100
AcDbEntity
  8
1
  6
Continuous
100
AcDbCircle
 10
545.0889529999998
 20
160.662961
 30
0.0
 40
0.5
100
AcDbArc
 50
180.0
 51
270.0
  0
LINE
  5
C23D
330
C035
100
AcDbEntity
  8
1
  6
Continuous
100
AcDbLine
 10
544.5889529999998
 20
166.162961
 30
0.0
 11
543.5889529999998
 21
165.162961
 31
0.0
  0
LINE
  5
C23E
330
C035
100
AcDbEntity
  8
1
  6
Continuous
100
AcDbLine
 10
543.5889529999998
 20
166.162961
 30
0.0
 11
544.5889529999998
 21
167.162961
 31
0.0
  0
LINE
  5
C23F
330
C035
100
AcDbEntity
  8
1
  6
Continuous
100
AcDbLine
 10
543.5889529999998
 20
169.962961
 30
0.0
 11
544.5889529999998
 21
169.962961
 31
0.0
  0
ARC
  5
C240
330
C035
100
AcDbEntity
  8
1
  6
Continuous
100
AcDbCircle
 10
545.0889529999998
 20
170.662961
 30
0.0
 40
0.5
100
AcDbArc
 50
90.0
 51
180.0
  0
LINE
  5
C241
330
C035
100
AcDbEntity
  8
1
  6
Continuous
100
AcDbLine
 10
544.5889529999998
 20
162.362961
 30
0.0
 11
544.5889529999998
 21
169.962961
 31
0.0
  0
LINE
  5
C242
330
C035
100
AcDbEntity
  8
1
  6
Continuous
100
AcDbLine
 10
544.5889529999998
 20
170.662961
 30
0.0
 11
544.5889529999998
 21
160.662961
 31
0.0
  0
LINE
  5
C243
330
C035
100
AcDbEntity
  8
1
  6
Continuous
100
AcDbLine
 10
543.5889529999998
 20
162.362961
 30
0.0
 11
543.5889529999998
 21
169.962961
 31
0.0
  0
LINE
  5
C244
330
C035
100
AcDbEntity
  8
1
  6
Continuous
100
AcDbLine
 10
549.5889529999998
 20
171.162961
 30
0.0
 11
549.5889529999998
 21
160.162961
 31
0.0
  0
ARC
  5
C245
330
C035
100
AcDbEntity
  8
1
  6
Continuous
100
AcDbCircle
 10
627.8096259999998
 20
179.462701
 30
0.0
 40
7.0
100
AcDbArc
 50
221.409622
 51
265.482908
  0
LINE
  5
C246
330
C035
100
AcDbEntity
  8
1
  6
Continuous
100
AcDbLine
 10
631.409626
 20
163.162961
 30
0.0
 11
631.409626
 21
169.162961
 31
0.0
  0
LINE
  5
C247
330
C035
100
AcDbEntity
  8
1
  6
Continuous
100
AcDbLine
 10
631.909626
 20
169.662961
 30
0.0
 11
631.909626
 21
162.662961
 31
0.0
  0
LINE
  5
C248
330
C035
100
AcDbEntity
  8
1
  6
Continuous
100
AcDbLine
 10
631.909626
 20
162.662961
 30
0.0
 11
635.409626
 21
162.662961
 31
0.0
  0
LINE
  5
C249
330
C035
100
AcDbEntity
  8
1
  6
Continuous
100
AcDbLine
 10
637.9096259999998
 20
159.162961
 30
0.0
 11
639.409626
 21
162.162961
 31
0.0
  0
LINE
  5
C24A
330
C035
100
AcDbEntity
  8
1
  6
Continuous
100
AcDbLine
 10
636.409626
 20
159.162961
 30
0.0
 11
637.9096259999998
 21
159.162961
 31
0.0
  0
LINE
  5
C24B
330
C035
100
AcDbEntity
  8
1
  6
Continuous
100
AcDbLine
 10
636.409626
 20
159.162961
 30
0.0
 11
635.409626
 21
159.162961
 31
0.0
  0
LINE
  5
C24C
330
C035
100
AcDbEntity
  8
1
  6
Continuous
100
AcDbLine
 10
631.409626
 20
163.162961
 30
0.0
 11
631.909626
 21
162.662961
 31
0.0
  0
LINE
  5
C24D
330
C035
100
AcDbEntity
  8
1
  6
Continuous
100
AcDbLine
 10
631.909626
 20
169.662961
 30
0.0
 11
635.409626
 21
169.662961
 31
0.0
  0
ARC
  5
C24E
330
C035
100
AcDbEntity
  8
1
  6
Continuous
100
AcDbCircle
 10
635.409626
 20
275.662961
 30
0.0
 40
103.4999999999999
100
AcDbArc
 50
265.482908
 51
270.0
  0
ARC
  5
C24F
330
C035
100
AcDbEntity
  8
1
  6
Continuous
100
AcDbCircle
 10
634.409626
 20
173.1677919999999
 30
0.0
 40
1.0
100
AcDbArc
 50
180.0
 51
269.4464089999998
  0
LINE
  5
C250
330
C035
100
AcDbEntity
  8
1
  6
Continuous
100
AcDbLine
 10
631.909626
 20
169.662961
 30
0.0
 11
631.409626
 21
169.162961
 31
0.0
  0
LINE
  5
C251
330
C035
100
AcDbEntity
  8
4
  6
CENTER
100
AcDbLine
 10
629.3653859999998
 20
166.162961
 30
0.0
 11
640.562573
 21
166.162961
 31
0.0
  0
ARC
  5
C252
330
C035
100
AcDbEntity
  8
1
  6
Continuous
100
AcDbCircle
 10
650.4096259999998
 20
269.4497579999999
 30
0.0
 40
10.0
100
AcDbArc
 50
135.0
 51
180.0
  0
ARC
  5
C253
330
C035
100
AcDbEntity
  8
1
  6
Continuous
100
AcDbCircle
 10
635.409626
 20
275.662961
 30
0.0
 40
9.4
100
AcDbArc
 50
45.0
 51
64.815663
  0
ARC
  5
C254
330
C035
100
AcDbEntity
  8
5
  6
PHANTOM
100
AcDbCircle
 10
650.4096259999998
 20
281.876165
 30
0.0
 40
10.0
100
AcDbArc
 50
180.0
 51
225.0
  0
LINE
  5
C255
330
C035
100
AcDbEntity
  8
5
  6
PHANTOM
100
AcDbLine
 10
641.5811989999999
 20
268.077175
 30
0.0
 11
686.6748679999998
 21
222.983506
 31
0.0
  0
ARC
  5
C256
330
C035
100
AcDbEntity
  8
1
  6
Continuous
100
AcDbCircle
 10
620.2096259999997
 20
264.1629609999998
 30
0.0
 40
1.0
100
AcDbArc
 50
180.0
 51
270.0
  0
ARC
  5
C257
330
C035
100
AcDbEntity
  8
1
  6
Continuous
100
AcDbCircle
 10
628.409626
 20
264.1629609999998
 30
0.0
 40
1.0
100
AcDbArc
 50
180.0
 51
270.0
  0
LINE
  5
C258
330
C035
100
AcDbEntity
  8
1
  6
Continuous
100
AcDbLine
 10
640.409626
 20
269.9497579999999
 30
0.0
 11
640.409626
 21
176.162961
 31
0.0
  0
LINE
  5
C259
330
C035
100
AcDbEntity
  8
1
  6
Continuous
100
AcDbLine
 10
631.409626
 20
260.7124989999999
 30
0.0
 11
631.409626
 21
202.662961
 31
0.0
  0
ARC
  5
C25A
330
C035
100
AcDbEntity
  8
1
  6
Continuous
100
AcDbCircle
 10
624.8096259999997
 20
196.662961
 30
0.0
 40
3.0
100
AcDbArc
 50
90.0
 51
180.0
  0
LINE
  5
C25B
330
C035
100
AcDbEntity
  8
1
  6
Continuous
100
AcDbLine
 10
621.809626
 20
196.662961
 30
0.0
 11
621.809626
 21
176.8169499999999
 31
0.0
  0
LINE
  5
C25C
330
C035
100
AcDbEntity
  8
1
  6
Continuous
100
AcDbLine
 10
624.8096259999997
 20
199.662961
 30
0.0
 11
628.409626
 21
199.662961
 31
0.0
  0
ARC
  5
C25D
330
C035
100
AcDbEntity
  8
1
  6
Continuous
100
AcDbCircle
 10
628.409626
 20
202.662961
 30
0.0
 40
3.0
100
AcDbArc
 50
270.0
 51
0.0
  0
LINE
  5
C25E
330
C035
100
AcDbEntity
  8
1
  6
Continuous
100
AcDbLine
 10
628.959164
 20
263.162961
 30
0.0
 11
620.2096259999997
 21
263.162961
 31
0.0
  0
LINE
  5
C25F
330
C035
100
AcDbEntity
  8
1
  6
Continuous
100
AcDbLine
 10
628.959164
 20
263.162961
 30
0.0
 11
631.409626
 21
260.7124989999999
 31
0.0
  0
LINE
  5
C260
330
C035
100
AcDbEntity
  8
1
  6
Continuous
100
AcDbLine
 10
549.5889529999998
 20
300.162961
 30
0.0
 11
545.0889529999998
 21
300.162961
 31
0.0
  0
LINE
  5
C261
330
C035
100
AcDbEntity
  8
4
  6
CENTER
100
AcDbLine
 10
538.448299
 20
294.162961
 30
0.0
 11
552.403066
 21
294.162961
 31
0.0
  0
LINE
  5
C262
330
C035
100
AcDbEntity
  8
1
  6
Continuous
100
AcDbLine
 10
549.5889529999998
 20
289.1629609999998
 30
0.0
 11
545.0889529999998
 21
289.1629609999998
 31
0.0
  0
LINE
  5
C263
330
C035
100
AcDbEntity
  8
1
  6
Continuous
100
AcDbLine
 10
543.5889529999998
 20
294.162961
 30
0.0
 11
544.5889529999998
 21
295.1629609999999
 31
0.0
  0
LINE
  5
C264
330
C035
100
AcDbEntity
  8
1
  6
Continuous
100
AcDbLine
 10
544.5889529999998
 20
294.162961
 30
0.0
 11
543.5889529999998
 21
293.1629609999998
 31
0.0
  0
LINE
  5
C265
330
C035
100
AcDbEntity
  8
1
  6
Continuous
100
AcDbLine
 10
543.5889529999998
 20
297.9629609999999
 30
0.0
 11
544.5889529999998
 21
297.9629609999999
 31
0.0
  0
ARC
  5
C266
330
C035
100
AcDbEntity
  8
1
  6
Continuous
100
AcDbCircle
 10
542.582841
 20
296.2699719999998
 30
0.0
 40
1.3
100
AcDbArc
 50
95.0
 51
164.1191499999998
  0
LINE
  5
C267
330
C035
100
AcDbEntity
  8
1
  6
Continuous
100
AcDbLine
 10
543.5889529999998
 20
297.6629609999998
 30
0.0
 11
542.4695379999998
 21
297.565025
 31
0.0
  0
LINE
  5
C268
330
C035
100
AcDbEntity
  8
1
  6
Continuous
100
AcDbLine
 10
543.5889529999998
 20
290.3629609999999
 30
0.0
 11
544.5889529999998
 21
290.3629609999999
 31
0.0
  0
ARC
  5
C269
330
C035
100
AcDbEntity
  8
1
  6
Continuous
100
AcDbCircle
 10
542.582841
 20
292.0559499999999
 30
0.0
 40
1.3
100
AcDbArc
 50
195.88085
 51
265.0
  0
LINE
  5
C26A
330
C035
100
AcDbEntity
  8
1
  6
Continuous
100
AcDbLine
 10
543.5889529999998
 20
290.6629609999999
 30
0.0
 11
542.4695379999998
 21
290.760897
 31
0.0
  0
LINE
  5
C26B
330
C035
100
AcDbEntity
  8
1
  6
Continuous
100
AcDbLine
 10
544.5889529999998
 20
297.9629609999999
 30
0.0
 11
544.5889529999998
 21
290.3629609999999
 31
0.0
  0
LINE
  5
C26C
330
C035
100
AcDbEntity
  8
1
  6
Continuous
100
AcDbLine
 10
543.5889529999998
 20
297.9629609999999
 30
0.0
 11
543.5889529999998
 21
290.3629609999999
 31
0.0
  0
ARC
  5
C26D
330
C035
100
AcDbEntity
  8
1
  6
Continuous
100
AcDbCircle
 10
549.988953
 20
294.162961
 30
0.0
 40
9.0
100
AcDbArc
 50
164.1191499999998
 51
195.88085
  0
ARC
  5
C26E
330
C035
100
AcDbEntity
  8
1
  6
Continuous
100
AcDbCircle
 10
545.0889529999998
 20
299.6629609999999
 30
0.0
 40
0.5
100
AcDbArc
 50
90.0
 51
180.0
  0
ARC
  5
C26F
330
C035
100
AcDbEntity
  8
1
  6
Continuous
100
AcDbCircle
 10
545.0889529999998
 20
289.662961
 30
0.0
 40
0.5
100
AcDbArc
 50
180.0
 51
270.0
  0
LINE
  5
C270
330
C035
100
AcDbEntity
  8
1
  6
Continuous
100
AcDbLine
 10
544.5889529999998
 20
289.662961
 30
0.0
 11
544.5889529999998
 21
299.6629609999999
 31
0.0
  0
ARC
  5
C271
330
C035
100
AcDbEntity
  8
1
  6
Continuous
100
AcDbCircle
 10
568.4814139999997
 20
278.441216
 30
0.0
 40
1.6
100
AcDbArc
 50
95.0
 51
164.5060319999998
  0
LINE
  5
C272
330
C035
100
AcDbEntity
  8
4
  6
CENTER
100
AcDbLine
 10
564.8034629999997
 20
275.6629919999999
 30
0.0
 11
574.2235299999999
 21
275.6629919999999
 31
0.0
  0
ARC
  5
C273
330
C035
100
AcDbEntity
  8
1
  6
Continuous
100
AcDbCircle
 10
568.4814139999997
 20
272.884768
 30
0.0
 40
1.6
100
AcDbArc
 50
195.4939679999999
 51
265.0
  0
LINE
  5
C274
330
C035
100
AcDbEntity
  8
1
  6
Continuous
100
AcDbLine
 10
569.8034629999997
 20
274.362992
 30
0.0
 11
571.103463
 21
275.6629919999999
 31
0.0
  0
LINE
  5
C275
330
C035
100
AcDbEntity
  8
1
  6
Continuous
100
AcDbLine
 10
569.8034629999997
 20
275.6629919999999
 30
0.0
 11
571.103463
 21
276.9629919999998
 31
0.0
  0
LINE
  5
C276
330
C035
100
AcDbEntity
  8
1
  6
Continuous
100
AcDbLine
 10
569.8034629999997
 20
280.1629919999999
 30
0.0
 11
568.3419639999997
 21
280.035128
 31
0.0
  0
LINE
  5
C277
330
C035
100
AcDbEntity
  8
1
  6
Continuous
100
AcDbLine
 10
571.103463
 20
281.662992
 30
0.0
 11
571.903463
 21
281.662992
 31
0.0
  0
LINE
  5
C278
330
C035
100
AcDbEntity
  8
1
  6
Continuous
100
AcDbLine
 10
569.8034629999997
 20
280.262992
 30
0.0
 11
571.103463
 21
280.262992
 31
0.0
  0
LINE
  5
C279
330
C035
100
AcDbEntity
  8
1
  6
Continuous
100
AcDbLine
 10
569.8034629999997
 20
271.1629919999999
 30
0.0
 11
568.3419639999997
 21
271.2908569999999
 31
0.0
  0
LINE
  5
C27A
330
C035
100
AcDbEntity
  8
1
  6
Continuous
100
AcDbLine
 10
571.103463
 20
269.6629919999999
 30
0.0
 11
571.903463
 21
269.6629919999999
 31
0.0
  0
LINE
  5
C27B
330
C035
100
AcDbEntity
  8
1
  6
Continuous
100
AcDbLine
 10
569.8034629999997
 20
271.062992
 30
0.0
 11
571.103463
 21
271.062992
 31
0.0
  0
LINE
  5
C27C
330
C035
100
AcDbEntity
  8
1
  6
Continuous
100
AcDbLine
 10
571.103463
 20
281.662992
 30
0.0
 11
571.103463
 21
269.6629919999999
 31
0.0
  0
LINE
  5
C27D
330
C035
100
AcDbEntity
  8
1
  6
Continuous
100
AcDbLine
 10
569.8034629999997
 20
280.262992
 30
0.0
 11
569.8034629999997
 21
271.062992
 31
0.0
  0
LINE
  5
C27E
330
C035
100
AcDbEntity
  8
1
  6
Continuous
100
AcDbLine
 10
571.903463
 20
281.662992
 30
0.0
 11
571.903463
 21
269.6629919999999
 31
0.0
  0
ARC
  5
C27F
330
C035
100
AcDbEntity
  8
1
  6
Continuous
100
AcDbCircle
 10
578.503463
 20
275.6629919999999
 30
0.0
 40
12.0
100
AcDbArc
 50
164.5060319999998
 51
195.4939679999999
  0
LINE
  5
C280
330
C035
100
AcDbEntity
  8
1
  6
Continuous
100
AcDbLine
 10
549.5889529999998
 20
289.1629609999998
 30
0.0
 11
549.5889529999998
 21
300.162961
 31
0.0
  0
LINE
  5
C281
330
C035
100
AcDbEntity
  8
1
  6
Continuous
100
AcDbLine
 10
617.009626
 20
287.962961
 30
0.0
 11
617.009626
 21
285.405747
 31
0.0
  0
LINE
  5
C282
330
C035
100
AcDbEntity
  8
1
  6
Continuous
100
AcDbLine
 10
619.2096259999997
 20
286.362835
 30
0.0
 11
619.2096259999997
 21
264.1629609999998
 31
0.0
  0
LINE
  5
C283
330
C035
100
AcDbEntity
  8
4
  6
CENTER
100
AcDbLine
 10
613.153894
 20
275.662961
 30
0.0
 11
640.562573
 21
275.662961
 31
0.0
  0
LINE
  5
C284
330
C035
100
AcDbEntity
  8
1
  6
Continuous
100
AcDbLine
 10
614.7096259999997
 20
280.6629609999998
 30
0.0
 11
614.7096259999997
 21
270.6629609999998
 31
0.0
  0
LINE
  5
C285
330
C035
100
AcDbEntity
  8
1
  6
Continuous
100
AcDbLine
 10
618.809626
 20
269.7629609999999
 30
0.0
 11
618.7096259999997
 21
269.7629609999999
 31
0.0
  0
LINE
  5
C286
330
C035
100
AcDbEntity
  8
1
  6
Continuous
100
AcDbLine
 10
614.7096259999997
 20
270.6629609999998
 30
0.0
 11
616.709626
 21
270.6629609999998
 31
0.0
  0
LINE
  5
C287
330
C035
100
AcDbEntity
  8
1
  6
Continuous
100
AcDbLine
 10
618.809626
 20
281.5629609999998
 30
0.0
 11
618.7096259999997
 21
281.5629609999998
 31
0.0
  0
LINE
  5
C288
330
C035
100
AcDbEntity
  8
1
  6
Continuous
100
AcDbLine
 10
619.009626
 20
284.323215
 30
0.0
 11
619.2096259999997
 21
284.323215
 31
0.0
  0
ARC
  5
C289
330
C035
100
AcDbEntity
  8
1
  6
Continuous
100
AcDbCircle
 10
619.009626
 20
284.123215
 30
0.0
 40
0.2
100
AcDbArc
 50
90.0
 51
180.0
  0
LINE
  5
C28A
330
C035
100
AcDbEntity
  8
1
  6
Continuous
100
AcDbLine
 10
614.7096259999997
 20
276.319815
 30
0.0
 11
616.709626
 21
276.319815
 31
0.0
  0
LINE
  5
C28B
330
C035
100
AcDbEntity
  8
1
  6
Continuous
100
AcDbLine
 10
614.7096259999997
 20
275.006107
 30
0.0
 11
616.709626
 21
275.006107
 31
0.0
  0
LINE
  5
C28C
330
C035
100
AcDbEntity
  8
1
  6
Continuous
100
AcDbLine
 10
614.7096259999997
 20
280.6629609999998
 30
0.0
 11
616.709626
 21
280.6629609999998
 31
0.0
  0
LINE
  5
C28D
330
C035
100
AcDbEntity
  8
1
  6
Continuous
100
AcDbLine
 10
616.709626
 20
285.405747
 30
0.0
 11
618.7096259999997
 21
285.405747
 31
0.0
  0
LINE
  5
C28E
330
C035
100
AcDbEntity
  8
1
  6
Continuous
100
AcDbLine
 10
616.709626
 20
264.4129609999998
 30
0.0
 11
618.7096259999997
 21
264.4129609999998
 31
0.0
  0
ARC
  5
C28F
330
C035
100
AcDbEntity
  8
1
  6
Continuous
100
AcDbCircle
 10
619.0658759999998
 20
265.9129609999999
 30
0.0
 40
0.25625
100
AcDbArc
 50
180.0
 51
257.319617
  0
LINE
  5
C290
330
C035
100
AcDbEntity
  8
1
  6
Continuous
100
AcDbLine
 10
619.2096259999997
 20
265.6629609999999
 30
0.0
 11
619.009626
 21
265.6629609999999
 31
0.0
  0
LINE
  5
C291
330
C035
100
AcDbEntity
  8
1
  6
Continuous
100
AcDbLine
 10
618.7096259999997
 20
285.405747
 30
0.0
 11
618.7096259999997
 21
264.4129609999998
 31
0.0
  0
LINE
  5
C292
330
C035
100
AcDbEntity
  8
1
  6
Continuous
100
AcDbLine
 10
616.709626
 20
285.405747
 30
0.0
 11
616.709626
 21
264.4129609999998
 31
0.0
  0
LINE
  5
C293
330
C035
100
AcDbEntity
  8
1
  6
Continuous
100
AcDbLine
 10
618.809626
 20
284.123215
 30
0.0
 11
618.809626
 21
265.9129609999999
 31
0.0
  0
LINE
  5
C294
330
C035
100
AcDbEntity
  8
5
  6
PHANTOM
100
AcDbLine
 10
640.409626
 20
284.0629609999999
 30
0.0
 11
640.409626
 21
281.876165
 31
0.0
  0
ARC
  5
C295
330
C035
100
AcDbEntity
  8
5
  6
PHANTOM
100
AcDbCircle
 10
644.409626
 20
270.9056019999998
 30
0.0
 40
4.0
100
AcDbArc
 50
180.0
 51
225.0
  0
ARC
  5
C296
330
C035
100
AcDbEntity
  8
5
  6
PHANTOM
100
AcDbCircle
 10
639.409626
 20
284.0629609999999
 30
0.0
 40
1.0
100
AcDbArc
 50
0.0
 51
90.0
  0
LINE
  5
C297
330
C035
100
AcDbEntity
  8
1
  6
Continuous
100
AcDbLine
 10
627.409626
 20
274.6629609999998
 30
0.0
 11
627.409626
 21
264.1629609999998
 31
0.0
  0
LINE
  5
C298
330
C035
100
AcDbEntity
  8
1
  6
Continuous
100
AcDbLine
 10
635.409626
 20
288.162961
 30
0.0
 11
617.209626
 21
288.162961
 31
0.0
  0
ARC
  5
C299
330
C035
100
AcDbEntity
  8
1
  6
Continuous
100
AcDbCircle
 10
617.209626
 20
287.962961
 30
0.0
 40
0.2
100
AcDbArc
 50
90.0
 51
180.0
  0
ARC
  5
C29A
330
C035
100
AcDbEntity
  8
1
  6
Continuous
100
AcDbCircle
 10
617.209626
 20
286.562835
 30
0.0
 40
0.2
100
AcDbArc
 50
180.0
 51
270.0
  0
LINE
  5
C29B
330
C035
100
AcDbEntity
  8
1
  6
Continuous
100
AcDbLine
 10
617.209626
 20
286.362835
 30
0.0
 11
619.2096259999997
 21
286.362835
 31
0.0
  0
LINE
  5
C29C
330
C035
100
AcDbEntity
  8
1
  6
Continuous
100
AcDbLine
 10
631.409626
 20
291.1629609999998
 30
0.0
 11
631.409626
 21
297.1629609999999
 31
0.0
  0
LINE
  5
C29D
330
C035
100
AcDbEntity
  8
1
  6
Continuous
100
AcDbLine
 10
631.909626
 20
297.6629609999998
 30
0.0
 11
631.909626
 21
290.6629609999999
 31
0.0
  0
LINE
  5
C29E
330
C035
100
AcDbEntity
  8
1
  6
Continuous
100
AcDbLine
 10
631.909626
 20
290.6629609999999
 30
0.0
 11
635.409626
 21
290.6629609999999
 31
0.0
  0
LINE
  5
C29F
330
C035
100
AcDbEntity
  8
1
  6
Continuous
100
AcDbLine
 10
631.409626
 20
291.1629609999998
 30
0.0
 11
631.909626
 21
290.6629609999999
 31
0.0
  0
LINE
  5
C2A0
330
C035
100
AcDbEntity
  8
1
  6
Continuous
100
AcDbLine
 10
631.909626
 20
297.6629609999998
 30
0.0
 11
635.409626
 21
297.6629609999998
 31
0.0
  0
LINE
  5
C2A1
330
C035
100
AcDbEntity
  8
1
  6
Continuous
100
AcDbLine
 10
637.9096259999998
 20
301.1629609999999
 30
0.0
 11
639.409626
 21
298.162961
 31
0.0
  0
LINE
  5
C2A2
330
C035
100
AcDbEntity
  8
1
  6
Continuous
100
AcDbLine
 10
636.409626
 20
301.1629609999999
 30
0.0
 11
637.9096259999998
 21
301.1629609999999
 31
0.0
  0
LINE
  5
C2A3
330
C035
100
AcDbEntity
  8
1
  6
Continuous
100
AcDbLine
 10
636.409626
 20
301.1629609999999
 30
0.0
 11
635.409626
 21
301.1629609999999
 31
0.0
  0
LINE
  5
C2A4
330
C035
100
AcDbEntity
  8
1
  6
Continuous
100
AcDbLine
 10
631.909626
 20
297.6629609999998
 30
0.0
 11
631.409626
 21
297.1629609999999
 31
0.0
  0
LINE
  5
C2A5
330
C035
100
AcDbEntity
  8
4
  6
CENTER
100
AcDbLine
 10
628.6801369999998
 20
294.162961
 30
0.0
 11
640.562573
 21
294.162961
 31
0.0
  0
ARC
  5
C2A6
330
C035
100
AcDbEntity
  8
1
  6
Continuous
100
AcDbCircle
 10
634.409626
 20
287.1629609999999
 30
0.0
 40
1.0
100
AcDbArc
 50
90.0
 51
180.0
  0
LINE
  5
C2A7
330
C035
100
AcDbEntity
  8
5
  6
PHANTOM
100
AcDbLine
 10
643.338558
 20
274.8050969999999
 30
0.0
 11
709.3022849999996
 21
208.8413699999999
 31
0.0
  0
ARC
  5
C2A8
330
C035
100
AcDbEntity
  8
5
  6
PHANTOM
100
AcDbCircle
 10
635.409626
 20
275.662961
 30
0.0
 40
100.5
100
AcDbArc
 50
310.482908
 51
315.0
  0
ARC
  5
C2A9
330
C035
100
AcDbEntity
  8
5
  6
PHANTOM
100
AcDbCircle
 10
682.432227
 20
218.740865
 30
0.0
 40
6.0
100
AcDbArc
 50
315.0
 51
45.0
  0
LINE
  5
C2AA
330
C035
100
AcDbEntity
  8
5
  6
PHANTOM
100
AcDbLine
 10
684.8363900000001
 20
209.83132
 30
0.0
 11
695.2310439999997
 21
199.436666
 31
0.0
  0
LINE
  5
C2AB
330
C035
100
AcDbEntity
  8
5
  6
PHANTOM
100
AcDbLine
 10
684.8363900000001
 20
212.659747
 30
0.0
 11
686.6748679999998
 21
214.4982249999999
 31
0.0
  0
ARC
  5
C2AC
330
C035
100
AcDbEntity
  8
5
  6
PHANTOM
100
AcDbCircle
 10
686.2506039999998
 20
211.2455329999999
 30
0.0
 40
2.0
100
AcDbArc
 50
135.0
 51
225.0
  0
ARC
  5
C2AD
330
C035
100
AcDbEntity
  8
5
  6
PHANTOM
100
AcDbCircle
 10
698.059471
 20
202.265093
 30
0.0
 40
4.0
100
AcDbArc
 50
225.0
 51
310.482908
  0
ARC
  5
C2AE
330
C035
100
AcDbEntity
  8
5
  6
PHANTOM
100
AcDbCircle
 10
708.595178
 20
208.1342639999999
 30
0.0
 40
1.0
100
AcDbArc
 50
315.0
 51
45.0
  0
LINE
  5
C2AF
330
C035
100
AcDbEntity
  8
5
  6
PHANTOM
100
AcDbLine
 10
709.3022849999996
 20
207.427157
 30
0.0
 11
706.4738580000001
 21
204.5987299999999
 31
0.0
  0
LINE
  5
C2B0
330
C035
100
AcDbEntity
  8
1
  6
Continuous
100
AcDbLine
 10
644.884857
 20
278.0671239999999
 30
0.0
 11
643.338558
 21
276.520825
 31
0.0
  0
LINE
  5
C2B1
330
C035
100
AcDbEntity
  8
1
  6
Continuous
100
AcDbLine
 10
642.0564299999997
 20
282.3097649999999
 30
0.0
 11
644.884857
 21
279.4813379999999
 31
0.0
  0
ARC
  5
C2B2
330
C035
100
AcDbEntity
  8
1
  6
Continuous
100
AcDbCircle
 10
644.1777499999998
 20
278.774231
 30
0.0
 40
1.0
100
AcDbArc
 50
315.0
 51
45.0
  0
ENDSEC
  0
SECTION
  2
OBJECTS
  0
DICTIONARY
  5
C023
330
0
100
AcDbDictionary
281
     1
  3
ACAD_CIP_PREVIOUS_PRODUCT_INFO
350
C318
  3
ACAD_COLOR
350
C2FA
  3
ACAD_DETAILVIEWSTYLE
350
C313
  3
ACAD_GROUP
350
C024
  3
ACAD_LAYOUT
350
C030
  3
ACAD_MATERIAL
350
C2C8
  3
ACAD_MLEADERSTYLE
350
C30F
  3
ACAD_MLINESTYLE
350
C02D
  3
ACAD_PLOTSETTINGS
350
C02F
  3
ACAD_PLOTSTYLENAME
350
C2C6
  3
ACAD_SCALELIST
350
C2FD
  3
ACAD_SECTIONVIEWSTYLE
350
C311
  3
ACAD_TABLESTYLE
350
C2FB
  3
ACAD_VISUALSTYLE
350
C2E1
  3
ACDB_RECOMPOSE_DATA
350
C336
  3
AcDbVariableDictionary
350
C329
  3
DWGPROPS
350
C337
  0
DICTIONARY
  5
C319
330
C027
100
AcDbDictionary
280
     1
281
     1
  3
ADSK_XREC_LAYER_RECONCILED
360
C31A
  0
DICTIONARY
  5
C31B
330
C03D
100
AcDbDictionary
280
     1
281
     1
  3
ADSK_XREC_LAYER_RECONCILED
360
C31C
  0
DICTIONARY
  5
C31D
330
C03E
100
AcDbDictionary
280
     1
281
     1
  3
ADSK_XREC_LAYER_RECONCILED
360
C31E
  0
DICTIONARY
  5
C31F
330
C03F
100
AcDbDictionary
280
     1
281
     1
  3
ADSK_XREC_LAYER_RECONCILED
360
C320
  0
DICTIONARY
  5
C321
330
C040
100
AcDbDictionary
280
     1
281
     1
  3
ADSK_XREC_LAYER_RECONCILED
360
C322
  0
DICTIONARY
  5
C323
330
C041
100
AcDbDictionary
280
     1
281
     1
  3
ADSK_XREC_LAYER_RECONCILED
360
C324
  0
DICTIONARY
  5
C325
330
C042
100
AcDbDictionary
280
     1
281
     1
  3
ADSK_XREC_LAYER_RECONCILED
360
C326
  0
DICTIONARY
  5
C327
330
C043
100
AcDbDictionary
280
     1
281
     1
  3
ADSK_XREC_LAYER_RECONCILED
360
C328
  0
DICTIONARY
  5
C2C1
330
C035
100
AcDbDictionary
281
     1
  3
ACAD_LAYOUTSELFREF
350
C2C2
  0
DICTIONARY
  5
C2BF
330
C031
100
AcDbDictionary
281
     1
  3
ACAD_LAYOUTSELFREF
350
C2C0
  0
XRECORD
  5
C318
102
{ACAD_REACTORS
330
C023
102
}
330
C023
100
AcDbXrecord
280
     1
300
ACDLT
300
2014
300
ACDLT_F_S
  0
DICTIONARY
  5
C2FA
102
{ACAD_REACTORS
330
C023
102
}
330
C023
100
AcDbDictionary
281
     1
  0
DICTIONARY
  5
C313
102
{ACAD_REACTORS
330
C023
102
}
330
C023
100
AcDbDictionary
281
     1
  3
Imperial24
350
C314
  0
DICTIONARY
  5
C024
102
{ACAD_REACTORS
330
C023
102
}
330
C023
100
AcDbDictionary
281
     1
  0
DICTIONARY
  5
C030
102
{ACAD_REACTORS
330
C023
102
}
330
C023
100
AcDbDictionary
281
     1
  3
Model
350
C315
  3
レイアウト1
350
C316
  0
DICTIONARY
  5
C2C8
102
{ACAD_REACTORS
330
C023
102
}
330
C023
100
AcDbDictionary
281
     1
  3
ByBlock
350
C2D1
  3
ByLayer
350
C2C9
  3
Global
350
C2D9
  0
DICTIONARY
  5
C30F
102
{ACAD_REACTORS
330
C023
102
}
330
C023
100
AcDbDictionary
281
     1
  3
Standard
350
C310
  0
DICTIONARY
  5
C02D
102
{ACAD_REACTORS
330
C023
102
}
330
C023
100
AcDbDictionary
281
     1
  3
STANDARD
350
C02E
  0
DICTIONARY
  5
C02F
102
{ACAD_REACTORS
330
C023
102
}
330
C023
100
AcDbDictionary
281
     1
  0
ACDBDICTIONARYWDFLT
  5
C2C6
102
{ACAD_REACTORS
330
C023
102
}
330
C023
100
AcDbDictionary
281
     1
  3
Normal
350
C2C7
100
AcDbDictionaryWithDefault
340
C2C7
  0
DICTIONARY
  5
C2FD
102
{ACAD_REACTORS
330
C023
102
}
330
C023
100
AcDbDictionary
281
     1
  3
A0
350
C2FE
  3
A1
350
C2FF
  3
A2
350
C300
  3
A3
350
C301
  3
A4
350
C302
  3
A5
350
C303
  3
A6
350
C304
  3
A7
350
C305
  3
A8
350
C306
  3
A9
350
C307
  3
B0
350
C308
  3
B1
350
C309
  3
B2
350
C30A
  3
B3
350
C30B
  3
B4
350
C30C
  3
B5
350
C30D
  3
B6
350
C30E
  0
DICTIONARY
  5
C311
102
{ACAD_REACTORS
330
C023
102
}
330
C023
100
AcDbDictionary
281
     1
  3
Imperial24
350
C312
  0
DICTIONARY
  5
C2FB
102
{ACAD_REACTORS
330
C023
102
}
330
C023
100
AcDbDictionary
281
     1
  3
Standard
350
C2FC
  0
DICTIONARY
  5
C2E1
102
{ACAD_REACTORS
330
C023
102
}
330
C023
100
AcDbDictionary
281
     1
  3
2dWireframe
350
C2E7
  3
Basic
350
C2E6
  3
Brighten
350
C2ED
  3
ColorChange
350
C2F1
  3
Conceptual
350
C2EA
  3
Dim
350
C2EC
  3
EdgeColorOff
350
C2F9
  3
Facepattern
350
C2F0
  3
Flat
350
C2E2
  3
FlatWithEdges
350
C2E3
  3
Gouraud
350
C2E4
  3
GouraudWithEdges
350
C2E5
  3
Hidden
350
C2E9
  3
JitterOff
350
C2F7
  3
Linepattern
350
C2EF
  3
OverhangOff
350
C2F8
  3
Realistic
350
C2EB
  3
Shaded
350
C2F6
  3
Shaded with edges
350
C2F5
  3
Shades of Gray
350
C2F2
  3
Sketchy
350
C2F3
  3
Thicken
350
C2EE
  3
Wireframe
350
C2E8
  3
X-Ray
350
C2F4
  0
XRECORD
  5
C336
102
{ACAD_REACTORS
330
C023
102
}
330
C023
100
AcDbXrecord
280
     1
 90
        1
330
C2FC
  0
DICTIONARY
  5
C329
102
{ACAD_REACTORS
330
C023
102
}
330
C023
100
AcDbDictionary
281
     1
  3
CANNOSCALE
350
C32E
  3
CMLEADERSTYLE
350
C32B
  3
CTABLESTYLE
350
C32A
  3
CVIEWDETAILSTYLE
350
C32C
  3
CVIEWSECTIONSTYLE
350
C32D
  3
DIMASSOC
350
C331
  3
INDEXCTL
350
C330
  3
SORTENTS
350
C32F
  3
XCLIPFRAME
350
C332
  0
XRECORD
  5
C337
102
{ACAD_REACTORS
330
C023
102
}
330
C023
100
AcDbXrecord
280
     1
  1
DWGPROPS COOKIE
  2

  3

  4

  6

  7

  8
Yoshitsune
  9

300
=
301
=
302
=
303
=
304
=
305
=
306
=
307
=
308
=
309
=
 40
0.0000148148148148
 41
2451344.700121991
 42
2457192.643552106
  1

 90
        0
  0
XRECORD
  5
C31A
102
{ACAD_REACTORS
330
C319
102
}
330
C319
100
AcDbXrecord
280
     1
290
     1
  0
XRECORD
  5
C31C
102
{ACAD_REACTORS
330
C31B
102
}
330
C31B
100
AcDbXrecord
280
     1
290
     1
  0
XRECORD
  5
C31E
102
{ACAD_REACTORS
330
C31D
102
}
330
C31D
100
AcDbXrecord
280
     1
290
     1
  0
XRECORD
  5
C320
102
{ACAD_REACTORS
330
C31F
102
}
330
C31F
100
AcDbXrecord
280
     1
290
     1
  0
XRECORD
  5
C322
102
{ACAD_REACTORS
330
C321
102
}
330
C321
100
AcDbXrecord
280
     1
290
     1
  0
XRECORD
  5
C324
102
{ACAD_REACTORS
330
C323
102
}
330
C323
100
AcDbXrecord
280
     1
290
     1
  0
XRECORD
  5
C326
102
{ACAD_REACTORS
330
C325
102
}
330
C325
100
AcDbXrecord
280
     1
290
     1
  0
XRECORD
  5
C328
102
{ACAD_REACTORS
330
C327
102
}
330
C327
100
AcDbXrecord
280
     1
290
     1
  0
XRECORD
  5
C2C2
102
{ACAD_REACTORS
330
C2C1
102
}
330
C2C1
100
AcDbXrecord
280
     1
340
C035
  0
XRECORD
  5
C2C0
102
{ACAD_REACTORS
330
C2BF
102
}
330
C2BF
100
AcDbXrecord
280
     1
340
C031
  0
ACDBDETAILVIEWSTYLE
  5
C314
102
{ACAD_XDICTIONARY
360
C36F
102
}
102
{ACAD_REACTORS
330
C313
102
}
330
C313
100
AcDbModelDocViewStyle
 70
     0
  3
Imperial24
290
     0
100
AcDbDetailViewStyle
 70
     0
 71
     0
 90
        3
 71
     1
340
C028
 40
0.24
340
0
 40
0.24
300

 40
0.36
280
     3
 71
     2
340
C02C
 90
       25
 71
     3
340
C028
 40
0.24
 90
        1
 40
0.75
 90
        1
300
%<\AcVar ViewType \f "%tc1">% %<\AcVar ViewDetailId>%\PSCALE %<\AcVar ViewScale \f "%sn">%
 71
     4
340
C02C
 90
       25
340
C02C
 90
       25
280
     0
  0
LAYOUT
  5
C315
102
{ACAD_XDICTIONARY
360
C371
102
}
102
{ACAD_REACTORS
330
C030
102
}
330
C030
100
AcDbPlotSettings
  1

  2
Canon LBP9100C
  4

  6

 40
0.0
 41
0.0
 42
0.0
 43
0.0
 44
0.0
 45
0.0
 46
0.0
 47
0.0
 48
0.0
 49
0.0
140
0.0
141
0.0
142
1.0
143
1.0
 70
  1712
 72
     0
 73
     0
 74
     0
  7

 75
     0
147
1.0
148
0.0
149
0.0
100
AcDbLayout
  1
Model
 70
     1
 71
     0
 10
0.0
 20
0.0
 11
12.0
 21
9.0
 12
0.0
 22
0.0
 32
0.0
 14
0.0
 24
0.0
 34
0.0
 15
0.0
 25
0.0
 35
0.0
146
0.0
 13
0.0
 23
0.0
 33
0.0
 16
1.0
 26
0.0
 36
0.0
 17
0.0
 27
1.0
 37
0.0
 76
     0
330
C035
331
C2BE
  0
LAYOUT
  5
C316
102
{ACAD_XDICTIONARY
360
C373
102
}
102
{ACAD_REACTORS
330
C030
102
}
330
C030
100
AcDbPlotSettings
  1

  2
Canon LBP9100C
  4

  6

 40
0.0
 41
0.0
 42
0.0
 43
0.0
 44
0.0
 45
0.0
 46
0.0
 47
0.0
 48
0.0
 49
0.0
140
0.0
141
0.0
142
1.0
143
1.0
 70
   688
 72
     0
 73
     0
 74
     5
  7

 75
    16
147
1.0
148
0.0
149
0.0
100
AcDbLayout
  1
レイアウト1
 70
     0
 71
     1
 10
0.0
 20
0.0
 11
420.0
 21
297.0
 12
0.0
 22
0.0
 32
0.0
 14
1.000000000000000E+20
 24
1.000000000000000E+20
 34
1.000000000000000E+20
 15
-1.000000000000000E+20
 25
-1.000000000000000E+20
 35
-1.000000000000000E+20
146
0.0
 13
0.0
 23
0.0
 33
0.0
 16
1.0
 26
0.0
 36
0.0
 17
0.0
 27
1.0
 37
0.0
 76
     0
330
C031
  0
MATERIAL
  5
C2D1
102
{ACAD_XDICTIONARY
360
C2D2
102
}
102
{ACAD_REACTORS
330
C2C8
102
}
330
C2C8
100
AcDbMaterial
  1
ByBlock
 72
     0
 43
0.0208333333333333
 43
0.0
 43
0.0
 43
0.0
 43
0.0
 43
0.0208333333333333
 43
0.0
 43
0.0
 43
0.0
 43
0.0
 43
1.0
 43
0.0
 43
0.0
 43
0.0
 43
0.0
 43
1.0
 77
     0
 47
0.0208333333333333
 47
0.0
 47
0.0
 47
0.0
 47
0.0
 47
0.0208333333333333
 47
0.0
 47
0.0
 47
0.0
 47
0.0
 47
1.0
 47
0.0
 47
0.0
 47
0.0
 47
0.0
 47
1.0
171
     0
 49
0.0208333333333333
 49
0.0
 49
0.0
 49
0.0
 49
0.0
 49
0.0208333333333333
 49
0.0
 49
0.0
 49
0.0
 49
0.0
 49
1.0
 49
0.0
 49
0.0
 49
0.0
 49
0.0
 49
1.0
175
     0
142
0.0208333333333333
142
0.0
142
0.0
142
0.0
142
0.0
142
0.0208333333333333
142
0.0
142
0.0
142
0.0
142
0.0
142
1.0
142
0.0
142
0.0
142
0.0
142
0.0
142
1.0
179
     0
144
0.0208333333333333
144
0.0
144
0.0
144
0.0
144
0.0
144
0.0208333333333333
144
0.0
144
0.0
144
0.0
144
0.0
144
1.0
144
0.0
144
0.0
144
0.0
144
0.0
144
1.0
147
0.0208333333333333
147
0.0
147
0.0
147
0.0
147
0.0
147
0.0208333333333333
147
0.0
147
0.0
147
0.0
147
0.0
147
1.0
147
0.0
147
0.0
147
0.0
147
0.0
147
1.0
  0
MATERIAL
  5
C2C9
102
{ACAD_XDICTIONARY
360
C2CA
102
}
102
{ACAD_REACTORS
330
C2C8
102
}
330
C2C8
100
AcDbMaterial
  1
ByLayer
 72
     0
 43
0.0208333333333333
 43
0.0
 43
0.0
 43
0.0
 43
0.0
 43
0.0208333333333333
 43
0.0
 43
0.0
 43
0.0
 43
0.0
 43
1.0
 43
0.0
 43
0.0
 43
0.0
 43
0.0
 43
1.0
 77
     0
 47
0.0208333333333333
 47
0.0
 47
0.0
 47
0.0
 47
0.0
 47
0.0208333333333333
 47
0.0
 47
0.0
 47
0.0
 47
0.0
 47
1.0
 47
0.0
 47
0.0
 47
0.0
 47
0.0
 47
1.0
171
     0
 49
0.0208333333333333
 49
0.0
 49
0.0
 49
0.0
 49
0.0
 49
0.0208333333333333
 49
0.0
 49
0.0
 49
0.0
 49
0.0
 49
1.0
 49
0.0
 49
0.0
 49
0.0
 49
0.0
 49
1.0
175
     0
142
0.0208333333333333
142
0.0
142
0.0
142
0.0
142
0.0
142
0.0208333333333333
142
0.0
142
0.0
142
0.0
142
0.0
142
1.0
142
0.0
142
0.0
142
0.0
142
0.0
142
1.0
179
     0
144
0.0208333333333333
144
0.0
144
0.0
144
0.0
144
0.0
144
0.0208333333333333
144
0.0
144
0.0
144
0.0
144
0.0
144
1.0
144
0.0
144
0.0
144
0.0
144
0.0
144
1.0
147
0.0208333333333333
147
0.0
147
0.0
147
0.0
147
0.0
147
0.0208333333333333
147
0.0
147
0.0
147
0.0
147
0.0
147
1.0
147
0.0
147
0.0
147
0.0
147
0.0
147
1.0
  0
MATERIAL
  5
C2D9
102
{ACAD_XDICTIONARY
360
C2DA
102
}
102
{ACAD_REACTORS
330
C2C8
102
}
330
C2C8
100
AcDbMaterial
  1
Global
 72
     0
 43
0.0208333333333333
 43
0.0
 43
0.0
 43
0.0
 43
0.0
 43
0.0208333333333333
 43
0.0
 43
0.0
 43
0.0
 43
0.0
 43
1.0
 43
0.0
 43
0.0
 43
0.0
 43
0.0
 43
1.0
 77
     0
 47
0.0208333333333333
 47
0.0
 47
0.0
 47
0.0
 47
0.0
 47
0.0208333333333333
 47
0.0
 47
0.0
 47
0.0
 47
0.0
 47
1.0
 47
0.0
 47
0.0
 47
0.0
 47
0.0
 47
1.0
171
     0
 49
0.0208333333333333
 49
0.0
 49
0.0
 49
0.0
 49
0.0
 49
0.0208333333333333
 49
0.0
 49
0.0
 49
0.0
 49
0.0
 49
1.0
 49
0.0
 49
0.0
 49
0.0
 49
0.0
 49
1.0
175
     0
142
0.0208333333333333
142
0.0
142
0.0
142
0.0
142
0.0
142
0.0208333333333333
142
0.0
142
0.0
142
0.0
142
0.0
142
1.0
142
0.0
142
0.0
142
0.0
142
0.0
142
1.0
179
     0
144
0.0208333333333333
144
0.0
144
0.0
144
0.0
144
0.0
144
0.0208333333333333
144
0.0
144
0.0
144
0.0
144
0.0
144
1.0
144
0.0
144
0.0
144
0.0
144
0.0
144
1.0
147
0.0208333333333333
147
0.0
147
0.0
147
0.0
147
0.0
147
0.0208333333333333
147
0.0
147
0.0
147
0.0
147
0.0
147
1.0
147
0.0
147
0.0
147
0.0
147
0.0
147
1.0
  0
MLEADERSTYLE
  5
C310
102
{ACAD_REACTORS
330
C30F
102
}
330
C30F
100
AcDbMLeaderStyle
170
     2
171
     1
172
     0
 90
        2
 40
0.0
 41
0.0
173
     1
 91
-1056964608
340
C02A
 92
       -2
290
     1
 42
0.09
291
     1
 43
0.36
  3
Standard
 44
0.18
300

342
C028
174
     1
178
     6
175
     1
176
     0
 93
-1056964608
 45
0.18
292
     0
297
     0
 46
0.18
 94
-1056964608
 47
1.0
 49
1.0
140
1.0
293
     1
141
0.0
294
     1
177
     0
142
1.0
295
     0
296
     0
143
0.125
1001
ACAD_MLEADERVER
1070
     2
  0
MLINESTYLE
  5
C02E
102
{ACAD_REACTORS
330
C02D
102
}
330
C02D
100
AcDbMlineStyle
  2
STANDARD
 70
     0
  3

 62
   256
 51
90.0
 52
90.0
 71
     2
 49
0.5
 62
   256
  6
BYLAYER
 49
-0.5
 62
   256
  6
BYLAYER
  0
ACDBPLACEHOLDER
  5
C2C7
102
{ACAD_REACTORS
330
C2C6
102
}
330
C2C6
  0
SCALE
  5
C2FE
102
{ACAD_REACTORS
330
C2FD
102
}
330
C2FD
100
AcDbScale
 70
     0
300
1:1
140
1.0
141
1.0
290
     1
  0
SCALE
  5
C2FF
102
{ACAD_REACTORS
330
C2FD
102
}
330
C2FD
100
AcDbScale
 70
     0
300
1/128" = 1'-0"
140
0.0078125
141
12.0
290
     0
  0
SCALE
  5
C300
102
{ACAD_REACTORS
330
C2FD
102
}
330
C2FD
100
AcDbScale
 70
     0
300
1/64" = 1'-0"
140
0.015625
141
12.0
290
     0
  0
SCALE
  5
C301
102
{ACAD_REACTORS
330
C2FD
102
}
330
C2FD
100
AcDbScale
 70
     0
300
1/32" = 1'-0"
140
0.03125
141
12.0
290
     0
  0
SCALE
  5
C302
102
{ACAD_REACTORS
330
C2FD
102
}
330
C2FD
100
AcDbScale
 70
     0
300
1/16" = 1'-0"
140
0.0625
141
12.0
290
     0
  0
SCALE
  5
C303
102
{ACAD_REACTORS
330
C2FD
102
}
330
C2FD
100
AcDbScale
 70
     0
300
3/32" = 1'-0"
140
0.09375
141
12.0
290
     0
  0
SCALE
  5
C304
102
{ACAD_REACTORS
330
C2FD
102
}
330
C2FD
100
AcDbScale
 70
     0
300
1/8" = 1'-0"
140
0.125
141
12.0
290
     0
  0
SCALE
  5
C305
102
{ACAD_REACTORS
330
C2FD
102
}
330
C2FD
100
AcDbScale
 70
     0
300
3/16" = 1'-0"
140
0.1875
141
12.0
290
     0
  0
SCALE
  5
C306
102
{ACAD_REACTORS
330
C2FD
102
}
330
C2FD
100
AcDbScale
 70
     0
300
1/4" = 1'-0"
140
0.25
141
12.0
290
     0
  0
SCALE
  5
C307
102
{ACAD_REACTORS
330
C2FD
102
}
330
C2FD
100
AcDbScale
 70
     0
300
3/8" = 1'-0"
140
0.375
141
12.0
290
     0
  0
SCALE
  5
C308
102
{ACAD_REACTORS
330
C2FD
102
}
330
C2FD
100
AcDbScale
 70
     0
300
1/2" = 1'-0"
140
0.5
141
12.0
290
     0
  0
SCALE
  5
C309
102
{ACAD_REACTORS
330
C2FD
102
}
330
C2FD
100
AcDbScale
 70
     0
300
3/4" = 1'-0"
140
0.75
141
12.0
290
     0
  0
SCALE
  5
C30A
102
{ACAD_REACTORS
330
C2FD
102
}
330
C2FD
100
AcDbScale
 70
     0
300
1" = 1'-0"
140
1.0
141
12.0
290
     0
  0
SCALE
  5
C30B
102
{ACAD_REACTORS
330
C2FD
102
}
330
C2FD
100
AcDbScale
 70
     0
300
1-1/2" = 1'-0"
140
1.5
141
12.0
290
     0
  0
SCALE
  5
C30C
102
{ACAD_REACTORS
330
C2FD
102
}
330
C2FD
100
AcDbScale
 70
     0
300
3" = 1'-0"
140
3.0
141
12.0
290
     0
  0
SCALE
  5
C30D
102
{ACAD_REACTORS
330
C2FD
102
}
330
C2FD
100
AcDbScale
 70
     0
300
6" = 1'-0"
140
6.0
141
12.0
290
     0
  0
SCALE
  5
C30E
102
{ACAD_REACTORS
330
C2FD
102
}
330
C2FD
100
AcDbScale
 70
     0
300
1'-0" = 1'-0"
140
12.0
141
12.0
290
     0
  0
ACDBSECTIONVIEWSTYLE
  5
C312
102
{ACAD_XDICTIONARY
360
C36D
102
}
102
{ACAD_REACTORS
330
C311
102
}
330
C311
100
AcDbModelDocViewStyle
 70
     0
  3
Imperial24
290
     0
100
AcDbSectionViewStyle
 70
     0
 71
     0
 90
       78
 71
     1
340
C028
 40
0.24
340
0
340
0
 40
0.24
300
I, O, Q, S, X, Z
 40
0.48
 90
        3
 40
0.18
 90
        1
 71
     2
340
C02C
 90
       25
340
C02C
 90
       50
 40
0.24
 40
0.0
 40
0.24
 71
     3
340
C028
 40
0.24
 90
        1
 40
0.75
 90
        1
300
%<\AcVar ViewType \f "%tc1">% %<\AcVar ViewSectionStartId>%-%<\AcVar ViewSectionEndId>%\PSCALE %<\AcVar ViewScale \f "%sn">%
 71
     4
300
ANSI31
 40
1.0
 90
        0
290
     0
290
     0
 90
        6
 40
0.0
 40
1.570796326794896
 40
0.2617993877991494
 40
1.308996938995747
 40
-0.2617993877991494
 40
1.832595714594046
  0
TABLESTYLE
  5
C2FC
102
{ACAD_XDICTIONARY
360
C334
102
}
102
{ACAD_REACTORS
330
C2FB
102
}
330
C2FB
100
AcDbTableStyle
  3
Standard
 70
     0
 71
     0
 40
0.06
 41
0.06
280
     0
281
     0
  7
STANDARD
140
0.18
170
     2
 62
     0
 63
     7
283
     0
274
    -2
284
     1
 64
     0
275
    -2
285
     1
 65
     0
276
    -2
286
     1
 66
     0
277
    -2
287
     1
 67
     0
278
    -2
288
     1
 68
     0
279
    -2
289
     1
 69
     0
  7
STANDARD
140
0.25
170
     5
 62
     0
 63
     7
283
     0
274
    -2
284
     1
 64
     0
275
    -2
285
     1
 65
     0
276
    -2
286
     1
 66
     0
277
    -2
287
     1
 67
     0
278
    -2
288
     1
 68
     0
279
    -2
289
     1
 69
     0
  7
STANDARD
140
0.18
170
     5
 62
     0
 63
     7
283
     0
274
    -2
284
     1
 64
     0
275
    -2
285
     1
 65
     0
276
    -2
286
     1
 66
     0
277
    -2
287
     1
 67
     0
278
    -2
288
     1
 68
     0
279
    -2
289
     1
 69
     0
  0
VISUALSTYLE
  5
C2E7
102
{ACAD_XDICTIONARY
360
C345
102
}
102
{ACAD_REACTORS
330
C2E1
102
}
330
C2E1
100
AcDbVisualStyle
  2
2dWireframe
 70
     4
 71
     0
 72
     2
 73
     0
 90
        0
 40
-0.6
 41
-30.0
 62
     5
 63
     7
 74
     1
 91
        4
 64
     7
 65
   257
 75
     1
175
     1
 42
1.0
 92
        0
 66
   257
 43
1.0
 76
     1
 77
     6
 78
     2
 67
     7
 79
     5
170
     0
171
     0
290
     0
174
     0
 93
        1
 44
0.0
173
     0
291
     0
 45
0.0
1001
ACAD
1000
AcDbSavedByObjectVersion
1070
     0
  0
VISUALSTYLE
  5
C2E6
102
{ACAD_XDICTIONARY
360
C343
102
}
102
{ACAD_REACTORS
330
C2E1
102
}
330
C2E1
100
AcDbVisualStyle
  2
Basic
 70
     7
 71
     1
 72
     0
 73
     1
 90
        0
 40
-0.6
 41
-30.0
 62
     5
 63
     7
 74
     0
 91
        4
 64
     7
 65
   257
 75
     1
175
     1
 42
1.0
 92
        8
 66
     7
 43
1.0
 76
     1
 77
     6
 78
     2
 67
     7
 79
     5
170
     0
171
     0
290
     0
174
     0
 93
        1
 44
0.0
173
     0
291
     1
 45
0.0
1001
ACAD
1000
AcDbSavedByObjectVersion
1070
     0
  0
VISUALSTYLE
  5
C2ED
102
{ACAD_XDICTIONARY
360
C351
102
}
102
{ACAD_REACTORS
330
C2E1
102
}
330
C2E1
100
AcDbVisualStyle
  2
Brighten
 70
    12
 71
     2
 72
     2
 73
     0
 90
        0
 40
-0.6
 41
-30.0
 62
     5
 63
     7
 74
     1
 91
        4
 64
     7
 65
   257
 75
     1
175
     1
 42
1.0
 92
        8
 66
     7
 43
1.0
 76
     1
 77
     6
 78
     2
 67
     7
 79
     5
170
     0
171
     0
290
     0
174
     0
 93
        1
 44
50.0
173
     0
291
     1
 45
0.0
1001
ACAD
1000
AcDbSavedByObjectVersion
1070
     0
  0
VISUALSTYLE
  5
C2F1
102
{ACAD_XDICTIONARY
360
C359
102
}
102
{ACAD_REACTORS
330
C2E1
102
}
330
C2E1
100
AcDbVisualStyle
  2
ColorChange
 70
    16
 71
     2
 72
     2
 73
     3
 90
        0
 40
-0.6
 41
-30.0
 62
     5
 63
     8
 74
     1
 91
        4
 64
     7
 65
   257
 75
     1
175
     1
 42
1.0
 92
        8
 66
     8
 43
1.0
 76
     1
 77
     6
 78
     2
 67
     7
 79
     5
170
     0
171
     0
290
     0
174
     0
 93
        1
 44
0.0
173
     0
291
     1
 45
0.0
1001
ACAD
1000
AcDbSavedByObjectVersion
1070
     0
  0
VISUALSTYLE
  5
C2EA
102
{ACAD_XDICTIONARY
360
C34B
102
}
102
{ACAD_REACTORS
330
C2E1
102
}
330
C2E1
100
AcDbVisualStyle
  2
Conceptual
 70
     9
 71
     3
 72
     2
 73
     0
 90
        0
 40
-0.6
 41
-30.0
 62
     5
 63
     7
 74
     2
 91
        2
 64
     7
 65
   257
 75
     1
175
     1
 42
179.0
 92
        8
 66
     7
 43
1.0
 76
     1
 77
     6
 78
     2
 67
     7
 79
     3
170
     0
171
     0
290
     0
174
     0
 93
        1
 44
0.0
173
     0
291
     0
 45
0.0
1001
ACAD
1000
AcDbSavedByObjectVersion
1070
     0
  0
VISUALSTYLE
  5
C2EC
102
{ACAD_XDICTIONARY
360
C34F
102
}
102
{ACAD_REACTORS
330
C2E1
102
}
330
C2E1
100
AcDbVisualStyle
  2
Dim
 70
    11
 71
     2
 72
     2
 73
     0
 90
        0
 40
-0.6
 41
-30.0
 62
     5
 63
     7
 74
     1
 91
        4
 64
     7
 65
   257
 75
     1
175
     1
 42
1.0
 92
        8
 66
     7
 43
1.0
 76
     1
 77
     6
 78
     2
 67
     7
 79
     5
170
     0
171
     0
290
     0
174
     0
 93
        1
 44
-50.0
173
     0
291
     1
 45
0.0
1001
ACAD
1000
AcDbSavedByObjectVersion
1070
     0
  0
VISUALSTYLE
  5
C2F9
102
{ACAD_XDICTIONARY
360
C369
102
}
102
{ACAD_REACTORS
330
C2E1
102
}
330
C2E1
100
AcDbVisualStyle
  2
EdgeColorOff
 70
    22
 71
     2
 72
     2
 73
     0
 90
        0
 40
-0.6
 41
-30.0
 62
     5
 63
     7
 74
     1
 91
        4
 64
     7
 65
   257
 75
     1
175
     1
 42
1.0
 92
        8
 66
     7
 43
1.0
 76
     1
 77
     6
 78
     2
 67
     7
 79
     5
170
     0
171
     0
290
     0
174
     0
 93
        1
 44
0.0
173
     0
291
     1
 45
0.0
1001
ACAD
1000
AcDbSavedByObjectVersion
1070
     0
  0
VISUALSTYLE
  5
C2F0
102
{ACAD_XDICTIONARY
360
C357
102
}
102
{ACAD_REACTORS
330
C2E1
102
}
330
C2E1
100
AcDbVisualStyle
  2
Facepattern
 70
    15
 71
     2
 72
     2
 73
     0
 90
        0
 40
-0.6
 41
-30.0
 62
     5
 63
     7
 74
     1
 91
        4
 64
     7
 65
   257
 75
     1
175
     1
 42
1.0
 92
        8
 66
     7
 43
1.0
 76
     1
 77
     6
 78
     2
 67
     7
 79
     5
170
     0
171
     0
290
     0
174
     0
 93
        1
 44
0.0
173
     0
291
     1
 45
0.0
1001
ACAD
1000
AcDbSavedByObjectVersion
1070
     0
  0
VISUALSTYLE
  5
C2E2
102
{ACAD_XDICTIONARY
360
C33B
102
}
102
{ACAD_REACTORS
330
C2E1
102
}
330
C2E1
100
AcDbVisualStyle
  2
Flat
 70
     0
 71
     2
 72
     1
 73
     1
 90
        2
 40
-0.6
 41
30.0
 62
     5
 63
     7
 74
     0
 91
        0
 64
     7
 65
   257
 75
     1
175
     1
 42
1.0
 92
        8
 66
     7
 43
1.0
 76
     1
 77
     6
 78
     2
 67
     7
 79
     5
170
     0
171
     0
290
     0
174
     0
 93
       13
 44
0.0
173
     0
291
     1
 45
0.0
1001
ACAD
1000
AcDbSavedByObjectVersion
1070
     0
  0
VISUALSTYLE
  5
C2E3
102
{ACAD_XDICTIONARY
360
C33D
102
}
102
{ACAD_REACTORS
330
C2E1
102
}
330
C2E1
100
AcDbVisualStyle
  2
FlatWithEdges
 70
     1
 71
     2
 72
     1
 73
     1
 90
        2
 40
-0.6
 41
30.0
 62
     5
 63
     7
 74
     1
 91
        0
 64
     7
 65
   257
 75
     1
175
     1
 42
1.0
 92
        0
 66
   257
 43
1.0
 76
     1
 77
     6
 78
     2
 67
     7
 79
     5
170
     0
171
     0
290
     0
174
     0
 93
       13
 44
0.0
173
     0
291
     1
 45
0.0
1001
ACAD
1000
AcDbSavedByObjectVersion
1070
     0
  0
VISUALSTYLE
  5
C2E4
102
{ACAD_XDICTIONARY
360
C33F
102
}
102
{ACAD_REACTORS
330
C2E1
102
}
330
C2E1
100
AcDbVisualStyle
  2
Gouraud
 70
     2
 71
     2
 72
     2
 73
     1
 90
        2
 40
-0.6
 41
30.0
 62
     5
 63
     7
 74
     0
 91
        0
 64
     7
 65
   257
 75
     1
175
     1
 42
1.0
 92
        0
 66
     7
 43
1.0
 76
     1
 77
     6
 78
     2
 67
     7
 79
     5
170
     0
171
     0
290
     0
174
     0
 93
       13
 44
0.0
173
     0
291
     1
 45
0.0
1001
ACAD
1000
AcDbSavedByObjectVersion
1070
     0
  0
VISUALSTYLE
  5
C2E5
102
{ACAD_XDICTIONARY
360
C341
102
}
102
{ACAD_REACTORS
330
C2E1
102
}
330
C2E1
100
AcDbVisualStyle
  2
GouraudWithEdges
 70
     3
 71
     2
 72
     2
 73
     1
 90
        2
 40
-0.6
 41
30.0
 62
     5
 63
     7
 74
     1
 91
        0
 64
     7
 65
   257
 75
     1
175
     1
 42
1.0
 92
        0
 66
   257
 43
1.0
 76
     1
 77
     6
 78
     2
 67
     7
 79
     5
170
     0
171
     0
290
     0
174
     0
 93
       13
 44
0.0
173
     0
291
     1
 45
0.0
1001
ACAD
1000
AcDbSavedByObjectVersion
1070
     0
  0
VISUALSTYLE
  5
C2E9
102
{ACAD_XDICTIONARY
360
C349
102
}
102
{ACAD_REACTORS
330
C2E1
102
}
330
C2E1
100
AcDbVisualStyle
  2
Hidden
 70
     6
 71
     1
 72
     2
 73
     2
 90
        0
 40
-0.6
 41
-30.0
 62
     5
 63
     7
 74
     2
 91
        2
 64
     7
 65
   257
 75
     2
175
     1
 42
40.0
 92
        0
 66
   257
 43
1.0
 76
     1
 77
     6
 78
     2
 67
     7
 79
     3
170
     0
171
     0
290
     0
174
     0
 93
        1
 44
0.0
173
     0
291
     0
 45
0.0
1001
ACAD
1000
AcDbSavedByObjectVersion
1070
     0
  0
VISUALSTYLE
  5
C2F7
102
{ACAD_XDICTIONARY
360
C365
102
}
102
{ACAD_REACTORS
330
C2E1
102
}
330
C2E1
100
AcDbVisualStyle
  2
JitterOff
 70
    20
 71
     2
 72
     2
 73
     0
 90
        0
 40
-0.6
 41
-30.0
 62
     5
 63
     7
 74
     1
 91
        4
 64
     7
 65
   257
 75
     1
175
     1
 42
1.0
 92
       10
 66
     7
 43
1.0
 76
     1
 77
     6
 78
     2
 67
     7
 79
     5
170
     0
171
     0
290
     0
174
     0
 93
        1
 44
0.0
173
     0
291
     1
 45
0.0
1001
ACAD
1000
AcDbSavedByObjectVersion
1070
     0
  0
VISUALSTYLE
  5
C2EF
102
{ACAD_XDICTIONARY
360
C355
102
}
102
{ACAD_REACTORS
330
C2E1
102
}
330
C2E1
100
AcDbVisualStyle
  2
Linepattern
 70
    14
 71
     2
 72
     2
 73
     0
 90
        0
 40
-0.6
 41
-30.0
 62
     5
 63
     7
 74
     1
 91
        4
 64
     7
 65
   257
 75
     7
175
     7
 42
1.0
 92
        8
 66
     7
 43
1.0
 76
     1
 77
     6
 78
     2
 67
     7
 79
     5
170
     0
171
     0
290
     0
174
     0
 93
        1
 44
0.0
173
     0
291
     1
 45
0.0
1001
ACAD
1000
AcDbSavedByObjectVersion
1070
     0
  0
VISUALSTYLE
  5
C2F8
102
{ACAD_XDICTIONARY
360
C367
102
}
102
{ACAD_REACTORS
330
C2E1
102
}
330
C2E1
100
AcDbVisualStyle
  2
OverhangOff
 70
    21
 71
     2
 72
     2
 73
     0
 90
        0
 40
-0.6
 41
-30.0
 62
     5
 63
     7
 74
     1
 91
        4
 64
     7
 65
   257
 75
     1
175
     1
 42
1.0
 92
        9
 66
     7
 43
1.0
 76
     1
 77
     6
 78
     2
 67
     7
 79
     5
170
     0
171
     0
290
     0
174
     0
 93
        1
 44
0.0
173
     0
291
     1
 45
0.0
1001
ACAD
1000
AcDbSavedByObjectVersion
1070
     0
  0
VISUALSTYLE
  5
C2EB
102
{ACAD_XDICTIONARY
360
C34D
102
}
102
{ACAD_REACTORS
330
C2E1
102
}
330
C2E1
100
AcDbVisualStyle
  2
Realistic
 70
     8
 71
     2
 72
     3
 73
     0
 90
        2
 40
-0.6
 41
30.0
 62
     5
 63
     7
 74
     0
 91
        0
 64
     7
 65
   257
 75
     1
175
     1
 42
1.0
 92
        8
 66
   257
 43
1.0
 76
     1
 77
     6
 78
     2
 67
     7
 79
     3
170
     0
171
     0
290
     0
174
     0
 93
       13
 44
0.0
173
     0
291
     0
 45
0.0
1001
ACAD
1000
AcDbSavedByObjectVersion
1070
     0
  0
VISUALSTYLE
  5
C2F6
102
{ACAD_XDICTIONARY
360
C363
102
}
102
{ACAD_REACTORS
330
C2E1
102
}
330
C2E1
100
AcDbVisualStyle
  2
Shaded
 70
    27
 71
     2
 72
     2
 73
     1
 90
        2
 40
-0.6
 41
30.0
 62
     5
 63
     7
 74
     0
 91
        4
 64
     7
 65
   257
 75
     1
175
     1
 42
1.0
 92
        8
 66
   257
 43
1.0
 76
     1
 77
     6
 78
     2
 67
     8
 79
     3
170
     0
171
     0
290
     0
174
     0
 93
        5
 44
0.0
173
     0
291
     0
 45
0.0
1001
ACAD
1000
AcDbSavedByObjectVersion
1070
     0
  0
VISUALSTYLE
  5
C2F5
102
{ACAD_XDICTIONARY
360
C361
102
}
102
{ACAD_REACTORS
330
C2E1
102
}
330
C2E1
100
AcDbVisualStyle
  2
Shaded with edges
 70
    26
 71
     2
 72
     2
 73
     1
 90
        2
 40
-0.6
 41
30.0
 62
     5
 63
     7
 74
     1
 91
       10
 64
     7
 65
   257
 75
     2
175
     1
 42
1.0
 92
        8
 66
   257
 43
1.0
 76
     1
 77
     6
 78
     2
 67
     7
 79
     3
170
     0
171
     0
290
     0
174
     0
 93
        5
 44
0.0
173
     0
291
     0
 45
0.0
1001
ACAD
1000
AcDbSavedByObjectVersion
1070
     0
  0
VISUALSTYLE
  5
C2F2
102
{ACAD_XDICTIONARY
360
C35B
102
}
102
{ACAD_REACTORS
330
C2E1
102
}
330
C2E1
100
AcDbVisualStyle
  2
Shades of Gray
 70
    23
 71
     2
 72
     2
 73
     3
 90
        0
 40
-0.6
 41
-30.0
 62
     5
 63
     7
 74
     2
 91
        2
 64
     7
 65
     7
 75
     1
175
     1
 42
40.0
 92
        8
 66
     7
 43
1.0
 76
     1
 77
     6
 78
     2
 67
     7
 79
     3
170
     0
171
     0
290
     0
174
     0
 93
        1
 44
0.0
173
     0
291
     0
 45
0.0
1001
ACAD
1000
AcDbSavedByObjectVersion
1070
     0
  0
VISUALSTYLE
  5
C2F3
102
{ACAD_XDICTIONARY
360
C35D
102
}
102
{ACAD_REACTORS
330
C2E1
102
}
330
C2E1
100
AcDbVisualStyle
  2
Sketchy
 70
    24
 71
     1
 72
     2
 73
     2
 90
        0
 40
-0.6
 41
-30.0
 62
     5
 63
     7
 74
     2
 91
        2
 64
     7
 65
     7
 75
     1
175
     1
 42
40.0
 92
       11
 66
     7
 43
1.0
 76
     1
 77
     6
 78
     2
 67
     7
 79
     6
170
     0
171
     0
290
     0
174
     0
 93
        1
 44
0.0
173
     0
291
     0
 45
0.0
1001
ACAD
1000
AcDbSavedByObjectVersion
1070
     0
  0
VISUALSTYLE
  5
C2EE
102
{ACAD_XDICTIONARY
360
C353
102
}
102
{ACAD_REACTORS
330
C2E1
102
}
330
C2E1
100
AcDbVisualStyle
  2
Thicken
 70
    13
 71
     2
 72
     2
 73
     0
 90
        0
 40
-0.6
 41
-30.0
 62
     5
 63
     7
 74
     1
 91
        4
 64
     7
 65
   257
 75
     1
175
     1
 42
1.0
 92
       12
 66
     7
 43
1.0
 76
     1
 77
     6
 78
     2
 67
     7
 79
     5
170
     0
171
     0
290
     0
174
     0
 93
        1
 44
0.0
173
     0
291
     1
 45
0.0
1001
ACAD
1000
AcDbSavedByObjectVersion
1070
     0
  0
VISUALSTYLE
  5
C2E8
102
{ACAD_XDICTIONARY
360
C347
102
}
102
{ACAD_REACTORS
330
C2E1
102
}
330
C2E1
100
AcDbVisualStyle
  2
Wireframe
 70
     5
 71
     0
 72
     2
 73
     0
 90
        0
 40
-0.6
 41
-30.0
 62
     5
 63
     7
 74
     1
 91
        4
 64
     7
 65
   257
 75
     1
175
     1
 42
1.0
 92
        0
 66
   257
 43
1.0
 76
     1
 77
     6
 78
     2
 67
     7
 79
     3
170
     0
171
     0
290
     0
174
     0
 93
        1
 44
0.0
173
     0
291
     0
 45
0.0
1001
ACAD
1000
AcDbSavedByObjectVersion
1070
     0
  0
VISUALSTYLE
  5
C2F4
102
{ACAD_XDICTIONARY
360
C35F
102
}
102
{ACAD_REACTORS
330
C2E1
102
}
330
C2E1
100
AcDbVisualStyle
  2
X-Ray
 70
    25
 71
     2
 72
     2
 73
     1
 90
        1
 40
0.5
 41
-30.0
 62
     5
 63
     7
 74
     1
 91
        0
 64
     7
 65
   257
 75
     1
175
     1
 42
1.0
 92
        8
 66
     7
 43
1.0
 76
     1
 77
     6
 78
     2
 67
     7
 79
     3
170
     0
171
     0
290
     0
174
     0
 93
       13
 44
0.0
173
     0
291
     0
 45
0.0
1001
ACAD
1000
AcDbSavedByObjectVersion
1070
     0
  0
DICTIONARYVAR
  5
C32E
102
{ACAD_REACTORS
330
C329
102
}
330
C329
100
DictionaryVariables
280
     0
  1
1:1
  0
DICTIONARYVAR
  5
C32B
102
{ACAD_REACTORS
330
C329
102
}
330
C329
100
DictionaryVariables
280
     0
  1
STANDARD
  0
DICTIONARYVAR
  5
C32A
102
{ACAD_REACTORS
330
C329
102
}
330
C329
100
DictionaryVariables
280
     0
  1
STANDARD
  0
DICTIONARYVAR
  5
C32C
102
{ACAD_REACTORS
330
C329
102
}
330
C329
100
DictionaryVariables
280
     0
  1
Imperial24
  0
DICTIONARYVAR
  5
C32D
102
{ACAD_REACTORS
330
C329
102
}
330
C329
100
DictionaryVariables
280
     0
  1
Imperial24
  0
DICTIONARYVAR
  5
C331
102
{ACAD_REACTORS
330
C329
102
}
330
C329
100
DictionaryVariables
280
     0
  1
1
  0
DICTIONARYVAR
  5
C330
102
{ACAD_REACTORS
330
C329
102
}
330
C329
100
DictionaryVariables
280
     0
  1
0
  0
DICTIONARYVAR
  5
C32F
102
{ACAD_REACTORS
330
C329
102
}
330
C329
100
DictionaryVariables
280
     0
  1
127
  0
DICTIONARYVAR
  5
C332
102
{ACAD_REACTORS
330
C329
102
}
330
C329
100
DictionaryVariables
280
     0
  1
2
  0
DICTIONARY
  5
C36F
330
C314
100
AcDbDictionary
280
     1
281
     1
  3
ACAD_XREC_ROUNDTRIP
360
C370
  0
DICTIONARY
  5
C371
330
C315
100
AcDbDictionary
280
     1
281
     1
  3
ACAD_XREC_ROUNDTRIP
360
C372
  0
DICTIONARY
  5
C373
330
C316
100
AcDbDictionary
280
     1
281
     1
  3
ACAD_XREC_ROUNDTRIP
360
C374
  0
DICTIONARY
  5
C2D2
330
C2D1
100
AcDbDictionary
280
     1
281
     1
  3
ACAD_XREC_ROUNDTRIP
360
C339
  3
BUMPTILE
360
C2D4
  3
DIFFUSETILE
360
C2D3
  3
OPACITYTILE
360
C2D7
  3
REFLECTIONTILE
360
C2D6
  3
REFRACTIONTILE
360
C2D8
  3
SPECULARTILE
360
C2D5
  0
DICTIONARY
  5
C2CA
330
C2C9
100
AcDbDictionary
280
     1
281
     1
  3
ACAD_XREC_ROUNDTRIP
360
C338
  3
BUMPTILE
360
C2CC
  3
DIFFUSETILE
360
C2CB
  3
OPACITYTILE
360
C2CF
  3
REFLECTIONTILE
360
C2CE
  3
REFRACTIONTILE
360
C2D0
  3
SPECULARTILE
360
C2CD
  0
DICTIONARY
  5
C2DA
330
C2D9
100
AcDbDictionary
280
     1
281
     1
  3
ACAD_XREC_ROUNDTRIP
360
C33A
  3
BUMPTILE
360
C2DC
  3
DIFFUSETILE
360
C2DB
  3
OPACITYTILE
360
C2DF
  3
REFLECTIONTILE
360
C2DE
  3
REFRACTIONTILE
360
C2E0
  3
SPECULARTILE
360
C2DD
  0
DICTIONARY
  5
C36D
330
C312
100
AcDbDictionary
280
     1
281
     1
  3
ACAD_XREC_ROUNDTRIP
360
C36E
  0
DICTIONARY
  5
C334
330
C2FC
100
AcDbDictionary
280
     1
281
     1
  3
ACAD_ROUNDTRIP_2008_TABLESTYLE_CELLSTYLEMAP
360
C335
  3
ACAD_XREC_ROUNDTRIP
360
C36B
  0
DICTIONARY
  5
C345
330
C2E7
100
AcDbDictionary
280
     1
281
     1
  3
ACAD_XREC_ROUNDTRIP
360
C346
  0
DICTIONARY
  5
C343
330
C2E6
100
AcDbDictionary
280
     1
281
     1
  3
ACAD_XREC_ROUNDTRIP
360
C344
  0
DICTIONARY
  5
C351
330
C2ED
100
AcDbDictionary
280
     1
281
     1
  3
ACAD_XREC_ROUNDTRIP
360
C352
  0
DICTIONARY
  5
C359
330
C2F1
100
AcDbDictionary
280
     1
281
     1
  3
ACAD_XREC_ROUNDTRIP
360
C35A
  0
DICTIONARY
  5
C34B
330
C2EA
100
AcDbDictionary
280
     1
281
     1
  3
ACAD_XREC_ROUNDTRIP
360
C34C
  0
DICTIONARY
  5
C34F
330
C2EC
100
AcDbDictionary
280
     1
281
     1
  3
ACAD_XREC_ROUNDTRIP
360
C350
  0
DICTIONARY
  5
C369
330
C2F9
100
AcDbDictionary
280
     1
281
     1
  3
ACAD_XREC_ROUNDTRIP
360
C36A
  0
DICTIONARY
  5
C357
330
C2F0
100
AcDbDictionary
280
     1
281
     1
  3
ACAD_XREC_ROUNDTRIP
360
C358
  0
DICTIONARY
  5
C33B
330
C2E2
100
AcDbDictionary
280
     1
281
     1
  3
ACAD_XREC_ROUNDTRIP
360
C33C
  0
DICTIONARY
  5
C33D
330
C2E3
100
AcDbDictionary
280
     1
281
     1
  3
ACAD_XREC_ROUNDTRIP
360
C33E
  0
DICTIONARY
  5
C33F
330
C2E4
100
AcDbDictionary
280
     1
281
     1
  3
ACAD_XREC_ROUNDTRIP
360
C340
  0
DICTIONARY
  5
C341
330
C2E5
100
AcDbDictionary
280
     1
281
     1
  3
ACAD_XREC_ROUNDTRIP
360
C342
  0
DICTIONARY
  5
C349
330
C2E9
100
AcDbDictionary
280
     1
281
     1
  3
ACAD_XREC_ROUNDTRIP
360
C34A
  0
DICTIONARY
  5
C365
330
C2F7
100
AcDbDictionary
280
     1
281
     1
  3
ACAD_XREC_ROUNDTRIP
360
C366
  0
DICTIONARY
  5
C355
330
C2EF
100
AcDbDictionary
280
     1
281
     1
  3
ACAD_XREC_ROUNDTRIP
360
C356
  0
DICTIONARY
  5
C367
330
C2F8
100
AcDbDictionary
280
     1
281
     1
  3
ACAD_XREC_ROUNDTRIP
360
C368
  0
DICTIONARY
  5
C34D
330
C2EB
100
AcDbDictionary
280
     1
281
     1
  3
ACAD_XREC_ROUNDTRIP
360
C34E
  0
DICTIONARY
  5
C363
330
C2F6
100
AcDbDictionary
280
     1
281
     1
  3
ACAD_XREC_ROUNDTRIP
360
C364
  0
DICTIONARY
  5
C361
330
C2F5
100
AcDbDictionary
280
     1
281
     1
  3
ACAD_XREC_ROUNDTRIP
360
C362
  0
DICTIONARY
  5
C35B
330
C2F2
100
AcDbDictionary
280
     1
281
     1
  3
ACAD_XREC_ROUNDTRIP
360
C35C
  0
DICTIONARY
  5
C35D
330
C2F3
100
AcDbDictionary
280
     1
281
     1
  3
ACAD_XREC_ROUNDTRIP
360
C35E
  0
DICTIONARY
  5
C353
330
C2EE
100
AcDbDictionary
280
     1
281
     1
  3
ACAD_XREC_ROUNDTRIP
360
C354
  0
DICTIONARY
  5
C347
330
C2E8
100
AcDbDictionary
280
     1
281
     1
  3
ACAD_XREC_ROUNDTRIP
360
C348
  0
DICTIONARY
  5
C35F
330
C2F4
100
AcDbDictionary
280
     1
281
     1
  3
ACAD_XREC_ROUNDTRIP
360
C360
  0
XRECORD
  5
C370
102
{ACAD_REACTORS
330
C36F
102
}
330
C36F
100
AcDbXrecord
280
     1
102
DISPLAYNAME
  1
Imperial24
102
FLAGS
 90
        0
  0
XRECORD
  5
C372
102
{ACAD_REACTORS
330
C371
102
}
330
C371
100
AcDbXrecord
280
     1
102
SHADEPLOT
 70
     0
102
SHADEPLOTRESLEVEL
 70
     2
102
SHADEPLOTCUSTOMDPI
 70
   300
  0
XRECORD
  5
C374
102
{ACAD_REACTORS
330
C373
102
}
330
C373
100
AcDbXrecord
280
     1
102
SHADEPLOT
 70
     0
102
SHADEPLOTRESLEVEL
 70
     2
102
SHADEPLOTCUSTOMDPI
 70
   300
  0
XRECORD
  5
C339
102
{ACAD_REACTORS
330
C2D2
102
}
330
C2D2
100
AcDbXrecord
280
     1
102
MATERIAL
148
0.0
149
0.0
149
0.0
 93
        0
 94
      127
282
     0
 72
     0
 77
     0
171
     0
175
     0
179
     0
273
     0
  0
XRECORD
  5
C2D4
102
{ACAD_REACTORS
330
C2D2
102
}
330
C2D2
100
AcDbXrecord
280
     1
270
     1
271
     1
  0
XRECORD
  5
C2D3
102
{ACAD_REACTORS
330
C2D2
102
}
330
C2D2
100
AcDbXrecord
280
     1
270
     1
271
     1
  0
XRECORD
  5
C2D7
102
{ACAD_REACTORS
330
C2D2
102
}
330
C2D2
100
AcDbXrecord
280
     1
270
     1
271
     1
  0
XRECORD
  5
C2D6
102
{ACAD_REACTORS
330
C2D2
102
}
330
C2D2
100
AcDbXrecord
280
     1
270
     1
271
     1
  0
XRECORD
  5
C2D8
102
{ACAD_REACTORS
330
C2D2
102
}
330
C2D2
100
AcDbXrecord
280
     1
270
     1
271
     1
  0
XRECORD
  5
C2D5
102
{ACAD_REACTORS
330
C2D2
102
}
330
C2D2
100
AcDbXrecord
280
     1
270
     1
271
     1
  0
XRECORD
  5
C338
102
{ACAD_REACTORS
330
C2CA
102
}
330
C2CA
100
AcDbXrecord
280
     1
102
MATERIAL
148
0.0
149
0.0
149
0.0
 93
        0
 94
      127
282
     0
 72
     0
 77
     0
171
     0
175
     0
179
     0
273
     0
  0
XRECORD
  5
C2CC
102
{ACAD_REACTORS
330
C2CA
102
}
330
C2CA
100
AcDbXrecord
280
     1
270
     1
271
     1
  0
XRECORD
  5
C2CB
102
{ACAD_REACTORS
330
C2CA
102
}
330
C2CA
100
AcDbXrecord
280
     1
270
     1
271
     1
  0
XRECORD
  5
C2CF
102
{ACAD_REACTORS
330
C2CA
102
}
330
C2CA
100
AcDbXrecord
280
     1
270
     1
271
     1
  0
XRECORD
  5
C2CE
102
{ACAD_REACTORS
330
C2CA
102
}
330
C2CA
100
AcDbXrecord
280
     1
270
     1
271
     1
  0
XRECORD
  5
C2D0
102
{ACAD_REACTORS
330
C2CA
102
}
330
C2CA
100
AcDbXrecord
280
     1
270
     1
271
     1
  0
XRECORD
  5
C2CD
102
{ACAD_REACTORS
330
C2CA
102
}
330
C2CA
100
AcDbXrecord
280
     1
270
     1
271
     1
  0
XRECORD
  5
C33A
102
{ACAD_REACTORS
330
C2DA
102
}
330
C2DA
100
AcDbXrecord
280
     1
102
MATERIAL
148
0.0
149
0.0
149
0.0
 93
        0
 94
      127
282
     0
 72
     0
 77
     0
171
     0
175
     0
179
     0
273
     0
  0
XRECORD
  5
C2DC
102
{ACAD_REACTORS
330
C2DA
102
}
330
C2DA
100
AcDbXrecord
280
     1
270
     1
271
     1
  0
XRECORD
  5
C2DB
102
{ACAD_REACTORS
330
C2DA
102
}
330
C2DA
100
AcDbXrecord
280
     1
270
     1
271
     1
  0
XRECORD
  5
C2DF
102
{ACAD_REACTORS
330
C2DA
102
}
330
C2DA
100
AcDbXrecord
280
     1
270
     1
271
     1
  0
XRECORD
  5
C2DE
102
{ACAD_REACTORS
330
C2DA
102
}
330
C2DA
100
AcDbXrecord
280
     1
270
     1
271
     1
  0
XRECORD
  5
C2E0
102
{ACAD_REACTORS
330
C2DA
102
}
330
C2DA
100
AcDbXrecord
280
     1
270
     1
271
     1
  0
XRECORD
  5
C2DD
102
{ACAD_REACTORS
330
C2DA
102
}
330
C2DA
100
AcDbXrecord
280
     1
270
     1
271
     1
  0
XRECORD
  5
C36E
102
{ACAD_REACTORS
330
C36D
102
}
330
C36D
100
AcDbXrecord
280
     1
102
DISPLAYNAME
  1
Imperial24
102
FLAGS
 90
        0
  0
CELLSTYLEMAP
  5
C335
102
{ACAD_REACTORS
330
C334
102
}
330
C334
100
AcDbCellStyleMap
 90
        3
300
CELLSTYLE
  1
TABLEFORMAT_BEGIN
 90
        5
170
     1
 91
        0
 92
    32768
 62
   257
 93
        1
300
CONTENTFORMAT
  1
CONTENTFORMAT_BEGIN
 90
        0
 91
        0
 92
      512
 93
        0
300

 40
0.0
140
1.0
 94
        5
 62
     0
340
C028
144
0.25
309
CONTENTFORMAT_END
171
     0
 94
        0
309
TABLEFORMAT_END
  1
CELLSTYLE_BEGIN
 90
        1
 91
        1
300
_TITLE
309
CELLSTYLE_END
300
CELLSTYLE
  1
TABLEFORMAT_BEGIN
 90
        5
170
     1
 91
        0
 92
        0
 62
   257
 93
        1
300
CONTENTFORMAT
  1
CONTENTFORMAT_BEGIN
 90
        0
 91
        0
 92
      512
 93
        0
300

 40
0.0
140
1.0
 94
        5
 62
     0
340
C028
144
0.18
309
CONTENTFORMAT_END
171
     0
 94
        0
309
TABLEFORMAT_END
  1
CELLSTYLE_BEGIN
 90
        2
 91
        1
300
_HEADER
309
CELLSTYLE_END
300
CELLSTYLE
  1
TABLEFORMAT_BEGIN
 90
        5
170
     1
 91
        0
 92
        0
 62
   257
 93
        1
300
CONTENTFORMAT
  1
CONTENTFORMAT_BEGIN
 90
        0
 91
        0
 92
      512
 93
        0
300

 40
0.0
140
1.0
 94
        2
 62
     0
340
C028
144
0.18
309
CONTENTFORMAT_END
171
     0
 94
        0
309
TABLEFORMAT_END
  1
CELLSTYLE_BEGIN
 90
        3
 91
        2
300
_DATA
309
CELLSTYLE_END
  0
XRECORD
  5
C36B
102
{ACAD_REACTORS
330
C334
102
}
330
C334
100
AcDbXrecord
280
     1
102
ACAD_ROUNDTRIP_PRE2007_TABLESTYLE
 90
      512
 91
        0
  1

 92
      512
 93
        0
  2

 94
      512
 95
        0
  3

  0
XRECORD
  5
C346
102
{ACAD_REACTORS
330
C345
102
}
330
C345
100
AcDbXrecord
280
     1
102
RTVSPost2010Prop28
280
     1
102
RTVSPost2010PropOp28
 70
     1
102
RTVSPost2010Prop29
280
     1
102
RTVSPost2010PropOp29
 70
     1
102
RTVSPost2010Prop30
280
     0
102
RTVSPost2010PropOp30
 70
     1
102
RTVSPost2010Prop31
280
     0
102
RTVSPost2010PropOp31
 70
     1
102
RTVSPost2010Prop32
280
     0
102
RTVSPost2010PropOp32
 70
     1
102
RTVSPost2010Prop33
280
     0
102
RTVSPost2010PropOp33
 70
     1
102
RTVSPost2010Prop34
280
     0
102
RTVSPost2010PropOp34
 70
     1
102
RTVSPost2010Prop35
280
     0
102
RTVSPost2010PropOp35
 70
     1
102
RTVSPost2010Prop36
280
     0
102
RTVSPost2010PropOp36
 70
     1
102
RTVSPost2010Prop37
 90
       50
102
RTVSPost2010PropOp37
 70
     1
102
RTVSPost2010Prop38
140
0.0
102
RTVSPost2010PropOp38
 70
     1
102
RTVSPost2010Prop39
140
1.0
102
RTVSPost2010PropOp39
 70
     1
102
RTVSPost2010Prop40
 90
        0
102
RTVSPost2010PropOp40
 70
     1
102
RTVSPost2010Prop41ColorIndex
 90
       18
102
RTVSPost2010Prop41ColorRGB
 90
        0
102
RTVSPost2010PropOp41
 70
     1
102
RTVSPost2010Prop42
 90
       50
102
RTVSPost2010PropOp42
 70
     1
102
RTVSPost2010Prop43
 90
        3
102
RTVSPost2010PropOp43
 70
     1
102
RTVSPost2010Prop44ColorIndex
 90
        5
102
RTVSPost2010Prop44ColorRGB
 90
      255
102
RTVSPost2010PropOp44
 70
     1
102
RTVSPost2010Prop45
280
     0
102
RTVSPost2010PropOp45
 70
     1
102
RTVSPost2010Prop46
 90
       50
102
RTVSPost2010PropOp46
 70
     1
102
RTVSPost2010Prop47
 90
       50
102
RTVSPost2010PropOp47
 70
     1
102
RTVSPost2010Prop48
 90
       50
102
RTVSPost2010PropOp48
 70
     1
102
RTVSPost2010Prop49
280
     0
102
RTVSPost2010PropOp49
 70
     1
102
RTVSPost2010Prop50
 90
       50
102
RTVSPost2010PropOp50
 70
     1
102
RTVSPost2010Prop51ColorIndex
 90
      256
102
RTVSPost2010Prop51ColorRGB
 90
-16777216
102
RTVSPost2010PropOp51
 70
     0
102
RTVSPost2010Prop52
140
1.0
102
RTVSPost2010PropOp52
 70
     0
102
RTVSPost2010Prop53
 90
        2
102
RTVSPost2010PropOp53
 70
     1
102
RTVSPost2010Prop54
  1
strokes_ogs.tif
102
RTVSPost2010PropOp54
 70
     1
102
RTVSPost2010Prop55
280
     0
102
RTVSPost2010PropOp55
 70
     1
102
RTVSPost2010Prop56
140
1.0
102
RTVSPost2010PropOp56
 70
     1
102
RTVSPost2010Prop57
140
1.0
102
RTVSPost2010PropOp57
 70
     1
102
RTVSPropertyOp0
 70
     1
102
RTVSPropertyOp1
 70
     1
102
RTVSPropertyOp2
 70
     1
102
RTVSPropertyOp3
 70
     1
102
RTVSPropertyOp4
 70
     1
102
RTVSPropertyOp5
 70
     1
102
RTVSPropertyOp6
 70
     1
102
RTVSPropertyOp7
 70
     1
102
RTVSPropertyOp8
 70
     1
102
RTVSPropertyOp9
 70
     1
102
RTVSPropertyOp10
 70
     1
102
RTVSPropertyOp11
 70
     1
102
RTVSPropertyOp12
 70
     1
102
RTVSPropertyOp13
 70
     1
102
RTVSPropertyOp14
 70
     1
102
RTVSPropertyOp15
 70
     1
102
RTVSPropertyOp16
 70
     1
102
RTVSPropertyOp17
 70
     1
102
RTVSPropertyOp18
 70
     1
102
RTVSPropertyOp19
 70
     1
102
RTVSPropertyOp20
 70
     1
102
RTVSPropertyOp21
 70
     1
102
RTVSPropertyOp22
 70
     1
102
RTVSPropertyOp23
 70
     1
102
RTVSPropertyOp24
 70
     1
102
RTVSPropertyOp25
 70
     1
102
RTVSPropertyOp26
 70
     1
102
RTVSPropertyOp27
 70
     1
102
RTVSPropertyOp28
 70
     1
102
RTVSPropertyOp29
 70
     1
102
RTVSPropertyOp30
 70
     1
102
RTVSPropertyOp31
 70
     1
102
RTVSPropertyOp32
 70
     1
102
RTVSPropertyOp33
 70
     1
102
RTVSPropertyOp34
 70
     1
102
RTVSPropertyOp35
 70
     1
102
RTVSPropertyOp36
 70
     1
102
RTVSPropertyOp37
 70
     1
102
RTVSPropertyOp38
 70
     1
102
RTVSPropertyOp39
 70
     1
102
RTVSPropertyOp40
 70
     1
102
RTVSPropertyOp41
 70
     1
102
RTVSPropertyOp42
 70
     1
102
RTVSPropertyOp43
 70
     1
102
RTVSPropertyOp44
 70
     1
102
RTVSPropertyOp45
 70
     1
102
RTVSPropertyOp46
 70
     1
102
RTVSPropertyOp47
 70
     1
102
RTVSPropertyOp48
 70
     1
102
RTVSPropertyOp49
 70
     1
102
RTVSPropertyOp50
 70
     1
102
RTVSPropertyOp51
 70
     0
102
RTVSPropertyOp52
 70
     0
102
RTVSPropertyOp53
 70
     1
102
RTVSPropertyOp54
 70
     1
102
RTVSPropertyOp55
 70
     1
102
RTVSPropertyOp56
 70
     1
102
RTVSPropertyOp57
 70
     1
102
RTVSPropertyOp58
 70
     1
102
RTVSPropertyOp59
 70
     1
102
RTVSPropertyOp60
 70
     1
102
RTVSPropertyOp61
 70
     1
102
RTVSPropertyOp62
 70
     1
  0
XRECORD
  5
C344
102
{ACAD_REACTORS
330
C343
102
}
330
C343
100
AcDbXrecord
280
     1
102
RTVSPost2010Prop28
280
     0
102
RTVSPost2010PropOp28
 70
     1
102
RTVSPost2010Prop29
280
     1
102
RTVSPost2010PropOp29
 70
     1
102
RTVSPost2010Prop30
280
     1
102
RTVSPost2010PropOp30
 70
     1
102
RTVSPost2010Prop31
280
     0
102
RTVSPost2010PropOp31
 70
     1
102
RTVSPost2010Prop32
280
     0
102
RTVSPost2010PropOp32
 70
     1
102
RTVSPost2010Prop33
280
     0
102
RTVSPost2010PropOp33
 70
     1
102
RTVSPost2010Prop34
280
     0
102
RTVSPost2010PropOp34
 70
     1
102
RTVSPost2010Prop35
280
     0
102
RTVSPost2010PropOp35
 70
     1
102
RTVSPost2010Prop36
280
     0
102
RTVSPost2010PropOp36
 70
     1
102
RTVSPost2010Prop37
 90
       50
102
RTVSPost2010PropOp37
 70
     1
102
RTVSPost2010Prop38
140
0.0
102
RTVSPost2010PropOp38
 70
     1
102
RTVSPost2010Prop39
140
1.0
102
RTVSPost2010PropOp39
 70
     1
102
RTVSPost2010Prop40
 90
        0
102
RTVSPost2010PropOp40
 70
     1
102
RTVSPost2010Prop41ColorIndex
 90
       18
102
RTVSPost2010Prop41ColorRGB
 90
        0
102
RTVSPost2010PropOp41
 70
     1
102
RTVSPost2010Prop42
 90
       50
102
RTVSPost2010PropOp42
 70
     1
102
RTVSPost2010Prop43
 90
        3
102
RTVSPost2010PropOp43
 70
     1
102
RTVSPost2010Prop44ColorIndex
 90
        5
102
RTVSPost2010Prop44ColorRGB
 90
      255
102
RTVSPost2010PropOp44
 70
     1
102
RTVSPost2010Prop45
280
     0
102
RTVSPost2010PropOp45
 70
     1
102
RTVSPost2010Prop46
 90
       50
102
RTVSPost2010PropOp46
 70
     1
102
RTVSPost2010Prop47
 90
       50
102
RTVSPost2010PropOp47
 70
     1
102
RTVSPost2010Prop48
 90
       50
102
RTVSPost2010PropOp48
 70
     1
102
RTVSPost2010Prop49
280
     0
102
RTVSPost2010PropOp49
 70
     1
102
RTVSPost2010Prop50
 90
       50
102
RTVSPost2010PropOp50
 70
     1
102
RTVSPost2010Prop51ColorIndex
 90
      256
102
RTVSPost2010Prop51ColorRGB
 90
-16777216
102
RTVSPost2010PropOp51
 70
     0
102
RTVSPost2010Prop52
140
1.0
102
RTVSPost2010PropOp52
 70
     0
102
RTVSPost2010Prop53
 90
        2
102
RTVSPost2010PropOp53
 70
     1
102
RTVSPost2010Prop54
  1
strokes_ogs.tif
102
RTVSPost2010PropOp54
 70
     1
102
RTVSPost2010Prop55
280
     0
102
RTVSPost2010PropOp55
 70
     1
102
RTVSPost2010Prop56
140
1.0
102
RTVSPost2010PropOp56
 70
     1
102
RTVSPost2010Prop57
140
1.0
102
RTVSPost2010PropOp57
 70
     1
102
RTVSPropertyOp0
 70
     1
102
RTVSPropertyOp1
 70
     1
102
RTVSPropertyOp2
 70
     1
102
RTVSPropertyOp3
 70
     1
102
RTVSPropertyOp4
 70
     1
102
RTVSPropertyOp5
 70
     1
102
RTVSPropertyOp6
 70
     1
102
RTVSPropertyOp7
 70
     1
102
RTVSPropertyOp8
 70
     1
102
RTVSPropertyOp9
 70
     1
102
RTVSPropertyOp10
 70
     1
102
RTVSPropertyOp11
 70
     1
102
RTVSPropertyOp12
 70
     1
102
RTVSPropertyOp13
 70
     1
102
RTVSPropertyOp14
 70
     1
102
RTVSPropertyOp15
 70
     1
102
RTVSPropertyOp16
 70
     1
102
RTVSPropertyOp17
 70
     1
102
RTVSPropertyOp18
 70
     1
102
RTVSPropertyOp19
 70
     1
102
RTVSPropertyOp20
 70
     1
102
RTVSPropertyOp21
 70
     1
102
RTVSPropertyOp22
 70
     1
102
RTVSPropertyOp23
 70
     1
102
RTVSPropertyOp24
 70
     1
102
RTVSPropertyOp25
 70
     1
102
RTVSPropertyOp26
 70
     1
102
RTVSPropertyOp27
 70
     1
102
RTVSPropertyOp28
 70
     1
102
RTVSPropertyOp29
 70
     1
102
RTVSPropertyOp30
 70
     1
102
RTVSPropertyOp31
 70
     1
102
RTVSPropertyOp32
 70
     1
102
RTVSPropertyOp33
 70
     1
102
RTVSPropertyOp34
 70
     1
102
RTVSPropertyOp35
 70
     1
102
RTVSPropertyOp36
 70
     1
102
RTVSPropertyOp37
 70
     1
102
RTVSPropertyOp38
 70
     1
102
RTVSPropertyOp39
 70
     1
102
RTVSPropertyOp40
 70
     1
102
RTVSPropertyOp41
 70
     1
102
RTVSPropertyOp42
 70
     1
102
RTVSPropertyOp43
 70
     1
102
RTVSPropertyOp44
 70
     1
102
RTVSPropertyOp45
 70
     1
102
RTVSPropertyOp46
 70
     1
102
RTVSPropertyOp47
 70
     1
102
RTVSPropertyOp48
 70
     1
102
RTVSPropertyOp49
 70
     1
102
RTVSPropertyOp50
 70
     1
102
RTVSPropertyOp51
 70
     0
102
RTVSPropertyOp52
 70
     0
102
RTVSPropertyOp53
 70
     1
102
RTVSPropertyOp54
 70
     1
102
RTVSPropertyOp55
 70
     1
102
RTVSPropertyOp56
 70
     1
102
RTVSPropertyOp57
 70
     1
102
RTVSPropertyOp58
 70
     1
102
RTVSPropertyOp59
 70
     1
102
RTVSPropertyOp60
 70
     1
102
RTVSPropertyOp61
 70
     1
102
RTVSPropertyOp62
 70
     1
  0
XRECORD
  5
C352
102
{ACAD_REACTORS
330
C351
102
}
330
C351
100
AcDbXrecord
280
     1
102
RTVSPost2010Prop28
280
     0
102
RTVSPost2010PropOp28
 70
     1
102
RTVSPost2010Prop29
280
     1
102
RTVSPost2010PropOp29
 70
     1
102
RTVSPost2010Prop30
280
     1
102
RTVSPost2010PropOp30
 70
     1
102
RTVSPost2010Prop31
280
     0
102
RTVSPost2010PropOp31
 70
     1
102
RTVSPost2010Prop32
280
     0
102
RTVSPost2010PropOp32
 70
     1
102
RTVSPost2010Prop33
280
     0
102
RTVSPost2010PropOp33
 70
     1
102
RTVSPost2010Prop34
280
     0
102
RTVSPost2010PropOp34
 70
     1
102
RTVSPost2010Prop35
280
     0
102
RTVSPost2010PropOp35
 70
     1
102
RTVSPost2010Prop36
280
     0
102
RTVSPost2010PropOp36
 70
     1
102
RTVSPost2010Prop37
 90
       50
102
RTVSPost2010PropOp37
 70
     1
102
RTVSPost2010Prop38
140
0.0
102
RTVSPost2010PropOp38
 70
     1
102
RTVSPost2010Prop39
140
1.0
102
RTVSPost2010PropOp39
 70
     1
102
RTVSPost2010Prop40
 90
        0
102
RTVSPost2010PropOp40
 70
     1
102
RTVSPost2010Prop41ColorIndex
 90
       18
102
RTVSPost2010Prop41ColorRGB
 90
        0
102
RTVSPost2010PropOp41
 70
     1
102
RTVSPost2010Prop42
 90
       50
102
RTVSPost2010PropOp42
 70
     1
102
RTVSPost2010Prop43
 90
        3
102
RTVSPost2010PropOp43
 70
     1
102
RTVSPost2010Prop44ColorIndex
 90
        5
102
RTVSPost2010Prop44ColorRGB
 90
      255
102
RTVSPost2010PropOp44
 70
     1
102
RTVSPost2010Prop45
280
     0
102
RTVSPost2010PropOp45
 70
     1
102
RTVSPost2010Prop46
 90
       50
102
RTVSPost2010PropOp46
 70
     1
102
RTVSPost2010Prop47
 90
       50
102
RTVSPost2010PropOp47
 70
     1
102
RTVSPost2010Prop48
 90
       50
102
RTVSPost2010PropOp48
 70
     1
102
RTVSPost2010Prop49
280
     0
102
RTVSPost2010PropOp49
 70
     1
102
RTVSPost2010Prop50
 90
       50
102
RTVSPost2010PropOp50
 70
     1
102
RTVSPost2010Prop51ColorIndex
 90
      256
102
RTVSPost2010Prop51ColorRGB
 90
-16777216
102
RTVSPost2010PropOp51
 70
     0
102
RTVSPost2010Prop52
140
1.0
102
RTVSPost2010PropOp52
 70
     0
102
RTVSPost2010Prop53
 90
        2
102
RTVSPost2010PropOp53
 70
     1
102
RTVSPost2010Prop54
  1
strokes_ogs.tif
102
RTVSPost2010PropOp54
 70
     1
102
RTVSPost2010Prop55
280
     0
102
RTVSPost2010PropOp55
 70
     1
102
RTVSPost2010Prop56
140
1.0
102
RTVSPost2010PropOp56
 70
     1
102
RTVSPost2010Prop57
140
1.0
102
RTVSPost2010PropOp57
 70
     1
102
RTVSPropertyOp0
 70
     1
102
RTVSPropertyOp1
 70
     1
102
RTVSPropertyOp2
 70
     1
102
RTVSPropertyOp3
 70
     1
102
RTVSPropertyOp4
 70
     1
102
RTVSPropertyOp5
 70
     1
102
RTVSPropertyOp6
 70
     1
102
RTVSPropertyOp7
 70
     1
102
RTVSPropertyOp8
 70
     1
102
RTVSPropertyOp9
 70
     1
102
RTVSPropertyOp10
 70
     1
102
RTVSPropertyOp11
 70
     1
102
RTVSPropertyOp12
 70
     1
102
RTVSPropertyOp13
 70
     1
102
RTVSPropertyOp14
 70
     1
102
RTVSPropertyOp15
 70
     1
102
RTVSPropertyOp16
 70
     1
102
RTVSPropertyOp17
 70
     1
102
RTVSPropertyOp18
 70
     1
102
RTVSPropertyOp19
 70
     1
102
RTVSPropertyOp20
 70
     1
102
RTVSPropertyOp21
 70
     1
102
RTVSPropertyOp22
 70
     1
102
RTVSPropertyOp23
 70
     1
102
RTVSPropertyOp24
 70
     1
102
RTVSPropertyOp25
 70
     1
102
RTVSPropertyOp26
 70
     1
102
RTVSPropertyOp27
 70
     1
102
RTVSPropertyOp28
 70
     1
102
RTVSPropertyOp29
 70
     1
102
RTVSPropertyOp30
 70
     1
102
RTVSPropertyOp31
 70
     1
102
RTVSPropertyOp32
 70
     1
102
RTVSPropertyOp33
 70
     1
102
RTVSPropertyOp34
 70
     1
102
RTVSPropertyOp35
 70
     1
102
RTVSPropertyOp36
 70
     1
102
RTVSPropertyOp37
 70
     1
102
RTVSPropertyOp38
 70
     1
102
RTVSPropertyOp39
 70
     1
102
RTVSPropertyOp40
 70
     1
102
RTVSPropertyOp41
 70
     1
102
RTVSPropertyOp42
 70
     1
102
RTVSPropertyOp43
 70
     1
102
RTVSPropertyOp44
 70
     1
102
RTVSPropertyOp45
 70
     1
102
RTVSPropertyOp46
 70
     1
102
RTVSPropertyOp47
 70
     1
102
RTVSPropertyOp48
 70
     1
102
RTVSPropertyOp49
 70
     1
102
RTVSPropertyOp50
 70
     1
102
RTVSPropertyOp51
 70
     0
102
RTVSPropertyOp52
 70
     0
102
RTVSPropertyOp53
 70
     1
102
RTVSPropertyOp54
 70
     1
102
RTVSPropertyOp55
 70
     1
102
RTVSPropertyOp56
 70
     1
102
RTVSPropertyOp57
 70
     1
102
RTVSPropertyOp58
 70
     1
102
RTVSPropertyOp59
 70
     1
102
RTVSPropertyOp60
 70
     1
102
RTVSPropertyOp61
 70
     1
102
RTVSPropertyOp62
 70
     1
  0
XRECORD
  5
C35A
102
{ACAD_REACTORS
330
C359
102
}
330
C359
100
AcDbXrecord
280
     1
102
RTVSPost2010Prop28
280
     0
102
RTVSPost2010PropOp28
 70
     1
102
RTVSPost2010Prop29
280
     1
102
RTVSPost2010PropOp29
 70
     1
102
RTVSPost2010Prop30
280
     1
102
RTVSPost2010PropOp30
 70
     1
102
RTVSPost2010Prop31
280
     0
102
RTVSPost2010PropOp31
 70
     1
102
RTVSPost2010Prop32
280
     0
102
RTVSPost2010PropOp32
 70
     1
102
RTVSPost2010Prop33
280
     0
102
RTVSPost2010PropOp33
 70
     1
102
RTVSPost2010Prop34
280
     0
102
RTVSPost2010PropOp34
 70
     1
102
RTVSPost2010Prop35
280
     0
102
RTVSPost2010PropOp35
 70
     1
102
RTVSPost2010Prop36
280
     0
102
RTVSPost2010PropOp36
 70
     1
102
RTVSPost2010Prop37
 90
       50
102
RTVSPost2010PropOp37
 70
     1
102
RTVSPost2010Prop38
140
0.0
102
RTVSPost2010PropOp38
 70
     1
102
RTVSPost2010Prop39
140
1.0
102
RTVSPost2010PropOp39
 70
     1
102
RTVSPost2010Prop40
 90
        0
102
RTVSPost2010PropOp40
 70
     1
102
RTVSPost2010Prop41ColorIndex
 90
       18
102
RTVSPost2010Prop41ColorRGB
 90
        0
102
RTVSPost2010PropOp41
 70
     1
102
RTVSPost2010Prop42
 90
       50
102
RTVSPost2010PropOp42
 70
     1
102
RTVSPost2010Prop43
 90
        3
102
RTVSPost2010PropOp43
 70
     1
102
RTVSPost2010Prop44ColorIndex
 90
        5
102
RTVSPost2010Prop44ColorRGB
 90
      255
102
RTVSPost2010PropOp44
 70
     1
102
RTVSPost2010Prop45
280
     0
102
RTVSPost2010PropOp45
 70
     1
102
RTVSPost2010Prop46
 90
       50
102
RTVSPost2010PropOp46
 70
     1
102
RTVSPost2010Prop47
 90
       50
102
RTVSPost2010PropOp47
 70
     1
102
RTVSPost2010Prop48
 90
       50
102
RTVSPost2010PropOp48
 70
     1
102
RTVSPost2010Prop49
280
     0
102
RTVSPost2010PropOp49
 70
     1
102
RTVSPost2010Prop50
 90
       50
102
RTVSPost2010PropOp50
 70
     1
102
RTVSPost2010Prop51ColorIndex
 90
      256
102
RTVSPost2010Prop51ColorRGB
 90
-16777216
102
RTVSPost2010PropOp51
 70
     0
102
RTVSPost2010Prop52
140
1.0
102
RTVSPost2010PropOp52
 70
     0
102
RTVSPost2010Prop53
 90
        2
102
RTVSPost2010PropOp53
 70
     1
102
RTVSPost2010Prop54
  1
strokes_ogs.tif
102
RTVSPost2010PropOp54
 70
     1
102
RTVSPost2010Prop55
280
     0
102
RTVSPost2010PropOp55
 70
     1
102
RTVSPost2010Prop56
140
1.0
102
RTVSPost2010PropOp56
 70
     1
102
RTVSPost2010Prop57
140
1.0
102
RTVSPost2010PropOp57
 70
     1
102
RTVSPropertyOp0
 70
     1
102
RTVSPropertyOp1
 70
     1
102
RTVSPropertyOp2
 70
     1
102
RTVSPropertyOp3
 70
     1
102
RTVSPropertyOp4
 70
     1
102
RTVSPropertyOp5
 70
     1
102
RTVSPropertyOp6
 70
     1
102
RTVSPropertyOp7
 70
     1
102
RTVSPropertyOp8
 70
     1
102
RTVSPropertyOp9
 70
     1
102
RTVSPropertyOp10
 70
     1
102
RTVSPropertyOp11
 70
     1
102
RTVSPropertyOp12
 70
     1
102
RTVSPropertyOp13
 70
     1
102
RTVSPropertyOp14
 70
     1
102
RTVSPropertyOp15
 70
     1
102
RTVSPropertyOp16
 70
     1
102
RTVSPropertyOp17
 70
     1
102
RTVSPropertyOp18
 70
     1
102
RTVSPropertyOp19
 70
     1
102
RTVSPropertyOp20
 70
     1
102
RTVSPropertyOp21
 70
     1
102
RTVSPropertyOp22
 70
     1
102
RTVSPropertyOp23
 70
     1
102
RTVSPropertyOp24
 70
     1
102
RTVSPropertyOp25
 70
     1
102
RTVSPropertyOp26
 70
     1
102
RTVSPropertyOp27
 70
     1
102
RTVSPropertyOp28
 70
     1
102
RTVSPropertyOp29
 70
     1
102
RTVSPropertyOp30
 70
     1
102
RTVSPropertyOp31
 70
     1
102
RTVSPropertyOp32
 70
     1
102
RTVSPropertyOp33
 70
     1
102
RTVSPropertyOp34
 70
     1
102
RTVSPropertyOp35
 70
     1
102
RTVSPropertyOp36
 70
     1
102
RTVSPropertyOp37
 70
     1
102
RTVSPropertyOp38
 70
     1
102
RTVSPropertyOp39
 70
     1
102
RTVSPropertyOp40
 70
     1
102
RTVSPropertyOp41
 70
     1
102
RTVSPropertyOp42
 70
     1
102
RTVSPropertyOp43
 70
     1
102
RTVSPropertyOp44
 70
     1
102
RTVSPropertyOp45
 70
     1
102
RTVSPropertyOp46
 70
     1
102
RTVSPropertyOp47
 70
     1
102
RTVSPropertyOp48
 70
     1
102
RTVSPropertyOp49
 70
     1
102
RTVSPropertyOp50
 70
     1
102
RTVSPropertyOp51
 70
     0
102
RTVSPropertyOp52
 70
     0
102
RTVSPropertyOp53
 70
     1
102
RTVSPropertyOp54
 70
     1
102
RTVSPropertyOp55
 70
     1
102
RTVSPropertyOp56
 70
     1
102
RTVSPropertyOp57
 70
     1
102
RTVSPropertyOp58
 70
     1
102
RTVSPropertyOp59
 70
     1
102
RTVSPropertyOp60
 70
     1
102
RTVSPropertyOp61
 70
     1
102
RTVSPropertyOp62
 70
     1
  0
XRECORD
  5
C34C
102
{ACAD_REACTORS
330
C34B
102
}
330
C34B
100
AcDbXrecord
280
     1
102
RTVSPost2010Prop28
280
     0
102
RTVSPost2010PropOp28
 70
     1
102
RTVSPost2010Prop29
280
     1
102
RTVSPost2010PropOp29
 70
     1
102
RTVSPost2010Prop30
280
     1
102
RTVSPost2010PropOp30
 70
     1
102
RTVSPost2010Prop31
280
     0
102
RTVSPost2010PropOp31
 70
     1
102
RTVSPost2010Prop32
280
     0
102
RTVSPost2010PropOp32
 70
     1
102
RTVSPost2010Prop33
280
     0
102
RTVSPost2010PropOp33
 70
     1
102
RTVSPost2010Prop34
280
     0
102
RTVSPost2010PropOp34
 70
     1
102
RTVSPost2010Prop35
280
     0
102
RTVSPost2010PropOp35
 70
     1
102
RTVSPost2010Prop36
280
     0
102
RTVSPost2010PropOp36
 70
     1
102
RTVSPost2010Prop37
 90
       50
102
RTVSPost2010PropOp37
 70
     1
102
RTVSPost2010Prop38
140
0.0
102
RTVSPost2010PropOp38
 70
     1
102
RTVSPost2010Prop39
140
1.0
102
RTVSPost2010PropOp39
 70
     1
102
RTVSPost2010Prop40
 90
        0
102
RTVSPost2010PropOp40
 70
     1
102
RTVSPost2010Prop41ColorIndex
 90
       18
102
RTVSPost2010Prop41ColorRGB
 90
        0
102
RTVSPost2010PropOp41
 70
     1
102
RTVSPost2010Prop42
 90
       50
102
RTVSPost2010PropOp42
 70
     1
102
RTVSPost2010Prop43
 90
        3
102
RTVSPost2010PropOp43
 70
     1
102
RTVSPost2010Prop44ColorIndex
 90
        5
102
RTVSPost2010Prop44ColorRGB
 90
      255
102
RTVSPost2010PropOp44
 70
     1
102
RTVSPost2010Prop45
280
     0
102
RTVSPost2010PropOp45
 70
     1
102
RTVSPost2010Prop46
 90
       50
102
RTVSPost2010PropOp46
 70
     1
102
RTVSPost2010Prop47
 90
       50
102
RTVSPost2010PropOp47
 70
     1
102
RTVSPost2010Prop48
 90
       50
102
RTVSPost2010PropOp48
 70
     1
102
RTVSPost2010Prop49
280
     0
102
RTVSPost2010PropOp49
 70
     1
102
RTVSPost2010Prop50
 90
       50
102
RTVSPost2010PropOp50
 70
     1
102
RTVSPost2010Prop51ColorIndex
 90
      256
102
RTVSPost2010Prop51ColorRGB
 90
-16777216
102
RTVSPost2010PropOp51
 70
     0
102
RTVSPost2010Prop52
140
1.0
102
RTVSPost2010PropOp52
 70
     0
102
RTVSPost2010Prop53
 90
        2
102
RTVSPost2010PropOp53
 70
     1
102
RTVSPost2010Prop54
  1
strokes_ogs.tif
102
RTVSPost2010PropOp54
 70
     1
102
RTVSPost2010Prop55
280
     0
102
RTVSPost2010PropOp55
 70
     1
102
RTVSPost2010Prop56
140
1.0
102
RTVSPost2010PropOp56
 70
     1
102
RTVSPost2010Prop57
140
1.0
102
RTVSPost2010PropOp57
 70
     1
102
RTVSPropertyOp0
 70
     1
102
RTVSPropertyOp1
 70
     1
102
RTVSPropertyOp2
 70
     1
102
RTVSPropertyOp3
 70
     1
102
RTVSPropertyOp4
 70
     1
102
RTVSPropertyOp5
 70
     1
102
RTVSPropertyOp6
 70
     1
102
RTVSPropertyOp7
 70
     1
102
RTVSPropertyOp8
 70
     1
102
RTVSPropertyOp9
 70
     1
102
RTVSPropertyOp10
 70
     1
102
RTVSPropertyOp11
 70
     1
102
RTVSPropertyOp12
 70
     1
102
RTVSPropertyOp13
 70
     1
102
RTVSPropertyOp14
 70
     1
102
RTVSPropertyOp15
 70
     1
102
RTVSPropertyOp16
 70
     1
102
RTVSPropertyOp17
 70
     1
102
RTVSPropertyOp18
 70
     1
102
RTVSPropertyOp19
 70
     1
102
RTVSPropertyOp20
 70
     1
102
RTVSPropertyOp21
 70
     1
102
RTVSPropertyOp22
 70
     1
102
RTVSPropertyOp23
 70
     1
102
RTVSPropertyOp24
 70
     1
102
RTVSPropertyOp25
 70
     1
102
RTVSPropertyOp26
 70
     1
102
RTVSPropertyOp27
 70
     1
102
RTVSPropertyOp28
 70
     1
102
RTVSPropertyOp29
 70
     1
102
RTVSPropertyOp30
 70
     1
102
RTVSPropertyOp31
 70
     1
102
RTVSPropertyOp32
 70
     1
102
RTVSPropertyOp33
 70
     1
102
RTVSPropertyOp34
 70
     1
102
RTVSPropertyOp35
 70
     1
102
RTVSPropertyOp36
 70
     1
102
RTVSPropertyOp37
 70
     1
102
RTVSPropertyOp38
 70
     1
102
RTVSPropertyOp39
 70
     1
102
RTVSPropertyOp40
 70
     1
102
RTVSPropertyOp41
 70
     1
102
RTVSPropertyOp42
 70
     1
102
RTVSPropertyOp43
 70
     1
102
RTVSPropertyOp44
 70
     1
102
RTVSPropertyOp45
 70
     1
102
RTVSPropertyOp46
 70
     1
102
RTVSPropertyOp47
 70
     1
102
RTVSPropertyOp48
 70
     1
102
RTVSPropertyOp49
 70
     1
102
RTVSPropertyOp50
 70
     1
102
RTVSPropertyOp51
 70
     0
102
RTVSPropertyOp52
 70
     0
102
RTVSPropertyOp53
 70
     1
102
RTVSPropertyOp54
 70
     1
102
RTVSPropertyOp55
 70
     1
102
RTVSPropertyOp56
 70
     1
102
RTVSPropertyOp57
 70
     1
102
RTVSPropertyOp58
 70
     1
102
RTVSPropertyOp59
 70
     1
102
RTVSPropertyOp60
 70
     1
102
RTVSPropertyOp61
 70
     1
102
RTVSPropertyOp62
 70
     1
  0
XRECORD
  5
C350
102
{ACAD_REACTORS
330
C34F
102
}
330
C34F
100
AcDbXrecord
280
     1
102
RTVSPost2010Prop28
280
     0
102
RTVSPost2010PropOp28
 70
     1
102
RTVSPost2010Prop29
280
     1
102
RTVSPost2010PropOp29
 70
     1
102
RTVSPost2010Prop30
280
     1
102
RTVSPost2010PropOp30
 70
     1
102
RTVSPost2010Prop31
280
     0
102
RTVSPost2010PropOp31
 70
     1
102
RTVSPost2010Prop32
280
     0
102
RTVSPost2010PropOp32
 70
     1
102
RTVSPost2010Prop33
280
     0
102
RTVSPost2010PropOp33
 70
     1
102
RTVSPost2010Prop34
280
     0
102
RTVSPost2010PropOp34
 70
     1
102
RTVSPost2010Prop35
280
     0
102
RTVSPost2010PropOp35
 70
     1
102
RTVSPost2010Prop36
280
     0
102
RTVSPost2010PropOp36
 70
     1
102
RTVSPost2010Prop37
 90
       50
102
RTVSPost2010PropOp37
 70
     1
102
RTVSPost2010Prop38
140
0.0
102
RTVSPost2010PropOp38
 70
     1
102
RTVSPost2010Prop39
140
1.0
102
RTVSPost2010PropOp39
 70
     1
102
RTVSPost2010Prop40
 90
        0
102
RTVSPost2010PropOp40
 70
     1
102
RTVSPost2010Prop41ColorIndex
 90
       18
102
RTVSPost2010Prop41ColorRGB
 90
        0
102
RTVSPost2010PropOp41
 70
     1
102
RTVSPost2010Prop42
 90
       50
102
RTVSPost2010PropOp42
 70
     1
102
RTVSPost2010Prop43
 90
        3
102
RTVSPost2010PropOp43
 70
     1
102
RTVSPost2010Prop44ColorIndex
 90
        5
102
RTVSPost2010Prop44ColorRGB
 90
      255
102
RTVSPost2010PropOp44
 70
     1
102
RTVSPost2010Prop45
280
     0
102
RTVSPost2010PropOp45
 70
     1
102
RTVSPost2010Prop46
 90
       50
102
RTVSPost2010PropOp46
 70
     1
102
RTVSPost2010Prop47
 90
       50
102
RTVSPost2010PropOp47
 70
     1
102
RTVSPost2010Prop48
 90
       50
102
RTVSPost2010PropOp48
 70
     1
102
RTVSPost2010Prop49
280
     0
102
RTVSPost2010PropOp49
 70
     1
102
RTVSPost2010Prop50
 90
       50
102
RTVSPost2010PropOp50
 70
     1
102
RTVSPost2010Prop51ColorIndex
 90
      256
102
RTVSPost2010Prop51ColorRGB
 90
-16777216
102
RTVSPost2010PropOp51
 70
     0
102
RTVSPost2010Prop52
140
1.0
102
RTVSPost2010PropOp52
 70
     0
102
RTVSPost2010Prop53
 90
        2
102
RTVSPost2010PropOp53
 70
     1
102
RTVSPost2010Prop54
  1
strokes_ogs.tif
102
RTVSPost2010PropOp54
 70
     1
102
RTVSPost2010Prop55
280
     0
102
RTVSPost2010PropOp55
 70
     1
102
RTVSPost2010Prop56
140
1.0
102
RTVSPost2010PropOp56
 70
     1
102
RTVSPost2010Prop57
140
1.0
102
RTVSPost2010PropOp57
 70
     1
102
RTVSPropertyOp0
 70
     1
102
RTVSPropertyOp1
 70
     1
102
RTVSPropertyOp2
 70
     1
102
RTVSPropertyOp3
 70
     1
102
RTVSPropertyOp4
 70
     1
102
RTVSPropertyOp5
 70
     1
102
RTVSPropertyOp6
 70
     1
102
RTVSPropertyOp7
 70
     1
102
RTVSPropertyOp8
 70
     1
102
RTVSPropertyOp9
 70
     1
102
RTVSPropertyOp10
 70
     1
102
RTVSPropertyOp11
 70
     1
102
RTVSPropertyOp12
 70
     1
102
RTVSPropertyOp13
 70
     1
102
RTVSPropertyOp14
 70
     1
102
RTVSPropertyOp15
 70
     1
102
RTVSPropertyOp16
 70
     1
102
RTVSPropertyOp17
 70
     1
102
RTVSPropertyOp18
 70
     1
102
RTVSPropertyOp19
 70
     1
102
RTVSPropertyOp20
 70
     1
102
RTVSPropertyOp21
 70
     1
102
RTVSPropertyOp22
 70
     1
102
RTVSPropertyOp23
 70
     1
102
RTVSPropertyOp24
 70
     1
102
RTVSPropertyOp25
 70
     1
102
RTVSPropertyOp26
 70
     1
102
RTVSPropertyOp27
 70
     1
102
RTVSPropertyOp28
 70
     1
102
RTVSPropertyOp29
 70
     1
102
RTVSPropertyOp30
 70
     1
102
RTVSPropertyOp31
 70
     1
102
RTVSPropertyOp32
 70
     1
102
RTVSPropertyOp33
 70
     1
102
RTVSPropertyOp34
 70
     1
102
RTVSPropertyOp35
 70
     1
102
RTVSPropertyOp36
 70
     1
102
RTVSPropertyOp37
 70
     1
102
RTVSPropertyOp38
 70
     1
102
RTVSPropertyOp39
 70
     1
102
RTVSPropertyOp40
 70
     1
102
RTVSPropertyOp41
 70
     1
102
RTVSPropertyOp42
 70
     1
102
RTVSPropertyOp43
 70
     1
102
RTVSPropertyOp44
 70
     1
102
RTVSPropertyOp45
 70
     1
102
RTVSPropertyOp46
 70
     1
102
RTVSPropertyOp47
 70
     1
102
RTVSPropertyOp48
 70
     1
102
RTVSPropertyOp49
 70
     1
102
RTVSPropertyOp50
 70
     1
102
RTVSPropertyOp51
 70
     0
102
RTVSPropertyOp52
 70
     0
102
RTVSPropertyOp53
 70
     1
102
RTVSPropertyOp54
 70
     1
102
RTVSPropertyOp55
 70
     1
102
RTVSPropertyOp56
 70
     1
102
RTVSPropertyOp57
 70
     1
102
RTVSPropertyOp58
 70
     1
102
RTVSPropertyOp59
 70
     1
102
RTVSPropertyOp60
 70
     1
102
RTVSPropertyOp61
 70
     1
102
RTVSPropertyOp62
 70
     1
  0
XRECORD
  5
C36A
102
{ACAD_REACTORS
330
C369
102
}
330
C369
100
AcDbXrecord
280
     1
102
RTVSPost2010Prop28
280
     0
102
RTVSPost2010PropOp28
 70
     1
102
RTVSPost2010Prop29
280
     1
102
RTVSPost2010PropOp29
 70
     1
102
RTVSPost2010Prop30
280
     1
102
RTVSPost2010PropOp30
 70
     1
102
RTVSPost2010Prop31
280
     0
102
RTVSPost2010PropOp31
 70
     1
102
RTVSPost2010Prop32
280
     0
102
RTVSPost2010PropOp32
 70
     1
102
RTVSPost2010Prop33
280
     0
102
RTVSPost2010PropOp33
 70
     1
102
RTVSPost2010Prop34
280
     0
102
RTVSPost2010PropOp34
 70
     1
102
RTVSPost2010Prop35
280
     0
102
RTVSPost2010PropOp35
 70
     1
102
RTVSPost2010Prop36
280
     0
102
RTVSPost2010PropOp36
 70
     1
102
RTVSPost2010Prop37
 90
       50
102
RTVSPost2010PropOp37
 70
     0
102
RTVSPost2010Prop38
140
0.0
102
RTVSPost2010PropOp38
 70
     0
102
RTVSPost2010Prop39
140
1.0
102
RTVSPost2010PropOp39
 70
     0
102
RTVSPost2010Prop40
 90
        0
102
RTVSPost2010PropOp40
 70
     0
102
RTVSPost2010Prop41ColorIndex
 90
       18
102
RTVSPost2010Prop41ColorRGB
 90
        0
102
RTVSPost2010PropOp41
 70
     0
102
RTVSPost2010Prop42
 90
       50
102
RTVSPost2010PropOp42
 70
     0
102
RTVSPost2010Prop43
 90
        3
102
RTVSPost2010PropOp43
 70
     0
102
RTVSPost2010Prop44ColorIndex
 90
        5
102
RTVSPost2010Prop44ColorRGB
 90
      255
102
RTVSPost2010PropOp44
 70
     0
102
RTVSPost2010Prop45
280
     0
102
RTVSPost2010PropOp45
 70
     1
102
RTVSPost2010Prop46
 90
       50
102
RTVSPost2010PropOp46
 70
     0
102
RTVSPost2010Prop47
 90
       50
102
RTVSPost2010PropOp47
 70
     0
102
RTVSPost2010Prop48
 90
       50
102
RTVSPost2010PropOp48
 70
     0
102
RTVSPost2010Prop49
280
     0
102
RTVSPost2010PropOp49
 70
     1
102
RTVSPost2010Prop50
 90
       50
102
RTVSPost2010PropOp50
 70
     0
102
RTVSPost2010Prop51ColorIndex
 90
      256
102
RTVSPost2010Prop51ColorRGB
 90
-16777216
102
RTVSPost2010PropOp51
 70
     0
102
RTVSPost2010Prop52
140
1.0
102
RTVSPost2010PropOp52
 70
     0
102
RTVSPost2010Prop53
 90
        2
102
RTVSPost2010PropOp53
 70
     0
102
RTVSPost2010Prop54
  1
strokes_ogs.tif
102
RTVSPost2010PropOp54
 70
     0
102
RTVSPost2010Prop55
280
     0
102
RTVSPost2010PropOp55
 70
     1
102
RTVSPost2010Prop56
140
1.0
102
RTVSPost2010PropOp56
 70
     0
102
RTVSPost2010Prop57
140
1.0
102
RTVSPost2010PropOp57
 70
     0
102
RTVSPropertyOp0
 70
     0
102
RTVSPropertyOp1
 70
     0
102
RTVSPropertyOp2
 70
     0
102
RTVSPropertyOp3
 70
     0
102
RTVSPropertyOp4
 70
     0
102
RTVSPropertyOp5
 70
     0
102
RTVSPropertyOp6
 70
     0
102
RTVSPropertyOp7
 70
     0
102
RTVSPropertyOp8
 70
     0
102
RTVSPropertyOp9
 70
     0
102
RTVSPropertyOp10
 70
     0
102
RTVSPropertyOp11
 70
     0
102
RTVSPropertyOp12
 70
     0
102
RTVSPropertyOp13
 70
     0
102
RTVSPropertyOp14
 70
     2
102
RTVSPropertyOp15
 70
     0
102
RTVSPropertyOp16
 70
     0
102
RTVSPropertyOp17
 70
     0
102
RTVSPropertyOp18
 70
     0
102
RTVSPropertyOp19
 70
     0
102
RTVSPropertyOp20
 70
     0
102
RTVSPropertyOp21
 70
     0
102
RTVSPropertyOp22
 70
     0
102
RTVSPropertyOp23
 70
     0
102
RTVSPropertyOp24
 70
     0
102
RTVSPropertyOp25
 70
     0
102
RTVSPropertyOp26
 70
     0
102
RTVSPropertyOp27
 70
     0
102
RTVSPropertyOp28
 70
     1
102
RTVSPropertyOp29
 70
     1
102
RTVSPropertyOp30
 70
     1
102
RTVSPropertyOp31
 70
     1
102
RTVSPropertyOp32
 70
     1
102
RTVSPropertyOp33
 70
     1
102
RTVSPropertyOp34
 70
     1
102
RTVSPropertyOp35
 70
     1
102
RTVSPropertyOp36
 70
     1
102
RTVSPropertyOp37
 70
     0
102
RTVSPropertyOp38
 70
     0
102
RTVSPropertyOp39
 70
     0
102
RTVSPropertyOp40
 70
     0
102
RTVSPropertyOp41
 70
     0
102
RTVSPropertyOp42
 70
     0
102
RTVSPropertyOp43
 70
     0
102
RTVSPropertyOp44
 70
     0
102
RTVSPropertyOp45
 70
     1
102
RTVSPropertyOp46
 70
     0
102
RTVSPropertyOp47
 70
     0
102
RTVSPropertyOp48
 70
     0
102
RTVSPropertyOp49
 70
     1
102
RTVSPropertyOp50
 70
     0
102
RTVSPropertyOp51
 70
     0
102
RTVSPropertyOp52
 70
     0
102
RTVSPropertyOp53
 70
     0
102
RTVSPropertyOp54
 70
     0
102
RTVSPropertyOp55
 70
     1
102
RTVSPropertyOp56
 70
     0
102
RTVSPropertyOp57
 70
     0
102
RTVSPropertyOp58
 70
     0
102
RTVSPropertyOp59
 70
     0
102
RTVSPropertyOp60
 70
     0
102
RTVSPropertyOp61
 70
     0
102
RTVSPropertyOp62
 70
     0
  0
XRECORD
  5
C358
102
{ACAD_REACTORS
330
C357
102
}
330
C357
100
AcDbXrecord
280
     1
102
RTVSPost2010Prop28
280
     0
102
RTVSPost2010PropOp28
 70
     1
102
RTVSPost2010Prop29
280
     1
102
RTVSPost2010PropOp29
 70
     1
102
RTVSPost2010Prop30
280
     1
102
RTVSPost2010PropOp30
 70
     1
102
RTVSPost2010Prop31
280
     0
102
RTVSPost2010PropOp31
 70
     1
102
RTVSPost2010Prop32
280
     0
102
RTVSPost2010PropOp32
 70
     1
102
RTVSPost2010Prop33
280
     0
102
RTVSPost2010PropOp33
 70
     1
102
RTVSPost2010Prop34
280
     0
102
RTVSPost2010PropOp34
 70
     1
102
RTVSPost2010Prop35
280
     0
102
RTVSPost2010PropOp35
 70
     1
102
RTVSPost2010Prop36
280
     0
102
RTVSPost2010PropOp36
 70
     1
102
RTVSPost2010Prop37
 90
       50
102
RTVSPost2010PropOp37
 70
     1
102
RTVSPost2010Prop38
140
0.0
102
RTVSPost2010PropOp38
 70
     1
102
RTVSPost2010Prop39
140
1.0
102
RTVSPost2010PropOp39
 70
     1
102
RTVSPost2010Prop40
 90
        0
102
RTVSPost2010PropOp40
 70
     1
102
RTVSPost2010Prop41ColorIndex
 90
       18
102
RTVSPost2010Prop41ColorRGB
 90
        0
102
RTVSPost2010PropOp41
 70
     1
102
RTVSPost2010Prop42
 90
       50
102
RTVSPost2010PropOp42
 70
     1
102
RTVSPost2010Prop43
 90
        3
102
RTVSPost2010PropOp43
 70
     1
102
RTVSPost2010Prop44ColorIndex
 90
        5
102
RTVSPost2010Prop44ColorRGB
 90
      255
102
RTVSPost2010PropOp44
 70
     1
102
RTVSPost2010Prop45
280
     0
102
RTVSPost2010PropOp45
 70
     1
102
RTVSPost2010Prop46
 90
       50
102
RTVSPost2010PropOp46
 70
     1
102
RTVSPost2010Prop47
 90
       50
102
RTVSPost2010PropOp47
 70
     1
102
RTVSPost2010Prop48
 90
       50
102
RTVSPost2010PropOp48
 70
     1
102
RTVSPost2010Prop49
280
     0
102
RTVSPost2010PropOp49
 70
     1
102
RTVSPost2010Prop50
 90
       50
102
RTVSPost2010PropOp50
 70
     1
102
RTVSPost2010Prop51ColorIndex
 90
      256
102
RTVSPost2010Prop51ColorRGB
 90
-16777216
102
RTVSPost2010PropOp51
 70
     0
102
RTVSPost2010Prop52
140
1.0
102
RTVSPost2010PropOp52
 70
     0
102
RTVSPost2010Prop53
 90
        2
102
RTVSPost2010PropOp53
 70
     1
102
RTVSPost2010Prop54
  1
strokes_ogs.tif
102
RTVSPost2010PropOp54
 70
     1
102
RTVSPost2010Prop55
280
     0
102
RTVSPost2010PropOp55
 70
     1
102
RTVSPost2010Prop56
140
1.0
102
RTVSPost2010PropOp56
 70
     1
102
RTVSPost2010Prop57
140
1.0
102
RTVSPost2010PropOp57
 70
     1
102
RTVSPropertyOp0
 70
     1
102
RTVSPropertyOp1
 70
     1
102
RTVSPropertyOp2
 70
     1
102
RTVSPropertyOp3
 70
     1
102
RTVSPropertyOp4
 70
     1
102
RTVSPropertyOp5
 70
     1
102
RTVSPropertyOp6
 70
     1
102
RTVSPropertyOp7
 70
     1
102
RTVSPropertyOp8
 70
     1
102
RTVSPropertyOp9
 70
     1
102
RTVSPropertyOp10
 70
     1
102
RTVSPropertyOp11
 70
     1
102
RTVSPropertyOp12
 70
     1
102
RTVSPropertyOp13
 70
     1
102
RTVSPropertyOp14
 70
     1
102
RTVSPropertyOp15
 70
     1
102
RTVSPropertyOp16
 70
     1
102
RTVSPropertyOp17
 70
     1
102
RTVSPropertyOp18
 70
     1
102
RTVSPropertyOp19
 70
     1
102
RTVSPropertyOp20
 70
     1
102
RTVSPropertyOp21
 70
     1
102
RTVSPropertyOp22
 70
     1
102
RTVSPropertyOp23
 70
     1
102
RTVSPropertyOp24
 70
     1
102
RTVSPropertyOp25
 70
     1
102
RTVSPropertyOp26
 70
     1
102
RTVSPropertyOp27
 70
     1
102
RTVSPropertyOp28
 70
     1
102
RTVSPropertyOp29
 70
     1
102
RTVSPropertyOp30
 70
     1
102
RTVSPropertyOp31
 70
     1
102
RTVSPropertyOp32
 70
     1
102
RTVSPropertyOp33
 70
     1
102
RTVSPropertyOp34
 70
     1
102
RTVSPropertyOp35
 70
     1
102
RTVSPropertyOp36
 70
     1
102
RTVSPropertyOp37
 70
     1
102
RTVSPropertyOp38
 70
     1
102
RTVSPropertyOp39
 70
     1
102
RTVSPropertyOp40
 70
     1
102
RTVSPropertyOp41
 70
     1
102
RTVSPropertyOp42
 70
     1
102
RTVSPropertyOp43
 70
     1
102
RTVSPropertyOp44
 70
     1
102
RTVSPropertyOp45
 70
     1
102
RTVSPropertyOp46
 70
     1
102
RTVSPropertyOp47
 70
     1
102
RTVSPropertyOp48
 70
     1
102
RTVSPropertyOp49
 70
     1
102
RTVSPropertyOp50
 70
     1
102
RTVSPropertyOp51
 70
     0
102
RTVSPropertyOp52
 70
     0
102
RTVSPropertyOp53
 70
     1
102
RTVSPropertyOp54
 70
     1
102
RTVSPropertyOp55
 70
     1
102
RTVSPropertyOp56
 70
     1
102
RTVSPropertyOp57
 70
     1
102
RTVSPropertyOp58
 70
     1
102
RTVSPropertyOp59
 70
     1
102
RTVSPropertyOp60
 70
     1
102
RTVSPropertyOp61
 70
     1
102
RTVSPropertyOp62
 70
     1
  0
XRECORD
  5
C33C
102
{ACAD_REACTORS
330
C33B
102
}
330
C33B
100
AcDbXrecord
280
     1
102
RTVSPost2010Prop28
280
     0
102
RTVSPost2010PropOp28
 70
     1
102
RTVSPost2010Prop29
280
     1
102
RTVSPost2010PropOp29
 70
     1
102
RTVSPost2010Prop30
280
     1
102
RTVSPost2010PropOp30
 70
     1
102
RTVSPost2010Prop31
280
     0
102
RTVSPost2010PropOp31
 70
     1
102
RTVSPost2010Prop32
280
     0
102
RTVSPost2010PropOp32
 70
     1
102
RTVSPost2010Prop33
280
     0
102
RTVSPost2010PropOp33
 70
     1
102
RTVSPost2010Prop34
280
     0
102
RTVSPost2010PropOp34
 70
     1
102
RTVSPost2010Prop35
280
     0
102
RTVSPost2010PropOp35
 70
     1
102
RTVSPost2010Prop36
280
     0
102
RTVSPost2010PropOp36
 70
     1
102
RTVSPost2010Prop37
 90
       50
102
RTVSPost2010PropOp37
 70
     1
102
RTVSPost2010Prop38
140
0.0
102
RTVSPost2010PropOp38
 70
     1
102
RTVSPost2010Prop39
140
1.0
102
RTVSPost2010PropOp39
 70
     1
102
RTVSPost2010Prop40
 90
        0
102
RTVSPost2010PropOp40
 70
     1
102
RTVSPost2010Prop41ColorIndex
 90
       18
102
RTVSPost2010Prop41ColorRGB
 90
        0
102
RTVSPost2010PropOp41
 70
     1
102
RTVSPost2010Prop42
 90
       50
102
RTVSPost2010PropOp42
 70
     1
102
RTVSPost2010Prop43
 90
        3
102
RTVSPost2010PropOp43
 70
     1
102
RTVSPost2010Prop44ColorIndex
 90
        5
102
RTVSPost2010Prop44ColorRGB
 90
      255
102
RTVSPost2010PropOp44
 70
     1
102
RTVSPost2010Prop45
280
     0
102
RTVSPost2010PropOp45
 70
     1
102
RTVSPost2010Prop46
 90
       50
102
RTVSPost2010PropOp46
 70
     1
102
RTVSPost2010Prop47
 90
       50
102
RTVSPost2010PropOp47
 70
     1
102
RTVSPost2010Prop48
 90
       50
102
RTVSPost2010PropOp48
 70
     1
102
RTVSPost2010Prop49
280
     0
102
RTVSPost2010PropOp49
 70
     1
102
RTVSPost2010Prop50
 90
       50
102
RTVSPost2010PropOp50
 70
     1
102
RTVSPost2010Prop51ColorIndex
 90
      256
102
RTVSPost2010Prop51ColorRGB
 90
-16777216
102
RTVSPost2010PropOp51
 70
     0
102
RTVSPost2010Prop52
140
1.0
102
RTVSPost2010PropOp52
 70
     0
102
RTVSPost2010Prop53
 90
        2
102
RTVSPost2010PropOp53
 70
     1
102
RTVSPost2010Prop54
  1
strokes_ogs.tif
102
RTVSPost2010PropOp54
 70
     1
102
RTVSPost2010Prop55
280
     0
102
RTVSPost2010PropOp55
 70
     1
102
RTVSPost2010Prop56
140
1.0
102
RTVSPost2010PropOp56
 70
     1
102
RTVSPost2010Prop57
140
1.0
102
RTVSPost2010PropOp57
 70
     1
102
RTVSPropertyOp0
 70
     1
102
RTVSPropertyOp1
 70
     1
102
RTVSPropertyOp2
 70
     1
102
RTVSPropertyOp3
 70
     1
102
RTVSPropertyOp4
 70
     1
102
RTVSPropertyOp5
 70
     1
102
RTVSPropertyOp6
 70
     1
102
RTVSPropertyOp7
 70
     1
102
RTVSPropertyOp8
 70
     1
102
RTVSPropertyOp9
 70
     1
102
RTVSPropertyOp10
 70
     1
102
RTVSPropertyOp11
 70
     1
102
RTVSPropertyOp12
 70
     1
102
RTVSPropertyOp13
 70
     1
102
RTVSPropertyOp14
 70
     1
102
RTVSPropertyOp15
 70
     1
102
RTVSPropertyOp16
 70
     1
102
RTVSPropertyOp17
 70
     1
102
RTVSPropertyOp18
 70
     1
102
RTVSPropertyOp19
 70
     1
102
RTVSPropertyOp20
 70
     1
102
RTVSPropertyOp21
 70
     1
102
RTVSPropertyOp22
 70
     1
102
RTVSPropertyOp23
 70
     1
102
RTVSPropertyOp24
 70
     1
102
RTVSPropertyOp25
 70
     1
102
RTVSPropertyOp26
 70
     1
102
RTVSPropertyOp27
 70
     1
102
RTVSPropertyOp28
 70
     1
102
RTVSPropertyOp29
 70
     1
102
RTVSPropertyOp30
 70
     1
102
RTVSPropertyOp31
 70
     1
102
RTVSPropertyOp32
 70
     1
102
RTVSPropertyOp33
 70
     1
102
RTVSPropertyOp34
 70
     1
102
RTVSPropertyOp35
 70
     1
102
RTVSPropertyOp36
 70
     1
102
RTVSPropertyOp37
 70
     1
102
RTVSPropertyOp38
 70
     1
102
RTVSPropertyOp39
 70
     1
102
RTVSPropertyOp40
 70
     1
102
RTVSPropertyOp41
 70
     1
102
RTVSPropertyOp42
 70
     1
102
RTVSPropertyOp43
 70
     1
102
RTVSPropertyOp44
 70
     1
102
RTVSPropertyOp45
 70
     1
102
RTVSPropertyOp46
 70
     1
102
RTVSPropertyOp47
 70
     1
102
RTVSPropertyOp48
 70
     1
102
RTVSPropertyOp49
 70
     1
102
RTVSPropertyOp50
 70
     1
102
RTVSPropertyOp51
 70
     0
102
RTVSPropertyOp52
 70
     0
102
RTVSPropertyOp53
 70
     1
102
RTVSPropertyOp54
 70
     1
102
RTVSPropertyOp55
 70
     1
102
RTVSPropertyOp56
 70
     1
102
RTVSPropertyOp57
 70
     1
102
RTVSPropertyOp58
 70
     1
102
RTVSPropertyOp59
 70
     1
102
RTVSPropertyOp60
 70
     1
102
RTVSPropertyOp61
 70
     1
102
RTVSPropertyOp62
 70
     1
  0
XRECORD
  5
C33E
102
{ACAD_REACTORS
330
C33D
102
}
330
C33D
100
AcDbXrecord
280
     1
102
RTVSPost2010Prop28
280
     0
102
RTVSPost2010PropOp28
 70
     1
102
RTVSPost2010Prop29
280
     1
102
RTVSPost2010PropOp29
 70
     1
102
RTVSPost2010Prop30
280
     1
102
RTVSPost2010PropOp30
 70
     1
102
RTVSPost2010Prop31
280
     0
102
RTVSPost2010PropOp31
 70
     1
102
RTVSPost2010Prop32
280
     0
102
RTVSPost2010PropOp32
 70
     1
102
RTVSPost2010Prop33
280
     0
102
RTVSPost2010PropOp33
 70
     1
102
RTVSPost2010Prop34
280
     0
102
RTVSPost2010PropOp34
 70
     1
102
RTVSPost2010Prop35
280
     0
102
RTVSPost2010PropOp35
 70
     1
102
RTVSPost2010Prop36
280
     0
102
RTVSPost2010PropOp36
 70
     1
102
RTVSPost2010Prop37
 90
       50
102
RTVSPost2010PropOp37
 70
     1
102
RTVSPost2010Prop38
140
0.0
102
RTVSPost2010PropOp38
 70
     1
102
RTVSPost2010Prop39
140
1.0
102
RTVSPost2010PropOp39
 70
     1
102
RTVSPost2010Prop40
 90
        0
102
RTVSPost2010PropOp40
 70
     1
102
RTVSPost2010Prop41ColorIndex
 90
       18
102
RTVSPost2010Prop41ColorRGB
 90
        0
102
RTVSPost2010PropOp41
 70
     1
102
RTVSPost2010Prop42
 90
       50
102
RTVSPost2010PropOp42
 70
     1
102
RTVSPost2010Prop43
 90
        3
102
RTVSPost2010PropOp43
 70
     1
102
RTVSPost2010Prop44ColorIndex
 90
        5
102
RTVSPost2010Prop44ColorRGB
 90
      255
102
RTVSPost2010PropOp44
 70
     1
102
RTVSPost2010Prop45
280
     0
102
RTVSPost2010PropOp45
 70
     1
102
RTVSPost2010Prop46
 90
       50
102
RTVSPost2010PropOp46
 70
     1
102
RTVSPost2010Prop47
 90
       50
102
RTVSPost2010PropOp47
 70
     1
102
RTVSPost2010Prop48
 90
       50
102
RTVSPost2010PropOp48
 70
     1
102
RTVSPost2010Prop49
280
     0
102
RTVSPost2010PropOp49
 70
     1
102
RTVSPost2010Prop50
 90
       50
102
RTVSPost2010PropOp50
 70
     1
102
RTVSPost2010Prop51ColorIndex
 90
      256
102
RTVSPost2010Prop51ColorRGB
 90
-16777216
102
RTVSPost2010PropOp51
 70
     0
102
RTVSPost2010Prop52
140
1.0
102
RTVSPost2010PropOp52
 70
     0
102
RTVSPost2010Prop53
 90
        2
102
RTVSPost2010PropOp53
 70
     1
102
RTVSPost2010Prop54
  1
strokes_ogs.tif
102
RTVSPost2010PropOp54
 70
     1
102
RTVSPost2010Prop55
280
     0
102
RTVSPost2010PropOp55
 70
     1
102
RTVSPost2010Prop56
140
1.0
102
RTVSPost2010PropOp56
 70
     1
102
RTVSPost2010Prop57
140
1.0
102
RTVSPost2010PropOp57
 70
     1
102
RTVSPropertyOp0
 70
     1
102
RTVSPropertyOp1
 70
     1
102
RTVSPropertyOp2
 70
     1
102
RTVSPropertyOp3
 70
     1
102
RTVSPropertyOp4
 70
     1
102
RTVSPropertyOp5
 70
     1
102
RTVSPropertyOp6
 70
     1
102
RTVSPropertyOp7
 70
     1
102
RTVSPropertyOp8
 70
     1
102
RTVSPropertyOp9
 70
     1
102
RTVSPropertyOp10
 70
     1
102
RTVSPropertyOp11
 70
     1
102
RTVSPropertyOp12
 70
     1
102
RTVSPropertyOp13
 70
     1
102
RTVSPropertyOp14
 70
     1
102
RTVSPropertyOp15
 70
     1
102
RTVSPropertyOp16
 70
     1
102
RTVSPropertyOp17
 70
     1
102
RTVSPropertyOp18
 70
     1
102
RTVSPropertyOp19
 70
     1
102
RTVSPropertyOp20
 70
     1
102
RTVSPropertyOp21
 70
     1
102
RTVSPropertyOp22
 70
     1
102
RTVSPropertyOp23
 70
     1
102
RTVSPropertyOp24
 70
     1
102
RTVSPropertyOp25
 70
     1
102
RTVSPropertyOp26
 70
     1
102
RTVSPropertyOp27
 70
     1
102
RTVSPropertyOp28
 70
     1
102
RTVSPropertyOp29
 70
     1
102
RTVSPropertyOp30
 70
     1
102
RTVSPropertyOp31
 70
     1
102
RTVSPropertyOp32
 70
     1
102
RTVSPropertyOp33
 70
     1
102
RTVSPropertyOp34
 70
     1
102
RTVSPropertyOp35
 70
     1
102
RTVSPropertyOp36
 70
     1
102
RTVSPropertyOp37
 70
     1
102
RTVSPropertyOp38
 70
     1
102
RTVSPropertyOp39
 70
     1
102
RTVSPropertyOp40
 70
     1
102
RTVSPropertyOp41
 70
     1
102
RTVSPropertyOp42
 70
     1
102
RTVSPropertyOp43
 70
     1
102
RTVSPropertyOp44
 70
     1
102
RTVSPropertyOp45
 70
     1
102
RTVSPropertyOp46
 70
     1
102
RTVSPropertyOp47
 70
     1
102
RTVSPropertyOp48
 70
     1
102
RTVSPropertyOp49
 70
     1
102
RTVSPropertyOp50
 70
     1
102
RTVSPropertyOp51
 70
     0
102
RTVSPropertyOp52
 70
     0
102
RTVSPropertyOp53
 70
     1
102
RTVSPropertyOp54
 70
     1
102
RTVSPropertyOp55
 70
     1
102
RTVSPropertyOp56
 70
     1
102
RTVSPropertyOp57
 70
     1
102
RTVSPropertyOp58
 70
     1
102
RTVSPropertyOp59
 70
     1
102
RTVSPropertyOp60
 70
     1
102
RTVSPropertyOp61
 70
     1
102
RTVSPropertyOp62
 70
     1
  0
XRECORD
  5
C340
102
{ACAD_REACTORS
330
C33F
102
}
330
C33F
100
AcDbXrecord
280
     1
102
RTVSPost2010Prop28
280
     0
102
RTVSPost2010PropOp28
 70
     1
102
RTVSPost2010Prop29
280
     1
102
RTVSPost2010PropOp29
 70
     1
102
RTVSPost2010Prop30
280
     1
102
RTVSPost2010PropOp30
 70
     1
102
RTVSPost2010Prop31
280
     0
102
RTVSPost2010PropOp31
 70
     1
102
RTVSPost2010Prop32
280
     0
102
RTVSPost2010PropOp32
 70
     1
102
RTVSPost2010Prop33
280
     0
102
RTVSPost2010PropOp33
 70
     1
102
RTVSPost2010Prop34
280
     0
102
RTVSPost2010PropOp34
 70
     1
102
RTVSPost2010Prop35
280
     0
102
RTVSPost2010PropOp35
 70
     1
102
RTVSPost2010Prop36
280
     0
102
RTVSPost2010PropOp36
 70
     1
102
RTVSPost2010Prop37
 90
       50
102
RTVSPost2010PropOp37
 70
     1
102
RTVSPost2010Prop38
140
0.0
102
RTVSPost2010PropOp38
 70
     1
102
RTVSPost2010Prop39
140
1.0
102
RTVSPost2010PropOp39
 70
     1
102
RTVSPost2010Prop40
 90
        0
102
RTVSPost2010PropOp40
 70
     1
102
RTVSPost2010Prop41ColorIndex
 90
       18
102
RTVSPost2010Prop41ColorRGB
 90
        0
102
RTVSPost2010PropOp41
 70
     1
102
RTVSPost2010Prop42
 90
       50
102
RTVSPost2010PropOp42
 70
     1
102
RTVSPost2010Prop43
 90
        3
102
RTVSPost2010PropOp43
 70
     1
102
RTVSPost2010Prop44ColorIndex
 90
        5
102
RTVSPost2010Prop44ColorRGB
 90
      255
102
RTVSPost2010PropOp44
 70
     1
102
RTVSPost2010Prop45
280
     0
102
RTVSPost2010PropOp45
 70
     1
102
RTVSPost2010Prop46
 90
       50
102
RTVSPost2010PropOp46
 70
     1
102
RTVSPost2010Prop47
 90
       50
102
RTVSPost2010PropOp47
 70
     1
102
RTVSPost2010Prop48
 90
       50
102
RTVSPost2010PropOp48
 70
     1
102
RTVSPost2010Prop49
280
     0
102
RTVSPost2010PropOp49
 70
     1
102
RTVSPost2010Prop50
 90
       50
102
RTVSPost2010PropOp50
 70
     1
102
RTVSPost2010Prop51ColorIndex
 90
      256
102
RTVSPost2010Prop51ColorRGB
 90
-16777216
102
RTVSPost2010PropOp51
 70
     0
102
RTVSPost2010Prop52
140
1.0
102
RTVSPost2010PropOp52
 70
     0
102
RTVSPost2010Prop53
 90
        2
102
RTVSPost2010PropOp53
 70
     1
102
RTVSPost2010Prop54
  1
strokes_ogs.tif
102
RTVSPost2010PropOp54
 70
     1
102
RTVSPost2010Prop55
280
     0
102
RTVSPost2010PropOp55
 70
     1
102
RTVSPost2010Prop56
140
1.0
102
RTVSPost2010PropOp56
 70
     1
102
RTVSPost2010Prop57
140
1.0
102
RTVSPost2010PropOp57
 70
     1
102
RTVSPropertyOp0
 70
     1
102
RTVSPropertyOp1
 70
     1
102
RTVSPropertyOp2
 70
     1
102
RTVSPropertyOp3
 70
     1
102
RTVSPropertyOp4
 70
     1
102
RTVSPropertyOp5
 70
     1
102
RTVSPropertyOp6
 70
     1
102
RTVSPropertyOp7
 70
     1
102
RTVSPropertyOp8
 70
     1
102
RTVSPropertyOp9
 70
     1
102
RTVSPropertyOp10
 70
     1
102
RTVSPropertyOp11
 70
     1
102
RTVSPropertyOp12
 70
     1
102
RTVSPropertyOp13
 70
     1
102
RTVSPropertyOp14
 70
     1
102
RTVSPropertyOp15
 70
     1
102
RTVSPropertyOp16
 70
     1
102
RTVSPropertyOp17
 70
     1
102
RTVSPropertyOp18
 70
     1
102
RTVSPropertyOp19
 70
     1
102
RTVSPropertyOp20
 70
     1
102
RTVSPropertyOp21
 70
     1
102
RTVSPropertyOp22
 70
     1
102
RTVSPropertyOp23
 70
     1
102
RTVSPropertyOp24
 70
     1
102
RTVSPropertyOp25
 70
     1
102
RTVSPropertyOp26
 70
     1
102
RTVSPropertyOp27
 70
     1
102
RTVSPropertyOp28
 70
     1
102
RTVSPropertyOp29
 70
     1
102
RTVSPropertyOp30
 70
     1
102
RTVSPropertyOp31
 70
     1
102
RTVSPropertyOp32
 70
     1
102
RTVSPropertyOp33
 70
     1
102
RTVSPropertyOp34
 70
     1
102
RTVSPropertyOp35
 70
     1
102
RTVSPropertyOp36
 70
     1
102
RTVSPropertyOp37
 70
     1
102
RTVSPropertyOp38
 70
     1
102
RTVSPropertyOp39
 70
     1
102
RTVSPropertyOp40
 70
     1
102
RTVSPropertyOp41
 70
     1
102
RTVSPropertyOp42
 70
     1
102
RTVSPropertyOp43
 70
     1
102
RTVSPropertyOp44
 70
     1
102
RTVSPropertyOp45
 70
     1
102
RTVSPropertyOp46
 70
     1
102
RTVSPropertyOp47
 70
     1
102
RTVSPropertyOp48
 70
     1
102
RTVSPropertyOp49
 70
     1
102
RTVSPropertyOp50
 70
     1
102
RTVSPropertyOp51
 70
     0
102
RTVSPropertyOp52
 70
     0
102
RTVSPropertyOp53
 70
     1
102
RTVSPropertyOp54
 70
     1
102
RTVSPropertyOp55
 70
     1
102
RTVSPropertyOp56
 70
     1
102
RTVSPropertyOp57
 70
     1
102
RTVSPropertyOp58
 70
     1
102
RTVSPropertyOp59
 70
     1
102
RTVSPropertyOp60
 70
     1
102
RTVSPropertyOp61
 70
     1
102
RTVSPropertyOp62
 70
     1
  0
XRECORD
  5
C342
102
{ACAD_REACTORS
330
C341
102
}
330
C341
100
AcDbXrecord
280
     1
102
RTVSPost2010Prop28
280
     0
102
RTVSPost2010PropOp28
 70
     1
102
RTVSPost2010Prop29
280
     1
102
RTVSPost2010PropOp29
 70
     1
102
RTVSPost2010Prop30
280
     1
102
RTVSPost2010PropOp30
 70
     1
102
RTVSPost2010Prop31
280
     0
102
RTVSPost2010PropOp31
 70
     1
102
RTVSPost2010Prop32
280
     0
102
RTVSPost2010PropOp32
 70
     1
102
RTVSPost2010Prop33
280
     0
102
RTVSPost2010PropOp33
 70
     1
102
RTVSPost2010Prop34
280
     0
102
RTVSPost2010PropOp34
 70
     1
102
RTVSPost2010Prop35
280
     0
102
RTVSPost2010PropOp35
 70
     1
102
RTVSPost2010Prop36
280
     0
102
RTVSPost2010PropOp36
 70
     1
102
RTVSPost2010Prop37
 90
       50
102
RTVSPost2010PropOp37
 70
     1
102
RTVSPost2010Prop38
140
0.0
102
RTVSPost2010PropOp38
 70
     1
102
RTVSPost2010Prop39
140
1.0
102
RTVSPost2010PropOp39
 70
     1
102
RTVSPost2010Prop40
 90
        0
102
RTVSPost2010PropOp40
 70
     1
102
RTVSPost2010Prop41ColorIndex
 90
       18
102
RTVSPost2010Prop41ColorRGB
 90
        0
102
RTVSPost2010PropOp41
 70
     1
102
RTVSPost2010Prop42
 90
       50
102
RTVSPost2010PropOp42
 70
     1
102
RTVSPost2010Prop43
 90
        3
102
RTVSPost2010PropOp43
 70
     1
102
RTVSPost2010Prop44ColorIndex
 90
        5
102
RTVSPost2010Prop44ColorRGB
 90
      255
102
RTVSPost2010PropOp44
 70
     1
102
RTVSPost2010Prop45
280
     0
102
RTVSPost2010PropOp45
 70
     1
102
RTVSPost2010Prop46
 90
       50
102
RTVSPost2010PropOp46
 70
     1
102
RTVSPost2010Prop47
 90
       50
102
RTVSPost2010PropOp47
 70
     1
102
RTVSPost2010Prop48
 90
       50
102
RTVSPost2010PropOp48
 70
     1
102
RTVSPost2010Prop49
280
     0
102
RTVSPost2010PropOp49
 70
     1
102
RTVSPost2010Prop50
 90
       50
102
RTVSPost2010PropOp50
 70
     1
102
RTVSPost2010Prop51ColorIndex
 90
      256
102
RTVSPost2010Prop51ColorRGB
 90
-16777216
102
RTVSPost2010PropOp51
 70
     0
102
RTVSPost2010Prop52
140
1.0
102
RTVSPost2010PropOp52
 70
     0
102
RTVSPost2010Prop53
 90
        2
102
RTVSPost2010PropOp53
 70
     1
102
RTVSPost2010Prop54
  1
strokes_ogs.tif
102
RTVSPost2010PropOp54
 70
     1
102
RTVSPost2010Prop55
280
     0
102
RTVSPost2010PropOp55
 70
     1
102
RTVSPost2010Prop56
140
1.0
102
RTVSPost2010PropOp56
 70
     1
102
RTVSPost2010Prop57
140
1.0
102
RTVSPost2010PropOp57
 70
     1
102
RTVSPropertyOp0
 70
     1
102
RTVSPropertyOp1
 70
     1
102
RTVSPropertyOp2
 70
     1
102
RTVSPropertyOp3
 70
     1
102
RTVSPropertyOp4
 70
     1
102
RTVSPropertyOp5
 70
     1
102
RTVSPropertyOp6
 70
     1
102
RTVSPropertyOp7
 70
     1
102
RTVSPropertyOp8
 70
     1
102
RTVSPropertyOp9
 70
     1
102
RTVSPropertyOp10
 70
     1
102
RTVSPropertyOp11
 70
     1
102
RTVSPropertyOp12
 70
     1
102
RTVSPropertyOp13
 70
     1
102
RTVSPropertyOp14
 70
     1
102
RTVSPropertyOp15
 70
     1
102
RTVSPropertyOp16
 70
     1
102
RTVSPropertyOp17
 70
     1
102
RTVSPropertyOp18
 70
     1
102
RTVSPropertyOp19
 70
     1
102
RTVSPropertyOp20
 70
     1
102
RTVSPropertyOp21
 70
     1
102
RTVSPropertyOp22
 70
     1
102
RTVSPropertyOp23
 70
     1
102
RTVSPropertyOp24
 70
     1
102
RTVSPropertyOp25
 70
     1
102
RTVSPropertyOp26
 70
     1
102
RTVSPropertyOp27
 70
     1
102
RTVSPropertyOp28
 70
     1
102
RTVSPropertyOp29
 70
     1
102
RTVSPropertyOp30
 70
     1
102
RTVSPropertyOp31
 70
     1
102
RTVSPropertyOp32
 70
     1
102
RTVSPropertyOp33
 70
     1
102
RTVSPropertyOp34
 70
     1
102
RTVSPropertyOp35
 70
     1
102
RTVSPropertyOp36
 70
     1
102
RTVSPropertyOp37
 70
     1
102
RTVSPropertyOp38
 70
     1
102
RTVSPropertyOp39
 70
     1
102
RTVSPropertyOp40
 70
     1
102
RTVSPropertyOp41
 70
     1
102
RTVSPropertyOp42
 70
     1
102
RTVSPropertyOp43
 70
     1
102
RTVSPropertyOp44
 70
     1
102
RTVSPropertyOp45
 70
     1
102
RTVSPropertyOp46
 70
     1
102
RTVSPropertyOp47
 70
     1
102
RTVSPropertyOp48
 70
     1
102
RTVSPropertyOp49
 70
     1
102
RTVSPropertyOp50
 70
     1
102
RTVSPropertyOp51
 70
     0
102
RTVSPropertyOp52
 70
     0
102
RTVSPropertyOp53
 70
     1
102
RTVSPropertyOp54
 70
     1
102
RTVSPropertyOp55
 70
     1
102
RTVSPropertyOp56
 70
     1
102
RTVSPropertyOp57
 70
     1
102
RTVSPropertyOp58
 70
     1
102
RTVSPropertyOp59
 70
     1
102
RTVSPropertyOp60
 70
     1
102
RTVSPropertyOp61
 70
     1
102
RTVSPropertyOp62
 70
     1
  0
XRECORD
  5
C34A
102
{ACAD_REACTORS
330
C349
102
}
330
C349
100
AcDbXrecord
280
     1
102
RTVSPost2010Prop28
280
     0
102
RTVSPost2010PropOp28
 70
     1
102
RTVSPost2010Prop29
280
     1
102
RTVSPost2010PropOp29
 70
     1
102
RTVSPost2010Prop30
280
     1
102
RTVSPost2010PropOp30
 70
     1
102
RTVSPost2010Prop31
280
     0
102
RTVSPost2010PropOp31
 70
     1
102
RTVSPost2010Prop32
280
     0
102
RTVSPost2010PropOp32
 70
     1
102
RTVSPost2010Prop33
280
     0
102
RTVSPost2010PropOp33
 70
     1
102
RTVSPost2010Prop34
280
     0
102
RTVSPost2010PropOp34
 70
     1
102
RTVSPost2010Prop35
280
     0
102
RTVSPost2010PropOp35
 70
     1
102
RTVSPost2010Prop36
280
     0
102
RTVSPost2010PropOp36
 70
     1
102
RTVSPost2010Prop37
 90
       50
102
RTVSPost2010PropOp37
 70
     1
102
RTVSPost2010Prop38
140
0.0
102
RTVSPost2010PropOp38
 70
     1
102
RTVSPost2010Prop39
140
1.0
102
RTVSPost2010PropOp39
 70
     1
102
RTVSPost2010Prop40
 90
        0
102
RTVSPost2010PropOp40
 70
     1
102
RTVSPost2010Prop41ColorIndex
 90
       18
102
RTVSPost2010Prop41ColorRGB
 90
        0
102
RTVSPost2010PropOp41
 70
     1
102
RTVSPost2010Prop42
 90
       50
102
RTVSPost2010PropOp42
 70
     1
102
RTVSPost2010Prop43
 90
        3
102
RTVSPost2010PropOp43
 70
     1
102
RTVSPost2010Prop44ColorIndex
 90
        5
102
RTVSPost2010Prop44ColorRGB
 90
      255
102
RTVSPost2010PropOp44
 70
     1
102
RTVSPost2010Prop45
280
     0
102
RTVSPost2010PropOp45
 70
     1
102
RTVSPost2010Prop46
 90
       50
102
RTVSPost2010PropOp46
 70
     1
102
RTVSPost2010Prop47
 90
       50
102
RTVSPost2010PropOp47
 70
     1
102
RTVSPost2010Prop48
 90
       50
102
RTVSPost2010PropOp48
 70
     1
102
RTVSPost2010Prop49
280
     0
102
RTVSPost2010PropOp49
 70
     1
102
RTVSPost2010Prop50
 90
       50
102
RTVSPost2010PropOp50
 70
     1
102
RTVSPost2010Prop51ColorIndex
 90
      256
102
RTVSPost2010Prop51ColorRGB
 90
-16777216
102
RTVSPost2010PropOp51
 70
     0
102
RTVSPost2010Prop52
140
1.0
102
RTVSPost2010PropOp52
 70
     0
102
RTVSPost2010Prop53
 90
        2
102
RTVSPost2010PropOp53
 70
     1
102
RTVSPost2010Prop54
  1
strokes_ogs.tif
102
RTVSPost2010PropOp54
 70
     1
102
RTVSPost2010Prop55
280
     0
102
RTVSPost2010PropOp55
 70
     1
102
RTVSPost2010Prop56
140
1.0
102
RTVSPost2010PropOp56
 70
     1
102
RTVSPost2010Prop57
140
1.0
102
RTVSPost2010PropOp57
 70
     1
102
RTVSPropertyOp0
 70
     1
102
RTVSPropertyOp1
 70
     1
102
RTVSPropertyOp2
 70
     1
102
RTVSPropertyOp3
 70
     1
102
RTVSPropertyOp4
 70
     1
102
RTVSPropertyOp5
 70
     1
102
RTVSPropertyOp6
 70
     1
102
RTVSPropertyOp7
 70
     1
102
RTVSPropertyOp8
 70
     1
102
RTVSPropertyOp9
 70
     1
102
RTVSPropertyOp10
 70
     1
102
RTVSPropertyOp11
 70
     1
102
RTVSPropertyOp12
 70
     1
102
RTVSPropertyOp13
 70
     1
102
RTVSPropertyOp14
 70
     1
102
RTVSPropertyOp15
 70
     1
102
RTVSPropertyOp16
 70
     1
102
RTVSPropertyOp17
 70
     1
102
RTVSPropertyOp18
 70
     1
102
RTVSPropertyOp19
 70
     1
102
RTVSPropertyOp20
 70
     1
102
RTVSPropertyOp21
 70
     1
102
RTVSPropertyOp22
 70
     1
102
RTVSPropertyOp23
 70
     1
102
RTVSPropertyOp24
 70
     1
102
RTVSPropertyOp25
 70
     1
102
RTVSPropertyOp26
 70
     1
102
RTVSPropertyOp27
 70
     1
102
RTVSPropertyOp28
 70
     1
102
RTVSPropertyOp29
 70
     1
102
RTVSPropertyOp30
 70
     1
102
RTVSPropertyOp31
 70
     1
102
RTVSPropertyOp32
 70
     1
102
RTVSPropertyOp33
 70
     1
102
RTVSPropertyOp34
 70
     1
102
RTVSPropertyOp35
 70
     1
102
RTVSPropertyOp36
 70
     1
102
RTVSPropertyOp37
 70
     1
102
RTVSPropertyOp38
 70
     1
102
RTVSPropertyOp39
 70
     1
102
RTVSPropertyOp40
 70
     1
102
RTVSPropertyOp41
 70
     1
102
RTVSPropertyOp42
 70
     1
102
RTVSPropertyOp43
 70
     1
102
RTVSPropertyOp44
 70
     1
102
RTVSPropertyOp45
 70
     1
102
RTVSPropertyOp46
 70
     1
102
RTVSPropertyOp47
 70
     1
102
RTVSPropertyOp48
 70
     1
102
RTVSPropertyOp49
 70
     1
102
RTVSPropertyOp50
 70
     1
102
RTVSPropertyOp51
 70
     0
102
RTVSPropertyOp52
 70
     0
102
RTVSPropertyOp53
 70
     1
102
RTVSPropertyOp54
 70
     1
102
RTVSPropertyOp55
 70
     1
102
RTVSPropertyOp56
 70
     1
102
RTVSPropertyOp57
 70
     1
102
RTVSPropertyOp58
 70
     1
102
RTVSPropertyOp59
 70
     1
102
RTVSPropertyOp60
 70
     1
102
RTVSPropertyOp61
 70
     1
102
RTVSPropertyOp62
 70
     1
  0
XRECORD
  5
C366
102
{ACAD_REACTORS
330
C365
102
}
330
C365
100
AcDbXrecord
280
     1
102
RTVSPost2010Prop28
280
     0
102
RTVSPost2010PropOp28
 70
     1
102
RTVSPost2010Prop29
280
     1
102
RTVSPost2010PropOp29
 70
     1
102
RTVSPost2010Prop30
280
     1
102
RTVSPost2010PropOp30
 70
     1
102
RTVSPost2010Prop31
280
     0
102
RTVSPost2010PropOp31
 70
     1
102
RTVSPost2010Prop32
280
     0
102
RTVSPost2010PropOp32
 70
     1
102
RTVSPost2010Prop33
280
     0
102
RTVSPost2010PropOp33
 70
     1
102
RTVSPost2010Prop34
280
     0
102
RTVSPost2010PropOp34
 70
     1
102
RTVSPost2010Prop35
280
     0
102
RTVSPost2010PropOp35
 70
     1
102
RTVSPost2010Prop36
280
     0
102
RTVSPost2010PropOp36
 70
     1
102
RTVSPost2010Prop37
 90
       50
102
RTVSPost2010PropOp37
 70
     0
102
RTVSPost2010Prop38
140
0.0
102
RTVSPost2010PropOp38
 70
     0
102
RTVSPost2010Prop39
140
1.0
102
RTVSPost2010PropOp39
 70
     0
102
RTVSPost2010Prop40
 90
        0
102
RTVSPost2010PropOp40
 70
     0
102
RTVSPost2010Prop41ColorIndex
 90
       18
102
RTVSPost2010Prop41ColorRGB
 90
        0
102
RTVSPost2010PropOp41
 70
     0
102
RTVSPost2010Prop42
 90
       50
102
RTVSPost2010PropOp42
 70
     0
102
RTVSPost2010Prop43
 90
        3
102
RTVSPost2010PropOp43
 70
     0
102
RTVSPost2010Prop44ColorIndex
 90
        5
102
RTVSPost2010Prop44ColorRGB
 90
      255
102
RTVSPost2010PropOp44
 70
     0
102
RTVSPost2010Prop45
280
     0
102
RTVSPost2010PropOp45
 70
     1
102
RTVSPost2010Prop46
 90
       50
102
RTVSPost2010PropOp46
 70
     0
102
RTVSPost2010Prop47
 90
       50
102
RTVSPost2010PropOp47
 70
     0
102
RTVSPost2010Prop48
 90
       50
102
RTVSPost2010PropOp48
 70
     0
102
RTVSPost2010Prop49
280
     0
102
RTVSPost2010PropOp49
 70
     1
102
RTVSPost2010Prop50
 90
       50
102
RTVSPost2010PropOp50
 70
     0
102
RTVSPost2010Prop51ColorIndex
 90
      256
102
RTVSPost2010Prop51ColorRGB
 90
-16777216
102
RTVSPost2010PropOp51
 70
     0
102
RTVSPost2010Prop52
140
1.0
102
RTVSPost2010PropOp52
 70
     0
102
RTVSPost2010Prop53
 90
        2
102
RTVSPost2010PropOp53
 70
     0
102
RTVSPost2010Prop54
  1
strokes_ogs.tif
102
RTVSPost2010PropOp54
 70
     0
102
RTVSPost2010Prop55
280
     0
102
RTVSPost2010PropOp55
 70
     1
102
RTVSPost2010Prop56
140
1.0
102
RTVSPost2010PropOp56
 70
     0
102
RTVSPost2010Prop57
140
1.0
102
RTVSPost2010PropOp57
 70
     0
102
RTVSPropertyOp0
 70
     0
102
RTVSPropertyOp1
 70
     0
102
RTVSPropertyOp2
 70
     0
102
RTVSPropertyOp3
 70
     0
102
RTVSPropertyOp4
 70
     0
102
RTVSPropertyOp5
 70
     0
102
RTVSPropertyOp6
 70
     0
102
RTVSPropertyOp7
 70
     0
102
RTVSPropertyOp8
 70
     0
102
RTVSPropertyOp9
 70
     0
102
RTVSPropertyOp10
 70
     0
102
RTVSPropertyOp11
 70
     0
102
RTVSPropertyOp12
 70
     0
102
RTVSPropertyOp13
 70
     0
102
RTVSPropertyOp14
 70
     2
102
RTVSPropertyOp15
 70
     0
102
RTVSPropertyOp16
 70
     0
102
RTVSPropertyOp17
 70
     0
102
RTVSPropertyOp18
 70
     0
102
RTVSPropertyOp19
 70
     0
102
RTVSPropertyOp20
 70
     0
102
RTVSPropertyOp21
 70
     0
102
RTVSPropertyOp22
 70
     0
102
RTVSPropertyOp23
 70
     0
102
RTVSPropertyOp24
 70
     0
102
RTVSPropertyOp25
 70
     0
102
RTVSPropertyOp26
 70
     0
102
RTVSPropertyOp27
 70
     0
102
RTVSPropertyOp28
 70
     1
102
RTVSPropertyOp29
 70
     1
102
RTVSPropertyOp30
 70
     1
102
RTVSPropertyOp31
 70
     1
102
RTVSPropertyOp32
 70
     1
102
RTVSPropertyOp33
 70
     1
102
RTVSPropertyOp34
 70
     1
102
RTVSPropertyOp35
 70
     1
102
RTVSPropertyOp36
 70
     1
102
RTVSPropertyOp37
 70
     0
102
RTVSPropertyOp38
 70
     0
102
RTVSPropertyOp39
 70
     0
102
RTVSPropertyOp40
 70
     0
102
RTVSPropertyOp41
 70
     0
102
RTVSPropertyOp42
 70
     0
102
RTVSPropertyOp43
 70
     0
102
RTVSPropertyOp44
 70
     0
102
RTVSPropertyOp45
 70
     1
102
RTVSPropertyOp46
 70
     0
102
RTVSPropertyOp47
 70
     0
102
RTVSPropertyOp48
 70
     0
102
RTVSPropertyOp49
 70
     1
102
RTVSPropertyOp50
 70
     0
102
RTVSPropertyOp51
 70
     0
102
RTVSPropertyOp52
 70
     0
102
RTVSPropertyOp53
 70
     0
102
RTVSPropertyOp54
 70
     0
102
RTVSPropertyOp55
 70
     1
102
RTVSPropertyOp56
 70
     0
102
RTVSPropertyOp57
 70
     0
102
RTVSPropertyOp58
 70
     0
102
RTVSPropertyOp59
 70
     0
102
RTVSPropertyOp60
 70
     0
102
RTVSPropertyOp61
 70
     0
102
RTVSPropertyOp62
 70
     0
  0
XRECORD
  5
C356
102
{ACAD_REACTORS
330
C355
102
}
330
C355
100
AcDbXrecord
280
     1
102
RTVSPost2010Prop28
280
     0
102
RTVSPost2010PropOp28
 70
     1
102
RTVSPost2010Prop29
280
     1
102
RTVSPost2010PropOp29
 70
     1
102
RTVSPost2010Prop30
280
     1
102
RTVSPost2010PropOp30
 70
     1
102
RTVSPost2010Prop31
280
     0
102
RTVSPost2010PropOp31
 70
     1
102
RTVSPost2010Prop32
280
     0
102
RTVSPost2010PropOp32
 70
     1
102
RTVSPost2010Prop33
280
     0
102
RTVSPost2010PropOp33
 70
     1
102
RTVSPost2010Prop34
280
     0
102
RTVSPost2010PropOp34
 70
     1
102
RTVSPost2010Prop35
280
     0
102
RTVSPost2010PropOp35
 70
     1
102
RTVSPost2010Prop36
280
     0
102
RTVSPost2010PropOp36
 70
     1
102
RTVSPost2010Prop37
 90
       50
102
RTVSPost2010PropOp37
 70
     1
102
RTVSPost2010Prop38
140
0.0
102
RTVSPost2010PropOp38
 70
     1
102
RTVSPost2010Prop39
140
1.0
102
RTVSPost2010PropOp39
 70
     1
102
RTVSPost2010Prop40
 90
        0
102
RTVSPost2010PropOp40
 70
     1
102
RTVSPost2010Prop41ColorIndex
 90
       18
102
RTVSPost2010Prop41ColorRGB
 90
        0
102
RTVSPost2010PropOp41
 70
     1
102
RTVSPost2010Prop42
 90
       50
102
RTVSPost2010PropOp42
 70
     1
102
RTVSPost2010Prop43
 90
        3
102
RTVSPost2010PropOp43
 70
     1
102
RTVSPost2010Prop44ColorIndex
 90
        5
102
RTVSPost2010Prop44ColorRGB
 90
      255
102
RTVSPost2010PropOp44
 70
     1
102
RTVSPost2010Prop45
280
     0
102
RTVSPost2010PropOp45
 70
     1
102
RTVSPost2010Prop46
 90
       50
102
RTVSPost2010PropOp46
 70
     1
102
RTVSPost2010Prop47
 90
       50
102
RTVSPost2010PropOp47
 70
     1
102
RTVSPost2010Prop48
 90
       50
102
RTVSPost2010PropOp48
 70
     1
102
RTVSPost2010Prop49
280
     0
102
RTVSPost2010PropOp49
 70
     1
102
RTVSPost2010Prop50
 90
       50
102
RTVSPost2010PropOp50
 70
     1
102
RTVSPost2010Prop51ColorIndex
 90
      256
102
RTVSPost2010Prop51ColorRGB
 90
-16777216
102
RTVSPost2010PropOp51
 70
     0
102
RTVSPost2010Prop52
140
1.0
102
RTVSPost2010PropOp52
 70
     0
102
RTVSPost2010Prop53
 90
        2
102
RTVSPost2010PropOp53
 70
     1
102
RTVSPost2010Prop54
  1
strokes_ogs.tif
102
RTVSPost2010PropOp54
 70
     1
102
RTVSPost2010Prop55
280
     0
102
RTVSPost2010PropOp55
 70
     1
102
RTVSPost2010Prop56
140
1.0
102
RTVSPost2010PropOp56
 70
     1
102
RTVSPost2010Prop57
140
1.0
102
RTVSPost2010PropOp57
 70
     1
102
RTVSPropertyOp0
 70
     1
102
RTVSPropertyOp1
 70
     1
102
RTVSPropertyOp2
 70
     1
102
RTVSPropertyOp3
 70
     1
102
RTVSPropertyOp4
 70
     1
102
RTVSPropertyOp5
 70
     1
102
RTVSPropertyOp6
 70
     1
102
RTVSPropertyOp7
 70
     1
102
RTVSPropertyOp8
 70
     1
102
RTVSPropertyOp9
 70
     1
102
RTVSPropertyOp10
 70
     1
102
RTVSPropertyOp11
 70
     1
102
RTVSPropertyOp12
 70
     1
102
RTVSPropertyOp13
 70
     1
102
RTVSPropertyOp14
 70
     1
102
RTVSPropertyOp15
 70
     1
102
RTVSPropertyOp16
 70
     1
102
RTVSPropertyOp17
 70
     1
102
RTVSPropertyOp18
 70
     1
102
RTVSPropertyOp19
 70
     1
102
RTVSPropertyOp20
 70
     1
102
RTVSPropertyOp21
 70
     1
102
RTVSPropertyOp22
 70
     1
102
RTVSPropertyOp23
 70
     1
102
RTVSPropertyOp24
 70
     1
102
RTVSPropertyOp25
 70
     1
102
RTVSPropertyOp26
 70
     1
102
RTVSPropertyOp27
 70
     1
102
RTVSPropertyOp28
 70
     1
102
RTVSPropertyOp29
 70
     1
102
RTVSPropertyOp30
 70
     1
102
RTVSPropertyOp31
 70
     1
102
RTVSPropertyOp32
 70
     1
102
RTVSPropertyOp33
 70
     1
102
RTVSPropertyOp34
 70
     1
102
RTVSPropertyOp35
 70
     1
102
RTVSPropertyOp36
 70
     1
102
RTVSPropertyOp37
 70
     1
102
RTVSPropertyOp38
 70
     1
102
RTVSPropertyOp39
 70
     1
102
RTVSPropertyOp40
 70
     1
102
RTVSPropertyOp41
 70
     1
102
RTVSPropertyOp42
 70
     1
102
RTVSPropertyOp43
 70
     1
102
RTVSPropertyOp44
 70
     1
102
RTVSPropertyOp45
 70
     1
102
RTVSPropertyOp46
 70
     1
102
RTVSPropertyOp47
 70
     1
102
RTVSPropertyOp48
 70
     1
102
RTVSPropertyOp49
 70
     1
102
RTVSPropertyOp50
 70
     1
102
RTVSPropertyOp51
 70
     0
102
RTVSPropertyOp52
 70
     0
102
RTVSPropertyOp53
 70
     1
102
RTVSPropertyOp54
 70
     1
102
RTVSPropertyOp55
 70
     1
102
RTVSPropertyOp56
 70
     1
102
RTVSPropertyOp57
 70
     1
102
RTVSPropertyOp58
 70
     1
102
RTVSPropertyOp59
 70
     1
102
RTVSPropertyOp60
 70
     1
102
RTVSPropertyOp61
 70
     1
102
RTVSPropertyOp62
 70
     1
  0
XRECORD
  5
C368
102
{ACAD_REACTORS
330
C367
102
}
330
C367
100
AcDbXrecord
280
     1
102
RTVSPost2010Prop28
280
     0
102
RTVSPost2010PropOp28
 70
     1
102
RTVSPost2010Prop29
280
     1
102
RTVSPost2010PropOp29
 70
     1
102
RTVSPost2010Prop30
280
     1
102
RTVSPost2010PropOp30
 70
     1
102
RTVSPost2010Prop31
280
     0
102
RTVSPost2010PropOp31
 70
     1
102
RTVSPost2010Prop32
280
     0
102
RTVSPost2010PropOp32
 70
     1
102
RTVSPost2010Prop33
280
     0
102
RTVSPost2010PropOp33
 70
     1
102
RTVSPost2010Prop34
280
     0
102
RTVSPost2010PropOp34
 70
     1
102
RTVSPost2010Prop35
280
     0
102
RTVSPost2010PropOp35
 70
     1
102
RTVSPost2010Prop36
280
     0
102
RTVSPost2010PropOp36
 70
     1
102
RTVSPost2010Prop37
 90
       50
102
RTVSPost2010PropOp37
 70
     0
102
RTVSPost2010Prop38
140
0.0
102
RTVSPost2010PropOp38
 70
     0
102
RTVSPost2010Prop39
140
1.0
102
RTVSPost2010PropOp39
 70
     0
102
RTVSPost2010Prop40
 90
        0
102
RTVSPost2010PropOp40
 70
     0
102
RTVSPost2010Prop41ColorIndex
 90
       18
102
RTVSPost2010Prop41ColorRGB
 90
        0
102
RTVSPost2010PropOp41
 70
     0
102
RTVSPost2010Prop42
 90
       50
102
RTVSPost2010PropOp42
 70
     0
102
RTVSPost2010Prop43
 90
        3
102
RTVSPost2010PropOp43
 70
     0
102
RTVSPost2010Prop44ColorIndex
 90
        5
102
RTVSPost2010Prop44ColorRGB
 90
      255
102
RTVSPost2010PropOp44
 70
     0
102
RTVSPost2010Prop45
280
     0
102
RTVSPost2010PropOp45
 70
     1
102
RTVSPost2010Prop46
 90
       50
102
RTVSPost2010PropOp46
 70
     0
102
RTVSPost2010Prop47
 90
       50
102
RTVSPost2010PropOp47
 70
     0
102
RTVSPost2010Prop48
 90
       50
102
RTVSPost2010PropOp48
 70
     0
102
RTVSPost2010Prop49
280
     0
102
RTVSPost2010PropOp49
 70
     1
102
RTVSPost2010Prop50
 90
       50
102
RTVSPost2010PropOp50
 70
     0
102
RTVSPost2010Prop51ColorIndex
 90
      256
102
RTVSPost2010Prop51ColorRGB
 90
-16777216
102
RTVSPost2010PropOp51
 70
     0
102
RTVSPost2010Prop52
140
1.0
102
RTVSPost2010PropOp52
 70
     0
102
RTVSPost2010Prop53
 90
        2
102
RTVSPost2010PropOp53
 70
     0
102
RTVSPost2010Prop54
  1
strokes_ogs.tif
102
RTVSPost2010PropOp54
 70
     0
102
RTVSPost2010Prop55
280
     0
102
RTVSPost2010PropOp55
 70
     1
102
RTVSPost2010Prop56
140
1.0
102
RTVSPost2010PropOp56
 70
     0
102
RTVSPost2010Prop57
140
1.0
102
RTVSPost2010PropOp57
 70
     0
102
RTVSPropertyOp0
 70
     0
102
RTVSPropertyOp1
 70
     0
102
RTVSPropertyOp2
 70
     0
102
RTVSPropertyOp3
 70
     0
102
RTVSPropertyOp4
 70
     0
102
RTVSPropertyOp5
 70
     0
102
RTVSPropertyOp6
 70
     0
102
RTVSPropertyOp7
 70
     0
102
RTVSPropertyOp8
 70
     0
102
RTVSPropertyOp9
 70
     0
102
RTVSPropertyOp10
 70
     0
102
RTVSPropertyOp11
 70
     0
102
RTVSPropertyOp12
 70
     0
102
RTVSPropertyOp13
 70
     0
102
RTVSPropertyOp14
 70
     2
102
RTVSPropertyOp15
 70
     0
102
RTVSPropertyOp16
 70
     0
102
RTVSPropertyOp17
 70
     0
102
RTVSPropertyOp18
 70
     0
102
RTVSPropertyOp19
 70
     0
102
RTVSPropertyOp20
 70
     0
102
RTVSPropertyOp21
 70
     0
102
RTVSPropertyOp22
 70
     0
102
RTVSPropertyOp23
 70
     0
102
RTVSPropertyOp24
 70
     0
102
RTVSPropertyOp25
 70
     0
102
RTVSPropertyOp26
 70
     0
102
RTVSPropertyOp27
 70
     0
102
RTVSPropertyOp28
 70
     1
102
RTVSPropertyOp29
 70
     1
102
RTVSPropertyOp30
 70
     1
102
RTVSPropertyOp31
 70
     1
102
RTVSPropertyOp32
 70
     1
102
RTVSPropertyOp33
 70
     1
102
RTVSPropertyOp34
 70
     1
102
RTVSPropertyOp35
 70
     1
102
RTVSPropertyOp36
 70
     1
102
RTVSPropertyOp37
 70
     0
102
RTVSPropertyOp38
 70
     0
102
RTVSPropertyOp39
 70
     0
102
RTVSPropertyOp40
 70
     0
102
RTVSPropertyOp41
 70
     0
102
RTVSPropertyOp42
 70
     0
102
RTVSPropertyOp43
 70
     0
102
RTVSPropertyOp44
 70
     0
102
RTVSPropertyOp45
 70
     1
102
RTVSPropertyOp46
 70
     0
102
RTVSPropertyOp47
 70
     0
102
RTVSPropertyOp48
 70
     0
102
RTVSPropertyOp49
 70
     1
102
RTVSPropertyOp50
 70
     0
102
RTVSPropertyOp51
 70
     0
102
RTVSPropertyOp52
 70
     0
102
RTVSPropertyOp53
 70
     0
102
RTVSPropertyOp54
 70
     0
102
RTVSPropertyOp55
 70
     1
102
RTVSPropertyOp56
 70
     0
102
RTVSPropertyOp57
 70
     0
102
RTVSPropertyOp58
 70
     0
102
RTVSPropertyOp59
 70
     0
102
RTVSPropertyOp60
 70
     0
102
RTVSPropertyOp61
 70
     0
102
RTVSPropertyOp62
 70
     0
  0
XRECORD
  5
C34E
102
{ACAD_REACTORS
330
C34D
102
}
330
C34D
100
AcDbXrecord
280
     1
102
RTVSPost2010Prop28
280
     0
102
RTVSPost2010PropOp28
 70
     1
102
RTVSPost2010Prop29
280
     1
102
RTVSPost2010PropOp29
 70
     1
102
RTVSPost2010Prop30
280
     1
102
RTVSPost2010PropOp30
 70
     1
102
RTVSPost2010Prop31
280
     0
102
RTVSPost2010PropOp31
 70
     1
102
RTVSPost2010Prop32
280
     0
102
RTVSPost2010PropOp32
 70
     1
102
RTVSPost2010Prop33
280
     0
102
RTVSPost2010PropOp33
 70
     1
102
RTVSPost2010Prop34
280
     0
102
RTVSPost2010PropOp34
 70
     1
102
RTVSPost2010Prop35
280
     0
102
RTVSPost2010PropOp35
 70
     1
102
RTVSPost2010Prop36
280
     0
102
RTVSPost2010PropOp36
 70
     1
102
RTVSPost2010Prop37
 90
       50
102
RTVSPost2010PropOp37
 70
     1
102
RTVSPost2010Prop38
140
0.0
102
RTVSPost2010PropOp38
 70
     1
102
RTVSPost2010Prop39
140
1.0
102
RTVSPost2010PropOp39
 70
     1
102
RTVSPost2010Prop40
 90
        0
102
RTVSPost2010PropOp40
 70
     1
102
RTVSPost2010Prop41ColorIndex
 90
       18
102
RTVSPost2010Prop41ColorRGB
 90
        0
102
RTVSPost2010PropOp41
 70
     1
102
RTVSPost2010Prop42
 90
       50
102
RTVSPost2010PropOp42
 70
     1
102
RTVSPost2010Prop43
 90
        3
102
RTVSPost2010PropOp43
 70
     1
102
RTVSPost2010Prop44ColorIndex
 90
        5
102
RTVSPost2010Prop44ColorRGB
 90
      255
102
RTVSPost2010PropOp44
 70
     1
102
RTVSPost2010Prop45
280
     0
102
RTVSPost2010PropOp45
 70
     1
102
RTVSPost2010Prop46
 90
       50
102
RTVSPost2010PropOp46
 70
     1
102
RTVSPost2010Prop47
 90
       50
102
RTVSPost2010PropOp47
 70
     1
102
RTVSPost2010Prop48
 90
       50
102
RTVSPost2010PropOp48
 70
     1
102
RTVSPost2010Prop49
280
     0
102
RTVSPost2010PropOp49
 70
     1
102
RTVSPost2010Prop50
 90
       50
102
RTVSPost2010PropOp50
 70
     1
102
RTVSPost2010Prop51ColorIndex
 90
      256
102
RTVSPost2010Prop51ColorRGB
 90
-16777216
102
RTVSPost2010PropOp51
 70
     0
102
RTVSPost2010Prop52
140
1.0
102
RTVSPost2010PropOp52
 70
     0
102
RTVSPost2010Prop53
 90
        2
102
RTVSPost2010PropOp53
 70
     1
102
RTVSPost2010Prop54
  1
strokes_ogs.tif
102
RTVSPost2010PropOp54
 70
     1
102
RTVSPost2010Prop55
280
     0
102
RTVSPost2010PropOp55
 70
     1
102
RTVSPost2010Prop56
140
1.0
102
RTVSPost2010PropOp56
 70
     1
102
RTVSPost2010Prop57
140
1.0
102
RTVSPost2010PropOp57
 70
     1
102
RTVSPropertyOp0
 70
     1
102
RTVSPropertyOp1
 70
     1
102
RTVSPropertyOp2
 70
     1
102
RTVSPropertyOp3
 70
     1
102
RTVSPropertyOp4
 70
     1
102
RTVSPropertyOp5
 70
     1
102
RTVSPropertyOp6
 70
     1
102
RTVSPropertyOp7
 70
     1
102
RTVSPropertyOp8
 70
     1
102
RTVSPropertyOp9
 70
     1
102
RTVSPropertyOp10
 70
     1
102
RTVSPropertyOp11
 70
     1
102
RTVSPropertyOp12
 70
     1
102
RTVSPropertyOp13
 70
     1
102
RTVSPropertyOp14
 70
     1
102
RTVSPropertyOp15
 70
     1
102
RTVSPropertyOp16
 70
     1
102
RTVSPropertyOp17
 70
     1
102
RTVSPropertyOp18
 70
     1
102
RTVSPropertyOp19
 70
     1
102
RTVSPropertyOp20
 70
     1
102
RTVSPropertyOp21
 70
     1
102
RTVSPropertyOp22
 70
     1
102
RTVSPropertyOp23
 70
     1
102
RTVSPropertyOp24
 70
     1
102
RTVSPropertyOp25
 70
     1
102
RTVSPropertyOp26
 70
     1
102
RTVSPropertyOp27
 70
     1
102
RTVSPropertyOp28
 70
     1
102
RTVSPropertyOp29
 70
     1
102
RTVSPropertyOp30
 70
     1
102
RTVSPropertyOp31
 70
     1
102
RTVSPropertyOp32
 70
     1
102
RTVSPropertyOp33
 70
     1
102
RTVSPropertyOp34
 70
     1
102
RTVSPropertyOp35
 70
     1
102
RTVSPropertyOp36
 70
     1
102
RTVSPropertyOp37
 70
     1
102
RTVSPropertyOp38
 70
     1
102
RTVSPropertyOp39
 70
     1
102
RTVSPropertyOp40
 70
     1
102
RTVSPropertyOp41
 70
     1
102
RTVSPropertyOp42
 70
     1
102
RTVSPropertyOp43
 70
     1
102
RTVSPropertyOp44
 70
     1
102
RTVSPropertyOp45
 70
     1
102
RTVSPropertyOp46
 70
     1
102
RTVSPropertyOp47
 70
     1
102
RTVSPropertyOp48
 70
     1
102
RTVSPropertyOp49
 70
     1
102
RTVSPropertyOp50
 70
     1
102
RTVSPropertyOp51
 70
     0
102
RTVSPropertyOp52
 70
     0
102
RTVSPropertyOp53
 70
     1
102
RTVSPropertyOp54
 70
     1
102
RTVSPropertyOp55
 70
     1
102
RTVSPropertyOp56
 70
     1
102
RTVSPropertyOp57
 70
     1
102
RTVSPropertyOp58
 70
     1
102
RTVSPropertyOp59
 70
     1
102
RTVSPropertyOp60
 70
     1
102
RTVSPropertyOp61
 70
     1
102
RTVSPropertyOp62
 70
     1
  0
XRECORD
  5
C364
102
{ACAD_REACTORS
330
C363
102
}
330
C363
100
AcDbXrecord
280
     1
102
RTVSPost2010Prop28
280
     0
102
RTVSPost2010PropOp28
 70
     1
102
RTVSPost2010Prop29
280
     1
102
RTVSPost2010PropOp29
 70
     1
102
RTVSPost2010Prop30
280
     1
102
RTVSPost2010PropOp30
 70
     1
102
RTVSPost2010Prop31
280
     0
102
RTVSPost2010PropOp31
 70
     1
102
RTVSPost2010Prop32
280
     0
102
RTVSPost2010PropOp32
 70
     1
102
RTVSPost2010Prop33
280
     0
102
RTVSPost2010PropOp33
 70
     1
102
RTVSPost2010Prop34
280
     0
102
RTVSPost2010PropOp34
 70
     1
102
RTVSPost2010Prop35
280
     0
102
RTVSPost2010PropOp35
 70
     1
102
RTVSPost2010Prop36
280
     0
102
RTVSPost2010PropOp36
 70
     1
102
RTVSPost2010Prop37
 90
       50
102
RTVSPost2010PropOp37
 70
     1
102
RTVSPost2010Prop38
140
0.0
102
RTVSPost2010PropOp38
 70
     1
102
RTVSPost2010Prop39
140
1.0
102
RTVSPost2010PropOp39
 70
     1
102
RTVSPost2010Prop40
 90
        0
102
RTVSPost2010PropOp40
 70
     1
102
RTVSPost2010Prop41ColorIndex
 90
       18
102
RTVSPost2010Prop41ColorRGB
 90
        0
102
RTVSPost2010PropOp41
 70
     1
102
RTVSPost2010Prop42
 90
       50
102
RTVSPost2010PropOp42
 70
     1
102
RTVSPost2010Prop43
 90
        3
102
RTVSPost2010PropOp43
 70
     1
102
RTVSPost2010Prop44ColorIndex
 90
        5
102
RTVSPost2010Prop44ColorRGB
 90
      255
102
RTVSPost2010PropOp44
 70
     1
102
RTVSPost2010Prop45
280
     0
102
RTVSPost2010PropOp45
 70
     1
102
RTVSPost2010Prop46
 90
       50
102
RTVSPost2010PropOp46
 70
     1
102
RTVSPost2010Prop47
 90
       50
102
RTVSPost2010PropOp47
 70
     1
102
RTVSPost2010Prop48
 90
       50
102
RTVSPost2010PropOp48
 70
     1
102
RTVSPost2010Prop49
280
     0
102
RTVSPost2010PropOp49
 70
     1
102
RTVSPost2010Prop50
 90
       50
102
RTVSPost2010PropOp50
 70
     1
102
RTVSPost2010Prop51ColorIndex
 90
      256
102
RTVSPost2010Prop51ColorRGB
 90
-16777216
102
RTVSPost2010PropOp51
 70
     0
102
RTVSPost2010Prop52
140
1.0
102
RTVSPost2010PropOp52
 70
     0
102
RTVSPost2010Prop53
 90
        2
102
RTVSPost2010PropOp53
 70
     1
102
RTVSPost2010Prop54
  1
strokes_ogs.tif
102
RTVSPost2010PropOp54
 70
     1
102
RTVSPost2010Prop55
280
     0
102
RTVSPost2010PropOp55
 70
     1
102
RTVSPost2010Prop56
140
1.0
102
RTVSPost2010PropOp56
 70
     1
102
RTVSPost2010Prop57
140
1.0
102
RTVSPost2010PropOp57
 70
     1
102
RTVSPropertyOp0
 70
     1
102
RTVSPropertyOp1
 70
     1
102
RTVSPropertyOp2
 70
     1
102
RTVSPropertyOp3
 70
     1
102
RTVSPropertyOp4
 70
     1
102
RTVSPropertyOp5
 70
     1
102
RTVSPropertyOp6
 70
     1
102
RTVSPropertyOp7
 70
     1
102
RTVSPropertyOp8
 70
     1
102
RTVSPropertyOp9
 70
     1
102
RTVSPropertyOp10
 70
     1
102
RTVSPropertyOp11
 70
     1
102
RTVSPropertyOp12
 70
     1
102
RTVSPropertyOp13
 70
     1
102
RTVSPropertyOp14
 70
     1
102
RTVSPropertyOp15
 70
     1
102
RTVSPropertyOp16
 70
     1
102
RTVSPropertyOp17
 70
     1
102
RTVSPropertyOp18
 70
     1
102
RTVSPropertyOp19
 70
     1
102
RTVSPropertyOp20
 70
     1
102
RTVSPropertyOp21
 70
     1
102
RTVSPropertyOp22
 70
     1
102
RTVSPropertyOp23
 70
     1
102
RTVSPropertyOp24
 70
     1
102
RTVSPropertyOp25
 70
     1
102
RTVSPropertyOp26
 70
     1
102
RTVSPropertyOp27
 70
     1
102
RTVSPropertyOp28
 70
     1
102
RTVSPropertyOp29
 70
     1
102
RTVSPropertyOp30
 70
     1
102
RTVSPropertyOp31
 70
     1
102
RTVSPropertyOp32
 70
     1
102
RTVSPropertyOp33
 70
     1
102
RTVSPropertyOp34
 70
     1
102
RTVSPropertyOp35
 70
     1
102
RTVSPropertyOp36
 70
     1
102
RTVSPropertyOp37
 70
     1
102
RTVSPropertyOp38
 70
     1
102
RTVSPropertyOp39
 70
     1
102
RTVSPropertyOp40
 70
     1
102
RTVSPropertyOp41
 70
     1
102
RTVSPropertyOp42
 70
     1
102
RTVSPropertyOp43
 70
     1
102
RTVSPropertyOp44
 70
     1
102
RTVSPropertyOp45
 70
     1
102
RTVSPropertyOp46
 70
     1
102
RTVSPropertyOp47
 70
     1
102
RTVSPropertyOp48
 70
     1
102
RTVSPropertyOp49
 70
     1
102
RTVSPropertyOp50
 70
     1
102
RTVSPropertyOp51
 70
     0
102
RTVSPropertyOp52
 70
     0
102
RTVSPropertyOp53
 70
     1
102
RTVSPropertyOp54
 70
     1
102
RTVSPropertyOp55
 70
     1
102
RTVSPropertyOp56
 70
     1
102
RTVSPropertyOp57
 70
     1
102
RTVSPropertyOp58
 70
     1
102
RTVSPropertyOp59
 70
     1
102
RTVSPropertyOp60
 70
     1
102
RTVSPropertyOp61
 70
     1
102
RTVSPropertyOp62
 70
     1
  0
XRECORD
  5
C362
102
{ACAD_REACTORS
330
C361
102
}
330
C361
100
AcDbXrecord
280
     1
102
RTVSPost2010Prop28
280
     0
102
RTVSPost2010PropOp28
 70
     1
102
RTVSPost2010Prop29
280
     1
102
RTVSPost2010PropOp29
 70
     1
102
RTVSPost2010Prop30
280
     1
102
RTVSPost2010PropOp30
 70
     1
102
RTVSPost2010Prop31
280
     0
102
RTVSPost2010PropOp31
 70
     1
102
RTVSPost2010Prop32
280
     0
102
RTVSPost2010PropOp32
 70
     1
102
RTVSPost2010Prop33
280
     0
102
RTVSPost2010PropOp33
 70
     1
102
RTVSPost2010Prop34
280
     0
102
RTVSPost2010PropOp34
 70
     1
102
RTVSPost2010Prop35
280
     0
102
RTVSPost2010PropOp35
 70
     1
102
RTVSPost2010Prop36
280
     0
102
RTVSPost2010PropOp36
 70
     1
102
RTVSPost2010Prop37
 90
       50
102
RTVSPost2010PropOp37
 70
     1
102
RTVSPost2010Prop38
140
0.0
102
RTVSPost2010PropOp38
 70
     1
102
RTVSPost2010Prop39
140
1.0
102
RTVSPost2010PropOp39
 70
     1
102
RTVSPost2010Prop40
 90
        0
102
RTVSPost2010PropOp40
 70
     1
102
RTVSPost2010Prop41ColorIndex
 90
       18
102
RTVSPost2010Prop41ColorRGB
 90
        0
102
RTVSPost2010PropOp41
 70
     1
102
RTVSPost2010Prop42
 90
       50
102
RTVSPost2010PropOp42
 70
     1
102
RTVSPost2010Prop43
 90
        3
102
RTVSPost2010PropOp43
 70
     1
102
RTVSPost2010Prop44ColorIndex
 90
        5
102
RTVSPost2010Prop44ColorRGB
 90
      255
102
RTVSPost2010PropOp44
 70
     1
102
RTVSPost2010Prop45
280
     0
102
RTVSPost2010PropOp45
 70
     1
102
RTVSPost2010Prop46
 90
       50
102
RTVSPost2010PropOp46
 70
     1
102
RTVSPost2010Prop47
 90
       50
102
RTVSPost2010PropOp47
 70
     1
102
RTVSPost2010Prop48
 90
       50
102
RTVSPost2010PropOp48
 70
     1
102
RTVSPost2010Prop49
280
     0
102
RTVSPost2010PropOp49
 70
     1
102
RTVSPost2010Prop50
 90
       50
102
RTVSPost2010PropOp50
 70
     1
102
RTVSPost2010Prop51ColorIndex
 90
      256
102
RTVSPost2010Prop51ColorRGB
 90
-16777216
102
RTVSPost2010PropOp51
 70
     0
102
RTVSPost2010Prop52
140
1.0
102
RTVSPost2010PropOp52
 70
     0
102
RTVSPost2010Prop53
 90
        2
102
RTVSPost2010PropOp53
 70
     1
102
RTVSPost2010Prop54
  1
strokes_ogs.tif
102
RTVSPost2010PropOp54
 70
     1
102
RTVSPost2010Prop55
280
     0
102
RTVSPost2010PropOp55
 70
     1
102
RTVSPost2010Prop56
140
1.0
102
RTVSPost2010PropOp56
 70
     1
102
RTVSPost2010Prop57
140
1.0
102
RTVSPost2010PropOp57
 70
     1
102
RTVSPropertyOp0
 70
     1
102
RTVSPropertyOp1
 70
     1
102
RTVSPropertyOp2
 70
     1
102
RTVSPropertyOp3
 70
     1
102
RTVSPropertyOp4
 70
     1
102
RTVSPropertyOp5
 70
     1
102
RTVSPropertyOp6
 70
     1
102
RTVSPropertyOp7
 70
     1
102
RTVSPropertyOp8
 70
     1
102
RTVSPropertyOp9
 70
     1
102
RTVSPropertyOp10
 70
     1
102
RTVSPropertyOp11
 70
     1
102
RTVSPropertyOp12
 70
     1
102
RTVSPropertyOp13
 70
     1
102
RTVSPropertyOp14
 70
     1
102
RTVSPropertyOp15
 70
     1
102
RTVSPropertyOp16
 70
     1
102
RTVSPropertyOp17
 70
     1
102
RTVSPropertyOp18
 70
     1
102
RTVSPropertyOp19
 70
     1
102
RTVSPropertyOp20
 70
     1
102
RTVSPropertyOp21
 70
     1
102
RTVSPropertyOp22
 70
     1
102
RTVSPropertyOp23
 70
     1
102
RTVSPropertyOp24
 70
     1
102
RTVSPropertyOp25
 70
     1
102
RTVSPropertyOp26
 70
     1
102
RTVSPropertyOp27
 70
     1
102
RTVSPropertyOp28
 70
     1
102
RTVSPropertyOp29
 70
     1
102
RTVSPropertyOp30
 70
     1
102
RTVSPropertyOp31
 70
     1
102
RTVSPropertyOp32
 70
     1
102
RTVSPropertyOp33
 70
     1
102
RTVSPropertyOp34
 70
     1
102
RTVSPropertyOp35
 70
     1
102
RTVSPropertyOp36
 70
     1
102
RTVSPropertyOp37
 70
     1
102
RTVSPropertyOp38
 70
     1
102
RTVSPropertyOp39
 70
     1
102
RTVSPropertyOp40
 70
     1
102
RTVSPropertyOp41
 70
     1
102
RTVSPropertyOp42
 70
     1
102
RTVSPropertyOp43
 70
     1
102
RTVSPropertyOp44
 70
     1
102
RTVSPropertyOp45
 70
     1
102
RTVSPropertyOp46
 70
     1
102
RTVSPropertyOp47
 70
     1
102
RTVSPropertyOp48
 70
     1
102
RTVSPropertyOp49
 70
     1
102
RTVSPropertyOp50
 70
     1
102
RTVSPropertyOp51
 70
     0
102
RTVSPropertyOp52
 70
     0
102
RTVSPropertyOp53
 70
     1
102
RTVSPropertyOp54
 70
     1
102
RTVSPropertyOp55
 70
     1
102
RTVSPropertyOp56
 70
     1
102
RTVSPropertyOp57
 70
     1
102
RTVSPropertyOp58
 70
     1
102
RTVSPropertyOp59
 70
     1
102
RTVSPropertyOp60
 70
     1
102
RTVSPropertyOp61
 70
     1
102
RTVSPropertyOp62
 70
     1
  0
XRECORD
  5
C35C
102
{ACAD_REACTORS
330
C35B
102
}
330
C35B
100
AcDbXrecord
280
     1
102
RTVSPost2010Prop28
280
     0
102
RTVSPost2010PropOp28
 70
     1
102
RTVSPost2010Prop29
280
     1
102
RTVSPost2010PropOp29
 70
     1
102
RTVSPost2010Prop30
280
     1
102
RTVSPost2010PropOp30
 70
     1
102
RTVSPost2010Prop31
280
     0
102
RTVSPost2010PropOp31
 70
     1
102
RTVSPost2010Prop32
280
     0
102
RTVSPost2010PropOp32
 70
     1
102
RTVSPost2010Prop33
280
     0
102
RTVSPost2010PropOp33
 70
     1
102
RTVSPost2010Prop34
280
     0
102
RTVSPost2010PropOp34
 70
     1
102
RTVSPost2010Prop35
280
     0
102
RTVSPost2010PropOp35
 70
     1
102
RTVSPost2010Prop36
280
     0
102
RTVSPost2010PropOp36
 70
     1
102
RTVSPost2010Prop37
 90
       50
102
RTVSPost2010PropOp37
 70
     1
102
RTVSPost2010Prop38
140
0.0
102
RTVSPost2010PropOp38
 70
     1
102
RTVSPost2010Prop39
140
1.0
102
RTVSPost2010PropOp39
 70
     1
102
RTVSPost2010Prop40
 90
        0
102
RTVSPost2010PropOp40
 70
     1
102
RTVSPost2010Prop41ColorIndex
 90
       18
102
RTVSPost2010Prop41ColorRGB
 90
        0
102
RTVSPost2010PropOp41
 70
     1
102
RTVSPost2010Prop42
 90
       50
102
RTVSPost2010PropOp42
 70
     1
102
RTVSPost2010Prop43
 90
        3
102
RTVSPost2010PropOp43
 70
     1
102
RTVSPost2010Prop44ColorIndex
 90
        5
102
RTVSPost2010Prop44ColorRGB
 90
      255
102
RTVSPost2010PropOp44
 70
     1
102
RTVSPost2010Prop45
280
     0
102
RTVSPost2010PropOp45
 70
     1
102
RTVSPost2010Prop46
 90
       50
102
RTVSPost2010PropOp46
 70
     1
102
RTVSPost2010Prop47
 90
       50
102
RTVSPost2010PropOp47
 70
     1
102
RTVSPost2010Prop48
 90
       50
102
RTVSPost2010PropOp48
 70
     1
102
RTVSPost2010Prop49
280
     0
102
RTVSPost2010PropOp49
 70
     1
102
RTVSPost2010Prop50
 90
       50
102
RTVSPost2010PropOp50
 70
     1
102
RTVSPost2010Prop51ColorIndex
 90
      256
102
RTVSPost2010Prop51ColorRGB
 90
-16777216
102
RTVSPost2010PropOp51
 70
     0
102
RTVSPost2010Prop52
140
1.0
102
RTVSPost2010PropOp52
 70
     0
102
RTVSPost2010Prop53
 90
        2
102
RTVSPost2010PropOp53
 70
     1
102
RTVSPost2010Prop54
  1
strokes_ogs.tif
102
RTVSPost2010PropOp54
 70
     1
102
RTVSPost2010Prop55
280
     0
102
RTVSPost2010PropOp55
 70
     1
102
RTVSPost2010Prop56
140
1.0
102
RTVSPost2010PropOp56
 70
     1
102
RTVSPost2010Prop57
140
1.0
102
RTVSPost2010PropOp57
 70
     1
102
RTVSPropertyOp0
 70
     1
102
RTVSPropertyOp1
 70
     1
102
RTVSPropertyOp2
 70
     1
102
RTVSPropertyOp3
 70
     1
102
RTVSPropertyOp4
 70
     1
102
RTVSPropertyOp5
 70
     1
102
RTVSPropertyOp6
 70
     1
102
RTVSPropertyOp7
 70
     1
102
RTVSPropertyOp8
 70
     1
102
RTVSPropertyOp9
 70
     1
102
RTVSPropertyOp10
 70
     1
102
RTVSPropertyOp11
 70
     1
102
RTVSPropertyOp12
 70
     1
102
RTVSPropertyOp13
 70
     1
102
RTVSPropertyOp14
 70
     1
102
RTVSPropertyOp15
 70
     1
102
RTVSPropertyOp16
 70
     1
102
RTVSPropertyOp17
 70
     1
102
RTVSPropertyOp18
 70
     1
102
RTVSPropertyOp19
 70
     1
102
RTVSPropertyOp20
 70
     1
102
RTVSPropertyOp21
 70
     1
102
RTVSPropertyOp22
 70
     1
102
RTVSPropertyOp23
 70
     1
102
RTVSPropertyOp24
 70
     1
102
RTVSPropertyOp25
 70
     1
102
RTVSPropertyOp26
 70
     1
102
RTVSPropertyOp27
 70
     1
102
RTVSPropertyOp28
 70
     1
102
RTVSPropertyOp29
 70
     1
102
RTVSPropertyOp30
 70
     1
102
RTVSPropertyOp31
 70
     1
102
RTVSPropertyOp32
 70
     1
102
RTVSPropertyOp33
 70
     1
102
RTVSPropertyOp34
 70
     1
102
RTVSPropertyOp35
 70
     1
102
RTVSPropertyOp36
 70
     1
102
RTVSPropertyOp37
 70
     1
102
RTVSPropertyOp38
 70
     1
102
RTVSPropertyOp39
 70
     1
102
RTVSPropertyOp40
 70
     1
102
RTVSPropertyOp41
 70
     1
102
RTVSPropertyOp42
 70
     1
102
RTVSPropertyOp43
 70
     1
102
RTVSPropertyOp44
 70
     1
102
RTVSPropertyOp45
 70
     1
102
RTVSPropertyOp46
 70
     1
102
RTVSPropertyOp47
 70
     1
102
RTVSPropertyOp48
 70
     1
102
RTVSPropertyOp49
 70
     1
102
RTVSPropertyOp50
 70
     1
102
RTVSPropertyOp51
 70
     0
102
RTVSPropertyOp52
 70
     0
102
RTVSPropertyOp53
 70
     1
102
RTVSPropertyOp54
 70
     1
102
RTVSPropertyOp55
 70
     1
102
RTVSPropertyOp56
 70
     1
102
RTVSPropertyOp57
 70
     1
102
RTVSPropertyOp58
 70
     1
102
RTVSPropertyOp59
 70
     1
102
RTVSPropertyOp60
 70
     1
102
RTVSPropertyOp61
 70
     1
102
RTVSPropertyOp62
 70
     1
  0
XRECORD
  5
C35E
102
{ACAD_REACTORS
330
C35D
102
}
330
C35D
100
AcDbXrecord
280
     1
102
RTVSPost2010Prop28
280
     0
102
RTVSPost2010PropOp28
 70
     1
102
RTVSPost2010Prop29
280
     1
102
RTVSPost2010PropOp29
 70
     1
102
RTVSPost2010Prop30
280
     1
102
RTVSPost2010PropOp30
 70
     1
102
RTVSPost2010Prop31
280
     0
102
RTVSPost2010PropOp31
 70
     1
102
RTVSPost2010Prop32
280
     0
102
RTVSPost2010PropOp32
 70
     1
102
RTVSPost2010Prop33
280
     0
102
RTVSPost2010PropOp33
 70
     1
102
RTVSPost2010Prop34
280
     0
102
RTVSPost2010PropOp34
 70
     1
102
RTVSPost2010Prop35
280
     0
102
RTVSPost2010PropOp35
 70
     1
102
RTVSPost2010Prop36
280
     0
102
RTVSPost2010PropOp36
 70
     1
102
RTVSPost2010Prop37
 90
       50
102
RTVSPost2010PropOp37
 70
     1
102
RTVSPost2010Prop38
140
0.0
102
RTVSPost2010PropOp38
 70
     1
102
RTVSPost2010Prop39
140
1.0
102
RTVSPost2010PropOp39
 70
     1
102
RTVSPost2010Prop40
 90
        0
102
RTVSPost2010PropOp40
 70
     1
102
RTVSPost2010Prop41ColorIndex
 90
       18
102
RTVSPost2010Prop41ColorRGB
 90
        0
102
RTVSPost2010PropOp41
 70
     1
102
RTVSPost2010Prop42
 90
       50
102
RTVSPost2010PropOp42
 70
     1
102
RTVSPost2010Prop43
 90
        3
102
RTVSPost2010PropOp43
 70
     1
102
RTVSPost2010Prop44ColorIndex
 90
        5
102
RTVSPost2010Prop44ColorRGB
 90
      255
102
RTVSPost2010PropOp44
 70
     1
102
RTVSPost2010Prop45
280
     0
102
RTVSPost2010PropOp45
 70
     1
102
RTVSPost2010Prop46
 90
       50
102
RTVSPost2010PropOp46
 70
     1
102
RTVSPost2010Prop47
 90
       50
102
RTVSPost2010PropOp47
 70
     1
102
RTVSPost2010Prop48
 90
       50
102
RTVSPost2010PropOp48
 70
     1
102
RTVSPost2010Prop49
280
     0
102
RTVSPost2010PropOp49
 70
     1
102
RTVSPost2010Prop50
 90
       50
102
RTVSPost2010PropOp50
 70
     1
102
RTVSPost2010Prop51ColorIndex
 90
      256
102
RTVSPost2010Prop51ColorRGB
 90
-16777216
102
RTVSPost2010PropOp51
 70
     0
102
RTVSPost2010Prop52
140
1.0
102
RTVSPost2010PropOp52
 70
     0
102
RTVSPost2010Prop53
 90
        2
102
RTVSPost2010PropOp53
 70
     1
102
RTVSPost2010Prop54
  1
strokes_ogs.tif
102
RTVSPost2010PropOp54
 70
     1
102
RTVSPost2010Prop55
280
     0
102
RTVSPost2010PropOp55
 70
     1
102
RTVSPost2010Prop56
140
1.0
102
RTVSPost2010PropOp56
 70
     1
102
RTVSPost2010Prop57
140
1.0
102
RTVSPost2010PropOp57
 70
     1
102
RTVSPropertyOp0
 70
     1
102
RTVSPropertyOp1
 70
     1
102
RTVSPropertyOp2
 70
     1
102
RTVSPropertyOp3
 70
     1
102
RTVSPropertyOp4
 70
     1
102
RTVSPropertyOp5
 70
     1
102
RTVSPropertyOp6
 70
     1
102
RTVSPropertyOp7
 70
     1
102
RTVSPropertyOp8
 70
     1
102
RTVSPropertyOp9
 70
     1
102
RTVSPropertyOp10
 70
     1
102
RTVSPropertyOp11
 70
     1
102
RTVSPropertyOp12
 70
     1
102
RTVSPropertyOp13
 70
     1
102
RTVSPropertyOp14
 70
     1
102
RTVSPropertyOp15
 70
     1
102
RTVSPropertyOp16
 70
     1
102
RTVSPropertyOp17
 70
     1
102
RTVSPropertyOp18
 70
     1
102
RTVSPropertyOp19
 70
     1
102
RTVSPropertyOp20
 70
     1
102
RTVSPropertyOp21
 70
     1
102
RTVSPropertyOp22
 70
     1
102
RTVSPropertyOp23
 70
     1
102
RTVSPropertyOp24
 70
     1
102
RTVSPropertyOp25
 70
     1
102
RTVSPropertyOp26
 70
     1
102
RTVSPropertyOp27
 70
     1
102
RTVSPropertyOp28
 70
     1
102
RTVSPropertyOp29
 70
     1
102
RTVSPropertyOp30
 70
     1
102
RTVSPropertyOp31
 70
     1
102
RTVSPropertyOp32
 70
     1
102
RTVSPropertyOp33
 70
     1
102
RTVSPropertyOp34
 70
     1
102
RTVSPropertyOp35
 70
     1
102
RTVSPropertyOp36
 70
     1
102
RTVSPropertyOp37
 70
     1
102
RTVSPropertyOp38
 70
     1
102
RTVSPropertyOp39
 70
     1
102
RTVSPropertyOp40
 70
     1
102
RTVSPropertyOp41
 70
     1
102
RTVSPropertyOp42
 70
     1
102
RTVSPropertyOp43
 70
     1
102
RTVSPropertyOp44
 70
     1
102
RTVSPropertyOp45
 70
     1
102
RTVSPropertyOp46
 70
     1
102
RTVSPropertyOp47
 70
     1
102
RTVSPropertyOp48
 70
     1
102
RTVSPropertyOp49
 70
     1
102
RTVSPropertyOp50
 70
     1
102
RTVSPropertyOp51
 70
     0
102
RTVSPropertyOp52
 70
     0
102
RTVSPropertyOp53
 70
     1
102
RTVSPropertyOp54
 70
     1
102
RTVSPropertyOp55
 70
     1
102
RTVSPropertyOp56
 70
     1
102
RTVSPropertyOp57
 70
     1
102
RTVSPropertyOp58
 70
     1
102
RTVSPropertyOp59
 70
     1
102
RTVSPropertyOp60
 70
     1
102
RTVSPropertyOp61
 70
     1
102
RTVSPropertyOp62
 70
     1
  0
XRECORD
  5
C354
102
{ACAD_REACTORS
330
C353
102
}
330
C353
100
AcDbXrecord
280
     1
102
RTVSPost2010Prop28
280
     0
102
RTVSPost2010PropOp28
 70
     1
102
RTVSPost2010Prop29
280
     1
102
RTVSPost2010PropOp29
 70
     1
102
RTVSPost2010Prop30
280
     1
102
RTVSPost2010PropOp30
 70
     1
102
RTVSPost2010Prop31
280
     0
102
RTVSPost2010PropOp31
 70
     1
102
RTVSPost2010Prop32
280
     0
102
RTVSPost2010PropOp32
 70
     1
102
RTVSPost2010Prop33
280
     0
102
RTVSPost2010PropOp33
 70
     1
102
RTVSPost2010Prop34
280
     0
102
RTVSPost2010PropOp34
 70
     1
102
RTVSPost2010Prop35
280
     0
102
RTVSPost2010PropOp35
 70
     1
102
RTVSPost2010Prop36
280
     0
102
RTVSPost2010PropOp36
 70
     1
102
RTVSPost2010Prop37
 90
       50
102
RTVSPost2010PropOp37
 70
     1
102
RTVSPost2010Prop38
140
0.0
102
RTVSPost2010PropOp38
 70
     1
102
RTVSPost2010Prop39
140
1.0
102
RTVSPost2010PropOp39
 70
     1
102
RTVSPost2010Prop40
 90
        0
102
RTVSPost2010PropOp40
 70
     1
102
RTVSPost2010Prop41ColorIndex
 90
       18
102
RTVSPost2010Prop41ColorRGB
 90
        0
102
RTVSPost2010PropOp41
 70
     1
102
RTVSPost2010Prop42
 90
       50
102
RTVSPost2010PropOp42
 70
     1
102
RTVSPost2010Prop43
 90
        3
102
RTVSPost2010PropOp43
 70
     1
102
RTVSPost2010Prop44ColorIndex
 90
        5
102
RTVSPost2010Prop44ColorRGB
 90
      255
102
RTVSPost2010PropOp44
 70
     1
102
RTVSPost2010Prop45
280
     0
102
RTVSPost2010PropOp45
 70
     1
102
RTVSPost2010Prop46
 90
       50
102
RTVSPost2010PropOp46
 70
     1
102
RTVSPost2010Prop47
 90
       50
102
RTVSPost2010PropOp47
 70
     1
102
RTVSPost2010Prop48
 90
       50
102
RTVSPost2010PropOp48
 70
     1
102
RTVSPost2010Prop49
280
     0
102
RTVSPost2010PropOp49
 70
     1
102
RTVSPost2010Prop50
 90
       50
102
RTVSPost2010PropOp50
 70
     1
102
RTVSPost2010Prop51ColorIndex
 90
      256
102
RTVSPost2010Prop51ColorRGB
 90
-16777216
102
RTVSPost2010PropOp51
 70
     0
102
RTVSPost2010Prop52
140
1.0
102
RTVSPost2010PropOp52
 70
     0
102
RTVSPost2010Prop53
 90
        2
102
RTVSPost2010PropOp53
 70
     1
102
RTVSPost2010Prop54
  1
strokes_ogs.tif
102
RTVSPost2010PropOp54
 70
     1
102
RTVSPost2010Prop55
280
     0
102
RTVSPost2010PropOp55
 70
     1
102
RTVSPost2010Prop56
140
1.0
102
RTVSPost2010PropOp56
 70
     1
102
RTVSPost2010Prop57
140
1.0
102
RTVSPost2010PropOp57
 70
     1
102
RTVSPropertyOp0
 70
     1
102
RTVSPropertyOp1
 70
     1
102
RTVSPropertyOp2
 70
     1
102
RTVSPropertyOp3
 70
     1
102
RTVSPropertyOp4
 70
     1
102
RTVSPropertyOp5
 70
     1
102
RTVSPropertyOp6
 70
     1
102
RTVSPropertyOp7
 70
     1
102
RTVSPropertyOp8
 70
     1
102
RTVSPropertyOp9
 70
     1
102
RTVSPropertyOp10
 70
     1
102
RTVSPropertyOp11
 70
     1
102
RTVSPropertyOp12
 70
     1
102
RTVSPropertyOp13
 70
     1
102
RTVSPropertyOp14
 70
     1
102
RTVSPropertyOp15
 70
     1
102
RTVSPropertyOp16
 70
     1
102
RTVSPropertyOp17
 70
     1
102
RTVSPropertyOp18
 70
     1
102
RTVSPropertyOp19
 70
     1
102
RTVSPropertyOp20
 70
     1
102
RTVSPropertyOp21
 70
     1
102
RTVSPropertyOp22
 70
     1
102
RTVSPropertyOp23
 70
     1
102
RTVSPropertyOp24
 70
     1
102
RTVSPropertyOp25
 70
     1
102
RTVSPropertyOp26
 70
     1
102
RTVSPropertyOp27
 70
     1
102
RTVSPropertyOp28
 70
     1
102
RTVSPropertyOp29
 70
     1
102
RTVSPropertyOp30
 70
     1
102
RTVSPropertyOp31
 70
     1
102
RTVSPropertyOp32
 70
     1
102
RTVSPropertyOp33
 70
     1
102
RTVSPropertyOp34
 70
     1
102
RTVSPropertyOp35
 70
     1
102
RTVSPropertyOp36
 70
     1
102
RTVSPropertyOp37
 70
     1
102
RTVSPropertyOp38
 70
     1
102
RTVSPropertyOp39
 70
     1
102
RTVSPropertyOp40
 70
     1
102
RTVSPropertyOp41
 70
     1
102
RTVSPropertyOp42
 70
     1
102
RTVSPropertyOp43
 70
     1
102
RTVSPropertyOp44
 70
     1
102
RTVSPropertyOp45
 70
     1
102
RTVSPropertyOp46
 70
     1
102
RTVSPropertyOp47
 70
     1
102
RTVSPropertyOp48
 70
     1
102
RTVSPropertyOp49
 70
     1
102
RTVSPropertyOp50
 70
     1
102
RTVSPropertyOp51
 70
     0
102
RTVSPropertyOp52
 70
     0
102
RTVSPropertyOp53
 70
     1
102
RTVSPropertyOp54
 70
     1
102
RTVSPropertyOp55
 70
     1
102
RTVSPropertyOp56
 70
     1
102
RTVSPropertyOp57
 70
     1
102
RTVSPropertyOp58
 70
     1
102
RTVSPropertyOp59
 70
     1
102
RTVSPropertyOp60
 70
     1
102
RTVSPropertyOp61
 70
     1
102
RTVSPropertyOp62
 70
     1
  0
XRECORD
  5
C348
102
{ACAD_REACTORS
330
C347
102
}
330
C347
100
AcDbXrecord
280
     1
102
RTVSPost2010Prop28
280
     0
102
RTVSPost2010PropOp28
 70
     1
102
RTVSPost2010Prop29
280
     1
102
RTVSPost2010PropOp29
 70
     1
102
RTVSPost2010Prop30
280
     1
102
RTVSPost2010PropOp30
 70
     1
102
RTVSPost2010Prop31
280
     0
102
RTVSPost2010PropOp31
 70
     1
102
RTVSPost2010Prop32
280
     0
102
RTVSPost2010PropOp32
 70
     1
102
RTVSPost2010Prop33
280
     0
102
RTVSPost2010PropOp33
 70
     1
102
RTVSPost2010Prop34
280
     0
102
RTVSPost2010PropOp34
 70
     1
102
RTVSPost2010Prop35
280
     0
102
RTVSPost2010PropOp35
 70
     1
102
RTVSPost2010Prop36
280
     0
102
RTVSPost2010PropOp36
 70
     1
102
RTVSPost2010Prop37
 90
       50
102
RTVSPost2010PropOp37
 70
     1
102
RTVSPost2010Prop38
140
0.0
102
RTVSPost2010PropOp38
 70
     1
102
RTVSPost2010Prop39
140
1.0
102
RTVSPost2010PropOp39
 70
     1
102
RTVSPost2010Prop40
 90
        0
102
RTVSPost2010PropOp40
 70
     1
102
RTVSPost2010Prop41ColorIndex
 90
       18
102
RTVSPost2010Prop41ColorRGB
 90
        0
102
RTVSPost2010PropOp41
 70
     1
102
RTVSPost2010Prop42
 90
       50
102
RTVSPost2010PropOp42
 70
     1
102
RTVSPost2010Prop43
 90
        3
102
RTVSPost2010PropOp43
 70
     1
102
RTVSPost2010Prop44ColorIndex
 90
        5
102
RTVSPost2010Prop44ColorRGB
 90
      255
102
RTVSPost2010PropOp44
 70
     1
102
RTVSPost2010Prop45
280
     0
102
RTVSPost2010PropOp45
 70
     1
102
RTVSPost2010Prop46
 90
       50
102
RTVSPost2010PropOp46
 70
     1
102
RTVSPost2010Prop47
 90
       50
102
RTVSPost2010PropOp47
 70
     1
102
RTVSPost2010Prop48
 90
       50
102
RTVSPost2010PropOp48
 70
     1
102
RTVSPost2010Prop49
280
     0
102
RTVSPost2010PropOp49
 70
     1
102
RTVSPost2010Prop50
 90
       50
102
RTVSPost2010PropOp50
 70
     1
102
RTVSPost2010Prop51ColorIndex
 90
      256
102
RTVSPost2010Prop51ColorRGB
 90
-16777216
102
RTVSPost2010PropOp51
 70
     0
102
RTVSPost2010Prop52
140
1.0
102
RTVSPost2010PropOp52
 70
     0
102
RTVSPost2010Prop53
 90
        2
102
RTVSPost2010PropOp53
 70
     1
102
RTVSPost2010Prop54
  1
strokes_ogs.tif
102
RTVSPost2010PropOp54
 70
     1
102
RTVSPost2010Prop55
280
     0
102
RTVSPost2010PropOp55
 70
     1
102
RTVSPost2010Prop56
140
1.0
102
RTVSPost2010PropOp56
 70
     1
102
RTVSPost2010Prop57
140
1.0
102
RTVSPost2010PropOp57
 70
     1
102
RTVSPropertyOp0
 70
     1
102
RTVSPropertyOp1
 70
     1
102
RTVSPropertyOp2
 70
     1
102
RTVSPropertyOp3
 70
     1
102
RTVSPropertyOp4
 70
     1
102
RTVSPropertyOp5
 70
     1
102
RTVSPropertyOp6
 70
     1
102
RTVSPropertyOp7
 70
     1
102
RTVSPropertyOp8
 70
     1
102
RTVSPropertyOp9
 70
     1
102
RTVSPropertyOp10
 70
     1
102
RTVSPropertyOp11
 70
     1
102
RTVSPropertyOp12
 70
     1
102
RTVSPropertyOp13
 70
     1
102
RTVSPropertyOp14
 70
     1
102
RTVSPropertyOp15
 70
     1
102
RTVSPropertyOp16
 70
     1
102
RTVSPropertyOp17
 70
     1
102
RTVSPropertyOp18
 70
     1
102
RTVSPropertyOp19
 70
     1
102
RTVSPropertyOp20
 70
     1
102
RTVSPropertyOp21
 70
     1
102
RTVSPropertyOp22
 70
     1
102
RTVSPropertyOp23
 70
     1
102
RTVSPropertyOp24
 70
     1
102
RTVSPropertyOp25
 70
     1
102
RTVSPropertyOp26
 70
     1
102
RTVSPropertyOp27
 70
     1
102
RTVSPropertyOp28
 70
     1
102
RTVSPropertyOp29
 70
     1
102
RTVSPropertyOp30
 70
     1
102
RTVSPropertyOp31
 70
     1
102
RTVSPropertyOp32
 70
     1
102
RTVSPropertyOp33
 70
     1
102
RTVSPropertyOp34
 70
     1
102
RTVSPropertyOp35
 70
     1
102
RTVSPropertyOp36
 70
     1
102
RTVSPropertyOp37
 70
     1
102
RTVSPropertyOp38
 70
     1
102
RTVSPropertyOp39
 70
     1
102
RTVSPropertyOp40
 70
     1
102
RTVSPropertyOp41
 70
     1
102
RTVSPropertyOp42
 70
     1
102
RTVSPropertyOp43
 70
     1
102
RTVSPropertyOp44
 70
     1
102
RTVSPropertyOp45
 70
     1
102
RTVSPropertyOp46
 70
     1
102
RTVSPropertyOp47
 70
     1
102
RTVSPropertyOp48
 70
     1
102
RTVSPropertyOp49
 70
     1
102
RTVSPropertyOp50
 70
     1
102
RTVSPropertyOp51
 70
     0
102
RTVSPropertyOp52
 70
     0
102
RTVSPropertyOp53
 70
     1
102
RTVSPropertyOp54
 70
     1
102
RTVSPropertyOp55
 70
     1
102
RTVSPropertyOp56
 70
     1
102
RTVSPropertyOp57
 70
     1
102
RTVSPropertyOp58
 70
     1
102
RTVSPropertyOp59
 70
     1
102
RTVSPropertyOp60
 70
     1
102
RTVSPropertyOp61
 70
     1
102
RTVSPropertyOp62
 70
     1
  0
XRECORD
  5
C360
102
{ACAD_REACTORS
330
C35F
102
}
330
C35F
100
AcDbXrecord
280
     1
102
RTVSPost2010Prop28
280
     0
102
RTVSPost2010PropOp28
 70
     1
102
RTVSPost2010Prop29
280
     1
102
RTVSPost2010PropOp29
 70
     1
102
RTVSPost2010Prop30
280
     1
102
RTVSPost2010PropOp30
 70
     1
102
RTVSPost2010Prop31
280
     0
102
RTVSPost2010PropOp31
 70
     1
102
RTVSPost2010Prop32
280
     0
102
RTVSPost2010PropOp32
 70
     1
102
RTVSPost2010Prop33
280
     0
102
RTVSPost2010PropOp33
 70
     1
102
RTVSPost2010Prop34
280
     0
102
RTVSPost2010PropOp34
 70
     1
102
RTVSPost2010Prop35
280
     0
102
RTVSPost2010PropOp35
 70
     1
102
RTVSPost2010Prop36
280
     0
102
RTVSPost2010PropOp36
 70
     1
102
RTVSPost2010Prop37
 90
       50
102
RTVSPost2010PropOp37
 70
     1
102
RTVSPost2010Prop38
140
0.0
102
RTVSPost2010PropOp38
 70
     1
102
RTVSPost2010Prop39
140
1.0
102
RTVSPost2010PropOp39
 70
     1
102
RTVSPost2010Prop40
 90
        0
102
RTVSPost2010PropOp40
 70
     1
102
RTVSPost2010Prop41ColorIndex
 90
       18
102
RTVSPost2010Prop41ColorRGB
 90
        0
102
RTVSPost2010PropOp41
 70
     1
102
RTVSPost2010Prop42
 90
       50
102
RTVSPost2010PropOp42
 70
     1
102
RTVSPost2010Prop43
 90
        3
102
RTVSPost2010PropOp43
 70
     1
102
RTVSPost2010Prop44ColorIndex
 90
        5
102
RTVSPost2010Prop44ColorRGB
 90
      255
102
RTVSPost2010PropOp44
 70
     1
102
RTVSPost2010Prop45
280
     0
102
RTVSPost2010PropOp45
 70
     1
102
RTVSPost2010Prop46
 90
       50
102
RTVSPost2010PropOp46
 70
     1
102
RTVSPost2010Prop47
 90
       50
102
RTVSPost2010PropOp47
 70
     1
102
RTVSPost2010Prop48
 90
       50
102
RTVSPost2010PropOp48
 70
     1
102
RTVSPost2010Prop49
280
     0
102
RTVSPost2010PropOp49
 70
     1
102
RTVSPost2010Prop50
 90
       50
102
RTVSPost2010PropOp50
 70
     1
102
RTVSPost2010Prop51ColorIndex
 90
      256
102
RTVSPost2010Prop51ColorRGB
 90
-16777216
102
RTVSPost2010PropOp51
 70
     0
102
RTVSPost2010Prop52
140
1.0
102
RTVSPost2010PropOp52
 70
     0
102
RTVSPost2010Prop53
 90
        2
102
RTVSPost2010PropOp53
 70
     1
102
RTVSPost2010Prop54
  1
strokes_ogs.tif
102
RTVSPost2010PropOp54
 70
     1
102
RTVSPost2010Prop55
280
     0
102
RTVSPost2010PropOp55
 70
     1
102
RTVSPost2010Prop56
140
1.0
102
RTVSPost2010PropOp56
 70
     1
102
RTVSPost2010Prop57
140
1.0
102
RTVSPost2010PropOp57
 70
     1
102
RTVSPropertyOp0
 70
     1
102
RTVSPropertyOp1
 70
     1
102
RTVSPropertyOp2
 70
     1
102
RTVSPropertyOp3
 70
     1
102
RTVSPropertyOp4
 70
     1
102
RTVSPropertyOp5
 70
     1
102
RTVSPropertyOp6
 70
     1
102
RTVSPropertyOp7
 70
     1
102
RTVSPropertyOp8
 70
     1
102
RTVSPropertyOp9
 70
     1
102
RTVSPropertyOp10
 70
     1
102
RTVSPropertyOp11
 70
     1
102
RTVSPropertyOp12
 70
     1
102
RTVSPropertyOp13
 70
     1
102
RTVSPropertyOp14
 70
     1
102
RTVSPropertyOp15
 70
     1
102
RTVSPropertyOp16
 70
     1
102
RTVSPropertyOp17
 70
     1
102
RTVSPropertyOp18
 70
     1
102
RTVSPropertyOp19
 70
     1
102
RTVSPropertyOp20
 70
     1
102
RTVSPropertyOp21
 70
     1
102
RTVSPropertyOp22
 70
     1
102
RTVSPropertyOp23
 70
     1
102
RTVSPropertyOp24
 70
     1
102
RTVSPropertyOp25
 70
     1
102
RTVSPropertyOp26
 70
     1
102
RTVSPropertyOp27
 70
     1
102
RTVSPropertyOp28
 70
     1
102
RTVSPropertyOp29
 70
     1
102
RTVSPropertyOp30
 70
     1
102
RTVSPropertyOp31
 70
     1
102
RTVSPropertyOp32
 70
     1
102
RTVSPropertyOp33
 70
     1
102
RTVSPropertyOp34
 70
     1
102
RTVSPropertyOp35
 70
     1
102
RTVSPropertyOp36
 70
     1
102
RTVSPropertyOp37
 70
     1
102
RTVSPropertyOp38
 70
     1
102
RTVSPropertyOp39
 70
     1
102
RTVSPropertyOp40
 70
     1
102
RTVSPropertyOp41
 70
     1
102
RTVSPropertyOp42
 70
     1
102
RTVSPropertyOp43
 70
     1
102
RTVSPropertyOp44
 70
     1
102
RTVSPropertyOp45
 70
     1
102
RTVSPropertyOp46
 70
     1
102
RTVSPropertyOp47
 70
     1
102
RTVSPropertyOp48
 70
     1
102
RTVSPropertyOp49
 70
     1
102
RTVSPropertyOp50
 70
     1
102
RTVSPropertyOp51
 70
     0
102
RTVSPropertyOp52
 70
     0
102
RTVSPropertyOp53
 70
     1
102
RTVSPropertyOp54
 70
     1
102
RTVSPropertyOp55
 70
     1
102
RTVSPropertyOp56
 70
     1
102
RTVSPropertyOp57
 70
     1
102
RTVSPropertyOp58
 70
     1
102
RTVSPropertyOp59
 70
     1
102
RTVSPropertyOp60
 70
     1
102
RTVSPropertyOp61
 70
     1
102
RTVSPropertyOp62
 70
     1
  0
ENDSEC
  0
EOF
