  0
SECTION
  2
HEADER
  9
$ACADVER
  1
AC1015
  9
$ACADMAINTVER
 70
    20
  9
$DWGCODEPAGE
  3
ANSI_932
  9
$INSBASE
 10
0.0
 20
0.0
 30
0.0
  9
$EXTMIN
 10
13.74573999999999
 20
9.999999999999998
 30
0.0
  9
$EXTMAX
 10
709.5951759999997
 20
421.325922
 30
0.0
  9
$LIMMIN
 10
0.0
 20
0.0
  9
$LIMMAX
 10
792.0
 20
546.0
  9
$ORTHOMODE
 70
     0
  9
$REGENMODE
 70
     1
  9
$FILLMODE
 70
     1
  9
$QTEXTMODE
 70
     0
  9
$MIRRTEXT
 70
     1
  9
$LTSCALE
 40
20.0
  9
$ATTMODE
 70
     1
  9
$TEXTSIZE
 40
5.0
  9
$TRACEWID
 40
1.0
  9
$TEXTSTYLE
  7
STANDARD
  9
$CLAYER
  8
0
  9
$CELTYPE
  6
BYLAYER
  9
$CECOLOR
 62
   256
  9
$CELTSCALE
 40
1.0
  9
$DISPSILH
 70
     0
  9
$DIMSCALE
 40
1.0
  9
$DIMASZ
 40
2.5
  9
$DIMEXO
 40
1.0
  9
$DIMDLI
 40
10.0
  9
$DIMRND
 40
0.0
  9
$DIMDLE
 40
0.0
  9
$DIMEXE
 40
1.0
  9
$DIMTP
 40
0.0
  9
$DIMTM
 40
0.0
  9
$DIMTXT
 40
3.2
  9
$DIMCEN
 40
0.0
  9
$DIMTSZ
 40
0.0
  9
$DIMTOL
 70
     0
  9
$DIMLIM
 70
     0
  9
$DIMTIH
 70
     0
  9
$DIMTOH
 70
     0
  9
$DIMSE1
 70
     0
  9
$DIMSE2
 70
     0
  9
$DIMTAD
 70
     3
  9
$DIMZIN
 70
     8
  9
$DIMBLK
  1

  9
$DIMASO
 70
     1
  9
$DIMSHO
 70
     1
  9
$DIMPOST
  1

  9
$DIMAPOST
  1

  9
$DIMALT
 70
     0
  9
$DIMALTD
 70
     2
  9
$DIMALTF
 40
25.4
  9
$DIMLFAC
 40
1.0
  9
$DIMTOFL
 70
     1
  9
$DIMTVP
 40
0.0
  9
$DIMTIX
 70
     0
  9
$DIMSOXD
 70
     0
  9
$DIMSAH
 70
     1
  9
$DIMBLK1
  1
OPEN
  9
$DIMBLK2
  1
OPEN
  9
$DIMSTYLE
  2
STANDARD
  9
$DIMCLRD
 70
     0
  9
$DIMCLRE
 70
     0
  9
$DIMCLRT
 70
     0
  9
$DIMTFAC
 40
1.0
  9
$DIMGAP
 40
1.0
  9
$DIMJUST
 70
     0
  9
$DIMSD1
 70
     0
  9
$DIMSD2
 70
     0
  9
$DIMTOLJ
 70
     1
  9
$DIMTZIN
 70
     0
  9
$DIMALTZ
 70
     0
  9
$DIMALTTZ
 70
     0
  9
$DIMUPT
 70
     0
  9
$DIMDEC
 70
     4
  9
$DIMTDEC
 70
     4
  9
$DIMALTU
 70
     2
  9
$DIMALTTD
 70
     2
  9
$DIMTXSTY
  7
STANDARD
  9
$DIMAUNIT
 70
     0
  9
$DIMADEC
 70
     0
  9
$DIMALTRND
 40
0.0
  9
$DIMAZIN
 70
     0
  9
$DIMDSEP
 70
    46
  9
$DIMATFIT
 70
     3
  9
$DIMFRAC
 70
     0
  9
$DIMLDRBLK
  1
OPEN
  9
$DIMLUNIT
 70
     2
  9
$DIMLWD
 70
    -2
  9
$DIMLWE
 70
    -2
  9
$DIMTMOVE
 70
     0
  9
$LUNITS
 70
     2
  9
$LUPREC
 70
     4
  9
$SKETCHINC
 40
1.0
  9
$FILLETRAD
 40
2.5
  9
$AUNITS
 70
     0
  9
$AUPREC
 70
     2
  9
$MENU
  1
.
  9
$ELEVATION
 40
0.0
  9
$PELEVATION
 40
0.0
  9
$THICKNESS
 40
0.0
  9
$LIMCHECK
 70
     0
  9
$CHAMFERA
 40
10.0
  9
$CHAMFERB
 40
10.0
  9
$CHAMFERC
 40
0.0
  9
$CHAMFERD
 40
0.0
  9
$SKPOLY
 70
     0
  9
$TDCREATE
 40
2451345.424334375
  9
$TDUCREATE
 40
2451345.049334376
  9
$TDUPDATE
 40
2457192.643564086
  9
$TDUUPDATE
 40
2457192.268564086
  9
$TDINDWG
 40
0.0000192708
  9
$TDUSRTIMER
 40
0.0000189468
  9
$USRTIMER
 70
     1
  9
$ANGBASE
 50
0.0
  9
$ANGDIR
 70
     0
  9
$PDMODE
 70
     0
  9
$PDSIZE
 40
0.0
  9
$PLINEWID
 40
0.0
  9
$SPLFRAME
 70
     0
  9
$SPLINETYPE
 70
     6
  9
$SPLINESEGS
 70
     8
  9
$HANDSEED
  5
C571
  9
$SURFTAB1
 70
     6
  9
$SURFTAB2
 70
     6
  9
$SURFTYPE
 70
     6
  9
$SURFU
 70
     6
  9
$SURFV
 70
     6
  9
$UCSBASE
  2

  9
$UCSNAME
  2

  9
$UCSORG
 10
0.0
 20
0.0
 30
0.0
  9
$UCSXDIR
 10
1.0
 20
0.0
 30
0.0
  9
$UCSYDIR
 10
0.0
 20
1.0
 30
0.0
  9
$UCSORTHOREF
  2

  9
$UCSORTHOVIEW
 70
     0
  9
$UCSORGTOP
 10
0.0
 20
0.0
 30
0.0
  9
$UCSORGBOTTOM
 10
0.0
 20
0.0
 30
0.0
  9
$UCSORGLEFT
 10
0.0
 20
0.0
 30
0.0
  9
$UCSORGRIGHT
 10
0.0
 20
0.0
 30
0.0
  9
$UCSORGFRONT
 10
0.0
 20
0.0
 30
0.0
  9
$UCSORGBACK
 10
0.0
 20
0.0
 30
0.0
  9
$PUCSBASE
  2

  9
$PUCSNAME
  2

  9
$PUCSORG
 10
0.0
 20
0.0
 30
0.0
  9
$PUCSXDIR
 10
1.0
 20
0.0
 30
0.0
  9
$PUCSYDIR
 10
0.0
 20
1.0
 30
0.0
  9
$PUCSORTHOREF
  2

  9
$PUCSORTHOVIEW
 70
     0
  9
$PUCSORGTOP
 10
0.0
 20
0.0
 30
0.0
  9
$PUCSORGBOTTOM
 10
0.0
 20
0.0
 30
0.0
  9
$PUCSORGLEFT
 10
0.0
 20
0.0
 30
0.0
  9
$PUCSORGRIGHT
 10
0.0
 20
0.0
 30
0.0
  9
$PUCSORGFRONT
 10
0.0
 20
0.0
 30
0.0
  9
$PUCSORGBACK
 10
0.0
 20
0.0
 30
0.0
  9
$USERI1
 70
     0
  9
$USERI2
 70
     0
  9
$USERI3
 70
     0
  9
$USERI4
 70
     0
  9
$USERI5
 70
     0
  9
$USERR1
 40
0.0
  9
$USERR2
 40
0.0
  9
$USERR3
 40
0.0
  9
$USERR4
 40
0.0
  9
$USERR5
 40
0.0
  9
$WORLDVIEW
 70
     1
  9
$SHADEDGE
 70
     3
  9
$SHADEDIF
 70
    70
  9
$TILEMODE
 70
     1
  9
$MAXACTVP
 70
    16
  9
$PINSBASE
 10
0.0
 20
0.0
 30
0.0
  9
$PLIMCHECK
 70
     0
  9
$PEXTMIN
 10
1.000000000000000E+20
 20
1.000000000000000E+20
 30
1.000000000000000E+20
  9
$PEXTMAX
 10
-1.000000000000000E+20
 20
-1.000000000000000E+20
 30
-1.000000000000000E+20
  9
$PLIMMIN
 10
0.0
 20
0.0
  9
$PLIMMAX
 10
420.0
 20
297.0
  9
$UNITMODE
 70
     0
  9
$VISRETAIN
 70
     0
  9
$PLINEGEN
 70
     0
  9
$PSLTSCALE
 70
     0
  9
$TREEDEPTH
 70
  3020
  9
$CMLSTYLE
  2
STANDARD
  9
$CMLJUST
 70
     0
  9
$CMLSCALE
 40
1.0
  9
$PROXYGRAPHICS
 70
     1
  9
$MEASUREMENT
 70
     0
  9
$CELWEIGHT
370
    -1
  9
$ENDCAPS
280
     0
  9
$JOINSTYLE
280
     0
  9
$LWDISPLAY
290
     0
  9
$INSUNITS
 70
     0
  9
$HYPERLINKBASE
  1

  9
$STYLESHEET
  1

  9
$XEDIT
290
     1
  9
$CEPSNTYPE
380
     0
  9
$PSTYLEMODE
290
     1
  9
$FINGERPRINTGUID
  2
{329A8EC1-A3B5-413B-880F-7CA03AFDBCEE}
  9
$VERSIONGUID
  2
{9B4A57EC-764D-4872-90A3-5E5B39F5AA3F}
  9
$EXTNAMES
290
     1
  9
$PSVPSCALE
 40
0.0
  9
$OLESTARTUP
290
     0
  0
ENDSEC
  0
SECTION
  2
CLASSES
  0
CLASS
  1
ACDBDICTIONARYWDFLT
  2
AcDbDictionaryWithDefault
  3
ObjectDBX Classes
 90
        0
280
     0
281
     0
  0
CLASS
  1
ACDBPLACEHOLDER
  2
AcDbPlaceHolder
  3
ObjectDBX Classes
 90
        0
280
     0
281
     0
  0
CLASS
  1
LAYOUT
  2
AcDbLayout
  3
ObjectDBX Classes
 90
        0
280
     0
281
     0
  0
CLASS
  1
DICTIONARYVAR
  2
AcDbDictionaryVar
  3
ObjectDBX Classes
 90
        0
280
     0
281
     0
  0
CLASS
  1
MATERIAL
  2
AcDbMaterial
  3
ObjectDBX Classes
 90
     1153
280
     0
281
     0
  0
CLASS
  1
VISUALSTYLE
  2
AcDbVisualStyle
  3
ObjectDBX Classes
 90
     4095
280
     0
281
     0
  0
CLASS
  1
TABLESTYLE
  2
AcDbTableStyle
  3
ObjectDBX Classes
 90
     4095
280
     0
281
     0
  0
CLASS
  1
SCALE
  2
AcDbScale
  3
ObjectDBX Classes
 90
     1153
280
     0
281
     0
  0
CLASS
  1
MLEADERSTYLE
  2
AcDbMLeaderStyle
  3
ACDB_MLEADERSTYLE_CLASS
 90
     4095
280
     0
281
     0
  0
CLASS
  1
ACDBSECTIONVIEWSTYLE
  2
AcDbSectionViewStyle
  3
ObjectDBX Classes
 90
     1025
280
     0
281
     0
  0
CLASS
  1
ACDBDETAILVIEWSTYLE
  2
AcDbDetailViewStyle
  3
ObjectDBX Classes
 90
     1025
280
     0
281
     0
  0
CLASS
  1
CELLSTYLEMAP
  2
AcDbCellStyleMap
  3
ObjectDBX Classes
 90
     1152
280
     0
281
     0
  0
ENDSEC
  0
SECTION
  2
TABLES
  0
TABLE
  2
VPORT
  5
C1A3
330
0
100
AcDbSymbolTable
 70
     1
  0
VPORT
  5
C4BA
330
C1A3
100
AcDbSymbolTableRecord
100
AcDbViewportTableRecord
  2
*ACTIVE
 70
     0
 10
0.0
 20
0.0
 11
1.0
 21
1.0
 12
486.2413794086728
 22
215.6598370199322
 13
0.0
 23
0.0
 14
10.0
 24
10.0
 15
10.0
 25
10.0
 16
0.0
 26
0.0
 36
1.0
 17
0.0
 27
0.0
 37
0.0
 40
415.9586778224133
 41
1.899603698811096
 42
50.0
 43
0.0
 44
0.0
 50
0.0
 51
0.0
 71
     0
 72
   100
 73
     1
 74
     0
 75
     0
 76
     0
 77
     0
 78
     0
281
     0
 65
     1
110
0.0
120
0.0
130
0.0
111
1.0
121
0.0
131
0.0
112
0.0
122
1.0
132
0.0
 79
     0
146
0.0
1001
ACAD_NAV_VCDISPLAY
1070
     3
  0
ENDTAB
  0
TABLE
  2
LTYPE
  5
C1A0
330
0
100
AcDbSymbolTable
 70
     4
  0
LTYPE
  5
C1AE
330
C1A0
100
AcDbSymbolTableRecord
100
AcDbLinetypeTableRecord
  2
BYBLOCK
 70
     0
  3

 72
    65
 73
     0
 40
0.0
  0
LTYPE
  5
C1AF
330
C1A0
100
AcDbSymbolTableRecord
100
AcDbLinetypeTableRecord
  2
BYLAYER
 70
     0
  3

 72
    65
 73
     0
 40
0.0
  0
LTYPE
  5
C1B0
330
C1A0
100
AcDbSymbolTableRecord
100
AcDbLinetypeTableRecord
  2
CONTINUOUS
 70
     0
  3
Solid line
 72
    65
 73
     0
 40
0.0
  0
LTYPE
  5
C1BE
330
C1A0
100
AcDbSymbolTableRecord
100
AcDbLinetypeTableRecord
  2
DASHED
 70
     0
  3
__ __ __ __ __ __ __ __ __ __ __ __ __ __ __ __
 72
    65
 73
     2
 40
0.75
 49
0.5
 74
     0
 49
-0.25
 74
     0
  0
LTYPE
  5
C1BF
330
C1A0
100
AcDbSymbolTableRecord
100
AcDbLinetypeTableRecord
  2
CENTER
 70
     0
  3
____ _ ____ _ ____ _ ____ _ ____ _ ____ _ ____ 
 72
    65
 73
     4
 40
2.0
 49
1.25
 74
     0
 49
-0.25
 74
     0
 49
0.25
 74
     0
 49
-0.25
 74
     0
  0
LTYPE
  5
C1C0
330
C1A0
100
AcDbSymbolTableRecord
100
AcDbLinetypeTableRecord
  2
PHANTOM
 70
     0
  3
______  __  __  ______  __  __  ______  __  __ 
 72
    65
 73
     6
 40
2.5
 49
1.25
 74
     0
 49
-0.25
 74
     0
 49
0.25
 74
     0
 49
-0.25
 74
     0
 49
0.25
 74
     0
 49
-0.25
 74
     0
  0
ENDTAB
  0
TABLE
  2
LAYER
  5
C19D
330
0
100
AcDbSymbolTable
 70
     8
  0
LAYER
  5
C1AB
102
{ACAD_XDICTIONARY
360
C515
102
}
330
C19D
100
AcDbSymbolTableRecord
100
AcDbLayerTableRecord
  2
0
 70
     0
 62
     7
  6
CONTINUOUS
370
    -3
390
C4C3
  0
LAYER
  5
C1C1
102
{ACAD_XDICTIONARY
360
C517
102
}
330
C19D
100
AcDbSymbolTableRecord
100
AcDbLayerTableRecord
  2
4
 70
     0
 62
     1
  6
CENTER
370
    -3
390
C4C3
  0
LAYER
  5
C1C2
102
{ACAD_XDICTIONARY
360
C519
102
}
330
C19D
100
AcDbSymbolTableRecord
100
AcDbLayerTableRecord
  2
5
 70
     0
 62
     6
  6
PHANTOM
370
    -3
390
C4C3
  0
LAYER
  5
C1C3
102
{ACAD_XDICTIONARY
360
C51B
102
}
330
C19D
100
AcDbSymbolTableRecord
100
AcDbLayerTableRecord
  2
1
 70
     0
 62
     7
  6
CONTINUOUS
370
    -3
390
C4C3
  0
LAYER
  5
C1C4
102
{ACAD_XDICTIONARY
360
C51D
102
}
330
C19D
100
AcDbSymbolTableRecord
100
AcDbLayerTableRecord
  2
2
 70
     0
 62
     4
  6
CONTINUOUS
370
    -3
390
C4C3
  0
LAYER
  5
C1C5
102
{ACAD_XDICTIONARY
360
C51F
102
}
330
C19D
100
AcDbSymbolTableRecord
100
AcDbLayerTableRecord
  2
3
 70
     0
 62
     2
  6
DASHED
370
    -3
390
C4C3
  0
LAYER
  5
C1C6
102
{ACAD_XDICTIONARY
360
C521
102
}
330
C19D
100
AcDbSymbolTableRecord
100
AcDbLayerTableRecord
  2
6
 70
     0
 62
     5
  6
CONTINUOUS
370
    -3
390
C4C3
  0
LAYER
  5
C1C7
102
{ACAD_XDICTIONARY
360
C523
102
}
330
C19D
100
AcDbSymbolTableRecord
100
AcDbLayerTableRecord
  2
7
 70
     0
 62
     3
  6
CONTINUOUS
370
    -3
390
C4C3
  0
ENDTAB
  0
TABLE
  2
STYLE
  5
C19E
330
0
100
AcDbSymbolTable
 70
     1
  0
STYLE
  5
C1AC
330
C19E
100
AcDbSymbolTableRecord
100
AcDbTextStyleTableRecord
  2
STANDARD
 70
     0
 40
0.0
 41
1.0
 50
0.0
 71
     0
 42
5.0
  3
txt
  4

  0
ENDTAB
  0
TABLE
  2
VIEW
  5
C1A1
330
0
100
AcDbSymbolTable
 70
     0
  0
ENDTAB
  0
TABLE
  2
UCS
  5
C1A2
330
0
100
AcDbSymbolTable
 70
     0
  0
ENDTAB
  0
TABLE
  2
APPID
  5
C1A4
330
0
100
AcDbSymbolTable
 70
     3
  0
APPID
  5
C1AD
330
C1A4
100
AcDbSymbolTableRecord
100
AcDbRegAppTableRecord
  2
ACAD
 70
     0
  0
APPID
  5
C52F
330
C1A4
100
AcDbSymbolTableRecord
100
AcDbRegAppTableRecord
  2
ACAD_NAV_VCDISPLAY
 70
     0
  0
APPID
  5
C568
330
C1A4
100
AcDbSymbolTableRecord
100
AcDbRegAppTableRecord
  2
ACAD_MLEADERVER
 70
     0
  0
ENDTAB
  0
TABLE
  2
DIMSTYLE
  5
C1A5
330
0
100
AcDbSymbolTable
 70
     1
100
AcDbDimStyleTable
 71
     0
  0
DIMSTYLE
105
C1C9
330
C1A5
100
AcDbSymbolTableRecord
100
AcDbDimStyleTableRecord
  2
STANDARD
 70
     0
 41
2.5
 42
1.0
 43
10.0
 44
1.0
 73
     0
 74
     0
 77
     3
 78
     8
140
3.2
141
0.0
147
1.0
172
     1
173
     1
284
     8
285
     8
286
     8
340
C1AC
  0
ENDTAB
  0
TABLE
  2
BLOCK_RECORD
  5
C19C
330
0
100
AcDbSymbolTable
 70
     1
  0
BLOCK_RECORD
  5
C1B9
102
{ACAD_XDICTIONARY
360
C4BD
102
}
330
C19C
100
AcDbSymbolTableRecord
100
AcDbBlockTableRecord
  2
*MODEL_SPACE
340
C511
  0
BLOCK_RECORD
  5
C1B5
102
{ACAD_XDICTIONARY
360
C4BB
102
}
330
C19C
100
AcDbSymbolTableRecord
100
AcDbBlockTableRecord
  2
*PAPER_SPACE
340
C512
  0
BLOCK_RECORD
  5
C1D1
330
C19C
100
AcDbSymbolTableRecord
100
AcDbBlockTableRecord
  2
_OPEN
340
0
  0
ENDTAB
  0
ENDSEC
  0
SECTION
  2
BLOCKS
  0
BLOCK
  5
C1BA
330
C1B9
100
AcDbEntity
  8
0
100
AcDbBlockBegin
  2
*MODEL_SPACE
 70
     0
 10
0.0
 20
0.0
 30
0.0
  3
*MODEL_SPACE
  1

  0
ENDBLK
  5
C1BB
330
C1B9
100
AcDbEntity
  8
0
100
AcDbBlockEnd
  0
BLOCK
  5
C1B6
330
C1B5
100
AcDbEntity
 67
     1
  8
0
100
AcDbBlockBegin
  2
*PAPER_SPACE
 70
     0
 10
0.0
 20
0.0
 30
0.0
  3
*PAPER_SPACE
  1

  0
ENDBLK
  5
C1B7
330
C1B5
100
AcDbEntity
 67
     1
  8
0
100
AcDbBlockEnd
  0
BLOCK
  5
C1D2
330
C1D1
100
AcDbEntity
  8
0
100
AcDbBlockBegin
  2
_OPEN
 70
     0
 10
0.0
 20
0.0
 30
0.0
  3
_OPEN
  1

  0
LINE
  5
C1D3
330
C1D1
100
AcDbEntity
  8
0
  6
ByBlock
 62
     0
100
AcDbLine
 10
-1.0
 20
0.166667
 30
0.0
 11
0.0
 21
0.0
 31
0.0
  0
LINE
  5
C1D4
330
C1D1
100
AcDbEntity
  8
0
  6
ByBlock
 62
     0
100
AcDbLine
 10
0.0
 20
0.0
 30
0.0
 11
-1.0
 21
-0.166667
 31
0.0
  0
LINE
  5
C1D5
330
C1D1
100
AcDbEntity
  8
0
  6
ByBlock
 62
     0
100
AcDbLine
 10
0.0
 20
0.0
 30
0.0
 11
-1.0
 21
0.0
 31
0.0
  0
ENDBLK
  5
C1D6
330
C1D1
100
AcDbEntity
  8
0
100
AcDbBlockEnd
  0
ENDSEC
  0
SECTION
  2
ENTITIES
  0
LINE
  5
C1D7
330
C1B9
100
AcDbEntity
  8
4
  6
CENTER
100
AcDbLine
 10
292.953419
 20
57.000001
 30
0.0
 11
254.690346
 21
57.000001
 31
0.0
  0
ARC
  5
C1D8
330
C1B9
100
AcDbEntity
  8
1
  6
Continuous
100
AcDbCircle
 10
267.91647
 20
57.000001
 30
0.0
 40
10.54339799999998
100
AcDbArc
 50
116.930926
 51
243.0690740000001
  0
LINE
  5
C1D9
330
C1B9
100
AcDbEntity
  8
1
  6
Continuous
100
AcDbLine
 10
260.494434
 20
282.3097649999999
 30
0.0
 11
257.6660069999999
 21
279.4813379999999
 31
0.0
  0
LINE
  5
C1DA
330
C1B9
100
AcDbEntity
  8
1
  6
Continuous
100
AcDbLine
 10
257.6660069999999
 20
278.0671239999999
 30
0.0
 11
259.212306
 21
276.520825
 31
0.0
  0
LINE
  5
C1DB
330
C1B9
100
AcDbEntity
  8
5
  6
PHANTOM
100
AcDbLine
 10
260.9696649999999
 20
268.077175
 30
0.0
 11
215.8759959999999
 21
222.983506
 31
0.0
  0
LINE
  5
C1DC
330
C1B9
100
AcDbEntity
  8
5
  6
PHANTOM
100
AcDbLine
 10
259.212306
 20
274.8050969999999
 30
0.0
 11
193.248579
 21
208.8413699999999
 31
0.0
  0
ARC
  5
C1DD
330
C1B9
100
AcDbEntity
  8
1
  6
Continuous
100
AcDbCircle
 10
52.14574
 20
177.162961
 30
0.0
 40
2.0
100
AcDbArc
 50
270.0
 51
0.0
  0
ARC
  5
C1DE
330
C1B9
100
AcDbEntity
  8
1
  6
Continuous
100
AcDbCircle
 10
52.14574
 20
176.662961
 30
0.0
 40
2.5
100
AcDbArc
 50
270.0
 51
0.0
  0
ARC
  5
C1DF
330
C1B9
100
AcDbEntity
  8
1
  6
Continuous
100
AcDbCircle
 10
37.34574
 20
177.162961
 30
0.0
 40
2.0
100
AcDbArc
 50
180.0
 51
270.0
  0
ARC
  5
C1E0
330
C1B9
100
AcDbEntity
  8
1
  6
Continuous
100
AcDbCircle
 10
37.34574
 20
176.662961
 30
0.0
 40
2.5
100
AcDbArc
 50
180.0
 51
270.0
  0
LINE
  5
C1E1
330
C1B9
100
AcDbEntity
  8
1
  6
Continuous
100
AcDbLine
 10
31.74574
 20
296.162961
 30
0.0
 11
31.74574
 21
164.162961
 31
0.0
  0
LINE
  5
C1E2
330
C1B9
100
AcDbEntity
  8
1
  6
Continuous
100
AcDbLine
 10
57.74574000000001
 20
164.162961
 30
0.0
 11
57.74574000000001
 21
296.162961
 31
0.0
  0
LINE
  5
C1E3
330
C1B9
100
AcDbEntity
  8
1
  6
Continuous
100
AcDbLine
 10
60.74574000000001
 20
296.162961
 30
0.0
 11
60.74574000000001
 21
164.162961
 31
0.0
  0
LINE
  5
C1E4
330
C1B9
100
AcDbEntity
  8
1
  6
Continuous
100
AcDbLine
 10
28.74574
 20
296.162961
 30
0.0
 11
28.74574
 21
164.162961
 31
0.0
  0
LINE
  5
C1E5
330
C1B9
100
AcDbEntity
  8
4
  6
CENTER
100
AcDbLine
 10
44.74573999999999
 20
304.8892299999999
 30
0.0
 11
44.74573999999999
 21
155.1464249999999
 31
0.0
  0
TEXT
  5
C1E6
330
C1B9
100
AcDbEntity
  8
7
  6
Continuous
100
AcDbText
 10
13.74573999999999
 20
18.0
 30
0.0
 40
3.0
  1
TYPE No.THA-505-1K
100
AcDbText
  0
TEXT
  5
C1E7
330
C1B9
100
AcDbEntity
  8
7
  6
Continuous
100
AcDbText
 10
13.74573999999999
 20
26.0
 30
0.0
 40
3.0
  1
CODE No.13094
100
AcDbText
  0
TEXT
  5
C1E8
330
C1B9
100
AcDbEntity
  8
1
  6
Continuous
100
AcDbText
 10
13.74573999999999
 20
10.0
 30
0.0
 40
1.399999999999999
  1
LAYER
100
AcDbText
  0
TEXT
  5
C1E9
330
C1B9
100
AcDbEntity
  8
7
  6
Continuous
100
AcDbText
 10
33.725251
 20
10.04873699999998
 30
0.0
 40
1.399999999999999
  1
7
100
AcDbText
  0
TEXT
  5
C1EA
330
C1B9
100
AcDbEntity
  8
6
  6
Continuous
100
AcDbText
 10
31.725251
 20
10.04873699999998
 30
0.0
 40
1.399999999999999
  1
6
100
AcDbText
  0
TEXT
  5
C1EB
330
C1B9
100
AcDbEntity
  8
4
  6
CENTER
100
AcDbText
 10
27.725251
 20
10.04873699999998
 30
0.0
 40
1.399999999999999
  1
4
100
AcDbText
  0
TEXT
  5
C1EC
330
C1B9
100
AcDbEntity
  8
5
  6
PHANTOM
100
AcDbText
 10
29.725251
 20
10.04873699999998
 30
0.0
 40
1.399999999999999
  1
5
100
AcDbText
  0
TEXT
  5
C1ED
330
C1B9
100
AcDbEntity
  8
3
  6
DASHED
100
AcDbText
 10
25.725251
 20
10.04873699999998
 30
0.0
 40
1.399999999999999
  1
3
100
AcDbText
  0
TEXT
  5
C1EE
330
C1B9
100
AcDbEntity
  8
1
  6
Continuous
100
AcDbText
 10
21.725251
 20
10.04873699999998
 30
0.0
 40
1.399999999999999
  1
1
100
AcDbText
  0
TEXT
  5
C1EF
330
C1B9
100
AcDbEntity
  8
2
  6
Continuous
100
AcDbText
 10
23.725251
 20
10.04873699999998
 30
0.0
 40
1.399999999999999
  1
2
100
AcDbText
  0
LINE
  5
C1F0
330
C1B9
100
AcDbEntity
  8
1
  6
Continuous
100
AcDbLine
 10
33.74573999999999
 20
162.162961
 30
0.0
 11
55.74574000000001
 21
162.162961
 31
0.0
  0
LINE
  5
C1F1
330
C1B9
100
AcDbEntity
  8
1
  6
Continuous
100
AcDbLine
 10
55.74574000000001
 20
159.162961
 30
0.0
 11
33.74573999999999
 21
159.162961
 31
0.0
  0
ARC
  5
C1F2
330
C1B9
100
AcDbEntity
  8
1
  6
Continuous
100
AcDbCircle
 10
33.74573999999999
 20
164.162961
 30
0.0
 40
2.0
100
AcDbArc
 50
180.0
 51
270.0
  0
ARC
  5
C1F3
330
C1B9
100
AcDbEntity
  8
1
  6
Continuous
100
AcDbCircle
 10
33.74573999999999
 20
164.162961
 30
0.0
 40
5.0
100
AcDbArc
 50
180.0
 51
270.0
  0
LINE
  5
C1F4
330
C1B9
100
AcDbEntity
  8
1
  6
Continuous
100
AcDbLine
 10
52.14574
 20
175.162961
 30
0.0
 11
37.34574
 21
175.162961
 31
0.0
  0
LINE
  5
C1F5
330
C1B9
100
AcDbEntity
  8
1
  6
Continuous
100
AcDbLine
 10
52.14574
 20
174.162961
 30
0.0
 11
37.34574
 21
174.162961
 31
0.0
  0
LINE
  5
C1F6
330
C1B9
100
AcDbEntity
  8
4
  6
CENTER
100
AcDbLine
 10
48.776853
 20
166.162961
 30
0.0
 11
41.309415
 21
166.162961
 31
0.0
  0
ARC
  5
C1F7
330
C1B9
100
AcDbEntity
  8
1
  6
Continuous
100
AcDbCircle
 10
55.74574000000001
 20
164.162961
 30
0.0
 40
2.0
100
AcDbArc
 50
270.0
 51
0.0
  0
ARC
  5
C1F8
330
C1B9
100
AcDbEntity
  8
1
  6
Continuous
100
AcDbCircle
 10
55.74574000000001
 20
164.162961
 30
0.0
 40
5.0
100
AcDbArc
 50
270.0
 51
0.0
  0
LINE
  5
C1F9
330
C1B9
100
AcDbEntity
  8
4
  6
CENTER
100
AcDbLine
 10
24.134311
 20
275.662961
 30
0.0
 11
150.333986
 21
275.662961
 31
0.0
  0
LINE
  5
C1FA
330
C1B9
100
AcDbEntity
  8
5
  6
PHANTOM
100
AcDbLine
 10
44.74573999999999
 20
285.062961
 30
0.0
 11
143.2457399999998
 21
285.062961
 31
0.0
  0
LINE
  5
C1FB
330
C1B9
100
AcDbEntity
  8
5
  6
PHANTOM
100
AcDbLine
 10
44.74573999999999
 20
266.2629609999999
 30
0.0
 11
143.2457399999998
 21
266.2629609999999
 31
0.0
  0
LINE
  5
C1FC
330
C1B9
100
AcDbEntity
  8
1
  6
Continuous
100
AcDbLine
 10
54.14574
 20
275.662961
 30
0.0
 11
54.14574
 21
177.162961
 31
0.0
  0
LINE
  5
C1FD
330
C1B9
100
AcDbEntity
  8
1
  6
Continuous
100
AcDbLine
 10
35.34574
 20
275.662961
 30
0.0
 11
35.34574
 21
177.162961
 31
0.0
  0
LINE
  5
C1FE
330
C1B9
100
AcDbEntity
  8
1
  6
Continuous
100
AcDbLine
 10
54.64574
 20
275.712961
 30
0.0
 11
54.64574
 21
176.662961
 31
0.0
  0
LINE
  5
C1FF
330
C1B9
100
AcDbEntity
  8
1
  6
Continuous
100
AcDbLine
 10
34.84574
 20
275.712961
 30
0.0
 11
34.84574
 21
176.662961
 31
0.0
  0
LINE
  5
C200
330
C1B9
100
AcDbEntity
  8
4
  6
CENTER
100
AcDbLine
 10
54.14574
 20
186.662961
 30
0.0
 11
35.44574
 21
186.662961
 31
0.0
  0
ARC
  5
C201
330
C1B9
100
AcDbEntity
  8
1
  6
Continuous
100
AcDbCircle
 10
37.34574
 20
195.162961
 30
0.0
 40
2.5
100
AcDbArc
 50
143.130102
 51
180.0
  0
CIRCLE
  5
C202
330
C1B9
100
AcDbEntity
  8
1
  6
Continuous
100
AcDbCircle
 10
44.69574
 20
186.662961
 30
0.0
 40
7.799999999999998
  0
CIRCLE
  5
C203
330
C1B9
100
AcDbEntity
  8
1
  6
Continuous
100
AcDbCircle
 10
44.69574
 20
186.662961
 30
0.0
 40
7.65
  0
LINE
  5
C204
330
C1B9
100
AcDbEntity
  8
1
  6
Continuous
100
AcDbLine
 10
44.44574
 20
187.112961
 30
0.0
 11
44.44574
 21
186.212961
 31
0.0
  0
LINE
  5
C205
330
C1B9
100
AcDbEntity
  8
1
  6
Continuous
100
AcDbLine
 10
43.64574
 20
183.312961
 30
0.0
 11
43.64574
 21
190.312961
 31
0.0
  0
LINE
  5
C206
330
C1B9
100
AcDbEntity
  8
1
  6
Continuous
100
AcDbLine
 10
45.74574000000001
 20
183.312961
 30
0.0
 11
45.74574000000001
 21
190.312961
 31
0.0
  0
LINE
  5
C207
330
C1B9
100
AcDbEntity
  8
1
  6
Continuous
100
AcDbLine
 10
42.29574
 20
179.399181
 30
0.0
 11
42.29574
 21
179.2413709999999
 31
0.0
  0
LINE
  5
C208
330
C1B9
100
AcDbEntity
  8
1
  6
Continuous
100
AcDbLine
 10
47.09573999999999
 20
179.399181
 30
0.0
 11
47.09573999999999
 21
179.2413709999999
 31
0.0
  0
LINE
  5
C209
330
C1B9
100
AcDbEntity
  8
1
  6
Continuous
100
AcDbLine
 10
45.74574000000001
 20
183.712961
 30
0.0
 11
43.64574
 21
183.712961
 31
0.0
  0
LINE
  5
C20A
330
C1B9
100
AcDbEntity
  8
1
  6
Continuous
100
AcDbLine
 10
44.44574
 20
186.212961
 30
0.0
 11
43.64574
 21
186.212961
 31
0.0
  0
LINE
  5
C20B
330
C1B9
100
AcDbEntity
  8
1
  6
Continuous
100
AcDbLine
 10
45.74574000000001
 20
185.5129609999999
 30
0.0
 11
44.94574
 21
185.5129609999999
 31
0.0
  0
LINE
  5
C20C
330
C1B9
100
AcDbEntity
  8
1
  6
Continuous
100
AcDbLine
 10
44.94574
 20
185.5129609999999
 30
0.0
 11
44.94574
 21
184.612961
 31
0.0
  0
LINE
  5
C20D
330
C1B9
100
AcDbEntity
  8
1
  6
Continuous
100
AcDbLine
 10
45.74574000000001
 20
184.612961
 30
0.0
 11
44.94574
 21
184.612961
 31
0.0
  0
LINE
  5
C20E
330
C1B9
100
AcDbEntity
  8
1
  6
Continuous
100
AcDbLine
 10
45.74574000000001
 20
183.312961
 30
0.0
 11
43.64574
 21
183.312961
 31
0.0
  0
CIRCLE
  5
C20F
330
C1B9
100
AcDbEntity
  8
1
  6
Continuous
100
AcDbCircle
 10
44.69574
 20
192.362961
 30
0.0
 40
0.45
  0
LINE
  5
C210
330
C1B9
100
AcDbEntity
  8
1
  6
Continuous
100
AcDbLine
 10
44.44574
 20
187.112961
 30
0.0
 11
43.64574
 21
187.112961
 31
0.0
  0
LINE
  5
C211
330
C1B9
100
AcDbEntity
  8
1
  6
Continuous
100
AcDbLine
 10
45.74574000000001
 20
188.5129609999999
 30
0.0
 11
44.94574
 21
188.5129609999999
 31
0.0
  0
LINE
  5
C212
330
C1B9
100
AcDbEntity
  8
1
  6
Continuous
100
AcDbLine
 10
44.94574
 20
190.212961
 30
0.0
 11
44.94574
 21
188.5129609999999
 31
0.0
  0
LINE
  5
C213
330
C1B9
100
AcDbEntity
  8
1
  6
Continuous
100
AcDbLine
 10
45.74574000000001
 20
190.212961
 30
0.0
 11
43.64574
 21
190.212961
 31
0.0
  0
LINE
  5
C214
330
C1B9
100
AcDbEntity
  8
1
  6
Continuous
100
AcDbLine
 10
45.74574000000001
 20
190.312961
 30
0.0
 11
43.64574
 21
190.312961
 31
0.0
  0
LINE
  5
C215
330
C1B9
100
AcDbEntity
  8
1
  6
Continuous
100
AcDbLine
 10
42.29574
 20
194.084551
 30
0.0
 11
42.29574
 21
193.926741
 31
0.0
  0
LINE
  5
C216
330
C1B9
100
AcDbEntity
  8
1
  6
Continuous
100
AcDbLine
 10
47.09573999999999
 20
194.084551
 30
0.0
 11
47.09573999999999
 21
193.926741
 31
0.0
  0
ARC
  5
C217
330
C1B9
100
AcDbEntity
  8
1
  6
Continuous
100
AcDbCircle
 10
52.14574
 20
195.162961
 30
0.0
 40
2.5
100
AcDbArc
 50
0.0
 51
36.869898
  0
LINE
  5
C218
330
C1B9
100
AcDbEntity
  8
1
  6
Continuous
100
AcDbLine
 10
55.74574000000001
 20
298.162961
 30
0.0
 11
33.74573999999999
 21
298.162961
 31
0.0
  0
LINE
  5
C219
330
C1B9
100
AcDbEntity
  8
1
  6
Continuous
100
AcDbLine
 10
55.74574000000001
 20
301.1629609999999
 30
0.0
 11
33.74573999999999
 21
301.1629609999999
 31
0.0
  0
ARC
  5
C21A
330
C1B9
100
AcDbEntity
  8
1
  6
Continuous
100
AcDbCircle
 10
40.444917
 20
272.0654579999999
 30
0.0
 40
5.099553
100
AcDbArc
 50
149.273212
 51
179.3037379999999
  0
ARC
  5
C21B
330
C1B9
100
AcDbEntity
  8
1
  6
Continuous
100
AcDbCircle
 10
44.74573999999999
 20
275.662961
 30
0.0
 40
9.4
100
AcDbArc
 50
102.865072
 51
167.134928
  0
ARC
  5
C21C
330
C1B9
100
AcDbEntity
  8
1
  6
Continuous
100
AcDbCircle
 10
44.74573999999999
 20
275.712961
 30
0.0
 40
9.9
100
AcDbArc
 50
0.0
 51
180.0
  0
ARC
  5
C21D
330
C1B9
100
AcDbEntity
  8
1
  6
Continuous
100
AcDbCircle
 10
44.74573999999999
 20
275.662961
 30
0.0
 40
9.4
100
AcDbArc
 50
102.865072
 51
180.0
  0
ARC
  5
C21E
330
C1B9
100
AcDbEntity
  8
1
  6
Continuous
100
AcDbCircle
 10
33.74573999999999
 20
296.162961
 30
0.0
 40
2.0
100
AcDbArc
 50
90.0
 51
180.0
  0
ARC
  5
C21F
330
C1B9
100
AcDbEntity
  8
1
  6
Continuous
100
AcDbCircle
 10
33.74573999999999
 20
296.162961
 30
0.0
 40
5.0
100
AcDbArc
 50
90.0
 51
180.0
  0
ARC
  5
C220
330
C1B9
100
AcDbEntity
  8
1
  6
Continuous
100
AcDbCircle
 10
44.74573999999999
 20
275.662961
 30
0.0
 40
9.4
100
AcDbArc
 50
0.0
 51
77.134928
  0
ARC
  5
C221
330
C1B9
100
AcDbEntity
  8
1
  6
Continuous
100
AcDbCircle
 10
47.581918
 20
271.1856529999999
 30
0.0
 40
6.808118999999998
100
AcDbArc
 50
30.79360100000001
 51
55.96370600000001
  0
LINE
  5
C222
330
C1B9
100
AcDbEntity
  8
1
  6
Continuous
100
AcDbLine
 10
46.838705
 20
284.826994
 30
0.0
 11
42.65277499999998
 21
284.826994
 31
0.0
  0
ARC
  5
C223
330
C1B9
100
AcDbEntity
  8
1
  6
Continuous
100
AcDbCircle
 10
44.788876
 20
266.040296
 30
0.0
 40
12.734008
100
AcDbArc
 50
73.79338
 51
90.194089
  0
ARC
  5
C224
330
C1B9
100
AcDbEntity
  8
1
  6
Continuous
100
AcDbCircle
 10
42.26570399999999
 20
270.8491179999999
 30
0.0
 40
7.287119999999998
100
AcDbArc
 50
124.875766
 51
148.366927
  0
ARC
  5
C225
330
C1B9
100
AcDbEntity
  8
1
  6
Continuous
100
AcDbCircle
 10
44.08647799999999
 20
268.102345
 30
0.0
 40
10.58195199999999
100
AcDbArc
 50
106.1193379999999
 51
124.459656
  0
ARC
  5
C226
330
C1B9
100
AcDbEntity
  8
1
  6
Continuous
100
AcDbCircle
 10
44.73700299999999
 20
265.7957249999999
 30
0.0
 40
12.97850799999999
100
AcDbArc
 50
89.96143000000001
 51
106.051101
  0
ARC
  5
C227
330
C1B9
100
AcDbEntity
  8
1
  6
Continuous
100
AcDbCircle
 10
45.641929
 20
268.6038049999999
 30
0.0
 40
10.03481599999999
100
AcDbArc
 50
55.035673
 51
74.38533300000002
  0
ARC
  5
C228
330
C1B9
100
AcDbEntity
  8
1
  6
Continuous
100
AcDbCircle
 10
49.221752
 20
272.1147399999999
 30
0.0
 40
4.924004
100
AcDbArc
 50
0.147628
 51
31.27542099999999
  0
LINE
  5
C229
330
C1B9
100
AcDbEntity
  8
4
  6
CENTER
100
AcDbLine
 10
48.776853
 20
294.162961
 30
0.0
 11
41.309415
 21
294.162961
 31
0.0
  0
ARC
  5
C22A
330
C1B9
100
AcDbEntity
  8
1
  6
Continuous
100
AcDbCircle
 10
55.74574000000001
 20
296.162961
 30
0.0
 40
2.0
100
AcDbArc
 50
0.0
 51
90.0
  0
ARC
  5
C22B
330
C1B9
100
AcDbEntity
  8
1
  6
Continuous
100
AcDbCircle
 10
55.74574000000001
 20
296.162961
 30
0.0
 40
5.0
100
AcDbArc
 50
0.0
 51
90.0
  0
LINE
  5
C22C
330
C1B9
100
AcDbEntity
  8
5
  6
PHANTOM
100
AcDbLine
 10
193.248579
 20
207.427157
 30
0.0
 11
196.077006
 21
204.5987299999999
 31
0.0
  0
ARC
  5
C22D
330
C1B9
100
AcDbEntity
  8
5
  6
PHANTOM
100
AcDbCircle
 10
193.9556859999999
 20
208.1342639999999
 30
0.0
 40
1.0
100
AcDbArc
 50
135.0
 51
225.0
  0
ARC
  5
C22E
330
C1B9
100
AcDbEntity
  8
5
  6
PHANTOM
100
AcDbCircle
 10
220.118637
 20
218.740865
 30
0.0
 40
6.0
100
AcDbArc
 50
135.0
 51
225.0
  0
LINE
  5
C22F
330
C1B9
100
AcDbEntity
  8
5
  6
PHANTOM
100
AcDbLine
 10
217.714474
 20
209.83132
 30
0.0
 11
207.3198199999999
 21
199.436666
 31
0.0
  0
ARC
  5
C230
330
C1B9
100
AcDbEntity
  8
5
  6
PHANTOM
100
AcDbCircle
 10
204.4913929999999
 20
202.265093
 30
0.0
 40
4.0
100
AcDbArc
 50
229.5170919999999
 51
315.0
  0
ARC
  5
C231
330
C1B9
100
AcDbEntity
  8
5
  6
PHANTOM
100
AcDbCircle
 10
267.141238
 20
275.662961
 30
0.0
 40
100.5
100
AcDbArc
 50
225.0
 51
229.5170919999999
  0
ARC
  5
C232
330
C1B9
100
AcDbEntity
  8
5
  6
PHANTOM
100
AcDbCircle
 10
216.3002599999999
 20
211.2455329999999
 30
0.0
 40
2.0
100
AcDbArc
 50
315.0
 51
45.0
  0
LINE
  5
C233
330
C1B9
100
AcDbEntity
  8
5
  6
PHANTOM
100
AcDbLine
 10
217.714474
 20
212.659747
 30
0.0
 11
215.8759959999999
 21
214.4982249999999
 31
0.0
  0
ARC
  5
C234
330
C1B9
100
AcDbEntity
  8
5
  6
PHANTOM
100
AcDbCircle
 10
143.2457399999998
 20
283.0629609999999
 30
0.0
 40
2.0
100
AcDbArc
 50
0.0
 51
90.0
  0
ARC
  5
C235
330
C1B9
100
AcDbEntity
  8
5
  6
PHANTOM
100
AcDbCircle
 10
143.2457399999998
 20
268.2629609999998
 30
0.0
 40
2.0
100
AcDbArc
 50
270.0
 51
0.0
  0
LINE
  5
C236
330
C1B9
100
AcDbEntity
  8
5
  6
PHANTOM
100
AcDbLine
 10
145.2457399999999
 20
283.0629609999999
 30
0.0
 11
145.2457399999999
 21
268.2629609999998
 31
0.0
  0
ARC
  5
C237
330
C1B9
100
AcDbEntity
  8
1
  6
Continuous
100
AcDbCircle
 10
258.3731139999998
 20
278.774231
 30
0.0
 40
1.0
100
AcDbArc
 50
135.0
 51
225.0
  0
ARC
  5
C238
330
C1B9
100
AcDbEntity
  8
1
  6
Continuous
100
AcDbCircle
 10
277.741238
 20
176.8169499999999
 30
0.0
 40
3.0
100
AcDbArc
 50
318.5903779999998
 51
0.0
  0
ARC
  5
C239
330
C1B9
100
AcDbEntity
  8
1
  6
Continuous
100
AcDbCircle
 10
263.1412379999998
 20
176.162961
 30
0.0
 40
1.0
100
AcDbArc
 50
180.0
 51
270.0
  0
LINE
  5
C23A
330
C1B9
100
AcDbEntity
  8
1
  6
Continuous
100
AcDbLine
 10
266.1412379999998
 20
301.1629609999999
 30
0.0
 11
266.1412379999998
 21
159.162961
 31
0.0
  0
LINE
  5
C23B
330
C1B9
100
AcDbEntity
  8
1
  6
Continuous
100
AcDbLine
 10
269.141238
 20
287.1629609999999
 30
0.0
 11
269.141238
 21
173.1677919999999
 31
0.0
  0
LINE
  5
C23C
330
C1B9
100
AcDbEntity
  8
1
  6
Continuous
100
AcDbLine
 10
264.641238
 20
301.1629609999999
 30
0.0
 11
264.641238
 21
159.162961
 31
0.0
  0
LINE
  5
C23D
330
C1B9
100
AcDbEntity
  8
1
  6
Continuous
100
AcDbLine
 10
267.141238
 20
301.1629609999999
 30
0.0
 11
267.141238
 21
159.162961
 31
0.0
  0
LINE
  5
C23E
330
C1B9
100
AcDbEntity
  8
1
  6
Continuous
100
AcDbLine
 10
263.1412379999998
 20
298.162961
 30
0.0
 11
263.1412379999998
 21
162.162961
 31
0.0
  0
LINE
  5
C23F
330
C1B9
100
AcDbEntity
  8
1
  6
Continuous
100
AcDbLine
 10
460.4754309999998
 20
285.662961
 30
0.0
 11
460.4754309999998
 21
174.662961
 31
0.0
  0
LINE
  5
C240
330
C1B9
100
AcDbEntity
  8
1
  6
Continuous
100
AcDbLine
 10
435.075431
 20
285.662961
 30
0.0
 11
435.075431
 21
174.662961
 31
0.0
  0
LINE
  5
C241
330
C1B9
100
AcDbEntity
  8
1
  6
Continuous
100
AcDbLine
 10
459.275431
 20
276.6629609999998
 30
0.0
 11
459.275431
 21
174.662961
 31
0.0
  0
LINE
  5
C242
330
C1B9
100
AcDbEntity
  8
1
  6
Continuous
100
AcDbLine
 10
436.2754309999998
 20
276.6629609999998
 30
0.0
 11
436.2754309999998
 21
174.662961
 31
0.0
  0
LINE
  5
C243
330
C1B9
100
AcDbEntity
  8
1
  6
Continuous
100
AcDbLine
 10
463.775431
 20
296.162961
 30
0.0
 11
463.775431
 21
164.162961
 31
0.0
  0
LINE
  5
C244
330
C1B9
100
AcDbEntity
  8
1
  6
Continuous
100
AcDbLine
 10
431.7754309999998
 20
296.162961
 30
0.0
 11
431.7754309999998
 21
164.162961
 31
0.0
  0
LINE
  5
C245
330
C1B9
100
AcDbEntity
  8
4
  6
CENTER
100
AcDbLine
 10
447.7754309999999
 20
305.514161
 30
0.0
 11
447.7754309999999
 21
154.9073459999999
 31
0.0
  0
LINE
  5
C246
330
C1B9
100
AcDbEntity
  8
1
  6
Continuous
100
AcDbLine
 10
263.1411969999999
 20
44.00000099999998
 30
0.0
 11
263.1411969999999
 21
70.000001
 31
0.0
  0
LINE
  5
C247
330
C1B9
100
AcDbEntity
  8
1
  6
Continuous
100
AcDbLine
 10
267.1411969999999
 20
41.00000099999999
 30
0.0
 11
267.1411969999999
 21
73.00000099999998
 31
0.0
  0
LINE
  5
C248
330
C1B9
100
AcDbEntity
  8
1
  6
Continuous
100
AcDbLine
 10
264.6411969999999
 20
41.00000099999999
 30
0.0
 11
264.6411969999999
 21
73.00000099999998
 31
0.0
  0
LINE
  5
C249
330
C1B9
100
AcDbEntity
  8
1
  6
Continuous
100
AcDbLine
 10
266.1411969999999
 20
41.00000099999999
 30
0.0
 11
266.1411969999999
 21
73.00000099999998
 31
0.0
  0
LINE
  5
C24A
330
C1B9
100
AcDbEntity
  8
1
  6
Continuous
100
AcDbLine
 10
266.1411969999999
 20
41.00000099999999
 30
0.0
 11
264.6411969999999
 21
41.00000099999999
 31
0.0
  0
LINE
  5
C24B
330
C1B9
100
AcDbEntity
  8
1
  6
Continuous
100
AcDbLine
 10
267.1411969999999
 20
41.00000099999999
 30
0.0
 11
266.1411969999999
 21
41.00000099999999
 31
0.0
  0
LINE
  5
C24C
330
C1B9
100
AcDbEntity
  8
1
  6
Continuous
100
AcDbLine
 10
264.6411969999999
 20
41.00000099999999
 30
0.0
 11
263.1411969999999
 21
44.00000099999998
 31
0.0
  0
ARC
  5
C24D
330
C1B9
100
AcDbEntity
  8
1
  6
Continuous
100
AcDbCircle
 10
278.241197
 20
66.00000099999999
 30
0.0
 40
2.5
100
AcDbArc
 50
0.0
 51
90.0
  0
LINE
  5
C24E
330
C1B9
100
AcDbEntity
  8
1
  6
Continuous
100
AcDbLine
 10
283.741197
 20
45.75000099999999
 30
0.0
 11
283.741197
 21
66.742001
 31
0.0
  0
LINE
  5
C24F
330
C1B9
100
AcDbEntity
  8
1
  6
Continuous
100
AcDbLine
 10
269.1411969999999
 20
60.500001
 30
0.0
 11
269.1411969999999
 21
68.700001
 31
0.0
  0
LINE
  5
C250
330
C1B9
100
AcDbEntity
  8
1
  6
Continuous
100
AcDbLine
 10
283.341197
 20
46.50000099999998
 30
0.0
 11
283.341197
 21
67.500001
 31
0.0
  0
LINE
  5
C251
330
C1B9
100
AcDbEntity
  8
1
  6
Continuous
100
AcDbLine
 10
285.841197
 20
45.75000099999999
 30
0.0
 11
285.841197
 21
66.742001
 31
0.0
  0
LINE
  5
C252
330
C1B9
100
AcDbEntity
  8
1
  6
Continuous
100
AcDbLine
 10
282.341197
 20
45.500001
 30
0.0
 11
269.1411969999999
 21
45.500001
 31
0.0
  0
LINE
  5
C253
330
C1B9
100
AcDbEntity
  8
1
  6
Continuous
100
AcDbLine
 10
262.141197
 20
48.179034
 30
0.0
 11
262.141197
 21
65.82096700000001
 31
0.0
  0
ARC
  5
C254
330
C1B9
100
AcDbEntity
  8
1
  6
Continuous
100
AcDbCircle
 10
268.1411969999999
 20
45.300001
 30
0.0
 40
1.0
100
AcDbArc
 50
270.0
 51
0.0
  0
LINE
  5
C255
330
C1B9
100
AcDbEntity
  8
1
  6
Continuous
100
AcDbLine
 10
268.1411969999999
 20
44.30000099999999
 30
0.0
 11
267.1411969999999
 21
44.30000099999999
 31
0.0
  0
LINE
  5
C256
330
C1B9
100
AcDbEntity
  8
1
  6
Continuous
100
AcDbLine
 10
271.1411969999999
 20
60.000001
 30
0.0
 11
271.1411969999999
 21
54.00000099999999
 31
0.0
  0
LINE
  5
C257
330
C1B9
100
AcDbEntity
  8
1
  6
Continuous
100
AcDbLine
 10
270.641197
 20
53.50000099999999
 30
0.0
 11
267.1411969999999
 21
53.50000099999999
 31
0.0
  0
LINE
  5
C258
330
C1B9
100
AcDbEntity
  8
1
  6
Continuous
100
AcDbLine
 10
270.641197
 20
53.50000099999999
 30
0.0
 11
271.1411969999999
 21
54.00000099999999
 31
0.0
  0
LINE
  5
C259
330
C1B9
100
AcDbEntity
  8
1
  6
Continuous
100
AcDbLine
 10
270.641197
 20
60.500001
 30
0.0
 11
267.1411969999999
 21
60.500001
 31
0.0
  0
LINE
  5
C25A
330
C1B9
100
AcDbEntity
  8
1
  6
Continuous
100
AcDbLine
 10
270.641197
 20
53.50000099999999
 30
0.0
 11
270.641197
 21
60.500001
 31
0.0
  0
LINE
  5
C25B
330
C1B9
100
AcDbEntity
  8
1
  6
Continuous
100
AcDbLine
 10
271.1411969999999
 20
60.000001
 30
0.0
 11
270.641197
 21
60.500001
 31
0.0
  0
LINE
  5
C25C
330
C1B9
100
AcDbEntity
  8
1
  6
Continuous
100
AcDbLine
 10
269.1411969999999
 20
45.300001
 30
0.0
 11
269.1411969999999
 21
53.50000099999999
 31
0.0
  0
ARC
  5
C25D
330
C1B9
100
AcDbEntity
  8
1
  6
Continuous
100
AcDbCircle
 10
282.341197
 20
46.50000099999998
 30
0.0
 40
1.0
100
AcDbArc
 50
270.0
 51
0.0
  0
ARC
  5
C25E
330
C1B9
100
AcDbEntity
  8
1
  6
Continuous
100
AcDbCircle
 10
278.241197
 20
48.000001
 30
0.0
 40
2.5
100
AcDbArc
 50
270.0
 51
0.0
  0
LINE
  5
C25F
330
C1B9
100
AcDbEntity
  8
1
  6
Continuous
100
AcDbLine
 10
280.741197
 20
48.000001
 30
0.0
 11
280.741197
 21
66.00000099999999
 31
0.0
  0
LINE
  5
C260
330
C1B9
100
AcDbEntity
  8
1
  6
Continuous
100
AcDbLine
 10
283.741197
 20
47.669851
 30
0.0
 11
283.341197
 21
47.669851
 31
0.0
  0
LINE
  5
C261
330
C1B9
100
AcDbEntity
  8
1
  6
Continuous
100
AcDbLine
 10
287.841197
 20
52.000001
 30
0.0
 11
285.841197
 21
52.000001
 31
0.0
  0
LINE
  5
C262
330
C1B9
100
AcDbEntity
  8
1
  6
Continuous
100
AcDbLine
 10
285.841197
 20
45.75000099999999
 30
0.0
 11
283.741197
 21
45.75000099999999
 31
0.0
  0
LINE
  5
C263
330
C1B9
100
AcDbEntity
  8
1
  6
Continuous
100
AcDbLine
 10
287.841197
 20
56.343147
 30
0.0
 11
285.841197
 21
56.343147
 31
0.0
  0
LINE
  5
C264
330
C1B9
100
AcDbEntity
  8
1
  6
Continuous
100
AcDbLine
 10
287.841197
 20
57.656855
 30
0.0
 11
285.841197
 21
57.656855
 31
0.0
  0
LINE
  5
C265
330
C1B9
100
AcDbEntity
  8
1
  6
Continuous
100
AcDbLine
 10
287.841197
 20
62.000001
 30
0.0
 11
285.841197
 21
62.000001
 31
0.0
  0
LINE
  5
C266
330
C1B9
100
AcDbEntity
  8
1
  6
Continuous
100
AcDbLine
 10
287.841197
 20
52.000001
 30
0.0
 11
287.841197
 21
62.000001
 31
0.0
  0
LINE
  5
C267
330
C1B9
100
AcDbEntity
  8
1
  6
Continuous
100
AcDbLine
 10
282.341197
 20
68.50000099999999
 30
0.0
 11
269.1411969999999
 21
68.50000099999999
 31
0.0
  0
ARC
  5
C268
330
C1B9
100
AcDbEntity
  8
1
  6
Continuous
100
AcDbCircle
 10
268.1411969999999
 20
68.700001
 30
0.0
 40
1.0
100
AcDbArc
 50
0.0
 51
90.0
  0
LINE
  5
C269
330
C1B9
100
AcDbEntity
  8
1
  6
Continuous
100
AcDbLine
 10
268.1411969999999
 20
69.700001
 30
0.0
 11
267.1411969999999
 21
69.700001
 31
0.0
  0
LINE
  5
C26A
330
C1B9
100
AcDbEntity
  8
1
  6
Continuous
100
AcDbLine
 10
267.1411969999999
 20
73.00000099999998
 30
0.0
 11
266.1411969999999
 21
73.00000099999998
 31
0.0
  0
LINE
  5
C26B
330
C1B9
100
AcDbEntity
  8
1
  6
Continuous
100
AcDbLine
 10
266.1411969999999
 20
73.00000099999998
 30
0.0
 11
264.6411969999999
 21
73.00000099999998
 31
0.0
  0
LINE
  5
C26C
330
C1B9
100
AcDbEntity
  8
1
  6
Continuous
100
AcDbLine
 10
264.6411969999999
 20
73.00000099999998
 30
0.0
 11
263.1411969999999
 21
70.000001
 31
0.0
  0
ARC
  5
C26D
330
C1B9
100
AcDbEntity
  8
1
  6
Continuous
100
AcDbCircle
 10
282.341197
 20
67.500001
 30
0.0
 40
1.0
100
AcDbArc
 50
0.0
 51
90.0
  0
LINE
  5
C26E
330
C1B9
100
AcDbEntity
  8
1
  6
Continuous
100
AcDbLine
 10
283.741197
 20
66.330151
 30
0.0
 11
283.341197
 21
66.330151
 31
0.0
  0
LINE
  5
C26F
330
C1B9
100
AcDbEntity
  8
1
  6
Continuous
100
AcDbLine
 10
285.841197
 20
66.742001
 30
0.0
 11
283.741197
 21
66.742001
 31
0.0
  0
LINE
  5
C270
330
C1B9
100
AcDbEntity
  8
1
  6
Continuous
100
AcDbLine
 10
331.4474
 20
51.00000099999999
 30
0.0
 11
330.6474
 21
51.00000099999999
 31
0.0
  0
LINE
  5
C271
330
C1B9
100
AcDbEntity
  8
1
  6
Continuous
100
AcDbLine
 10
331.4474
 20
63.000001
 30
0.0
 11
330.6474
 21
63.000001
 31
0.0
  0
LINE
  5
C272
330
C1B9
100
AcDbEntity
  8
1
  6
Continuous
100
AcDbLine
 10
332.7474
 20
52.500001
 30
0.0
 11
334.2088989999999
 21
52.627865
 31
0.0
  0
LINE
  5
C273
330
C1B9
100
AcDbEntity
  8
1
  6
Continuous
100
AcDbLine
 10
332.7474
 20
52.400001
 30
0.0
 11
331.4474
 21
52.400001
 31
0.0
  0
ARC
  5
C274
330
C1B9
100
AcDbEntity
  8
1
  6
Continuous
100
AcDbCircle
 10
324.0473999999999
 20
57.000001
 30
0.0
 40
12.0
100
AcDbArc
 50
344.506032
 51
15.493968
  0
LINE
  5
C275
330
C1B9
100
AcDbEntity
  8
1
  6
Continuous
100
AcDbLine
 10
331.4474
 20
57.000001
 30
0.0
 11
332.7474
 21
58.300001
 31
0.0
  0
LINE
  5
C276
330
C1B9
100
AcDbEntity
  8
1
  6
Continuous
100
AcDbLine
 10
332.7474
 20
57.000001
 30
0.0
 11
331.4474
 21
55.700001
 31
0.0
  0
ARC
  5
C277
330
C1B9
100
AcDbEntity
  8
1
  6
Continuous
100
AcDbCircle
 10
334.069449
 20
54.221777
 30
0.0
 40
1.6
100
AcDbArc
 50
275.0
 51
344.506032
  0
LINE
  5
C278
330
C1B9
100
AcDbEntity
  8
1
  6
Continuous
100
AcDbLine
 10
332.7474
 20
61.50000099999999
 30
0.0
 11
334.2088989999999
 21
61.37213599999999
 31
0.0
  0
LINE
  5
C279
330
C1B9
100
AcDbEntity
  8
1
  6
Continuous
100
AcDbLine
 10
332.7474
 20
61.600001
 30
0.0
 11
331.4474
 21
61.600001
 31
0.0
  0
ARC
  5
C27A
330
C1B9
100
AcDbEntity
  8
1
  6
Continuous
100
AcDbCircle
 10
334.069449
 20
59.778225
 30
0.0
 40
1.6
100
AcDbArc
 50
15.493968
 51
85.0
  0
LINE
  5
C27B
330
C1B9
100
AcDbEntity
  8
1
  6
Continuous
100
AcDbLine
 10
332.7474
 20
52.400001
 30
0.0
 11
332.7474
 21
61.600001
 31
0.0
  0
LINE
  5
C27C
330
C1B9
100
AcDbEntity
  8
4
  6
CENTER
100
AcDbLine
 10
337.7474
 20
57.000001
 30
0.0
 11
327.7725869999998
 21
57.000001
 31
0.0
  0
LINE
  5
C27D
330
C1B9
100
AcDbEntity
  8
1
  6
Continuous
100
AcDbLine
 10
331.4474
 20
51.00000099999999
 30
0.0
 11
331.4474
 21
63.000001
 31
0.0
  0
LINE
  5
C27E
330
C1B9
100
AcDbEntity
  8
1
  6
Continuous
100
AcDbLine
 10
330.6474
 20
51.00000099999999
 30
0.0
 11
330.6474
 21
63.000001
 31
0.0
  0
ARC
  5
C27F
330
C1B9
100
AcDbEntity
  8
1
  6
Continuous
100
AcDbCircle
 10
369.968023
 20
54.904324
 30
0.0
 40
1.3
100
AcDbArc
 50
275.0
 51
344.1191499999998
  0
ARC
  5
C280
330
C1B9
100
AcDbEntity
  8
1
  6
Continuous
100
AcDbCircle
 10
369.968023
 20
59.11834599999998
 30
0.0
 40
1.3
100
AcDbArc
 50
15.88085
 51
85.0
  0
LINE
  5
C281
330
C1B9
100
AcDbEntity
  8
4
  6
CENTER
100
AcDbLine
 10
374.1025649999999
 20
57.011335
 30
0.0
 11
360.147798
 21
57.011335
 31
0.0
  0
LINE
  5
C282
330
C1B9
100
AcDbEntity
  8
1
  6
Continuous
100
AcDbLine
 10
368.9619109999999
 20
53.51133499999999
 30
0.0
 11
370.0813259999998
 21
53.609271
 31
0.0
  0
LINE
  5
C283
330
C1B9
100
AcDbEntity
  8
1
  6
Continuous
100
AcDbLine
 10
368.9619109999999
 20
60.51133499999998
 30
0.0
 11
370.0813259999998
 21
60.413399
 31
0.0
  0
LINE
  5
C284
330
C1B9
100
AcDbEntity
  8
1
  6
Continuous
100
AcDbLine
 10
368.9619109999999
 20
53.211335
 30
0.0
 11
368.9619109999999
 21
60.81133499999999
 31
0.0
  0
LINE
  5
C285
330
C1B9
100
AcDbEntity
  8
1
  6
Continuous
100
AcDbLine
 10
367.9619109999999
 20
50.01133499999999
 30
0.0
 11
362.961911
 21
50.01133499999999
 31
0.0
  0
LINE
  5
C286
330
C1B9
100
AcDbEntity
  8
1
  6
Continuous
100
AcDbLine
 10
367.9619109999999
 20
64.011335
 30
0.0
 11
362.961911
 21
64.011335
 31
0.0
  0
LINE
  5
C287
330
C1B9
100
AcDbEntity
  8
1
  6
Continuous
100
AcDbLine
 10
367.9619109999999
 20
50.01133499999999
 30
0.0
 11
367.9619109999999
 21
64.011335
 31
0.0
  0
LINE
  5
C288
330
C1B9
100
AcDbEntity
  8
1
  6
Continuous
100
AcDbLine
 10
362.961911
 20
50.01133499999999
 30
0.0
 11
362.961911
 21
64.011335
 31
0.0
  0
LINE
  5
C289
330
C1B9
100
AcDbEntity
  8
1
  6
Continuous
100
AcDbLine
 10
368.9619109999999
 20
60.81133499999999
 30
0.0
 11
367.9619109999999
 21
60.81133499999999
 31
0.0
  0
LINE
  5
C28A
330
C1B9
100
AcDbEntity
  8
1
  6
Continuous
100
AcDbLine
 10
368.9619109999999
 20
57.011335
 30
0.0
 11
367.9619109999999
 21
56.01133499999999
 31
0.0
  0
LINE
  5
C28B
330
C1B9
100
AcDbEntity
  8
1
  6
Continuous
100
AcDbLine
 10
367.9619109999999
 20
57.011335
 30
0.0
 11
368.9619109999999
 21
58.01133499999998
 31
0.0
  0
LINE
  5
C28C
330
C1B9
100
AcDbEntity
  8
1
  6
Continuous
100
AcDbLine
 10
368.9619109999999
 20
53.211335
 30
0.0
 11
367.9619109999999
 21
53.211335
 31
0.0
  0
ARC
  5
C28D
330
C1B9
100
AcDbEntity
  8
1
  6
Continuous
100
AcDbCircle
 10
362.561911
 20
57.011335
 30
0.0
 40
9.0
100
AcDbArc
 50
344.1191499999998
 51
15.88085
  0
ARC
  5
C28E
330
C1B9
100
AcDbEntity
  8
1
  6
Continuous
100
AcDbCircle
 10
267.141238
 20
275.662961
 30
0.0
 40
103.4999999999999
100
AcDbArc
 50
270.0
 51
274.517092
  0
LINE
  5
C28F
330
C1B9
100
AcDbEntity
  8
1
  6
Continuous
100
AcDbLine
 10
270.6412379999998
 20
169.662961
 30
0.0
 11
271.141238
 21
169.162961
 31
0.0
  0
ARC
  5
C290
330
C1B9
100
AcDbEntity
  8
1
  6
Continuous
100
AcDbCircle
 10
268.1412379999998
 20
173.1677919999999
 30
0.0
 40
1.0
100
AcDbArc
 50
270.553591
 51
0.0
  0
LINE
  5
C291
330
C1B9
100
AcDbEntity
  8
1
  6
Continuous
100
AcDbLine
 10
270.6412379999998
 20
169.662961
 30
0.0
 11
267.141238
 21
169.662961
 31
0.0
  0
LINE
  5
C292
330
C1B9
100
AcDbEntity
  8
4
  6
CENTER
100
AcDbLine
 10
273.1854779999998
 20
166.162961
 30
0.0
 11
261.988291
 21
166.162961
 31
0.0
  0
LINE
  5
C293
330
C1B9
100
AcDbEntity
  8
1
  6
Continuous
100
AcDbLine
 10
271.141238
 20
163.162961
 30
0.0
 11
270.6412379999998
 21
162.662961
 31
0.0
  0
LINE
  5
C294
330
C1B9
100
AcDbEntity
  8
1
  6
Continuous
100
AcDbLine
 10
266.1412379999998
 20
159.162961
 30
0.0
 11
267.141238
 21
159.162961
 31
0.0
  0
LINE
  5
C295
330
C1B9
100
AcDbEntity
  8
1
  6
Continuous
100
AcDbLine
 10
266.1412379999998
 20
159.162961
 30
0.0
 11
264.641238
 21
159.162961
 31
0.0
  0
LINE
  5
C296
330
C1B9
100
AcDbEntity
  8
1
  6
Continuous
100
AcDbLine
 10
264.641238
 20
159.162961
 30
0.0
 11
263.1412379999998
 21
162.162961
 31
0.0
  0
LINE
  5
C297
330
C1B9
100
AcDbEntity
  8
1
  6
Continuous
100
AcDbLine
 10
270.6412379999998
 20
162.662961
 30
0.0
 11
267.141238
 21
162.662961
 31
0.0
  0
LINE
  5
C298
330
C1B9
100
AcDbEntity
  8
1
  6
Continuous
100
AcDbLine
 10
270.6412379999998
 20
169.662961
 30
0.0
 11
270.6412379999998
 21
162.662961
 31
0.0
  0
LINE
  5
C299
330
C1B9
100
AcDbEntity
  8
1
  6
Continuous
100
AcDbLine
 10
271.141238
 20
163.162961
 30
0.0
 11
271.141238
 21
169.162961
 31
0.0
  0
ARC
  5
C29A
330
C1B9
100
AcDbEntity
  8
1
  6
Continuous
100
AcDbCircle
 10
274.741238
 20
179.462701
 30
0.0
 40
7.0
100
AcDbArc
 50
274.517092
 51
318.5903779999998
  0
ARC
  5
C29B
330
C1B9
100
AcDbEntity
  8
1
  6
Continuous
100
AcDbCircle
 10
369.968023
 20
164.0559499999999
 30
0.0
 40
1.3
100
AcDbArc
 50
275.0
 51
344.1191499999998
  0
ARC
  5
C29C
330
C1B9
100
AcDbEntity
  8
1
  6
Continuous
100
AcDbCircle
 10
369.968023
 20
168.269972
 30
0.0
 40
1.3
100
AcDbArc
 50
15.88085
 51
85.0
  0
LINE
  5
C29D
330
C1B9
100
AcDbEntity
  8
4
  6
CENTER
100
AcDbLine
 10
374.1025649999999
 20
166.162961
 30
0.0
 11
360.147798
 21
166.162961
 31
0.0
  0
LINE
  5
C29E
330
C1B9
100
AcDbEntity
  8
1
  6
Continuous
100
AcDbLine
 10
368.9619109999999
 20
162.362961
 30
0.0
 11
368.9619109999999
 21
169.962961
 31
0.0
  0
LINE
  5
C29F
330
C1B9
100
AcDbEntity
  8
1
  6
Continuous
100
AcDbLine
 10
367.9619109999999
 20
170.662961
 30
0.0
 11
367.9619109999999
 21
160.662961
 31
0.0
  0
LINE
  5
C2A0
330
C1B9
100
AcDbEntity
  8
1
  6
Continuous
100
AcDbLine
 10
367.9619109999999
 20
162.362961
 30
0.0
 11
367.9619109999999
 21
169.962961
 31
0.0
  0
ARC
  5
C2A1
330
C1B9
100
AcDbEntity
  8
1
  6
Continuous
100
AcDbCircle
 10
367.461911
 20
170.662961
 30
0.0
 40
0.5
100
AcDbArc
 50
0.0
 51
90.0
  0
LINE
  5
C2A2
330
C1B9
100
AcDbEntity
  8
1
  6
Continuous
100
AcDbLine
 10
368.9619109999999
 20
169.962961
 30
0.0
 11
367.9619109999999
 21
169.962961
 31
0.0
  0
LINE
  5
C2A3
330
C1B9
100
AcDbEntity
  8
1
  6
Continuous
100
AcDbLine
 10
368.9619109999999
 20
166.162961
 30
0.0
 11
367.9619109999999
 21
165.162961
 31
0.0
  0
LINE
  5
C2A4
330
C1B9
100
AcDbEntity
  8
1
  6
Continuous
100
AcDbLine
 10
367.9619109999999
 20
166.162961
 30
0.0
 11
368.9619109999999
 21
167.162961
 31
0.0
  0
ARC
  5
C2A5
330
C1B9
100
AcDbEntity
  8
1
  6
Continuous
100
AcDbCircle
 10
367.461911
 20
160.662961
 30
0.0
 40
0.5
100
AcDbArc
 50
270.0
 51
0.0
  0
LINE
  5
C2A6
330
C1B9
100
AcDbEntity
  8
1
  6
Continuous
100
AcDbLine
 10
368.9619109999999
 20
162.362961
 30
0.0
 11
367.9619109999999
 21
162.362961
 31
0.0
  0
LINE
  5
C2A7
330
C1B9
100
AcDbEntity
  8
1
  6
Continuous
100
AcDbLine
 10
368.9619109999999
 20
162.662961
 30
0.0
 11
370.0813259999998
 21
162.7608969999998
 31
0.0
  0
LINE
  5
C2A8
330
C1B9
100
AcDbEntity
  8
1
  6
Continuous
100
AcDbLine
 10
368.9619109999999
 20
169.662961
 30
0.0
 11
370.0813259999998
 21
169.5650249999999
 31
0.0
  0
LINE
  5
C2A9
330
C1B9
100
AcDbEntity
  8
1
  6
Continuous
100
AcDbLine
 10
362.961911
 20
171.162961
 30
0.0
 11
362.961911
 21
160.162961
 31
0.0
  0
LINE
  5
C2AA
330
C1B9
100
AcDbEntity
  8
1
  6
Continuous
100
AcDbLine
 10
362.961911
 20
171.162961
 30
0.0
 11
367.461911
 21
171.162961
 31
0.0
  0
LINE
  5
C2AB
330
C1B9
100
AcDbEntity
  8
1
  6
Continuous
100
AcDbLine
 10
362.961911
 20
160.162961
 30
0.0
 11
367.461911
 21
160.162961
 31
0.0
  0
ARC
  5
C2AC
330
C1B9
100
AcDbEntity
  8
1
  6
Continuous
100
AcDbCircle
 10
362.561911
 20
166.162961
 30
0.0
 40
9.0
100
AcDbArc
 50
344.1191499999998
 51
15.88085
  0
ARC
  5
C2AD
330
C1B9
100
AcDbEntity
  8
1
  6
Continuous
100
AcDbCircle
 10
447.7754309999999
 20
168.01459
 30
0.0
 40
7.851628999999997
100
AcDbArc
 50
229.3987049999998
 51
310.601295
  0
LINE
  5
C2AE
330
C1B9
100
AcDbEntity
  8
1
  6
Continuous
100
AcDbLine
 10
444.1148269999998
 20
171.162961
 30
0.0
 11
451.6099129999998
 21
171.162961
 31
0.0
  0
CIRCLE
  5
C2AF
330
C1B9
100
AcDbEntity
  8
1
  6
Continuous
100
AcDbCircle
 10
447.7754309999999
 20
166.162961
 30
0.0
 40
3.799999999999998
  0
CIRCLE
  5
C2B0
330
C1B9
100
AcDbEntity
  8
1
  6
Continuous
100
AcDbCircle
 10
447.7754309999999
 20
166.162961
 30
0.0
 40
3.5
  0
LINE
  5
C2B1
330
C1B9
100
AcDbEntity
  8
1
  6
Continuous
100
AcDbLine
 10
457.9754309999998
 20
172.162961
 30
0.0
 11
437.5754309999998
 21
172.162961
 31
0.0
  0
LINE
  5
C2B2
330
C1B9
100
AcDbEntity
  8
1
  6
Continuous
100
AcDbLine
 10
458.775431
 20
159.162961
 30
0.0
 11
436.7754309999998
 21
159.162961
 31
0.0
  0
LINE
  5
C2B3
330
C1B9
100
AcDbEntity
  8
4
  6
CENTER
100
AcDbLine
 10
438.686913
 20
166.162961
 30
0.0
 11
456.684125
 21
166.162961
 31
0.0
  0
LINE
  5
C2B4
330
C1B9
100
AcDbEntity
  8
1
  6
Continuous
100
AcDbLine
 10
457.9754309999998
 20
175.8571499999999
 30
0.0
 11
437.5754309999998
 21
175.8571499999999
 31
0.0
  0
ARC
  5
C2B5
330
C1B9
100
AcDbEntity
  8
1
  6
Continuous
100
AcDbCircle
 10
437.5754309999998
 20
174.662961
 30
0.0
 40
2.5
100
AcDbArc
 50
180.0
 51
270.0
  0
ARC
  5
C2B6
330
C1B9
100
AcDbEntity
  8
1
  6
Continuous
100
AcDbCircle
 10
436.7754309999998
 20
164.162961
 30
0.0
 40
5.0
100
AcDbArc
 50
180.0
 51
270.0
  0
ARC
  5
C2B7
330
C1B9
100
AcDbEntity
  8
1
  6
Continuous
100
AcDbCircle
 10
447.7754309999999
 20
166.162961
 30
0.0
 40
2.1
100
AcDbArc
 50
123.4629999999998
 51
146.537
  0
ARC
  5
C2B8
330
C1B9
100
AcDbEntity
  8
1
  6
Continuous
100
AcDbCircle
 10
447.7754309999999
 20
166.162961
 30
0.0
 40
2.1
100
AcDbArc
 50
213.463
 51
236.5369999999999
  0
LINE
  5
C2B9
330
C1B9
100
AcDbEntity
  8
1
  6
Continuous
100
AcDbLine
 10
446.634373
 20
166.6882709999998
 30
0.0
 11
446.0235029999998
 21
167.320919
 31
0.0
  0
LINE
  5
C2BA
330
C1B9
100
AcDbEntity
  8
1
  6
Continuous
100
AcDbLine
 10
446.6344429999998
 20
165.637581
 30
0.0
 11
446.0235029999998
 21
165.0050029999999
 31
0.0
  0
ARC
  5
C2BB
330
C1B9
100
AcDbEntity
  8
1
  6
Continuous
100
AcDbCircle
 10
447.7754309999999
 20
166.162961
 30
0.0
 40
2.1
100
AcDbArc
 50
33.463
 51
56.537
  0
ARC
  5
C2BC
330
C1B9
100
AcDbEntity
  8
1
  6
Continuous
100
AcDbCircle
 10
447.7754309999999
 20
166.162961
 30
0.0
 40
2.1
100
AcDbArc
 50
303.4629999999999
 51
326.5369999999998
  0
LINE
  5
C2BD
330
C1B9
100
AcDbEntity
  8
1
  6
Continuous
100
AcDbLine
 10
447.7754309999999
 20
167.1127469999998
 30
0.0
 11
448.300811
 21
167.3039489999998
 31
0.0
  0
LINE
  5
C2BE
330
C1B9
100
AcDbEntity
  8
1
  6
Continuous
100
AcDbLine
 10
448.300811
 20
167.3039489999998
 30
0.0
 11
448.933389
 21
167.914889
 31
0.0
  0
LINE
  5
C2BF
330
C1B9
100
AcDbEntity
  8
1
  6
Continuous
100
AcDbLine
 10
448.9164889999998
 20
166.6882709999998
 30
0.0
 11
449.527358
 21
167.320919
 31
0.0
  0
LINE
  5
C2C0
330
C1B9
100
AcDbEntity
  8
1
  6
Continuous
100
AcDbLine
 10
448.7252169999998
 20
166.162961
 30
0.0
 11
448.9164889999998
 21
166.6882709999998
 31
0.0
  0
LINE
  5
C2C1
330
C1B9
100
AcDbEntity
  8
1
  6
Continuous
100
AcDbLine
 10
446.825645
 20
166.162961
 30
0.0
 11
446.634373
 21
166.6882709999998
 31
0.0
  0
LINE
  5
C2C2
330
C1B9
100
AcDbEntity
  8
1
  6
Continuous
100
AcDbLine
 10
447.2500499999998
 20
167.3039489999998
 30
0.0
 11
446.617473
 21
167.914889
 31
0.0
  0
LINE
  5
C2C3
330
C1B9
100
AcDbEntity
  8
1
  6
Continuous
100
AcDbLine
 10
447.7754309999999
 20
167.1127469999998
 30
0.0
 11
447.2500499999998
 21
167.3039489999998
 31
0.0
  0
LINE
  5
C2C4
330
C1B9
100
AcDbEntity
  8
1
  6
Continuous
100
AcDbLine
 10
447.7754309999999
 20
165.213175
 30
0.0
 11
447.2501209999999
 21
165.021903
 31
0.0
  0
LINE
  5
C2C5
330
C1B9
100
AcDbEntity
  8
1
  6
Continuous
100
AcDbLine
 10
447.2500499999998
 20
165.021832
 30
0.0
 11
446.617473
 21
164.411034
 31
0.0
  0
LINE
  5
C2C6
330
C1B9
100
AcDbEntity
  8
1
  6
Continuous
100
AcDbLine
 10
446.825645
 20
166.162961
 30
0.0
 11
446.634373
 21
165.6375099999999
 31
0.0
  0
LINE
  5
C2C7
330
C1B9
100
AcDbEntity
  8
1
  6
Continuous
100
AcDbLine
 10
447.7754309999999
 20
165.213175
 30
0.0
 11
448.300811
 21
165.021832
 31
0.0
  0
LINE
  5
C2C8
330
C1B9
100
AcDbEntity
  8
1
  6
Continuous
100
AcDbLine
 10
448.300811
 20
165.021832
 30
0.0
 11
448.933389
 21
164.411034
 31
0.0
  0
LINE
  5
C2C9
330
C1B9
100
AcDbEntity
  8
1
  6
Continuous
100
AcDbLine
 10
448.9164889999998
 20
165.6375099999999
 30
0.0
 11
449.527358
 21
165.0050029999999
 31
0.0
  0
LINE
  5
C2CA
330
C1B9
100
AcDbEntity
  8
1
  6
Continuous
100
AcDbLine
 10
448.7252169999998
 20
166.162961
 30
0.0
 11
448.9164889999998
 21
165.6375099999999
 31
0.0
  0
ARC
  5
C2CB
330
C1B9
100
AcDbEntity
  8
1
  6
Continuous
100
AcDbCircle
 10
446.1883199999999
 20
166.162961
 30
0.0
 40
5.412889999999999
100
AcDbArc
 50
112.5237199999998
 51
229.3987049999998
  0
ARC
  5
C2CC
330
C1B9
100
AcDbEntity
  8
1
  6
Continuous
100
AcDbCircle
 10
438.775431
 20
174.662961
 30
0.0
 40
2.5
100
AcDbArc
 50
180.0
 51
270.0
  0
ARC
  5
C2CD
330
C1B9
100
AcDbEntity
  8
1
  6
Continuous
100
AcDbCircle
 10
447.7754309999999
 20
164.311333
 30
0.0
 40
7.851628999999997
100
AcDbArc
 50
49.39870500000001
 51
60.766642
  0
ARC
  5
C2CE
330
C1B9
100
AcDbEntity
  8
1
  6
Continuous
100
AcDbCircle
 10
449.3625409999999
 20
166.162961
 30
0.0
 40
5.412889999999999
100
AcDbArc
 50
310.601295
 51
49.39870500000001
  0
ARC
  5
C2CF
330
C1B9
100
AcDbEntity
  8
1
  6
Continuous
100
AcDbCircle
 10
457.9754309999998
 20
174.662961
 30
0.0
 40
2.5
100
AcDbArc
 50
270.0
 51
0.0
  0
ARC
  5
C2D0
330
C1B9
100
AcDbEntity
  8
1
  6
Continuous
100
AcDbCircle
 10
456.7754309999998
 20
174.662961
 30
0.0
 40
2.5
100
AcDbArc
 50
270.0
 51
0.0
  0
ARC
  5
C2D1
330
C1B9
100
AcDbEntity
  8
1
  6
Continuous
100
AcDbCircle
 10
458.775431
 20
164.162961
 30
0.0
 40
5.0
100
AcDbArc
 50
270.0
 51
0.0
  0
ARC
  5
C2D2
330
C1B9
100
AcDbEntity
  8
1
  6
Continuous
100
AcDbCircle
 10
282.3412379999999
 20
264.1629609999998
 30
0.0
 40
1.0
100
AcDbArc
 50
270.0
 51
0.0
  0
ARC
  5
C2D3
330
C1B9
100
AcDbEntity
  8
1
  6
Continuous
100
AcDbCircle
 10
274.1412379999998
 20
264.1629609999998
 30
0.0
 40
1.0
100
AcDbArc
 50
270.0
 51
0.0
  0
LINE
  5
C2D4
330
C1B9
100
AcDbEntity
  8
1
  6
Continuous
100
AcDbLine
 10
262.1412379999998
 20
269.9497579999999
 30
0.0
 11
262.1412379999998
 21
176.162961
 31
0.0
  0
LINE
  5
C2D5
330
C1B9
100
AcDbEntity
  8
1
  6
Continuous
100
AcDbLine
 10
271.141238
 20
260.7124989999999
 30
0.0
 11
271.141238
 21
202.662961
 31
0.0
  0
ARC
  5
C2D6
330
C1B9
100
AcDbEntity
  8
1
  6
Continuous
100
AcDbCircle
 10
277.741238
 20
196.662961
 30
0.0
 40
3.0
100
AcDbArc
 50
0.0
 51
90.0
  0
LINE
  5
C2D7
330
C1B9
100
AcDbEntity
  8
1
  6
Continuous
100
AcDbLine
 10
280.741238
 20
196.662961
 30
0.0
 11
280.741238
 21
176.8169499999999
 31
0.0
  0
LINE
  5
C2D8
330
C1B9
100
AcDbEntity
  8
1
  6
Continuous
100
AcDbLine
 10
277.741238
 20
199.662961
 30
0.0
 11
274.1412379999998
 21
199.662961
 31
0.0
  0
ARC
  5
C2D9
330
C1B9
100
AcDbEntity
  8
1
  6
Continuous
100
AcDbCircle
 10
274.1412379999998
 20
202.662961
 30
0.0
 40
3.0
100
AcDbArc
 50
180.0
 51
270.0
  0
LINE
  5
C2DA
330
C1B9
100
AcDbEntity
  8
1
  6
Continuous
100
AcDbLine
 10
273.5917
 20
263.162961
 30
0.0
 11
282.3412379999999
 21
263.162961
 31
0.0
  0
LINE
  5
C2DB
330
C1B9
100
AcDbEntity
  8
1
  6
Continuous
100
AcDbLine
 10
273.5917
 20
263.162961
 30
0.0
 11
271.141238
 21
260.7124989999999
 31
0.0
  0
LINE
  5
C2DC
330
C1B9
100
AcDbEntity
  8
1
  6
Continuous
100
AcDbLine
 10
285.5412379999999
 20
287.962961
 30
0.0
 11
285.5412379999999
 21
283.4162069999998
 31
0.0
  0
LINE
  5
C2DD
330
C1B9
100
AcDbEntity
  8
1
  6
Continuous
100
AcDbLine
 10
283.341238
 20
286.362835
 30
0.0
 11
283.341238
 21
264.1629609999998
 31
0.0
  0
LINE
  5
C2DE
330
C1B9
100
AcDbEntity
  8
4
  6
CENTER
100
AcDbLine
 10
289.3969699999999
 20
275.662961
 30
0.0
 11
261.988291
 21
275.662961
 31
0.0
  0
ARC
  5
C2DF
330
C1B9
100
AcDbEntity
  8
5
  6
PHANTOM
100
AcDbCircle
 10
263.1412379999998
 20
284.0629609999999
 30
0.0
 40
1.0
100
AcDbArc
 50
90.0
 51
180.0
  0
ARC
  5
C2E0
330
C1B9
100
AcDbEntity
  8
5
  6
PHANTOM
100
AcDbCircle
 10
252.141238
 20
281.876165
 30
0.0
 40
10.0
100
AcDbArc
 50
315.0
 51
0.0
  0
ARC
  5
C2E1
330
C1B9
100
AcDbEntity
  8
1
  6
Continuous
100
AcDbCircle
 10
267.141238
 20
275.662961
 30
0.0
 40
9.4
100
AcDbArc
 50
115.184337
 51
135.0
  0
LINE
  5
C2E2
330
C1B9
100
AcDbEntity
  8
5
  6
PHANTOM
100
AcDbLine
 10
262.1412379999998
 20
284.0629609999999
 30
0.0
 11
262.1412379999998
 21
281.876165
 31
0.0
  0
ARC
  5
C2E3
330
C1B9
100
AcDbEntity
  8
5
  6
PHANTOM
100
AcDbCircle
 10
258.1412379999998
 20
270.9056019999998
 30
0.0
 40
4.0
100
AcDbArc
 50
315.0
 51
0.0
  0
ARC
  5
C2E4
330
C1B9
100
AcDbEntity
  8
1
  6
Continuous
100
AcDbCircle
 10
252.141238
 20
269.4497579999999
 30
0.0
 40
10.0
100
AcDbArc
 50
0.0
 51
45.0
  0
LINE
  5
C2E5
330
C1B9
100
AcDbEntity
  8
1
  6
Continuous
100
AcDbLine
 10
285.8412379999998
 20
283.962961
 30
0.0
 11
285.5412379999999
 21
283.962961
 31
0.0
  0
LINE
  5
C2E6
330
C1B9
100
AcDbEntity
  8
1
  6
Continuous
100
AcDbLine
 10
285.8412379999998
 20
285.405747
 30
0.0
 11
285.5412379999999
 21
285.405747
 31
0.0
  0
LINE
  5
C2E7
330
C1B9
100
AcDbEntity
  8
1
  6
Continuous
100
AcDbLine
 10
287.8412379999998
 20
280.6629609999998
 30
0.0
 11
285.8412379999998
 21
280.6629609999998
 31
0.0
  0
LINE
  5
C2E8
330
C1B9
100
AcDbEntity
  8
1
  6
Continuous
100
AcDbLine
 10
287.8412379999998
 20
275.006107
 30
0.0
 11
285.8412379999998
 21
275.006107
 31
0.0
  0
LINE
  5
C2E9
330
C1B9
100
AcDbEntity
  8
1
  6
Continuous
100
AcDbLine
 10
287.8412379999998
 20
276.319815
 30
0.0
 11
285.8412379999998
 21
276.319815
 31
0.0
  0
LINE
  5
C2EA
330
C1B9
100
AcDbEntity
  8
1
  6
Continuous
100
AcDbLine
 10
285.3412379999999
 20
283.2162069999998
 30
0.0
 11
283.7412379999999
 21
283.2162069999998
 31
0.0
  0
ARC
  5
C2EB
330
C1B9
100
AcDbEntity
  8
1
  6
Continuous
100
AcDbCircle
 10
283.5412379999999
 20
284.123215
 30
0.0
 40
0.2
100
AcDbArc
 50
0.0
 51
90.0
  0
LINE
  5
C2EC
330
C1B9
100
AcDbEntity
  8
1
  6
Continuous
100
AcDbLine
 10
283.5412379999999
 20
284.323215
 30
0.0
 11
283.341238
 21
284.323215
 31
0.0
  0
LINE
  5
C2ED
330
C1B9
100
AcDbEntity
  8
1
  6
Continuous
100
AcDbLine
 10
283.7412379999999
 20
281.5629609999998
 30
0.0
 11
283.8412379999999
 21
281.5629609999998
 31
0.0
  0
ARC
  5
C2EE
330
C1B9
100
AcDbEntity
  8
1
  6
Continuous
100
AcDbCircle
 10
285.3412379999999
 20
283.4162069999998
 30
0.0
 40
0.2
100
AcDbArc
 50
270.0
 51
0.0
  0
LINE
  5
C2EF
330
C1B9
100
AcDbEntity
  8
1
  6
Continuous
100
AcDbLine
 10
287.8412379999998
 20
270.6629609999998
 30
0.0
 11
285.8412379999998
 21
270.6629609999998
 31
0.0
  0
LINE
  5
C2F0
330
C1B9
100
AcDbEntity
  8
1
  6
Continuous
100
AcDbLine
 10
283.7412379999999
 20
269.7629609999999
 30
0.0
 11
283.8412379999999
 21
269.7629609999999
 31
0.0
  0
LINE
  5
C2F1
330
C1B9
100
AcDbEntity
  8
1
  6
Continuous
100
AcDbLine
 10
283.341238
 20
265.6629609999999
 30
0.0
 11
283.5412379999999
 21
265.6629609999999
 31
0.0
  0
ARC
  5
C2F2
330
C1B9
100
AcDbEntity
  8
1
  6
Continuous
100
AcDbCircle
 10
283.4849879999998
 20
265.9129609999999
 30
0.0
 40
0.25625
100
AcDbArc
 50
282.680383
 51
0.0
  0
LINE
  5
C2F3
330
C1B9
100
AcDbEntity
  8
1
  6
Continuous
100
AcDbLine
 10
285.8412379999998
 20
271.5129609999999
 30
0.0
 11
283.8412379999999
 21
271.5129609999999
 31
0.0
  0
LINE
  5
C2F4
330
C1B9
100
AcDbEntity
  8
1
  6
Continuous
100
AcDbLine
 10
285.8412379999998
 20
270.037961
 30
0.0
 11
283.8412379999999
 21
270.037961
 31
0.0
  0
LINE
  5
C2F5
330
C1B9
100
AcDbEntity
  8
1
  6
Continuous
100
AcDbLine
 10
285.8412379999998
 20
264.4129609999998
 30
0.0
 11
283.8412379999999
 21
264.4129609999998
 31
0.0
  0
LINE
  5
C2F6
330
C1B9
100
AcDbEntity
  8
1
  6
Continuous
100
AcDbLine
 10
275.141238
 20
274.6629609999998
 30
0.0
 11
275.141238
 21
264.1629609999998
 31
0.0
  0
LINE
  5
C2F7
330
C1B9
100
AcDbEntity
  8
1
  6
Continuous
100
AcDbLine
 10
283.7412379999999
 20
284.123215
 30
0.0
 11
283.7412379999999
 21
265.9129609999999
 31
0.0
  0
LINE
  5
C2F8
330
C1B9
100
AcDbEntity
  8
1
  6
Continuous
100
AcDbLine
 10
285.8412379999998
 20
285.405747
 30
0.0
 11
285.8412379999998
 21
264.4129609999998
 31
0.0
  0
LINE
  5
C2F9
330
C1B9
100
AcDbEntity
  8
1
  6
Continuous
100
AcDbLine
 10
287.8412379999998
 20
280.6629609999998
 30
0.0
 11
287.8412379999998
 21
270.6629609999998
 31
0.0
  0
LINE
  5
C2FA
330
C1B9
100
AcDbEntity
  8
1
  6
Continuous
100
AcDbLine
 10
283.8412379999999
 20
283.2162069999998
 30
0.0
 11
283.8412379999999
 21
264.4129609999998
 31
0.0
  0
LINE
  5
C2FB
330
C1B9
100
AcDbEntity
  8
1
  6
Continuous
100
AcDbLine
 10
267.141238
 20
288.162961
 30
0.0
 11
285.3412379999999
 21
288.162961
 31
0.0
  0
LINE
  5
C2FC
330
C1B9
100
AcDbEntity
  8
1
  6
Continuous
100
AcDbLine
 10
270.6412379999998
 20
297.6629609999998
 30
0.0
 11
271.141238
 21
297.1629609999999
 31
0.0
  0
LINE
  5
C2FD
330
C1B9
100
AcDbEntity
  8
1
  6
Continuous
100
AcDbLine
 10
266.1412379999998
 20
301.1629609999999
 30
0.0
 11
267.141238
 21
301.1629609999999
 31
0.0
  0
LINE
  5
C2FE
330
C1B9
100
AcDbEntity
  8
1
  6
Continuous
100
AcDbLine
 10
266.1412379999998
 20
301.1629609999999
 30
0.0
 11
264.641238
 21
301.1629609999999
 31
0.0
  0
LINE
  5
C2FF
330
C1B9
100
AcDbEntity
  8
1
  6
Continuous
100
AcDbLine
 10
264.641238
 20
301.1629609999999
 30
0.0
 11
263.1412379999998
 21
298.162961
 31
0.0
  0
LINE
  5
C300
330
C1B9
100
AcDbEntity
  8
1
  6
Continuous
100
AcDbLine
 10
270.6412379999998
 20
297.6629609999998
 30
0.0
 11
267.141238
 21
297.6629609999998
 31
0.0
  0
LINE
  5
C301
330
C1B9
100
AcDbEntity
  8
4
  6
CENTER
100
AcDbLine
 10
273.8707269999998
 20
294.162961
 30
0.0
 11
261.988291
 21
294.162961
 31
0.0
  0
LINE
  5
C302
330
C1B9
100
AcDbEntity
  8
1
  6
Continuous
100
AcDbLine
 10
271.141238
 20
291.1629609999998
 30
0.0
 11
270.6412379999998
 21
290.6629609999999
 31
0.0
  0
ARC
  5
C303
330
C1B9
100
AcDbEntity
  8
1
  6
Continuous
100
AcDbCircle
 10
268.1412379999998
 20
287.1629609999999
 30
0.0
 40
1.0
100
AcDbArc
 50
0.0
 51
90.0
  0
LINE
  5
C304
330
C1B9
100
AcDbEntity
  8
1
  6
Continuous
100
AcDbLine
 10
270.6412379999998
 20
290.6629609999999
 30
0.0
 11
267.141238
 21
290.6629609999999
 31
0.0
  0
LINE
  5
C305
330
C1B9
100
AcDbEntity
  8
1
  6
Continuous
100
AcDbLine
 10
270.6412379999998
 20
297.6629609999998
 30
0.0
 11
270.6412379999998
 21
290.6629609999999
 31
0.0
  0
LINE
  5
C306
330
C1B9
100
AcDbEntity
  8
1
  6
Continuous
100
AcDbLine
 10
271.141238
 20
291.1629609999998
 30
0.0
 11
271.141238
 21
297.1629609999999
 31
0.0
  0
LINE
  5
C307
330
C1B9
100
AcDbEntity
  8
1
  6
Continuous
100
AcDbLine
 10
285.3412379999999
 20
286.362835
 30
0.0
 11
283.341238
 21
286.362835
 31
0.0
  0
ARC
  5
C308
330
C1B9
100
AcDbEntity
  8
1
  6
Continuous
100
AcDbCircle
 10
285.3412379999999
 20
286.562835
 30
0.0
 40
0.2
100
AcDbArc
 50
270.0
 51
0.0
  0
ARC
  5
C309
330
C1B9
100
AcDbEntity
  8
1
  6
Continuous
100
AcDbCircle
 10
285.3412379999999
 20
287.962961
 30
0.0
 40
0.2
100
AcDbArc
 50
0.0
 51
90.0
  0
ARC
  5
C30A
330
C1B9
100
AcDbEntity
  8
1
  6
Continuous
100
AcDbCircle
 10
324.0473999999999
 20
275.6629919999999
 30
0.0
 40
12.0
100
AcDbArc
 50
344.506032
 51
15.493968
  0
LINE
  5
C30B
330
C1B9
100
AcDbEntity
  8
1
  6
Continuous
100
AcDbLine
 10
330.6474
 20
281.662992
 30
0.0
 11
330.6474
 21
269.6629919999999
 31
0.0
  0
LINE
  5
C30C
330
C1B9
100
AcDbEntity
  8
1
  6
Continuous
100
AcDbLine
 10
332.7474
 20
280.262992
 30
0.0
 11
332.7474
 21
271.062992
 31
0.0
  0
LINE
  5
C30D
330
C1B9
100
AcDbEntity
  8
1
  6
Continuous
100
AcDbLine
 10
331.4474
 20
281.662992
 30
0.0
 11
331.4474
 21
269.6629919999999
 31
0.0
  0
LINE
  5
C30E
330
C1B9
100
AcDbEntity
  8
1
  6
Continuous
100
AcDbLine
 10
332.7474
 20
271.062992
 30
0.0
 11
331.4474
 21
271.062992
 31
0.0
  0
LINE
  5
C30F
330
C1B9
100
AcDbEntity
  8
1
  6
Continuous
100
AcDbLine
 10
331.4474
 20
269.6629919999999
 30
0.0
 11
330.6474
 21
269.6629919999999
 31
0.0
  0
LINE
  5
C310
330
C1B9
100
AcDbEntity
  8
1
  6
Continuous
100
AcDbLine
 10
332.7474
 20
271.1629919999999
 30
0.0
 11
334.2088989999999
 21
271.2908569999999
 31
0.0
  0
LINE
  5
C311
330
C1B9
100
AcDbEntity
  8
1
  6
Continuous
100
AcDbLine
 10
332.7474
 20
280.262992
 30
0.0
 11
331.4474
 21
280.262992
 31
0.0
  0
LINE
  5
C312
330
C1B9
100
AcDbEntity
  8
1
  6
Continuous
100
AcDbLine
 10
331.4474
 20
281.662992
 30
0.0
 11
330.6474
 21
281.662992
 31
0.0
  0
LINE
  5
C313
330
C1B9
100
AcDbEntity
  8
1
  6
Continuous
100
AcDbLine
 10
332.7474
 20
280.1629919999999
 30
0.0
 11
334.2088989999999
 21
280.035128
 31
0.0
  0
LINE
  5
C314
330
C1B9
100
AcDbEntity
  8
1
  6
Continuous
100
AcDbLine
 10
332.7474
 20
275.6629919999999
 30
0.0
 11
331.4474
 21
274.362992
 31
0.0
  0
LINE
  5
C315
330
C1B9
100
AcDbEntity
  8
1
  6
Continuous
100
AcDbLine
 10
332.7474
 20
276.9629919999998
 30
0.0
 11
331.4474
 21
275.6629919999999
 31
0.0
  0
ARC
  5
C316
330
C1B9
100
AcDbEntity
  8
1
  6
Continuous
100
AcDbCircle
 10
334.069449
 20
272.884768
 30
0.0
 40
1.6
100
AcDbArc
 50
275.0
 51
344.506032
  0
LINE
  5
C317
330
C1B9
100
AcDbEntity
  8
4
  6
CENTER
100
AcDbLine
 10
337.7474
 20
275.6629919999999
 30
0.0
 11
328.327334
 21
275.6629919999999
 31
0.0
  0
ARC
  5
C318
330
C1B9
100
AcDbEntity
  8
1
  6
Continuous
100
AcDbCircle
 10
334.069449
 20
278.441216
 30
0.0
 40
1.6
100
AcDbArc
 50
15.493968
 51
85.0
  0
ARC
  5
C319
330
C1B9
100
AcDbEntity
  8
1
  6
Continuous
100
AcDbCircle
 10
369.968023
 20
292.0559499999999
 30
0.0
 40
1.3
100
AcDbArc
 50
275.0
 51
344.1191499999998
  0
ARC
  5
C31A
330
C1B9
100
AcDbEntity
  8
1
  6
Continuous
100
AcDbCircle
 10
369.968023
 20
296.2699719999998
 30
0.0
 40
1.3
100
AcDbArc
 50
15.88085
 51
85.0
  0
LINE
  5
C31B
330
C1B9
100
AcDbEntity
  8
4
  6
CENTER
100
AcDbLine
 10
374.1025649999999
 20
294.162961
 30
0.0
 11
360.147798
 21
294.162961
 31
0.0
  0
LINE
  5
C31C
330
C1B9
100
AcDbEntity
  8
1
  6
Continuous
100
AcDbLine
 10
367.9619109999999
 20
289.662961
 30
0.0
 11
367.9619109999999
 21
299.6629609999999
 31
0.0
  0
ARC
  5
C31D
330
C1B9
100
AcDbEntity
  8
1
  6
Continuous
100
AcDbCircle
 10
367.461911
 20
289.662961
 30
0.0
 40
0.5
100
AcDbArc
 50
270.0
 51
0.0
  0
ARC
  5
C31E
330
C1B9
100
AcDbEntity
  8
1
  6
Continuous
100
AcDbCircle
 10
367.461911
 20
299.6629609999999
 30
0.0
 40
0.5
100
AcDbArc
 50
0.0
 51
90.0
  0
LINE
  5
C31F
330
C1B9
100
AcDbEntity
  8
1
  6
Continuous
100
AcDbLine
 10
368.9619109999999
 20
297.9629609999999
 30
0.0
 11
368.9619109999999
 21
290.3629609999999
 31
0.0
  0
LINE
  5
C320
330
C1B9
100
AcDbEntity
  8
1
  6
Continuous
100
AcDbLine
 10
367.9619109999999
 20
297.9629609999999
 30
0.0
 11
367.9619109999999
 21
290.3629609999999
 31
0.0
  0
LINE
  5
C321
330
C1B9
100
AcDbEntity
  8
1
  6
Continuous
100
AcDbLine
 10
368.9619109999999
 20
290.6629609999999
 30
0.0
 11
370.0813259999998
 21
290.760897
 31
0.0
  0
LINE
  5
C322
330
C1B9
100
AcDbEntity
  8
1
  6
Continuous
100
AcDbLine
 10
368.9619109999999
 20
290.3629609999999
 30
0.0
 11
367.9619109999999
 21
290.3629609999999
 31
0.0
  0
LINE
  5
C323
330
C1B9
100
AcDbEntity
  8
1
  6
Continuous
100
AcDbLine
 10
368.9619109999999
 20
297.6629609999998
 30
0.0
 11
370.0813259999998
 21
297.565025
 31
0.0
  0
LINE
  5
C324
330
C1B9
100
AcDbEntity
  8
1
  6
Continuous
100
AcDbLine
 10
368.9619109999999
 20
297.9629609999999
 30
0.0
 11
367.9619109999999
 21
297.9629609999999
 31
0.0
  0
LINE
  5
C325
330
C1B9
100
AcDbEntity
  8
1
  6
Continuous
100
AcDbLine
 10
367.9619109999999
 20
294.162961
 30
0.0
 11
368.9619109999999
 21
295.1629609999999
 31
0.0
  0
LINE
  5
C326
330
C1B9
100
AcDbEntity
  8
1
  6
Continuous
100
AcDbLine
 10
368.9619109999999
 20
294.162961
 30
0.0
 11
367.9619109999999
 21
293.1629609999998
 31
0.0
  0
LINE
  5
C327
330
C1B9
100
AcDbEntity
  8
1
  6
Continuous
100
AcDbLine
 10
362.961911
 20
289.1629609999998
 30
0.0
 11
362.961911
 21
300.162961
 31
0.0
  0
LINE
  5
C328
330
C1B9
100
AcDbEntity
  8
1
  6
Continuous
100
AcDbLine
 10
362.961911
 20
289.1629609999998
 30
0.0
 11
367.461911
 21
289.1629609999998
 31
0.0
  0
LINE
  5
C329
330
C1B9
100
AcDbEntity
  8
1
  6
Continuous
100
AcDbLine
 10
362.961911
 20
300.162961
 30
0.0
 11
367.461911
 21
300.162961
 31
0.0
  0
ARC
  5
C32A
330
C1B9
100
AcDbEntity
  8
1
  6
Continuous
100
AcDbCircle
 10
362.561911
 20
294.162961
 30
0.0
 40
9.0
100
AcDbArc
 50
344.1191499999998
 51
15.88085
  0
ARC
  5
C32B
330
C1B9
100
AcDbEntity
  8
1
  6
Continuous
100
AcDbCircle
 10
458.2754309999998
 20
264.1629609999998
 30
0.0
 40
1.0
100
AcDbArc
 50
270.0
 51
0.0
  0
ARC
  5
C32C
330
C1B9
100
AcDbEntity
  8
1
  6
Continuous
100
AcDbCircle
 10
437.2754309999998
 20
264.1629609999998
 30
0.0
 40
1.0
100
AcDbArc
 50
180.0
 51
270.0
  0
ARC
  5
C32D
330
C1B9
100
AcDbEntity
  8
1
  6
Continuous
100
AcDbCircle
 10
447.7754309999999
 20
274.6629609999998
 30
0.0
 40
11.5
100
AcDbArc
 50
180.0
 51
0.0
  0
LINE
  5
C32E
330
C1B9
100
AcDbEntity
  8
1
  6
Continuous
100
AcDbLine
 10
458.2754309999998
 20
260.7124989999999
 30
0.0
 11
437.2754309999998
 21
260.7124989999999
 31
0.0
  0
LINE
  5
C32F
330
C1B9
100
AcDbEntity
  8
1
  6
Continuous
100
AcDbLine
 10
458.2754309999998
 20
263.162961
 30
0.0
 11
437.2754309999998
 21
263.162961
 31
0.0
  0
LINE
  5
C330
330
C1B9
100
AcDbEntity
  8
1
  6
Continuous
100
AcDbLine
 10
456.7754309999998
 20
199.662961
 30
0.0
 11
438.775431
 21
199.662961
 31
0.0
  0
ARC
  5
C331
330
C1B9
100
AcDbEntity
  8
1
  6
Continuous
100
AcDbCircle
 10
438.775431
 20
197.162961
 30
0.0
 40
2.5
100
AcDbArc
 50
90.0
 51
180.0
  0
ARC
  5
C332
330
C1B9
100
AcDbEntity
  8
1
  6
Continuous
100
AcDbCircle
 10
437.2754309999998
 20
261.7124989999999
 30
0.0
 40
1.0
100
AcDbArc
 50
180.0
 51
270.0
  0
ARC
  5
C333
330
C1B9
100
AcDbEntity
  8
1
  6
Continuous
100
AcDbCircle
 10
456.7754309999998
 20
197.162961
 30
0.0
 40
2.5
100
AcDbArc
 50
0.0
 51
90.0
  0
ARC
  5
C334
330
C1B9
100
AcDbEntity
  8
1
  6
Continuous
100
AcDbCircle
 10
458.2754309999998
 20
261.7124989999999
 30
0.0
 40
1.0
100
AcDbArc
 50
270.0
 51
0.0
  0
CIRCLE
  5
C335
330
C1B9
100
AcDbEntity
  8
1
  6
Continuous
100
AcDbCircle
 10
447.7754309999999
 20
294.162961
 30
0.0
 40
3.5
  0
CIRCLE
  5
C336
330
C1B9
100
AcDbEntity
  8
1
  6
Continuous
100
AcDbCircle
 10
447.7754309999999
 20
294.162961
 30
0.0
 40
3.799999999999998
  0
LINE
  5
C337
330
C1B9
100
AcDbEntity
  8
1
  6
Continuous
100
AcDbLine
 10
444.1148269999998
 20
289.1629609999998
 30
0.0
 11
451.6099129999998
 21
289.1629609999998
 31
0.0
  0
ARC
  5
C338
330
C1B9
100
AcDbEntity
  8
1
  6
Continuous
100
AcDbCircle
 10
447.7754309999999
 20
292.3113329999998
 30
0.0
 40
7.851628999999997
100
AcDbArc
 50
49.39870500000001
 51
130.6012949999999
  0
CIRCLE
  5
C339
330
C1B9
100
AcDbEntity
  8
1
  6
Continuous
100
AcDbCircle
 10
447.7754309999999
 20
275.662961
 30
0.0
 40
4.5
  0
CIRCLE
  5
C33A
330
C1B9
100
AcDbEntity
  8
1
  6
Continuous
100
AcDbCircle
 10
447.7754309999999
 20
275.662961
 30
0.0
 40
4.599999999999997
  0
CIRCLE
  5
C33B
330
C1B9
100
AcDbEntity
  8
1
  6
Continuous
100
AcDbCircle
 10
447.7754309999999
 20
275.662961
 30
0.0
 40
6.0
  0
ARC
  5
C33C
330
C1B9
100
AcDbEntity
  8
1
  6
Continuous
100
AcDbCircle
 10
447.7754309999999
 20
275.662961
 30
0.0
 40
8.599999999999997
100
AcDbArc
 50
61.931684
 51
118.068316
  0
ARC
  5
C33D
330
C1B9
100
AcDbEntity
  8
1
  6
Continuous
100
AcDbCircle
 10
447.7754309999999
 20
275.662961
 30
0.0
 40
11.25
100
AcDbArc
 50
210.0
 51
60.0
  0
LINE
  5
C33E
330
C1B9
100
AcDbEntity
  8
1
  6
Continuous
100
AcDbLine
 10
457.9754309999998
 20
288.162961
 30
0.0
 11
437.5754309999998
 21
288.162961
 31
0.0
  0
ARC
  5
C33F
330
C1B9
100
AcDbEntity
  8
1
  6
Continuous
100
AcDbCircle
 10
447.7754309999999
 20
276.6629609999998
 30
0.0
 40
11.5
100
AcDbArc
 50
0.0
 51
180.0
  0
LINE
  5
C340
330
C1B9
100
AcDbEntity
  8
1
  6
Continuous
100
AcDbLine
 10
458.775431
 20
301.1629609999999
 30
0.0
 11
436.7754309999998
 21
301.1629609999999
 31
0.0
  0
LINE
  5
C341
330
C1B9
100
AcDbEntity
  8
4
  6
CENTER
100
AcDbLine
 10
438.2803629999998
 20
294.162961
 30
0.0
 11
457.782613
 21
294.162961
 31
0.0
  0
LINE
  5
C342
330
C1B9
100
AcDbEntity
  8
4
  6
CENTER
100
AcDbLine
 10
463.873679
 20
275.662961
 30
0.0
 11
433.1158389999997
 21
275.662961
 31
0.0
  0
ARC
  5
C343
330
C1B9
100
AcDbEntity
  8
1
  6
Continuous
100
AcDbCircle
 10
447.7754309999999
 20
275.662961
 30
0.0
 40
8.3
100
AcDbArc
 50
60.0
 51
210.0
  0
ARC
  5
C344
330
C1B9
100
AcDbEntity
  8
1
  6
Continuous
100
AcDbCircle
 10
437.5754309999998
 20
285.662961
 30
0.0
 40
2.5
100
AcDbArc
 50
90.0
 51
180.0
  0
LINE
  5
C345
330
C1B9
100
AcDbEntity
  8
1
  6
Continuous
100
AcDbLine
 10
443.3279599999998
 20
283.3662069999999
 30
0.0
 11
441.597856
 21
286.362835
 31
0.0
  0
LINE
  5
C346
330
C1B9
100
AcDbEntity
  8
1
  6
Continuous
100
AcDbLine
 10
448.7959269999998
 20
275.662961
 30
0.0
 11
449.0247469999998
 21
276.2914379999999
 31
0.0
  0
LINE
  5
C347
330
C1B9
100
AcDbEntity
  8
1
  6
Continuous
100
AcDbLine
 10
449.0247469999998
 20
276.2914379999999
 30
0.0
 11
449.7792299999998
 21
277.072791
 31
0.0
  0
LINE
  5
C348
330
C1B9
100
AcDbEntity
  8
1
  6
Continuous
100
AcDbLine
 10
448.403978
 20
276.9122069999998
 30
0.0
 11
449.1852599999998
 21
277.66676
 31
0.0
  0
LINE
  5
C349
330
C1B9
100
AcDbEntity
  8
1
  6
Continuous
100
AcDbLine
 10
447.7754309999999
 20
276.6834579999999
 30
0.0
 11
448.403978
 21
276.9122069999998
 31
0.0
  0
LINE
  5
C34A
330
C1B9
100
AcDbEntity
  8
1
  6
Continuous
100
AcDbLine
 10
447.146954
 20
276.9122779999999
 30
0.0
 11
446.3656719999998
 21
277.66669
 31
0.0
  0
LINE
  5
C34B
330
C1B9
100
AcDbEntity
  8
1
  6
Continuous
100
AcDbLine
 10
447.7754309999999
 20
276.6834579999999
 30
0.0
 11
447.146954
 21
276.9122779999999
 31
0.0
  0
LINE
  5
C34C
330
C1B9
100
AcDbEntity
  8
1
  6
Continuous
100
AcDbLine
 10
446.7549339999997
 20
275.662961
 30
0.0
 11
446.5261849999998
 21
276.2915089999999
 31
0.0
  0
LINE
  5
C34D
330
C1B9
100
AcDbEntity
  8
1
  6
Continuous
100
AcDbLine
 10
446.5262559999998
 20
276.2914379999999
 30
0.0
 11
445.7717019999998
 21
277.07272
 31
0.0
  0
LINE
  5
C34E
330
C1B9
100
AcDbEntity
  8
1
  6
Continuous
100
AcDbLine
 10
446.5262559999998
 20
275.034485
 30
0.0
 11
445.7717019999998
 21
274.253202
 31
0.0
  0
LINE
  5
C34F
330
C1B9
100
AcDbEntity
  8
1
  6
Continuous
100
AcDbLine
 10
446.7549339999997
 20
275.662961
 30
0.0
 11
446.5262559999998
 21
275.034485
 31
0.0
  0
LINE
  5
C350
330
C1B9
100
AcDbEntity
  8
1
  6
Continuous
100
AcDbLine
 10
447.7754309999999
 20
274.642465
 30
0.0
 11
447.147025
 21
274.413716
 31
0.0
  0
LINE
  5
C351
330
C1B9
100
AcDbEntity
  8
1
  6
Continuous
100
AcDbLine
 10
447.147025
 20
274.413716
 30
0.0
 11
446.3656719999998
 21
273.6592329999999
 31
0.0
  0
LINE
  5
C352
330
C1B9
100
AcDbEntity
  8
1
  6
Continuous
100
AcDbLine
 10
448.403978
 20
274.413716
 30
0.0
 11
449.1852599999998
 21
273.659162
 31
0.0
  0
LINE
  5
C353
330
C1B9
100
AcDbEntity
  8
1
  6
Continuous
100
AcDbLine
 10
447.7754309999999
 20
274.642465
 30
0.0
 11
448.403978
 21
274.413716
 31
0.0
  0
LINE
  5
C354
330
C1B9
100
AcDbEntity
  8
1
  6
Continuous
100
AcDbLine
 10
448.7959269999998
 20
275.662961
 30
0.0
 11
449.0247469999998
 21
275.034485
 31
0.0
  0
LINE
  5
C355
330
C1B9
100
AcDbEntity
  8
1
  6
Continuous
100
AcDbLine
 10
449.0247469999998
 20
275.034485
 30
0.0
 11
449.7792299999998
 21
274.2531319999998
 31
0.0
  0
ARC
  5
C356
330
C1B9
100
AcDbEntity
  8
1
  6
Continuous
100
AcDbCircle
 10
447.7754309999999
 20
275.662961
 30
0.0
 40
2.45
100
AcDbArc
 50
35.129
 51
54.87089
  0
ARC
  5
C357
330
C1B9
100
AcDbEntity
  8
1
  6
Continuous
100
AcDbCircle
 10
447.7754309999999
 20
275.662961
 30
0.0
 40
2.45
100
AcDbArc
 50
125.1291
 51
144.8709
  0
ARC
  5
C358
330
C1B9
100
AcDbEntity
  8
1
  6
Continuous
100
AcDbCircle
 10
447.7754309999999
 20
275.662961
 30
0.0
 40
2.45
100
AcDbArc
 50
215.1289999999999
 51
234.871
  0
ARC
  5
C359
330
C1B9
100
AcDbEntity
  8
1
  6
Continuous
100
AcDbCircle
 10
447.7754309999999
 20
275.662961
 30
0.0
 40
2.45
100
AcDbArc
 50
305.129
 51
324.8709999999999
  0
ARC
  5
C35A
330
C1B9
100
AcDbEntity
  8
1
  6
Continuous
100
AcDbCircle
 10
443.5877669999999
 20
283.5162069999999
 30
0.0
 40
0.3
100
AcDbArc
 50
210.0
 51
298.0683159999998
  0
LINE
  5
C35B
330
C1B9
100
AcDbEntity
  8
1
  6
Continuous
100
AcDbLine
 10
440.58742
 20
271.5129609999999
 30
0.0
 11
438.032645
 21
270.037961
 31
0.0
  0
ARC
  5
C35C
330
C1B9
100
AcDbEntity
  8
1
  6
Continuous
100
AcDbCircle
 10
447.7754309999999
 20
275.662961
 30
0.0
 40
9.5
100
AcDbArc
 50
119.9999999999999
 51
210.0
  0
ARC
  5
C35D
330
C1B9
100
AcDbEntity
  8
1
  6
Continuous
100
AcDbCircle
 10
447.7754309999999
 20
275.662961
 30
0.0
 40
10.0
100
AcDbArc
 50
119.9999999999999
 51
210.0
  0
ARC
  5
C35E
330
C1B9
100
AcDbEntity
  8
1
  6
Continuous
100
AcDbCircle
 10
436.7754309999998
 20
296.162961
 30
0.0
 40
5.0
100
AcDbArc
 50
90.0
 51
180.0
  0
LINE
  5
C35F
330
C1B9
100
AcDbEntity
  8
1
  6
Continuous
100
AcDbLine
 10
448.7252169999998
 20
294.162961
 30
0.0
 11
448.9164889999998
 21
294.688412
 31
0.0
  0
LINE
  5
C360
330
C1B9
100
AcDbEntity
  8
1
  6
Continuous
100
AcDbLine
 10
448.9164889999998
 20
294.688412
 30
0.0
 11
449.527358
 21
295.3209189999999
 31
0.0
  0
LINE
  5
C361
330
C1B9
100
AcDbEntity
  8
1
  6
Continuous
100
AcDbLine
 10
448.300811
 20
295.3040899999999
 30
0.0
 11
448.933389
 21
295.914889
 31
0.0
  0
LINE
  5
C362
330
C1B9
100
AcDbEntity
  8
1
  6
Continuous
100
AcDbLine
 10
447.7754309999999
 20
295.112747
 30
0.0
 11
448.300811
 21
295.3040899999999
 31
0.0
  0
LINE
  5
C363
330
C1B9
100
AcDbEntity
  8
1
  6
Continuous
100
AcDbLine
 10
446.825645
 20
294.162961
 30
0.0
 11
446.634373
 21
294.688412
 31
0.0
  0
LINE
  5
C364
330
C1B9
100
AcDbEntity
  8
1
  6
Continuous
100
AcDbLine
 10
446.6344429999998
 20
294.6883419999998
 30
0.0
 11
446.0235029999998
 21
295.3209189999999
 31
0.0
  0
LINE
  5
C365
330
C1B9
100
AcDbEntity
  8
1
  6
Continuous
100
AcDbLine
 10
447.2500499999998
 20
295.3040899999999
 30
0.0
 11
446.617473
 21
295.914889
 31
0.0
  0
LINE
  5
C366
330
C1B9
100
AcDbEntity
  8
1
  6
Continuous
100
AcDbLine
 10
447.7754309999999
 20
295.112747
 30
0.0
 11
447.2501209999999
 21
295.3040189999999
 31
0.0
  0
LINE
  5
C367
330
C1B9
100
AcDbEntity
  8
1
  6
Continuous
100
AcDbLine
 10
447.7754309999999
 20
293.2131749999999
 30
0.0
 11
447.2500499999998
 21
293.021974
 31
0.0
  0
LINE
  5
C368
330
C1B9
100
AcDbEntity
  8
1
  6
Continuous
100
AcDbLine
 10
447.2500499999998
 20
293.021974
 30
0.0
 11
446.617473
 21
292.411034
 31
0.0
  0
LINE
  5
C369
330
C1B9
100
AcDbEntity
  8
1
  6
Continuous
100
AcDbLine
 10
446.634373
 20
293.6376519999999
 30
0.0
 11
446.0235029999998
 21
293.0050029999998
 31
0.0
  0
LINE
  5
C36A
330
C1B9
100
AcDbEntity
  8
1
  6
Continuous
100
AcDbLine
 10
446.825645
 20
294.162961
 30
0.0
 11
446.634373
 21
293.6376519999999
 31
0.0
  0
LINE
  5
C36B
330
C1B9
100
AcDbEntity
  8
1
  6
Continuous
100
AcDbLine
 10
448.7252169999998
 20
294.162961
 30
0.0
 11
448.9164889999998
 21
293.6376519999999
 31
0.0
  0
LINE
  5
C36C
330
C1B9
100
AcDbEntity
  8
1
  6
Continuous
100
AcDbLine
 10
448.9164889999998
 20
293.6376519999999
 30
0.0
 11
449.527358
 21
293.0050029999998
 31
0.0
  0
LINE
  5
C36D
330
C1B9
100
AcDbEntity
  8
1
  6
Continuous
100
AcDbLine
 10
448.300811
 20
293.021974
 30
0.0
 11
448.933389
 21
292.411034
 31
0.0
  0
LINE
  5
C36E
330
C1B9
100
AcDbEntity
  8
1
  6
Continuous
100
AcDbLine
 10
447.7754309999999
 20
293.2131749999999
 30
0.0
 11
448.300811
 21
293.021974
 31
0.0
  0
ARC
  5
C36F
330
C1B9
100
AcDbEntity
  8
1
  6
Continuous
100
AcDbCircle
 10
447.7754309999999
 20
294.162961
 30
0.0
 40
2.1
100
AcDbArc
 50
33.463
 51
56.537
  0
ARC
  5
C370
330
C1B9
100
AcDbEntity
  8
1
  6
Continuous
100
AcDbCircle
 10
447.7754309999999
 20
294.162961
 30
0.0
 40
2.1
100
AcDbArc
 50
123.4629999999998
 51
146.537
  0
ARC
  5
C371
330
C1B9
100
AcDbEntity
  8
1
  6
Continuous
100
AcDbCircle
 10
447.7754309999999
 20
294.162961
 30
0.0
 40
2.1
100
AcDbArc
 50
213.463
 51
236.5369999999999
  0
ARC
  5
C372
330
C1B9
100
AcDbEntity
  8
1
  6
Continuous
100
AcDbCircle
 10
447.7754309999999
 20
294.162961
 30
0.0
 40
2.1
100
AcDbArc
 50
303.4629999999999
 51
326.5369999999998
  0
ARC
  5
C373
330
C1B9
100
AcDbEntity
  8
1
  6
Continuous
100
AcDbCircle
 10
446.1883199999999
 20
294.162961
 30
0.0
 40
5.412889999999999
100
AcDbArc
 50
130.6012949999999
 51
247.4762799999998
  0
LINE
  5
C374
330
C1B9
100
AcDbEntity
  8
1
  6
Continuous
100
AcDbLine
 10
452.222902
 20
283.3662069999999
 30
0.0
 11
453.9530059999998
 21
286.362835
 31
0.0
  0
ARC
  5
C375
330
C1B9
100
AcDbEntity
  8
1
  6
Continuous
100
AcDbCircle
 10
457.9754309999998
 20
285.662961
 30
0.0
 40
2.5
100
AcDbArc
 50
0.0
 51
90.0
  0
LINE
  5
C376
330
C1B9
100
AcDbEntity
  8
1
  6
Continuous
100
AcDbLine
 10
451.9254309999998
 20
282.8509719999999
 30
0.0
 11
452.222902
 21
283.3662069999999
 31
0.0
  0
ARC
  5
C377
330
C1B9
100
AcDbEntity
  8
1
  6
Continuous
100
AcDbCircle
 10
451.9630949999998
 20
283.5162069999999
 30
0.0
 40
0.3
100
AcDbArc
 50
241.931684
 51
330.0
  0
ARC
  5
C378
330
C1B9
100
AcDbEntity
  8
1
  6
Continuous
100
AcDbCircle
 10
449.3625409999999
 20
294.162961
 30
0.0
 40
5.412889999999999
100
AcDbArc
 50
310.601295
 51
49.39870500000001
  0
ARC
  5
C379
330
C1B9
100
AcDbEntity
  8
1
  6
Continuous
100
AcDbCircle
 10
447.7754309999999
 20
296.01459
 30
0.0
 40
7.851628999999997
100
AcDbArc
 50
299.233358
 51
310.601295
  0
ARC
  5
C37A
330
C1B9
100
AcDbEntity
  8
1
  6
Continuous
100
AcDbCircle
 10
458.775431
 20
296.162961
 30
0.0
 40
5.0
100
AcDbArc
 50
0.0
 51
90.0
  0
LINE
  5
C37B
330
C1B9
100
AcDbEntity
  8
4
  6
CENTER
100
AcDbLine
 10
292.953419
 20
405.325922
 30
0.0
 11
254.690346
 21
405.325922
 31
0.0
  0
ARC
  5
C37C
330
C1B9
100
AcDbEntity
  8
1
  6
Continuous
100
AcDbCircle
 10
267.91647
 20
405.325922
 30
0.0
 40
10.54339799999998
100
AcDbArc
 50
116.930926
 51
243.0690740000001
  0
LINE
  5
C37D
330
C1B9
100
AcDbEntity
  8
1
  6
Continuous
100
AcDbLine
 10
55.195704
 20
404.825922
 30
0.0
 11
77.96715
 21
404.825922
 31
0.0
  0
LINE
  5
C37E
330
C1B9
100
AcDbEntity
  8
1
  6
Continuous
100
AcDbLine
 10
55.195704
 20
406.0259219999998
 30
0.0
 11
78.602974
 21
406.0259219999998
 31
0.0
  0
LINE
  5
C37F
330
C1B9
100
AcDbEntity
  8
1
  6
Continuous
100
AcDbLine
 10
58.695704
 20
408.4259219999998
 30
0.0
 11
76.195704
 21
408.4259219999998
 31
0.0
  0
LINE
  5
C380
330
C1B9
100
AcDbEntity
  8
1
  6
Continuous
100
AcDbLine
 10
58.695704
 20
402.225922
 30
0.0
 11
75.195704
 21
402.225922
 31
0.0
  0
LINE
  5
C381
330
C1B9
100
AcDbEntity
  8
4
  6
CENTER
100
AcDbLine
 10
28.95019099999998
 20
405.325922
 30
0.0
 11
79.984612
 21
405.325922
 31
0.0
  0
LINE
  5
C382
330
C1B9
100
AcDbEntity
  8
1
  6
Continuous
100
AcDbLine
 10
51.695704
 20
402.075922
 30
0.0
 11
41.629037
 21
394.525922
 31
0.0
  0
LINE
  5
C383
330
C1B9
100
AcDbEntity
  8
1
  6
Continuous
100
AcDbLine
 10
42.22903699999998
 20
393.7259220000001
 30
0.0
 11
51.695704
 21
400.825922
 31
0.0
  0
LINE
  5
C384
330
C1B9
100
AcDbEntity
  8
1
  6
Continuous
100
AcDbLine
 10
35.934021
 20
394.771222
 30
0.0
 11
31.86365399999999
 21
400.876773
 31
0.0
  0
LINE
  5
C385
330
C1B9
100
AcDbEntity
  8
1
  6
Continuous
100
AcDbLine
 10
31.03160300000001
 20
400.3220729999998
 30
0.0
 11
35.101971
 21
394.216522
 31
0.0
  0
ARC
  5
C386
330
C1B9
100
AcDbEntity
  8
1
  6
Continuous
100
AcDbCircle
 10
36.766071
 20
395.3259219999998
 30
0.0
 40
2.0
100
AcDbArc
 50
213.690068
 51
270.0
  0
ARC
  5
C387
330
C1B9
100
AcDbEntity
  8
1
  6
Continuous
100
AcDbCircle
 10
41.029037
 20
395.3259219999998
 30
0.0
 40
1.0
100
AcDbArc
 50
270.0
 51
306.8698979999999
  0
ARC
  5
C388
330
C1B9
100
AcDbEntity
  8
1
  6
Continuous
100
AcDbCircle
 10
41.029037
 20
395.3259219999998
 30
0.0
 40
2.0
100
AcDbArc
 50
270.0
 51
306.8698979999999
  0
ARC
  5
C389
330
C1B9
100
AcDbEntity
  8
1
  6
Continuous
100
AcDbCircle
 10
36.766071
 20
395.3259219999998
 30
0.0
 40
1.0
100
AcDbArc
 50
213.690068
 51
270.0
  0
LINE
  5
C38A
330
C1B9
100
AcDbEntity
  8
1
  6
Continuous
100
AcDbLine
 10
41.029037
 20
394.3259219999998
 30
0.0
 11
36.766071
 21
394.3259219999998
 31
0.0
  0
LINE
  5
C38B
330
C1B9
100
AcDbEntity
  8
1
  6
Continuous
100
AcDbLine
 10
36.766071
 20
393.325922
 30
0.0
 11
41.029037
 21
393.325922
 31
0.0
  0
ARC
  5
C38C
330
C1B9
100
AcDbEntity
  8
1
  6
Continuous
100
AcDbCircle
 10
36.766071
 20
415.3259219999998
 30
0.0
 40
2.0
100
AcDbArc
 50
90.0
 51
146.3099319999998
  0
LINE
  5
C38D
330
C1B9
100
AcDbEntity
  8
1
  6
Continuous
100
AcDbLine
 10
33.19570399999999
 20
409.325922
 30
0.0
 11
36.195704
 21
409.325922
 31
0.0
  0
LINE
  5
C38E
330
C1B9
100
AcDbEntity
  8
1
  6
Continuous
100
AcDbLine
 10
33.19570399999999
 20
401.325922
 30
0.0
 11
36.195704
 21
401.325922
 31
0.0
  0
LINE
  5
C38F
330
C1B9
100
AcDbEntity
  8
1
  6
Continuous
100
AcDbLine
 10
35.934021
 20
415.880622
 30
0.0
 11
31.86365399999999
 21
409.7750709999998
 31
0.0
  0
ARC
  5
C390
330
C1B9
100
AcDbEntity
  8
1
  6
Continuous
100
AcDbCircle
 10
32.695704
 20
409.2203709999997
 30
0.0
 40
1.0
100
AcDbArc
 50
146.3099319999998
 51
180.0
  0
LINE
  5
C391
330
C1B9
100
AcDbEntity
  8
1
  6
Continuous
100
AcDbLine
 10
31.695704
 20
401.4314729999998
 30
0.0
 11
31.695704
 21
409.2203709999997
 31
0.0
  0
ARC
  5
C392
330
C1B9
100
AcDbEntity
  8
1
  6
Continuous
100
AcDbCircle
 10
32.695704
 20
401.4314729999998
 30
0.0
 40
1.0
100
AcDbArc
 50
180.0
 51
213.690068
  0
ARC
  5
C393
330
C1B9
100
AcDbEntity
  8
1
  6
Continuous
100
AcDbCircle
 10
33.19570399999999
 20
408.825922
 30
0.0
 40
0.5
100
AcDbArc
 50
90.0
 51
180.0
  0
ARC
  5
C394
330
C1B9
100
AcDbEntity
  8
1
  6
Continuous
100
AcDbCircle
 10
32.695704
 20
401.4314729999998
 30
0.0
 40
2.0
100
AcDbArc
 50
180.0
 51
213.690068
  0
ARC
  5
C395
330
C1B9
100
AcDbEntity
  8
1
  6
Continuous
100
AcDbCircle
 10
32.695704
 20
409.2203709999997
 30
0.0
 40
2.0
100
AcDbArc
 50
146.3099319999998
 51
180.0
  0
ARC
  5
C396
330
C1B9
100
AcDbEntity
  8
1
  6
Continuous
100
AcDbCircle
 10
33.19570399999999
 20
401.825922
 30
0.0
 40
0.5
100
AcDbArc
 50
180.0
 51
270.0
  0
LINE
  5
C397
330
C1B9
100
AcDbEntity
  8
1
  6
Continuous
100
AcDbLine
 10
32.695704
 20
408.825922
 30
0.0
 11
32.695704
 21
401.825922
 31
0.0
  0
LINE
  5
C398
330
C1B9
100
AcDbEntity
  8
1
  6
Continuous
100
AcDbLine
 10
30.69570399999999
 20
409.2203709999997
 30
0.0
 11
30.69570399999999
 21
401.4314729999998
 31
0.0
  0
LINE
  5
C399
330
C1B9
100
AcDbEntity
  8
1
  6
Continuous
100
AcDbLine
 10
31.03160300000001
 20
410.3297709999997
 30
0.0
 11
35.101971
 21
416.4353219999998
 31
0.0
  0
LINE
  5
C39A
330
C1B9
100
AcDbEntity
  8
1
  6
Continuous
100
AcDbLine
 10
41.629037
 20
416.1259219999998
 30
0.0
 11
51.695704
 21
408.5759219999998
 31
0.0
  0
LINE
  5
C39B
330
C1B9
100
AcDbEntity
  8
1
  6
Continuous
100
AcDbLine
 10
42.22903699999998
 20
416.9259219999998
 30
0.0
 11
51.695704
 21
409.825922
 31
0.0
  0
ARC
  5
C39C
330
C1B9
100
AcDbEntity
  8
1
  6
Continuous
100
AcDbCircle
 10
41.029037
 20
415.3259219999998
 30
0.0
 40
1.0
100
AcDbArc
 50
53.130102
 51
90.0
  0
ARC
  5
C39D
330
C1B9
100
AcDbEntity
  8
1
  6
Continuous
100
AcDbCircle
 10
41.029037
 20
415.3259219999998
 30
0.0
 40
2.0
100
AcDbArc
 50
53.130102
 51
90.0
  0
ARC
  5
C39E
330
C1B9
100
AcDbEntity
  8
1
  6
Continuous
100
AcDbCircle
 10
41.694914
 20
400.6603319999999
 30
0.0
 40
2.004309
100
AcDbArc
 50
270.0
 51
324.4619999999998
  0
ARC
  5
C39F
330
C1B9
100
AcDbEntity
  8
1
  6
Continuous
100
AcDbCircle
 10
35.163089
 20
405.325922
 30
0.0
 40
10.032628
100
AcDbArc
 50
324.4619999999998
 51
35.53799999999999
  0
ARC
  5
C3A0
330
C1B9
100
AcDbEntity
  8
1
  6
Continuous
100
AcDbCircle
 10
48.228319
 20
405.325922
 30
0.0
 40
10.032628
100
AcDbArc
 50
144.462
 51
215.5377
  0
LINE
  5
C3A1
330
C1B9
100
AcDbEntity
  8
1
  6
Continuous
100
AcDbLine
 10
38.982399
 20
405.715905
 30
0.0
 11
44.40900899999999
 21
405.715905
 31
0.0
  0
LINE
  5
C3A2
330
C1B9
100
AcDbEntity
  8
1
  6
Continuous
100
AcDbLine
 10
39.56184799999999
 20
400.2719279999998
 30
0.0
 11
42.915388
 21
400.2719279999998
 31
0.0
  0
LINE
  5
C3A3
330
C1B9
100
AcDbEntity
  8
1
  6
Continuous
100
AcDbLine
 10
43.13011599999999
 20
401.0487369999998
 30
0.0
 11
40.261291
 21
401.0487369999998
 31
0.0
  0
LINE
  5
C3A4
330
C1B9
100
AcDbEntity
  8
1
  6
Continuous
100
AcDbLine
 10
39.776575
 20
401.827124
 30
0.0
 11
43.61325299999999
 21
401.827124
 31
0.0
  0
LINE
  5
C3A5
330
C1B9
100
AcDbEntity
  8
1
  6
Continuous
100
AcDbLine
 10
40.76179599999998
 20
403.3823209999998
 30
0.0
 11
39.27764899999999
 21
403.3823209999998
 31
0.0
  0
LINE
  5
C3A6
330
C1B9
100
AcDbEntity
  8
1
  6
Continuous
100
AcDbLine
 10
41.694914
 20
404.937518
 30
0.0
 11
41.694914
 21
404.160709
 31
0.0
  0
ARC
  5
C3A7
330
C1B9
100
AcDbEntity
  8
1
  6
Continuous
100
AcDbCircle
 10
40.261291
 20
401.4387199999998
 30
0.0
 40
0.388957
100
AcDbArc
 50
206.0144
 51
270.0
  0
ARC
  5
C3A8
330
C1B9
100
AcDbEntity
  8
1
  6
Continuous
100
AcDbCircle
 10
48.228319
 20
405.325922
 30
0.0
 40
9.254918999999999
100
AcDbArc
 50
202.944
 51
206.0144
  0
ARC
  5
C3A9
330
C1B9
100
AcDbEntity
  8
1
  6
Continuous
100
AcDbCircle
 10
39.776575
 20
401.7497589999998
 30
0.0
 40
0.077791
100
AcDbArc
 50
90.0
 51
202.944
  0
ARC
  5
C3AA
330
C1B9
100
AcDbEntity
  8
1
  6
Continuous
100
AcDbCircle
 10
43.13011599999999
 20
401.4387199999998
 30
0.0
 40
0.388957
100
AcDbArc
 50
270.0
 51
333.9859999999998
  0
ARC
  5
C3AB
330
C1B9
100
AcDbEntity
  8
1
  6
Continuous
100
AcDbCircle
 10
39.27764899999999
 20
403.304956
 30
0.0
 40
0.077791
100
AcDbArc
 50
90.0
 51
192.7289
  0
ARC
  5
C3AC
330
C1B9
100
AcDbEntity
  8
1
  6
Continuous
100
AcDbCircle
 10
48.228319
 20
405.325922
 30
0.0
 40
9.254918999999999
100
AcDbArc
 50
192.7289
 51
193.2680999999999
  0
ARC
  5
C3AD
330
C1B9
100
AcDbEntity
  8
1
  6
Continuous
100
AcDbCircle
 10
48.228319
 20
405.325922
 30
0.0
 40
9.254918999999999
100
AcDbArc
 50
193.2680999999999
 51
195.2574999999999
  0
ARC
  5
C3AE
330
C1B9
100
AcDbEntity
  8
1
  6
Continuous
100
AcDbCircle
 10
39.675527
 20
402.993917
 30
0.0
 40
0.388957
100
AcDbArc
 50
195.2574999999999
 51
270.0
  0
ARC
  5
C3AF
330
C1B9
100
AcDbEntity
  8
1
  6
Continuous
100
AcDbCircle
 10
43.71588
 20
402.993917
 30
0.0
 40
0.388957
100
AcDbArc
 50
270.0
 51
344.7419999999998
  0
ARC
  5
C3B0
330
C1B9
100
AcDbEntity
  8
1
  6
Continuous
100
AcDbCircle
 10
35.163089
 20
405.325922
 30
0.0
 40
9.254918999999999
100
AcDbArc
 50
344.7419999999998
 51
344.794
  0
ARC
  5
C3B1
330
C1B9
100
AcDbEntity
  8
1
  6
Continuous
100
AcDbCircle
 10
35.163089
 20
405.325922
 30
0.0
 40
9.254918999999999
100
AcDbArc
 50
344.794
 51
347.2709999999998
  0
ARC
  5
C3B2
330
C1B9
100
AcDbEntity
  8
1
  6
Continuous
100
AcDbCircle
 10
44.113758
 20
403.304956
 30
0.0
 40
0.077791
100
AcDbArc
 50
347.2709999999998
 51
90.0
  0
LINE
  5
C3B3
330
C1B9
100
AcDbEntity
  8
1
  6
Continuous
100
AcDbLine
 10
39.675527
 20
402.6039329999998
 30
0.0
 11
43.71588
 21
402.6039329999998
 31
0.0
  0
LINE
  5
C3B4
330
C1B9
100
AcDbEntity
  8
1
  6
Continuous
100
AcDbLine
 10
44.113758
 20
403.3823209999998
 30
0.0
 11
42.62803199999999
 21
403.3823209999998
 31
0.0
  0
LINE
  5
C3B5
330
C1B9
100
AcDbEntity
  8
1
  6
Continuous
100
AcDbLine
 10
39.047133
 20
404.160709
 30
0.0
 11
44.34427399999999
 21
404.160709
 31
0.0
  0
LINE
  5
C3B6
330
C1B9
100
AcDbEntity
  8
1
  6
Continuous
100
AcDbLine
 10
38.982399
 20
404.937518
 30
0.0
 11
44.40900899999999
 21
404.937518
 31
0.0
  0
ARC
  5
C3B7
330
C1B9
100
AcDbEntity
  8
1
  6
Continuous
100
AcDbCircle
 10
43.61325299999999
 20
401.7497589999998
 30
0.0
 40
0.077791
100
AcDbArc
 50
337.0559999999999
 51
90.0
  0
ARC
  5
C3B8
330
C1B9
100
AcDbEntity
  8
1
  6
Continuous
100
AcDbCircle
 10
35.163089
 20
405.325922
 30
0.0
 40
9.254918999999999
100
AcDbArc
 50
333.9859999999998
 51
337.0559999999999
  0
LINE
  5
C3B9
330
C1B9
100
AcDbEntity
  8
1
  6
Continuous
100
AcDbLine
 10
40.76179599999998
 20
407.2711019999998
 30
0.0
 11
39.50027099999999
 21
407.2711019999998
 31
0.0
  0
LINE
  5
C3BA
330
C1B9
100
AcDbEntity
  8
1
  6
Continuous
100
AcDbLine
 10
41.694914
 20
407.2711019999998
 30
0.0
 11
41.694914
 21
406.8826969999998
 31
0.0
  0
LINE
  5
C3BB
330
C1B9
100
AcDbEntity
  8
1
  6
Continuous
100
AcDbLine
 10
39.505008
 20
408.826298
 30
0.0
 11
41.30650999999999
 21
408.826298
 31
0.0
  0
LINE
  5
C3BC
330
C1B9
100
AcDbEntity
  8
1
  6
Continuous
100
AcDbLine
 10
41.30650999999999
 20
409.604686
 30
0.0
 11
39.64552799999999
 21
409.604686
 31
0.0
  0
LINE
  5
C3BD
330
C1B9
100
AcDbEntity
  8
1
  6
Continuous
100
AcDbLine
 10
41.694914
 20
409.2147029999998
 30
0.0
 11
43.56114999999999
 21
409.2147029999998
 31
0.0
  0
LINE
  5
C3BE
330
C1B9
100
AcDbEntity
  8
1
  6
Continuous
100
AcDbLine
 10
43.15064099999999
 20
409.999406
 30
0.0
 11
39.872887
 21
410.878842
 31
0.0
  0
LINE
  5
C3BF
330
C1B9
100
AcDbEntity
  8
1
  6
Continuous
100
AcDbLine
 10
41.694914
 20
411.9966889999998
 30
0.0
 11
41.694914
 21
410.389389
 31
0.0
  0
ARC
  5
C3C0
330
C1B9
100
AcDbEntity
  8
1
  6
Continuous
100
AcDbCircle
 10
41.30650999999999
 20
409.2147029999998
 30
0.0
 40
0.388957
100
AcDbArc
 50
270.0
 51
90.0
  0
ARC
  5
C3C1
330
C1B9
100
AcDbEntity
  8
1
  6
Continuous
100
AcDbCircle
 10
41.694914
 20
409.993091
 30
0.0
 40
2.004309
100
AcDbArc
 50
62.24999999999999
 51
144.462
  0
ARC
  5
C3C2
330
C1B9
100
AcDbEntity
  8
1
  6
Continuous
100
AcDbCircle
 10
41.694914
 20
409.993091
 30
0.0
 40
2.004309
100
AcDbArc
 50
35.53799999999999
 51
45.69899999999999
  0
ARC
  5
C3C3
330
C1B9
100
AcDbEntity
  8
1
  6
Continuous
100
AcDbCircle
 10
39.50027099999999
 20
406.8826969999998
 30
0.0
 40
0.388957
100
AcDbArc
 50
90.0
 51
169.896
  0
ARC
  5
C3C4
330
C1B9
100
AcDbEntity
  8
1
  6
Continuous
100
AcDbCircle
 10
48.228319
 20
405.325922
 30
0.0
 40
9.254918999999999
100
AcDbArc
 50
169.896
 51
172.2069999999999
  0
ARC
  5
C3C5
330
C1B9
100
AcDbEntity
  8
1
  6
Continuous
100
AcDbCircle
 10
39.13555
 20
406.571658
 30
0.0
 40
0.077791
100
AcDbArc
 50
172.2069999999999
 51
270.0
  0
ARC
  5
C3C6
330
C1B9
100
AcDbEntity
  8
1
  6
Continuous
100
AcDbCircle
 10
43.89113599999999
 20
406.8826969999998
 30
0.0
 40
0.388957
100
AcDbArc
 50
10.10399999999999
 51
90.0
  0
ARC
  5
C3C7
330
C1B9
100
AcDbEntity
  8
1
  6
Continuous
100
AcDbCircle
 10
44.255857
 20
406.571658
 30
0.0
 40
0.077791
100
AcDbArc
 50
270.0
 51
7.792999999999999
  0
ARC
  5
C3C8
330
C1B9
100
AcDbEntity
  8
1
  6
Continuous
100
AcDbCircle
 10
35.163089
 20
405.325922
 30
0.0
 40
9.254918999999999
100
AcDbArc
 50
7.792999999999999
 51
10.10399999999999
  0
LINE
  5
C3C9
330
C1B9
100
AcDbEntity
  8
1
  6
Continuous
100
AcDbLine
 10
39.13555
 20
406.4927139999999
 30
0.0
 11
44.255857
 21
406.4927139999999
 31
0.0
  0
LINE
  5
C3CA
330
C1B9
100
AcDbEntity
  8
1
  6
Continuous
100
AcDbLine
 10
43.89113599999999
 20
407.2711019999998
 30
0.0
 11
41.694914
 21
407.2711019999998
 31
0.0
  0
LINE
  5
C3CB
330
C1B9
100
AcDbEntity
  8
1
  6
Continuous
100
AcDbLine
 10
39.138708
 20
408.0479109999997
 30
0.0
 11
44.00797299999999
 21
408.0479109999997
 31
0.0
  0
ARC
  5
C3CC
330
C1B9
100
AcDbEntity
  8
1
  6
Continuous
100
AcDbCircle
 10
41.694914
 20
400.6603319999999
 30
0.0
 40
2.004309
100
AcDbArc
 50
215.5377
 51
256.5374
  0
ARC
  5
C3CD
330
C1B9
100
AcDbEntity
  8
1
  6
Continuous
100
AcDbCircle
 10
36.766071
 20
415.3259219999998
 30
0.0
 40
1.0
100
AcDbArc
 50
90.0
 51
146.3099319999998
  0
ARC
  5
C3CE
330
C1B9
100
AcDbEntity
  8
1
  6
Continuous
100
AcDbCircle
 10
36.195704
 20
408.825922
 30
0.0
 40
0.5
100
AcDbArc
 50
0.0
 51
90.0
  0
ARC
  5
C3CF
330
C1B9
100
AcDbEntity
  8
1
  6
Continuous
100
AcDbCircle
 10
36.195704
 20
401.825922
 30
0.0
 40
0.5
100
AcDbArc
 50
270.0
 51
0.0
  0
LINE
  5
C3D0
330
C1B9
100
AcDbEntity
  8
1
  6
Continuous
100
AcDbLine
 10
36.695704
 20
408.825922
 30
0.0
 11
36.695704
 21
401.825922
 31
0.0
  0
LINE
  5
C3D1
330
C1B9
100
AcDbEntity
  8
1
  6
Continuous
100
AcDbLine
 10
36.766071
 20
416.3259219999998
 30
0.0
 11
41.029037
 21
416.3259219999998
 31
0.0
  0
LINE
  5
C3D2
330
C1B9
100
AcDbEntity
  8
1
  6
Continuous
100
AcDbLine
 10
36.766071
 20
417.325922
 30
0.0
 11
41.029037
 21
417.325922
 31
0.0
  0
ARC
  5
C3D3
330
C1B9
100
AcDbEntity
  8
1
  6
Continuous
100
AcDbCircle
 10
58.395704
 20
401.125922
 30
0.0
 40
0.3
100
AcDbArc
 50
270.0
 51
0.0
  0
ARC
  5
C3D4
330
C1B9
100
AcDbEntity
  8
1
  6
Continuous
100
AcDbCircle
 10
58.395704
 20
409.5259219999999
 30
0.0
 40
0.3
100
AcDbArc
 50
0.0
 51
90.0
  0
LINE
  5
C3D5
330
C1B9
100
AcDbEntity
  8
1
  6
Continuous
100
AcDbLine
 10
58.695704
 20
402.225922
 30
0.0
 11
58.695704
 21
401.125922
 31
0.0
  0
LINE
  5
C3D6
330
C1B9
100
AcDbEntity
  8
1
  6
Continuous
100
AcDbLine
 10
58.695704
 20
409.5259219999999
 30
0.0
 11
58.695704
 21
408.4259219999998
 31
0.0
  0
LINE
  5
C3D7
330
C1B9
100
AcDbEntity
  8
1
  6
Continuous
100
AcDbLine
 10
55.195704
 20
406.0259219999998
 30
0.0
 11
55.195704
 21
404.825922
 31
0.0
  0
LINE
  5
C3D8
330
C1B9
100
AcDbEntity
  8
1
  6
Continuous
100
AcDbLine
 10
51.695704
 20
402.075922
 30
0.0
 11
51.695704
 21
408.5759219999998
 31
0.0
  0
LINE
  5
C3D9
330
C1B9
100
AcDbEntity
  8
1
  6
Continuous
100
AcDbLine
 10
51.695704
 20
409.825922
 30
0.0
 11
58.395704
 21
409.825922
 31
0.0
  0
LINE
  5
C3DA
330
C1B9
100
AcDbEntity
  8
1
  6
Continuous
100
AcDbLine
 10
51.695704
 20
400.825922
 30
0.0
 11
58.395704
 21
400.825922
 31
0.0
  0
LINE
  5
C3DB
330
C1B9
100
AcDbEntity
  8
1
  6
Continuous
100
AcDbLine
 10
75.195704
 20
402.225922
 30
0.0
 11
78.53779799999998
 21
405.3612689999998
 31
0.0
  0
LINE
  5
C3DC
330
C1B9
100
AcDbEntity
  8
1
  6
Continuous
100
AcDbLine
 10
76.195704
 20
408.4259219999998
 30
0.0
 11
78.54872199999999
 21
406.0800099999998
 31
0.0
  0
ARC
  5
C3DD
330
C1B9
100
AcDbEntity
  8
1
  6
Continuous
100
AcDbCircle
 10
78.195704
 20
405.725922
 30
0.0
 40
0.5
100
AcDbArc
 50
313.1718549999998
 51
45.08664600000001
  0
LINE
  5
C3DE
330
C1B9
100
AcDbEntity
  8
1
  6
Continuous
100
AcDbLine
 10
283.341197
 20
399.148322
 30
0.0
 11
283.341197
 21
394.825922
 31
0.0
  0
LINE
  5
C3DF
330
C1B9
100
AcDbEntity
  8
1
  6
Continuous
100
AcDbLine
 10
269.1411969999999
 20
401.825922
 30
0.0
 11
269.1411969999999
 21
393.625922
 31
0.0
  0
LINE
  5
C3E0
330
C1B9
100
AcDbEntity
  8
1
  6
Continuous
100
AcDbLine
 10
283.741197
 20
399.148322
 30
0.0
 11
283.741197
 21
395.5839219999999
 31
0.0
  0
LINE
  5
C3E1
330
C1B9
100
AcDbEntity
  8
1
  6
Continuous
100
AcDbLine
 10
267.1411969999999
 20
421.325922
 30
0.0
 11
267.1411969999999
 21
389.325922
 31
0.0
  0
LINE
  5
C3E2
330
C1B9
100
AcDbEntity
  8
1
  6
Continuous
100
AcDbLine
 10
264.6411969999999
 20
421.325922
 30
0.0
 11
264.6411969999999
 21
389.325922
 31
0.0
  0
LINE
  5
C3E3
330
C1B9
100
AcDbEntity
  8
1
  6
Continuous
100
AcDbLine
 10
266.1411969999999
 20
421.325922
 30
0.0
 11
266.1411969999999
 21
389.325922
 31
0.0
  0
LINE
  5
C3E4
330
C1B9
100
AcDbEntity
  8
1
  6
Continuous
100
AcDbLine
 10
263.1411969999999
 20
418.325922
 30
0.0
 11
263.1411969999999
 21
392.3259219999998
 31
0.0
  0
LINE
  5
C3E5
330
C1B9
100
AcDbEntity
  8
1
  6
Continuous
100
AcDbLine
 10
285.841197
 20
416.5759219999998
 30
0.0
 11
285.841197
 21
395.5839219999999
 31
0.0
  0
LINE
  5
C3E6
330
C1B9
100
AcDbEntity
  8
1
  6
Continuous
100
AcDbLine
 10
282.341197
 20
393.8259219999998
 30
0.0
 11
269.1411969999999
 21
393.8259219999998
 31
0.0
  0
ARC
  5
C3E7
330
C1B9
100
AcDbEntity
  8
1
  6
Continuous
100
AcDbCircle
 10
268.1411969999999
 20
393.625922
 30
0.0
 40
1.0
100
AcDbArc
 50
270.0
 51
0.0
  0
LINE
  5
C3E8
330
C1B9
100
AcDbEntity
  8
1
  6
Continuous
100
AcDbLine
 10
268.1411969999999
 20
392.625922
 30
0.0
 11
267.1411969999999
 21
392.625922
 31
0.0
  0
LINE
  5
C3E9
330
C1B9
100
AcDbEntity
  8
1
  6
Continuous
100
AcDbLine
 10
264.6411969999999
 20
389.325922
 30
0.0
 11
263.1411969999999
 21
392.3259219999998
 31
0.0
  0
LINE
  5
C3EA
330
C1B9
100
AcDbEntity
  8
1
  6
Continuous
100
AcDbLine
 10
266.1411969999999
 20
389.325922
 30
0.0
 11
264.6411969999999
 21
389.325922
 31
0.0
  0
LINE
  5
C3EB
330
C1B9
100
AcDbEntity
  8
1
  6
Continuous
100
AcDbLine
 10
267.1411969999999
 20
389.325922
 30
0.0
 11
266.1411969999999
 21
389.325922
 31
0.0
  0
ARC
  5
C3EC
330
C1B9
100
AcDbEntity
  8
1
  6
Continuous
100
AcDbCircle
 10
282.341197
 20
394.825922
 30
0.0
 40
1.0
100
AcDbArc
 50
270.0
 51
0.0
  0
LINE
  5
C3ED
330
C1B9
100
AcDbEntity
  8
1
  6
Continuous
100
AcDbLine
 10
283.741197
 20
395.9957719999999
 30
0.0
 11
283.341197
 21
395.9957719999999
 31
0.0
  0
LINE
  5
C3EE
330
C1B9
100
AcDbEntity
  8
1
  6
Continuous
100
AcDbLine
 10
285.841197
 20
395.5839219999999
 30
0.0
 11
283.741197
 21
395.5839219999999
 31
0.0
  0
ARC
  5
C3EF
330
C1B9
100
AcDbEntity
  8
1
  6
Continuous
100
AcDbCircle
 10
268.1411969999999
 20
417.025922
 30
0.0
 40
1.0
100
AcDbArc
 50
0.0
 51
90.0
  0
LINE
  5
C3F0
330
C1B9
100
AcDbEntity
  8
1
  6
Continuous
100
AcDbLine
 10
282.341197
 20
416.825922
 30
0.0
 11
269.1411969999999
 21
416.825922
 31
0.0
  0
LINE
  5
C3F1
330
C1B9
100
AcDbEntity
  8
1
  6
Continuous
100
AcDbLine
 10
269.1411969999999
 20
417.025922
 30
0.0
 11
269.1411969999999
 21
408.825922
 31
0.0
  0
LINE
  5
C3F2
330
C1B9
100
AcDbEntity
  8
1
  6
Continuous
100
AcDbLine
 10
271.1411969999999
 20
402.3259219999998
 30
0.0
 11
271.1411969999999
 21
408.325922
 31
0.0
  0
LINE
  5
C3F3
330
C1B9
100
AcDbEntity
  8
1
  6
Continuous
100
AcDbLine
 10
270.641197
 20
408.825922
 30
0.0
 11
267.1411969999999
 21
408.825922
 31
0.0
  0
LINE
  5
C3F4
330
C1B9
100
AcDbEntity
  8
1
  6
Continuous
100
AcDbLine
 10
270.641197
 20
408.825922
 30
0.0
 11
271.1411969999999
 21
408.325922
 31
0.0
  0
LINE
  5
C3F5
330
C1B9
100
AcDbEntity
  8
1
  6
Continuous
100
AcDbLine
 10
270.641197
 20
401.825922
 30
0.0
 11
267.1411969999999
 21
401.825922
 31
0.0
  0
LINE
  5
C3F6
330
C1B9
100
AcDbEntity
  8
1
  6
Continuous
100
AcDbLine
 10
270.641197
 20
408.825922
 30
0.0
 11
270.641197
 21
401.825922
 31
0.0
  0
LINE
  5
C3F7
330
C1B9
100
AcDbEntity
  8
1
  6
Continuous
100
AcDbLine
 10
271.1411969999999
 20
402.3259219999998
 30
0.0
 11
270.641197
 21
401.825922
 31
0.0
  0
ARC
  5
C3F8
330
C1B9
100
AcDbEntity
  8
1
  6
Continuous
100
AcDbCircle
 10
282.341197
 20
415.8259219999997
 30
0.0
 40
1.0
100
AcDbArc
 50
0.0
 51
90.0
  0
LINE
  5
C3F9
330
C1B9
100
AcDbEntity
  8
1
  6
Continuous
100
AcDbLine
 10
283.741197
 20
416.5759219999998
 30
0.0
 11
283.741197
 21
411.503522
 31
0.0
  0
LINE
  5
C3FA
330
C1B9
100
AcDbEntity
  8
1
  6
Continuous
100
AcDbLine
 10
285.541197
 20
411.503522
 30
0.0
 11
283.341197
 21
411.503522
 31
0.0
  0
LINE
  5
C3FB
330
C1B9
100
AcDbEntity
  8
1
  6
Continuous
100
AcDbLine
 10
283.741197
 20
414.656072
 30
0.0
 11
283.341197
 21
414.656072
 31
0.0
  0
LINE
  5
C3FC
330
C1B9
100
AcDbEntity
  8
1
  6
Continuous
100
AcDbLine
 10
287.841197
 20
410.3259219999998
 30
0.0
 11
285.841197
 21
410.3259219999998
 31
0.0
  0
LINE
  5
C3FD
330
C1B9
100
AcDbEntity
  8
1
  6
Continuous
100
AcDbLine
 10
285.841197
 20
416.5759219999998
 30
0.0
 11
283.741197
 21
416.5759219999998
 31
0.0
  0
LINE
  5
C3FE
330
C1B9
100
AcDbEntity
  8
1
  6
Continuous
100
AcDbLine
 10
285.541197
 20
399.148322
 30
0.0
 11
283.341197
 21
399.148322
 31
0.0
  0
LINE
  5
C3FF
330
C1B9
100
AcDbEntity
  8
1
  6
Continuous
100
AcDbLine
 10
287.841197
 20
400.325922
 30
0.0
 11
285.841197
 21
400.325922
 31
0.0
  0
LINE
  5
C400
330
C1B9
100
AcDbEntity
  8
1
  6
Continuous
100
AcDbLine
 10
287.841197
 20
405.982776
 30
0.0
 11
285.841197
 21
405.982776
 31
0.0
  0
LINE
  5
C401
330
C1B9
100
AcDbEntity
  8
1
  6
Continuous
100
AcDbLine
 10
287.841197
 20
404.669068
 30
0.0
 11
285.841197
 21
404.669068
 31
0.0
  0
LINE
  5
C402
330
C1B9
100
AcDbEntity
  8
1
  6
Continuous
100
AcDbLine
 10
285.841197
 20
398.1379219999998
 30
0.0
 11
283.741197
 21
398.1379219999998
 31
0.0
  0
LINE
  5
C403
330
C1B9
100
AcDbEntity
  8
1
  6
Continuous
100
AcDbLine
 10
285.541197
 20
411.503522
 30
0.0
 11
285.541197
 21
399.148322
 31
0.0
  0
LINE
  5
C404
330
C1B9
100
AcDbEntity
  8
1
  6
Continuous
100
AcDbLine
 10
283.341197
 20
415.8259219999997
 30
0.0
 11
283.341197
 21
411.503522
 31
0.0
  0
LINE
  5
C405
330
C1B9
100
AcDbEntity
  8
1
  6
Continuous
100
AcDbLine
 10
287.841197
 20
410.3259219999998
 30
0.0
 11
287.841197
 21
400.325922
 31
0.0
  0
LINE
  5
C406
330
C1B9
100
AcDbEntity
  8
1
  6
Continuous
100
AcDbLine
 10
268.1411969999999
 20
418.0259219999999
 30
0.0
 11
267.1411969999999
 21
418.0259219999999
 31
0.0
  0
LINE
  5
C407
330
C1B9
100
AcDbEntity
  8
1
  6
Continuous
100
AcDbLine
 10
264.6411969999999
 20
421.325922
 30
0.0
 11
263.1411969999999
 21
418.325922
 31
0.0
  0
LINE
  5
C408
330
C1B9
100
AcDbEntity
  8
1
  6
Continuous
100
AcDbLine
 10
266.1411969999999
 20
421.325922
 30
0.0
 11
264.6411969999999
 21
421.325922
 31
0.0
  0
LINE
  5
C409
330
C1B9
100
AcDbEntity
  8
1
  6
Continuous
100
AcDbLine
 10
267.1411969999999
 20
421.325922
 30
0.0
 11
266.1411969999999
 21
421.325922
 31
0.0
  0
LINE
  5
C40A
330
C1B9
100
AcDbEntity
  8
1
  6
Continuous
100
AcDbLine
 10
332.7474
 20
409.825922
 30
0.0
 11
334.2088989999999
 21
409.698058
 31
0.0
  0
LINE
  5
C40B
330
C1B9
100
AcDbEntity
  8
1
  6
Continuous
100
AcDbLine
 10
331.4474
 20
411.3259219999997
 30
0.0
 11
330.6474
 21
411.3259219999997
 31
0.0
  0
LINE
  5
C40C
330
C1B9
100
AcDbEntity
  8
1
  6
Continuous
100
AcDbLine
 10
332.7474
 20
409.925922
 30
0.0
 11
331.4474
 21
409.925922
 31
0.0
  0
ARC
  5
C40D
330
C1B9
100
AcDbEntity
  8
1
  6
Continuous
100
AcDbCircle
 10
324.0473999999999
 20
405.325922
 30
0.0
 40
12.0
100
AcDbArc
 50
344.506032
 51
15.493968
  0
LINE
  5
C40E
330
C1B9
100
AcDbEntity
  8
1
  6
Continuous
100
AcDbLine
 10
332.7474
 20
400.825922
 30
0.0
 11
334.2088989999999
 21
400.9537869999999
 31
0.0
  0
LINE
  5
C40F
330
C1B9
100
AcDbEntity
  8
1
  6
Continuous
100
AcDbLine
 10
331.4474
 20
399.325922
 30
0.0
 11
330.6474
 21
399.325922
 31
0.0
  0
LINE
  5
C410
330
C1B9
100
AcDbEntity
  8
1
  6
Continuous
100
AcDbLine
 10
332.7474
 20
400.7259219999999
 30
0.0
 11
331.4474
 21
400.7259219999999
 31
0.0
  0
LINE
  5
C411
330
C1B9
100
AcDbEntity
  8
1
  6
Continuous
100
AcDbLine
 10
331.4474
 20
405.325922
 30
0.0
 11
332.7474
 21
406.625922
 31
0.0
  0
LINE
  5
C412
330
C1B9
100
AcDbEntity
  8
1
  6
Continuous
100
AcDbLine
 10
332.7474
 20
405.325922
 30
0.0
 11
331.4474
 21
404.025922
 31
0.0
  0
LINE
  5
C413
330
C1B9
100
AcDbEntity
  8
4
  6
CENTER
100
AcDbLine
 10
337.7474
 20
405.325922
 30
0.0
 11
327.7725869999998
 21
405.325922
 31
0.0
  0
ARC
  5
C414
330
C1B9
100
AcDbEntity
  8
1
  6
Continuous
100
AcDbCircle
 10
334.069449
 20
402.547698
 30
0.0
 40
1.6
100
AcDbArc
 50
275.0
 51
344.506032
  0
ARC
  5
C415
330
C1B9
100
AcDbEntity
  8
1
  6
Continuous
100
AcDbCircle
 10
334.069449
 20
408.1041459999998
 30
0.0
 40
1.6
100
AcDbArc
 50
15.493968
 51
85.0
  0
LINE
  5
C416
330
C1B9
100
AcDbEntity
  8
1
  6
Continuous
100
AcDbLine
 10
331.4474
 20
411.3259219999997
 30
0.0
 11
331.4474
 21
399.325922
 31
0.0
  0
LINE
  5
C417
330
C1B9
100
AcDbEntity
  8
1
  6
Continuous
100
AcDbLine
 10
332.7474
 20
409.925922
 30
0.0
 11
332.7474
 21
400.7259219999999
 31
0.0
  0
LINE
  5
C418
330
C1B9
100
AcDbEntity
  8
1
  6
Continuous
100
AcDbLine
 10
330.6474
 20
411.3259219999997
 30
0.0
 11
330.6474
 21
399.325922
 31
0.0
  0
ARC
  5
C419
330
C1B9
100
AcDbEntity
  8
1
  6
Continuous
100
AcDbCircle
 10
369.968023
 20
407.4215979999998
 30
0.0
 40
1.3
100
AcDbArc
 50
15.88085
 51
85.0
  0
ARC
  5
C41A
330
C1B9
100
AcDbEntity
  8
1
  6
Continuous
100
AcDbCircle
 10
369.968023
 20
403.2075759999998
 30
0.0
 40
1.3
100
AcDbArc
 50
275.0
 51
344.1191499999998
  0
LINE
  5
C41B
330
C1B9
100
AcDbEntity
  8
4
  6
CENTER
100
AcDbLine
 10
374.1025649999999
 20
405.3145869999998
 30
0.0
 11
360.147798
 21
405.3145869999998
 31
0.0
  0
LINE
  5
C41C
330
C1B9
100
AcDbEntity
  8
1
  6
Continuous
100
AcDbLine
 10
367.9619109999999
 20
412.314587
 30
0.0
 11
362.961911
 21
412.314587
 31
0.0
  0
LINE
  5
C41D
330
C1B9
100
AcDbEntity
  8
1
  6
Continuous
100
AcDbLine
 10
368.9619109999999
 20
409.114587
 30
0.0
 11
368.9619109999999
 21
401.514587
 31
0.0
  0
LINE
  5
C41E
330
C1B9
100
AcDbEntity
  8
1
  6
Continuous
100
AcDbLine
 10
368.9619109999999
 20
401.514587
 30
0.0
 11
367.9619109999999
 21
401.514587
 31
0.0
  0
LINE
  5
C41F
330
C1B9
100
AcDbEntity
  8
1
  6
Continuous
100
AcDbLine
 10
368.9619109999999
 20
405.3145869999998
 30
0.0
 11
367.9619109999999
 21
404.314587
 31
0.0
  0
LINE
  5
C420
330
C1B9
100
AcDbEntity
  8
1
  6
Continuous
100
AcDbLine
 10
367.9619109999999
 20
405.3145869999998
 30
0.0
 11
368.9619109999999
 21
406.314587
 31
0.0
  0
LINE
  5
C421
330
C1B9
100
AcDbEntity
  8
1
  6
Continuous
100
AcDbLine
 10
368.9619109999999
 20
409.114587
 30
0.0
 11
367.9619109999999
 21
409.114587
 31
0.0
  0
LINE
  5
C422
330
C1B9
100
AcDbEntity
  8
1
  6
Continuous
100
AcDbLine
 10
368.9619109999999
 20
408.8145869999998
 30
0.0
 11
370.0813259999998
 21
408.7166509999998
 31
0.0
  0
LINE
  5
C423
330
C1B9
100
AcDbEntity
  8
1
  6
Continuous
100
AcDbLine
 10
368.9619109999999
 20
401.814587
 30
0.0
 11
370.0813259999998
 21
401.912523
 31
0.0
  0
LINE
  5
C424
330
C1B9
100
AcDbEntity
  8
1
  6
Continuous
100
AcDbLine
 10
367.9619109999999
 20
398.314587
 30
0.0
 11
362.961911
 21
398.314587
 31
0.0
  0
LINE
  5
C425
330
C1B9
100
AcDbEntity
  8
1
  6
Continuous
100
AcDbLine
 10
367.9619109999999
 20
412.314587
 30
0.0
 11
367.9619109999999
 21
398.314587
 31
0.0
  0
LINE
  5
C426
330
C1B9
100
AcDbEntity
  8
1
  6
Continuous
100
AcDbLine
 10
362.961911
 20
412.314587
 30
0.0
 11
362.961911
 21
398.314587
 31
0.0
  0
ARC
  5
C427
330
C1B9
100
AcDbEntity
  8
1
  6
Continuous
100
AcDbCircle
 10
362.561911
 20
405.3145869999998
 30
0.0
 40
9.0
100
AcDbArc
 50
344.1191499999998
 51
15.88085
  0
ARC
  5
C428
330
C1B9
100
AcDbEntity
  8
1
  6
Continuous
100
AcDbCircle
 10
624.8096239999997
 20
176.8169499999999
 30
0.0
 40
3.0
100
AcDbArc
 50
180.0
 51
221.409622
  0
ARC
  5
C429
330
C1B9
100
AcDbEntity
  8
1
  6
Continuous
100
AcDbCircle
 10
639.409624
 20
176.162961
 30
0.0
 40
1.0
100
AcDbArc
 50
270.0
 51
0.0
  0
LINE
  5
C42A
330
C1B9
100
AcDbEntity
  8
1
  6
Continuous
100
AcDbLine
 10
633.409624
 20
287.1629609999999
 30
0.0
 11
633.409624
 21
173.1677919999999
 31
0.0
  0
LINE
  5
C42B
330
C1B9
100
AcDbEntity
  8
1
  6
Continuous
100
AcDbLine
 10
639.409624
 20
298.162961
 30
0.0
 11
639.409624
 21
162.162961
 31
0.0
  0
LINE
  5
C42C
330
C1B9
100
AcDbEntity
  8
1
  6
Continuous
100
AcDbLine
 10
635.409624
 20
301.1629609999999
 30
0.0
 11
635.409624
 21
159.162961
 31
0.0
  0
LINE
  5
C42D
330
C1B9
100
AcDbEntity
  8
1
  6
Continuous
100
AcDbLine
 10
637.9096239999999
 20
301.1629609999999
 30
0.0
 11
637.9096239999999
 21
159.162961
 31
0.0
  0
LINE
  5
C42E
330
C1B9
100
AcDbEntity
  8
1
  6
Continuous
100
AcDbLine
 10
636.409624
 20
301.1629609999999
 30
0.0
 11
636.409624
 21
159.162961
 31
0.0
  0
LINE
  5
C42F
330
C1B9
100
AcDbEntity
  8
1
  6
Continuous
100
AcDbLine
 10
549.5889509999998
 20
160.162961
 30
0.0
 11
545.0889509999998
 21
160.162961
 31
0.0
  0
LINE
  5
C430
330
C1B9
100
AcDbEntity
  8
1
  6
Continuous
100
AcDbLine
 10
549.5889509999998
 20
171.162961
 30
0.0
 11
545.0889509999998
 21
171.162961
 31
0.0
  0
LINE
  5
C431
330
C1B9
100
AcDbEntity
  8
4
  6
CENTER
100
AcDbLine
 10
538.448297
 20
166.162961
 30
0.0
 11
552.4030639999998
 21
166.162961
 31
0.0
  0
ARC
  5
C432
330
C1B9
100
AcDbEntity
  8
1
  6
Continuous
100
AcDbCircle
 10
549.9889509999998
 20
166.162961
 30
0.0
 40
9.0
100
AcDbArc
 50
164.1191499999998
 51
195.88085
  0
LINE
  5
C433
330
C1B9
100
AcDbEntity
  8
1
  6
Continuous
100
AcDbLine
 10
543.5889509999998
 20
169.662961
 30
0.0
 11
542.4695359999998
 21
169.5650249999999
 31
0.0
  0
ARC
  5
C434
330
C1B9
100
AcDbEntity
  8
1
  6
Continuous
100
AcDbCircle
 10
542.5828389999998
 20
168.269972
 30
0.0
 40
1.3
100
AcDbArc
 50
95.0
 51
164.1191499999998
  0
LINE
  5
C435
330
C1B9
100
AcDbEntity
  8
1
  6
Continuous
100
AcDbLine
 10
543.5889509999998
 20
162.662961
 30
0.0
 11
542.4695359999998
 21
162.7608969999998
 31
0.0
  0
ARC
  5
C436
330
C1B9
100
AcDbEntity
  8
1
  6
Continuous
100
AcDbCircle
 10
542.5828389999998
 20
164.0559499999999
 30
0.0
 40
1.3
100
AcDbArc
 50
195.88085
 51
265.0
  0
LINE
  5
C437
330
C1B9
100
AcDbEntity
  8
1
  6
Continuous
100
AcDbLine
 10
543.5889509999998
 20
162.362961
 30
0.0
 11
544.5889509999998
 21
162.362961
 31
0.0
  0
ARC
  5
C438
330
C1B9
100
AcDbEntity
  8
1
  6
Continuous
100
AcDbCircle
 10
545.0889509999998
 20
160.662961
 30
0.0
 40
0.5
100
AcDbArc
 50
180.0
 51
270.0
  0
LINE
  5
C439
330
C1B9
100
AcDbEntity
  8
1
  6
Continuous
100
AcDbLine
 10
544.5889509999998
 20
166.162961
 30
0.0
 11
543.5889509999998
 21
165.162961
 31
0.0
  0
LINE
  5
C43A
330
C1B9
100
AcDbEntity
  8
1
  6
Continuous
100
AcDbLine
 10
543.5889509999998
 20
166.162961
 30
0.0
 11
544.5889509999998
 21
167.162961
 31
0.0
  0
LINE
  5
C43B
330
C1B9
100
AcDbEntity
  8
1
  6
Continuous
100
AcDbLine
 10
543.5889509999998
 20
169.962961
 30
0.0
 11
544.5889509999998
 21
169.962961
 31
0.0
  0
ARC
  5
C43C
330
C1B9
100
AcDbEntity
  8
1
  6
Continuous
100
AcDbCircle
 10
545.0889509999998
 20
170.662961
 30
0.0
 40
0.5
100
AcDbArc
 50
90.0
 51
180.0
  0
LINE
  5
C43D
330
C1B9
100
AcDbEntity
  8
1
  6
Continuous
100
AcDbLine
 10
544.5889509999998
 20
162.362961
 30
0.0
 11
544.5889509999998
 21
169.962961
 31
0.0
  0
LINE
  5
C43E
330
C1B9
100
AcDbEntity
  8
1
  6
Continuous
100
AcDbLine
 10
544.5889509999998
 20
170.662961
 30
0.0
 11
544.5889509999998
 21
160.662961
 31
0.0
  0
LINE
  5
C43F
330
C1B9
100
AcDbEntity
  8
1
  6
Continuous
100
AcDbLine
 10
543.5889509999998
 20
162.362961
 30
0.0
 11
543.5889509999998
 21
169.962961
 31
0.0
  0
LINE
  5
C440
330
C1B9
100
AcDbEntity
  8
1
  6
Continuous
100
AcDbLine
 10
549.5889509999998
 20
171.162961
 30
0.0
 11
549.5889509999998
 21
160.162961
 31
0.0
  0
ARC
  5
C441
330
C1B9
100
AcDbEntity
  8
1
  6
Continuous
100
AcDbCircle
 10
627.8096239999999
 20
179.462701
 30
0.0
 40
7.0
100
AcDbArc
 50
221.409622
 51
265.482908
  0
LINE
  5
C442
330
C1B9
100
AcDbEntity
  8
1
  6
Continuous
100
AcDbLine
 10
631.409624
 20
163.162961
 30
0.0
 11
631.409624
 21
169.162961
 31
0.0
  0
LINE
  5
C443
330
C1B9
100
AcDbEntity
  8
1
  6
Continuous
100
AcDbLine
 10
631.909624
 20
169.662961
 30
0.0
 11
631.909624
 21
162.662961
 31
0.0
  0
LINE
  5
C444
330
C1B9
100
AcDbEntity
  8
1
  6
Continuous
100
AcDbLine
 10
631.909624
 20
162.662961
 30
0.0
 11
635.409624
 21
162.662961
 31
0.0
  0
LINE
  5
C445
330
C1B9
100
AcDbEntity
  8
1
  6
Continuous
100
AcDbLine
 10
637.9096239999999
 20
159.162961
 30
0.0
 11
639.409624
 21
162.162961
 31
0.0
  0
LINE
  5
C446
330
C1B9
100
AcDbEntity
  8
1
  6
Continuous
100
AcDbLine
 10
636.409624
 20
159.162961
 30
0.0
 11
637.9096239999999
 21
159.162961
 31
0.0
  0
LINE
  5
C447
330
C1B9
100
AcDbEntity
  8
1
  6
Continuous
100
AcDbLine
 10
636.409624
 20
159.162961
 30
0.0
 11
635.409624
 21
159.162961
 31
0.0
  0
LINE
  5
C448
330
C1B9
100
AcDbEntity
  8
1
  6
Continuous
100
AcDbLine
 10
631.409624
 20
163.162961
 30
0.0
 11
631.909624
 21
162.662961
 31
0.0
  0
LINE
  5
C449
330
C1B9
100
AcDbEntity
  8
1
  6
Continuous
100
AcDbLine
 10
631.909624
 20
169.662961
 30
0.0
 11
635.409624
 21
169.662961
 31
0.0
  0
ARC
  5
C44A
330
C1B9
100
AcDbEntity
  8
1
  6
Continuous
100
AcDbCircle
 10
635.409624
 20
275.662961
 30
0.0
 40
103.4999999999999
100
AcDbArc
 50
265.482908
 51
270.0
  0
ARC
  5
C44B
330
C1B9
100
AcDbEntity
  8
1
  6
Continuous
100
AcDbCircle
 10
634.4096239999998
 20
173.1677919999999
 30
0.0
 40
1.0
100
AcDbArc
 50
180.0
 51
269.4464089999998
  0
LINE
  5
C44C
330
C1B9
100
AcDbEntity
  8
1
  6
Continuous
100
AcDbLine
 10
631.909624
 20
169.662961
 30
0.0
 11
631.409624
 21
169.162961
 31
0.0
  0
LINE
  5
C44D
330
C1B9
100
AcDbEntity
  8
4
  6
CENTER
100
AcDbLine
 10
629.3653839999998
 20
166.162961
 30
0.0
 11
640.5625710000001
 21
166.162961
 31
0.0
  0
ARC
  5
C44E
330
C1B9
100
AcDbEntity
  8
1
  6
Continuous
100
AcDbCircle
 10
650.4096239999999
 20
269.4497579999999
 30
0.0
 40
10.0
100
AcDbArc
 50
135.0
 51
180.0
  0
ARC
  5
C44F
330
C1B9
100
AcDbEntity
  8
1
  6
Continuous
100
AcDbCircle
 10
635.409624
 20
275.662961
 30
0.0
 40
9.4
100
AcDbArc
 50
45.0
 51
64.815663
  0
ARC
  5
C450
330
C1B9
100
AcDbEntity
  8
5
  6
PHANTOM
100
AcDbCircle
 10
650.4096239999999
 20
281.876165
 30
0.0
 40
10.0
100
AcDbArc
 50
180.0
 51
225.0
  0
LINE
  5
C451
330
C1B9
100
AcDbEntity
  8
5
  6
PHANTOM
100
AcDbLine
 10
641.581197
 20
268.077175
 30
0.0
 11
686.6748659999998
 21
222.983506
 31
0.0
  0
ARC
  5
C452
330
C1B9
100
AcDbEntity
  8
1
  6
Continuous
100
AcDbCircle
 10
620.2096240000002
 20
264.1629609999998
 30
0.0
 40
1.0
100
AcDbArc
 50
180.0
 51
270.0
  0
ARC
  5
C453
330
C1B9
100
AcDbEntity
  8
1
  6
Continuous
100
AcDbCircle
 10
628.409624
 20
264.1629609999998
 30
0.0
 40
1.0
100
AcDbArc
 50
180.0
 51
270.0
  0
LINE
  5
C454
330
C1B9
100
AcDbEntity
  8
1
  6
Continuous
100
AcDbLine
 10
640.409624
 20
269.9497579999999
 30
0.0
 11
640.409624
 21
176.162961
 31
0.0
  0
LINE
  5
C455
330
C1B9
100
AcDbEntity
  8
1
  6
Continuous
100
AcDbLine
 10
631.409624
 20
260.7124989999999
 30
0.0
 11
631.409624
 21
202.662961
 31
0.0
  0
ARC
  5
C456
330
C1B9
100
AcDbEntity
  8
1
  6
Continuous
100
AcDbCircle
 10
624.8096239999997
 20
196.662961
 30
0.0
 40
3.0
100
AcDbArc
 50
90.0
 51
180.0
  0
LINE
  5
C457
330
C1B9
100
AcDbEntity
  8
1
  6
Continuous
100
AcDbLine
 10
621.809624
 20
196.662961
 30
0.0
 11
621.809624
 21
176.8169499999999
 31
0.0
  0
LINE
  5
C458
330
C1B9
100
AcDbEntity
  8
1
  6
Continuous
100
AcDbLine
 10
624.8096239999997
 20
199.662961
 30
0.0
 11
628.409624
 21
199.662961
 31
0.0
  0
ARC
  5
C459
330
C1B9
100
AcDbEntity
  8
1
  6
Continuous
100
AcDbCircle
 10
628.409624
 20
202.662961
 30
0.0
 40
3.0
100
AcDbArc
 50
270.0
 51
0.0
  0
LINE
  5
C45A
330
C1B9
100
AcDbEntity
  8
1
  6
Continuous
100
AcDbLine
 10
628.959162
 20
263.162961
 30
0.0
 11
620.2096240000002
 21
263.162961
 31
0.0
  0
LINE
  5
C45B
330
C1B9
100
AcDbEntity
  8
1
  6
Continuous
100
AcDbLine
 10
628.959162
 20
263.162961
 30
0.0
 11
631.409624
 21
260.7124989999999
 31
0.0
  0
LINE
  5
C45C
330
C1B9
100
AcDbEntity
  8
1
  6
Continuous
100
AcDbLine
 10
549.5889509999998
 20
300.162961
 30
0.0
 11
545.0889509999998
 21
300.162961
 31
0.0
  0
LINE
  5
C45D
330
C1B9
100
AcDbEntity
  8
4
  6
CENTER
100
AcDbLine
 10
538.448297
 20
294.162961
 30
0.0
 11
552.4030639999998
 21
294.162961
 31
0.0
  0
LINE
  5
C45E
330
C1B9
100
AcDbEntity
  8
1
  6
Continuous
100
AcDbLine
 10
549.5889509999998
 20
289.1629609999998
 30
0.0
 11
545.0889509999998
 21
289.1629609999998
 31
0.0
  0
LINE
  5
C45F
330
C1B9
100
AcDbEntity
  8
1
  6
Continuous
100
AcDbLine
 10
543.5889509999998
 20
294.162961
 30
0.0
 11
544.5889509999998
 21
295.1629609999999
 31
0.0
  0
LINE
  5
C460
330
C1B9
100
AcDbEntity
  8
1
  6
Continuous
100
AcDbLine
 10
544.5889509999998
 20
294.162961
 30
0.0
 11
543.5889509999998
 21
293.1629609999998
 31
0.0
  0
LINE
  5
C461
330
C1B9
100
AcDbEntity
  8
1
  6
Continuous
100
AcDbLine
 10
543.5889509999998
 20
297.9629609999999
 30
0.0
 11
544.5889509999998
 21
297.9629609999999
 31
0.0
  0
ARC
  5
C462
330
C1B9
100
AcDbEntity
  8
1
  6
Continuous
100
AcDbCircle
 10
542.5828389999998
 20
296.2699719999998
 30
0.0
 40
1.3
100
AcDbArc
 50
95.0
 51
164.1191499999998
  0
LINE
  5
C463
330
C1B9
100
AcDbEntity
  8
1
  6
Continuous
100
AcDbLine
 10
543.5889509999998
 20
297.6629609999998
 30
0.0
 11
542.4695359999998
 21
297.565025
 31
0.0
  0
LINE
  5
C464
330
C1B9
100
AcDbEntity
  8
1
  6
Continuous
100
AcDbLine
 10
543.5889509999998
 20
290.3629609999999
 30
0.0
 11
544.5889509999998
 21
290.3629609999999
 31
0.0
  0
ARC
  5
C465
330
C1B9
100
AcDbEntity
  8
1
  6
Continuous
100
AcDbCircle
 10
542.5828389999998
 20
292.0559499999999
 30
0.0
 40
1.3
100
AcDbArc
 50
195.88085
 51
265.0
  0
LINE
  5
C466
330
C1B9
100
AcDbEntity
  8
1
  6
Continuous
100
AcDbLine
 10
543.5889509999998
 20
290.6629609999999
 30
0.0
 11
542.4695359999998
 21
290.760897
 31
0.0
  0
LINE
  5
C467
330
C1B9
100
AcDbEntity
  8
1
  6
Continuous
100
AcDbLine
 10
544.5889509999998
 20
297.9629609999999
 30
0.0
 11
544.5889509999998
 21
290.3629609999999
 31
0.0
  0
LINE
  5
C468
330
C1B9
100
AcDbEntity
  8
1
  6
Continuous
100
AcDbLine
 10
543.5889509999998
 20
297.9629609999999
 30
0.0
 11
543.5889509999998
 21
290.3629609999999
 31
0.0
  0
ARC
  5
C469
330
C1B9
100
AcDbEntity
  8
1
  6
Continuous
100
AcDbCircle
 10
549.9889509999998
 20
294.162961
 30
0.0
 40
9.0
100
AcDbArc
 50
164.1191499999998
 51
195.88085
  0
ARC
  5
C46A
330
C1B9
100
AcDbEntity
  8
1
  6
Continuous
100
AcDbCircle
 10
545.0889509999998
 20
299.6629609999999
 30
0.0
 40
0.5
100
AcDbArc
 50
90.0
 51
180.0
  0
ARC
  5
C46B
330
C1B9
100
AcDbEntity
  8
1
  6
Continuous
100
AcDbCircle
 10
545.0889509999998
 20
289.662961
 30
0.0
 40
0.5
100
AcDbArc
 50
180.0
 51
270.0
  0
LINE
  5
C46C
330
C1B9
100
AcDbEntity
  8
1
  6
Continuous
100
AcDbLine
 10
544.5889509999998
 20
289.662961
 30
0.0
 11
544.5889509999998
 21
299.6629609999999
 31
0.0
  0
ARC
  5
C46D
330
C1B9
100
AcDbEntity
  8
1
  6
Continuous
100
AcDbCircle
 10
568.4814119999997
 20
278.441216
 30
0.0
 40
1.6
100
AcDbArc
 50
95.0
 51
164.5060319999998
  0
LINE
  5
C46E
330
C1B9
100
AcDbEntity
  8
4
  6
CENTER
100
AcDbLine
 10
564.8034609999998
 20
275.6629919999999
 30
0.0
 11
574.223528
 21
275.6629919999999
 31
0.0
  0
ARC
  5
C46F
330
C1B9
100
AcDbEntity
  8
1
  6
Continuous
100
AcDbCircle
 10
568.4814119999997
 20
272.884768
 30
0.0
 40
1.6
100
AcDbArc
 50
195.4939679999999
 51
265.0
  0
LINE
  5
C470
330
C1B9
100
AcDbEntity
  8
1
  6
Continuous
100
AcDbLine
 10
569.8034609999998
 20
274.362992
 30
0.0
 11
571.103461
 21
275.6629919999999
 31
0.0
  0
LINE
  5
C471
330
C1B9
100
AcDbEntity
  8
1
  6
Continuous
100
AcDbLine
 10
569.8034609999998
 20
275.6629919999999
 30
0.0
 11
571.103461
 21
276.9629919999998
 31
0.0
  0
LINE
  5
C472
330
C1B9
100
AcDbEntity
  8
1
  6
Continuous
100
AcDbLine
 10
569.8034609999998
 20
280.1629919999999
 30
0.0
 11
568.3419619999997
 21
280.035128
 31
0.0
  0
LINE
  5
C473
330
C1B9
100
AcDbEntity
  8
1
  6
Continuous
100
AcDbLine
 10
571.103461
 20
281.662992
 30
0.0
 11
571.903461
 21
281.662992
 31
0.0
  0
LINE
  5
C474
330
C1B9
100
AcDbEntity
  8
1
  6
Continuous
100
AcDbLine
 10
569.8034609999998
 20
280.262992
 30
0.0
 11
571.103461
 21
280.262992
 31
0.0
  0
LINE
  5
C475
330
C1B9
100
AcDbEntity
  8
1
  6
Continuous
100
AcDbLine
 10
569.8034609999998
 20
271.1629919999999
 30
0.0
 11
568.3419619999997
 21
271.2908569999999
 31
0.0
  0
LINE
  5
C476
330
C1B9
100
AcDbEntity
  8
1
  6
Continuous
100
AcDbLine
 10
571.103461
 20
269.6629919999999
 30
0.0
 11
571.903461
 21
269.6629919999999
 31
0.0
  0
LINE
  5
C477
330
C1B9
100
AcDbEntity
  8
1
  6
Continuous
100
AcDbLine
 10
569.8034609999998
 20
271.062992
 30
0.0
 11
571.103461
 21
271.062992
 31
0.0
  0
LINE
  5
C478
330
C1B9
100
AcDbEntity
  8
1
  6
Continuous
100
AcDbLine
 10
571.103461
 20
281.662992
 30
0.0
 11
571.103461
 21
269.6629919999999
 31
0.0
  0
LINE
  5
C479
330
C1B9
100
AcDbEntity
  8
1
  6
Continuous
100
AcDbLine
 10
569.8034609999998
 20
280.262992
 30
0.0
 11
569.8034609999998
 21
271.062992
 31
0.0
  0
LINE
  5
C47A
330
C1B9
100
AcDbEntity
  8
1
  6
Continuous
100
AcDbLine
 10
571.903461
 20
281.662992
 30
0.0
 11
571.903461
 21
269.6629919999999
 31
0.0
  0
ARC
  5
C47B
330
C1B9
100
AcDbEntity
  8
1
  6
Continuous
100
AcDbCircle
 10
578.503461
 20
275.6629919999999
 30
0.0
 40
12.0
100
AcDbArc
 50
164.5060319999998
 51
195.4939679999999
  0
LINE
  5
C47C
330
C1B9
100
AcDbEntity
  8
1
  6
Continuous
100
AcDbLine
 10
549.5889509999998
 20
289.1629609999998
 30
0.0
 11
549.5889509999998
 21
300.162961
 31
0.0
  0
LINE
  5
C47D
330
C1B9
100
AcDbEntity
  8
1
  6
Continuous
100
AcDbLine
 10
617.009624
 20
287.962961
 30
0.0
 11
617.009624
 21
285.405747
 31
0.0
  0
LINE
  5
C47E
330
C1B9
100
AcDbEntity
  8
1
  6
Continuous
100
AcDbLine
 10
619.2096239999998
 20
286.362835
 30
0.0
 11
619.2096239999998
 21
264.1629609999998
 31
0.0
  0
LINE
  5
C47F
330
C1B9
100
AcDbEntity
  8
4
  6
CENTER
100
AcDbLine
 10
613.153892
 20
275.662961
 30
0.0
 11
640.5625710000001
 21
275.662961
 31
0.0
  0
LINE
  5
C480
330
C1B9
100
AcDbEntity
  8
1
  6
Continuous
100
AcDbLine
 10
614.7096239999998
 20
280.6629609999998
 30
0.0
 11
614.7096239999998
 21
270.6629609999998
 31
0.0
  0
LINE
  5
C481
330
C1B9
100
AcDbEntity
  8
1
  6
Continuous
100
AcDbLine
 10
618.809624
 20
269.7629609999999
 30
0.0
 11
618.7096239999998
 21
269.7629609999999
 31
0.0
  0
LINE
  5
C482
330
C1B9
100
AcDbEntity
  8
1
  6
Continuous
100
AcDbLine
 10
614.7096239999998
 20
270.6629609999998
 30
0.0
 11
616.7096240000002
 21
270.6629609999998
 31
0.0
  0
LINE
  5
C483
330
C1B9
100
AcDbEntity
  8
1
  6
Continuous
100
AcDbLine
 10
618.809624
 20
281.5629609999998
 30
0.0
 11
618.7096239999998
 21
281.5629609999998
 31
0.0
  0
LINE
  5
C484
330
C1B9
100
AcDbEntity
  8
1
  6
Continuous
100
AcDbLine
 10
619.009624
 20
284.323215
 30
0.0
 11
619.2096239999998
 21
284.323215
 31
0.0
  0
ARC
  5
C485
330
C1B9
100
AcDbEntity
  8
1
  6
Continuous
100
AcDbCircle
 10
619.009624
 20
284.123215
 30
0.0
 40
0.2
100
AcDbArc
 50
90.0
 51
180.0
  0
LINE
  5
C486
330
C1B9
100
AcDbEntity
  8
1
  6
Continuous
100
AcDbLine
 10
614.7096239999998
 20
276.319815
 30
0.0
 11
616.7096240000002
 21
276.319815
 31
0.0
  0
LINE
  5
C487
330
C1B9
100
AcDbEntity
  8
1
  6
Continuous
100
AcDbLine
 10
614.7096239999998
 20
275.006107
 30
0.0
 11
616.7096240000002
 21
275.006107
 31
0.0
  0
LINE
  5
C488
330
C1B9
100
AcDbEntity
  8
1
  6
Continuous
100
AcDbLine
 10
614.7096239999998
 20
280.6629609999998
 30
0.0
 11
616.7096240000002
 21
280.6629609999998
 31
0.0
  0
LINE
  5
C489
330
C1B9
100
AcDbEntity
  8
1
  6
Continuous
100
AcDbLine
 10
616.7096240000002
 20
285.405747
 30
0.0
 11
618.7096239999998
 21
285.405747
 31
0.0
  0
LINE
  5
C48A
330
C1B9
100
AcDbEntity
  8
1
  6
Continuous
100
AcDbLine
 10
616.7096240000002
 20
264.4129609999998
 30
0.0
 11
618.7096239999998
 21
264.4129609999998
 31
0.0
  0
ARC
  5
C48B
330
C1B9
100
AcDbEntity
  8
1
  6
Continuous
100
AcDbCircle
 10
619.0658739999999
 20
265.9129609999999
 30
0.0
 40
0.25625
100
AcDbArc
 50
180.0
 51
257.319617
  0
LINE
  5
C48C
330
C1B9
100
AcDbEntity
  8
1
  6
Continuous
100
AcDbLine
 10
619.2096239999998
 20
265.6629609999999
 30
0.0
 11
619.009624
 21
265.6629609999999
 31
0.0
  0
LINE
  5
C48D
330
C1B9
100
AcDbEntity
  8
1
  6
Continuous
100
AcDbLine
 10
618.7096239999998
 20
285.405747
 30
0.0
 11
618.7096239999998
 21
264.4129609999998
 31
0.0
  0
LINE
  5
C48E
330
C1B9
100
AcDbEntity
  8
1
  6
Continuous
100
AcDbLine
 10
616.7096240000002
 20
285.405747
 30
0.0
 11
616.7096240000002
 21
264.4129609999998
 31
0.0
  0
LINE
  5
C48F
330
C1B9
100
AcDbEntity
  8
1
  6
Continuous
100
AcDbLine
 10
618.809624
 20
284.123215
 30
0.0
 11
618.809624
 21
265.9129609999999
 31
0.0
  0
LINE
  5
C490
330
C1B9
100
AcDbEntity
  8
5
  6
PHANTOM
100
AcDbLine
 10
640.409624
 20
284.0629609999999
 30
0.0
 11
640.409624
 21
281.876165
 31
0.0
  0
ARC
  5
C491
330
C1B9
100
AcDbEntity
  8
5
  6
PHANTOM
100
AcDbCircle
 10
644.409624
 20
270.9056019999998
 30
0.0
 40
4.0
100
AcDbArc
 50
180.0
 51
225.0
  0
ARC
  5
C492
330
C1B9
100
AcDbEntity
  8
5
  6
PHANTOM
100
AcDbCircle
 10
639.409624
 20
284.0629609999999
 30
0.0
 40
1.0
100
AcDbArc
 50
0.0
 51
90.0
  0
LINE
  5
C493
330
C1B9
100
AcDbEntity
  8
1
  6
Continuous
100
AcDbLine
 10
627.409624
 20
274.6629609999998
 30
0.0
 11
627.409624
 21
264.1629609999998
 31
0.0
  0
LINE
  5
C494
330
C1B9
100
AcDbEntity
  8
1
  6
Continuous
100
AcDbLine
 10
635.409624
 20
288.162961
 30
0.0
 11
617.2096240000001
 21
288.162961
 31
0.0
  0
ARC
  5
C495
330
C1B9
100
AcDbEntity
  8
1
  6
Continuous
100
AcDbCircle
 10
617.2096240000001
 20
287.962961
 30
0.0
 40
0.2
100
AcDbArc
 50
90.0
 51
180.0
  0
ARC
  5
C496
330
C1B9
100
AcDbEntity
  8
1
  6
Continuous
100
AcDbCircle
 10
617.2096240000001
 20
286.562835
 30
0.0
 40
0.2
100
AcDbArc
 50
180.0
 51
270.0
  0
LINE
  5
C497
330
C1B9
100
AcDbEntity
  8
1
  6
Continuous
100
AcDbLine
 10
617.2096240000001
 20
286.362835
 30
0.0
 11
619.2096239999998
 21
286.362835
 31
0.0
  0
LINE
  5
C498
330
C1B9
100
AcDbEntity
  8
1
  6
Continuous
100
AcDbLine
 10
631.409624
 20
291.1629609999998
 30
0.0
 11
631.409624
 21
297.1629609999999
 31
0.0
  0
LINE
  5
C499
330
C1B9
100
AcDbEntity
  8
1
  6
Continuous
100
AcDbLine
 10
631.909624
 20
297.6629609999998
 30
0.0
 11
631.909624
 21
290.6629609999999
 31
0.0
  0
LINE
  5
C49A
330
C1B9
100
AcDbEntity
  8
1
  6
Continuous
100
AcDbLine
 10
631.909624
 20
290.6629609999999
 30
0.0
 11
635.409624
 21
290.6629609999999
 31
0.0
  0
LINE
  5
C49B
330
C1B9
100
AcDbEntity
  8
1
  6
Continuous
100
AcDbLine
 10
631.409624
 20
291.1629609999998
 30
0.0
 11
631.909624
 21
290.6629609999999
 31
0.0
  0
LINE
  5
C49C
330
C1B9
100
AcDbEntity
  8
1
  6
Continuous
100
AcDbLine
 10
631.909624
 20
297.6629609999998
 30
0.0
 11
635.409624
 21
297.6629609999998
 31
0.0
  0
LINE
  5
C49D
330
C1B9
100
AcDbEntity
  8
1
  6
Continuous
100
AcDbLine
 10
637.9096239999999
 20
301.1629609999999
 30
0.0
 11
639.409624
 21
298.162961
 31
0.0
  0
LINE
  5
C49E
330
C1B9
100
AcDbEntity
  8
1
  6
Continuous
100
AcDbLine
 10
636.409624
 20
301.1629609999999
 30
0.0
 11
637.9096239999999
 21
301.1629609999999
 31
0.0
  0
LINE
  5
C49F
330
C1B9
100
AcDbEntity
  8
1
  6
Continuous
100
AcDbLine
 10
636.409624
 20
301.1629609999999
 30
0.0
 11
635.409624
 21
301.1629609999999
 31
0.0
  0
LINE
  5
C4A0
330
C1B9
100
AcDbEntity
  8
1
  6
Continuous
100
AcDbLine
 10
631.909624
 20
297.6629609999998
 30
0.0
 11
631.409624
 21
297.1629609999999
 31
0.0
  0
LINE
  5
C4A1
330
C1B9
100
AcDbEntity
  8
4
  6
CENTER
100
AcDbLine
 10
628.6801349999998
 20
294.162961
 30
0.0
 11
640.5625710000001
 21
294.162961
 31
0.0
  0
ARC
  5
C4A2
330
C1B9
100
AcDbEntity
  8
1
  6
Continuous
100
AcDbCircle
 10
634.4096239999998
 20
287.1629609999999
 30
0.0
 40
1.0
100
AcDbArc
 50
90.0
 51
180.0
  0
LINE
  5
C4A3
330
C1B9
100
AcDbEntity
  8
5
  6
PHANTOM
100
AcDbLine
 10
643.3385559999997
 20
274.8050969999999
 30
0.0
 11
709.3022829999996
 21
208.8413699999999
 31
0.0
  0
ARC
  5
C4A4
330
C1B9
100
AcDbEntity
  8
5
  6
PHANTOM
100
AcDbCircle
 10
635.409624
 20
275.662961
 30
0.0
 40
100.5
100
AcDbArc
 50
310.482908
 51
315.0
  0
ARC
  5
C4A5
330
C1B9
100
AcDbEntity
  8
5
  6
PHANTOM
100
AcDbCircle
 10
682.432225
 20
218.740865
 30
0.0
 40
6.0
100
AcDbArc
 50
315.0
 51
45.0
  0
LINE
  5
C4A6
330
C1B9
100
AcDbEntity
  8
5
  6
PHANTOM
100
AcDbLine
 10
684.8363879999999
 20
209.83132
 30
0.0
 11
695.2310419999996
 21
199.436666
 31
0.0
  0
LINE
  5
C4A7
330
C1B9
100
AcDbEntity
  8
5
  6
PHANTOM
100
AcDbLine
 10
684.8363879999999
 20
212.659747
 30
0.0
 11
686.6748659999998
 21
214.4982249999999
 31
0.0
  0
ARC
  5
C4A8
330
C1B9
100
AcDbEntity
  8
5
  6
PHANTOM
100
AcDbCircle
 10
686.2506019999997
 20
211.2455329999999
 30
0.0
 40
2.0
100
AcDbArc
 50
135.0
 51
225.0
  0
ARC
  5
C4A9
330
C1B9
100
AcDbEntity
  8
5
  6
PHANTOM
100
AcDbCircle
 10
698.059469
 20
202.265093
 30
0.0
 40
4.0
100
AcDbArc
 50
225.0
 51
310.482908
  0
ARC
  5
C4AA
330
C1B9
100
AcDbEntity
  8
5
  6
PHANTOM
100
AcDbCircle
 10
708.5951759999996
 20
208.1342639999999
 30
0.0
 40
1.0
100
AcDbArc
 50
315.0
 51
45.0
  0
LINE
  5
C4AB
330
C1B9
100
AcDbEntity
  8
5
  6
PHANTOM
100
AcDbLine
 10
709.3022829999996
 20
207.427157
 30
0.0
 11
706.4738559999998
 21
204.5987299999999
 31
0.0
  0
LINE
  5
C4AC
330
C1B9
100
AcDbEntity
  8
1
  6
Continuous
100
AcDbLine
 10
644.884855
 20
278.0671239999999
 30
0.0
 11
643.3385559999997
 21
276.520825
 31
0.0
  0
LINE
  5
C4AD
330
C1B9
100
AcDbEntity
  8
1
  6
Continuous
100
AcDbLine
 10
642.0564279999998
 20
282.3097649999999
 30
0.0
 11
644.884855
 21
279.4813379999999
 31
0.0
  0
ARC
  5
C4AE
330
C1B9
100
AcDbEntity
  8
1
  6
Continuous
100
AcDbCircle
 10
644.1777479999998
 20
278.774231
 30
0.0
 40
1.0
100
AcDbArc
 50
315.0
 51
45.0
  0
ENDSEC
  0
SECTION
  2
OBJECTS
  0
DICTIONARY
  5
C1A7
330
0
100
AcDbDictionary
281
     1
  3
ACAD_CIP_PREVIOUS_PRODUCT_INFO
350
C514
  3
ACAD_COLOR
350
C4F6
  3
ACAD_DETAILVIEWSTYLE
350
C50F
  3
ACAD_GROUP
350
C1A8
  3
ACAD_LAYOUT
350
C1B4
  3
ACAD_MATERIAL
350
C4C4
  3
ACAD_MLEADERSTYLE
350
C50B
  3
ACAD_MLINESTYLE
350
C1B1
  3
ACAD_PLOTSETTINGS
350
C1B3
  3
ACAD_PLOTSTYLENAME
350
C4C2
  3
ACAD_SCALELIST
350
C4F9
  3
ACAD_SECTIONVIEWSTYLE
350
C50D
  3
ACAD_TABLESTYLE
350
C4F7
  3
ACAD_VISUALSTYLE
350
C4DD
  3
ACDB_RECOMPOSE_DATA
350
C532
  3
AcDbVariableDictionary
350
C525
  3
DWGPROPS
350
C533
  0
DICTIONARY
  5
C515
330
C1AB
100
AcDbDictionary
280
     1
281
     1
  3
ADSK_XREC_LAYER_RECONCILED
360
C516
  0
DICTIONARY
  5
C517
330
C1C1
100
AcDbDictionary
280
     1
281
     1
  3
ADSK_XREC_LAYER_RECONCILED
360
C518
  0
DICTIONARY
  5
C519
330
C1C2
100
AcDbDictionary
280
     1
281
     1
  3
ADSK_XREC_LAYER_RECONCILED
360
C51A
  0
DICTIONARY
  5
C51B
330
C1C3
100
AcDbDictionary
280
     1
281
     1
  3
ADSK_XREC_LAYER_RECONCILED
360
C51C
  0
DICTIONARY
  5
C51D
330
C1C4
100
AcDbDictionary
280
     1
281
     1
  3
ADSK_XREC_LAYER_RECONCILED
360
C51E
  0
DICTIONARY
  5
C51F
330
C1C5
100
AcDbDictionary
280
     1
281
     1
  3
ADSK_XREC_LAYER_RECONCILED
360
C520
  0
DICTIONARY
  5
C521
330
C1C6
100
AcDbDictionary
280
     1
281
     1
  3
ADSK_XREC_LAYER_RECONCILED
360
C522
  0
DICTIONARY
  5
C523
330
C1C7
100
AcDbDictionary
280
     1
281
     1
  3
ADSK_XREC_LAYER_RECONCILED
360
C524
  0
DICTIONARY
  5
C4BD
330
C1B9
100
AcDbDictionary
281
     1
  3
ACAD_LAYOUTSELFREF
350
C4BE
  0
DICTIONARY
  5
C4BB
330
C1B5
100
AcDbDictionary
281
     1
  3
ACAD_LAYOUTSELFREF
350
C4BC
  0
XRECORD
  5
C514
102
{ACAD_REACTORS
330
C1A7
102
}
330
C1A7
100
AcDbXrecord
280
     1
300
ACDLT
300
2014
300
ACDLT_F_S
  0
DICTIONARY
  5
C4F6
102
{ACAD_REACTORS
330
C1A7
102
}
330
C1A7
100
AcDbDictionary
281
     1
  0
DICTIONARY
  5
C50F
102
{ACAD_REACTORS
330
C1A7
102
}
330
C1A7
100
AcDbDictionary
281
     1
  3
Imperial24
350
C510
  0
DICTIONARY
  5
C1A8
102
{ACAD_REACTORS
330
C1A7
102
}
330
C1A7
100
AcDbDictionary
281
     1
  0
DICTIONARY
  5
C1B4
102
{ACAD_REACTORS
330
C1A7
102
}
330
C1A7
100
AcDbDictionary
281
     1
  3
Model
350
C511
  3
レイアウト1
350
C512
  0
DICTIONARY
  5
C4C4
102
{ACAD_REACTORS
330
C1A7
102
}
330
C1A7
100
AcDbDictionary
281
     1
  3
ByBlock
350
C4CD
  3
ByLayer
350
C4C5
  3
Global
350
C4D5
  0
DICTIONARY
  5
C50B
102
{ACAD_REACTORS
330
C1A7
102
}
330
C1A7
100
AcDbDictionary
281
     1
  3
Standard
350
C50C
  0
DICTIONARY
  5
C1B1
102
{ACAD_REACTORS
330
C1A7
102
}
330
C1A7
100
AcDbDictionary
281
     1
  3
STANDARD
350
C1B2
  0
DICTIONARY
  5
C1B3
102
{ACAD_REACTORS
330
C1A7
102
}
330
C1A7
100
AcDbDictionary
281
     1
  0
ACDBDICTIONARYWDFLT
  5
C4C2
102
{ACAD_REACTORS
330
C1A7
102
}
330
C1A7
100
AcDbDictionary
281
     1
  3
Normal
350
C4C3
100
AcDbDictionaryWithDefault
340
C4C3
  0
DICTIONARY
  5
C4F9
102
{ACAD_REACTORS
330
C1A7
102
}
330
C1A7
100
AcDbDictionary
281
     1
  3
A0
350
C4FA
  3
A1
350
C4FB
  3
A2
350
C4FC
  3
A3
350
C4FD
  3
A4
350
C4FE
  3
A5
350
C4FF
  3
A6
350
C500
  3
A7
350
C501
  3
A8
350
C502
  3
A9
350
C503
  3
B0
350
C504
  3
B1
350
C505
  3
B2
350
C506
  3
B3
350
C507
  3
B4
350
C508
  3
B5
350
C509
  3
B6
350
C50A
  0
DICTIONARY
  5
C50D
102
{ACAD_REACTORS
330
C1A7
102
}
330
C1A7
100
AcDbDictionary
281
     1
  3
Imperial24
350
C50E
  0
DICTIONARY
  5
C4F7
102
{ACAD_REACTORS
330
C1A7
102
}
330
C1A7
100
AcDbDictionary
281
     1
  3
Standard
350
C4F8
  0
DICTIONARY
  5
C4DD
102
{ACAD_REACTORS
330
C1A7
102
}
330
C1A7
100
AcDbDictionary
281
     1
  3
2dWireframe
350
C4E3
  3
Basic
350
C4E2
  3
Brighten
350
C4E9
  3
ColorChange
350
C4ED
  3
Conceptual
350
C4E6
  3
Dim
350
C4E8
  3
EdgeColorOff
350
C4F5
  3
Facepattern
350
C4EC
  3
Flat
350
C4DE
  3
FlatWithEdges
350
C4DF
  3
Gouraud
350
C4E0
  3
GouraudWithEdges
350
C4E1
  3
Hidden
350
C4E5
  3
JitterOff
350
C4F3
  3
Linepattern
350
C4EB
  3
OverhangOff
350
C4F4
  3
Realistic
350
C4E7
  3
Shaded
350
C4F2
  3
Shaded with edges
350
C4F1
  3
Shades of Gray
350
C4EE
  3
Sketchy
350
C4EF
  3
Thicken
350
C4EA
  3
Wireframe
350
C4E4
  3
X-Ray
350
C4F0
  0
XRECORD
  5
C532
102
{ACAD_REACTORS
330
C1A7
102
}
330
C1A7
100
AcDbXrecord
280
     1
 90
        1
330
C4F8
  0
DICTIONARY
  5
C525
102
{ACAD_REACTORS
330
C1A7
102
}
330
C1A7
100
AcDbDictionary
281
     1
  3
CANNOSCALE
350
C52A
  3
CMLEADERSTYLE
350
C527
  3
CTABLESTYLE
350
C526
  3
CVIEWDETAILSTYLE
350
C528
  3
CVIEWSECTIONSTYLE
350
C529
  3
DIMASSOC
350
C52D
  3
INDEXCTL
350
C52C
  3
SORTENTS
350
C52B
  3
XCLIPFRAME
350
C52E
  0
XRECORD
  5
C533
102
{ACAD_REACTORS
330
C1A7
102
}
330
C1A7
100
AcDbXrecord
280
     1
  1
DWGPROPS COOKIE
  2

  3

  4

  6

  7

  8
Yoshitsune
  9

300
=
301
=
302
=
303
=
304
=
305
=
306
=
307
=
308
=
309
=
 40
0.000018587962963
 41
2451345.424334375
 42
2457192.643564086
  1

 90
        0
  0
XRECORD
  5
C516
102
{ACAD_REACTORS
330
C515
102
}
330
C515
100
AcDbXrecord
280
     1
290
     1
  0
XRECORD
  5
C518
102
{ACAD_REACTORS
330
C517
102
}
330
C517
100
AcDbXrecord
280
     1
290
     1
  0
XRECORD
  5
C51A
102
{ACAD_REACTORS
330
C519
102
}
330
C519
100
AcDbXrecord
280
     1
290
     1
  0
XRECORD
  5
C51C
102
{ACAD_REACTORS
330
C51B
102
}
330
C51B
100
AcDbXrecord
280
     1
290
     1
  0
XRECORD
  5
C51E
102
{ACAD_REACTORS
330
C51D
102
}
330
C51D
100
AcDbXrecord
280
     1
290
     1
  0
XRECORD
  5
C520
102
{ACAD_REACTORS
330
C51F
102
}
330
C51F
100
AcDbXrecord
280
     1
290
     1
  0
XRECORD
  5
C522
102
{ACAD_REACTORS
330
C521
102
}
330
C521
100
AcDbXrecord
280
     1
290
     1
  0
XRECORD
  5
C524
102
{ACAD_REACTORS
330
C523
102
}
330
C523
100
AcDbXrecord
280
     1
290
     1
  0
XRECORD
  5
C4BE
102
{ACAD_REACTORS
330
C4BD
102
}
330
C4BD
100
AcDbXrecord
280
     1
340
C1B9
  0
XRECORD
  5
C4BC
102
{ACAD_REACTORS
330
C4BB
102
}
330
C4BB
100
AcDbXrecord
280
     1
340
C1B5
  0
ACDBDETAILVIEWSTYLE
  5
C510
102
{ACAD_XDICTIONARY
360
C56B
102
}
102
{ACAD_REACTORS
330
C50F
102
}
330
C50F
100
AcDbModelDocViewStyle
 70
     0
  3
Imperial24
290
     0
100
AcDbDetailViewStyle
 70
     0
 71
     0
 90
        3
 71
     1
340
C1AC
 40
0.24
340
0
 40
0.24
300

 40
0.36
280
     3
 71
     2
340
C1B0
 90
       25
 71
     3
340
C1AC
 40
0.24
 90
        1
 40
0.75
 90
        1
300
%<\AcVar ViewType \f "%tc1">% %<\AcVar ViewDetailId>%\PSCALE %<\AcVar ViewScale \f "%sn">%
 71
     4
340
C1B0
 90
       25
340
C1B0
 90
       25
280
     0
  0
LAYOUT
  5
C511
102
{ACAD_XDICTIONARY
360
C56D
102
}
102
{ACAD_REACTORS
330
C1B4
102
}
330
C1B4
100
AcDbPlotSettings
  1

  2
Canon LBP9100C
  4

  6

 40
0.0
 41
0.0
 42
0.0
 43
0.0
 44
0.0
 45
0.0
 46
0.0
 47
0.0
 48
0.0
 49
0.0
140
0.0
141
0.0
142
1.0
143
1.0
 70
  1712
 72
     0
 73
     0
 74
     0
  7

 75
     0
147
1.0
148
0.0
149
0.0
100
AcDbLayout
  1
Model
 70
     1
 71
     0
 10
0.0
 20
0.0
 11
12.0
 21
9.0
 12
0.0
 22
0.0
 32
0.0
 14
0.0
 24
0.0
 34
0.0
 15
0.0
 25
0.0
 35
0.0
146
0.0
 13
0.0
 23
0.0
 33
0.0
 16
1.0
 26
0.0
 36
0.0
 17
0.0
 27
1.0
 37
0.0
 76
     0
330
C1B9
331
C4BA
  0
LAYOUT
  5
C512
102
{ACAD_XDICTIONARY
360
C56F
102
}
102
{ACAD_REACTORS
330
C1B4
102
}
330
C1B4
100
AcDbPlotSettings
  1

  2
Canon LBP9100C
  4

  6

 40
0.0
 41
0.0
 42
0.0
 43
0.0
 44
0.0
 45
0.0
 46
0.0
 47
0.0
 48
0.0
 49
0.0
140
0.0
141
0.0
142
1.0
143
1.0
 70
   688
 72
     0
 73
     0
 74
     5
  7

 75
    16
147
1.0
148
0.0
149
0.0
100
AcDbLayout
  1
レイアウト1
 70
     0
 71
     1
 10
0.0
 20
0.0
 11
420.0
 21
297.0
 12
0.0
 22
0.0
 32
0.0
 14
1.000000000000000E+20
 24
1.000000000000000E+20
 34
1.000000000000000E+20
 15
-1.000000000000000E+20
 25
-1.000000000000000E+20
 35
-1.000000000000000E+20
146
0.0
 13
0.0
 23
0.0
 33
0.0
 16
1.0
 26
0.0
 36
0.0
 17
0.0
 27
1.0
 37
0.0
 76
     0
330
C1B5
  0
MATERIAL
  5
C4CD
102
{ACAD_XDICTIONARY
360
C4CE
102
}
102
{ACAD_REACTORS
330
C4C4
102
}
330
C4C4
100
AcDbMaterial
  1
ByBlock
 72
     0
 43
0.0208333333333333
 43
0.0
 43
0.0
 43
0.0
 43
0.0
 43
0.0208333333333333
 43
0.0
 43
0.0
 43
0.0
 43
0.0
 43
1.0
 43
0.0
 43
0.0
 43
0.0
 43
0.0
 43
1.0
 77
     0
 47
0.0208333333333333
 47
0.0
 47
0.0
 47
0.0
 47
0.0
 47
0.0208333333333333
 47
0.0
 47
0.0
 47
0.0
 47
0.0
 47
1.0
 47
0.0
 47
0.0
 47
0.0
 47
0.0
 47
1.0
171
     0
 49
0.0208333333333333
 49
0.0
 49
0.0
 49
0.0
 49
0.0
 49
0.0208333333333333
 49
0.0
 49
0.0
 49
0.0
 49
0.0
 49
1.0
 49
0.0
 49
0.0
 49
0.0
 49
0.0
 49
1.0
175
     0
142
0.0208333333333333
142
0.0
142
0.0
142
0.0
142
0.0
142
0.0208333333333333
142
0.0
142
0.0
142
0.0
142
0.0
142
1.0
142
0.0
142
0.0
142
0.0
142
0.0
142
1.0
179
     0
144
0.0208333333333333
144
0.0
144
0.0
144
0.0
144
0.0
144
0.0208333333333333
144
0.0
144
0.0
144
0.0
144
0.0
144
1.0
144
0.0
144
0.0
144
0.0
144
0.0
144
1.0
147
0.0208333333333333
147
0.0
147
0.0
147
0.0
147
0.0
147
0.0208333333333333
147
0.0
147
0.0
147
0.0
147
0.0
147
1.0
147
0.0
147
0.0
147
0.0
147
0.0
147
1.0
  0
MATERIAL
  5
C4C5
102
{ACAD_XDICTIONARY
360
C4C6
102
}
102
{ACAD_REACTORS
330
C4C4
102
}
330
C4C4
100
AcDbMaterial
  1
ByLayer
 72
     0
 43
0.0208333333333333
 43
0.0
 43
0.0
 43
0.0
 43
0.0
 43
0.0208333333333333
 43
0.0
 43
0.0
 43
0.0
 43
0.0
 43
1.0
 43
0.0
 43
0.0
 43
0.0
 43
0.0
 43
1.0
 77
     0
 47
0.0208333333333333
 47
0.0
 47
0.0
 47
0.0
 47
0.0
 47
0.0208333333333333
 47
0.0
 47
0.0
 47
0.0
 47
0.0
 47
1.0
 47
0.0
 47
0.0
 47
0.0
 47
0.0
 47
1.0
171
     0
 49
0.0208333333333333
 49
0.0
 49
0.0
 49
0.0
 49
0.0
 49
0.0208333333333333
 49
0.0
 49
0.0
 49
0.0
 49
0.0
 49
1.0
 49
0.0
 49
0.0
 49
0.0
 49
0.0
 49
1.0
175
     0
142
0.0208333333333333
142
0.0
142
0.0
142
0.0
142
0.0
142
0.0208333333333333
142
0.0
142
0.0
142
0.0
142
0.0
142
1.0
142
0.0
142
0.0
142
0.0
142
0.0
142
1.0
179
     0
144
0.0208333333333333
144
0.0
144
0.0
144
0.0
144
0.0
144
0.0208333333333333
144
0.0
144
0.0
144
0.0
144
0.0
144
1.0
144
0.0
144
0.0
144
0.0
144
0.0
144
1.0
147
0.0208333333333333
147
0.0
147
0.0
147
0.0
147
0.0
147
0.0208333333333333
147
0.0
147
0.0
147
0.0
147
0.0
147
1.0
147
0.0
147
0.0
147
0.0
147
0.0
147
1.0
  0
MATERIAL
  5
C4D5
102
{ACAD_XDICTIONARY
360
C4D6
102
}
102
{ACAD_REACTORS
330
C4C4
102
}
330
C4C4
100
AcDbMaterial
  1
Global
 72
     0
 43
0.0208333333333333
 43
0.0
 43
0.0
 43
0.0
 43
0.0
 43
0.0208333333333333
 43
0.0
 43
0.0
 43
0.0
 43
0.0
 43
1.0
 43
0.0
 43
0.0
 43
0.0
 43
0.0
 43
1.0
 77
     0
 47
0.0208333333333333
 47
0.0
 47
0.0
 47
0.0
 47
0.0
 47
0.0208333333333333
 47
0.0
 47
0.0
 47
0.0
 47
0.0
 47
1.0
 47
0.0
 47
0.0
 47
0.0
 47
0.0
 47
1.0
171
     0
 49
0.0208333333333333
 49
0.0
 49
0.0
 49
0.0
 49
0.0
 49
0.0208333333333333
 49
0.0
 49
0.0
 49
0.0
 49
0.0
 49
1.0
 49
0.0
 49
0.0
 49
0.0
 49
0.0
 49
1.0
175
     0
142
0.0208333333333333
142
0.0
142
0.0
142
0.0
142
0.0
142
0.0208333333333333
142
0.0
142
0.0
142
0.0
142
0.0
142
1.0
142
0.0
142
0.0
142
0.0
142
0.0
142
1.0
179
     0
144
0.0208333333333333
144
0.0
144
0.0
144
0.0
144
0.0
144
0.0208333333333333
144
0.0
144
0.0
144
0.0
144
0.0
144
1.0
144
0.0
144
0.0
144
0.0
144
0.0
144
1.0
147
0.0208333333333333
147
0.0
147
0.0
147
0.0
147
0.0
147
0.0208333333333333
147
0.0
147
0.0
147
0.0
147
0.0
147
1.0
147
0.0
147
0.0
147
0.0
147
0.0
147
1.0
  0
MLEADERSTYLE
  5
C50C
102
{ACAD_REACTORS
330
C50B
102
}
330
C50B
100
AcDbMLeaderStyle
170
     2
171
     1
172
     0
 90
        2
 40
0.0
 41
0.0
173
     1
 91
-1056964608
340
C1AE
 92
       -2
290
     1
 42
0.09
291
     1
 43
0.36
  3
Standard
 44
0.18
300

342
C1AC
174
     1
178
     6
175
     1
176
     0
 93
-1056964608
 45
0.18
292
     0
297
     0
 46
0.18
 94
-1056964608
 47
1.0
 49
1.0
140
1.0
293
     1
141
0.0
294
     1
177
     0
142
1.0
295
     0
296
     0
143
0.125
1001
ACAD_MLEADERVER
1070
     2
  0
MLINESTYLE
  5
C1B2
102
{ACAD_REACTORS
330
C1B1
102
}
330
C1B1
100
AcDbMlineStyle
  2
STANDARD
 70
     0
  3

 62
   256
 51
90.0
 52
90.0
 71
     2
 49
0.5
 62
   256
  6
BYLAYER
 49
-0.5
 62
   256
  6
BYLAYER
  0
ACDBPLACEHOLDER
  5
C4C3
102
{ACAD_REACTORS
330
C4C2
102
}
330
C4C2
  0
SCALE
  5
C4FA
102
{ACAD_REACTORS
330
C4F9
102
}
330
C4F9
100
AcDbScale
 70
     0
300
1:1
140
1.0
141
1.0
290
     1
  0
SCALE
  5
C4FB
102
{ACAD_REACTORS
330
C4F9
102
}
330
C4F9
100
AcDbScale
 70
     0
300
1/128" = 1'-0"
140
0.0078125
141
12.0
290
     0
  0
SCALE
  5
C4FC
102
{ACAD_REACTORS
330
C4F9
102
}
330
C4F9
100
AcDbScale
 70
     0
300
1/64" = 1'-0"
140
0.015625
141
12.0
290
     0
  0
SCALE
  5
C4FD
102
{ACAD_REACTORS
330
C4F9
102
}
330
C4F9
100
AcDbScale
 70
     0
300
1/32" = 1'-0"
140
0.03125
141
12.0
290
     0
  0
SCALE
  5
C4FE
102
{ACAD_REACTORS
330
C4F9
102
}
330
C4F9
100
AcDbScale
 70
     0
300
1/16" = 1'-0"
140
0.0625
141
12.0
290
     0
  0
SCALE
  5
C4FF
102
{ACAD_REACTORS
330
C4F9
102
}
330
C4F9
100
AcDbScale
 70
     0
300
3/32" = 1'-0"
140
0.09375
141
12.0
290
     0
  0
SCALE
  5
C500
102
{ACAD_REACTORS
330
C4F9
102
}
330
C4F9
100
AcDbScale
 70
     0
300
1/8" = 1'-0"
140
0.125
141
12.0
290
     0
  0
SCALE
  5
C501
102
{ACAD_REACTORS
330
C4F9
102
}
330
C4F9
100
AcDbScale
 70
     0
300
3/16" = 1'-0"
140
0.1875
141
12.0
290
     0
  0
SCALE
  5
C502
102
{ACAD_REACTORS
330
C4F9
102
}
330
C4F9
100
AcDbScale
 70
     0
300
1/4" = 1'-0"
140
0.25
141
12.0
290
     0
  0
SCALE
  5
C503
102
{ACAD_REACTORS
330
C4F9
102
}
330
C4F9
100
AcDbScale
 70
     0
300
3/8" = 1'-0"
140
0.375
141
12.0
290
     0
  0
SCALE
  5
C504
102
{ACAD_REACTORS
330
C4F9
102
}
330
C4F9
100
AcDbScale
 70
     0
300
1/2" = 1'-0"
140
0.5
141
12.0
290
     0
  0
SCALE
  5
C505
102
{ACAD_REACTORS
330
C4F9
102
}
330
C4F9
100
AcDbScale
 70
     0
300
3/4" = 1'-0"
140
0.75
141
12.0
290
     0
  0
SCALE
  5
C506
102
{ACAD_REACTORS
330
C4F9
102
}
330
C4F9
100
AcDbScale
 70
     0
300
1" = 1'-0"
140
1.0
141
12.0
290
     0
  0
SCALE
  5
C507
102
{ACAD_REACTORS
330
C4F9
102
}
330
C4F9
100
AcDbScale
 70
     0
300
1-1/2" = 1'-0"
140
1.5
141
12.0
290
     0
  0
SCALE
  5
C508
102
{ACAD_REACTORS
330
C4F9
102
}
330
C4F9
100
AcDbScale
 70
     0
300
3" = 1'-0"
140
3.0
141
12.0
290
     0
  0
SCALE
  5
C509
102
{ACAD_REACTORS
330
C4F9
102
}
330
C4F9
100
AcDbScale
 70
     0
300
6" = 1'-0"
140
6.0
141
12.0
290
     0
  0
SCALE
  5
C50A
102
{ACAD_REACTORS
330
C4F9
102
}
330
C4F9
100
AcDbScale
 70
     0
300
1'-0" = 1'-0"
140
12.0
141
12.0
290
     0
  0
ACDBSECTIONVIEWSTYLE
  5
C50E
102
{ACAD_XDICTIONARY
360
C569
102
}
102
{ACAD_REACTORS
330
C50D
102
}
330
C50D
100
AcDbModelDocViewStyle
 70
     0
  3
Imperial24
290
     0
100
AcDbSectionViewStyle
 70
     0
 71
     0
 90
       78
 71
     1
340
C1AC
 40
0.24
340
0
340
0
 40
0.24
300
I, O, Q, S, X, Z
 40
0.48
 90
        3
 40
0.18
 90
        1
 71
     2
340
C1B0
 90
       25
340
C1B0
 90
       50
 40
0.24
 40
0.0
 40
0.24
 71
     3
340
C1AC
 40
0.24
 90
        1
 40
0.75
 90
        1
300
%<\AcVar ViewType \f "%tc1">% %<\AcVar ViewSectionStartId>%-%<\AcVar ViewSectionEndId>%\PSCALE %<\AcVar ViewScale \f "%sn">%
 71
     4
300
ANSI31
 40
1.0
 90
        0
290
     0
290
     0
 90
        6
 40
0.0
 40
1.570796326794896
 40
0.2617993877991494
 40
1.308996938995747
 40
-0.2617993877991494
 40
1.832595714594046
  0
TABLESTYLE
  5
C4F8
102
{ACAD_XDICTIONARY
360
C530
102
}
102
{ACAD_REACTORS
330
C4F7
102
}
330
C4F7
100
AcDbTableStyle
  3
Standard
 70
     0
 71
     0
 40
0.06
 41
0.06
280
     0
281
     0
  7
STANDARD
140
0.18
170
     2
 62
     0
 63
     7
283
     0
274
    -2
284
     1
 64
     0
275
    -2
285
     1
 65
     0
276
    -2
286
     1
 66
     0
277
    -2
287
     1
 67
     0
278
    -2
288
     1
 68
     0
279
    -2
289
     1
 69
     0
  7
STANDARD
140
0.25
170
     5
 62
     0
 63
     7
283
     0
274
    -2
284
     1
 64
     0
275
    -2
285
     1
 65
     0
276
    -2
286
     1
 66
     0
277
    -2
287
     1
 67
     0
278
    -2
288
     1
 68
     0
279
    -2
289
     1
 69
     0
  7
STANDARD
140
0.18
170
     5
 62
     0
 63
     7
283
     0
274
    -2
284
     1
 64
     0
275
    -2
285
     1
 65
     0
276
    -2
286
     1
 66
     0
277
    -2
287
     1
 67
     0
278
    -2
288
     1
 68
     0
279
    -2
289
     1
 69
     0
  0
VISUALSTYLE
  5
C4E3
102
{ACAD_XDICTIONARY
360
C541
102
}
102
{ACAD_REACTORS
330
C4DD
102
}
330
C4DD
100
AcDbVisualStyle
  2
2dWireframe
 70
     4
 71
     0
 72
     2
 73
     0
 90
        0
 40
-0.6
 41
-30.0
 62
     5
 63
     7
 74
     1
 91
        4
 64
     7
 65
   257
 75
     1
175
     1
 42
1.0
 92
        0
 66
   257
 43
1.0
 76
     1
 77
     6
 78
     2
 67
     7
 79
     5
170
     0
171
     0
290
     0
174
     0
 93
        1
 44
0.0
173
     0
291
     0
 45
0.0
1001
ACAD
1000
AcDbSavedByObjectVersion
1070
     0
  0
VISUALSTYLE
  5
C4E2
102
{ACAD_XDICTIONARY
360
C53F
102
}
102
{ACAD_REACTORS
330
C4DD
102
}
330
C4DD
100
AcDbVisualStyle
  2
Basic
 70
     7
 71
     1
 72
     0
 73
     1
 90
        0
 40
-0.6
 41
-30.0
 62
     5
 63
     7
 74
     0
 91
        4
 64
     7
 65
   257
 75
     1
175
     1
 42
1.0
 92
        8
 66
     7
 43
1.0
 76
     1
 77
     6
 78
     2
 67
     7
 79
     5
170
     0
171
     0
290
     0
174
     0
 93
        1
 44
0.0
173
     0
291
     1
 45
0.0
1001
ACAD
1000
AcDbSavedByObjectVersion
1070
     0
  0
VISUALSTYLE
  5
C4E9
102
{ACAD_XDICTIONARY
360
C54D
102
}
102
{ACAD_REACTORS
330
C4DD
102
}
330
C4DD
100
AcDbVisualStyle
  2
Brighten
 70
    12
 71
     2
 72
     2
 73
     0
 90
        0
 40
-0.6
 41
-30.0
 62
     5
 63
     7
 74
     1
 91
        4
 64
     7
 65
   257
 75
     1
175
     1
 42
1.0
 92
        8
 66
     7
 43
1.0
 76
     1
 77
     6
 78
     2
 67
     7
 79
     5
170
     0
171
     0
290
     0
174
     0
 93
        1
 44
50.0
173
     0
291
     1
 45
0.0
1001
ACAD
1000
AcDbSavedByObjectVersion
1070
     0
  0
VISUALSTYLE
  5
C4ED
102
{ACAD_XDICTIONARY
360
C555
102
}
102
{ACAD_REACTORS
330
C4DD
102
}
330
C4DD
100
AcDbVisualStyle
  2
ColorChange
 70
    16
 71
     2
 72
     2
 73
     3
 90
        0
 40
-0.6
 41
-30.0
 62
     5
 63
     8
 74
     1
 91
        4
 64
     7
 65
   257
 75
     1
175
     1
 42
1.0
 92
        8
 66
     8
 43
1.0
 76
     1
 77
     6
 78
     2
 67
     7
 79
     5
170
     0
171
     0
290
     0
174
     0
 93
        1
 44
0.0
173
     0
291
     1
 45
0.0
1001
ACAD
1000
AcDbSavedByObjectVersion
1070
     0
  0
VISUALSTYLE
  5
C4E6
102
{ACAD_XDICTIONARY
360
C547
102
}
102
{ACAD_REACTORS
330
C4DD
102
}
330
C4DD
100
AcDbVisualStyle
  2
Conceptual
 70
     9
 71
     3
 72
     2
 73
     0
 90
        0
 40
-0.6
 41
-30.0
 62
     5
 63
     7
 74
     2
 91
        2
 64
     7
 65
   257
 75
     1
175
     1
 42
179.0
 92
        8
 66
     7
 43
1.0
 76
     1
 77
     6
 78
     2
 67
     7
 79
     3
170
     0
171
     0
290
     0
174
     0
 93
        1
 44
0.0
173
     0
291
     0
 45
0.0
1001
ACAD
1000
AcDbSavedByObjectVersion
1070
     0
  0
VISUALSTYLE
  5
C4E8
102
{ACAD_XDICTIONARY
360
C54B
102
}
102
{ACAD_REACTORS
330
C4DD
102
}
330
C4DD
100
AcDbVisualStyle
  2
Dim
 70
    11
 71
     2
 72
     2
 73
     0
 90
        0
 40
-0.6
 41
-30.0
 62
     5
 63
     7
 74
     1
 91
        4
 64
     7
 65
   257
 75
     1
175
     1
 42
1.0
 92
        8
 66
     7
 43
1.0
 76
     1
 77
     6
 78
     2
 67
     7
 79
     5
170
     0
171
     0
290
     0
174
     0
 93
        1
 44
-50.0
173
     0
291
     1
 45
0.0
1001
ACAD
1000
AcDbSavedByObjectVersion
1070
     0
  0
VISUALSTYLE
  5
C4F5
102
{ACAD_XDICTIONARY
360
C565
102
}
102
{ACAD_REACTORS
330
C4DD
102
}
330
C4DD
100
AcDbVisualStyle
  2
EdgeColorOff
 70
    22
 71
     2
 72
     2
 73
     0
 90
        0
 40
-0.6
 41
-30.0
 62
     5
 63
     7
 74
     1
 91
        4
 64
     7
 65
   257
 75
     1
175
     1
 42
1.0
 92
        8
 66
     7
 43
1.0
 76
     1
 77
     6
 78
     2
 67
     7
 79
     5
170
     0
171
     0
290
     0
174
     0
 93
        1
 44
0.0
173
     0
291
     1
 45
0.0
1001
ACAD
1000
AcDbSavedByObjectVersion
1070
     0
  0
VISUALSTYLE
  5
C4EC
102
{ACAD_XDICTIONARY
360
C553
102
}
102
{ACAD_REACTORS
330
C4DD
102
}
330
C4DD
100
AcDbVisualStyle
  2
Facepattern
 70
    15
 71
     2
 72
     2
 73
     0
 90
        0
 40
-0.6
 41
-30.0
 62
     5
 63
     7
 74
     1
 91
        4
 64
     7
 65
   257
 75
     1
175
     1
 42
1.0
 92
        8
 66
     7
 43
1.0
 76
     1
 77
     6
 78
     2
 67
     7
 79
     5
170
     0
171
     0
290
     0
174
     0
 93
        1
 44
0.0
173
     0
291
     1
 45
0.0
1001
ACAD
1000
AcDbSavedByObjectVersion
1070
     0
  0
VISUALSTYLE
  5
C4DE
102
{ACAD_XDICTIONARY
360
C537
102
}
102
{ACAD_REACTORS
330
C4DD
102
}
330
C4DD
100
AcDbVisualStyle
  2
Flat
 70
     0
 71
     2
 72
     1
 73
     1
 90
        2
 40
-0.6
 41
30.0
 62
     5
 63
     7
 74
     0
 91
        0
 64
     7
 65
   257
 75
     1
175
     1
 42
1.0
 92
        8
 66
     7
 43
1.0
 76
     1
 77
     6
 78
     2
 67
     7
 79
     5
170
     0
171
     0
290
     0
174
     0
 93
       13
 44
0.0
173
     0
291
     1
 45
0.0
1001
ACAD
1000
AcDbSavedByObjectVersion
1070
     0
  0
VISUALSTYLE
  5
C4DF
102
{ACAD_XDICTIONARY
360
C539
102
}
102
{ACAD_REACTORS
330
C4DD
102
}
330
C4DD
100
AcDbVisualStyle
  2
FlatWithEdges
 70
     1
 71
     2
 72
     1
 73
     1
 90
        2
 40
-0.6
 41
30.0
 62
     5
 63
     7
 74
     1
 91
        0
 64
     7
 65
   257
 75
     1
175
     1
 42
1.0
 92
        0
 66
   257
 43
1.0
 76
     1
 77
     6
 78
     2
 67
     7
 79
     5
170
     0
171
     0
290
     0
174
     0
 93
       13
 44
0.0
173
     0
291
     1
 45
0.0
1001
ACAD
1000
AcDbSavedByObjectVersion
1070
     0
  0
VISUALSTYLE
  5
C4E0
102
{ACAD_XDICTIONARY
360
C53B
102
}
102
{ACAD_REACTORS
330
C4DD
102
}
330
C4DD
100
AcDbVisualStyle
  2
Gouraud
 70
     2
 71
     2
 72
     2
 73
     1
 90
        2
 40
-0.6
 41
30.0
 62
     5
 63
     7
 74
     0
 91
        0
 64
     7
 65
   257
 75
     1
175
     1
 42
1.0
 92
        0
 66
     7
 43
1.0
 76
     1
 77
     6
 78
     2
 67
     7
 79
     5
170
     0
171
     0
290
     0
174
     0
 93
       13
 44
0.0
173
     0
291
     1
 45
0.0
1001
ACAD
1000
AcDbSavedByObjectVersion
1070
     0
  0
VISUALSTYLE
  5
C4E1
102
{ACAD_XDICTIONARY
360
C53D
102
}
102
{ACAD_REACTORS
330
C4DD
102
}
330
C4DD
100
AcDbVisualStyle
  2
GouraudWithEdges
 70
     3
 71
     2
 72
     2
 73
     1
 90
        2
 40
-0.6
 41
30.0
 62
     5
 63
     7
 74
     1
 91
        0
 64
     7
 65
   257
 75
     1
175
     1
 42
1.0
 92
        0
 66
   257
 43
1.0
 76
     1
 77
     6
 78
     2
 67
     7
 79
     5
170
     0
171
     0
290
     0
174
     0
 93
       13
 44
0.0
173
     0
291
     1
 45
0.0
1001
ACAD
1000
AcDbSavedByObjectVersion
1070
     0
  0
VISUALSTYLE
  5
C4E5
102
{ACAD_XDICTIONARY
360
C545
102
}
102
{ACAD_REACTORS
330
C4DD
102
}
330
C4DD
100
AcDbVisualStyle
  2
Hidden
 70
     6
 71
     1
 72
     2
 73
     2
 90
        0
 40
-0.6
 41
-30.0
 62
     5
 63
     7
 74
     2
 91
        2
 64
     7
 65
   257
 75
     2
175
     1
 42
40.0
 92
        0
 66
   257
 43
1.0
 76
     1
 77
     6
 78
     2
 67
     7
 79
     3
170
     0
171
     0
290
     0
174
     0
 93
        1
 44
0.0
173
     0
291
     0
 45
0.0
1001
ACAD
1000
AcDbSavedByObjectVersion
1070
     0
  0
VISUALSTYLE
  5
C4F3
102
{ACAD_XDICTIONARY
360
C561
102
}
102
{ACAD_REACTORS
330
C4DD
102
}
330
C4DD
100
AcDbVisualStyle
  2
JitterOff
 70
    20
 71
     2
 72
     2
 73
     0
 90
        0
 40
-0.6
 41
-30.0
 62
     5
 63
     7
 74
     1
 91
        4
 64
     7
 65
   257
 75
     1
175
     1
 42
1.0
 92
       10
 66
     7
 43
1.0
 76
     1
 77
     6
 78
     2
 67
     7
 79
     5
170
     0
171
     0
290
     0
174
     0
 93
        1
 44
0.0
173
     0
291
     1
 45
0.0
1001
ACAD
1000
AcDbSavedByObjectVersion
1070
     0
  0
VISUALSTYLE
  5
C4EB
102
{ACAD_XDICTIONARY
360
C551
102
}
102
{ACAD_REACTORS
330
C4DD
102
}
330
C4DD
100
AcDbVisualStyle
  2
Linepattern
 70
    14
 71
     2
 72
     2
 73
     0
 90
        0
 40
-0.6
 41
-30.0
 62
     5
 63
     7
 74
     1
 91
        4
 64
     7
 65
   257
 75
     7
175
     7
 42
1.0
 92
        8
 66
     7
 43
1.0
 76
     1
 77
     6
 78
     2
 67
     7
 79
     5
170
     0
171
     0
290
     0
174
     0
 93
        1
 44
0.0
173
     0
291
     1
 45
0.0
1001
ACAD
1000
AcDbSavedByObjectVersion
1070
     0
  0
VISUALSTYLE
  5
C4F4
102
{ACAD_XDICTIONARY
360
C563
102
}
102
{ACAD_REACTORS
330
C4DD
102
}
330
C4DD
100
AcDbVisualStyle
  2
OverhangOff
 70
    21
 71
     2
 72
     2
 73
     0
 90
        0
 40
-0.6
 41
-30.0
 62
     5
 63
     7
 74
     1
 91
        4
 64
     7
 65
   257
 75
     1
175
     1
 42
1.0
 92
        9
 66
     7
 43
1.0
 76
     1
 77
     6
 78
     2
 67
     7
 79
     5
170
     0
171
     0
290
     0
174
     0
 93
        1
 44
0.0
173
     0
291
     1
 45
0.0
1001
ACAD
1000
AcDbSavedByObjectVersion
1070
     0
  0
VISUALSTYLE
  5
C4E7
102
{ACAD_XDICTIONARY
360
C549
102
}
102
{ACAD_REACTORS
330
C4DD
102
}
330
C4DD
100
AcDbVisualStyle
  2
Realistic
 70
     8
 71
     2
 72
     3
 73
     0
 90
        2
 40
-0.6
 41
30.0
 62
     5
 63
     7
 74
     0
 91
        0
 64
     7
 65
   257
 75
     1
175
     1
 42
1.0
 92
        8
 66
   257
 43
1.0
 76
     1
 77
     6
 78
     2
 67
     7
 79
     3
170
     0
171
     0
290
     0
174
     0
 93
       13
 44
0.0
173
     0
291
     0
 45
0.0
1001
ACAD
1000
AcDbSavedByObjectVersion
1070
     0
  0
VISUALSTYLE
  5
C4F2
102
{ACAD_XDICTIONARY
360
C55F
102
}
102
{ACAD_REACTORS
330
C4DD
102
}
330
C4DD
100
AcDbVisualStyle
  2
Shaded
 70
    27
 71
     2
 72
     2
 73
     1
 90
        2
 40
-0.6
 41
30.0
 62
     5
 63
     7
 74
     0
 91
        4
 64
     7
 65
   257
 75
     1
175
     1
 42
1.0
 92
        8
 66
   257
 43
1.0
 76
     1
 77
     6
 78
     2
 67
     8
 79
     3
170
     0
171
     0
290
     0
174
     0
 93
        5
 44
0.0
173
     0
291
     0
 45
0.0
1001
ACAD
1000
AcDbSavedByObjectVersion
1070
     0
  0
VISUALSTYLE
  5
C4F1
102
{ACAD_XDICTIONARY
360
C55D
102
}
102
{ACAD_REACTORS
330
C4DD
102
}
330
C4DD
100
AcDbVisualStyle
  2
Shaded with edges
 70
    26
 71
     2
 72
     2
 73
     1
 90
        2
 40
-0.6
 41
30.0
 62
     5
 63
     7
 74
     1
 91
       10
 64
     7
 65
   257
 75
     2
175
     1
 42
1.0
 92
        8
 66
   257
 43
1.0
 76
     1
 77
     6
 78
     2
 67
     7
 79
     3
170
     0
171
     0
290
     0
174
     0
 93
        5
 44
0.0
173
     0
291
     0
 45
0.0
1001
ACAD
1000
AcDbSavedByObjectVersion
1070
     0
  0
VISUALSTYLE
  5
C4EE
102
{ACAD_XDICTIONARY
360
C557
102
}
102
{ACAD_REACTORS
330
C4DD
102
}
330
C4DD
100
AcDbVisualStyle
  2
Shades of Gray
 70
    23
 71
     2
 72
     2
 73
     3
 90
        0
 40
-0.6
 41
-30.0
 62
     5
 63
     7
 74
     2
 91
        2
 64
     7
 65
     7
 75
     1
175
     1
 42
40.0
 92
        8
 66
     7
 43
1.0
 76
     1
 77
     6
 78
     2
 67
     7
 79
     3
170
     0
171
     0
290
     0
174
     0
 93
        1
 44
0.0
173
     0
291
     0
 45
0.0
1001
ACAD
1000
AcDbSavedByObjectVersion
1070
     0
  0
VISUALSTYLE
  5
C4EF
102
{ACAD_XDICTIONARY
360
C559
102
}
102
{ACAD_REACTORS
330
C4DD
102
}
330
C4DD
100
AcDbVisualStyle
  2
Sketchy
 70
    24
 71
     1
 72
     2
 73
     2
 90
        0
 40
-0.6
 41
-30.0
 62
     5
 63
     7
 74
     2
 91
        2
 64
     7
 65
     7
 75
     1
175
     1
 42
40.0
 92
       11
 66
     7
 43
1.0
 76
     1
 77
     6
 78
     2
 67
     7
 79
     6
170
     0
171
     0
290
     0
174
     0
 93
        1
 44
0.0
173
     0
291
     0
 45
0.0
1001
ACAD
1000
AcDbSavedByObjectVersion
1070
     0
  0
VISUALSTYLE
  5
C4EA
102
{ACAD_XDICTIONARY
360
C54F
102
}
102
{ACAD_REACTORS
330
C4DD
102
}
330
C4DD
100
AcDbVisualStyle
  2
Thicken
 70
    13
 71
     2
 72
     2
 73
     0
 90
        0
 40
-0.6
 41
-30.0
 62
     5
 63
     7
 74
     1
 91
        4
 64
     7
 65
   257
 75
     1
175
     1
 42
1.0
 92
       12
 66
     7
 43
1.0
 76
     1
 77
     6
 78
     2
 67
     7
 79
     5
170
     0
171
     0
290
     0
174
     0
 93
        1
 44
0.0
173
     0
291
     1
 45
0.0
1001
ACAD
1000
AcDbSavedByObjectVersion
1070
     0
  0
VISUALSTYLE
  5
C4E4
102
{ACAD_XDICTIONARY
360
C543
102
}
102
{ACAD_REACTORS
330
C4DD
102
}
330
C4DD
100
AcDbVisualStyle
  2
Wireframe
 70
     5
 71
     0
 72
     2
 73
     0
 90
        0
 40
-0.6
 41
-30.0
 62
     5
 63
     7
 74
     1
 91
        4
 64
     7
 65
   257
 75
     1
175
     1
 42
1.0
 92
        0
 66
   257
 43
1.0
 76
     1
 77
     6
 78
     2
 67
     7
 79
     3
170
     0
171
     0
290
     0
174
     0
 93
        1
 44
0.0
173
     0
291
     0
 45
0.0
1001
ACAD
1000
AcDbSavedByObjectVersion
1070
     0
  0
VISUALSTYLE
  5
C4F0
102
{ACAD_XDICTIONARY
360
C55B
102
}
102
{ACAD_REACTORS
330
C4DD
102
}
330
C4DD
100
AcDbVisualStyle
  2
X-Ray
 70
    25
 71
     2
 72
     2
 73
     1
 90
        1
 40
0.5
 41
-30.0
 62
     5
 63
     7
 74
     1
 91
        0
 64
     7
 65
   257
 75
     1
175
     1
 42
1.0
 92
        8
 66
     7
 43
1.0
 76
     1
 77
     6
 78
     2
 67
     7
 79
     3
170
     0
171
     0
290
     0
174
     0
 93
       13
 44
0.0
173
     0
291
     0
 45
0.0
1001
ACAD
1000
AcDbSavedByObjectVersion
1070
     0
  0
DICTIONARYVAR
  5
C52A
102
{ACAD_REACTORS
330
C525
102
}
330
C525
100
DictionaryVariables
280
     0
  1
1:1
  0
DICTIONARYVAR
  5
C527
102
{ACAD_REACTORS
330
C525
102
}
330
C525
100
DictionaryVariables
280
     0
  1
STANDARD
  0
DICTIONARYVAR
  5
C526
102
{ACAD_REACTORS
330
C525
102
}
330
C525
100
DictionaryVariables
280
     0
  1
STANDARD
  0
DICTIONARYVAR
  5
C528
102
{ACAD_REACTORS
330
C525
102
}
330
C525
100
DictionaryVariables
280
     0
  1
Imperial24
  0
DICTIONARYVAR
  5
C529
102
{ACAD_REACTORS
330
C525
102
}
330
C525
100
DictionaryVariables
280
     0
  1
Imperial24
  0
DICTIONARYVAR
  5
C52D
102
{ACAD_REACTORS
330
C525
102
}
330
C525
100
DictionaryVariables
280
     0
  1
1
  0
DICTIONARYVAR
  5
C52C
102
{ACAD_REACTORS
330
C525
102
}
330
C525
100
DictionaryVariables
280
     0
  1
0
  0
DICTIONARYVAR
  5
C52B
102
{ACAD_REACTORS
330
C525
102
}
330
C525
100
DictionaryVariables
280
     0
  1
127
  0
DICTIONARYVAR
  5
C52E
102
{ACAD_REACTORS
330
C525
102
}
330
C525
100
DictionaryVariables
280
     0
  1
2
  0
DICTIONARY
  5
C56B
330
C510
100
AcDbDictionary
280
     1
281
     1
  3
ACAD_XREC_ROUNDTRIP
360
C56C
  0
DICTIONARY
  5
C56D
330
C511
100
AcDbDictionary
280
     1
281
     1
  3
ACAD_XREC_ROUNDTRIP
360
C56E
  0
DICTIONARY
  5
C56F
330
C512
100
AcDbDictionary
280
     1
281
     1
  3
ACAD_XREC_ROUNDTRIP
360
C570
  0
DICTIONARY
  5
C4CE
330
C4CD
100
AcDbDictionary
280
     1
281
     1
  3
ACAD_XREC_ROUNDTRIP
360
C535
  3
BUMPTILE
360
C4D0
  3
DIFFUSETILE
360
C4CF
  3
OPACITYTILE
360
C4D3
  3
REFLECTIONTILE
360
C4D2
  3
REFRACTIONTILE
360
C4D4
  3
SPECULARTILE
360
C4D1
  0
DICTIONARY
  5
C4C6
330
C4C5
100
AcDbDictionary
280
     1
281
     1
  3
ACAD_XREC_ROUNDTRIP
360
C534
  3
BUMPTILE
360
C4C8
  3
DIFFUSETILE
360
C4C7
  3
OPACITYTILE
360
C4CB
  3
REFLECTIONTILE
360
C4CA
  3
REFRACTIONTILE
360
C4CC
  3
SPECULARTILE
360
C4C9
  0
DICTIONARY
  5
C4D6
330
C4D5
100
AcDbDictionary
280
     1
281
     1
  3
ACAD_XREC_ROUNDTRIP
360
C536
  3
BUMPTILE
360
C4D8
  3
DIFFUSETILE
360
C4D7
  3
OPACITYTILE
360
C4DB
  3
REFLECTIONTILE
360
C4DA
  3
REFRACTIONTILE
360
C4DC
  3
SPECULARTILE
360
C4D9
  0
DICTIONARY
  5
C569
330
C50E
100
AcDbDictionary
280
     1
281
     1
  3
ACAD_XREC_ROUNDTRIP
360
C56A
  0
DICTIONARY
  5
C530
330
C4F8
100
AcDbDictionary
280
     1
281
     1
  3
ACAD_ROUNDTRIP_2008_TABLESTYLE_CELLSTYLEMAP
360
C531
  3
ACAD_XREC_ROUNDTRIP
360
C567
  0
DICTIONARY
  5
C541
330
C4E3
100
AcDbDictionary
280
     1
281
     1
  3
ACAD_XREC_ROUNDTRIP
360
C542
  0
DICTIONARY
  5
C53F
330
C4E2
100
AcDbDictionary
280
     1
281
     1
  3
ACAD_XREC_ROUNDTRIP
360
C540
  0
DICTIONARY
  5
C54D
330
C4E9
100
AcDbDictionary
280
     1
281
     1
  3
ACAD_XREC_ROUNDTRIP
360
C54E
  0
DICTIONARY
  5
C555
330
C4ED
100
AcDbDictionary
280
     1
281
     1
  3
ACAD_XREC_ROUNDTRIP
360
C556
  0
DICTIONARY
  5
C547
330
C4E6
100
AcDbDictionary
280
     1
281
     1
  3
ACAD_XREC_ROUNDTRIP
360
C548
  0
DICTIONARY
  5
C54B
330
C4E8
100
AcDbDictionary
280
     1
281
     1
  3
ACAD_XREC_ROUNDTRIP
360
C54C
  0
DICTIONARY
  5
C565
330
C4F5
100
AcDbDictionary
280
     1
281
     1
  3
ACAD_XREC_ROUNDTRIP
360
C566
  0
DICTIONARY
  5
C553
330
C4EC
100
AcDbDictionary
280
     1
281
     1
  3
ACAD_XREC_ROUNDTRIP
360
C554
  0
DICTIONARY
  5
C537
330
C4DE
100
AcDbDictionary
280
     1
281
     1
  3
ACAD_XREC_ROUNDTRIP
360
C538
  0
DICTIONARY
  5
C539
330
C4DF
100
AcDbDictionary
280
     1
281
     1
  3
ACAD_XREC_ROUNDTRIP
360
C53A
  0
DICTIONARY
  5
C53B
330
C4E0
100
AcDbDictionary
280
     1
281
     1
  3
ACAD_XREC_ROUNDTRIP
360
C53C
  0
DICTIONARY
  5
C53D
330
C4E1
100
AcDbDictionary
280
     1
281
     1
  3
ACAD_XREC_ROUNDTRIP
360
C53E
  0
DICTIONARY
  5
C545
330
C4E5
100
AcDbDictionary
280
     1
281
     1
  3
ACAD_XREC_ROUNDTRIP
360
C546
  0
DICTIONARY
  5
C561
330
C4F3
100
AcDbDictionary
280
     1
281
     1
  3
ACAD_XREC_ROUNDTRIP
360
C562
  0
DICTIONARY
  5
C551
330
C4EB
100
AcDbDictionary
280
     1
281
     1
  3
ACAD_XREC_ROUNDTRIP
360
C552
  0
DICTIONARY
  5
C563
330
C4F4
100
AcDbDictionary
280
     1
281
     1
  3
ACAD_XREC_ROUNDTRIP
360
C564
  0
DICTIONARY
  5
C549
330
C4E7
100
AcDbDictionary
280
     1
281
     1
  3
ACAD_XREC_ROUNDTRIP
360
C54A
  0
DICTIONARY
  5
C55F
330
C4F2
100
AcDbDictionary
280
     1
281
     1
  3
ACAD_XREC_ROUNDTRIP
360
C560
  0
DICTIONARY
  5
C55D
330
C4F1
100
AcDbDictionary
280
     1
281
     1
  3
ACAD_XREC_ROUNDTRIP
360
C55E
  0
DICTIONARY
  5
C557
330
C4EE
100
AcDbDictionary
280
     1
281
     1
  3
ACAD_XREC_ROUNDTRIP
360
C558
  0
DICTIONARY
  5
C559
330
C4EF
100
AcDbDictionary
280
     1
281
     1
  3
ACAD_XREC_ROUNDTRIP
360
C55A
  0
DICTIONARY
  5
C54F
330
C4EA
100
AcDbDictionary
280
     1
281
     1
  3
ACAD_XREC_ROUNDTRIP
360
C550
  0
DICTIONARY
  5
C543
330
C4E4
100
AcDbDictionary
280
     1
281
     1
  3
ACAD_XREC_ROUNDTRIP
360
C544
  0
DICTIONARY
  5
C55B
330
C4F0
100
AcDbDictionary
280
     1
281
     1
  3
ACAD_XREC_ROUNDTRIP
360
C55C
  0
XRECORD
  5
C56C
102
{ACAD_REACTORS
330
C56B
102
}
330
C56B
100
AcDbXrecord
280
     1
102
DISPLAYNAME
  1
Imperial24
102
FLAGS
 90
        0
  0
XRECORD
  5
C56E
102
{ACAD_REACTORS
330
C56D
102
}
330
C56D
100
AcDbXrecord
280
     1
102
SHADEPLOT
 70
     0
102
SHADEPLOTRESLEVEL
 70
     2
102
SHADEPLOTCUSTOMDPI
 70
   300
  0
XRECORD
  5
C570
102
{ACAD_REACTORS
330
C56F
102
}
330
C56F
100
AcDbXrecord
280
     1
102
SHADEPLOT
 70
     0
102
SHADEPLOTRESLEVEL
 70
     2
102
SHADEPLOTCUSTOMDPI
 70
   300
  0
XRECORD
  5
C535
102
{ACAD_REACTORS
330
C4CE
102
}
330
C4CE
100
AcDbXrecord
280
     1
102
MATERIAL
148
0.0
149
0.0
149
0.0
 93
        0
 94
      127
282
     0
 72
     0
 77
     0
171
     0
175
     0
179
     0
273
     0
  0
XRECORD
  5
C4D0
102
{ACAD_REACTORS
330
C4CE
102
}
330
C4CE
100
AcDbXrecord
280
     1
270
     1
271
     1
  0
XRECORD
  5
C4CF
102
{ACAD_REACTORS
330
C4CE
102
}
330
C4CE
100
AcDbXrecord
280
     1
270
     1
271
     1
  0
XRECORD
  5
C4D3
102
{ACAD_REACTORS
330
C4CE
102
}
330
C4CE
100
AcDbXrecord
280
     1
270
     1
271
     1
  0
XRECORD
  5
C4D2
102
{ACAD_REACTORS
330
C4CE
102
}
330
C4CE
100
AcDbXrecord
280
     1
270
     1
271
     1
  0
XRECORD
  5
C4D4
102
{ACAD_REACTORS
330
C4CE
102
}
330
C4CE
100
AcDbXrecord
280
     1
270
     1
271
     1
  0
XRECORD
  5
C4D1
102
{ACAD_REACTORS
330
C4CE
102
}
330
C4CE
100
AcDbXrecord
280
     1
270
     1
271
     1
  0
XRECORD
  5
C534
102
{ACAD_REACTORS
330
C4C6
102
}
330
C4C6
100
AcDbXrecord
280
     1
102
MATERIAL
148
0.0
149
0.0
149
0.0
 93
        0
 94
      127
282
     0
 72
     0
 77
     0
171
     0
175
     0
179
     0
273
     0
  0
XRECORD
  5
C4C8
102
{ACAD_REACTORS
330
C4C6
102
}
330
C4C6
100
AcDbXrecord
280
     1
270
     1
271
     1
  0
XRECORD
  5
C4C7
102
{ACAD_REACTORS
330
C4C6
102
}
330
C4C6
100
AcDbXrecord
280
     1
270
     1
271
     1
  0
XRECORD
  5
C4CB
102
{ACAD_REACTORS
330
C4C6
102
}
330
C4C6
100
AcDbXrecord
280
     1
270
     1
271
     1
  0
XRECORD
  5
C4CA
102
{ACAD_REACTORS
330
C4C6
102
}
330
C4C6
100
AcDbXrecord
280
     1
270
     1
271
     1
  0
XRECORD
  5
C4CC
102
{ACAD_REACTORS
330
C4C6
102
}
330
C4C6
100
AcDbXrecord
280
     1
270
     1
271
     1
  0
XRECORD
  5
C4C9
102
{ACAD_REACTORS
330
C4C6
102
}
330
C4C6
100
AcDbXrecord
280
     1
270
     1
271
     1
  0
XRECORD
  5
C536
102
{ACAD_REACTORS
330
C4D6
102
}
330
C4D6
100
AcDbXrecord
280
     1
102
MATERIAL
148
0.0
149
0.0
149
0.0
 93
        0
 94
      127
282
     0
 72
     0
 77
     0
171
     0
175
     0
179
     0
273
     0
  0
XRECORD
  5
C4D8
102
{ACAD_REACTORS
330
C4D6
102
}
330
C4D6
100
AcDbXrecord
280
     1
270
     1
271
     1
  0
XRECORD
  5
C4D7
102
{ACAD_REACTORS
330
C4D6
102
}
330
C4D6
100
AcDbXrecord
280
     1
270
     1
271
     1
  0
XRECORD
  5
C4DB
102
{ACAD_REACTORS
330
C4D6
102
}
330
C4D6
100
AcDbXrecord
280
     1
270
     1
271
     1
  0
XRECORD
  5
C4DA
102
{ACAD_REACTORS
330
C4D6
102
}
330
C4D6
100
AcDbXrecord
280
     1
270
     1
271
     1
  0
XRECORD
  5
C4DC
102
{ACAD_REACTORS
330
C4D6
102
}
330
C4D6
100
AcDbXrecord
280
     1
270
     1
271
     1
  0
XRECORD
  5
C4D9
102
{ACAD_REACTORS
330
C4D6
102
}
330
C4D6
100
AcDbXrecord
280
     1
270
     1
271
     1
  0
XRECORD
  5
C56A
102
{ACAD_REACTORS
330
C569
102
}
330
C569
100
AcDbXrecord
280
     1
102
DISPLAYNAME
  1
Imperial24
102
FLAGS
 90
        0
  0
CELLSTYLEMAP
  5
C531
102
{ACAD_REACTORS
330
C530
102
}
330
C530
100
AcDbCellStyleMap
 90
        3
300
CELLSTYLE
  1
TABLEFORMAT_BEGIN
 90
        5
170
     1
 91
        0
 92
    32768
 62
   257
 93
        1
300
CONTENTFORMAT
  1
CONTENTFORMAT_BEGIN
 90
        0
 91
        0
 92
      512
 93
        0
300

 40
0.0
140
1.0
 94
        5
 62
     0
340
C1AC
144
0.25
309
CONTENTFORMAT_END
171
     0
 94
        0
309
TABLEFORMAT_END
  1
CELLSTYLE_BEGIN
 90
        1
 91
        1
300
_TITLE
309
CELLSTYLE_END
300
CELLSTYLE
  1
TABLEFORMAT_BEGIN
 90
        5
170
     1
 91
        0
 92
        0
 62
   257
 93
        1
300
CONTENTFORMAT
  1
CONTENTFORMAT_BEGIN
 90
        0
 91
        0
 92
      512
 93
        0
300

 40
0.0
140
1.0
 94
        5
 62
     0
340
C1AC
144
0.18
309
CONTENTFORMAT_END
171
     0
 94
        0
309
TABLEFORMAT_END
  1
CELLSTYLE_BEGIN
 90
        2
 91
        1
300
_HEADER
309
CELLSTYLE_END
300
CELLSTYLE
  1
TABLEFORMAT_BEGIN
 90
        5
170
     1
 91
        0
 92
        0
 62
   257
 93
        1
300
CONTENTFORMAT
  1
CONTENTFORMAT_BEGIN
 90
        0
 91
        0
 92
      512
 93
        0
300

 40
0.0
140
1.0
 94
        2
 62
     0
340
C1AC
144
0.18
309
CONTENTFORMAT_END
171
     0
 94
        0
309
TABLEFORMAT_END
  1
CELLSTYLE_BEGIN
 90
        3
 91
        2
300
_DATA
309
CELLSTYLE_END
  0
XRECORD
  5
C567
102
{ACAD_REACTORS
330
C530
102
}
330
C530
100
AcDbXrecord
280
     1
102
ACAD_ROUNDTRIP_PRE2007_TABLESTYLE
 90
      512
 91
        0
  1

 92
      512
 93
        0
  2

 94
      512
 95
        0
  3

  0
XRECORD
  5
C542
102
{ACAD_REACTORS
330
C541
102
}
330
C541
100
AcDbXrecord
280
     1
102
RTVSPost2010Prop28
280
     1
102
RTVSPost2010PropOp28
 70
     1
102
RTVSPost2010Prop29
280
     1
102
RTVSPost2010PropOp29
 70
     1
102
RTVSPost2010Prop30
280
     0
102
RTVSPost2010PropOp30
 70
     1
102
RTVSPost2010Prop31
280
     0
102
RTVSPost2010PropOp31
 70
     1
102
RTVSPost2010Prop32
280
     0
102
RTVSPost2010PropOp32
 70
     1
102
RTVSPost2010Prop33
280
     0
102
RTVSPost2010PropOp33
 70
     1
102
RTVSPost2010Prop34
280
     0
102
RTVSPost2010PropOp34
 70
     1
102
RTVSPost2010Prop35
280
     0
102
RTVSPost2010PropOp35
 70
     1
102
RTVSPost2010Prop36
280
     0
102
RTVSPost2010PropOp36
 70
     1
102
RTVSPost2010Prop37
 90
       50
102
RTVSPost2010PropOp37
 70
     1
102
RTVSPost2010Prop38
140
0.0
102
RTVSPost2010PropOp38
 70
     1
102
RTVSPost2010Prop39
140
1.0
102
RTVSPost2010PropOp39
 70
     1
102
RTVSPost2010Prop40
 90
        0
102
RTVSPost2010PropOp40
 70
     1
102
RTVSPost2010Prop41ColorIndex
 90
       18
102
RTVSPost2010Prop41ColorRGB
 90
        0
102
RTVSPost2010PropOp41
 70
     1
102
RTVSPost2010Prop42
 90
       50
102
RTVSPost2010PropOp42
 70
     1
102
RTVSPost2010Prop43
 90
        3
102
RTVSPost2010PropOp43
 70
     1
102
RTVSPost2010Prop44ColorIndex
 90
        5
102
RTVSPost2010Prop44ColorRGB
 90
      255
102
RTVSPost2010PropOp44
 70
     1
102
RTVSPost2010Prop45
280
     0
102
RTVSPost2010PropOp45
 70
     1
102
RTVSPost2010Prop46
 90
       50
102
RTVSPost2010PropOp46
 70
     1
102
RTVSPost2010Prop47
 90
       50
102
RTVSPost2010PropOp47
 70
     1
102
RTVSPost2010Prop48
 90
       50
102
RTVSPost2010PropOp48
 70
     1
102
RTVSPost2010Prop49
280
     0
102
RTVSPost2010PropOp49
 70
     1
102
RTVSPost2010Prop50
 90
       50
102
RTVSPost2010PropOp50
 70
     1
102
RTVSPost2010Prop51ColorIndex
 90
      256
102
RTVSPost2010Prop51ColorRGB
 90
-16777216
102
RTVSPost2010PropOp51
 70
     0
102
RTVSPost2010Prop52
140
1.0
102
RTVSPost2010PropOp52
 70
     0
102
RTVSPost2010Prop53
 90
        2
102
RTVSPost2010PropOp53
 70
     1
102
RTVSPost2010Prop54
  1
strokes_ogs.tif
102
RTVSPost2010PropOp54
 70
     1
102
RTVSPost2010Prop55
280
     0
102
RTVSPost2010PropOp55
 70
     1
102
RTVSPost2010Prop56
140
1.0
102
RTVSPost2010PropOp56
 70
     1
102
RTVSPost2010Prop57
140
1.0
102
RTVSPost2010PropOp57
 70
     1
102
RTVSPropertyOp0
 70
     1
102
RTVSPropertyOp1
 70
     1
102
RTVSPropertyOp2
 70
     1
102
RTVSPropertyOp3
 70
     1
102
RTVSPropertyOp4
 70
     1
102
RTVSPropertyOp5
 70
     1
102
RTVSPropertyOp6
 70
     1
102
RTVSPropertyOp7
 70
     1
102
RTVSPropertyOp8
 70
     1
102
RTVSPropertyOp9
 70
     1
102
RTVSPropertyOp10
 70
     1
102
RTVSPropertyOp11
 70
     1
102
RTVSPropertyOp12
 70
     1
102
RTVSPropertyOp13
 70
     1
102
RTVSPropertyOp14
 70
     1
102
RTVSPropertyOp15
 70
     1
102
RTVSPropertyOp16
 70
     1
102
RTVSPropertyOp17
 70
     1
102
RTVSPropertyOp18
 70
     1
102
RTVSPropertyOp19
 70
     1
102
RTVSPropertyOp20
 70
     1
102
RTVSPropertyOp21
 70
     1
102
RTVSPropertyOp22
 70
     1
102
RTVSPropertyOp23
 70
     1
102
RTVSPropertyOp24
 70
     1
102
RTVSPropertyOp25
 70
     1
102
RTVSPropertyOp26
 70
     1
102
RTVSPropertyOp27
 70
     1
102
RTVSPropertyOp28
 70
     1
102
RTVSPropertyOp29
 70
     1
102
RTVSPropertyOp30
 70
     1
102
RTVSPropertyOp31
 70
     1
102
RTVSPropertyOp32
 70
     1
102
RTVSPropertyOp33
 70
     1
102
RTVSPropertyOp34
 70
     1
102
RTVSPropertyOp35
 70
     1
102
RTVSPropertyOp36
 70
     1
102
RTVSPropertyOp37
 70
     1
102
RTVSPropertyOp38
 70
     1
102
RTVSPropertyOp39
 70
     1
102
RTVSPropertyOp40
 70
     1
102
RTVSPropertyOp41
 70
     1
102
RTVSPropertyOp42
 70
     1
102
RTVSPropertyOp43
 70
     1
102
RTVSPropertyOp44
 70
     1
102
RTVSPropertyOp45
 70
     1
102
RTVSPropertyOp46
 70
     1
102
RTVSPropertyOp47
 70
     1
102
RTVSPropertyOp48
 70
     1
102
RTVSPropertyOp49
 70
     1
102
RTVSPropertyOp50
 70
     1
102
RTVSPropertyOp51
 70
     0
102
RTVSPropertyOp52
 70
     0
102
RTVSPropertyOp53
 70
     1
102
RTVSPropertyOp54
 70
     1
102
RTVSPropertyOp55
 70
     1
102
RTVSPropertyOp56
 70
     1
102
RTVSPropertyOp57
 70
     1
102
RTVSPropertyOp58
 70
     1
102
RTVSPropertyOp59
 70
     1
102
RTVSPropertyOp60
 70
     1
102
RTVSPropertyOp61
 70
     1
102
RTVSPropertyOp62
 70
     1
  0
XRECORD
  5
C540
102
{ACAD_REACTORS
330
C53F
102
}
330
C53F
100
AcDbXrecord
280
     1
102
RTVSPost2010Prop28
280
     0
102
RTVSPost2010PropOp28
 70
     1
102
RTVSPost2010Prop29
280
     1
102
RTVSPost2010PropOp29
 70
     1
102
RTVSPost2010Prop30
280
     1
102
RTVSPost2010PropOp30
 70
     1
102
RTVSPost2010Prop31
280
     0
102
RTVSPost2010PropOp31
 70
     1
102
RTVSPost2010Prop32
280
     0
102
RTVSPost2010PropOp32
 70
     1
102
RTVSPost2010Prop33
280
     0
102
RTVSPost2010PropOp33
 70
     1
102
RTVSPost2010Prop34
280
     0
102
RTVSPost2010PropOp34
 70
     1
102
RTVSPost2010Prop35
280
     0
102
RTVSPost2010PropOp35
 70
     1
102
RTVSPost2010Prop36
280
     0
102
RTVSPost2010PropOp36
 70
     1
102
RTVSPost2010Prop37
 90
       50
102
RTVSPost2010PropOp37
 70
     1
102
RTVSPost2010Prop38
140
0.0
102
RTVSPost2010PropOp38
 70
     1
102
RTVSPost2010Prop39
140
1.0
102
RTVSPost2010PropOp39
 70
     1
102
RTVSPost2010Prop40
 90
        0
102
RTVSPost2010PropOp40
 70
     1
102
RTVSPost2010Prop41ColorIndex
 90
       18
102
RTVSPost2010Prop41ColorRGB
 90
        0
102
RTVSPost2010PropOp41
 70
     1
102
RTVSPost2010Prop42
 90
       50
102
RTVSPost2010PropOp42
 70
     1
102
RTVSPost2010Prop43
 90
        3
102
RTVSPost2010PropOp43
 70
     1
102
RTVSPost2010Prop44ColorIndex
 90
        5
102
RTVSPost2010Prop44ColorRGB
 90
      255
102
RTVSPost2010PropOp44
 70
     1
102
RTVSPost2010Prop45
280
     0
102
RTVSPost2010PropOp45
 70
     1
102
RTVSPost2010Prop46
 90
       50
102
RTVSPost2010PropOp46
 70
     1
102
RTVSPost2010Prop47
 90
       50
102
RTVSPost2010PropOp47
 70
     1
102
RTVSPost2010Prop48
 90
       50
102
RTVSPost2010PropOp48
 70
     1
102
RTVSPost2010Prop49
280
     0
102
RTVSPost2010PropOp49
 70
     1
102
RTVSPost2010Prop50
 90
       50
102
RTVSPost2010PropOp50
 70
     1
102
RTVSPost2010Prop51ColorIndex
 90
      256
102
RTVSPost2010Prop51ColorRGB
 90
-16777216
102
RTVSPost2010PropOp51
 70
     0
102
RTVSPost2010Prop52
140
1.0
102
RTVSPost2010PropOp52
 70
     0
102
RTVSPost2010Prop53
 90
        2
102
RTVSPost2010PropOp53
 70
     1
102
RTVSPost2010Prop54
  1
strokes_ogs.tif
102
RTVSPost2010PropOp54
 70
     1
102
RTVSPost2010Prop55
280
     0
102
RTVSPost2010PropOp55
 70
     1
102
RTVSPost2010Prop56
140
1.0
102
RTVSPost2010PropOp56
 70
     1
102
RTVSPost2010Prop57
140
1.0
102
RTVSPost2010PropOp57
 70
     1
102
RTVSPropertyOp0
 70
     1
102
RTVSPropertyOp1
 70
     1
102
RTVSPropertyOp2
 70
     1
102
RTVSPropertyOp3
 70
     1
102
RTVSPropertyOp4
 70
     1
102
RTVSPropertyOp5
 70
     1
102
RTVSPropertyOp6
 70
     1
102
RTVSPropertyOp7
 70
     1
102
RTVSPropertyOp8
 70
     1
102
RTVSPropertyOp9
 70
     1
102
RTVSPropertyOp10
 70
     1
102
RTVSPropertyOp11
 70
     1
102
RTVSPropertyOp12
 70
     1
102
RTVSPropertyOp13
 70
     1
102
RTVSPropertyOp14
 70
     1
102
RTVSPropertyOp15
 70
     1
102
RTVSPropertyOp16
 70
     1
102
RTVSPropertyOp17
 70
     1
102
RTVSPropertyOp18
 70
     1
102
RTVSPropertyOp19
 70
     1
102
RTVSPropertyOp20
 70
     1
102
RTVSPropertyOp21
 70
     1
102
RTVSPropertyOp22
 70
     1
102
RTVSPropertyOp23
 70
     1
102
RTVSPropertyOp24
 70
     1
102
RTVSPropertyOp25
 70
     1
102
RTVSPropertyOp26
 70
     1
102
RTVSPropertyOp27
 70
     1
102
RTVSPropertyOp28
 70
     1
102
RTVSPropertyOp29
 70
     1
102
RTVSPropertyOp30
 70
     1
102
RTVSPropertyOp31
 70
     1
102
RTVSPropertyOp32
 70
     1
102
RTVSPropertyOp33
 70
     1
102
RTVSPropertyOp34
 70
     1
102
RTVSPropertyOp35
 70
     1
102
RTVSPropertyOp36
 70
     1
102
RTVSPropertyOp37
 70
     1
102
RTVSPropertyOp38
 70
     1
102
RTVSPropertyOp39
 70
     1
102
RTVSPropertyOp40
 70
     1
102
RTVSPropertyOp41
 70
     1
102
RTVSPropertyOp42
 70
     1
102
RTVSPropertyOp43
 70
     1
102
RTVSPropertyOp44
 70
     1
102
RTVSPropertyOp45
 70
     1
102
RTVSPropertyOp46
 70
     1
102
RTVSPropertyOp47
 70
     1
102
RTVSPropertyOp48
 70
     1
102
RTVSPropertyOp49
 70
     1
102
RTVSPropertyOp50
 70
     1
102
RTVSPropertyOp51
 70
     0
102
RTVSPropertyOp52
 70
     0
102
RTVSPropertyOp53
 70
     1
102
RTVSPropertyOp54
 70
     1
102
RTVSPropertyOp55
 70
     1
102
RTVSPropertyOp56
 70
     1
102
RTVSPropertyOp57
 70
     1
102
RTVSPropertyOp58
 70
     1
102
RTVSPropertyOp59
 70
     1
102
RTVSPropertyOp60
 70
     1
102
RTVSPropertyOp61
 70
     1
102
RTVSPropertyOp62
 70
     1
  0
XRECORD
  5
C54E
102
{ACAD_REACTORS
330
C54D
102
}
330
C54D
100
AcDbXrecord
280
     1
102
RTVSPost2010Prop28
280
     0
102
RTVSPost2010PropOp28
 70
     1
102
RTVSPost2010Prop29
280
     1
102
RTVSPost2010PropOp29
 70
     1
102
RTVSPost2010Prop30
280
     1
102
RTVSPost2010PropOp30
 70
     1
102
RTVSPost2010Prop31
280
     0
102
RTVSPost2010PropOp31
 70
     1
102
RTVSPost2010Prop32
280
     0
102
RTVSPost2010PropOp32
 70
     1
102
RTVSPost2010Prop33
280
     0
102
RTVSPost2010PropOp33
 70
     1
102
RTVSPost2010Prop34
280
     0
102
RTVSPost2010PropOp34
 70
     1
102
RTVSPost2010Prop35
280
     0
102
RTVSPost2010PropOp35
 70
     1
102
RTVSPost2010Prop36
280
     0
102
RTVSPost2010PropOp36
 70
     1
102
RTVSPost2010Prop37
 90
       50
102
RTVSPost2010PropOp37
 70
     1
102
RTVSPost2010Prop38
140
0.0
102
RTVSPost2010PropOp38
 70
     1
102
RTVSPost2010Prop39
140
1.0
102
RTVSPost2010PropOp39
 70
     1
102
RTVSPost2010Prop40
 90
        0
102
RTVSPost2010PropOp40
 70
     1
102
RTVSPost2010Prop41ColorIndex
 90
       18
102
RTVSPost2010Prop41ColorRGB
 90
        0
102
RTVSPost2010PropOp41
 70
     1
102
RTVSPost2010Prop42
 90
       50
102
RTVSPost2010PropOp42
 70
     1
102
RTVSPost2010Prop43
 90
        3
102
RTVSPost2010PropOp43
 70
     1
102
RTVSPost2010Prop44ColorIndex
 90
        5
102
RTVSPost2010Prop44ColorRGB
 90
      255
102
RTVSPost2010PropOp44
 70
     1
102
RTVSPost2010Prop45
280
     0
102
RTVSPost2010PropOp45
 70
     1
102
RTVSPost2010Prop46
 90
       50
102
RTVSPost2010PropOp46
 70
     1
102
RTVSPost2010Prop47
 90
       50
102
RTVSPost2010PropOp47
 70
     1
102
RTVSPost2010Prop48
 90
       50
102
RTVSPost2010PropOp48
 70
     1
102
RTVSPost2010Prop49
280
     0
102
RTVSPost2010PropOp49
 70
     1
102
RTVSPost2010Prop50
 90
       50
102
RTVSPost2010PropOp50
 70
     1
102
RTVSPost2010Prop51ColorIndex
 90
      256
102
RTVSPost2010Prop51ColorRGB
 90
-16777216
102
RTVSPost2010PropOp51
 70
     0
102
RTVSPost2010Prop52
140
1.0
102
RTVSPost2010PropOp52
 70
     0
102
RTVSPost2010Prop53
 90
        2
102
RTVSPost2010PropOp53
 70
     1
102
RTVSPost2010Prop54
  1
strokes_ogs.tif
102
RTVSPost2010PropOp54
 70
     1
102
RTVSPost2010Prop55
280
     0
102
RTVSPost2010PropOp55
 70
     1
102
RTVSPost2010Prop56
140
1.0
102
RTVSPost2010PropOp56
 70
     1
102
RTVSPost2010Prop57
140
1.0
102
RTVSPost2010PropOp57
 70
     1
102
RTVSPropertyOp0
 70
     1
102
RTVSPropertyOp1
 70
     1
102
RTVSPropertyOp2
 70
     1
102
RTVSPropertyOp3
 70
     1
102
RTVSPropertyOp4
 70
     1
102
RTVSPropertyOp5
 70
     1
102
RTVSPropertyOp6
 70
     1
102
RTVSPropertyOp7
 70
     1
102
RTVSPropertyOp8
 70
     1
102
RTVSPropertyOp9
 70
     1
102
RTVSPropertyOp10
 70
     1
102
RTVSPropertyOp11
 70
     1
102
RTVSPropertyOp12
 70
     1
102
RTVSPropertyOp13
 70
     1
102
RTVSPropertyOp14
 70
     1
102
RTVSPropertyOp15
 70
     1
102
RTVSPropertyOp16
 70
     1
102
RTVSPropertyOp17
 70
     1
102
RTVSPropertyOp18
 70
     1
102
RTVSPropertyOp19
 70
     1
102
RTVSPropertyOp20
 70
     1
102
RTVSPropertyOp21
 70
     1
102
RTVSPropertyOp22
 70
     1
102
RTVSPropertyOp23
 70
     1
102
RTVSPropertyOp24
 70
     1
102
RTVSPropertyOp25
 70
     1
102
RTVSPropertyOp26
 70
     1
102
RTVSPropertyOp27
 70
     1
102
RTVSPropertyOp28
 70
     1
102
RTVSPropertyOp29
 70
     1
102
RTVSPropertyOp30
 70
     1
102
RTVSPropertyOp31
 70
     1
102
RTVSPropertyOp32
 70
     1
102
RTVSPropertyOp33
 70
     1
102
RTVSPropertyOp34
 70
     1
102
RTVSPropertyOp35
 70
     1
102
RTVSPropertyOp36
 70
     1
102
RTVSPropertyOp37
 70
     1
102
RTVSPropertyOp38
 70
     1
102
RTVSPropertyOp39
 70
     1
102
RTVSPropertyOp40
 70
     1
102
RTVSPropertyOp41
 70
     1
102
RTVSPropertyOp42
 70
     1
102
RTVSPropertyOp43
 70
     1
102
RTVSPropertyOp44
 70
     1
102
RTVSPropertyOp45
 70
     1
102
RTVSPropertyOp46
 70
     1
102
RTVSPropertyOp47
 70
     1
102
RTVSPropertyOp48
 70
     1
102
RTVSPropertyOp49
 70
     1
102
RTVSPropertyOp50
 70
     1
102
RTVSPropertyOp51
 70
     0
102
RTVSPropertyOp52
 70
     0
102
RTVSPropertyOp53
 70
     1
102
RTVSPropertyOp54
 70
     1
102
RTVSPropertyOp55
 70
     1
102
RTVSPropertyOp56
 70
     1
102
RTVSPropertyOp57
 70
     1
102
RTVSPropertyOp58
 70
     1
102
RTVSPropertyOp59
 70
     1
102
RTVSPropertyOp60
 70
     1
102
RTVSPropertyOp61
 70
     1
102
RTVSPropertyOp62
 70
     1
  0
XRECORD
  5
C556
102
{ACAD_REACTORS
330
C555
102
}
330
C555
100
AcDbXrecord
280
     1
102
RTVSPost2010Prop28
280
     0
102
RTVSPost2010PropOp28
 70
     1
102
RTVSPost2010Prop29
280
     1
102
RTVSPost2010PropOp29
 70
     1
102
RTVSPost2010Prop30
280
     1
102
RTVSPost2010PropOp30
 70
     1
102
RTVSPost2010Prop31
280
     0
102
RTVSPost2010PropOp31
 70
     1
102
RTVSPost2010Prop32
280
     0
102
RTVSPost2010PropOp32
 70
     1
102
RTVSPost2010Prop33
280
     0
102
RTVSPost2010PropOp33
 70
     1
102
RTVSPost2010Prop34
280
     0
102
RTVSPost2010PropOp34
 70
     1
102
RTVSPost2010Prop35
280
     0
102
RTVSPost2010PropOp35
 70
     1
102
RTVSPost2010Prop36
280
     0
102
RTVSPost2010PropOp36
 70
     1
102
RTVSPost2010Prop37
 90
       50
102
RTVSPost2010PropOp37
 70
     1
102
RTVSPost2010Prop38
140
0.0
102
RTVSPost2010PropOp38
 70
     1
102
RTVSPost2010Prop39
140
1.0
102
RTVSPost2010PropOp39
 70
     1
102
RTVSPost2010Prop40
 90
        0
102
RTVSPost2010PropOp40
 70
     1
102
RTVSPost2010Prop41ColorIndex
 90
       18
102
RTVSPost2010Prop41ColorRGB
 90
        0
102
RTVSPost2010PropOp41
 70
     1
102
RTVSPost2010Prop42
 90
       50
102
RTVSPost2010PropOp42
 70
     1
102
RTVSPost2010Prop43
 90
        3
102
RTVSPost2010PropOp43
 70
     1
102
RTVSPost2010Prop44ColorIndex
 90
        5
102
RTVSPost2010Prop44ColorRGB
 90
      255
102
RTVSPost2010PropOp44
 70
     1
102
RTVSPost2010Prop45
280
     0
102
RTVSPost2010PropOp45
 70
     1
102
RTVSPost2010Prop46
 90
       50
102
RTVSPost2010PropOp46
 70
     1
102
RTVSPost2010Prop47
 90
       50
102
RTVSPost2010PropOp47
 70
     1
102
RTVSPost2010Prop48
 90
       50
102
RTVSPost2010PropOp48
 70
     1
102
RTVSPost2010Prop49
280
     0
102
RTVSPost2010PropOp49
 70
     1
102
RTVSPost2010Prop50
 90
       50
102
RTVSPost2010PropOp50
 70
     1
102
RTVSPost2010Prop51ColorIndex
 90
      256
102
RTVSPost2010Prop51ColorRGB
 90
-16777216
102
RTVSPost2010PropOp51
 70
     0
102
RTVSPost2010Prop52
140
1.0
102
RTVSPost2010PropOp52
 70
     0
102
RTVSPost2010Prop53
 90
        2
102
RTVSPost2010PropOp53
 70
     1
102
RTVSPost2010Prop54
  1
strokes_ogs.tif
102
RTVSPost2010PropOp54
 70
     1
102
RTVSPost2010Prop55
280
     0
102
RTVSPost2010PropOp55
 70
     1
102
RTVSPost2010Prop56
140
1.0
102
RTVSPost2010PropOp56
 70
     1
102
RTVSPost2010Prop57
140
1.0
102
RTVSPost2010PropOp57
 70
     1
102
RTVSPropertyOp0
 70
     1
102
RTVSPropertyOp1
 70
     1
102
RTVSPropertyOp2
 70
     1
102
RTVSPropertyOp3
 70
     1
102
RTVSPropertyOp4
 70
     1
102
RTVSPropertyOp5
 70
     1
102
RTVSPropertyOp6
 70
     1
102
RTVSPropertyOp7
 70
     1
102
RTVSPropertyOp8
 70
     1
102
RTVSPropertyOp9
 70
     1
102
RTVSPropertyOp10
 70
     1
102
RTVSPropertyOp11
 70
     1
102
RTVSPropertyOp12
 70
     1
102
RTVSPropertyOp13
 70
     1
102
RTVSPropertyOp14
 70
     1
102
RTVSPropertyOp15
 70
     1
102
RTVSPropertyOp16
 70
     1
102
RTVSPropertyOp17
 70
     1
102
RTVSPropertyOp18
 70
     1
102
RTVSPropertyOp19
 70
     1
102
RTVSPropertyOp20
 70
     1
102
RTVSPropertyOp21
 70
     1
102
RTVSPropertyOp22
 70
     1
102
RTVSPropertyOp23
 70
     1
102
RTVSPropertyOp24
 70
     1
102
RTVSPropertyOp25
 70
     1
102
RTVSPropertyOp26
 70
     1
102
RTVSPropertyOp27
 70
     1
102
RTVSPropertyOp28
 70
     1
102
RTVSPropertyOp29
 70
     1
102
RTVSPropertyOp30
 70
     1
102
RTVSPropertyOp31
 70
     1
102
RTVSPropertyOp32
 70
     1
102
RTVSPropertyOp33
 70
     1
102
RTVSPropertyOp34
 70
     1
102
RTVSPropertyOp35
 70
     1
102
RTVSPropertyOp36
 70
     1
102
RTVSPropertyOp37
 70
     1
102
RTVSPropertyOp38
 70
     1
102
RTVSPropertyOp39
 70
     1
102
RTVSPropertyOp40
 70
     1
102
RTVSPropertyOp41
 70
     1
102
RTVSPropertyOp42
 70
     1
102
RTVSPropertyOp43
 70
     1
102
RTVSPropertyOp44
 70
     1
102
RTVSPropertyOp45
 70
     1
102
RTVSPropertyOp46
 70
     1
102
RTVSPropertyOp47
 70
     1
102
RTVSPropertyOp48
 70
     1
102
RTVSPropertyOp49
 70
     1
102
RTVSPropertyOp50
 70
     1
102
RTVSPropertyOp51
 70
     0
102
RTVSPropertyOp52
 70
     0
102
RTVSPropertyOp53
 70
     1
102
RTVSPropertyOp54
 70
     1
102
RTVSPropertyOp55
 70
     1
102
RTVSPropertyOp56
 70
     1
102
RTVSPropertyOp57
 70
     1
102
RTVSPropertyOp58
 70
     1
102
RTVSPropertyOp59
 70
     1
102
RTVSPropertyOp60
 70
     1
102
RTVSPropertyOp61
 70
     1
102
RTVSPropertyOp62
 70
     1
  0
XRECORD
  5
C548
102
{ACAD_REACTORS
330
C547
102
}
330
C547
100
AcDbXrecord
280
     1
102
RTVSPost2010Prop28
280
     0
102
RTVSPost2010PropOp28
 70
     1
102
RTVSPost2010Prop29
280
     1
102
RTVSPost2010PropOp29
 70
     1
102
RTVSPost2010Prop30
280
     1
102
RTVSPost2010PropOp30
 70
     1
102
RTVSPost2010Prop31
280
     0
102
RTVSPost2010PropOp31
 70
     1
102
RTVSPost2010Prop32
280
     0
102
RTVSPost2010PropOp32
 70
     1
102
RTVSPost2010Prop33
280
     0
102
RTVSPost2010PropOp33
 70
     1
102
RTVSPost2010Prop34
280
     0
102
RTVSPost2010PropOp34
 70
     1
102
RTVSPost2010Prop35
280
     0
102
RTVSPost2010PropOp35
 70
     1
102
RTVSPost2010Prop36
280
     0
102
RTVSPost2010PropOp36
 70
     1
102
RTVSPost2010Prop37
 90
       50
102
RTVSPost2010PropOp37
 70
     1
102
RTVSPost2010Prop38
140
0.0
102
RTVSPost2010PropOp38
 70
     1
102
RTVSPost2010Prop39
140
1.0
102
RTVSPost2010PropOp39
 70
     1
102
RTVSPost2010Prop40
 90
        0
102
RTVSPost2010PropOp40
 70
     1
102
RTVSPost2010Prop41ColorIndex
 90
       18
102
RTVSPost2010Prop41ColorRGB
 90
        0
102
RTVSPost2010PropOp41
 70
     1
102
RTVSPost2010Prop42
 90
       50
102
RTVSPost2010PropOp42
 70
     1
102
RTVSPost2010Prop43
 90
        3
102
RTVSPost2010PropOp43
 70
     1
102
RTVSPost2010Prop44ColorIndex
 90
        5
102
RTVSPost2010Prop44ColorRGB
 90
      255
102
RTVSPost2010PropOp44
 70
     1
102
RTVSPost2010Prop45
280
     0
102
RTVSPost2010PropOp45
 70
     1
102
RTVSPost2010Prop46
 90
       50
102
RTVSPost2010PropOp46
 70
     1
102
RTVSPost2010Prop47
 90
       50
102
RTVSPost2010PropOp47
 70
     1
102
RTVSPost2010Prop48
 90
       50
102
RTVSPost2010PropOp48
 70
     1
102
RTVSPost2010Prop49
280
     0
102
RTVSPost2010PropOp49
 70
     1
102
RTVSPost2010Prop50
 90
       50
102
RTVSPost2010PropOp50
 70
     1
102
RTVSPost2010Prop51ColorIndex
 90
      256
102
RTVSPost2010Prop51ColorRGB
 90
-16777216
102
RTVSPost2010PropOp51
 70
     0
102
RTVSPost2010Prop52
140
1.0
102
RTVSPost2010PropOp52
 70
     0
102
RTVSPost2010Prop53
 90
        2
102
RTVSPost2010PropOp53
 70
     1
102
RTVSPost2010Prop54
  1
strokes_ogs.tif
102
RTVSPost2010PropOp54
 70
     1
102
RTVSPost2010Prop55
280
     0
102
RTVSPost2010PropOp55
 70
     1
102
RTVSPost2010Prop56
140
1.0
102
RTVSPost2010PropOp56
 70
     1
102
RTVSPost2010Prop57
140
1.0
102
RTVSPost2010PropOp57
 70
     1
102
RTVSPropertyOp0
 70
     1
102
RTVSPropertyOp1
 70
     1
102
RTVSPropertyOp2
 70
     1
102
RTVSPropertyOp3
 70
     1
102
RTVSPropertyOp4
 70
     1
102
RTVSPropertyOp5
 70
     1
102
RTVSPropertyOp6
 70
     1
102
RTVSPropertyOp7
 70
     1
102
RTVSPropertyOp8
 70
     1
102
RTVSPropertyOp9
 70
     1
102
RTVSPropertyOp10
 70
     1
102
RTVSPropertyOp11
 70
     1
102
RTVSPropertyOp12
 70
     1
102
RTVSPropertyOp13
 70
     1
102
RTVSPropertyOp14
 70
     1
102
RTVSPropertyOp15
 70
     1
102
RTVSPropertyOp16
 70
     1
102
RTVSPropertyOp17
 70
     1
102
RTVSPropertyOp18
 70
     1
102
RTVSPropertyOp19
 70
     1
102
RTVSPropertyOp20
 70
     1
102
RTVSPropertyOp21
 70
     1
102
RTVSPropertyOp22
 70
     1
102
RTVSPropertyOp23
 70
     1
102
RTVSPropertyOp24
 70
     1
102
RTVSPropertyOp25
 70
     1
102
RTVSPropertyOp26
 70
     1
102
RTVSPropertyOp27
 70
     1
102
RTVSPropertyOp28
 70
     1
102
RTVSPropertyOp29
 70
     1
102
RTVSPropertyOp30
 70
     1
102
RTVSPropertyOp31
 70
     1
102
RTVSPropertyOp32
 70
     1
102
RTVSPropertyOp33
 70
     1
102
RTVSPropertyOp34
 70
     1
102
RTVSPropertyOp35
 70
     1
102
RTVSPropertyOp36
 70
     1
102
RTVSPropertyOp37
 70
     1
102
RTVSPropertyOp38
 70
     1
102
RTVSPropertyOp39
 70
     1
102
RTVSPropertyOp40
 70
     1
102
RTVSPropertyOp41
 70
     1
102
RTVSPropertyOp42
 70
     1
102
RTVSPropertyOp43
 70
     1
102
RTVSPropertyOp44
 70
     1
102
RTVSPropertyOp45
 70
     1
102
RTVSPropertyOp46
 70
     1
102
RTVSPropertyOp47
 70
     1
102
RTVSPropertyOp48
 70
     1
102
RTVSPropertyOp49
 70
     1
102
RTVSPropertyOp50
 70
     1
102
RTVSPropertyOp51
 70
     0
102
RTVSPropertyOp52
 70
     0
102
RTVSPropertyOp53
 70
     1
102
RTVSPropertyOp54
 70
     1
102
RTVSPropertyOp55
 70
     1
102
RTVSPropertyOp56
 70
     1
102
RTVSPropertyOp57
 70
     1
102
RTVSPropertyOp58
 70
     1
102
RTVSPropertyOp59
 70
     1
102
RTVSPropertyOp60
 70
     1
102
RTVSPropertyOp61
 70
     1
102
RTVSPropertyOp62
 70
     1
  0
XRECORD
  5
C54C
102
{ACAD_REACTORS
330
C54B
102
}
330
C54B
100
AcDbXrecord
280
     1
102
RTVSPost2010Prop28
280
     0
102
RTVSPost2010PropOp28
 70
     1
102
RTVSPost2010Prop29
280
     1
102
RTVSPost2010PropOp29
 70
     1
102
RTVSPost2010Prop30
280
     1
102
RTVSPost2010PropOp30
 70
     1
102
RTVSPost2010Prop31
280
     0
102
RTVSPost2010PropOp31
 70
     1
102
RTVSPost2010Prop32
280
     0
102
RTVSPost2010PropOp32
 70
     1
102
RTVSPost2010Prop33
280
     0
102
RTVSPost2010PropOp33
 70
     1
102
RTVSPost2010Prop34
280
     0
102
RTVSPost2010PropOp34
 70
     1
102
RTVSPost2010Prop35
280
     0
102
RTVSPost2010PropOp35
 70
     1
102
RTVSPost2010Prop36
280
     0
102
RTVSPost2010PropOp36
 70
     1
102
RTVSPost2010Prop37
 90
       50
102
RTVSPost2010PropOp37
 70
     1
102
RTVSPost2010Prop38
140
0.0
102
RTVSPost2010PropOp38
 70
     1
102
RTVSPost2010Prop39
140
1.0
102
RTVSPost2010PropOp39
 70
     1
102
RTVSPost2010Prop40
 90
        0
102
RTVSPost2010PropOp40
 70
     1
102
RTVSPost2010Prop41ColorIndex
 90
       18
102
RTVSPost2010Prop41ColorRGB
 90
        0
102
RTVSPost2010PropOp41
 70
     1
102
RTVSPost2010Prop42
 90
       50
102
RTVSPost2010PropOp42
 70
     1
102
RTVSPost2010Prop43
 90
        3
102
RTVSPost2010PropOp43
 70
     1
102
RTVSPost2010Prop44ColorIndex
 90
        5
102
RTVSPost2010Prop44ColorRGB
 90
      255
102
RTVSPost2010PropOp44
 70
     1
102
RTVSPost2010Prop45
280
     0
102
RTVSPost2010PropOp45
 70
     1
102
RTVSPost2010Prop46
 90
       50
102
RTVSPost2010PropOp46
 70
     1
102
RTVSPost2010Prop47
 90
       50
102
RTVSPost2010PropOp47
 70
     1
102
RTVSPost2010Prop48
 90
       50
102
RTVSPost2010PropOp48
 70
     1
102
RTVSPost2010Prop49
280
     0
102
RTVSPost2010PropOp49
 70
     1
102
RTVSPost2010Prop50
 90
       50
102
RTVSPost2010PropOp50
 70
     1
102
RTVSPost2010Prop51ColorIndex
 90
      256
102
RTVSPost2010Prop51ColorRGB
 90
-16777216
102
RTVSPost2010PropOp51
 70
     0
102
RTVSPost2010Prop52
140
1.0
102
RTVSPost2010PropOp52
 70
     0
102
RTVSPost2010Prop53
 90
        2
102
RTVSPost2010PropOp53
 70
     1
102
RTVSPost2010Prop54
  1
strokes_ogs.tif
102
RTVSPost2010PropOp54
 70
     1
102
RTVSPost2010Prop55
280
     0
102
RTVSPost2010PropOp55
 70
     1
102
RTVSPost2010Prop56
140
1.0
102
RTVSPost2010PropOp56
 70
     1
102
RTVSPost2010Prop57
140
1.0
102
RTVSPost2010PropOp57
 70
     1
102
RTVSPropertyOp0
 70
     1
102
RTVSPropertyOp1
 70
     1
102
RTVSPropertyOp2
 70
     1
102
RTVSPropertyOp3
 70
     1
102
RTVSPropertyOp4
 70
     1
102
RTVSPropertyOp5
 70
     1
102
RTVSPropertyOp6
 70
     1
102
RTVSPropertyOp7
 70
     1
102
RTVSPropertyOp8
 70
     1
102
RTVSPropertyOp9
 70
     1
102
RTVSPropertyOp10
 70
     1
102
RTVSPropertyOp11
 70
     1
102
RTVSPropertyOp12
 70
     1
102
RTVSPropertyOp13
 70
     1
102
RTVSPropertyOp14
 70
     1
102
RTVSPropertyOp15
 70
     1
102
RTVSPropertyOp16
 70
     1
102
RTVSPropertyOp17
 70
     1
102
RTVSPropertyOp18
 70
     1
102
RTVSPropertyOp19
 70
     1
102
RTVSPropertyOp20
 70
     1
102
RTVSPropertyOp21
 70
     1
102
RTVSPropertyOp22
 70
     1
102
RTVSPropertyOp23
 70
     1
102
RTVSPropertyOp24
 70
     1
102
RTVSPropertyOp25
 70
     1
102
RTVSPropertyOp26
 70
     1
102
RTVSPropertyOp27
 70
     1
102
RTVSPropertyOp28
 70
     1
102
RTVSPropertyOp29
 70
     1
102
RTVSPropertyOp30
 70
     1
102
RTVSPropertyOp31
 70
     1
102
RTVSPropertyOp32
 70
     1
102
RTVSPropertyOp33
 70
     1
102
RTVSPropertyOp34
 70
     1
102
RTVSPropertyOp35
 70
     1
102
RTVSPropertyOp36
 70
     1
102
RTVSPropertyOp37
 70
     1
102
RTVSPropertyOp38
 70
     1
102
RTVSPropertyOp39
 70
     1
102
RTVSPropertyOp40
 70
     1
102
RTVSPropertyOp41
 70
     1
102
RTVSPropertyOp42
 70
     1
102
RTVSPropertyOp43
 70
     1
102
RTVSPropertyOp44
 70
     1
102
RTVSPropertyOp45
 70
     1
102
RTVSPropertyOp46
 70
     1
102
RTVSPropertyOp47
 70
     1
102
RTVSPropertyOp48
 70
     1
102
RTVSPropertyOp49
 70
     1
102
RTVSPropertyOp50
 70
     1
102
RTVSPropertyOp51
 70
     0
102
RTVSPropertyOp52
 70
     0
102
RTVSPropertyOp53
 70
     1
102
RTVSPropertyOp54
 70
     1
102
RTVSPropertyOp55
 70
     1
102
RTVSPropertyOp56
 70
     1
102
RTVSPropertyOp57
 70
     1
102
RTVSPropertyOp58
 70
     1
102
RTVSPropertyOp59
 70
     1
102
RTVSPropertyOp60
 70
     1
102
RTVSPropertyOp61
 70
     1
102
RTVSPropertyOp62
 70
     1
  0
XRECORD
  5
C566
102
{ACAD_REACTORS
330
C565
102
}
330
C565
100
AcDbXrecord
280
     1
102
RTVSPost2010Prop28
280
     0
102
RTVSPost2010PropOp28
 70
     1
102
RTVSPost2010Prop29
280
     1
102
RTVSPost2010PropOp29
 70
     1
102
RTVSPost2010Prop30
280
     1
102
RTVSPost2010PropOp30
 70
     1
102
RTVSPost2010Prop31
280
     0
102
RTVSPost2010PropOp31
 70
     1
102
RTVSPost2010Prop32
280
     0
102
RTVSPost2010PropOp32
 70
     1
102
RTVSPost2010Prop33
280
     0
102
RTVSPost2010PropOp33
 70
     1
102
RTVSPost2010Prop34
280
     0
102
RTVSPost2010PropOp34
 70
     1
102
RTVSPost2010Prop35
280
     0
102
RTVSPost2010PropOp35
 70
     1
102
RTVSPost2010Prop36
280
     0
102
RTVSPost2010PropOp36
 70
     1
102
RTVSPost2010Prop37
 90
       50
102
RTVSPost2010PropOp37
 70
     0
102
RTVSPost2010Prop38
140
0.0
102
RTVSPost2010PropOp38
 70
     0
102
RTVSPost2010Prop39
140
1.0
102
RTVSPost2010PropOp39
 70
     0
102
RTVSPost2010Prop40
 90
        0
102
RTVSPost2010PropOp40
 70
     0
102
RTVSPost2010Prop41ColorIndex
 90
       18
102
RTVSPost2010Prop41ColorRGB
 90
        0
102
RTVSPost2010PropOp41
 70
     0
102
RTVSPost2010Prop42
 90
       50
102
RTVSPost2010PropOp42
 70
     0
102
RTVSPost2010Prop43
 90
        3
102
RTVSPost2010PropOp43
 70
     0
102
RTVSPost2010Prop44ColorIndex
 90
        5
102
RTVSPost2010Prop44ColorRGB
 90
      255
102
RTVSPost2010PropOp44
 70
     0
102
RTVSPost2010Prop45
280
     0
102
RTVSPost2010PropOp45
 70
     1
102
RTVSPost2010Prop46
 90
       50
102
RTVSPost2010PropOp46
 70
     0
102
RTVSPost2010Prop47
 90
       50
102
RTVSPost2010PropOp47
 70
     0
102
RTVSPost2010Prop48
 90
       50
102
RTVSPost2010PropOp48
 70
     0
102
RTVSPost2010Prop49
280
     0
102
RTVSPost2010PropOp49
 70
     1
102
RTVSPost2010Prop50
 90
       50
102
RTVSPost2010PropOp50
 70
     0
102
RTVSPost2010Prop51ColorIndex
 90
      256
102
RTVSPost2010Prop51ColorRGB
 90
-16777216
102
RTVSPost2010PropOp51
 70
     0
102
RTVSPost2010Prop52
140
1.0
102
RTVSPost2010PropOp52
 70
     0
102
RTVSPost2010Prop53
 90
        2
102
RTVSPost2010PropOp53
 70
     0
102
RTVSPost2010Prop54
  1
strokes_ogs.tif
102
RTVSPost2010PropOp54
 70
     0
102
RTVSPost2010Prop55
280
     0
102
RTVSPost2010PropOp55
 70
     1
102
RTVSPost2010Prop56
140
1.0
102
RTVSPost2010PropOp56
 70
     0
102
RTVSPost2010Prop57
140
1.0
102
RTVSPost2010PropOp57
 70
     0
102
RTVSPropertyOp0
 70
     0
102
RTVSPropertyOp1
 70
     0
102
RTVSPropertyOp2
 70
     0
102
RTVSPropertyOp3
 70
     0
102
RTVSPropertyOp4
 70
     0
102
RTVSPropertyOp5
 70
     0
102
RTVSPropertyOp6
 70
     0
102
RTVSPropertyOp7
 70
     0
102
RTVSPropertyOp8
 70
     0
102
RTVSPropertyOp9
 70
     0
102
RTVSPropertyOp10
 70
     0
102
RTVSPropertyOp11
 70
     0
102
RTVSPropertyOp12
 70
     0
102
RTVSPropertyOp13
 70
     0
102
RTVSPropertyOp14
 70
     2
102
RTVSPropertyOp15
 70
     0
102
RTVSPropertyOp16
 70
     0
102
RTVSPropertyOp17
 70
     0
102
RTVSPropertyOp18
 70
     0
102
RTVSPropertyOp19
 70
     0
102
RTVSPropertyOp20
 70
     0
102
RTVSPropertyOp21
 70
     0
102
RTVSPropertyOp22
 70
     0
102
RTVSPropertyOp23
 70
     0
102
RTVSPropertyOp24
 70
     0
102
RTVSPropertyOp25
 70
     0
102
RTVSPropertyOp26
 70
     0
102
RTVSPropertyOp27
 70
     0
102
RTVSPropertyOp28
 70
     1
102
RTVSPropertyOp29
 70
     1
102
RTVSPropertyOp30
 70
     1
102
RTVSPropertyOp31
 70
     1
102
RTVSPropertyOp32
 70
     1
102
RTVSPropertyOp33
 70
     1
102
RTVSPropertyOp34
 70
     1
102
RTVSPropertyOp35
 70
     1
102
RTVSPropertyOp36
 70
     1
102
RTVSPropertyOp37
 70
     0
102
RTVSPropertyOp38
 70
     0
102
RTVSPropertyOp39
 70
     0
102
RTVSPropertyOp40
 70
     0
102
RTVSPropertyOp41
 70
     0
102
RTVSPropertyOp42
 70
     0
102
RTVSPropertyOp43
 70
     0
102
RTVSPropertyOp44
 70
     0
102
RTVSPropertyOp45
 70
     1
102
RTVSPropertyOp46
 70
     0
102
RTVSPropertyOp47
 70
     0
102
RTVSPropertyOp48
 70
     0
102
RTVSPropertyOp49
 70
     1
102
RTVSPropertyOp50
 70
     0
102
RTVSPropertyOp51
 70
     0
102
RTVSPropertyOp52
 70
     0
102
RTVSPropertyOp53
 70
     0
102
RTVSPropertyOp54
 70
     0
102
RTVSPropertyOp55
 70
     1
102
RTVSPropertyOp56
 70
     0
102
RTVSPropertyOp57
 70
     0
102
RTVSPropertyOp58
 70
     0
102
RTVSPropertyOp59
 70
     0
102
RTVSPropertyOp60
 70
     0
102
RTVSPropertyOp61
 70
     0
102
RTVSPropertyOp62
 70
     0
  0
XRECORD
  5
C554
102
{ACAD_REACTORS
330
C553
102
}
330
C553
100
AcDbXrecord
280
     1
102
RTVSPost2010Prop28
280
     0
102
RTVSPost2010PropOp28
 70
     1
102
RTVSPost2010Prop29
280
     1
102
RTVSPost2010PropOp29
 70
     1
102
RTVSPost2010Prop30
280
     1
102
RTVSPost2010PropOp30
 70
     1
102
RTVSPost2010Prop31
280
     0
102
RTVSPost2010PropOp31
 70
     1
102
RTVSPost2010Prop32
280
     0
102
RTVSPost2010PropOp32
 70
     1
102
RTVSPost2010Prop33
280
     0
102
RTVSPost2010PropOp33
 70
     1
102
RTVSPost2010Prop34
280
     0
102
RTVSPost2010PropOp34
 70
     1
102
RTVSPost2010Prop35
280
     0
102
RTVSPost2010PropOp35
 70
     1
102
RTVSPost2010Prop36
280
     0
102
RTVSPost2010PropOp36
 70
     1
102
RTVSPost2010Prop37
 90
       50
102
RTVSPost2010PropOp37
 70
     1
102
RTVSPost2010Prop38
140
0.0
102
RTVSPost2010PropOp38
 70
     1
102
RTVSPost2010Prop39
140
1.0
102
RTVSPost2010PropOp39
 70
     1
102
RTVSPost2010Prop40
 90
        0
102
RTVSPost2010PropOp40
 70
     1
102
RTVSPost2010Prop41ColorIndex
 90
       18
102
RTVSPost2010Prop41ColorRGB
 90
        0
102
RTVSPost2010PropOp41
 70
     1
102
RTVSPost2010Prop42
 90
       50
102
RTVSPost2010PropOp42
 70
     1
102
RTVSPost2010Prop43
 90
        3
102
RTVSPost2010PropOp43
 70
     1
102
RTVSPost2010Prop44ColorIndex
 90
        5
102
RTVSPost2010Prop44ColorRGB
 90
      255
102
RTVSPost2010PropOp44
 70
     1
102
RTVSPost2010Prop45
280
     0
102
RTVSPost2010PropOp45
 70
     1
102
RTVSPost2010Prop46
 90
       50
102
RTVSPost2010PropOp46
 70
     1
102
RTVSPost2010Prop47
 90
       50
102
RTVSPost2010PropOp47
 70
     1
102
RTVSPost2010Prop48
 90
       50
102
RTVSPost2010PropOp48
 70
     1
102
RTVSPost2010Prop49
280
     0
102
RTVSPost2010PropOp49
 70
     1
102
RTVSPost2010Prop50
 90
       50
102
RTVSPost2010PropOp50
 70
     1
102
RTVSPost2010Prop51ColorIndex
 90
      256
102
RTVSPost2010Prop51ColorRGB
 90
-16777216
102
RTVSPost2010PropOp51
 70
     0
102
RTVSPost2010Prop52
140
1.0
102
RTVSPost2010PropOp52
 70
     0
102
RTVSPost2010Prop53
 90
        2
102
RTVSPost2010PropOp53
 70
     1
102
RTVSPost2010Prop54
  1
strokes_ogs.tif
102
RTVSPost2010PropOp54
 70
     1
102
RTVSPost2010Prop55
280
     0
102
RTVSPost2010PropOp55
 70
     1
102
RTVSPost2010Prop56
140
1.0
102
RTVSPost2010PropOp56
 70
     1
102
RTVSPost2010Prop57
140
1.0
102
RTVSPost2010PropOp57
 70
     1
102
RTVSPropertyOp0
 70
     1
102
RTVSPropertyOp1
 70
     1
102
RTVSPropertyOp2
 70
     1
102
RTVSPropertyOp3
 70
     1
102
RTVSPropertyOp4
 70
     1
102
RTVSPropertyOp5
 70
     1
102
RTVSPropertyOp6
 70
     1
102
RTVSPropertyOp7
 70
     1
102
RTVSPropertyOp8
 70
     1
102
RTVSPropertyOp9
 70
     1
102
RTVSPropertyOp10
 70
     1
102
RTVSPropertyOp11
 70
     1
102
RTVSPropertyOp12
 70
     1
102
RTVSPropertyOp13
 70
     1
102
RTVSPropertyOp14
 70
     1
102
RTVSPropertyOp15
 70
     1
102
RTVSPropertyOp16
 70
     1
102
RTVSPropertyOp17
 70
     1
102
RTVSPropertyOp18
 70
     1
102
RTVSPropertyOp19
 70
     1
102
RTVSPropertyOp20
 70
     1
102
RTVSPropertyOp21
 70
     1
102
RTVSPropertyOp22
 70
     1
102
RTVSPropertyOp23
 70
     1
102
RTVSPropertyOp24
 70
     1
102
RTVSPropertyOp25
 70
     1
102
RTVSPropertyOp26
 70
     1
102
RTVSPropertyOp27
 70
     1
102
RTVSPropertyOp28
 70
     1
102
RTVSPropertyOp29
 70
     1
102
RTVSPropertyOp30
 70
     1
102
RTVSPropertyOp31
 70
     1
102
RTVSPropertyOp32
 70
     1
102
RTVSPropertyOp33
 70
     1
102
RTVSPropertyOp34
 70
     1
102
RTVSPropertyOp35
 70
     1
102
RTVSPropertyOp36
 70
     1
102
RTVSPropertyOp37
 70
     1
102
RTVSPropertyOp38
 70
     1
102
RTVSPropertyOp39
 70
     1
102
RTVSPropertyOp40
 70
     1
102
RTVSPropertyOp41
 70
     1
102
RTVSPropertyOp42
 70
     1
102
RTVSPropertyOp43
 70
     1
102
RTVSPropertyOp44
 70
     1
102
RTVSPropertyOp45
 70
     1
102
RTVSPropertyOp46
 70
     1
102
RTVSPropertyOp47
 70
     1
102
RTVSPropertyOp48
 70
     1
102
RTVSPropertyOp49
 70
     1
102
RTVSPropertyOp50
 70
     1
102
RTVSPropertyOp51
 70
     0
102
RTVSPropertyOp52
 70
     0
102
RTVSPropertyOp53
 70
     1
102
RTVSPropertyOp54
 70
     1
102
RTVSPropertyOp55
 70
     1
102
RTVSPropertyOp56
 70
     1
102
RTVSPropertyOp57
 70
     1
102
RTVSPropertyOp58
 70
     1
102
RTVSPropertyOp59
 70
     1
102
RTVSPropertyOp60
 70
     1
102
RTVSPropertyOp61
 70
     1
102
RTVSPropertyOp62
 70
     1
  0
XRECORD
  5
C538
102
{ACAD_REACTORS
330
C537
102
}
330
C537
100
AcDbXrecord
280
     1
102
RTVSPost2010Prop28
280
     0
102
RTVSPost2010PropOp28
 70
     1
102
RTVSPost2010Prop29
280
     1
102
RTVSPost2010PropOp29
 70
     1
102
RTVSPost2010Prop30
280
     1
102
RTVSPost2010PropOp30
 70
     1
102
RTVSPost2010Prop31
280
     0
102
RTVSPost2010PropOp31
 70
     1
102
RTVSPost2010Prop32
280
     0
102
RTVSPost2010PropOp32
 70
     1
102
RTVSPost2010Prop33
280
     0
102
RTVSPost2010PropOp33
 70
     1
102
RTVSPost2010Prop34
280
     0
102
RTVSPost2010PropOp34
 70
     1
102
RTVSPost2010Prop35
280
     0
102
RTVSPost2010PropOp35
 70
     1
102
RTVSPost2010Prop36
280
     0
102
RTVSPost2010PropOp36
 70
     1
102
RTVSPost2010Prop37
 90
       50
102
RTVSPost2010PropOp37
 70
     1
102
RTVSPost2010Prop38
140
0.0
102
RTVSPost2010PropOp38
 70
     1
102
RTVSPost2010Prop39
140
1.0
102
RTVSPost2010PropOp39
 70
     1
102
RTVSPost2010Prop40
 90
        0
102
RTVSPost2010PropOp40
 70
     1
102
RTVSPost2010Prop41ColorIndex
 90
       18
102
RTVSPost2010Prop41ColorRGB
 90
        0
102
RTVSPost2010PropOp41
 70
     1
102
RTVSPost2010Prop42
 90
       50
102
RTVSPost2010PropOp42
 70
     1
102
RTVSPost2010Prop43
 90
        3
102
RTVSPost2010PropOp43
 70
     1
102
RTVSPost2010Prop44ColorIndex
 90
        5
102
RTVSPost2010Prop44ColorRGB
 90
      255
102
RTVSPost2010PropOp44
 70
     1
102
RTVSPost2010Prop45
280
     0
102
RTVSPost2010PropOp45
 70
     1
102
RTVSPost2010Prop46
 90
       50
102
RTVSPost2010PropOp46
 70
     1
102
RTVSPost2010Prop47
 90
       50
102
RTVSPost2010PropOp47
 70
     1
102
RTVSPost2010Prop48
 90
       50
102
RTVSPost2010PropOp48
 70
     1
102
RTVSPost2010Prop49
280
     0
102
RTVSPost2010PropOp49
 70
     1
102
RTVSPost2010Prop50
 90
       50
102
RTVSPost2010PropOp50
 70
     1
102
RTVSPost2010Prop51ColorIndex
 90
      256
102
RTVSPost2010Prop51ColorRGB
 90
-16777216
102
RTVSPost2010PropOp51
 70
     0
102
RTVSPost2010Prop52
140
1.0
102
RTVSPost2010PropOp52
 70
     0
102
RTVSPost2010Prop53
 90
        2
102
RTVSPost2010PropOp53
 70
     1
102
RTVSPost2010Prop54
  1
strokes_ogs.tif
102
RTVSPost2010PropOp54
 70
     1
102
RTVSPost2010Prop55
280
     0
102
RTVSPost2010PropOp55
 70
     1
102
RTVSPost2010Prop56
140
1.0
102
RTVSPost2010PropOp56
 70
     1
102
RTVSPost2010Prop57
140
1.0
102
RTVSPost2010PropOp57
 70
     1
102
RTVSPropertyOp0
 70
     1
102
RTVSPropertyOp1
 70
     1
102
RTVSPropertyOp2
 70
     1
102
RTVSPropertyOp3
 70
     1
102
RTVSPropertyOp4
 70
     1
102
RTVSPropertyOp5
 70
     1
102
RTVSPropertyOp6
 70
     1
102
RTVSPropertyOp7
 70
     1
102
RTVSPropertyOp8
 70
     1
102
RTVSPropertyOp9
 70
     1
102
RTVSPropertyOp10
 70
     1
102
RTVSPropertyOp11
 70
     1
102
RTVSPropertyOp12
 70
     1
102
RTVSPropertyOp13
 70
     1
102
RTVSPropertyOp14
 70
     1
102
RTVSPropertyOp15
 70
     1
102
RTVSPropertyOp16
 70
     1
102
RTVSPropertyOp17
 70
     1
102
RTVSPropertyOp18
 70
     1
102
RTVSPropertyOp19
 70
     1
102
RTVSPropertyOp20
 70
     1
102
RTVSPropertyOp21
 70
     1
102
RTVSPropertyOp22
 70
     1
102
RTVSPropertyOp23
 70
     1
102
RTVSPropertyOp24
 70
     1
102
RTVSPropertyOp25
 70
     1
102
RTVSPropertyOp26
 70
     1
102
RTVSPropertyOp27
 70
     1
102
RTVSPropertyOp28
 70
     1
102
RTVSPropertyOp29
 70
     1
102
RTVSPropertyOp30
 70
     1
102
RTVSPropertyOp31
 70
     1
102
RTVSPropertyOp32
 70
     1
102
RTVSPropertyOp33
 70
     1
102
RTVSPropertyOp34
 70
     1
102
RTVSPropertyOp35
 70
     1
102
RTVSPropertyOp36
 70
     1
102
RTVSPropertyOp37
 70
     1
102
RTVSPropertyOp38
 70
     1
102
RTVSPropertyOp39
 70
     1
102
RTVSPropertyOp40
 70
     1
102
RTVSPropertyOp41
 70
     1
102
RTVSPropertyOp42
 70
     1
102
RTVSPropertyOp43
 70
     1
102
RTVSPropertyOp44
 70
     1
102
RTVSPropertyOp45
 70
     1
102
RTVSPropertyOp46
 70
     1
102
RTVSPropertyOp47
 70
     1
102
RTVSPropertyOp48
 70
     1
102
RTVSPropertyOp49
 70
     1
102
RTVSPropertyOp50
 70
     1
102
RTVSPropertyOp51
 70
     0
102
RTVSPropertyOp52
 70
     0
102
RTVSPropertyOp53
 70
     1
102
RTVSPropertyOp54
 70
     1
102
RTVSPropertyOp55
 70
     1
102
RTVSPropertyOp56
 70
     1
102
RTVSPropertyOp57
 70
     1
102
RTVSPropertyOp58
 70
     1
102
RTVSPropertyOp59
 70
     1
102
RTVSPropertyOp60
 70
     1
102
RTVSPropertyOp61
 70
     1
102
RTVSPropertyOp62
 70
     1
  0
XRECORD
  5
C53A
102
{ACAD_REACTORS
330
C539
102
}
330
C539
100
AcDbXrecord
280
     1
102
RTVSPost2010Prop28
280
     0
102
RTVSPost2010PropOp28
 70
     1
102
RTVSPost2010Prop29
280
     1
102
RTVSPost2010PropOp29
 70
     1
102
RTVSPost2010Prop30
280
     1
102
RTVSPost2010PropOp30
 70
     1
102
RTVSPost2010Prop31
280
     0
102
RTVSPost2010PropOp31
 70
     1
102
RTVSPost2010Prop32
280
     0
102
RTVSPost2010PropOp32
 70
     1
102
RTVSPost2010Prop33
280
     0
102
RTVSPost2010PropOp33
 70
     1
102
RTVSPost2010Prop34
280
     0
102
RTVSPost2010PropOp34
 70
     1
102
RTVSPost2010Prop35
280
     0
102
RTVSPost2010PropOp35
 70
     1
102
RTVSPost2010Prop36
280
     0
102
RTVSPost2010PropOp36
 70
     1
102
RTVSPost2010Prop37
 90
       50
102
RTVSPost2010PropOp37
 70
     1
102
RTVSPost2010Prop38
140
0.0
102
RTVSPost2010PropOp38
 70
     1
102
RTVSPost2010Prop39
140
1.0
102
RTVSPost2010PropOp39
 70
     1
102
RTVSPost2010Prop40
 90
        0
102
RTVSPost2010PropOp40
 70
     1
102
RTVSPost2010Prop41ColorIndex
 90
       18
102
RTVSPost2010Prop41ColorRGB
 90
        0
102
RTVSPost2010PropOp41
 70
     1
102
RTVSPost2010Prop42
 90
       50
102
RTVSPost2010PropOp42
 70
     1
102
RTVSPost2010Prop43
 90
        3
102
RTVSPost2010PropOp43
 70
     1
102
RTVSPost2010Prop44ColorIndex
 90
        5
102
RTVSPost2010Prop44ColorRGB
 90
      255
102
RTVSPost2010PropOp44
 70
     1
102
RTVSPost2010Prop45
280
     0
102
RTVSPost2010PropOp45
 70
     1
102
RTVSPost2010Prop46
 90
       50
102
RTVSPost2010PropOp46
 70
     1
102
RTVSPost2010Prop47
 90
       50
102
RTVSPost2010PropOp47
 70
     1
102
RTVSPost2010Prop48
 90
       50
102
RTVSPost2010PropOp48
 70
     1
102
RTVSPost2010Prop49
280
     0
102
RTVSPost2010PropOp49
 70
     1
102
RTVSPost2010Prop50
 90
       50
102
RTVSPost2010PropOp50
 70
     1
102
RTVSPost2010Prop51ColorIndex
 90
      256
102
RTVSPost2010Prop51ColorRGB
 90
-16777216
102
RTVSPost2010PropOp51
 70
     0
102
RTVSPost2010Prop52
140
1.0
102
RTVSPost2010PropOp52
 70
     0
102
RTVSPost2010Prop53
 90
        2
102
RTVSPost2010PropOp53
 70
     1
102
RTVSPost2010Prop54
  1
strokes_ogs.tif
102
RTVSPost2010PropOp54
 70
     1
102
RTVSPost2010Prop55
280
     0
102
RTVSPost2010PropOp55
 70
     1
102
RTVSPost2010Prop56
140
1.0
102
RTVSPost2010PropOp56
 70
     1
102
RTVSPost2010Prop57
140
1.0
102
RTVSPost2010PropOp57
 70
     1
102
RTVSPropertyOp0
 70
     1
102
RTVSPropertyOp1
 70
     1
102
RTVSPropertyOp2
 70
     1
102
RTVSPropertyOp3
 70
     1
102
RTVSPropertyOp4
 70
     1
102
RTVSPropertyOp5
 70
     1
102
RTVSPropertyOp6
 70
     1
102
RTVSPropertyOp7
 70
     1
102
RTVSPropertyOp8
 70
     1
102
RTVSPropertyOp9
 70
     1
102
RTVSPropertyOp10
 70
     1
102
RTVSPropertyOp11
 70
     1
102
RTVSPropertyOp12
 70
     1
102
RTVSPropertyOp13
 70
     1
102
RTVSPropertyOp14
 70
     1
102
RTVSPropertyOp15
 70
     1
102
RTVSPropertyOp16
 70
     1
102
RTVSPropertyOp17
 70
     1
102
RTVSPropertyOp18
 70
     1
102
RTVSPropertyOp19
 70
     1
102
RTVSPropertyOp20
 70
     1
102
RTVSPropertyOp21
 70
     1
102
RTVSPropertyOp22
 70
     1
102
RTVSPropertyOp23
 70
     1
102
RTVSPropertyOp24
 70
     1
102
RTVSPropertyOp25
 70
     1
102
RTVSPropertyOp26
 70
     1
102
RTVSPropertyOp27
 70
     1
102
RTVSPropertyOp28
 70
     1
102
RTVSPropertyOp29
 70
     1
102
RTVSPropertyOp30
 70
     1
102
RTVSPropertyOp31
 70
     1
102
RTVSPropertyOp32
 70
     1
102
RTVSPropertyOp33
 70
     1
102
RTVSPropertyOp34
 70
     1
102
RTVSPropertyOp35
 70
     1
102
RTVSPropertyOp36
 70
     1
102
RTVSPropertyOp37
 70
     1
102
RTVSPropertyOp38
 70
     1
102
RTVSPropertyOp39
 70
     1
102
RTVSPropertyOp40
 70
     1
102
RTVSPropertyOp41
 70
     1
102
RTVSPropertyOp42
 70
     1
102
RTVSPropertyOp43
 70
     1
102
RTVSPropertyOp44
 70
     1
102
RTVSPropertyOp45
 70
     1
102
RTVSPropertyOp46
 70
     1
102
RTVSPropertyOp47
 70
     1
102
RTVSPropertyOp48
 70
     1
102
RTVSPropertyOp49
 70
     1
102
RTVSPropertyOp50
 70
     1
102
RTVSPropertyOp51
 70
     0
102
RTVSPropertyOp52
 70
     0
102
RTVSPropertyOp53
 70
     1
102
RTVSPropertyOp54
 70
     1
102
RTVSPropertyOp55
 70
     1
102
RTVSPropertyOp56
 70
     1
102
RTVSPropertyOp57
 70
     1
102
RTVSPropertyOp58
 70
     1
102
RTVSPropertyOp59
 70
     1
102
RTVSPropertyOp60
 70
     1
102
RTVSPropertyOp61
 70
     1
102
RTVSPropertyOp62
 70
     1
  0
XRECORD
  5
C53C
102
{ACAD_REACTORS
330
C53B
102
}
330
C53B
100
AcDbXrecord
280
     1
102
RTVSPost2010Prop28
280
     0
102
RTVSPost2010PropOp28
 70
     1
102
RTVSPost2010Prop29
280
     1
102
RTVSPost2010PropOp29
 70
     1
102
RTVSPost2010Prop30
280
     1
102
RTVSPost2010PropOp30
 70
     1
102
RTVSPost2010Prop31
280
     0
102
RTVSPost2010PropOp31
 70
     1
102
RTVSPost2010Prop32
280
     0
102
RTVSPost2010PropOp32
 70
     1
102
RTVSPost2010Prop33
280
     0
102
RTVSPost2010PropOp33
 70
     1
102
RTVSPost2010Prop34
280
     0
102
RTVSPost2010PropOp34
 70
     1
102
RTVSPost2010Prop35
280
     0
102
RTVSPost2010PropOp35
 70
     1
102
RTVSPost2010Prop36
280
     0
102
RTVSPost2010PropOp36
 70
     1
102
RTVSPost2010Prop37
 90
       50
102
RTVSPost2010PropOp37
 70
     1
102
RTVSPost2010Prop38
140
0.0
102
RTVSPost2010PropOp38
 70
     1
102
RTVSPost2010Prop39
140
1.0
102
RTVSPost2010PropOp39
 70
     1
102
RTVSPost2010Prop40
 90
        0
102
RTVSPost2010PropOp40
 70
     1
102
RTVSPost2010Prop41ColorIndex
 90
       18
102
RTVSPost2010Prop41ColorRGB
 90
        0
102
RTVSPost2010PropOp41
 70
     1
102
RTVSPost2010Prop42
 90
       50
102
RTVSPost2010PropOp42
 70
     1
102
RTVSPost2010Prop43
 90
        3
102
RTVSPost2010PropOp43
 70
     1
102
RTVSPost2010Prop44ColorIndex
 90
        5
102
RTVSPost2010Prop44ColorRGB
 90
      255
102
RTVSPost2010PropOp44
 70
     1
102
RTVSPost2010Prop45
280
     0
102
RTVSPost2010PropOp45
 70
     1
102
RTVSPost2010Prop46
 90
       50
102
RTVSPost2010PropOp46
 70
     1
102
RTVSPost2010Prop47
 90
       50
102
RTVSPost2010PropOp47
 70
     1
102
RTVSPost2010Prop48
 90
       50
102
RTVSPost2010PropOp48
 70
     1
102
RTVSPost2010Prop49
280
     0
102
RTVSPost2010PropOp49
 70
     1
102
RTVSPost2010Prop50
 90
       50
102
RTVSPost2010PropOp50
 70
     1
102
RTVSPost2010Prop51ColorIndex
 90
      256
102
RTVSPost2010Prop51ColorRGB
 90
-16777216
102
RTVSPost2010PropOp51
 70
     0
102
RTVSPost2010Prop52
140
1.0
102
RTVSPost2010PropOp52
 70
     0
102
RTVSPost2010Prop53
 90
        2
102
RTVSPost2010PropOp53
 70
     1
102
RTVSPost2010Prop54
  1
strokes_ogs.tif
102
RTVSPost2010PropOp54
 70
     1
102
RTVSPost2010Prop55
280
     0
102
RTVSPost2010PropOp55
 70
     1
102
RTVSPost2010Prop56
140
1.0
102
RTVSPost2010PropOp56
 70
     1
102
RTVSPost2010Prop57
140
1.0
102
RTVSPost2010PropOp57
 70
     1
102
RTVSPropertyOp0
 70
     1
102
RTVSPropertyOp1
 70
     1
102
RTVSPropertyOp2
 70
     1
102
RTVSPropertyOp3
 70
     1
102
RTVSPropertyOp4
 70
     1
102
RTVSPropertyOp5
 70
     1
102
RTVSPropertyOp6
 70
     1
102
RTVSPropertyOp7
 70
     1
102
RTVSPropertyOp8
 70
     1
102
RTVSPropertyOp9
 70
     1
102
RTVSPropertyOp10
 70
     1
102
RTVSPropertyOp11
 70
     1
102
RTVSPropertyOp12
 70
     1
102
RTVSPropertyOp13
 70
     1
102
RTVSPropertyOp14
 70
     1
102
RTVSPropertyOp15
 70
     1
102
RTVSPropertyOp16
 70
     1
102
RTVSPropertyOp17
 70
     1
102
RTVSPropertyOp18
 70
     1
102
RTVSPropertyOp19
 70
     1
102
RTVSPropertyOp20
 70
     1
102
RTVSPropertyOp21
 70
     1
102
RTVSPropertyOp22
 70
     1
102
RTVSPropertyOp23
 70
     1
102
RTVSPropertyOp24
 70
     1
102
RTVSPropertyOp25
 70
     1
102
RTVSPropertyOp26
 70
     1
102
RTVSPropertyOp27
 70
     1
102
RTVSPropertyOp28
 70
     1
102
RTVSPropertyOp29
 70
     1
102
RTVSPropertyOp30
 70
     1
102
RTVSPropertyOp31
 70
     1
102
RTVSPropertyOp32
 70
     1
102
RTVSPropertyOp33
 70
     1
102
RTVSPropertyOp34
 70
     1
102
RTVSPropertyOp35
 70
     1
102
RTVSPropertyOp36
 70
     1
102
RTVSPropertyOp37
 70
     1
102
RTVSPropertyOp38
 70
     1
102
RTVSPropertyOp39
 70
     1
102
RTVSPropertyOp40
 70
     1
102
RTVSPropertyOp41
 70
     1
102
RTVSPropertyOp42
 70
     1
102
RTVSPropertyOp43
 70
     1
102
RTVSPropertyOp44
 70
     1
102
RTVSPropertyOp45
 70
     1
102
RTVSPropertyOp46
 70
     1
102
RTVSPropertyOp47
 70
     1
102
RTVSPropertyOp48
 70
     1
102
RTVSPropertyOp49
 70
     1
102
RTVSPropertyOp50
 70
     1
102
RTVSPropertyOp51
 70
     0
102
RTVSPropertyOp52
 70
     0
102
RTVSPropertyOp53
 70
     1
102
RTVSPropertyOp54
 70
     1
102
RTVSPropertyOp55
 70
     1
102
RTVSPropertyOp56
 70
     1
102
RTVSPropertyOp57
 70
     1
102
RTVSPropertyOp58
 70
     1
102
RTVSPropertyOp59
 70
     1
102
RTVSPropertyOp60
 70
     1
102
RTVSPropertyOp61
 70
     1
102
RTVSPropertyOp62
 70
     1
  0
XRECORD
  5
C53E
102
{ACAD_REACTORS
330
C53D
102
}
330
C53D
100
AcDbXrecord
280
     1
102
RTVSPost2010Prop28
280
     0
102
RTVSPost2010PropOp28
 70
     1
102
RTVSPost2010Prop29
280
     1
102
RTVSPost2010PropOp29
 70
     1
102
RTVSPost2010Prop30
280
     1
102
RTVSPost2010PropOp30
 70
     1
102
RTVSPost2010Prop31
280
     0
102
RTVSPost2010PropOp31
 70
     1
102
RTVSPost2010Prop32
280
     0
102
RTVSPost2010PropOp32
 70
     1
102
RTVSPost2010Prop33
280
     0
102
RTVSPost2010PropOp33
 70
     1
102
RTVSPost2010Prop34
280
     0
102
RTVSPost2010PropOp34
 70
     1
102
RTVSPost2010Prop35
280
     0
102
RTVSPost2010PropOp35
 70
     1
102
RTVSPost2010Prop36
280
     0
102
RTVSPost2010PropOp36
 70
     1
102
RTVSPost2010Prop37
 90
       50
102
RTVSPost2010PropOp37
 70
     1
102
RTVSPost2010Prop38
140
0.0
102
RTVSPost2010PropOp38
 70
     1
102
RTVSPost2010Prop39
140
1.0
102
RTVSPost2010PropOp39
 70
     1
102
RTVSPost2010Prop40
 90
        0
102
RTVSPost2010PropOp40
 70
     1
102
RTVSPost2010Prop41ColorIndex
 90
       18
102
RTVSPost2010Prop41ColorRGB
 90
        0
102
RTVSPost2010PropOp41
 70
     1
102
RTVSPost2010Prop42
 90
       50
102
RTVSPost2010PropOp42
 70
     1
102
RTVSPost2010Prop43
 90
        3
102
RTVSPost2010PropOp43
 70
     1
102
RTVSPost2010Prop44ColorIndex
 90
        5
102
RTVSPost2010Prop44ColorRGB
 90
      255
102
RTVSPost2010PropOp44
 70
     1
102
RTVSPost2010Prop45
280
     0
102
RTVSPost2010PropOp45
 70
     1
102
RTVSPost2010Prop46
 90
       50
102
RTVSPost2010PropOp46
 70
     1
102
RTVSPost2010Prop47
 90
       50
102
RTVSPost2010PropOp47
 70
     1
102
RTVSPost2010Prop48
 90
       50
102
RTVSPost2010PropOp48
 70
     1
102
RTVSPost2010Prop49
280
     0
102
RTVSPost2010PropOp49
 70
     1
102
RTVSPost2010Prop50
 90
       50
102
RTVSPost2010PropOp50
 70
     1
102
RTVSPost2010Prop51ColorIndex
 90
      256
102
RTVSPost2010Prop51ColorRGB
 90
-16777216
102
RTVSPost2010PropOp51
 70
     0
102
RTVSPost2010Prop52
140
1.0
102
RTVSPost2010PropOp52
 70
     0
102
RTVSPost2010Prop53
 90
        2
102
RTVSPost2010PropOp53
 70
     1
102
RTVSPost2010Prop54
  1
strokes_ogs.tif
102
RTVSPost2010PropOp54
 70
     1
102
RTVSPost2010Prop55
280
     0
102
RTVSPost2010PropOp55
 70
     1
102
RTVSPost2010Prop56
140
1.0
102
RTVSPost2010PropOp56
 70
     1
102
RTVSPost2010Prop57
140
1.0
102
RTVSPost2010PropOp57
 70
     1
102
RTVSPropertyOp0
 70
     1
102
RTVSPropertyOp1
 70
     1
102
RTVSPropertyOp2
 70
     1
102
RTVSPropertyOp3
 70
     1
102
RTVSPropertyOp4
 70
     1
102
RTVSPropertyOp5
 70
     1
102
RTVSPropertyOp6
 70
     1
102
RTVSPropertyOp7
 70
     1
102
RTVSPropertyOp8
 70
     1
102
RTVSPropertyOp9
 70
     1
102
RTVSPropertyOp10
 70
     1
102
RTVSPropertyOp11
 70
     1
102
RTVSPropertyOp12
 70
     1
102
RTVSPropertyOp13
 70
     1
102
RTVSPropertyOp14
 70
     1
102
RTVSPropertyOp15
 70
     1
102
RTVSPropertyOp16
 70
     1
102
RTVSPropertyOp17
 70
     1
102
RTVSPropertyOp18
 70
     1
102
RTVSPropertyOp19
 70
     1
102
RTVSPropertyOp20
 70
     1
102
RTVSPropertyOp21
 70
     1
102
RTVSPropertyOp22
 70
     1
102
RTVSPropertyOp23
 70
     1
102
RTVSPropertyOp24
 70
     1
102
RTVSPropertyOp25
 70
     1
102
RTVSPropertyOp26
 70
     1
102
RTVSPropertyOp27
 70
     1
102
RTVSPropertyOp28
 70
     1
102
RTVSPropertyOp29
 70
     1
102
RTVSPropertyOp30
 70
     1
102
RTVSPropertyOp31
 70
     1
102
RTVSPropertyOp32
 70
     1
102
RTVSPropertyOp33
 70
     1
102
RTVSPropertyOp34
 70
     1
102
RTVSPropertyOp35
 70
     1
102
RTVSPropertyOp36
 70
     1
102
RTVSPropertyOp37
 70
     1
102
RTVSPropertyOp38
 70
     1
102
RTVSPropertyOp39
 70
     1
102
RTVSPropertyOp40
 70
     1
102
RTVSPropertyOp41
 70
     1
102
RTVSPropertyOp42
 70
     1
102
RTVSPropertyOp43
 70
     1
102
RTVSPropertyOp44
 70
     1
102
RTVSPropertyOp45
 70
     1
102
RTVSPropertyOp46
 70
     1
102
RTVSPropertyOp47
 70
     1
102
RTVSPropertyOp48
 70
     1
102
RTVSPropertyOp49
 70
     1
102
RTVSPropertyOp50
 70
     1
102
RTVSPropertyOp51
 70
     0
102
RTVSPropertyOp52
 70
     0
102
RTVSPropertyOp53
 70
     1
102
RTVSPropertyOp54
 70
     1
102
RTVSPropertyOp55
 70
     1
102
RTVSPropertyOp56
 70
     1
102
RTVSPropertyOp57
 70
     1
102
RTVSPropertyOp58
 70
     1
102
RTVSPropertyOp59
 70
     1
102
RTVSPropertyOp60
 70
     1
102
RTVSPropertyOp61
 70
     1
102
RTVSPropertyOp62
 70
     1
  0
XRECORD
  5
C546
102
{ACAD_REACTORS
330
C545
102
}
330
C545
100
AcDbXrecord
280
     1
102
RTVSPost2010Prop28
280
     0
102
RTVSPost2010PropOp28
 70
     1
102
RTVSPost2010Prop29
280
     1
102
RTVSPost2010PropOp29
 70
     1
102
RTVSPost2010Prop30
280
     1
102
RTVSPost2010PropOp30
 70
     1
102
RTVSPost2010Prop31
280
     0
102
RTVSPost2010PropOp31
 70
     1
102
RTVSPost2010Prop32
280
     0
102
RTVSPost2010PropOp32
 70
     1
102
RTVSPost2010Prop33
280
     0
102
RTVSPost2010PropOp33
 70
     1
102
RTVSPost2010Prop34
280
     0
102
RTVSPost2010PropOp34
 70
     1
102
RTVSPost2010Prop35
280
     0
102
RTVSPost2010PropOp35
 70
     1
102
RTVSPost2010Prop36
280
     0
102
RTVSPost2010PropOp36
 70
     1
102
RTVSPost2010Prop37
 90
       50
102
RTVSPost2010PropOp37
 70
     1
102
RTVSPost2010Prop38
140
0.0
102
RTVSPost2010PropOp38
 70
     1
102
RTVSPost2010Prop39
140
1.0
102
RTVSPost2010PropOp39
 70
     1
102
RTVSPost2010Prop40
 90
        0
102
RTVSPost2010PropOp40
 70
     1
102
RTVSPost2010Prop41ColorIndex
 90
       18
102
RTVSPost2010Prop41ColorRGB
 90
        0
102
RTVSPost2010PropOp41
 70
     1
102
RTVSPost2010Prop42
 90
       50
102
RTVSPost2010PropOp42
 70
     1
102
RTVSPost2010Prop43
 90
        3
102
RTVSPost2010PropOp43
 70
     1
102
RTVSPost2010Prop44ColorIndex
 90
        5
102
RTVSPost2010Prop44ColorRGB
 90
      255
102
RTVSPost2010PropOp44
 70
     1
102
RTVSPost2010Prop45
280
     0
102
RTVSPost2010PropOp45
 70
     1
102
RTVSPost2010Prop46
 90
       50
102
RTVSPost2010PropOp46
 70
     1
102
RTVSPost2010Prop47
 90
       50
102
RTVSPost2010PropOp47
 70
     1
102
RTVSPost2010Prop48
 90
       50
102
RTVSPost2010PropOp48
 70
     1
102
RTVSPost2010Prop49
280
     0
102
RTVSPost2010PropOp49
 70
     1
102
RTVSPost2010Prop50
 90
       50
102
RTVSPost2010PropOp50
 70
     1
102
RTVSPost2010Prop51ColorIndex
 90
      256
102
RTVSPost2010Prop51ColorRGB
 90
-16777216
102
RTVSPost2010PropOp51
 70
     0
102
RTVSPost2010Prop52
140
1.0
102
RTVSPost2010PropOp52
 70
     0
102
RTVSPost2010Prop53
 90
        2
102
RTVSPost2010PropOp53
 70
     1
102
RTVSPost2010Prop54
  1
strokes_ogs.tif
102
RTVSPost2010PropOp54
 70
     1
102
RTVSPost2010Prop55
280
     0
102
RTVSPost2010PropOp55
 70
     1
102
RTVSPost2010Prop56
140
1.0
102
RTVSPost2010PropOp56
 70
     1
102
RTVSPost2010Prop57
140
1.0
102
RTVSPost2010PropOp57
 70
     1
102
RTVSPropertyOp0
 70
     1
102
RTVSPropertyOp1
 70
     1
102
RTVSPropertyOp2
 70
     1
102
RTVSPropertyOp3
 70
     1
102
RTVSPropertyOp4
 70
     1
102
RTVSPropertyOp5
 70
     1
102
RTVSPropertyOp6
 70
     1
102
RTVSPropertyOp7
 70
     1
102
RTVSPropertyOp8
 70
     1
102
RTVSPropertyOp9
 70
     1
102
RTVSPropertyOp10
 70
     1
102
RTVSPropertyOp11
 70
     1
102
RTVSPropertyOp12
 70
     1
102
RTVSPropertyOp13
 70
     1
102
RTVSPropertyOp14
 70
     1
102
RTVSPropertyOp15
 70
     1
102
RTVSPropertyOp16
 70
     1
102
RTVSPropertyOp17
 70
     1
102
RTVSPropertyOp18
 70
     1
102
RTVSPropertyOp19
 70
     1
102
RTVSPropertyOp20
 70
     1
102
RTVSPropertyOp21
 70
     1
102
RTVSPropertyOp22
 70
     1
102
RTVSPropertyOp23
 70
     1
102
RTVSPropertyOp24
 70
     1
102
RTVSPropertyOp25
 70
     1
102
RTVSPropertyOp26
 70
     1
102
RTVSPropertyOp27
 70
     1
102
RTVSPropertyOp28
 70
     1
102
RTVSPropertyOp29
 70
     1
102
RTVSPropertyOp30
 70
     1
102
RTVSPropertyOp31
 70
     1
102
RTVSPropertyOp32
 70
     1
102
RTVSPropertyOp33
 70
     1
102
RTVSPropertyOp34
 70
     1
102
RTVSPropertyOp35
 70
     1
102
RTVSPropertyOp36
 70
     1
102
RTVSPropertyOp37
 70
     1
102
RTVSPropertyOp38
 70
     1
102
RTVSPropertyOp39
 70
     1
102
RTVSPropertyOp40
 70
     1
102
RTVSPropertyOp41
 70
     1
102
RTVSPropertyOp42
 70
     1
102
RTVSPropertyOp43
 70
     1
102
RTVSPropertyOp44
 70
     1
102
RTVSPropertyOp45
 70
     1
102
RTVSPropertyOp46
 70
     1
102
RTVSPropertyOp47
 70
     1
102
RTVSPropertyOp48
 70
     1
102
RTVSPropertyOp49
 70
     1
102
RTVSPropertyOp50
 70
     1
102
RTVSPropertyOp51
 70
     0
102
RTVSPropertyOp52
 70
     0
102
RTVSPropertyOp53
 70
     1
102
RTVSPropertyOp54
 70
     1
102
RTVSPropertyOp55
 70
     1
102
RTVSPropertyOp56
 70
     1
102
RTVSPropertyOp57
 70
     1
102
RTVSPropertyOp58
 70
     1
102
RTVSPropertyOp59
 70
     1
102
RTVSPropertyOp60
 70
     1
102
RTVSPropertyOp61
 70
     1
102
RTVSPropertyOp62
 70
     1
  0
XRECORD
  5
C562
102
{ACAD_REACTORS
330
C561
102
}
330
C561
100
AcDbXrecord
280
     1
102
RTVSPost2010Prop28
280
     0
102
RTVSPost2010PropOp28
 70
     1
102
RTVSPost2010Prop29
280
     1
102
RTVSPost2010PropOp29
 70
     1
102
RTVSPost2010Prop30
280
     1
102
RTVSPost2010PropOp30
 70
     1
102
RTVSPost2010Prop31
280
     0
102
RTVSPost2010PropOp31
 70
     1
102
RTVSPost2010Prop32
280
     0
102
RTVSPost2010PropOp32
 70
     1
102
RTVSPost2010Prop33
280
     0
102
RTVSPost2010PropOp33
 70
     1
102
RTVSPost2010Prop34
280
     0
102
RTVSPost2010PropOp34
 70
     1
102
RTVSPost2010Prop35
280
     0
102
RTVSPost2010PropOp35
 70
     1
102
RTVSPost2010Prop36
280
     0
102
RTVSPost2010PropOp36
 70
     1
102
RTVSPost2010Prop37
 90
       50
102
RTVSPost2010PropOp37
 70
     0
102
RTVSPost2010Prop38
140
0.0
102
RTVSPost2010PropOp38
 70
     0
102
RTVSPost2010Prop39
140
1.0
102
RTVSPost2010PropOp39
 70
     0
102
RTVSPost2010Prop40
 90
        0
102
RTVSPost2010PropOp40
 70
     0
102
RTVSPost2010Prop41ColorIndex
 90
       18
102
RTVSPost2010Prop41ColorRGB
 90
        0
102
RTVSPost2010PropOp41
 70
     0
102
RTVSPost2010Prop42
 90
       50
102
RTVSPost2010PropOp42
 70
     0
102
RTVSPost2010Prop43
 90
        3
102
RTVSPost2010PropOp43
 70
     0
102
RTVSPost2010Prop44ColorIndex
 90
        5
102
RTVSPost2010Prop44ColorRGB
 90
      255
102
RTVSPost2010PropOp44
 70
     0
102
RTVSPost2010Prop45
280
     0
102
RTVSPost2010PropOp45
 70
     1
102
RTVSPost2010Prop46
 90
       50
102
RTVSPost2010PropOp46
 70
     0
102
RTVSPost2010Prop47
 90
       50
102
RTVSPost2010PropOp47
 70
     0
102
RTVSPost2010Prop48
 90
       50
102
RTVSPost2010PropOp48
 70
     0
102
RTVSPost2010Prop49
280
     0
102
RTVSPost2010PropOp49
 70
     1
102
RTVSPost2010Prop50
 90
       50
102
RTVSPost2010PropOp50
 70
     0
102
RTVSPost2010Prop51ColorIndex
 90
      256
102
RTVSPost2010Prop51ColorRGB
 90
-16777216
102
RTVSPost2010PropOp51
 70
     0
102
RTVSPost2010Prop52
140
1.0
102
RTVSPost2010PropOp52
 70
     0
102
RTVSPost2010Prop53
 90
        2
102
RTVSPost2010PropOp53
 70
     0
102
RTVSPost2010Prop54
  1
strokes_ogs.tif
102
RTVSPost2010PropOp54
 70
     0
102
RTVSPost2010Prop55
280
     0
102
RTVSPost2010PropOp55
 70
     1
102
RTVSPost2010Prop56
140
1.0
102
RTVSPost2010PropOp56
 70
     0
102
RTVSPost2010Prop57
140
1.0
102
RTVSPost2010PropOp57
 70
     0
102
RTVSPropertyOp0
 70
     0
102
RTVSPropertyOp1
 70
     0
102
RTVSPropertyOp2
 70
     0
102
RTVSPropertyOp3
 70
     0
102
RTVSPropertyOp4
 70
     0
102
RTVSPropertyOp5
 70
     0
102
RTVSPropertyOp6
 70
     0
102
RTVSPropertyOp7
 70
     0
102
RTVSPropertyOp8
 70
     0
102
RTVSPropertyOp9
 70
     0
102
RTVSPropertyOp10
 70
     0
102
RTVSPropertyOp11
 70
     0
102
RTVSPropertyOp12
 70
     0
102
RTVSPropertyOp13
 70
     0
102
RTVSPropertyOp14
 70
     2
102
RTVSPropertyOp15
 70
     0
102
RTVSPropertyOp16
 70
     0
102
RTVSPropertyOp17
 70
     0
102
RTVSPropertyOp18
 70
     0
102
RTVSPropertyOp19
 70
     0
102
RTVSPropertyOp20
 70
     0
102
RTVSPropertyOp21
 70
     0
102
RTVSPropertyOp22
 70
     0
102
RTVSPropertyOp23
 70
     0
102
RTVSPropertyOp24
 70
     0
102
RTVSPropertyOp25
 70
     0
102
RTVSPropertyOp26
 70
     0
102
RTVSPropertyOp27
 70
     0
102
RTVSPropertyOp28
 70
     1
102
RTVSPropertyOp29
 70
     1
102
RTVSPropertyOp30
 70
     1
102
RTVSPropertyOp31
 70
     1
102
RTVSPropertyOp32
 70
     1
102
RTVSPropertyOp33
 70
     1
102
RTVSPropertyOp34
 70
     1
102
RTVSPropertyOp35
 70
     1
102
RTVSPropertyOp36
 70
     1
102
RTVSPropertyOp37
 70
     0
102
RTVSPropertyOp38
 70
     0
102
RTVSPropertyOp39
 70
     0
102
RTVSPropertyOp40
 70
     0
102
RTVSPropertyOp41
 70
     0
102
RTVSPropertyOp42
 70
     0
102
RTVSPropertyOp43
 70
     0
102
RTVSPropertyOp44
 70
     0
102
RTVSPropertyOp45
 70
     1
102
RTVSPropertyOp46
 70
     0
102
RTVSPropertyOp47
 70
     0
102
RTVSPropertyOp48
 70
     0
102
RTVSPropertyOp49
 70
     1
102
RTVSPropertyOp50
 70
     0
102
RTVSPropertyOp51
 70
     0
102
RTVSPropertyOp52
 70
     0
102
RTVSPropertyOp53
 70
     0
102
RTVSPropertyOp54
 70
     0
102
RTVSPropertyOp55
 70
     1
102
RTVSPropertyOp56
 70
     0
102
RTVSPropertyOp57
 70
     0
102
RTVSPropertyOp58
 70
     0
102
RTVSPropertyOp59
 70
     0
102
RTVSPropertyOp60
 70
     0
102
RTVSPropertyOp61
 70
     0
102
RTVSPropertyOp62
 70
     0
  0
XRECORD
  5
C552
102
{ACAD_REACTORS
330
C551
102
}
330
C551
100
AcDbXrecord
280
     1
102
RTVSPost2010Prop28
280
     0
102
RTVSPost2010PropOp28
 70
     1
102
RTVSPost2010Prop29
280
     1
102
RTVSPost2010PropOp29
 70
     1
102
RTVSPost2010Prop30
280
     1
102
RTVSPost2010PropOp30
 70
     1
102
RTVSPost2010Prop31
280
     0
102
RTVSPost2010PropOp31
 70
     1
102
RTVSPost2010Prop32
280
     0
102
RTVSPost2010PropOp32
 70
     1
102
RTVSPost2010Prop33
280
     0
102
RTVSPost2010PropOp33
 70
     1
102
RTVSPost2010Prop34
280
     0
102
RTVSPost2010PropOp34
 70
     1
102
RTVSPost2010Prop35
280
     0
102
RTVSPost2010PropOp35
 70
     1
102
RTVSPost2010Prop36
280
     0
102
RTVSPost2010PropOp36
 70
     1
102
RTVSPost2010Prop37
 90
       50
102
RTVSPost2010PropOp37
 70
     1
102
RTVSPost2010Prop38
140
0.0
102
RTVSPost2010PropOp38
 70
     1
102
RTVSPost2010Prop39
140
1.0
102
RTVSPost2010PropOp39
 70
     1
102
RTVSPost2010Prop40
 90
        0
102
RTVSPost2010PropOp40
 70
     1
102
RTVSPost2010Prop41ColorIndex
 90
       18
102
RTVSPost2010Prop41ColorRGB
 90
        0
102
RTVSPost2010PropOp41
 70
     1
102
RTVSPost2010Prop42
 90
       50
102
RTVSPost2010PropOp42
 70
     1
102
RTVSPost2010Prop43
 90
        3
102
RTVSPost2010PropOp43
 70
     1
102
RTVSPost2010Prop44ColorIndex
 90
        5
102
RTVSPost2010Prop44ColorRGB
 90
      255
102
RTVSPost2010PropOp44
 70
     1
102
RTVSPost2010Prop45
280
     0
102
RTVSPost2010PropOp45
 70
     1
102
RTVSPost2010Prop46
 90
       50
102
RTVSPost2010PropOp46
 70
     1
102
RTVSPost2010Prop47
 90
       50
102
RTVSPost2010PropOp47
 70
     1
102
RTVSPost2010Prop48
 90
       50
102
RTVSPost2010PropOp48
 70
     1
102
RTVSPost2010Prop49
280
     0
102
RTVSPost2010PropOp49
 70
     1
102
RTVSPost2010Prop50
 90
       50
102
RTVSPost2010PropOp50
 70
     1
102
RTVSPost2010Prop51ColorIndex
 90
      256
102
RTVSPost2010Prop51ColorRGB
 90
-16777216
102
RTVSPost2010PropOp51
 70
     0
102
RTVSPost2010Prop52
140
1.0
102
RTVSPost2010PropOp52
 70
     0
102
RTVSPost2010Prop53
 90
        2
102
RTVSPost2010PropOp53
 70
     1
102
RTVSPost2010Prop54
  1
strokes_ogs.tif
102
RTVSPost2010PropOp54
 70
     1
102
RTVSPost2010Prop55
280
     0
102
RTVSPost2010PropOp55
 70
     1
102
RTVSPost2010Prop56
140
1.0
102
RTVSPost2010PropOp56
 70
     1
102
RTVSPost2010Prop57
140
1.0
102
RTVSPost2010PropOp57
 70
     1
102
RTVSPropertyOp0
 70
     1
102
RTVSPropertyOp1
 70
     1
102
RTVSPropertyOp2
 70
     1
102
RTVSPropertyOp3
 70
     1
102
RTVSPropertyOp4
 70
     1
102
RTVSPropertyOp5
 70
     1
102
RTVSPropertyOp6
 70
     1
102
RTVSPropertyOp7
 70
     1
102
RTVSPropertyOp8
 70
     1
102
RTVSPropertyOp9
 70
     1
102
RTVSPropertyOp10
 70
     1
102
RTVSPropertyOp11
 70
     1
102
RTVSPropertyOp12
 70
     1
102
RTVSPropertyOp13
 70
     1
102
RTVSPropertyOp14
 70
     1
102
RTVSPropertyOp15
 70
     1
102
RTVSPropertyOp16
 70
     1
102
RTVSPropertyOp17
 70
     1
102
RTVSPropertyOp18
 70
     1
102
RTVSPropertyOp19
 70
     1
102
RTVSPropertyOp20
 70
     1
102
RTVSPropertyOp21
 70
     1
102
RTVSPropertyOp22
 70
     1
102
RTVSPropertyOp23
 70
     1
102
RTVSPropertyOp24
 70
     1
102
RTVSPropertyOp25
 70
     1
102
RTVSPropertyOp26
 70
     1
102
RTVSPropertyOp27
 70
     1
102
RTVSPropertyOp28
 70
     1
102
RTVSPropertyOp29
 70
     1
102
RTVSPropertyOp30
 70
     1
102
RTVSPropertyOp31
 70
     1
102
RTVSPropertyOp32
 70
     1
102
RTVSPropertyOp33
 70
     1
102
RTVSPropertyOp34
 70
     1
102
RTVSPropertyOp35
 70
     1
102
RTVSPropertyOp36
 70
     1
102
RTVSPropertyOp37
 70
     1
102
RTVSPropertyOp38
 70
     1
102
RTVSPropertyOp39
 70
     1
102
RTVSPropertyOp40
 70
     1
102
RTVSPropertyOp41
 70
     1
102
RTVSPropertyOp42
 70
     1
102
RTVSPropertyOp43
 70
     1
102
RTVSPropertyOp44
 70
     1
102
RTVSPropertyOp45
 70
     1
102
RTVSPropertyOp46
 70
     1
102
RTVSPropertyOp47
 70
     1
102
RTVSPropertyOp48
 70
     1
102
RTVSPropertyOp49
 70
     1
102
RTVSPropertyOp50
 70
     1
102
RTVSPropertyOp51
 70
     0
102
RTVSPropertyOp52
 70
     0
102
RTVSPropertyOp53
 70
     1
102
RTVSPropertyOp54
 70
     1
102
RTVSPropertyOp55
 70
     1
102
RTVSPropertyOp56
 70
     1
102
RTVSPropertyOp57
 70
     1
102
RTVSPropertyOp58
 70
     1
102
RTVSPropertyOp59
 70
     1
102
RTVSPropertyOp60
 70
     1
102
RTVSPropertyOp61
 70
     1
102
RTVSPropertyOp62
 70
     1
  0
XRECORD
  5
C564
102
{ACAD_REACTORS
330
C563
102
}
330
C563
100
AcDbXrecord
280
     1
102
RTVSPost2010Prop28
280
     0
102
RTVSPost2010PropOp28
 70
     1
102
RTVSPost2010Prop29
280
     1
102
RTVSPost2010PropOp29
 70
     1
102
RTVSPost2010Prop30
280
     1
102
RTVSPost2010PropOp30
 70
     1
102
RTVSPost2010Prop31
280
     0
102
RTVSPost2010PropOp31
 70
     1
102
RTVSPost2010Prop32
280
     0
102
RTVSPost2010PropOp32
 70
     1
102
RTVSPost2010Prop33
280
     0
102
RTVSPost2010PropOp33
 70
     1
102
RTVSPost2010Prop34
280
     0
102
RTVSPost2010PropOp34
 70
     1
102
RTVSPost2010Prop35
280
     0
102
RTVSPost2010PropOp35
 70
     1
102
RTVSPost2010Prop36
280
     0
102
RTVSPost2010PropOp36
 70
     1
102
RTVSPost2010Prop37
 90
       50
102
RTVSPost2010PropOp37
 70
     0
102
RTVSPost2010Prop38
140
0.0
102
RTVSPost2010PropOp38
 70
     0
102
RTVSPost2010Prop39
140
1.0
102
RTVSPost2010PropOp39
 70
     0
102
RTVSPost2010Prop40
 90
        0
102
RTVSPost2010PropOp40
 70
     0
102
RTVSPost2010Prop41ColorIndex
 90
       18
102
RTVSPost2010Prop41ColorRGB
 90
        0
102
RTVSPost2010PropOp41
 70
     0
102
RTVSPost2010Prop42
 90
       50
102
RTVSPost2010PropOp42
 70
     0
102
RTVSPost2010Prop43
 90
        3
102
RTVSPost2010PropOp43
 70
     0
102
RTVSPost2010Prop44ColorIndex
 90
        5
102
RTVSPost2010Prop44ColorRGB
 90
      255
102
RTVSPost2010PropOp44
 70
     0
102
RTVSPost2010Prop45
280
     0
102
RTVSPost2010PropOp45
 70
     1
102
RTVSPost2010Prop46
 90
       50
102
RTVSPost2010PropOp46
 70
     0
102
RTVSPost2010Prop47
 90
       50
102
RTVSPost2010PropOp47
 70
     0
102
RTVSPost2010Prop48
 90
       50
102
RTVSPost2010PropOp48
 70
     0
102
RTVSPost2010Prop49
280
     0
102
RTVSPost2010PropOp49
 70
     1
102
RTVSPost2010Prop50
 90
       50
102
RTVSPost2010PropOp50
 70
     0
102
RTVSPost2010Prop51ColorIndex
 90
      256
102
RTVSPost2010Prop51ColorRGB
 90
-16777216
102
RTVSPost2010PropOp51
 70
     0
102
RTVSPost2010Prop52
140
1.0
102
RTVSPost2010PropOp52
 70
     0
102
RTVSPost2010Prop53
 90
        2
102
RTVSPost2010PropOp53
 70
     0
102
RTVSPost2010Prop54
  1
strokes_ogs.tif
102
RTVSPost2010PropOp54
 70
     0
102
RTVSPost2010Prop55
280
     0
102
RTVSPost2010PropOp55
 70
     1
102
RTVSPost2010Prop56
140
1.0
102
RTVSPost2010PropOp56
 70
     0
102
RTVSPost2010Prop57
140
1.0
102
RTVSPost2010PropOp57
 70
     0
102
RTVSPropertyOp0
 70
     0
102
RTVSPropertyOp1
 70
     0
102
RTVSPropertyOp2
 70
     0
102
RTVSPropertyOp3
 70
     0
102
RTVSPropertyOp4
 70
     0
102
RTVSPropertyOp5
 70
     0
102
RTVSPropertyOp6
 70
     0
102
RTVSPropertyOp7
 70
     0
102
RTVSPropertyOp8
 70
     0
102
RTVSPropertyOp9
 70
     0
102
RTVSPropertyOp10
 70
     0
102
RTVSPropertyOp11
 70
     0
102
RTVSPropertyOp12
 70
     0
102
RTVSPropertyOp13
 70
     0
102
RTVSPropertyOp14
 70
     2
102
RTVSPropertyOp15
 70
     0
102
RTVSPropertyOp16
 70
     0
102
RTVSPropertyOp17
 70
     0
102
RTVSPropertyOp18
 70
     0
102
RTVSPropertyOp19
 70
     0
102
RTVSPropertyOp20
 70
     0
102
RTVSPropertyOp21
 70
     0
102
RTVSPropertyOp22
 70
     0
102
RTVSPropertyOp23
 70
     0
102
RTVSPropertyOp24
 70
     0
102
RTVSPropertyOp25
 70
     0
102
RTVSPropertyOp26
 70
     0
102
RTVSPropertyOp27
 70
     0
102
RTVSPropertyOp28
 70
     1
102
RTVSPropertyOp29
 70
     1
102
RTVSPropertyOp30
 70
     1
102
RTVSPropertyOp31
 70
     1
102
RTVSPropertyOp32
 70
     1
102
RTVSPropertyOp33
 70
     1
102
RTVSPropertyOp34
 70
     1
102
RTVSPropertyOp35
 70
     1
102
RTVSPropertyOp36
 70
     1
102
RTVSPropertyOp37
 70
     0
102
RTVSPropertyOp38
 70
     0
102
RTVSPropertyOp39
 70
     0
102
RTVSPropertyOp40
 70
     0
102
RTVSPropertyOp41
 70
     0
102
RTVSPropertyOp42
 70
     0
102
RTVSPropertyOp43
 70
     0
102
RTVSPropertyOp44
 70
     0
102
RTVSPropertyOp45
 70
     1
102
RTVSPropertyOp46
 70
     0
102
RTVSPropertyOp47
 70
     0
102
RTVSPropertyOp48
 70
     0
102
RTVSPropertyOp49
 70
     1
102
RTVSPropertyOp50
 70
     0
102
RTVSPropertyOp51
 70
     0
102
RTVSPropertyOp52
 70
     0
102
RTVSPropertyOp53
 70
     0
102
RTVSPropertyOp54
 70
     0
102
RTVSPropertyOp55
 70
     1
102
RTVSPropertyOp56
 70
     0
102
RTVSPropertyOp57
 70
     0
102
RTVSPropertyOp58
 70
     0
102
RTVSPropertyOp59
 70
     0
102
RTVSPropertyOp60
 70
     0
102
RTVSPropertyOp61
 70
     0
102
RTVSPropertyOp62
 70
     0
  0
XRECORD
  5
C54A
102
{ACAD_REACTORS
330
C549
102
}
330
C549
100
AcDbXrecord
280
     1
102
RTVSPost2010Prop28
280
     0
102
RTVSPost2010PropOp28
 70
     1
102
RTVSPost2010Prop29
280
     1
102
RTVSPost2010PropOp29
 70
     1
102
RTVSPost2010Prop30
280
     1
102
RTVSPost2010PropOp30
 70
     1
102
RTVSPost2010Prop31
280
     0
102
RTVSPost2010PropOp31
 70
     1
102
RTVSPost2010Prop32
280
     0
102
RTVSPost2010PropOp32
 70
     1
102
RTVSPost2010Prop33
280
     0
102
RTVSPost2010PropOp33
 70
     1
102
RTVSPost2010Prop34
280
     0
102
RTVSPost2010PropOp34
 70
     1
102
RTVSPost2010Prop35
280
     0
102
RTVSPost2010PropOp35
 70
     1
102
RTVSPost2010Prop36
280
     0
102
RTVSPost2010PropOp36
 70
     1
102
RTVSPost2010Prop37
 90
       50
102
RTVSPost2010PropOp37
 70
     1
102
RTVSPost2010Prop38
140
0.0
102
RTVSPost2010PropOp38
 70
     1
102
RTVSPost2010Prop39
140
1.0
102
RTVSPost2010PropOp39
 70
     1
102
RTVSPost2010Prop40
 90
        0
102
RTVSPost2010PropOp40
 70
     1
102
RTVSPost2010Prop41ColorIndex
 90
       18
102
RTVSPost2010Prop41ColorRGB
 90
        0
102
RTVSPost2010PropOp41
 70
     1
102
RTVSPost2010Prop42
 90
       50
102
RTVSPost2010PropOp42
 70
     1
102
RTVSPost2010Prop43
 90
        3
102
RTVSPost2010PropOp43
 70
     1
102
RTVSPost2010Prop44ColorIndex
 90
        5
102
RTVSPost2010Prop44ColorRGB
 90
      255
102
RTVSPost2010PropOp44
 70
     1
102
RTVSPost2010Prop45
280
     0
102
RTVSPost2010PropOp45
 70
     1
102
RTVSPost2010Prop46
 90
       50
102
RTVSPost2010PropOp46
 70
     1
102
RTVSPost2010Prop47
 90
       50
102
RTVSPost2010PropOp47
 70
     1
102
RTVSPost2010Prop48
 90
       50
102
RTVSPost2010PropOp48
 70
     1
102
RTVSPost2010Prop49
280
     0
102
RTVSPost2010PropOp49
 70
     1
102
RTVSPost2010Prop50
 90
       50
102
RTVSPost2010PropOp50
 70
     1
102
RTVSPost2010Prop51ColorIndex
 90
      256
102
RTVSPost2010Prop51ColorRGB
 90
-16777216
102
RTVSPost2010PropOp51
 70
     0
102
RTVSPost2010Prop52
140
1.0
102
RTVSPost2010PropOp52
 70
     0
102
RTVSPost2010Prop53
 90
        2
102
RTVSPost2010PropOp53
 70
     1
102
RTVSPost2010Prop54
  1
strokes_ogs.tif
102
RTVSPost2010PropOp54
 70
     1
102
RTVSPost2010Prop55
280
     0
102
RTVSPost2010PropOp55
 70
     1
102
RTVSPost2010Prop56
140
1.0
102
RTVSPost2010PropOp56
 70
     1
102
RTVSPost2010Prop57
140
1.0
102
RTVSPost2010PropOp57
 70
     1
102
RTVSPropertyOp0
 70
     1
102
RTVSPropertyOp1
 70
     1
102
RTVSPropertyOp2
 70
     1
102
RTVSPropertyOp3
 70
     1
102
RTVSPropertyOp4
 70
     1
102
RTVSPropertyOp5
 70
     1
102
RTVSPropertyOp6
 70
     1
102
RTVSPropertyOp7
 70
     1
102
RTVSPropertyOp8
 70
     1
102
RTVSPropertyOp9
 70
     1
102
RTVSPropertyOp10
 70
     1
102
RTVSPropertyOp11
 70
     1
102
RTVSPropertyOp12
 70
     1
102
RTVSPropertyOp13
 70
     1
102
RTVSPropertyOp14
 70
     1
102
RTVSPropertyOp15
 70
     1
102
RTVSPropertyOp16
 70
     1
102
RTVSPropertyOp17
 70
     1
102
RTVSPropertyOp18
 70
     1
102
RTVSPropertyOp19
 70
     1
102
RTVSPropertyOp20
 70
     1
102
RTVSPropertyOp21
 70
     1
102
RTVSPropertyOp22
 70
     1
102
RTVSPropertyOp23
 70
     1
102
RTVSPropertyOp24
 70
     1
102
RTVSPropertyOp25
 70
     1
102
RTVSPropertyOp26
 70
     1
102
RTVSPropertyOp27
 70
     1
102
RTVSPropertyOp28
 70
     1
102
RTVSPropertyOp29
 70
     1
102
RTVSPropertyOp30
 70
     1
102
RTVSPropertyOp31
 70
     1
102
RTVSPropertyOp32
 70
     1
102
RTVSPropertyOp33
 70
     1
102
RTVSPropertyOp34
 70
     1
102
RTVSPropertyOp35
 70
     1
102
RTVSPropertyOp36
 70
     1
102
RTVSPropertyOp37
 70
     1
102
RTVSPropertyOp38
 70
     1
102
RTVSPropertyOp39
 70
     1
102
RTVSPropertyOp40
 70
     1
102
RTVSPropertyOp41
 70
     1
102
RTVSPropertyOp42
 70
     1
102
RTVSPropertyOp43
 70
     1
102
RTVSPropertyOp44
 70
     1
102
RTVSPropertyOp45
 70
     1
102
RTVSPropertyOp46
 70
     1
102
RTVSPropertyOp47
 70
     1
102
RTVSPropertyOp48
 70
     1
102
RTVSPropertyOp49
 70
     1
102
RTVSPropertyOp50
 70
     1
102
RTVSPropertyOp51
 70
     0
102
RTVSPropertyOp52
 70
     0
102
RTVSPropertyOp53
 70
     1
102
RTVSPropertyOp54
 70
     1
102
RTVSPropertyOp55
 70
     1
102
RTVSPropertyOp56
 70
     1
102
RTVSPropertyOp57
 70
     1
102
RTVSPropertyOp58
 70
     1
102
RTVSPropertyOp59
 70
     1
102
RTVSPropertyOp60
 70
     1
102
RTVSPropertyOp61
 70
     1
102
RTVSPropertyOp62
 70
     1
  0
XRECORD
  5
C560
102
{ACAD_REACTORS
330
C55F
102
}
330
C55F
100
AcDbXrecord
280
     1
102
RTVSPost2010Prop28
280
     0
102
RTVSPost2010PropOp28
 70
     1
102
RTVSPost2010Prop29
280
     1
102
RTVSPost2010PropOp29
 70
     1
102
RTVSPost2010Prop30
280
     1
102
RTVSPost2010PropOp30
 70
     1
102
RTVSPost2010Prop31
280
     0
102
RTVSPost2010PropOp31
 70
     1
102
RTVSPost2010Prop32
280
     0
102
RTVSPost2010PropOp32
 70
     1
102
RTVSPost2010Prop33
280
     0
102
RTVSPost2010PropOp33
 70
     1
102
RTVSPost2010Prop34
280
     0
102
RTVSPost2010PropOp34
 70
     1
102
RTVSPost2010Prop35
280
     0
102
RTVSPost2010PropOp35
 70
     1
102
RTVSPost2010Prop36
280
     0
102
RTVSPost2010PropOp36
 70
     1
102
RTVSPost2010Prop37
 90
       50
102
RTVSPost2010PropOp37
 70
     1
102
RTVSPost2010Prop38
140
0.0
102
RTVSPost2010PropOp38
 70
     1
102
RTVSPost2010Prop39
140
1.0
102
RTVSPost2010PropOp39
 70
     1
102
RTVSPost2010Prop40
 90
        0
102
RTVSPost2010PropOp40
 70
     1
102
RTVSPost2010Prop41ColorIndex
 90
       18
102
RTVSPost2010Prop41ColorRGB
 90
        0
102
RTVSPost2010PropOp41
 70
     1
102
RTVSPost2010Prop42
 90
       50
102
RTVSPost2010PropOp42
 70
     1
102
RTVSPost2010Prop43
 90
        3
102
RTVSPost2010PropOp43
 70
     1
102
RTVSPost2010Prop44ColorIndex
 90
        5
102
RTVSPost2010Prop44ColorRGB
 90
      255
102
RTVSPost2010PropOp44
 70
     1
102
RTVSPost2010Prop45
280
     0
102
RTVSPost2010PropOp45
 70
     1
102
RTVSPost2010Prop46
 90
       50
102
RTVSPost2010PropOp46
 70
     1
102
RTVSPost2010Prop47
 90
       50
102
RTVSPost2010PropOp47
 70
     1
102
RTVSPost2010Prop48
 90
       50
102
RTVSPost2010PropOp48
 70
     1
102
RTVSPost2010Prop49
280
     0
102
RTVSPost2010PropOp49
 70
     1
102
RTVSPost2010Prop50
 90
       50
102
RTVSPost2010PropOp50
 70
     1
102
RTVSPost2010Prop51ColorIndex
 90
      256
102
RTVSPost2010Prop51ColorRGB
 90
-16777216
102
RTVSPost2010PropOp51
 70
     0
102
RTVSPost2010Prop52
140
1.0
102
RTVSPost2010PropOp52
 70
     0
102
RTVSPost2010Prop53
 90
        2
102
RTVSPost2010PropOp53
 70
     1
102
RTVSPost2010Prop54
  1
strokes_ogs.tif
102
RTVSPost2010PropOp54
 70
     1
102
RTVSPost2010Prop55
280
     0
102
RTVSPost2010PropOp55
 70
     1
102
RTVSPost2010Prop56
140
1.0
102
RTVSPost2010PropOp56
 70
     1
102
RTVSPost2010Prop57
140
1.0
102
RTVSPost2010PropOp57
 70
     1
102
RTVSPropertyOp0
 70
     1
102
RTVSPropertyOp1
 70
     1
102
RTVSPropertyOp2
 70
     1
102
RTVSPropertyOp3
 70
     1
102
RTVSPropertyOp4
 70
     1
102
RTVSPropertyOp5
 70
     1
102
RTVSPropertyOp6
 70
     1
102
RTVSPropertyOp7
 70
     1
102
RTVSPropertyOp8
 70
     1
102
RTVSPropertyOp9
 70
     1
102
RTVSPropertyOp10
 70
     1
102
RTVSPropertyOp11
 70
     1
102
RTVSPropertyOp12
 70
     1
102
RTVSPropertyOp13
 70
     1
102
RTVSPropertyOp14
 70
     1
102
RTVSPropertyOp15
 70
     1
102
RTVSPropertyOp16
 70
     1
102
RTVSPropertyOp17
 70
     1
102
RTVSPropertyOp18
 70
     1
102
RTVSPropertyOp19
 70
     1
102
RTVSPropertyOp20
 70
     1
102
RTVSPropertyOp21
 70
     1
102
RTVSPropertyOp22
 70
     1
102
RTVSPropertyOp23
 70
     1
102
RTVSPropertyOp24
 70
     1
102
RTVSPropertyOp25
 70
     1
102
RTVSPropertyOp26
 70
     1
102
RTVSPropertyOp27
 70
     1
102
RTVSPropertyOp28
 70
     1
102
RTVSPropertyOp29
 70
     1
102
RTVSPropertyOp30
 70
     1
102
RTVSPropertyOp31
 70
     1
102
RTVSPropertyOp32
 70
     1
102
RTVSPropertyOp33
 70
     1
102
RTVSPropertyOp34
 70
     1
102
RTVSPropertyOp35
 70
     1
102
RTVSPropertyOp36
 70
     1
102
RTVSPropertyOp37
 70
     1
102
RTVSPropertyOp38
 70
     1
102
RTVSPropertyOp39
 70
     1
102
RTVSPropertyOp40
 70
     1
102
RTVSPropertyOp41
 70
     1
102
RTVSPropertyOp42
 70
     1
102
RTVSPropertyOp43
 70
     1
102
RTVSPropertyOp44
 70
     1
102
RTVSPropertyOp45
 70
     1
102
RTVSPropertyOp46
 70
     1
102
RTVSPropertyOp47
 70
     1
102
RTVSPropertyOp48
 70
     1
102
RTVSPropertyOp49
 70
     1
102
RTVSPropertyOp50
 70
     1
102
RTVSPropertyOp51
 70
     0
102
RTVSPropertyOp52
 70
     0
102
RTVSPropertyOp53
 70
     1
102
RTVSPropertyOp54
 70
     1
102
RTVSPropertyOp55
 70
     1
102
RTVSPropertyOp56
 70
     1
102
RTVSPropertyOp57
 70
     1
102
RTVSPropertyOp58
 70
     1
102
RTVSPropertyOp59
 70
     1
102
RTVSPropertyOp60
 70
     1
102
RTVSPropertyOp61
 70
     1
102
RTVSPropertyOp62
 70
     1
  0
XRECORD
  5
C55E
102
{ACAD_REACTORS
330
C55D
102
}
330
C55D
100
AcDbXrecord
280
     1
102
RTVSPost2010Prop28
280
     0
102
RTVSPost2010PropOp28
 70
     1
102
RTVSPost2010Prop29
280
     1
102
RTVSPost2010PropOp29
 70
     1
102
RTVSPost2010Prop30
280
     1
102
RTVSPost2010PropOp30
 70
     1
102
RTVSPost2010Prop31
280
     0
102
RTVSPost2010PropOp31
 70
     1
102
RTVSPost2010Prop32
280
     0
102
RTVSPost2010PropOp32
 70
     1
102
RTVSPost2010Prop33
280
     0
102
RTVSPost2010PropOp33
 70
     1
102
RTVSPost2010Prop34
280
     0
102
RTVSPost2010PropOp34
 70
     1
102
RTVSPost2010Prop35
280
     0
102
RTVSPost2010PropOp35
 70
     1
102
RTVSPost2010Prop36
280
     0
102
RTVSPost2010PropOp36
 70
     1
102
RTVSPost2010Prop37
 90
       50
102
RTVSPost2010PropOp37
 70
     1
102
RTVSPost2010Prop38
140
0.0
102
RTVSPost2010PropOp38
 70
     1
102
RTVSPost2010Prop39
140
1.0
102
RTVSPost2010PropOp39
 70
     1
102
RTVSPost2010Prop40
 90
        0
102
RTVSPost2010PropOp40
 70
     1
102
RTVSPost2010Prop41ColorIndex
 90
       18
102
RTVSPost2010Prop41ColorRGB
 90
        0
102
RTVSPost2010PropOp41
 70
     1
102
RTVSPost2010Prop42
 90
       50
102
RTVSPost2010PropOp42
 70
     1
102
RTVSPost2010Prop43
 90
        3
102
RTVSPost2010PropOp43
 70
     1
102
RTVSPost2010Prop44ColorIndex
 90
        5
102
RTVSPost2010Prop44ColorRGB
 90
      255
102
RTVSPost2010PropOp44
 70
     1
102
RTVSPost2010Prop45
280
     0
102
RTVSPost2010PropOp45
 70
     1
102
RTVSPost2010Prop46
 90
       50
102
RTVSPost2010PropOp46
 70
     1
102
RTVSPost2010Prop47
 90
       50
102
RTVSPost2010PropOp47
 70
     1
102
RTVSPost2010Prop48
 90
       50
102
RTVSPost2010PropOp48
 70
     1
102
RTVSPost2010Prop49
280
     0
102
RTVSPost2010PropOp49
 70
     1
102
RTVSPost2010Prop50
 90
       50
102
RTVSPost2010PropOp50
 70
     1
102
RTVSPost2010Prop51ColorIndex
 90
      256
102
RTVSPost2010Prop51ColorRGB
 90
-16777216
102
RTVSPost2010PropOp51
 70
     0
102
RTVSPost2010Prop52
140
1.0
102
RTVSPost2010PropOp52
 70
     0
102
RTVSPost2010Prop53
 90
        2
102
RTVSPost2010PropOp53
 70
     1
102
RTVSPost2010Prop54
  1
strokes_ogs.tif
102
RTVSPost2010PropOp54
 70
     1
102
RTVSPost2010Prop55
280
     0
102
RTVSPost2010PropOp55
 70
     1
102
RTVSPost2010Prop56
140
1.0
102
RTVSPost2010PropOp56
 70
     1
102
RTVSPost2010Prop57
140
1.0
102
RTVSPost2010PropOp57
 70
     1
102
RTVSPropertyOp0
 70
     1
102
RTVSPropertyOp1
 70
     1
102
RTVSPropertyOp2
 70
     1
102
RTVSPropertyOp3
 70
     1
102
RTVSPropertyOp4
 70
     1
102
RTVSPropertyOp5
 70
     1
102
RTVSPropertyOp6
 70
     1
102
RTVSPropertyOp7
 70
     1
102
RTVSPropertyOp8
 70
     1
102
RTVSPropertyOp9
 70
     1
102
RTVSPropertyOp10
 70
     1
102
RTVSPropertyOp11
 70
     1
102
RTVSPropertyOp12
 70
     1
102
RTVSPropertyOp13
 70
     1
102
RTVSPropertyOp14
 70
     1
102
RTVSPropertyOp15
 70
     1
102
RTVSPropertyOp16
 70
     1
102
RTVSPropertyOp17
 70
     1
102
RTVSPropertyOp18
 70
     1
102
RTVSPropertyOp19
 70
     1
102
RTVSPropertyOp20
 70
     1
102
RTVSPropertyOp21
 70
     1
102
RTVSPropertyOp22
 70
     1
102
RTVSPropertyOp23
 70
     1
102
RTVSPropertyOp24
 70
     1
102
RTVSPropertyOp25
 70
     1
102
RTVSPropertyOp26
 70
     1
102
RTVSPropertyOp27
 70
     1
102
RTVSPropertyOp28
 70
     1
102
RTVSPropertyOp29
 70
     1
102
RTVSPropertyOp30
 70
     1
102
RTVSPropertyOp31
 70
     1
102
RTVSPropertyOp32
 70
     1
102
RTVSPropertyOp33
 70
     1
102
RTVSPropertyOp34
 70
     1
102
RTVSPropertyOp35
 70
     1
102
RTVSPropertyOp36
 70
     1
102
RTVSPropertyOp37
 70
     1
102
RTVSPropertyOp38
 70
     1
102
RTVSPropertyOp39
 70
     1
102
RTVSPropertyOp40
 70
     1
102
RTVSPropertyOp41
 70
     1
102
RTVSPropertyOp42
 70
     1
102
RTVSPropertyOp43
 70
     1
102
RTVSPropertyOp44
 70
     1
102
RTVSPropertyOp45
 70
     1
102
RTVSPropertyOp46
 70
     1
102
RTVSPropertyOp47
 70
     1
102
RTVSPropertyOp48
 70
     1
102
RTVSPropertyOp49
 70
     1
102
RTVSPropertyOp50
 70
     1
102
RTVSPropertyOp51
 70
     0
102
RTVSPropertyOp52
 70
     0
102
RTVSPropertyOp53
 70
     1
102
RTVSPropertyOp54
 70
     1
102
RTVSPropertyOp55
 70
     1
102
RTVSPropertyOp56
 70
     1
102
RTVSPropertyOp57
 70
     1
102
RTVSPropertyOp58
 70
     1
102
RTVSPropertyOp59
 70
     1
102
RTVSPropertyOp60
 70
     1
102
RTVSPropertyOp61
 70
     1
102
RTVSPropertyOp62
 70
     1
  0
XRECORD
  5
C558
102
{ACAD_REACTORS
330
C557
102
}
330
C557
100
AcDbXrecord
280
     1
102
RTVSPost2010Prop28
280
     0
102
RTVSPost2010PropOp28
 70
     1
102
RTVSPost2010Prop29
280
     1
102
RTVSPost2010PropOp29
 70
     1
102
RTVSPost2010Prop30
280
     1
102
RTVSPost2010PropOp30
 70
     1
102
RTVSPost2010Prop31
280
     0
102
RTVSPost2010PropOp31
 70
     1
102
RTVSPost2010Prop32
280
     0
102
RTVSPost2010PropOp32
 70
     1
102
RTVSPost2010Prop33
280
     0
102
RTVSPost2010PropOp33
 70
     1
102
RTVSPost2010Prop34
280
     0
102
RTVSPost2010PropOp34
 70
     1
102
RTVSPost2010Prop35
280
     0
102
RTVSPost2010PropOp35
 70
     1
102
RTVSPost2010Prop36
280
     0
102
RTVSPost2010PropOp36
 70
     1
102
RTVSPost2010Prop37
 90
       50
102
RTVSPost2010PropOp37
 70
     1
102
RTVSPost2010Prop38
140
0.0
102
RTVSPost2010PropOp38
 70
     1
102
RTVSPost2010Prop39
140
1.0
102
RTVSPost2010PropOp39
 70
     1
102
RTVSPost2010Prop40
 90
        0
102
RTVSPost2010PropOp40
 70
     1
102
RTVSPost2010Prop41ColorIndex
 90
       18
102
RTVSPost2010Prop41ColorRGB
 90
        0
102
RTVSPost2010PropOp41
 70
     1
102
RTVSPost2010Prop42
 90
       50
102
RTVSPost2010PropOp42
 70
     1
102
RTVSPost2010Prop43
 90
        3
102
RTVSPost2010PropOp43
 70
     1
102
RTVSPost2010Prop44ColorIndex
 90
        5
102
RTVSPost2010Prop44ColorRGB
 90
      255
102
RTVSPost2010PropOp44
 70
     1
102
RTVSPost2010Prop45
280
     0
102
RTVSPost2010PropOp45
 70
     1
102
RTVSPost2010Prop46
 90
       50
102
RTVSPost2010PropOp46
 70
     1
102
RTVSPost2010Prop47
 90
       50
102
RTVSPost2010PropOp47
 70
     1
102
RTVSPost2010Prop48
 90
       50
102
RTVSPost2010PropOp48
 70
     1
102
RTVSPost2010Prop49
280
     0
102
RTVSPost2010PropOp49
 70
     1
102
RTVSPost2010Prop50
 90
       50
102
RTVSPost2010PropOp50
 70
     1
102
RTVSPost2010Prop51ColorIndex
 90
      256
102
RTVSPost2010Prop51ColorRGB
 90
-16777216
102
RTVSPost2010PropOp51
 70
     0
102
RTVSPost2010Prop52
140
1.0
102
RTVSPost2010PropOp52
 70
     0
102
RTVSPost2010Prop53
 90
        2
102
RTVSPost2010PropOp53
 70
     1
102
RTVSPost2010Prop54
  1
strokes_ogs.tif
102
RTVSPost2010PropOp54
 70
     1
102
RTVSPost2010Prop55
280
     0
102
RTVSPost2010PropOp55
 70
     1
102
RTVSPost2010Prop56
140
1.0
102
RTVSPost2010PropOp56
 70
     1
102
RTVSPost2010Prop57
140
1.0
102
RTVSPost2010PropOp57
 70
     1
102
RTVSPropertyOp0
 70
     1
102
RTVSPropertyOp1
 70
     1
102
RTVSPropertyOp2
 70
     1
102
RTVSPropertyOp3
 70
     1
102
RTVSPropertyOp4
 70
     1
102
RTVSPropertyOp5
 70
     1
102
RTVSPropertyOp6
 70
     1
102
RTVSPropertyOp7
 70
     1
102
RTVSPropertyOp8
 70
     1
102
RTVSPropertyOp9
 70
     1
102
RTVSPropertyOp10
 70
     1
102
RTVSPropertyOp11
 70
     1
102
RTVSPropertyOp12
 70
     1
102
RTVSPropertyOp13
 70
     1
102
RTVSPropertyOp14
 70
     1
102
RTVSPropertyOp15
 70
     1
102
RTVSPropertyOp16
 70
     1
102
RTVSPropertyOp17
 70
     1
102
RTVSPropertyOp18
 70
     1
102
RTVSPropertyOp19
 70
     1
102
RTVSPropertyOp20
 70
     1
102
RTVSPropertyOp21
 70
     1
102
RTVSPropertyOp22
 70
     1
102
RTVSPropertyOp23
 70
     1
102
RTVSPropertyOp24
 70
     1
102
RTVSPropertyOp25
 70
     1
102
RTVSPropertyOp26
 70
     1
102
RTVSPropertyOp27
 70
     1
102
RTVSPropertyOp28
 70
     1
102
RTVSPropertyOp29
 70
     1
102
RTVSPropertyOp30
 70
     1
102
RTVSPropertyOp31
 70
     1
102
RTVSPropertyOp32
 70
     1
102
RTVSPropertyOp33
 70
     1
102
RTVSPropertyOp34
 70
     1
102
RTVSPropertyOp35
 70
     1
102
RTVSPropertyOp36
 70
     1
102
RTVSPropertyOp37
 70
     1
102
RTVSPropertyOp38
 70
     1
102
RTVSPropertyOp39
 70
     1
102
RTVSPropertyOp40
 70
     1
102
RTVSPropertyOp41
 70
     1
102
RTVSPropertyOp42
 70
     1
102
RTVSPropertyOp43
 70
     1
102
RTVSPropertyOp44
 70
     1
102
RTVSPropertyOp45
 70
     1
102
RTVSPropertyOp46
 70
     1
102
RTVSPropertyOp47
 70
     1
102
RTVSPropertyOp48
 70
     1
102
RTVSPropertyOp49
 70
     1
102
RTVSPropertyOp50
 70
     1
102
RTVSPropertyOp51
 70
     0
102
RTVSPropertyOp52
 70
     0
102
RTVSPropertyOp53
 70
     1
102
RTVSPropertyOp54
 70
     1
102
RTVSPropertyOp55
 70
     1
102
RTVSPropertyOp56
 70
     1
102
RTVSPropertyOp57
 70
     1
102
RTVSPropertyOp58
 70
     1
102
RTVSPropertyOp59
 70
     1
102
RTVSPropertyOp60
 70
     1
102
RTVSPropertyOp61
 70
     1
102
RTVSPropertyOp62
 70
     1
  0
XRECORD
  5
C55A
102
{ACAD_REACTORS
330
C559
102
}
330
C559
100
AcDbXrecord
280
     1
102
RTVSPost2010Prop28
280
     0
102
RTVSPost2010PropOp28
 70
     1
102
RTVSPost2010Prop29
280
     1
102
RTVSPost2010PropOp29
 70
     1
102
RTVSPost2010Prop30
280
     1
102
RTVSPost2010PropOp30
 70
     1
102
RTVSPost2010Prop31
280
     0
102
RTVSPost2010PropOp31
 70
     1
102
RTVSPost2010Prop32
280
     0
102
RTVSPost2010PropOp32
 70
     1
102
RTVSPost2010Prop33
280
     0
102
RTVSPost2010PropOp33
 70
     1
102
RTVSPost2010Prop34
280
     0
102
RTVSPost2010PropOp34
 70
     1
102
RTVSPost2010Prop35
280
     0
102
RTVSPost2010PropOp35
 70
     1
102
RTVSPost2010Prop36
280
     0
102
RTVSPost2010PropOp36
 70
     1
102
RTVSPost2010Prop37
 90
       50
102
RTVSPost2010PropOp37
 70
     1
102
RTVSPost2010Prop38
140
0.0
102
RTVSPost2010PropOp38
 70
     1
102
RTVSPost2010Prop39
140
1.0
102
RTVSPost2010PropOp39
 70
     1
102
RTVSPost2010Prop40
 90
        0
102
RTVSPost2010PropOp40
 70
     1
102
RTVSPost2010Prop41ColorIndex
 90
       18
102
RTVSPost2010Prop41ColorRGB
 90
        0
102
RTVSPost2010PropOp41
 70
     1
102
RTVSPost2010Prop42
 90
       50
102
RTVSPost2010PropOp42
 70
     1
102
RTVSPost2010Prop43
 90
        3
102
RTVSPost2010PropOp43
 70
     1
102
RTVSPost2010Prop44ColorIndex
 90
        5
102
RTVSPost2010Prop44ColorRGB
 90
      255
102
RTVSPost2010PropOp44
 70
     1
102
RTVSPost2010Prop45
280
     0
102
RTVSPost2010PropOp45
 70
     1
102
RTVSPost2010Prop46
 90
       50
102
RTVSPost2010PropOp46
 70
     1
102
RTVSPost2010Prop47
 90
       50
102
RTVSPost2010PropOp47
 70
     1
102
RTVSPost2010Prop48
 90
       50
102
RTVSPost2010PropOp48
 70
     1
102
RTVSPost2010Prop49
280
     0
102
RTVSPost2010PropOp49
 70
     1
102
RTVSPost2010Prop50
 90
       50
102
RTVSPost2010PropOp50
 70
     1
102
RTVSPost2010Prop51ColorIndex
 90
      256
102
RTVSPost2010Prop51ColorRGB
 90
-16777216
102
RTVSPost2010PropOp51
 70
     0
102
RTVSPost2010Prop52
140
1.0
102
RTVSPost2010PropOp52
 70
     0
102
RTVSPost2010Prop53
 90
        2
102
RTVSPost2010PropOp53
 70
     1
102
RTVSPost2010Prop54
  1
strokes_ogs.tif
102
RTVSPost2010PropOp54
 70
     1
102
RTVSPost2010Prop55
280
     0
102
RTVSPost2010PropOp55
 70
     1
102
RTVSPost2010Prop56
140
1.0
102
RTVSPost2010PropOp56
 70
     1
102
RTVSPost2010Prop57
140
1.0
102
RTVSPost2010PropOp57
 70
     1
102
RTVSPropertyOp0
 70
     1
102
RTVSPropertyOp1
 70
     1
102
RTVSPropertyOp2
 70
     1
102
RTVSPropertyOp3
 70
     1
102
RTVSPropertyOp4
 70
     1
102
RTVSPropertyOp5
 70
     1
102
RTVSPropertyOp6
 70
     1
102
RTVSPropertyOp7
 70
     1
102
RTVSPropertyOp8
 70
     1
102
RTVSPropertyOp9
 70
     1
102
RTVSPropertyOp10
 70
     1
102
RTVSPropertyOp11
 70
     1
102
RTVSPropertyOp12
 70
     1
102
RTVSPropertyOp13
 70
     1
102
RTVSPropertyOp14
 70
     1
102
RTVSPropertyOp15
 70
     1
102
RTVSPropertyOp16
 70
     1
102
RTVSPropertyOp17
 70
     1
102
RTVSPropertyOp18
 70
     1
102
RTVSPropertyOp19
 70
     1
102
RTVSPropertyOp20
 70
     1
102
RTVSPropertyOp21
 70
     1
102
RTVSPropertyOp22
 70
     1
102
RTVSPropertyOp23
 70
     1
102
RTVSPropertyOp24
 70
     1
102
RTVSPropertyOp25
 70
     1
102
RTVSPropertyOp26
 70
     1
102
RTVSPropertyOp27
 70
     1
102
RTVSPropertyOp28
 70
     1
102
RTVSPropertyOp29
 70
     1
102
RTVSPropertyOp30
 70
     1
102
RTVSPropertyOp31
 70
     1
102
RTVSPropertyOp32
 70
     1
102
RTVSPropertyOp33
 70
     1
102
RTVSPropertyOp34
 70
     1
102
RTVSPropertyOp35
 70
     1
102
RTVSPropertyOp36
 70
     1
102
RTVSPropertyOp37
 70
     1
102
RTVSPropertyOp38
 70
     1
102
RTVSPropertyOp39
 70
     1
102
RTVSPropertyOp40
 70
     1
102
RTVSPropertyOp41
 70
     1
102
RTVSPropertyOp42
 70
     1
102
RTVSPropertyOp43
 70
     1
102
RTVSPropertyOp44
 70
     1
102
RTVSPropertyOp45
 70
     1
102
RTVSPropertyOp46
 70
     1
102
RTVSPropertyOp47
 70
     1
102
RTVSPropertyOp48
 70
     1
102
RTVSPropertyOp49
 70
     1
102
RTVSPropertyOp50
 70
     1
102
RTVSPropertyOp51
 70
     0
102
RTVSPropertyOp52
 70
     0
102
RTVSPropertyOp53
 70
     1
102
RTVSPropertyOp54
 70
     1
102
RTVSPropertyOp55
 70
     1
102
RTVSPropertyOp56
 70
     1
102
RTVSPropertyOp57
 70
     1
102
RTVSPropertyOp58
 70
     1
102
RTVSPropertyOp59
 70
     1
102
RTVSPropertyOp60
 70
     1
102
RTVSPropertyOp61
 70
     1
102
RTVSPropertyOp62
 70
     1
  0
XRECORD
  5
C550
102
{ACAD_REACTORS
330
C54F
102
}
330
C54F
100
AcDbXrecord
280
     1
102
RTVSPost2010Prop28
280
     0
102
RTVSPost2010PropOp28
 70
     1
102
RTVSPost2010Prop29
280
     1
102
RTVSPost2010PropOp29
 70
     1
102
RTVSPost2010Prop30
280
     1
102
RTVSPost2010PropOp30
 70
     1
102
RTVSPost2010Prop31
280
     0
102
RTVSPost2010PropOp31
 70
     1
102
RTVSPost2010Prop32
280
     0
102
RTVSPost2010PropOp32
 70
     1
102
RTVSPost2010Prop33
280
     0
102
RTVSPost2010PropOp33
 70
     1
102
RTVSPost2010Prop34
280
     0
102
RTVSPost2010PropOp34
 70
     1
102
RTVSPost2010Prop35
280
     0
102
RTVSPost2010PropOp35
 70
     1
102
RTVSPost2010Prop36
280
     0
102
RTVSPost2010PropOp36
 70
     1
102
RTVSPost2010Prop37
 90
       50
102
RTVSPost2010PropOp37
 70
     1
102
RTVSPost2010Prop38
140
0.0
102
RTVSPost2010PropOp38
 70
     1
102
RTVSPost2010Prop39
140
1.0
102
RTVSPost2010PropOp39
 70
     1
102
RTVSPost2010Prop40
 90
        0
102
RTVSPost2010PropOp40
 70
     1
102
RTVSPost2010Prop41ColorIndex
 90
       18
102
RTVSPost2010Prop41ColorRGB
 90
        0
102
RTVSPost2010PropOp41
 70
     1
102
RTVSPost2010Prop42
 90
       50
102
RTVSPost2010PropOp42
 70
     1
102
RTVSPost2010Prop43
 90
        3
102
RTVSPost2010PropOp43
 70
     1
102
RTVSPost2010Prop44ColorIndex
 90
        5
102
RTVSPost2010Prop44ColorRGB
 90
      255
102
RTVSPost2010PropOp44
 70
     1
102
RTVSPost2010Prop45
280
     0
102
RTVSPost2010PropOp45
 70
     1
102
RTVSPost2010Prop46
 90
       50
102
RTVSPost2010PropOp46
 70
     1
102
RTVSPost2010Prop47
 90
       50
102
RTVSPost2010PropOp47
 70
     1
102
RTVSPost2010Prop48
 90
       50
102
RTVSPost2010PropOp48
 70
     1
102
RTVSPost2010Prop49
280
     0
102
RTVSPost2010PropOp49
 70
     1
102
RTVSPost2010Prop50
 90
       50
102
RTVSPost2010PropOp50
 70
     1
102
RTVSPost2010Prop51ColorIndex
 90
      256
102
RTVSPost2010Prop51ColorRGB
 90
-16777216
102
RTVSPost2010PropOp51
 70
     0
102
RTVSPost2010Prop52
140
1.0
102
RTVSPost2010PropOp52
 70
     0
102
RTVSPost2010Prop53
 90
        2
102
RTVSPost2010PropOp53
 70
     1
102
RTVSPost2010Prop54
  1
strokes_ogs.tif
102
RTVSPost2010PropOp54
 70
     1
102
RTVSPost2010Prop55
280
     0
102
RTVSPost2010PropOp55
 70
     1
102
RTVSPost2010Prop56
140
1.0
102
RTVSPost2010PropOp56
 70
     1
102
RTVSPost2010Prop57
140
1.0
102
RTVSPost2010PropOp57
 70
     1
102
RTVSPropertyOp0
 70
     1
102
RTVSPropertyOp1
 70
     1
102
RTVSPropertyOp2
 70
     1
102
RTVSPropertyOp3
 70
     1
102
RTVSPropertyOp4
 70
     1
102
RTVSPropertyOp5
 70
     1
102
RTVSPropertyOp6
 70
     1
102
RTVSPropertyOp7
 70
     1
102
RTVSPropertyOp8
 70
     1
102
RTVSPropertyOp9
 70
     1
102
RTVSPropertyOp10
 70
     1
102
RTVSPropertyOp11
 70
     1
102
RTVSPropertyOp12
 70
     1
102
RTVSPropertyOp13
 70
     1
102
RTVSPropertyOp14
 70
     1
102
RTVSPropertyOp15
 70
     1
102
RTVSPropertyOp16
 70
     1
102
RTVSPropertyOp17
 70
     1
102
RTVSPropertyOp18
 70
     1
102
RTVSPropertyOp19
 70
     1
102
RTVSPropertyOp20
 70
     1
102
RTVSPropertyOp21
 70
     1
102
RTVSPropertyOp22
 70
     1
102
RTVSPropertyOp23
 70
     1
102
RTVSPropertyOp24
 70
     1
102
RTVSPropertyOp25
 70
     1
102
RTVSPropertyOp26
 70
     1
102
RTVSPropertyOp27
 70
     1
102
RTVSPropertyOp28
 70
     1
102
RTVSPropertyOp29
 70
     1
102
RTVSPropertyOp30
 70
     1
102
RTVSPropertyOp31
 70
     1
102
RTVSPropertyOp32
 70
     1
102
RTVSPropertyOp33
 70
     1
102
RTVSPropertyOp34
 70
     1
102
RTVSPropertyOp35
 70
     1
102
RTVSPropertyOp36
 70
     1
102
RTVSPropertyOp37
 70
     1
102
RTVSPropertyOp38
 70
     1
102
RTVSPropertyOp39
 70
     1
102
RTVSPropertyOp40
 70
     1
102
RTVSPropertyOp41
 70
     1
102
RTVSPropertyOp42
 70
     1
102
RTVSPropertyOp43
 70
     1
102
RTVSPropertyOp44
 70
     1
102
RTVSPropertyOp45
 70
     1
102
RTVSPropertyOp46
 70
     1
102
RTVSPropertyOp47
 70
     1
102
RTVSPropertyOp48
 70
     1
102
RTVSPropertyOp49
 70
     1
102
RTVSPropertyOp50
 70
     1
102
RTVSPropertyOp51
 70
     0
102
RTVSPropertyOp52
 70
     0
102
RTVSPropertyOp53
 70
     1
102
RTVSPropertyOp54
 70
     1
102
RTVSPropertyOp55
 70
     1
102
RTVSPropertyOp56
 70
     1
102
RTVSPropertyOp57
 70
     1
102
RTVSPropertyOp58
 70
     1
102
RTVSPropertyOp59
 70
     1
102
RTVSPropertyOp60
 70
     1
102
RTVSPropertyOp61
 70
     1
102
RTVSPropertyOp62
 70
     1
  0
XRECORD
  5
C544
102
{ACAD_REACTORS
330
C543
102
}
330
C543
100
AcDbXrecord
280
     1
102
RTVSPost2010Prop28
280
     0
102
RTVSPost2010PropOp28
 70
     1
102
RTVSPost2010Prop29
280
     1
102
RTVSPost2010PropOp29
 70
     1
102
RTVSPost2010Prop30
280
     1
102
RTVSPost2010PropOp30
 70
     1
102
RTVSPost2010Prop31
280
     0
102
RTVSPost2010PropOp31
 70
     1
102
RTVSPost2010Prop32
280
     0
102
RTVSPost2010PropOp32
 70
     1
102
RTVSPost2010Prop33
280
     0
102
RTVSPost2010PropOp33
 70
     1
102
RTVSPost2010Prop34
280
     0
102
RTVSPost2010PropOp34
 70
     1
102
RTVSPost2010Prop35
280
     0
102
RTVSPost2010PropOp35
 70
     1
102
RTVSPost2010Prop36
280
     0
102
RTVSPost2010PropOp36
 70
     1
102
RTVSPost2010Prop37
 90
       50
102
RTVSPost2010PropOp37
 70
     1
102
RTVSPost2010Prop38
140
0.0
102
RTVSPost2010PropOp38
 70
     1
102
RTVSPost2010Prop39
140
1.0
102
RTVSPost2010PropOp39
 70
     1
102
RTVSPost2010Prop40
 90
        0
102
RTVSPost2010PropOp40
 70
     1
102
RTVSPost2010Prop41ColorIndex
 90
       18
102
RTVSPost2010Prop41ColorRGB
 90
        0
102
RTVSPost2010PropOp41
 70
     1
102
RTVSPost2010Prop42
 90
       50
102
RTVSPost2010PropOp42
 70
     1
102
RTVSPost2010Prop43
 90
        3
102
RTVSPost2010PropOp43
 70
     1
102
RTVSPost2010Prop44ColorIndex
 90
        5
102
RTVSPost2010Prop44ColorRGB
 90
      255
102
RTVSPost2010PropOp44
 70
     1
102
RTVSPost2010Prop45
280
     0
102
RTVSPost2010PropOp45
 70
     1
102
RTVSPost2010Prop46
 90
       50
102
RTVSPost2010PropOp46
 70
     1
102
RTVSPost2010Prop47
 90
       50
102
RTVSPost2010PropOp47
 70
     1
102
RTVSPost2010Prop48
 90
       50
102
RTVSPost2010PropOp48
 70
     1
102
RTVSPost2010Prop49
280
     0
102
RTVSPost2010PropOp49
 70
     1
102
RTVSPost2010Prop50
 90
       50
102
RTVSPost2010PropOp50
 70
     1
102
RTVSPost2010Prop51ColorIndex
 90
      256
102
RTVSPost2010Prop51ColorRGB
 90
-16777216
102
RTVSPost2010PropOp51
 70
     0
102
RTVSPost2010Prop52
140
1.0
102
RTVSPost2010PropOp52
 70
     0
102
RTVSPost2010Prop53
 90
        2
102
RTVSPost2010PropOp53
 70
     1
102
RTVSPost2010Prop54
  1
strokes_ogs.tif
102
RTVSPost2010PropOp54
 70
     1
102
RTVSPost2010Prop55
280
     0
102
RTVSPost2010PropOp55
 70
     1
102
RTVSPost2010Prop56
140
1.0
102
RTVSPost2010PropOp56
 70
     1
102
RTVSPost2010Prop57
140
1.0
102
RTVSPost2010PropOp57
 70
     1
102
RTVSPropertyOp0
 70
     1
102
RTVSPropertyOp1
 70
     1
102
RTVSPropertyOp2
 70
     1
102
RTVSPropertyOp3
 70
     1
102
RTVSPropertyOp4
 70
     1
102
RTVSPropertyOp5
 70
     1
102
RTVSPropertyOp6
 70
     1
102
RTVSPropertyOp7
 70
     1
102
RTVSPropertyOp8
 70
     1
102
RTVSPropertyOp9
 70
     1
102
RTVSPropertyOp10
 70
     1
102
RTVSPropertyOp11
 70
     1
102
RTVSPropertyOp12
 70
     1
102
RTVSPropertyOp13
 70
     1
102
RTVSPropertyOp14
 70
     1
102
RTVSPropertyOp15
 70
     1
102
RTVSPropertyOp16
 70
     1
102
RTVSPropertyOp17
 70
     1
102
RTVSPropertyOp18
 70
     1
102
RTVSPropertyOp19
 70
     1
102
RTVSPropertyOp20
 70
     1
102
RTVSPropertyOp21
 70
     1
102
RTVSPropertyOp22
 70
     1
102
RTVSPropertyOp23
 70
     1
102
RTVSPropertyOp24
 70
     1
102
RTVSPropertyOp25
 70
     1
102
RTVSPropertyOp26
 70
     1
102
RTVSPropertyOp27
 70
     1
102
RTVSPropertyOp28
 70
     1
102
RTVSPropertyOp29
 70
     1
102
RTVSPropertyOp30
 70
     1
102
RTVSPropertyOp31
 70
     1
102
RTVSPropertyOp32
 70
     1
102
RTVSPropertyOp33
 70
     1
102
RTVSPropertyOp34
 70
     1
102
RTVSPropertyOp35
 70
     1
102
RTVSPropertyOp36
 70
     1
102
RTVSPropertyOp37
 70
     1
102
RTVSPropertyOp38
 70
     1
102
RTVSPropertyOp39
 70
     1
102
RTVSPropertyOp40
 70
     1
102
RTVSPropertyOp41
 70
     1
102
RTVSPropertyOp42
 70
     1
102
RTVSPropertyOp43
 70
     1
102
RTVSPropertyOp44
 70
     1
102
RTVSPropertyOp45
 70
     1
102
RTVSPropertyOp46
 70
     1
102
RTVSPropertyOp47
 70
     1
102
RTVSPropertyOp48
 70
     1
102
RTVSPropertyOp49
 70
     1
102
RTVSPropertyOp50
 70
     1
102
RTVSPropertyOp51
 70
     0
102
RTVSPropertyOp52
 70
     0
102
RTVSPropertyOp53
 70
     1
102
RTVSPropertyOp54
 70
     1
102
RTVSPropertyOp55
 70
     1
102
RTVSPropertyOp56
 70
     1
102
RTVSPropertyOp57
 70
     1
102
RTVSPropertyOp58
 70
     1
102
RTVSPropertyOp59
 70
     1
102
RTVSPropertyOp60
 70
     1
102
RTVSPropertyOp61
 70
     1
102
RTVSPropertyOp62
 70
     1
  0
XRECORD
  5
C55C
102
{ACAD_REACTORS
330
C55B
102
}
330
C55B
100
AcDbXrecord
280
     1
102
RTVSPost2010Prop28
280
     0
102
RTVSPost2010PropOp28
 70
     1
102
RTVSPost2010Prop29
280
     1
102
RTVSPost2010PropOp29
 70
     1
102
RTVSPost2010Prop30
280
     1
102
RTVSPost2010PropOp30
 70
     1
102
RTVSPost2010Prop31
280
     0
102
RTVSPost2010PropOp31
 70
     1
102
RTVSPost2010Prop32
280
     0
102
RTVSPost2010PropOp32
 70
     1
102
RTVSPost2010Prop33
280
     0
102
RTVSPost2010PropOp33
 70
     1
102
RTVSPost2010Prop34
280
     0
102
RTVSPost2010PropOp34
 70
     1
102
RTVSPost2010Prop35
280
     0
102
RTVSPost2010PropOp35
 70
     1
102
RTVSPost2010Prop36
280
     0
102
RTVSPost2010PropOp36
 70
     1
102
RTVSPost2010Prop37
 90
       50
102
RTVSPost2010PropOp37
 70
     1
102
RTVSPost2010Prop38
140
0.0
102
RTVSPost2010PropOp38
 70
     1
102
RTVSPost2010Prop39
140
1.0
102
RTVSPost2010PropOp39
 70
     1
102
RTVSPost2010Prop40
 90
        0
102
RTVSPost2010PropOp40
 70
     1
102
RTVSPost2010Prop41ColorIndex
 90
       18
102
RTVSPost2010Prop41ColorRGB
 90
        0
102
RTVSPost2010PropOp41
 70
     1
102
RTVSPost2010Prop42
 90
       50
102
RTVSPost2010PropOp42
 70
     1
102
RTVSPost2010Prop43
 90
        3
102
RTVSPost2010PropOp43
 70
     1
102
RTVSPost2010Prop44ColorIndex
 90
        5
102
RTVSPost2010Prop44ColorRGB
 90
      255
102
RTVSPost2010PropOp44
 70
     1
102
RTVSPost2010Prop45
280
     0
102
RTVSPost2010PropOp45
 70
     1
102
RTVSPost2010Prop46
 90
       50
102
RTVSPost2010PropOp46
 70
     1
102
RTVSPost2010Prop47
 90
       50
102
RTVSPost2010PropOp47
 70
     1
102
RTVSPost2010Prop48
 90
       50
102
RTVSPost2010PropOp48
 70
     1
102
RTVSPost2010Prop49
280
     0
102
RTVSPost2010PropOp49
 70
     1
102
RTVSPost2010Prop50
 90
       50
102
RTVSPost2010PropOp50
 70
     1
102
RTVSPost2010Prop51ColorIndex
 90
      256
102
RTVSPost2010Prop51ColorRGB
 90
-16777216
102
RTVSPost2010PropOp51
 70
     0
102
RTVSPost2010Prop52
140
1.0
102
RTVSPost2010PropOp52
 70
     0
102
RTVSPost2010Prop53
 90
        2
102
RTVSPost2010PropOp53
 70
     1
102
RTVSPost2010Prop54
  1
strokes_ogs.tif
102
RTVSPost2010PropOp54
 70
     1
102
RTVSPost2010Prop55
280
     0
102
RTVSPost2010PropOp55
 70
     1
102
RTVSPost2010Prop56
140
1.0
102
RTVSPost2010PropOp56
 70
     1
102
RTVSPost2010Prop57
140
1.0
102
RTVSPost2010PropOp57
 70
     1
102
RTVSPropertyOp0
 70
     1
102
RTVSPropertyOp1
 70
     1
102
RTVSPropertyOp2
 70
     1
102
RTVSPropertyOp3
 70
     1
102
RTVSPropertyOp4
 70
     1
102
RTVSPropertyOp5
 70
     1
102
RTVSPropertyOp6
 70
     1
102
RTVSPropertyOp7
 70
     1
102
RTVSPropertyOp8
 70
     1
102
RTVSPropertyOp9
 70
     1
102
RTVSPropertyOp10
 70
     1
102
RTVSPropertyOp11
 70
     1
102
RTVSPropertyOp12
 70
     1
102
RTVSPropertyOp13
 70
     1
102
RTVSPropertyOp14
 70
     1
102
RTVSPropertyOp15
 70
     1
102
RTVSPropertyOp16
 70
     1
102
RTVSPropertyOp17
 70
     1
102
RTVSPropertyOp18
 70
     1
102
RTVSPropertyOp19
 70
     1
102
RTVSPropertyOp20
 70
     1
102
RTVSPropertyOp21
 70
     1
102
RTVSPropertyOp22
 70
     1
102
RTVSPropertyOp23
 70
     1
102
RTVSPropertyOp24
 70
     1
102
RTVSPropertyOp25
 70
     1
102
RTVSPropertyOp26
 70
     1
102
RTVSPropertyOp27
 70
     1
102
RTVSPropertyOp28
 70
     1
102
RTVSPropertyOp29
 70
     1
102
RTVSPropertyOp30
 70
     1
102
RTVSPropertyOp31
 70
     1
102
RTVSPropertyOp32
 70
     1
102
RTVSPropertyOp33
 70
     1
102
RTVSPropertyOp34
 70
     1
102
RTVSPropertyOp35
 70
     1
102
RTVSPropertyOp36
 70
     1
102
RTVSPropertyOp37
 70
     1
102
RTVSPropertyOp38
 70
     1
102
RTVSPropertyOp39
 70
     1
102
RTVSPropertyOp40
 70
     1
102
RTVSPropertyOp41
 70
     1
102
RTVSPropertyOp42
 70
     1
102
RTVSPropertyOp43
 70
     1
102
RTVSPropertyOp44
 70
     1
102
RTVSPropertyOp45
 70
     1
102
RTVSPropertyOp46
 70
     1
102
RTVSPropertyOp47
 70
     1
102
RTVSPropertyOp48
 70
     1
102
RTVSPropertyOp49
 70
     1
102
RTVSPropertyOp50
 70
     1
102
RTVSPropertyOp51
 70
     0
102
RTVSPropertyOp52
 70
     0
102
RTVSPropertyOp53
 70
     1
102
RTVSPropertyOp54
 70
     1
102
RTVSPropertyOp55
 70
     1
102
RTVSPropertyOp56
 70
     1
102
RTVSPropertyOp57
 70
     1
102
RTVSPropertyOp58
 70
     1
102
RTVSPropertyOp59
 70
     1
102
RTVSPropertyOp60
 70
     1
102
RTVSPropertyOp61
 70
     1
102
RTVSPropertyOp62
 70
     1
  0
ENDSEC
  0
EOF
