  0
SECTION
  2
HEADER
  9
$ACADVER
  1
AC1015
  9
$ACADMAINTVER
 70
    20
  9
$DWGCODEPAGE
  3
ANSI_932
  9
$INSBASE
 10
0.0
 20
0.0
 30
0.0
  9
$EXTMIN
 10
14.363923
 20
9.999999999999998
 30
0.0
  9
$EXTMAX
 10
587.0472070000001
 20
344.9855109999999
 30
0.0
  9
$LIMMIN
 10
0.0
 20
0.0
  9
$LIMMAX
 10
633.6
 20
436.8
  9
$ORTHOMODE
 70
     1
  9
$REGENMODE
 70
     1
  9
$FILLMODE
 70
     1
  9
$QTEXTMODE
 70
     0
  9
$MIRRTEXT
 70
     1
  9
$LTSCALE
 40
20.0
  9
$ATTMODE
 70
     1
  9
$TEXTSIZE
 40
5.0
  9
$TRACEWID
 40
1.0
  9
$TEXTSTYLE
  7
STANDARD
  9
$CLAYER
  8
0
  9
$CELTYPE
  6
BYLAYER
  9
$CECOLOR
 62
   256
  9
$CELTSCALE
 40
1.0
  9
$DISPSILH
 70
     0
  9
$DIMSCALE
 40
1.0
  9
$DIMASZ
 40
2.5
  9
$DIMEXO
 40
1.0
  9
$DIMDLI
 40
10.0
  9
$DIMRND
 40
0.0
  9
$DIMDLE
 40
0.0
  9
$DIMEXE
 40
1.0
  9
$DIMTP
 40
0.0
  9
$DIMTM
 40
0.0
  9
$DIMTXT
 40
3.2
  9
$DIMCEN
 40
0.0
  9
$DIMTSZ
 40
0.0
  9
$DIMTOL
 70
     0
  9
$DIMLIM
 70
     0
  9
$DIMTIH
 70
     0
  9
$DIMTOH
 70
     0
  9
$DIMSE1
 70
     0
  9
$DIMSE2
 70
     0
  9
$DIMTAD
 70
     3
  9
$DIMZIN
 70
     8
  9
$DIMBLK
  1

  9
$DIMASO
 70
     1
  9
$DIMSHO
 70
     1
  9
$DIMPOST
  1

  9
$DIMAPOST
  1

  9
$DIMALT
 70
     0
  9
$DIMALTD
 70
     2
  9
$DIMALTF
 40
25.4
  9
$DIMLFAC
 40
1.0
  9
$DIMTOFL
 70
     1
  9
$DIMTVP
 40
0.0
  9
$DIMTIX
 70
     0
  9
$DIMSOXD
 70
     0
  9
$DIMSAH
 70
     1
  9
$DIMBLK1
  1
OPEN
  9
$DIMBLK2
  1
OPEN
  9
$DIMSTYLE
  2
STANDARD
  9
$DIMCLRD
 70
     0
  9
$DIMCLRE
 70
     0
  9
$DIMCLRT
 70
     0
  9
$DIMTFAC
 40
1.0
  9
$DIMGAP
 40
1.0
  9
$DIMJUST
 70
     0
  9
$DIMSD1
 70
     0
  9
$DIMSD2
 70
     0
  9
$DIMTOLJ
 70
     1
  9
$DIMTZIN
 70
     0
  9
$DIMALTZ
 70
     0
  9
$DIMALTTZ
 70
     0
  9
$DIMUPT
 70
     0
  9
$DIMDEC
 70
     4
  9
$DIMTDEC
 70
     4
  9
$DIMALTU
 70
     2
  9
$DIMALTTD
 70
     2
  9
$DIMTXSTY
  7
STANDARD
  9
$DIMAUNIT
 70
     0
  9
$DIMADEC
 70
     0
  9
$DIMALTRND
 40
0.0
  9
$DIMAZIN
 70
     0
  9
$DIMDSEP
 70
    46
  9
$DIMATFIT
 70
     3
  9
$DIMFRAC
 70
     0
  9
$DIMLDRBLK
  1
OPEN
  9
$DIMLUNIT
 70
     2
  9
$DIMLWD
 70
    -2
  9
$DIMLWE
 70
    -2
  9
$DIMTMOVE
 70
     0
  9
$LUNITS
 70
     2
  9
$LUPREC
 70
     4
  9
$SKETCHINC
 40
1.0
  9
$FILLETRAD
 40
2.5
  9
$AUNITS
 70
     0
  9
$AUPREC
 70
     2
  9
$MENU
  1
.
  9
$ELEVATION
 40
0.0
  9
$PELEVATION
 40
0.0
  9
$THICKNESS
 40
0.0
  9
$LIMCHECK
 70
     0
  9
$CHAMFERA
 40
10.0
  9
$CHAMFERB
 40
10.0
  9
$CHAMFERC
 40
0.0
  9
$CHAMFERD
 40
0.0
  9
$SKPOLY
 70
     0
  9
$TDCREATE
 40
2451345.429828125
  9
$TDUCREATE
 40
2451345.054828125
  9
$TDUPDATE
 40
2457192.643609398
  9
$TDUUPDATE
 40
2457192.268609398
  9
$TDINDWG
 40
0.0000162500
  9
$TDUSRTIMER
 40
0.0000159375
  9
$USRTIMER
 70
     1
  9
$ANGBASE
 50
0.0
  9
$ANGDIR
 70
     0
  9
$PDMODE
 70
     0
  9
$PDSIZE
 40
0.0
  9
$PLINEWID
 40
0.0
  9
$SPLFRAME
 70
     0
  9
$SPLINETYPE
 70
     6
  9
$SPLINESEGS
 70
     8
  9
$HANDSEED
  5
C2EF
  9
$SURFTAB1
 70
     6
  9
$SURFTAB2
 70
     6
  9
$SURFTYPE
 70
     6
  9
$SURFU
 70
     6
  9
$SURFV
 70
     6
  9
$UCSBASE
  2

  9
$UCSNAME
  2

  9
$UCSORG
 10
0.0
 20
0.0
 30
0.0
  9
$UCSXDIR
 10
1.0
 20
0.0
 30
0.0
  9
$UCSYDIR
 10
0.0
 20
1.0
 30
0.0
  9
$UCSORTHOREF
  2

  9
$UCSORTHOVIEW
 70
     0
  9
$UCSORGTOP
 10
0.0
 20
0.0
 30
0.0
  9
$UCSORGBOTTOM
 10
0.0
 20
0.0
 30
0.0
  9
$UCSORGLEFT
 10
0.0
 20
0.0
 30
0.0
  9
$UCSORGRIGHT
 10
0.0
 20
0.0
 30
0.0
  9
$UCSORGFRONT
 10
0.0
 20
0.0
 30
0.0
  9
$UCSORGBACK
 10
0.0
 20
0.0
 30
0.0
  9
$PUCSBASE
  2

  9
$PUCSNAME
  2

  9
$PUCSORG
 10
0.0
 20
0.0
 30
0.0
  9
$PUCSXDIR
 10
1.0
 20
0.0
 30
0.0
  9
$PUCSYDIR
 10
0.0
 20
1.0
 30
0.0
  9
$PUCSORTHOREF
  2

  9
$PUCSORTHOVIEW
 70
     0
  9
$PUCSORGTOP
 10
0.0
 20
0.0
 30
0.0
  9
$PUCSORGBOTTOM
 10
0.0
 20
0.0
 30
0.0
  9
$PUCSORGLEFT
 10
0.0
 20
0.0
 30
0.0
  9
$PUCSORGRIGHT
 10
0.0
 20
0.0
 30
0.0
  9
$PUCSORGFRONT
 10
0.0
 20
0.0
 30
0.0
  9
$PUCSORGBACK
 10
0.0
 20
0.0
 30
0.0
  9
$USERI1
 70
     0
  9
$USERI2
 70
     0
  9
$USERI3
 70
     0
  9
$USERI4
 70
     0
  9
$USERI5
 70
     0
  9
$USERR1
 40
0.0
  9
$USERR2
 40
0.0
  9
$USERR3
 40
0.0
  9
$USERR4
 40
0.0
  9
$USERR5
 40
0.0
  9
$WORLDVIEW
 70
     1
  9
$SHADEDGE
 70
     3
  9
$SHADEDIF
 70
    70
  9
$TILEMODE
 70
     1
  9
$MAXACTVP
 70
    16
  9
$PINSBASE
 10
0.0
 20
0.0
 30
0.0
  9
$PLIMCHECK
 70
     0
  9
$PEXTMIN
 10
1.000000000000000E+20
 20
1.000000000000000E+20
 30
1.000000000000000E+20
  9
$PEXTMAX
 10
-1.000000000000000E+20
 20
-1.000000000000000E+20
 30
-1.000000000000000E+20
  9
$PLIMMIN
 10
0.0
 20
0.0
  9
$PLIMMAX
 10
420.0
 20
297.0
  9
$UNITMODE
 70
     0
  9
$VISRETAIN
 70
     0
  9
$PLINEGEN
 70
     0
  9
$PSLTSCALE
 70
     0
  9
$TREEDEPTH
 70
  3020
  9
$CMLSTYLE
  2
STANDARD
  9
$CMLJUST
 70
     0
  9
$CMLSCALE
 40
1.0
  9
$PROXYGRAPHICS
 70
     1
  9
$MEASUREMENT
 70
     0
  9
$CELWEIGHT
370
    -1
  9
$ENDCAPS
280
     0
  9
$JOINSTYLE
280
     0
  9
$LWDISPLAY
290
     0
  9
$INSUNITS
 70
     0
  9
$HYPERLINKBASE
  1

  9
$STYLESHEET
  1

  9
$XEDIT
290
     1
  9
$CEPSNTYPE
380
     0
  9
$PSTYLEMODE
290
     1
  9
$FINGERPRINTGUID
  2
{EF6A23F0-1CC4-4A42-AFFD-4D4399DD5E9C}
  9
$VERSIONGUID
  2
{53642A7B-C952-4013-AF59-250867022BE8}
  9
$EXTNAMES
290
     1
  9
$PSVPSCALE
 40
0.0
  9
$OLESTARTUP
290
     0
  0
ENDSEC
  0
SECTION
  2
CLASSES
  0
CLASS
  1
ACDBDICTIONARYWDFLT
  2
AcDbDictionaryWithDefault
  3
ObjectDBX Classes
 90
        0
280
     0
281
     0
  0
CLASS
  1
ACDBPLACEHOLDER
  2
AcDbPlaceHolder
  3
ObjectDBX Classes
 90
        0
280
     0
281
     0
  0
CLASS
  1
LAYOUT
  2
AcDbLayout
  3
ObjectDBX Classes
 90
        0
280
     0
281
     0
  0
CLASS
  1
DICTIONARYVAR
  2
AcDbDictionaryVar
  3
ObjectDBX Classes
 90
        0
280
     0
281
     0
  0
CLASS
  1
MATERIAL
  2
AcDbMaterial
  3
ObjectDBX Classes
 90
     1153
280
     0
281
     0
  0
CLASS
  1
VISUALSTYLE
  2
AcDbVisualStyle
  3
ObjectDBX Classes
 90
     4095
280
     0
281
     0
  0
CLASS
  1
TABLESTYLE
  2
AcDbTableStyle
  3
ObjectDBX Classes
 90
     4095
280
     0
281
     0
  0
CLASS
  1
SCALE
  2
AcDbScale
  3
ObjectDBX Classes
 90
     1153
280
     0
281
     0
  0
CLASS
  1
MLEADERSTYLE
  2
AcDbMLeaderStyle
  3
ACDB_MLEADERSTYLE_CLASS
 90
     4095
280
     0
281
     0
  0
CLASS
  1
ACDBSECTIONVIEWSTYLE
  2
AcDbSectionViewStyle
  3
ObjectDBX Classes
 90
     1025
280
     0
281
     0
  0
CLASS
  1
ACDBDETAILVIEWSTYLE
  2
AcDbDetailViewStyle
  3
ObjectDBX Classes
 90
     1025
280
     0
281
     0
  0
CLASS
  1
CELLSTYLEMAP
  2
AcDbCellStyleMap
  3
ObjectDBX Classes
 90
     1152
280
     0
281
     0
  0
ENDSEC
  0
SECTION
  2
TABLES
  0
TABLE
  2
VPORT
  5
BF29
330
0
100
AcDbSymbolTable
 70
     1
  0
VPORT
  5
C238
330
BF29
100
AcDbSymbolTableRecord
100
AcDbViewportTableRecord
  2
*ACTIVE
 70
     0
 10
0.0
 20
0.0
 11
1.0
 21
1.0
 12
402.1737976047751
 22
177.4933237232889
 13
0.0
 23
0.0
 14
10.0
 24
10.0
 15
10.0
 25
10.0
 16
0.0
 26
0.0
 36
1.0
 17
0.0
 27
0.0
 37
0.0
 40
338.7651717073927
 41
1.899603698811096
 42
50.0
 43
0.0
 44
0.0
 50
0.0
 51
0.0
 71
     0
 72
   100
 73
     1
 74
     0
 75
     0
 76
     0
 77
     0
 78
     0
281
     0
 65
     1
110
0.0
120
0.0
130
0.0
111
1.0
121
0.0
131
0.0
112
0.0
122
1.0
132
0.0
 79
     0
146
0.0
1001
ACAD_NAV_VCDISPLAY
1070
     3
  0
ENDTAB
  0
TABLE
  2
LTYPE
  5
BF26
330
0
100
AcDbSymbolTable
 70
     4
  0
LTYPE
  5
BF34
330
BF26
100
AcDbSymbolTableRecord
100
AcDbLinetypeTableRecord
  2
BYBLOCK
 70
     0
  3

 72
    65
 73
     0
 40
0.0
  0
LTYPE
  5
BF35
330
BF26
100
AcDbSymbolTableRecord
100
AcDbLinetypeTableRecord
  2
BYLAYER
 70
     0
  3

 72
    65
 73
     0
 40
0.0
  0
LTYPE
  5
BF36
330
BF26
100
AcDbSymbolTableRecord
100
AcDbLinetypeTableRecord
  2
CONTINUOUS
 70
     0
  3
Solid line
 72
    65
 73
     0
 40
0.0
  0
LTYPE
  5
BF44
330
BF26
100
AcDbSymbolTableRecord
100
AcDbLinetypeTableRecord
  2
DASHED
 70
     0
  3
__ __ __ __ __ __ __ __ __ __ __ __ __ __ __ __
 72
    65
 73
     2
 40
0.75
 49
0.5
 74
     0
 49
-0.25
 74
     0
  0
LTYPE
  5
BF45
330
BF26
100
AcDbSymbolTableRecord
100
AcDbLinetypeTableRecord
  2
CENTER
 70
     0
  3
____ _ ____ _ ____ _ ____ _ ____ _ ____ _ ____ 
 72
    65
 73
     4
 40
2.0
 49
1.25
 74
     0
 49
-0.25
 74
     0
 49
0.25
 74
     0
 49
-0.25
 74
     0
  0
LTYPE
  5
BF46
330
BF26
100
AcDbSymbolTableRecord
100
AcDbLinetypeTableRecord
  2
PHANTOM
 70
     0
  3
______  __  __  ______  __  __  ______  __  __ 
 72
    65
 73
     6
 40
2.5
 49
1.25
 74
     0
 49
-0.25
 74
     0
 49
0.25
 74
     0
 49
-0.25
 74
     0
 49
0.25
 74
     0
 49
-0.25
 74
     0
  0
ENDTAB
  0
TABLE
  2
LAYER
  5
BF23
330
0
100
AcDbSymbolTable
 70
     8
  0
LAYER
  5
BF31
102
{ACAD_XDICTIONARY
360
C293
102
}
330
BF23
100
AcDbSymbolTableRecord
100
AcDbLayerTableRecord
  2
0
 70
     0
 62
     7
  6
CONTINUOUS
370
    -3
390
C241
  0
LAYER
  5
BF47
102
{ACAD_XDICTIONARY
360
C295
102
}
330
BF23
100
AcDbSymbolTableRecord
100
AcDbLayerTableRecord
  2
4
 70
     0
 62
     1
  6
CENTER
370
    -3
390
C241
  0
LAYER
  5
BF48
102
{ACAD_XDICTIONARY
360
C297
102
}
330
BF23
100
AcDbSymbolTableRecord
100
AcDbLayerTableRecord
  2
5
 70
     0
 62
     6
  6
PHANTOM
370
    -3
390
C241
  0
LAYER
  5
BF49
102
{ACAD_XDICTIONARY
360
C299
102
}
330
BF23
100
AcDbSymbolTableRecord
100
AcDbLayerTableRecord
  2
1
 70
     0
 62
     7
  6
CONTINUOUS
370
    -3
390
C241
  0
LAYER
  5
BF4A
102
{ACAD_XDICTIONARY
360
C29B
102
}
330
BF23
100
AcDbSymbolTableRecord
100
AcDbLayerTableRecord
  2
2
 70
     0
 62
     4
  6
CONTINUOUS
370
    -3
390
C241
  0
LAYER
  5
BF4B
102
{ACAD_XDICTIONARY
360
C29D
102
}
330
BF23
100
AcDbSymbolTableRecord
100
AcDbLayerTableRecord
  2
3
 70
     0
 62
     2
  6
DASHED
370
    -3
390
C241
  0
LAYER
  5
BF4C
102
{ACAD_XDICTIONARY
360
C29F
102
}
330
BF23
100
AcDbSymbolTableRecord
100
AcDbLayerTableRecord
  2
6
 70
     0
 62
     5
  6
CONTINUOUS
370
    -3
390
C241
  0
LAYER
  5
BF4D
102
{ACAD_XDICTIONARY
360
C2A1
102
}
330
BF23
100
AcDbSymbolTableRecord
100
AcDbLayerTableRecord
  2
7
 70
     0
 62
     3
  6
CONTINUOUS
370
    -3
390
C241
  0
ENDTAB
  0
TABLE
  2
STYLE
  5
BF24
330
0
100
AcDbSymbolTable
 70
     1
  0
STYLE
  5
BF32
330
BF24
100
AcDbSymbolTableRecord
100
AcDbTextStyleTableRecord
  2
STANDARD
 70
     0
 40
0.0
 41
1.0
 50
0.0
 71
     0
 42
5.0
  3
txt
  4

  0
ENDTAB
  0
TABLE
  2
VIEW
  5
BF27
330
0
100
AcDbSymbolTable
 70
     0
  0
ENDTAB
  0
TABLE
  2
UCS
  5
BF28
330
0
100
AcDbSymbolTable
 70
     0
  0
ENDTAB
  0
TABLE
  2
APPID
  5
BF2A
330
0
100
AcDbSymbolTable
 70
     3
  0
APPID
  5
BF33
330
BF2A
100
AcDbSymbolTableRecord
100
AcDbRegAppTableRecord
  2
ACAD
 70
     0
  0
APPID
  5
C2AD
330
BF2A
100
AcDbSymbolTableRecord
100
AcDbRegAppTableRecord
  2
ACAD_NAV_VCDISPLAY
 70
     0
  0
APPID
  5
C2E6
330
BF2A
100
AcDbSymbolTableRecord
100
AcDbRegAppTableRecord
  2
ACAD_MLEADERVER
 70
     0
  0
ENDTAB
  0
TABLE
  2
DIMSTYLE
  5
BF2B
330
0
100
AcDbSymbolTable
 70
     1
100
AcDbDimStyleTable
 71
     0
  0
DIMSTYLE
105
BF4F
330
BF2B
100
AcDbSymbolTableRecord
100
AcDbDimStyleTableRecord
  2
STANDARD
 70
     0
 41
2.5
 42
1.0
 43
10.0
 44
1.0
 73
     0
 74
     0
 77
     3
 78
     8
140
3.2
141
0.0
147
1.0
172
     1
173
     1
284
     8
285
     8
286
     8
340
BF32
  0
ENDTAB
  0
TABLE
  2
BLOCK_RECORD
  5
BF22
330
0
100
AcDbSymbolTable
 70
     1
  0
BLOCK_RECORD
  5
BF3F
102
{ACAD_XDICTIONARY
360
C23B
102
}
330
BF22
100
AcDbSymbolTableRecord
100
AcDbBlockTableRecord
  2
*MODEL_SPACE
340
C28F
  0
BLOCK_RECORD
  5
BF3B
102
{ACAD_XDICTIONARY
360
C239
102
}
330
BF22
100
AcDbSymbolTableRecord
100
AcDbBlockTableRecord
  2
*PAPER_SPACE
340
C290
  0
BLOCK_RECORD
  5
BF57
330
BF22
100
AcDbSymbolTableRecord
100
AcDbBlockTableRecord
  2
_OPEN
340
0
  0
ENDTAB
  0
ENDSEC
  0
SECTION
  2
BLOCKS
  0
BLOCK
  5
BF40
330
BF3F
100
AcDbEntity
  8
0
100
AcDbBlockBegin
  2
*MODEL_SPACE
 70
     0
 10
0.0
 20
0.0
 30
0.0
  3
*MODEL_SPACE
  1

  0
ENDBLK
  5
BF41
330
BF3F
100
AcDbEntity
  8
0
100
AcDbBlockEnd
  0
BLOCK
  5
BF3C
330
BF3B
100
AcDbEntity
 67
     1
  8
0
100
AcDbBlockBegin
  2
*PAPER_SPACE
 70
     0
 10
0.0
 20
0.0
 30
0.0
  3
*PAPER_SPACE
  1

  0
ENDBLK
  5
BF3D
330
BF3B
100
AcDbEntity
 67
     1
  8
0
100
AcDbBlockEnd
  0
BLOCK
  5
BF58
330
BF57
100
AcDbEntity
  8
0
100
AcDbBlockBegin
  2
_OPEN
 70
     0
 10
0.0
 20
0.0
 30
0.0
  3
_OPEN
  1

  0
LINE
  5
BF59
330
BF57
100
AcDbEntity
  8
0
  6
ByBlock
 62
     0
100
AcDbLine
 10
-1.0
 20
0.166667
 30
0.0
 11
0.0
 21
0.0
 31
0.0
  0
LINE
  5
BF5A
330
BF57
100
AcDbEntity
  8
0
  6
ByBlock
 62
     0
100
AcDbLine
 10
0.0
 20
0.0
 30
0.0
 11
-1.0
 21
-0.166667
 31
0.0
  0
LINE
  5
BF5B
330
BF57
100
AcDbEntity
  8
0
  6
ByBlock
 62
     0
100
AcDbLine
 10
0.0
 20
0.0
 30
0.0
 11
-1.0
 21
0.0
 31
0.0
  0
ENDBLK
  5
BF5C
330
BF57
100
AcDbEntity
  8
0
100
AcDbBlockEnd
  0
ENDSEC
  0
SECTION
  2
ENTITIES
  0
LINE
  5
BF5D
330
BF3F
100
AcDbEntity
  8
4
  6
CENTER
100
AcDbLine
 10
268.820148
 20
55.00003
 30
0.0
 11
258.8453359999999
 21
55.00003
 31
0.0
  0
LINE
  5
BF5E
330
BF3F
100
AcDbEntity
  8
4
  6
CENTER
100
AcDbLine
 10
268.820148
 20
330.9855109999999
 30
0.0
 11
258.8453359999999
 21
330.9855109999999
 31
0.0
  0
LINE
  5
BF5F
330
BF3F
100
AcDbEntity
  8
4
  6
CENTER
100
AcDbLine
 10
268.820148
 20
210.985506
 30
0.0
 11
259.400082
 21
210.985506
 31
0.0
  0
LINE
  5
BF60
330
BF3F
100
AcDbEntity
  8
1
  6
Continuous
100
AcDbLine
 10
207.03597
 20
185.9855059999999
 30
0.0
 11
207.03597
 21
167.5415929999998
 31
0.0
  0
LINE
  5
BF61
330
BF3F
100
AcDbEntity
  8
1
  6
Continuous
100
AcDbLine
 10
188.43597
 20
204.7723019999998
 30
0.0
 11
188.43597
 21
166.4855059999999
 31
0.0
  0
ARC
  5
BF62
330
BF3F
100
AcDbEntity
  8
5
  6
PHANTOM
100
AcDbCircle
 10
193.43597
 20
210.985506
 30
0.0
 40
45.49999999999999
100
AcDbArc
 50
225.0
 51
235.552274
  0
LINE
  5
BF63
330
BF3F
100
AcDbEntity
  8
5
  6
PHANTOM
100
AcDbLine
 10
182.900079
 20
184.044738
 30
0.0
 11
172.7897519999999
 21
173.93441
 31
0.0
  0
LINE
  5
BF64
330
BF3F
100
AcDbEntity
  8
1
  6
Continuous
100
AcDbLine
 10
190.9359699999999
 20
235.985506
 30
0.0
 11
190.9359699999999
 21
149.9855059999999
 31
0.0
  0
LINE
  5
BF65
330
BF3F
100
AcDbEntity
  8
1
  6
Continuous
100
AcDbLine
 10
192.43597
 20
235.985506
 30
0.0
 11
192.43597
 21
149.9855059999999
 31
0.0
  0
LINE
  5
BF66
330
BF3F
100
AcDbEntity
  8
1
  6
Continuous
100
AcDbLine
 10
189.43597
 20
232.9855059999999
 30
0.0
 11
189.43597
 21
152.9855059999999
 31
0.0
  0
LINE
  5
BF67
330
BF3F
100
AcDbEntity
  8
1
  6
Continuous
100
AcDbLine
 10
193.43597
 20
235.985506
 30
0.0
 11
193.43597
 21
149.9855059999999
 31
0.0
  0
LINE
  5
BF68
330
BF3F
100
AcDbEntity
  8
1
  6
Continuous
100
AcDbLine
 10
44.41392299999999
 20
173.6355059999999
 30
0.0
 11
44.41392299999999
 21
180.6355059999999
 31
0.0
  0
LINE
  5
BF69
330
BF3F
100
AcDbEntity
  8
1
  6
Continuous
100
AcDbLine
 10
42.31392299999997
 20
173.6355059999999
 30
0.0
 11
42.31392299999997
 21
180.6355059999999
 31
0.0
  0
CIRCLE
  5
BF6A
330
BF3F
100
AcDbEntity
  8
1
  6
Continuous
100
AcDbCircle
 10
43.36392299999999
 20
176.9855059999999
 30
0.0
 40
7.65
  0
CIRCLE
  5
BF6B
330
BF3F
100
AcDbEntity
  8
1
  6
Continuous
100
AcDbCircle
 10
43.36392299999999
 20
176.9855059999999
 30
0.0
 40
7.799999999999998
  0
LINE
  5
BF6C
330
BF3F
100
AcDbEntity
  8
1
  6
Continuous
100
AcDbLine
 10
52.763923
 20
210.985506
 30
0.0
 11
52.763923
 21
167.4855059999999
 31
0.0
  0
LINE
  5
BF6D
330
BF3F
100
AcDbEntity
  8
1
  6
Continuous
100
AcDbLine
 10
33.963923
 20
210.985506
 30
0.0
 11
33.963923
 21
167.4855059999999
 31
0.0
  0
LINE
  5
BF6E
330
BF3F
100
AcDbEntity
  8
1
  6
Continuous
100
AcDbLine
 10
53.263923
 20
211.0355059999998
 30
0.0
 11
53.263923
 21
166.9855059999999
 31
0.0
  0
LINE
  5
BF6F
330
BF3F
100
AcDbEntity
  8
1
  6
Continuous
100
AcDbLine
 10
33.463923
 20
211.0355059999998
 30
0.0
 11
33.463923
 21
166.9855059999999
 31
0.0
  0
LINE
  5
BF70
330
BF3F
100
AcDbEntity
  8
1
  6
Continuous
100
AcDbLine
 10
32.363923
 20
230.9855059999999
 30
0.0
 11
32.363923
 21
154.9855059999999
 31
0.0
  0
LINE
  5
BF71
330
BF3F
100
AcDbEntity
  8
1
  6
Continuous
100
AcDbLine
 10
54.363923
 20
154.9855059999999
 30
0.0
 11
54.363923
 21
230.9855059999999
 31
0.0
  0
LINE
  5
BF72
330
BF3F
100
AcDbEntity
  8
1
  6
Continuous
100
AcDbLine
 10
57.363923
 20
230.9855059999999
 30
0.0
 11
57.363923
 21
154.9855059999999
 31
0.0
  0
LINE
  5
BF73
330
BF3F
100
AcDbEntity
  8
1
  6
Continuous
100
AcDbLine
 10
29.36392299999999
 20
230.9855059999999
 30
0.0
 11
29.36392299999999
 21
154.9855059999999
 31
0.0
  0
LINE
  5
BF74
330
BF3F
100
AcDbEntity
  8
4
  6
CENTER
100
AcDbLine
 10
43.36392299999999
 20
239.711775
 30
0.0
 11
43.36392299999999
 21
148.555082
 31
0.0
  0
TEXT
  5
BF75
330
BF3F
100
AcDbEntity
  8
7
  6
Continuous
100
AcDbText
 10
14.363923
 20
18.0
 30
0.0
 40
3.0
  1
TYPE No.THA-505-3K
100
AcDbText
  0
TEXT
  5
BF76
330
BF3F
100
AcDbEntity
  8
7
  6
Continuous
100
AcDbText
 10
14.363923
 20
26.0
 30
0.0
 40
3.0
  1
CODE No.13098
100
AcDbText
  0
TEXT
  5
BF77
330
BF3F
100
AcDbEntity
  8
1
  6
Continuous
100
AcDbText
 10
14.363923
 20
10.0
 30
0.0
 40
1.399999999999999
  1
LAYER
100
AcDbText
  0
TEXT
  5
BF78
330
BF3F
100
AcDbEntity
  8
7
  6
Continuous
100
AcDbText
 10
34.343434
 20
10.04873699999998
 30
0.0
 40
1.399999999999999
  1
7
100
AcDbText
  0
TEXT
  5
BF79
330
BF3F
100
AcDbEntity
  8
6
  6
Continuous
100
AcDbText
 10
32.343434
 20
10.04873699999998
 30
0.0
 40
1.399999999999999
  1
6
100
AcDbText
  0
TEXT
  5
BF7A
330
BF3F
100
AcDbEntity
  8
4
  6
CENTER
100
AcDbText
 10
28.34343399999999
 20
10.04873699999998
 30
0.0
 40
1.399999999999999
  1
4
100
AcDbText
  0
TEXT
  5
BF7B
330
BF3F
100
AcDbEntity
  8
5
  6
PHANTOM
100
AcDbText
 10
30.343434
 20
10.04873699999998
 30
0.0
 40
1.399999999999999
  1
5
100
AcDbText
  0
TEXT
  5
BF7C
330
BF3F
100
AcDbEntity
  8
3
  6
DASHED
100
AcDbText
 10
26.34343400000001
 20
10.04873699999998
 30
0.0
 40
1.399999999999999
  1
3
100
AcDbText
  0
TEXT
  5
BF7D
330
BF3F
100
AcDbEntity
  8
1
  6
Continuous
100
AcDbText
 10
22.34343399999999
 20
10.04873699999998
 30
0.0
 40
1.399999999999999
  1
1
100
AcDbText
  0
TEXT
  5
BF7E
330
BF3F
100
AcDbEntity
  8
2
  6
Continuous
100
AcDbText
 10
24.34343399999999
 20
10.04873699999998
 30
0.0
 40
1.399999999999999
  1
2
100
AcDbText
  0
LINE
  5
BF7F
330
BF3F
100
AcDbEntity
  8
1
  6
Continuous
100
AcDbLine
 10
50.763923
 20
165.4855059999999
 30
0.0
 11
35.963923
 21
165.4855059999999
 31
0.0
  0
LINE
  5
BF80
330
BF3F
100
AcDbEntity
  8
1
  6
Continuous
100
AcDbLine
 10
50.763923
 20
164.4855059999999
 30
0.0
 11
35.963923
 21
164.4855059999999
 31
0.0
  0
LINE
  5
BF81
330
BF3F
100
AcDbEntity
  8
1
  6
Continuous
100
AcDbLine
 10
34.363923
 20
152.9855059999999
 30
0.0
 11
52.363923
 21
152.9855059999999
 31
0.0
  0
LINE
  5
BF82
330
BF3F
100
AcDbEntity
  8
1
  6
Continuous
100
AcDbLine
 10
52.363923
 20
149.9855059999999
 30
0.0
 11
34.363923
 21
149.9855059999999
 31
0.0
  0
ARC
  5
BF83
330
BF3F
100
AcDbEntity
  8
1
  6
Continuous
100
AcDbCircle
 10
34.363923
 20
154.9855059999999
 30
0.0
 40
2.0
100
AcDbArc
 50
180.0
 51
270.0
  0
ARC
  5
BF84
330
BF3F
100
AcDbEntity
  8
1
  6
Continuous
100
AcDbCircle
 10
34.363923
 20
154.9855059999999
 30
0.0
 40
5.0
100
AcDbArc
 50
180.0
 51
270.0
  0
LINE
  5
BF85
330
BF3F
100
AcDbEntity
  8
1
  6
Continuous
100
AcDbLine
 10
35.779564
 20
175.9855059999999
 30
0.0
 11
35.628291
 21
175.9855059999999
 31
0.0
  0
ARC
  5
BF86
330
BF3F
100
AcDbEntity
  8
1
  6
Continuous
100
AcDbCircle
 10
35.963923
 20
167.4855059999999
 30
0.0
 40
2.0
100
AcDbArc
 50
180.0
 51
270.0
  0
ARC
  5
BF87
330
BF3F
100
AcDbEntity
  8
1
  6
Continuous
100
AcDbCircle
 10
35.963923
 20
166.9855059999999
 30
0.0
 40
2.5
100
AcDbArc
 50
180.0
 51
270.0
  0
ARC
  5
BF88
330
BF3F
100
AcDbEntity
  8
1
  6
Continuous
100
AcDbCircle
 10
52.363923
 20
154.9855059999999
 30
0.0
 40
2.0
100
AcDbArc
 50
270.0
 51
0.0
  0
ARC
  5
BF89
330
BF3F
100
AcDbEntity
  8
1
  6
Continuous
100
AcDbCircle
 10
52.363923
 20
154.9855059999999
 30
0.0
 40
5.0
100
AcDbArc
 50
270.0
 51
0.0
  0
ARC
  5
BF8A
330
BF3F
100
AcDbEntity
  8
1
  6
Continuous
100
AcDbCircle
 10
50.763923
 20
167.4855059999999
 30
0.0
 40
2.0
100
AcDbArc
 50
270.0
 51
0.0
  0
ARC
  5
BF8B
330
BF3F
100
AcDbEntity
  8
1
  6
Continuous
100
AcDbCircle
 10
50.763923
 20
166.9855059999999
 30
0.0
 40
2.5
100
AcDbArc
 50
270.0
 51
0.0
  0
LINE
  5
BF8C
330
BF3F
100
AcDbEntity
  8
4
  6
CENTER
100
AcDbLine
 10
49.683653
 20
156.9855059999999
 30
0.0
 11
37.702298
 21
156.9855059999999
 31
0.0
  0
LINE
  5
BF8D
330
BF3F
100
AcDbEntity
  8
1
  6
Continuous
100
AcDbLine
 10
44.41392299999999
 20
173.6355059999999
 30
0.0
 11
42.31392299999997
 21
173.6355059999999
 31
0.0
  0
LINE
  5
BF8E
330
BF3F
100
AcDbEntity
  8
1
  6
Continuous
100
AcDbLine
 10
44.41392299999999
 20
174.935506
 30
0.0
 11
43.613923
 21
174.935506
 31
0.0
  0
LINE
  5
BF8F
330
BF3F
100
AcDbEntity
  8
1
  6
Continuous
100
AcDbLine
 10
43.613923
 20
175.835506
 30
0.0
 11
43.613923
 21
174.935506
 31
0.0
  0
LINE
  5
BF90
330
BF3F
100
AcDbEntity
  8
1
  6
Continuous
100
AcDbLine
 10
44.41392299999999
 20
175.835506
 30
0.0
 11
43.613923
 21
175.835506
 31
0.0
  0
LINE
  5
BF91
330
BF3F
100
AcDbEntity
  8
1
  6
Continuous
100
AcDbLine
 10
44.41392299999999
 20
174.0355059999999
 30
0.0
 11
42.31392299999997
 21
174.0355059999999
 31
0.0
  0
LINE
  5
BF92
330
BF3F
100
AcDbEntity
  8
1
  6
Continuous
100
AcDbLine
 10
45.763923
 20
169.7217259999999
 30
0.0
 11
45.763923
 21
169.5639159999998
 31
0.0
  0
LINE
  5
BF93
330
BF3F
100
AcDbEntity
  8
1
  6
Continuous
100
AcDbLine
 10
40.963923
 20
169.7217259999999
 30
0.0
 11
40.963923
 21
169.5639159999998
 31
0.0
  0
LINE
  5
BF94
330
BF3F
100
AcDbEntity
  8
1
  6
Continuous
100
AcDbLine
 10
208.63597
 20
66.50000099999998
 30
0.0
 11
193.43597
 21
66.50000099999998
 31
0.0
  0
LINE
  5
BF95
330
BF3F
100
AcDbEntity
  8
1
  6
Continuous
100
AcDbLine
 10
196.93597
 20
58.50000099999999
 30
0.0
 11
193.43597
 21
58.50000099999999
 31
0.0
  0
LINE
  5
BF96
330
BF3F
100
AcDbEntity
  8
1
  6
Continuous
100
AcDbLine
 10
196.93597
 20
51.50000099999999
 30
0.0
 11
193.43597
 21
51.50000099999999
 31
0.0
  0
LINE
  5
BF97
330
BF3F
100
AcDbEntity
  8
4
  6
CENTER
100
AcDbLine
 10
219.248192
 20
55.000001
 30
0.0
 11
180.985119
 21
55.000001
 31
0.0
  0
LINE
  5
BF98
330
BF3F
100
AcDbEntity
  8
1
  6
Continuous
100
AcDbLine
 10
208.63597
 20
43.50000099999999
 30
0.0
 11
193.43597
 21
43.50000099999999
 31
0.0
  0
LINE
  5
BF99
330
BF3F
100
AcDbEntity
  8
1
  6
Continuous
100
AcDbLine
 10
189.43597
 20
44.00000099999998
 30
0.0
 11
189.43597
 21
66.00000099999999
 31
0.0
  0
LINE
  5
BF9A
330
BF3F
100
AcDbEntity
  8
1
  6
Continuous
100
AcDbLine
 10
192.43597
 20
41.00000099999999
 30
0.0
 11
192.43597
 21
69.00000099999998
 31
0.0
  0
LINE
  5
BF9B
330
BF3F
100
AcDbEntity
  8
1
  6
Continuous
100
AcDbLine
 10
190.9359699999999
 20
41.00000099999999
 30
0.0
 11
190.9359699999999
 21
69.00000099999998
 31
0.0
  0
LINE
  5
BF9C
330
BF3F
100
AcDbEntity
  8
1
  6
Continuous
100
AcDbLine
 10
193.43597
 20
41.00000099999999
 30
0.0
 11
193.43597
 21
69.00000099999998
 31
0.0
  0
LINE
  5
BF9D
330
BF3F
100
AcDbEntity
  8
1
  6
Continuous
100
AcDbLine
 10
193.43597
 20
41.00000099999999
 30
0.0
 11
192.43597
 21
41.00000099999999
 31
0.0
  0
LINE
  5
BF9E
330
BF3F
100
AcDbEntity
  8
1
  6
Continuous
100
AcDbLine
 10
192.43597
 20
41.00000099999999
 30
0.0
 11
190.9359699999999
 21
41.00000099999999
 31
0.0
  0
LINE
  5
BF9F
330
BF3F
100
AcDbEntity
  8
1
  6
Continuous
100
AcDbLine
 10
190.9359699999999
 20
41.00000099999999
 30
0.0
 11
189.43597
 21
44.00000099999998
 31
0.0
  0
LINE
  5
BFA0
330
BF3F
100
AcDbEntity
  8
1
  6
Continuous
100
AcDbLine
 10
190.9359699999999
 20
69.00000099999998
 30
0.0
 11
189.43597
 21
66.00000099999999
 31
0.0
  0
LINE
  5
BFA1
330
BF3F
100
AcDbEntity
  8
1
  6
Continuous
100
AcDbLine
 10
188.43597
 20
46.179034
 30
0.0
 11
188.43597
 21
63.820967
 31
0.0
  0
ARC
  5
BFA2
330
BF3F
100
AcDbEntity
  8
1
  6
Continuous
100
AcDbCircle
 10
194.211244
 20
55.000001
 30
0.0
 40
10.54339799999998
100
AcDbArc
 50
116.930926
 51
243.0690740000001
  0
LINE
  5
BFA3
330
BF3F
100
AcDbEntity
  8
1
  6
Continuous
100
AcDbLine
 10
193.43597
 20
69.00000099999998
 30
0.0
 11
192.43597
 21
69.00000099999998
 31
0.0
  0
LINE
  5
BFA4
330
BF3F
100
AcDbEntity
  8
1
  6
Continuous
100
AcDbLine
 10
192.43597
 20
69.00000099999998
 30
0.0
 11
190.9359699999999
 21
69.00000099999998
 31
0.0
  0
ARC
  5
BFA5
330
BF3F
100
AcDbEntity
  8
1
  6
Continuous
100
AcDbCircle
 10
208.63597
 20
44.50000099999999
 30
0.0
 40
1.0
100
AcDbArc
 50
270.0
 51
0.0
  0
ARC
  5
BFA6
330
BF3F
100
AcDbEntity
  8
1
  6
Continuous
100
AcDbCircle
 10
204.53597
 20
46.00000099999999
 30
0.0
 40
2.5
100
AcDbArc
 50
270.0
 51
0.0
  0
LINE
  5
BFA7
330
BF3F
100
AcDbEntity
  8
1
  6
Continuous
100
AcDbLine
 10
212.1359699999999
 20
43.750001
 30
0.0
 11
212.1359699999999
 21
64.742001
 31
0.0
  0
LINE
  5
BFA8
330
BF3F
100
AcDbEntity
  8
1
  6
Continuous
100
AcDbLine
 10
210.0359699999999
 20
43.750001
 30
0.0
 11
210.0359699999999
 21
64.742001
 31
0.0
  0
LINE
  5
BFA9
330
BF3F
100
AcDbEntity
  8
1
  6
Continuous
100
AcDbLine
 10
212.1359699999999
 20
43.750001
 30
0.0
 11
210.0359699999999
 21
43.750001
 31
0.0
  0
ARC
  5
BFAA
330
BF3F
100
AcDbEntity
  8
1
  6
Continuous
100
AcDbCircle
 10
208.63597
 20
65.500001
 30
0.0
 40
1.0
100
AcDbArc
 50
0.0
 51
90.0
  0
ARC
  5
BFAB
330
BF3F
100
AcDbEntity
  8
1
  6
Continuous
100
AcDbCircle
 10
204.53597
 20
64.00000099999998
 30
0.0
 40
2.5
100
AcDbArc
 50
0.0
 51
90.0
  0
LINE
  5
BFAC
330
BF3F
100
AcDbEntity
  8
1
  6
Continuous
100
AcDbLine
 10
212.1359699999999
 20
64.742001
 30
0.0
 11
210.0359699999999
 21
64.742001
 31
0.0
  0
LINE
  5
BFAD
330
BF3F
100
AcDbEntity
  8
1
  6
Continuous
100
AcDbLine
 10
209.6359699999999
 20
44.50000099999999
 30
0.0
 11
209.6359699999999
 21
65.500001
 31
0.0
  0
LINE
  5
BFAE
330
BF3F
100
AcDbEntity
  8
1
  6
Continuous
100
AcDbLine
 10
210.0359699999999
 20
64.330151
 30
0.0
 11
209.6359699999999
 21
64.330151
 31
0.0
  0
LINE
  5
BFAF
330
BF3F
100
AcDbEntity
  8
1
  6
Continuous
100
AcDbLine
 10
210.0359699999999
 20
45.669851
 30
0.0
 11
209.6359699999999
 21
45.669851
 31
0.0
  0
LINE
  5
BFB0
330
BF3F
100
AcDbEntity
  8
1
  6
Continuous
100
AcDbLine
 10
197.4359699999999
 20
58.000001
 30
0.0
 11
196.93597
 21
58.50000099999999
 31
0.0
  0
LINE
  5
BFB1
330
BF3F
100
AcDbEntity
  8
1
  6
Continuous
100
AcDbLine
 10
196.93597
 20
51.50000099999999
 30
0.0
 11
196.93597
 21
58.50000099999999
 31
0.0
  0
LINE
  5
BFB2
330
BF3F
100
AcDbEntity
  8
1
  6
Continuous
100
AcDbLine
 10
196.93597
 20
51.50000099999999
 30
0.0
 11
197.4359699999999
 21
52.000001
 31
0.0
  0
LINE
  5
BFB3
330
BF3F
100
AcDbEntity
  8
1
  6
Continuous
100
AcDbLine
 10
197.4359699999999
 20
58.000001
 30
0.0
 11
197.4359699999999
 21
52.000001
 31
0.0
  0
LINE
  5
BFB4
330
BF3F
100
AcDbEntity
  8
1
  6
Continuous
100
AcDbLine
 10
207.03597
 20
46.00000099999999
 30
0.0
 11
207.03597
 21
64.00000099999998
 31
0.0
  0
LINE
  5
BFB5
330
BF3F
100
AcDbEntity
  8
1
  6
Continuous
100
AcDbLine
 10
214.1359699999999
 20
50.000001
 30
0.0
 11
212.1359699999999
 21
50.000001
 31
0.0
  0
LINE
  5
BFB6
330
BF3F
100
AcDbEntity
  8
1
  6
Continuous
100
AcDbLine
 10
214.1359699999999
 20
55.656855
 30
0.0
 11
212.1359699999999
 21
55.656855
 31
0.0
  0
LINE
  5
BFB7
330
BF3F
100
AcDbEntity
  8
1
  6
Continuous
100
AcDbLine
 10
214.1359699999999
 20
54.34314699999998
 30
0.0
 11
212.1359699999999
 21
54.34314699999998
 31
0.0
  0
LINE
  5
BFB8
330
BF3F
100
AcDbEntity
  8
1
  6
Continuous
100
AcDbLine
 10
214.1359699999999
 20
60.000001
 30
0.0
 11
212.1359699999999
 21
60.000001
 31
0.0
  0
LINE
  5
BFB9
330
BF3F
100
AcDbEntity
  8
1
  6
Continuous
100
AcDbLine
 10
214.1359699999999
 20
50.000001
 30
0.0
 11
214.1359699999999
 21
60.000001
 31
0.0
  0
ARC
  5
BFBA
330
BF3F
100
AcDbEntity
  8
1
  6
Continuous
100
AcDbCircle
 10
193.43597
 20
210.985506
 30
0.0
 40
48.5
100
AcDbArc
 50
270.0
 51
280.552274
  0
LINE
  5
BFBB
330
BF3F
100
AcDbEntity
  8
4
  6
CENTER
100
AcDbLine
 10
199.48021
 20
156.9855059999999
 30
0.0
 11
188.2830229999999
 21
156.9855059999999
 31
0.0
  0
LINE
  5
BFBC
330
BF3F
100
AcDbEntity
  8
1
  6
Continuous
100
AcDbLine
 10
196.93597
 20
160.485506
 30
0.0
 11
193.43597
 21
160.485506
 31
0.0
  0
LINE
  5
BFBD
330
BF3F
100
AcDbEntity
  8
1
  6
Continuous
100
AcDbLine
 10
196.93597
 20
153.4855059999999
 30
0.0
 11
193.43597
 21
153.4855059999999
 31
0.0
  0
LINE
  5
BFBE
330
BF3F
100
AcDbEntity
  8
1
  6
Continuous
100
AcDbLine
 10
192.43597
 20
149.9855059999999
 30
0.0
 11
190.9359699999999
 21
149.9855059999999
 31
0.0
  0
LINE
  5
BFBF
330
BF3F
100
AcDbEntity
  8
1
  6
Continuous
100
AcDbLine
 10
193.43597
 20
149.9855059999999
 30
0.0
 11
192.43597
 21
149.9855059999999
 31
0.0
  0
LINE
  5
BFC0
330
BF3F
100
AcDbEntity
  8
1
  6
Continuous
100
AcDbLine
 10
190.9359699999999
 20
149.9855059999999
 30
0.0
 11
189.43597
 21
152.9855059999999
 31
0.0
  0
ARC
  5
BFC1
330
BF3F
100
AcDbEntity
  8
5
  6
PHANTOM
100
AcDbCircle
 10
169.9613249999998
 20
176.7628379999999
 30
0.0
 40
4.0
100
AcDbArc
 50
235.552274
 51
315.0
  0
ARC
  5
BFC2
330
BF3F
100
AcDbEntity
  8
1
  6
Continuous
100
AcDbCircle
 10
189.43597
 20
166.4855059999999
 30
0.0
 40
1.0
100
AcDbArc
 50
180.0
 51
270.0
  0
LINE
  5
BFC3
330
BF3F
100
AcDbEntity
  8
1
  6
Continuous
100
AcDbLine
 10
196.93597
 20
160.485506
 30
0.0
 11
196.93597
 21
153.4855059999999
 31
0.0
  0
LINE
  5
BFC4
330
BF3F
100
AcDbEntity
  8
1
  6
Continuous
100
AcDbLine
 10
197.4359699999999
 20
153.9855059999999
 30
0.0
 11
197.4359699999999
 21
159.9855059999999
 31
0.0
  0
LINE
  5
BFC5
330
BF3F
100
AcDbEntity
  8
1
  6
Continuous
100
AcDbLine
 10
197.4359699999999
 20
153.9855059999999
 30
0.0
 11
196.93597
 21
153.4855059999999
 31
0.0
  0
ARC
  5
BFC6
330
BF3F
100
AcDbEntity
  8
1
  6
Continuous
100
AcDbCircle
 10
201.0359699999999
 20
170.1873439999999
 30
0.0
 40
7.0
100
AcDbArc
 50
280.552274
 51
318.5903779999998
  0
LINE
  5
BFC7
330
BF3F
100
AcDbEntity
  8
1
  6
Continuous
100
AcDbLine
 10
196.93597
 20
160.485506
 30
0.0
 11
197.4359699999999
 21
159.9855059999999
 31
0.0
  0
ARC
  5
BFC8
330
BF3F
100
AcDbEntity
  8
1
  6
Continuous
100
AcDbCircle
 10
204.0359699999999
 20
167.5415929999998
 30
0.0
 40
3.0
100
AcDbArc
 50
318.5903779999998
 51
0.0
  0
LINE
  5
BFC9
330
BF3F
100
AcDbEntity
  8
4
  6
CENTER
100
AcDbLine
 10
92.30377299999997
 20
210.985506
 30
0.0
 11
28.70433099999999
 21
210.985506
 31
0.0
  0
LINE
  5
BFCA
330
BF3F
100
AcDbEntity
  8
5
  6
PHANTOM
100
AcDbLine
 10
43.36392299999999
 20
220.3855059999999
 30
0.0
 11
86.86392299999999
 21
220.3855059999999
 31
0.0
  0
LINE
  5
BFCB
330
BF3F
100
AcDbEntity
  8
5
  6
PHANTOM
100
AcDbLine
 10
43.36392299999999
 20
201.585506
 30
0.0
 11
86.86392299999999
 21
201.585506
 31
0.0
  0
ARC
  5
BFCC
330
BF3F
100
AcDbEntity
  8
1
  6
Continuous
100
AcDbCircle
 10
43.36392299999999
 20
210.985506
 30
0.0
 40
9.4
100
AcDbArc
 50
102.865072
 51
180.0
  0
ARC
  5
BFCD
330
BF3F
100
AcDbEntity
  8
1
  6
Continuous
100
AcDbCircle
 10
43.36392299999999
 20
210.985506
 30
0.0
 40
9.4
100
AcDbArc
 50
0.0
 51
77.134928
  0
ARC
  5
BFCE
330
BF3F
100
AcDbEntity
  8
1
  6
Continuous
100
AcDbCircle
 10
43.36392299999999
 20
211.0355059999998
 30
0.0
 40
9.9
100
AcDbArc
 50
341.7126809999999
 51
198.287319
  0
POLYLINE
  5
BFCF
330
BF3F
100
AcDbEntity
  8
1
  6
Continuous
100
AcDb2dPolyline
 66
     1
 10
0.0
 20
0.0
 30
0.0
 70
     2
  0
VERTEX
  5
BFD0
330
BFCF
100
AcDbEntity
  8
1
  6
Continuous
100
AcDbVertex
100
AcDb2dVertex
 10
52.763923
 20
207.4499719999999
 30
0.0
 42
0.136662
  0
VERTEX
  5
BFD1
330
BFCF
100
AcDbEntity
  8
1
  6
Continuous
100
AcDbVertex
100
AcDb2dVertex
 10
52.048391
 20
209.9935939999999
 30
0.0
 42
0.110269
  0
VERTEX
  5
BFD2
330
BFCF
100
AcDbEntity
  8
1
  6
Continuous
100
AcDbVertex
100
AcDb2dVertex
 10
50.010727
 20
212.149972
 30
0.0
 42
0.08463
  0
VERTEX
  5
BFD3
330
BFCF
100
AcDbEntity
  8
1
  6
Continuous
100
AcDbVertex
100
AcDb2dVertex
 10
46.96114699999998
 20
213.590818
 30
0.0
 42
0.071684
  0
VERTEX
  5
BFD4
330
BFCF
100
AcDbEntity
  8
1
  6
Continuous
100
AcDbVertex
100
AcDb2dVertex
 10
43.36392299999999
 20
214.0967759999998
 30
0.0
 42
0.07032
  0
VERTEX
  5
BFD5
330
BFCF
100
AcDbEntity
  8
1
  6
Continuous
100
AcDbVertex
100
AcDb2dVertex
 10
39.76669899999999
 20
213.590818
 30
0.0
 42
0.080196
  0
VERTEX
  5
BFD6
330
BFCF
100
AcDbEntity
  8
1
  6
Continuous
100
AcDbVertex
100
AcDb2dVertex
 10
36.717119
 20
212.149972
 30
0.0
 42
0.10286
  0
VERTEX
  5
BFD7
330
BFCF
100
AcDbEntity
  8
1
  6
Continuous
100
AcDbVertex
100
AcDb2dVertex
 10
34.67945499999999
 20
209.9935939999999
 30
0.0
 42
0.131788
  0
VERTEX
  5
BFD8
330
BFCF
100
AcDbEntity
  8
1
  6
Continuous
100
AcDbVertex
100
AcDb2dVertex
 10
33.963923
 20
207.4499719999999
 30
0.0
  0
SEQEND
  5
BFD9
330
BFCF
100
AcDbEntity
  8
1
  6
Continuous
  0
LINE
  5
BFDA
330
BF3F
100
AcDbEntity
  8
4
  6
CENTER
100
AcDbLine
 10
52.66392299999999
 20
176.9855059999999
 30
0.0
 11
34.06392299999998
 21
176.9855059999999
 31
0.0
  0
ARC
  5
BFDB
330
BF3F
100
AcDbEntity
  8
1
  6
Continuous
100
AcDbCircle
 10
35.963923
 20
184.9855059999999
 30
0.0
 40
2.5
100
AcDbArc
 50
143.130102
 51
180.0
  0
LINE
  5
BFDC
330
BF3F
100
AcDbEntity
  8
1
  6
Continuous
100
AcDbLine
 10
35.779564
 20
177.9855059999999
 30
0.0
 11
35.628291
 21
177.9855059999999
 31
0.0
  0
LINE
  5
BFDD
330
BF3F
100
AcDbEntity
  8
1
  6
Continuous
100
AcDbLine
 10
45.763923
 20
184.4070959999999
 30
0.0
 11
45.763923
 21
184.249286
 31
0.0
  0
LINE
  5
BFDE
330
BF3F
100
AcDbEntity
  8
1
  6
Continuous
100
AcDbLine
 10
40.963923
 20
184.4070959999999
 30
0.0
 11
40.963923
 21
184.249286
 31
0.0
  0
LINE
  5
BFDF
330
BF3F
100
AcDbEntity
  8
1
  6
Continuous
100
AcDbLine
 10
44.41392299999999
 20
180.6355059999999
 30
0.0
 11
42.31392299999997
 21
180.6355059999999
 31
0.0
  0
LINE
  5
BFE0
330
BF3F
100
AcDbEntity
  8
1
  6
Continuous
100
AcDbLine
 10
44.41392299999999
 20
180.535506
 30
0.0
 11
42.31392299999997
 21
180.535506
 31
0.0
  0
LINE
  5
BFE1
330
BF3F
100
AcDbEntity
  8
1
  6
Continuous
100
AcDbLine
 10
43.613923
 20
180.535506
 30
0.0
 11
43.613923
 21
178.835506
 31
0.0
  0
LINE
  5
BFE2
330
BF3F
100
AcDbEntity
  8
1
  6
Continuous
100
AcDbLine
 10
44.41392299999999
 20
178.835506
 30
0.0
 11
43.613923
 21
178.835506
 31
0.0
  0
LINE
  5
BFE3
330
BF3F
100
AcDbEntity
  8
1
  6
Continuous
100
AcDbLine
 10
43.113923
 20
177.4355059999998
 30
0.0
 11
42.31392299999997
 21
177.4355059999998
 31
0.0
  0
CIRCLE
  5
BFE4
330
BF3F
100
AcDbEntity
  8
1
  6
Continuous
100
AcDbCircle
 10
43.36392299999999
 20
182.6855059999998
 30
0.0
 40
0.45
  0
LINE
  5
BFE5
330
BF3F
100
AcDbEntity
  8
1
  6
Continuous
100
AcDbLine
 10
43.113923
 20
176.535506
 30
0.0
 11
42.31392299999997
 21
176.535506
 31
0.0
  0
LINE
  5
BFE6
330
BF3F
100
AcDbEntity
  8
1
  6
Continuous
100
AcDbLine
 10
43.113923
 20
177.4355059999998
 30
0.0
 11
43.113923
 21
176.535506
 31
0.0
  0
ARC
  5
BFE7
330
BF3F
100
AcDbEntity
  8
1
  6
Continuous
100
AcDbCircle
 10
50.763923
 20
184.9855059999999
 30
0.0
 40
2.5
100
AcDbArc
 50
0.0
 51
36.869898
  0
LINE
  5
BFE8
330
BF3F
100
AcDbEntity
  8
1
  6
Continuous
100
AcDbLine
 10
52.363923
 20
232.9855059999999
 30
0.0
 11
34.363923
 21
232.9855059999999
 31
0.0
  0
LINE
  5
BFE9
330
BF3F
100
AcDbEntity
  8
1
  6
Continuous
100
AcDbLine
 10
52.363923
 20
235.985506
 30
0.0
 11
34.363923
 21
235.985506
 31
0.0
  0
ARC
  5
BFEA
330
BF3F
100
AcDbEntity
  8
1
  6
Continuous
100
AcDbCircle
 10
34.363923
 20
230.9855059999999
 30
0.0
 40
2.0
100
AcDbArc
 50
90.0
 51
180.0
  0
ARC
  5
BFEB
330
BF3F
100
AcDbEntity
  8
1
  6
Continuous
100
AcDbCircle
 10
34.363923
 20
230.9855059999999
 30
0.0
 40
5.0
100
AcDbArc
 50
90.0
 51
180.0
  0
LINE
  5
BFEC
330
BF3F
100
AcDbEntity
  8
4
  6
CENTER
100
AcDbLine
 10
49.683653
 20
228.9855059999999
 30
0.0
 11
37.702298
 21
228.9855059999999
 31
0.0
  0
LINE
  5
BFED
330
BF3F
100
AcDbEntity
  8
1
  6
Continuous
100
AcDbLine
 10
45.45688799999999
 20
220.149539
 30
0.0
 11
41.270958
 21
220.149539
 31
0.0
  0
ARC
  5
BFEE
330
BF3F
100
AcDbEntity
  8
1
  6
Continuous
100
AcDbCircle
 10
52.363923
 20
230.9855059999999
 30
0.0
 40
2.0
100
AcDbArc
 50
0.0
 51
90.0
  0
ARC
  5
BFEF
330
BF3F
100
AcDbEntity
  8
1
  6
Continuous
100
AcDbCircle
 10
52.363923
 20
230.9855059999999
 30
0.0
 40
5.0
100
AcDbArc
 50
0.0
 51
90.0
  0
ARC
  5
BFF0
330
BF3F
100
AcDbEntity
  8
5
  6
PHANTOM
100
AcDbCircle
 10
86.86392299999999
 20
218.3855059999999
 30
0.0
 40
2.0
100
AcDbArc
 50
0.0
 51
90.0
  0
ARC
  5
BFF1
330
BF3F
100
AcDbEntity
  8
5
  6
PHANTOM
100
AcDbCircle
 10
86.86392299999999
 20
203.585506
 30
0.0
 40
2.0
100
AcDbArc
 50
270.0
 51
0.0
  0
LINE
  5
BFF2
330
BF3F
100
AcDbEntity
  8
5
  6
PHANTOM
100
AcDbLine
 10
88.863923
 20
218.3855059999999
 30
0.0
 11
88.863923
 21
203.585506
 31
0.0
  0
LINE
  5
BFF3
330
BF3F
100
AcDbEntity
  8
1
  6
Continuous
100
AcDbLine
 10
53.863923
 20
330.4855109999999
 30
0.0
 11
76.63536899999998
 21
330.4855109999999
 31
0.0
  0
LINE
  5
BFF4
330
BF3F
100
AcDbEntity
  8
1
  6
Continuous
100
AcDbLine
 10
53.863923
 20
331.6855109999999
 30
0.0
 11
77.27119300000002
 21
331.6855109999999
 31
0.0
  0
LINE
  5
BFF5
330
BF3F
100
AcDbEntity
  8
1
  6
Continuous
100
AcDbLine
 10
57.363923
 20
334.085511
 30
0.0
 11
74.863923
 21
334.085511
 31
0.0
  0
LINE
  5
BFF6
330
BF3F
100
AcDbEntity
  8
1
  6
Continuous
100
AcDbLine
 10
57.363923
 20
327.885511
 30
0.0
 11
73.863923
 21
327.885511
 31
0.0
  0
LINE
  5
BFF7
330
BF3F
100
AcDbEntity
  8
4
  6
CENTER
100
AcDbLine
 10
27.61840999999999
 20
330.9855109999999
 30
0.0
 11
78.652831
 21
330.9855109999999
 31
0.0
  0
LINE
  5
BFF8
330
BF3F
100
AcDbEntity
  8
1
  6
Continuous
100
AcDbLine
 10
35.43428999999999
 20
341.9855109999998
 30
0.0
 11
39.697256
 21
341.9855109999998
 31
0.0
  0
LINE
  5
BFF9
330
BF3F
100
AcDbEntity
  8
1
  6
Continuous
100
AcDbLine
 10
39.697256
 20
319.9855109999999
 30
0.0
 11
35.43428999999999
 21
319.9855109999999
 31
0.0
  0
LINE
  5
BFFA
330
BF3F
100
AcDbEntity
  8
1
  6
Continuous
100
AcDbLine
 10
35.43428999999999
 20
342.9855109999999
 30
0.0
 11
39.697256
 21
342.9855109999999
 31
0.0
  0
LINE
  5
BFFB
330
BF3F
100
AcDbEntity
  8
1
  6
Continuous
100
AcDbLine
 10
35.43428999999999
 20
318.9855109999998
 30
0.0
 11
39.697256
 21
318.9855109999998
 31
0.0
  0
LINE
  5
BFFC
330
BF3F
100
AcDbEntity
  8
1
  6
Continuous
100
AcDbLine
 10
30.363923
 20
327.091062
 30
0.0
 11
30.363923
 21
334.8799599999999
 31
0.0
  0
LINE
  5
BFFD
330
BF3F
100
AcDbEntity
  8
1
  6
Continuous
100
AcDbLine
 10
35.363923
 20
334.4855109999999
 30
0.0
 11
35.363923
 21
327.4855109999998
 31
0.0
  0
LINE
  5
BFFE
330
BF3F
100
AcDbEntity
  8
1
  6
Continuous
100
AcDbLine
 10
31.363923
 20
334.4855109999999
 30
0.0
 11
31.363923
 21
327.4855109999998
 31
0.0
  0
LINE
  5
BFFF
330
BF3F
100
AcDbEntity
  8
1
  6
Continuous
100
AcDbLine
 10
29.36392299999999
 20
334.8799599999999
 30
0.0
 11
29.36392299999999
 21
327.091062
 31
0.0
  0
LINE
  5
C000
330
BF3F
100
AcDbEntity
  8
1
  6
Continuous
100
AcDbLine
 10
34.60224
 20
320.4308109999999
 30
0.0
 11
30.53187299999999
 21
326.536362
 31
0.0
  0
ARC
  5
C001
330
BF3F
100
AcDbEntity
  8
1
  6
Continuous
100
AcDbCircle
 10
31.363923
 20
327.091062
 30
0.0
 40
1.0
100
AcDbArc
 50
180.0
 51
213.690068
  0
ARC
  5
C002
330
BF3F
100
AcDbEntity
  8
1
  6
Continuous
100
AcDbCircle
 10
35.43428999999999
 20
320.9855109999999
 30
0.0
 40
1.0
100
AcDbArc
 50
213.690068
 51
270.0
  0
ARC
  5
C003
330
BF3F
100
AcDbEntity
  8
1
  6
Continuous
100
AcDbCircle
 10
35.43428999999999
 20
320.9855109999999
 30
0.0
 40
2.0
100
AcDbArc
 50
213.690068
 51
270.0
  0
ARC
  5
C004
330
BF3F
100
AcDbEntity
  8
1
  6
Continuous
100
AcDbCircle
 10
31.363923
 20
327.091062
 30
0.0
 40
2.0
100
AcDbArc
 50
180.0
 51
213.690068
  0
ARC
  5
C005
330
BF3F
100
AcDbEntity
  8
1
  6
Continuous
100
AcDbCircle
 10
34.863923
 20
327.4855109999998
 30
0.0
 40
0.5
100
AcDbArc
 50
270.0
 51
0.0
  0
ARC
  5
C006
330
BF3F
100
AcDbEntity
  8
1
  6
Continuous
100
AcDbCircle
 10
31.863923
 20
327.4855109999998
 30
0.0
 40
0.5
100
AcDbArc
 50
180.0
 51
270.0
  0
LINE
  5
C007
330
BF3F
100
AcDbEntity
  8
1
  6
Continuous
100
AcDbLine
 10
29.699822
 20
325.9816619999999
 30
0.0
 11
33.77019
 21
319.8761109999999
 31
0.0
  0
LINE
  5
C008
330
BF3F
100
AcDbEntity
  8
1
  6
Continuous
100
AcDbLine
 10
31.863923
 20
326.9855109999999
 30
0.0
 11
34.863923
 21
326.9855109999999
 31
0.0
  0
ARC
  5
C009
330
BF3F
100
AcDbEntity
  8
1
  6
Continuous
100
AcDbCircle
 10
35.43428999999999
 20
340.9855109999999
 30
0.0
 40
1.0
100
AcDbArc
 50
90.0
 51
146.3099319999998
  0
ARC
  5
C00A
330
BF3F
100
AcDbEntity
  8
1
  6
Continuous
100
AcDbCircle
 10
35.43428999999999
 20
340.9855109999999
 30
0.0
 40
2.0
100
AcDbArc
 50
90.0
 51
146.3099319999998
  0
ARC
  5
C00B
330
BF3F
100
AcDbEntity
  8
1
  6
Continuous
100
AcDbCircle
 10
31.363923
 20
334.8799599999999
 30
0.0
 40
1.0
100
AcDbArc
 50
146.3099319999998
 51
180.0
  0
ARC
  5
C00C
330
BF3F
100
AcDbEntity
  8
1
  6
Continuous
100
AcDbCircle
 10
31.863923
 20
334.4855109999999
 30
0.0
 40
0.5
100
AcDbArc
 50
90.0
 51
180.0
  0
ARC
  5
C00D
330
BF3F
100
AcDbEntity
  8
1
  6
Continuous
100
AcDbCircle
 10
31.363923
 20
334.8799599999999
 30
0.0
 40
2.0
100
AcDbArc
 50
146.3099319999998
 51
180.0
  0
ARC
  5
C00E
330
BF3F
100
AcDbEntity
  8
1
  6
Continuous
100
AcDbCircle
 10
34.863923
 20
334.4855109999999
 30
0.0
 40
0.5
100
AcDbArc
 50
0.0
 51
90.0
  0
LINE
  5
C00F
330
BF3F
100
AcDbEntity
  8
1
  6
Continuous
100
AcDbLine
 10
31.863923
 20
334.985511
 30
0.0
 11
34.863923
 21
334.985511
 31
0.0
  0
LINE
  5
C010
330
BF3F
100
AcDbEntity
  8
1
  6
Continuous
100
AcDbLine
 10
34.60224
 20
341.540211
 30
0.0
 11
30.53187299999999
 21
335.4346599999999
 31
0.0
  0
LINE
  5
C011
330
BF3F
100
AcDbEntity
  8
1
  6
Continuous
100
AcDbLine
 10
29.699822
 20
335.9893599999999
 30
0.0
 11
33.77019
 21
342.0949109999999
 31
0.0
  0
LINE
  5
C012
330
BF3F
100
AcDbEntity
  8
1
  6
Continuous
100
AcDbLine
 10
50.363923
 20
327.7355109999998
 30
0.0
 11
50.363923
 21
334.2355109999999
 31
0.0
  0
ARC
  5
C013
330
BF3F
100
AcDbEntity
  8
1
  6
Continuous
100
AcDbCircle
 10
33.83130799999999
 20
330.9855109999999
 30
0.0
 40
10.032628
100
AcDbArc
 50
324.4619999999998
 51
35.53799999999999
  0
ARC
  5
C014
330
BF3F
100
AcDbEntity
  8
1
  6
Continuous
100
AcDbCircle
 10
46.896538
 20
330.9855109999999
 30
0.0
 40
10.032628
100
AcDbArc
 50
144.462
 51
215.5377
  0
LINE
  5
C015
330
BF3F
100
AcDbEntity
  8
1
  6
Continuous
100
AcDbLine
 10
40.363134
 20
330.597106
 30
0.0
 11
40.363134
 21
329.8202969999999
 31
0.0
  0
LINE
  5
C016
330
BF3F
100
AcDbEntity
  8
1
  6
Continuous
100
AcDbLine
 10
50.363923
 20
326.4855109999999
 30
0.0
 11
57.063923
 21
326.4855109999999
 31
0.0
  0
ARC
  5
C017
330
BF3F
100
AcDbEntity
  8
1
  6
Continuous
100
AcDbCircle
 10
39.697256
 20
320.9855109999999
 30
0.0
 40
1.0
100
AcDbArc
 50
270.0
 51
306.8698979999999
  0
LINE
  5
C018
330
BF3F
100
AcDbEntity
  8
1
  6
Continuous
100
AcDbLine
 10
50.363923
 20
327.7355109999998
 30
0.0
 11
40.29725599999999
 21
320.1855109999999
 31
0.0
  0
ARC
  5
C019
330
BF3F
100
AcDbEntity
  8
1
  6
Continuous
100
AcDbCircle
 10
39.697256
 20
320.9855109999999
 30
0.0
 40
2.0
100
AcDbArc
 50
270.0
 51
306.8698979999999
  0
LINE
  5
C01A
330
BF3F
100
AcDbEntity
  8
1
  6
Continuous
100
AcDbLine
 10
40.897256
 20
319.385511
 30
0.0
 11
50.363923
 21
326.4855109999999
 31
0.0
  0
ARC
  5
C01B
330
BF3F
100
AcDbEntity
  8
1
  6
Continuous
100
AcDbCircle
 10
40.363134
 20
326.319921
 30
0.0
 40
2.004309
100
AcDbArc
 50
270.0
 51
324.4619999999998
  0
LINE
  5
C01C
330
BF3F
100
AcDbEntity
  8
1
  6
Continuous
100
AcDbLine
 10
38.230067
 20
325.9315169999998
 30
0.0
 11
41.58360799999999
 21
325.9315169999998
 31
0.0
  0
LINE
  5
C01D
330
BF3F
100
AcDbEntity
  8
1
  6
Continuous
100
AcDbLine
 10
41.79833499999999
 20
326.708325
 30
0.0
 11
38.92951099999999
 21
326.708325
 31
0.0
  0
LINE
  5
C01E
330
BF3F
100
AcDbEntity
  8
1
  6
Continuous
100
AcDbLine
 10
38.444795
 20
327.486713
 30
0.0
 11
42.28147299999998
 21
327.486713
 31
0.0
  0
LINE
  5
C01F
330
BF3F
100
AcDbEntity
  8
1
  6
Continuous
100
AcDbLine
 10
39.43001599999997
 20
329.0419099999998
 30
0.0
 11
37.945869
 21
329.0419099999998
 31
0.0
  0
ARC
  5
C020
330
BF3F
100
AcDbEntity
  8
1
  6
Continuous
100
AcDbCircle
 10
38.92951099999999
 20
327.0983089999999
 30
0.0
 40
0.388957
100
AcDbArc
 50
206.0144
 51
270.0
  0
ARC
  5
C021
330
BF3F
100
AcDbEntity
  8
1
  6
Continuous
100
AcDbCircle
 10
46.896538
 20
330.9855109999999
 30
0.0
 40
9.254918999999999
100
AcDbArc
 50
202.944
 51
206.0144
  0
ARC
  5
C022
330
BF3F
100
AcDbEntity
  8
1
  6
Continuous
100
AcDbCircle
 10
38.444795
 20
327.409348
 30
0.0
 40
0.077791
100
AcDbArc
 50
90.0
 51
202.944
  0
ARC
  5
C023
330
BF3F
100
AcDbEntity
  8
1
  6
Continuous
100
AcDbCircle
 10
41.79833499999999
 20
327.0983089999999
 30
0.0
 40
0.388957
100
AcDbArc
 50
270.0
 51
333.9859999999998
  0
ARC
  5
C024
330
BF3F
100
AcDbEntity
  8
1
  6
Continuous
100
AcDbCircle
 10
37.945869
 20
328.964545
 30
0.0
 40
0.077791
100
AcDbArc
 50
90.0
 51
192.7289
  0
ARC
  5
C025
330
BF3F
100
AcDbEntity
  8
1
  6
Continuous
100
AcDbCircle
 10
46.896538
 20
330.9855109999999
 30
0.0
 40
9.254918999999999
100
AcDbArc
 50
192.7289
 51
193.2680999999999
  0
ARC
  5
C026
330
BF3F
100
AcDbEntity
  8
1
  6
Continuous
100
AcDbCircle
 10
46.896538
 20
330.9855109999999
 30
0.0
 40
9.254918999999999
100
AcDbArc
 50
193.2680999999999
 51
195.2574999999999
  0
ARC
  5
C027
330
BF3F
100
AcDbEntity
  8
1
  6
Continuous
100
AcDbCircle
 10
38.343747
 20
328.6535049999999
 30
0.0
 40
0.388957
100
AcDbArc
 50
195.2574999999999
 51
270.0
  0
ARC
  5
C028
330
BF3F
100
AcDbEntity
  8
1
  6
Continuous
100
AcDbCircle
 10
42.3841
 20
328.6535049999999
 30
0.0
 40
0.388957
100
AcDbArc
 50
270.0
 51
344.7419999999998
  0
ARC
  5
C029
330
BF3F
100
AcDbEntity
  8
1
  6
Continuous
100
AcDbCircle
 10
33.83130799999999
 20
330.9855109999999
 30
0.0
 40
9.254918999999999
100
AcDbArc
 50
344.7419999999998
 51
344.794
  0
ARC
  5
C02A
330
BF3F
100
AcDbEntity
  8
1
  6
Continuous
100
AcDbCircle
 10
33.83130799999999
 20
330.9855109999999
 30
0.0
 40
9.254918999999999
100
AcDbArc
 50
344.794
 51
347.2709999999998
  0
ARC
  5
C02B
330
BF3F
100
AcDbEntity
  8
1
  6
Continuous
100
AcDbCircle
 10
42.78197699999998
 20
328.964545
 30
0.0
 40
0.077791
100
AcDbArc
 50
347.2709999999998
 51
90.0
  0
LINE
  5
C02C
330
BF3F
100
AcDbEntity
  8
1
  6
Continuous
100
AcDbLine
 10
38.343747
 20
328.263522
 30
0.0
 11
42.3841
 21
328.263522
 31
0.0
  0
LINE
  5
C02D
330
BF3F
100
AcDbEntity
  8
1
  6
Continuous
100
AcDbLine
 10
42.78197699999998
 20
329.0419099999998
 30
0.0
 11
41.296252
 21
329.0419099999998
 31
0.0
  0
LINE
  5
C02E
330
BF3F
100
AcDbEntity
  8
1
  6
Continuous
100
AcDbLine
 10
37.71535200000001
 20
329.8202969999999
 30
0.0
 11
43.01249399999998
 21
329.8202969999999
 31
0.0
  0
ARC
  5
C02F
330
BF3F
100
AcDbEntity
  8
1
  6
Continuous
100
AcDbCircle
 10
42.28147299999998
 20
327.409348
 30
0.0
 40
0.077791
100
AcDbArc
 50
337.0559999999999
 51
90.0
  0
ARC
  5
C030
330
BF3F
100
AcDbEntity
  8
1
  6
Continuous
100
AcDbCircle
 10
33.83130799999999
 20
330.9855109999999
 30
0.0
 40
9.254918999999999
100
AcDbArc
 50
333.9859999999998
 51
337.0559999999999
  0
ARC
  5
C031
330
BF3F
100
AcDbEntity
  8
1
  6
Continuous
100
AcDbCircle
 10
40.363134
 20
326.319921
 30
0.0
 40
2.004309
100
AcDbArc
 50
215.5377
 51
256.5374
  0
ARC
  5
C032
330
BF3F
100
AcDbEntity
  8
1
  6
Continuous
100
AcDbCircle
 10
57.063923
 20
326.7855109999998
 30
0.0
 40
0.3
100
AcDbArc
 50
270.0
 51
0.0
  0
LINE
  5
C033
330
BF3F
100
AcDbEntity
  8
1
  6
Continuous
100
AcDbLine
 10
57.363923
 20
327.885511
 30
0.0
 11
57.363923
 21
326.7855109999998
 31
0.0
  0
LINE
  5
C034
330
BF3F
100
AcDbEntity
  8
1
  6
Continuous
100
AcDbLine
 10
50.363923
 20
335.4855109999999
 30
0.0
 11
57.063923
 21
335.4855109999999
 31
0.0
  0
ARC
  5
C035
330
BF3F
100
AcDbEntity
  8
1
  6
Continuous
100
AcDbCircle
 10
39.697256
 20
340.9855109999999
 30
0.0
 40
1.0
100
AcDbArc
 50
53.130102
 51
90.0
  0
ARC
  5
C036
330
BF3F
100
AcDbEntity
  8
1
  6
Continuous
100
AcDbCircle
 10
39.697256
 20
340.9855109999999
 30
0.0
 40
2.0
100
AcDbArc
 50
53.130102
 51
90.0
  0
LINE
  5
C037
330
BF3F
100
AcDbEntity
  8
1
  6
Continuous
100
AcDbLine
 10
37.650618
 20
331.3754939999999
 30
0.0
 11
43.07722799999999
 21
331.3754939999999
 31
0.0
  0
LINE
  5
C038
330
BF3F
100
AcDbEntity
  8
1
  6
Continuous
100
AcDbLine
 10
37.650618
 20
330.597106
 30
0.0
 11
43.07722799999999
 21
330.597106
 31
0.0
  0
LINE
  5
C039
330
BF3F
100
AcDbEntity
  8
1
  6
Continuous
100
AcDbLine
 10
39.43001599999997
 20
332.930691
 30
0.0
 11
38.16849099999997
 21
332.930691
 31
0.0
  0
LINE
  5
C03A
330
BF3F
100
AcDbEntity
  8
1
  6
Continuous
100
AcDbLine
 10
40.363134
 20
332.930691
 30
0.0
 11
40.363134
 21
332.5422859999998
 31
0.0
  0
LINE
  5
C03B
330
BF3F
100
AcDbEntity
  8
1
  6
Continuous
100
AcDbLine
 10
38.173228
 20
334.4858869999999
 30
0.0
 11
39.97472899999999
 21
334.4858869999999
 31
0.0
  0
LINE
  5
C03C
330
BF3F
100
AcDbEntity
  8
1
  6
Continuous
100
AcDbLine
 10
39.97472899999999
 20
335.264275
 30
0.0
 11
38.31374799999998
 21
335.264275
 31
0.0
  0
LINE
  5
C03D
330
BF3F
100
AcDbEntity
  8
1
  6
Continuous
100
AcDbLine
 10
40.363134
 20
334.8742919999999
 30
0.0
 11
42.22937
 21
334.8742919999999
 31
0.0
  0
LINE
  5
C03E
330
BF3F
100
AcDbEntity
  8
1
  6
Continuous
100
AcDbLine
 10
41.81886099999998
 20
335.658995
 30
0.0
 11
38.541106
 21
336.538431
 31
0.0
  0
LINE
  5
C03F
330
BF3F
100
AcDbEntity
  8
1
  6
Continuous
100
AcDbLine
 10
40.363134
 20
337.6562779999998
 30
0.0
 11
40.363134
 21
336.0489779999999
 31
0.0
  0
ARC
  5
C040
330
BF3F
100
AcDbEntity
  8
1
  6
Continuous
100
AcDbCircle
 10
39.97472899999999
 20
334.8742919999999
 30
0.0
 40
0.388957
100
AcDbArc
 50
270.0
 51
90.0
  0
ARC
  5
C041
330
BF3F
100
AcDbEntity
  8
1
  6
Continuous
100
AcDbCircle
 10
40.363134
 20
335.6526789999999
 30
0.0
 40
2.004309
100
AcDbArc
 50
62.24999999999999
 51
144.462
  0
ARC
  5
C042
330
BF3F
100
AcDbEntity
  8
1
  6
Continuous
100
AcDbCircle
 10
40.363134
 20
335.6526789999999
 30
0.0
 40
2.004309
100
AcDbArc
 50
35.53799999999999
 51
45.69899999999999
  0
ARC
  5
C043
330
BF3F
100
AcDbEntity
  8
1
  6
Continuous
100
AcDbCircle
 10
38.16849099999997
 20
332.5422859999998
 30
0.0
 40
0.388957
100
AcDbArc
 50
90.0
 51
169.896
  0
ARC
  5
C044
330
BF3F
100
AcDbEntity
  8
1
  6
Continuous
100
AcDbCircle
 10
46.896538
 20
330.9855109999999
 30
0.0
 40
9.254918999999999
100
AcDbArc
 50
169.896
 51
172.2069999999999
  0
ARC
  5
C045
330
BF3F
100
AcDbEntity
  8
1
  6
Continuous
100
AcDbCircle
 10
37.80377
 20
332.2312469999999
 30
0.0
 40
0.077791
100
AcDbArc
 50
172.2069999999999
 51
270.0
  0
ARC
  5
C046
330
BF3F
100
AcDbEntity
  8
1
  6
Continuous
100
AcDbCircle
 10
42.55935499999997
 20
332.5422859999998
 30
0.0
 40
0.388957
100
AcDbArc
 50
10.10399999999999
 51
90.0
  0
ARC
  5
C047
330
BF3F
100
AcDbEntity
  8
1
  6
Continuous
100
AcDbCircle
 10
42.924077
 20
332.2312469999999
 30
0.0
 40
0.077791
100
AcDbArc
 50
270.0
 51
7.792999999999999
  0
ARC
  5
C048
330
BF3F
100
AcDbEntity
  8
1
  6
Continuous
100
AcDbCircle
 10
33.83130799999999
 20
330.9855109999999
 30
0.0
 40
9.254918999999999
100
AcDbArc
 50
7.792999999999999
 51
10.10399999999999
  0
LINE
  5
C049
330
BF3F
100
AcDbEntity
  8
1
  6
Continuous
100
AcDbLine
 10
37.80377
 20
332.1523029999998
 30
0.0
 11
42.924077
 21
332.1523029999998
 31
0.0
  0
LINE
  5
C04A
330
BF3F
100
AcDbEntity
  8
1
  6
Continuous
100
AcDbLine
 10
42.55935499999997
 20
332.930691
 30
0.0
 11
40.363134
 21
332.930691
 31
0.0
  0
LINE
  5
C04B
330
BF3F
100
AcDbEntity
  8
1
  6
Continuous
100
AcDbLine
 10
37.806927
 20
333.707499
 30
0.0
 11
42.67619299999998
 21
333.707499
 31
0.0
  0
LINE
  5
C04C
330
BF3F
100
AcDbEntity
  8
1
  6
Continuous
100
AcDbLine
 10
40.29725599999999
 20
341.785511
 30
0.0
 11
50.363923
 21
334.2355109999999
 31
0.0
  0
LINE
  5
C04D
330
BF3F
100
AcDbEntity
  8
1
  6
Continuous
100
AcDbLine
 10
40.897256
 20
342.585511
 30
0.0
 11
50.363923
 21
335.4855109999999
 31
0.0
  0
ARC
  5
C04E
330
BF3F
100
AcDbEntity
  8
1
  6
Continuous
100
AcDbCircle
 10
57.063923
 20
335.1855109999998
 30
0.0
 40
0.3
100
AcDbArc
 50
0.0
 51
90.0
  0
LINE
  5
C04F
330
BF3F
100
AcDbEntity
  8
1
  6
Continuous
100
AcDbLine
 10
57.363923
 20
335.1855109999998
 30
0.0
 11
57.363923
 21
334.085511
 31
0.0
  0
LINE
  5
C050
330
BF3F
100
AcDbEntity
  8
1
  6
Continuous
100
AcDbLine
 10
53.863923
 20
331.6855109999999
 30
0.0
 11
53.863923
 21
330.4855109999999
 31
0.0
  0
LINE
  5
C051
330
BF3F
100
AcDbEntity
  8
1
  6
Continuous
100
AcDbLine
 10
73.863923
 20
327.885511
 30
0.0
 11
77.206017
 21
331.0208579999998
 31
0.0
  0
LINE
  5
C052
330
BF3F
100
AcDbEntity
  8
1
  6
Continuous
100
AcDbLine
 10
74.863923
 20
334.085511
 30
0.0
 11
77.216941
 21
331.739599
 31
0.0
  0
ARC
  5
C053
330
BF3F
100
AcDbEntity
  8
1
  6
Continuous
100
AcDbCircle
 10
76.863923
 20
331.3855109999999
 30
0.0
 40
0.5
100
AcDbArc
 50
313.1718549999998
 51
45.08664600000001
  0
LINE
  5
C054
330
BF3F
100
AcDbEntity
  8
4
  6
CENTER
100
AcDbLine
 10
200.165459
 20
228.9855059999999
 30
0.0
 11
188.2830229999999
 21
228.9855059999999
 31
0.0
  0
LINE
  5
C055
330
BF3F
100
AcDbEntity
  8
1
  6
Continuous
100
AcDbLine
 10
196.93597
 20
225.485506
 30
0.0
 11
193.43597
 21
225.485506
 31
0.0
  0
LINE
  5
C056
330
BF3F
100
AcDbEntity
  8
1
  6
Continuous
100
AcDbLine
 10
196.93597
 20
232.4855059999999
 30
0.0
 11
193.43597
 21
232.4855059999999
 31
0.0
  0
LINE
  5
C057
330
BF3F
100
AcDbEntity
  8
4
  6
CENTER
100
AcDbLine
 10
185.5070379999999
 20
210.985506
 30
0.0
 11
217.5624249999999
 21
210.985506
 31
0.0
  0
LINE
  5
C058
330
BF3F
100
AcDbEntity
  8
1
  6
Continuous
100
AcDbLine
 10
193.43597
 20
223.485506
 30
0.0
 11
211.6359699999999
 21
223.485506
 31
0.0
  0
LINE
  5
C059
330
BF3F
100
AcDbEntity
  8
1
  6
Continuous
100
AcDbLine
 10
194.4359699999999
 20
222.4855059999999
 30
0.0
 11
194.4359699999999
 21
211.9855059999999
 31
0.0
  0
ARC
  5
C05A
330
BF3F
100
AcDbEntity
  8
5
  6
PHANTOM
100
AcDbCircle
 10
189.43597
 20
219.385506
 30
0.0
 40
1.0
100
AcDbArc
 50
90.0
 51
180.0
  0
LINE
  5
C05B
330
BF3F
100
AcDbEntity
  8
5
  6
PHANTOM
100
AcDbLine
 10
185.5070379999999
 20
210.127642
 30
0.0
 11
158.434184
 21
183.054788
 31
0.0
  0
LINE
  5
C05C
330
BF3F
100
AcDbEntity
  8
5
  6
PHANTOM
100
AcDbLine
 10
158.434184
 20
181.640574
 30
0.0
 11
161.2626109999999
 21
178.812147
 31
0.0
  0
ARC
  5
C05D
330
BF3F
100
AcDbEntity
  8
5
  6
PHANTOM
100
AcDbCircle
 10
159.141291
 20
182.347681
 30
0.0
 40
1.0
100
AcDbArc
 50
135.0
 51
225.0
  0
LINE
  5
C05E
330
BF3F
100
AcDbEntity
  8
5
  6
PHANTOM
100
AcDbLine
 10
187.264397
 20
203.399719
 30
0.0
 11
181.061601
 21
197.1969239999999
 31
0.0
  0
ARC
  5
C05F
330
BF3F
100
AcDbEntity
  8
5
  6
PHANTOM
100
AcDbCircle
 10
185.3042419999999
 20
192.954283
 30
0.0
 40
6.0
100
AcDbArc
 50
135.0
 51
225.0
  0
ARC
  5
C060
330
BF3F
100
AcDbEntity
  8
5
  6
PHANTOM
100
AcDbCircle
 10
181.4858649999999
 20
185.458951
 30
0.0
 40
2.0
100
AcDbArc
 50
315.0
 51
45.0
  0
LINE
  5
C061
330
BF3F
100
AcDbEntity
  8
5
  6
PHANTOM
100
AcDbLine
 10
182.900079
 20
186.8731649999998
 30
0.0
 11
181.061601
 21
188.7116419999999
 31
0.0
  0
ARC
  5
C062
330
BF3F
100
AcDbEntity
  8
1
  6
Continuous
100
AcDbCircle
 10
193.43597
 20
210.985506
 30
0.0
 40
9.4
100
AcDbArc
 50
115.184337
 51
135.0
  0
LINE
  5
C063
330
BF3F
100
AcDbEntity
  8
5
  6
PHANTOM
100
AcDbLine
 10
188.43597
 20
219.385506
 30
0.0
 11
188.43597
 21
217.198709
 31
0.0
  0
LINE
  5
C064
330
BF3F
100
AcDbEntity
  8
1
  6
Continuous
100
AcDbLine
 10
183.9607389999999
 20
213.3896689999999
 30
0.0
 11
185.5070379999999
 21
211.8433699999999
 31
0.0
  0
ARC
  5
C065
330
BF3F
100
AcDbEntity
  8
1
  6
Continuous
100
AcDbCircle
 10
184.6678459999999
 20
214.0967759999998
 30
0.0
 40
1.0
100
AcDbArc
 50
135.0
 51
225.0
  0
LINE
  5
C066
330
BF3F
100
AcDbEntity
  8
1
  6
Continuous
100
AcDbLine
 10
186.7891659999999
 20
217.6323099999999
 30
0.0
 11
183.9607389999999
 21
214.803882
 31
0.0
  0
ARC
  5
C067
330
BF3F
100
AcDbEntity
  8
5
  6
PHANTOM
100
AcDbCircle
 10
178.4359699999999
 20
217.198709
 30
0.0
 40
10.0
100
AcDbArc
 50
315.0
 51
0.0
  0
ARC
  5
C068
330
BF3F
100
AcDbEntity
  8
5
  6
PHANTOM
100
AcDbCircle
 10
184.43597
 20
206.228147
 30
0.0
 40
4.0
100
AcDbArc
 50
315.0
 51
351.9013289999999
  0
LINE
  5
C069
330
BF3F
100
AcDbEntity
  8
5
  6
PHANTOM
100
AcDbLine
 10
188.43597
 20
201.585506
 30
0.0
 11
185.450184
 21
201.585506
 31
0.0
  0
ARC
  5
C06A
330
BF3F
100
AcDbEntity
  8
1
  6
Continuous
100
AcDbCircle
 10
178.4359699999999
 20
204.7723019999998
 30
0.0
 40
10.0
100
AcDbArc
 50
0.0
 51
45.0
  0
LINE
  5
C06B
330
BF3F
100
AcDbEntity
  8
1
  6
Continuous
100
AcDbLine
 10
192.43597
 20
235.985506
 30
0.0
 11
190.9359699999999
 21
235.985506
 31
0.0
  0
LINE
  5
C06C
330
BF3F
100
AcDbEntity
  8
1
  6
Continuous
100
AcDbLine
 10
193.43597
 20
235.985506
 30
0.0
 11
192.43597
 21
235.985506
 31
0.0
  0
LINE
  5
C06D
330
BF3F
100
AcDbEntity
  8
1
  6
Continuous
100
AcDbLine
 10
190.9359699999999
 20
235.985506
 30
0.0
 11
189.43597
 21
232.9855059999999
 31
0.0
  0
ARC
  5
C06E
330
BF3F
100
AcDbEntity
  8
1
  6
Continuous
100
AcDbCircle
 10
193.43597
 20
222.4855059999999
 30
0.0
 40
1.0
100
AcDbArc
 50
0.0
 51
90.0
  0
LINE
  5
C06F
330
BF3F
100
AcDbEntity
  8
1
  6
Continuous
100
AcDbLine
 10
211.83597
 20
223.2855059999999
 30
0.0
 11
211.83597
 21
218.738752
 31
0.0
  0
LINE
  5
C070
330
BF3F
100
AcDbEntity
  8
1
  6
Continuous
100
AcDbLine
 10
212.1359699999999
 20
220.7282919999999
 30
0.0
 11
212.1359699999999
 21
199.7355059999999
 31
0.0
  0
LINE
  5
C071
330
BF3F
100
AcDbEntity
  8
1
  6
Continuous
100
AcDbLine
 10
209.6359699999999
 20
221.6853799999999
 30
0.0
 11
209.6359699999999
 21
199.4855059999999
 31
0.0
  0
LINE
  5
C072
330
BF3F
100
AcDbEntity
  8
1
  6
Continuous
100
AcDbLine
 10
199.886432
 20
198.4855059999999
 30
0.0
 11
197.4359699999999
 21
196.035044
 31
0.0
  0
ARC
  5
C073
330
BF3F
100
AcDbEntity
  8
1
  6
Continuous
100
AcDbCircle
 10
200.43597
 20
191.9855059999999
 30
0.0
 40
3.0
100
AcDbArc
 50
180.0
 51
270.0
  0
LINE
  5
C074
330
BF3F
100
AcDbEntity
  8
1
  6
Continuous
100
AcDbLine
 10
197.4359699999999
 20
196.035044
 30
0.0
 11
197.4359699999999
 21
191.9855059999999
 31
0.0
  0
LINE
  5
C075
330
BF3F
100
AcDbEntity
  8
1
  6
Continuous
100
AcDbLine
 10
204.0359699999999
 20
188.985506
 30
0.0
 11
200.43597
 21
188.985506
 31
0.0
  0
ARC
  5
C076
330
BF3F
100
AcDbEntity
  8
1
  6
Continuous
100
AcDbCircle
 10
204.0359699999999
 20
185.9855059999999
 30
0.0
 40
3.0
100
AcDbArc
 50
0.0
 51
90.0
  0
ARC
  5
C077
330
BF3F
100
AcDbEntity
  8
1
  6
Continuous
100
AcDbCircle
 10
211.6359699999999
 20
218.738752
 30
0.0
 40
0.2
100
AcDbArc
 50
270.0
 51
0.0
  0
LINE
  5
C078
330
BF3F
100
AcDbEntity
  8
1
  6
Continuous
100
AcDbLine
 10
212.1359699999999
 20
205.3605059999999
 30
0.0
 11
210.1359699999999
 21
205.3605059999999
 31
0.0
  0
LINE
  5
C079
330
BF3F
100
AcDbEntity
  8
1
  6
Continuous
100
AcDbLine
 10
212.1359699999999
 20
206.835506
 30
0.0
 11
210.1359699999999
 21
206.835506
 31
0.0
  0
LINE
  5
C07A
330
BF3F
100
AcDbEntity
  8
1
  6
Continuous
100
AcDbLine
 10
212.1359699999999
 20
199.7355059999999
 30
0.0
 11
210.1359699999999
 21
199.7355059999999
 31
0.0
  0
LINE
  5
C07B
330
BF3F
100
AcDbEntity
  8
1
  6
Continuous
100
AcDbLine
 10
210.0359699999999
 20
216.8855059999999
 30
0.0
 11
210.1359699999999
 21
216.8855059999999
 31
0.0
  0
ARC
  5
C07C
330
BF3F
100
AcDbEntity
  8
1
  6
Continuous
100
AcDbCircle
 10
209.83597
 20
219.44576
 30
0.0
 40
0.2
100
AcDbArc
 50
0.0
 51
90.0
  0
LINE
  5
C07D
330
BF3F
100
AcDbEntity
  8
1
  6
Continuous
100
AcDbLine
 10
211.6359699999999
 20
218.5387519999999
 30
0.0
 11
210.0359699999999
 21
218.5387519999999
 31
0.0
  0
LINE
  5
C07E
330
BF3F
100
AcDbEntity
  8
1
  6
Continuous
100
AcDbLine
 10
210.0359699999999
 20
205.0855059999999
 30
0.0
 11
210.1359699999999
 21
205.0855059999999
 31
0.0
  0
ARC
  5
C07F
330
BF3F
100
AcDbEntity
  8
1
  6
Continuous
100
AcDbCircle
 10
209.77972
 20
201.2355059999999
 30
0.0
 40
0.25625
100
AcDbArc
 50
282.680383
 51
0.0
  0
LINE
  5
C080
330
BF3F
100
AcDbEntity
  8
1
  6
Continuous
100
AcDbLine
 10
210.1359699999999
 20
218.5387519999999
 30
0.0
 11
210.1359699999999
 21
199.7355059999999
 31
0.0
  0
LINE
  5
C081
330
BF3F
100
AcDbEntity
  8
1
  6
Continuous
100
AcDbLine
 10
210.0359699999999
 20
219.44576
 30
0.0
 11
210.0359699999999
 21
201.2355059999999
 31
0.0
  0
LINE
  5
C082
330
BF3F
100
AcDbEntity
  8
1
  6
Continuous
100
AcDbLine
 10
201.4359699999999
 20
209.9855059999999
 30
0.0
 11
201.4359699999999
 21
199.4855059999999
 31
0.0
  0
LINE
  5
C083
330
BF3F
100
AcDbEntity
  8
1
  6
Continuous
100
AcDbLine
 10
209.83597
 20
219.64576
 30
0.0
 11
209.6359699999999
 21
219.64576
 31
0.0
  0
LINE
  5
C084
330
BF3F
100
AcDbEntity
  8
1
  6
Continuous
100
AcDbLine
 10
209.6359699999999
 20
200.985506
 30
0.0
 11
209.83597
 21
200.985506
 31
0.0
  0
LINE
  5
C085
330
BF3F
100
AcDbEntity
  8
1
  6
Continuous
100
AcDbLine
 10
199.886432
 20
198.4855059999999
 30
0.0
 11
208.63597
 21
198.4855059999999
 31
0.0
  0
ARC
  5
C086
330
BF3F
100
AcDbEntity
  8
1
  6
Continuous
100
AcDbCircle
 10
208.63597
 20
199.4855059999999
 30
0.0
 40
1.0
100
AcDbArc
 50
270.0
 51
0.0
  0
ARC
  5
C087
330
BF3F
100
AcDbEntity
  8
1
  6
Continuous
100
AcDbCircle
 10
200.43597
 20
199.4855059999999
 30
0.0
 40
1.0
100
AcDbArc
 50
270.0
 51
0.0
  0
LINE
  5
C088
330
BF3F
100
AcDbEntity
  8
1
  6
Continuous
100
AcDbLine
 10
212.1359699999999
 20
219.2855059999998
 30
0.0
 11
211.83597
 21
219.2855059999998
 31
0.0
  0
LINE
  5
C089
330
BF3F
100
AcDbEntity
  8
1
  6
Continuous
100
AcDbLine
 10
214.1359699999999
 20
215.9855059999999
 30
0.0
 11
212.1359699999999
 21
215.9855059999999
 31
0.0
  0
LINE
  5
C08A
330
BF3F
100
AcDbEntity
  8
1
  6
Continuous
100
AcDbLine
 10
214.1359699999999
 20
210.328652
 30
0.0
 11
212.1359699999999
 21
210.328652
 31
0.0
  0
LINE
  5
C08B
330
BF3F
100
AcDbEntity
  8
1
  6
Continuous
100
AcDbLine
 10
214.1359699999999
 20
211.64236
 30
0.0
 11
212.1359699999999
 21
211.64236
 31
0.0
  0
LINE
  5
C08C
330
BF3F
100
AcDbEntity
  8
1
  6
Continuous
100
AcDbLine
 10
214.1359699999999
 20
205.9855059999999
 30
0.0
 11
212.1359699999999
 21
205.9855059999999
 31
0.0
  0
LINE
  5
C08D
330
BF3F
100
AcDbEntity
  8
1
  6
Continuous
100
AcDbLine
 10
214.1359699999999
 20
215.9855059999999
 30
0.0
 11
214.1359699999999
 21
205.9855059999999
 31
0.0
  0
ARC
  5
C08E
330
BF3F
100
AcDbEntity
  8
1
  6
Continuous
100
AcDbCircle
 10
211.6359699999999
 20
221.8853799999999
 30
0.0
 40
0.2
100
AcDbArc
 50
270.0
 51
0.0
  0
ARC
  5
C08F
330
BF3F
100
AcDbEntity
  8
1
  6
Continuous
100
AcDbCircle
 10
211.6359699999999
 20
223.2855059999999
 30
0.0
 40
0.2
100
AcDbArc
 50
0.0
 51
90.0
  0
LINE
  5
C090
330
BF3F
100
AcDbEntity
  8
1
  6
Continuous
100
AcDbLine
 10
196.93597
 20
232.4855059999999
 30
0.0
 11
197.4359699999999
 21
231.985506
 31
0.0
  0
LINE
  5
C091
330
BF3F
100
AcDbEntity
  8
1
  6
Continuous
100
AcDbLine
 10
197.4359699999999
 20
225.985506
 30
0.0
 11
196.93597
 21
225.485506
 31
0.0
  0
LINE
  5
C092
330
BF3F
100
AcDbEntity
  8
1
  6
Continuous
100
AcDbLine
 10
196.93597
 20
232.4855059999999
 30
0.0
 11
196.93597
 21
225.485506
 31
0.0
  0
LINE
  5
C093
330
BF3F
100
AcDbEntity
  8
1
  6
Continuous
100
AcDbLine
 10
197.4359699999999
 20
225.985506
 30
0.0
 11
197.4359699999999
 21
231.985506
 31
0.0
  0
LINE
  5
C094
330
BF3F
100
AcDbEntity
  8
1
  6
Continuous
100
AcDbLine
 10
211.6359699999999
 20
221.6853799999999
 30
0.0
 11
209.6359699999999
 21
221.6853799999999
 31
0.0
  0
LINE
  5
C095
330
BF3F
100
AcDbEntity
  8
1
  6
Continuous
100
AcDbLine
 10
212.1359699999999
 20
220.7282919999999
 30
0.0
 11
211.83597
 21
220.7282919999999
 31
0.0
  0
LINE
  5
C096
330
BF3F
100
AcDbEntity
  8
1
  6
Continuous
100
AcDbLine
 10
208.63597
 20
342.4855109999999
 30
0.0
 11
193.43597
 21
342.4855109999999
 31
0.0
  0
LINE
  5
C097
330
BF3F
100
AcDbEntity
  8
1
  6
Continuous
100
AcDbLine
 10
196.93597
 20
334.4855109999999
 30
0.0
 11
193.43597
 21
334.4855109999999
 31
0.0
  0
LINE
  5
C098
330
BF3F
100
AcDbEntity
  8
1
  6
Continuous
100
AcDbLine
 10
196.93597
 20
327.4855109999998
 30
0.0
 11
193.43597
 21
327.4855109999998
 31
0.0
  0
LINE
  5
C099
330
BF3F
100
AcDbEntity
  8
1
  6
Continuous
100
AcDbLine
 10
208.63597
 20
319.4855109999999
 30
0.0
 11
193.43597
 21
319.4855109999999
 31
0.0
  0
LINE
  5
C09A
330
BF3F
100
AcDbEntity
  8
4
  6
CENTER
100
AcDbLine
 10
219.248192
 20
330.9855109999999
 30
0.0
 11
180.985119
 21
330.9855109999999
 31
0.0
  0
LINE
  5
C09B
330
BF3F
100
AcDbEntity
  8
1
  6
Continuous
100
AcDbLine
 10
193.43597
 20
344.9855109999999
 30
0.0
 11
193.43597
 21
316.9855109999998
 31
0.0
  0
LINE
  5
C09C
330
BF3F
100
AcDbEntity
  8
1
  6
Continuous
100
AcDbLine
 10
190.9359699999999
 20
344.9855109999999
 30
0.0
 11
190.9359699999999
 21
316.9855109999998
 31
0.0
  0
LINE
  5
C09D
330
BF3F
100
AcDbEntity
  8
1
  6
Continuous
100
AcDbLine
 10
192.43597
 20
344.9855109999999
 30
0.0
 11
192.43597
 21
316.9855109999998
 31
0.0
  0
LINE
  5
C09E
330
BF3F
100
AcDbEntity
  8
1
  6
Continuous
100
AcDbLine
 10
189.43597
 20
341.9855109999998
 30
0.0
 11
189.43597
 21
319.9855109999999
 31
0.0
  0
ARC
  5
C09F
330
BF3F
100
AcDbEntity
  8
1
  6
Continuous
100
AcDbCircle
 10
194.211244
 20
330.9855109999999
 30
0.0
 40
10.54339799999998
100
AcDbArc
 50
116.930926
 51
243.0690740000001
  0
LINE
  5
C0A0
330
BF3F
100
AcDbEntity
  8
1
  6
Continuous
100
AcDbLine
 10
190.9359699999999
 20
316.9855109999998
 30
0.0
 11
189.43597
 21
319.9855109999999
 31
0.0
  0
LINE
  5
C0A1
330
BF3F
100
AcDbEntity
  8
1
  6
Continuous
100
AcDbLine
 10
192.43597
 20
316.9855109999998
 30
0.0
 11
190.9359699999999
 21
316.9855109999998
 31
0.0
  0
LINE
  5
C0A2
330
BF3F
100
AcDbEntity
  8
1
  6
Continuous
100
AcDbLine
 10
193.43597
 20
316.9855109999998
 30
0.0
 11
192.43597
 21
316.9855109999998
 31
0.0
  0
LINE
  5
C0A3
330
BF3F
100
AcDbEntity
  8
1
  6
Continuous
100
AcDbLine
 10
194.4359699999999
 20
319.4855109999999
 30
0.0
 11
194.4359699999999
 21
327.4855109999998
 31
0.0
  0
LINE
  5
C0A4
330
BF3F
100
AcDbEntity
  8
1
  6
Continuous
100
AcDbLine
 10
190.9359699999999
 20
344.9855109999999
 30
0.0
 11
189.43597
 21
341.9855109999998
 31
0.0
  0
LINE
  5
C0A5
330
BF3F
100
AcDbEntity
  8
1
  6
Continuous
100
AcDbLine
 10
192.43597
 20
344.9855109999999
 30
0.0
 11
190.9359699999999
 21
344.9855109999999
 31
0.0
  0
LINE
  5
C0A6
330
BF3F
100
AcDbEntity
  8
1
  6
Continuous
100
AcDbLine
 10
193.43597
 20
344.9855109999999
 30
0.0
 11
192.43597
 21
344.9855109999999
 31
0.0
  0
LINE
  5
C0A7
330
BF3F
100
AcDbEntity
  8
1
  6
Continuous
100
AcDbLine
 10
194.4359699999999
 20
334.4855109999999
 30
0.0
 11
194.4359699999999
 21
342.4855109999999
 31
0.0
  0
LINE
  5
C0A8
330
BF3F
100
AcDbEntity
  8
1
  6
Continuous
100
AcDbLine
 10
197.4359699999999
 20
327.9855109999999
 30
0.0
 11
197.4359699999999
 21
333.9855109999998
 31
0.0
  0
LINE
  5
C0A9
330
BF3F
100
AcDbEntity
  8
1
  6
Continuous
100
AcDbLine
 10
196.93597
 20
334.4855109999999
 30
0.0
 11
196.93597
 21
327.4855109999998
 31
0.0
  0
LINE
  5
C0AA
330
BF3F
100
AcDbEntity
  8
1
  6
Continuous
100
AcDbLine
 10
211.83597
 20
337.163111
 30
0.0
 11
211.83597
 21
324.8079109999999
 31
0.0
  0
LINE
  5
C0AB
330
BF3F
100
AcDbEntity
  8
1
  6
Continuous
100
AcDbLine
 10
212.1359699999999
 20
342.2355109999998
 30
0.0
 11
212.1359699999999
 21
321.243511
 31
0.0
  0
LINE
  5
C0AC
330
BF3F
100
AcDbEntity
  8
1
  6
Continuous
100
AcDbLine
 10
214.1359699999999
 20
335.9855109999998
 30
0.0
 11
214.1359699999999
 21
325.9855109999999
 31
0.0
  0
LINE
  5
C0AD
330
BF3F
100
AcDbEntity
  8
1
  6
Continuous
100
AcDbLine
 10
211.83597
 20
324.8079109999999
 30
0.0
 11
209.6359699999999
 21
324.8079109999999
 31
0.0
  0
LINE
  5
C0AE
330
BF3F
100
AcDbEntity
  8
1
  6
Continuous
100
AcDbLine
 10
212.1359699999999
 20
323.7975109999998
 30
0.0
 11
210.0359699999999
 21
323.7975109999998
 31
0.0
  0
LINE
  5
C0AF
330
BF3F
100
AcDbEntity
  8
1
  6
Continuous
100
AcDbLine
 10
212.1359699999999
 20
321.243511
 30
0.0
 11
210.0359699999999
 21
321.243511
 31
0.0
  0
ARC
  5
C0B0
330
BF3F
100
AcDbEntity
  8
1
  6
Continuous
100
AcDbCircle
 10
208.63597
 20
320.485511
 30
0.0
 40
1.0
100
AcDbArc
 50
270.0
 51
0.0
  0
LINE
  5
C0B1
330
BF3F
100
AcDbEntity
  8
1
  6
Continuous
100
AcDbLine
 10
209.6359699999999
 20
324.8079109999999
 30
0.0
 11
209.6359699999999
 21
320.485511
 31
0.0
  0
LINE
  5
C0B2
330
BF3F
100
AcDbEntity
  8
1
  6
Continuous
100
AcDbLine
 10
210.0359699999999
 20
321.6553609999999
 30
0.0
 11
209.6359699999999
 21
321.6553609999999
 31
0.0
  0
LINE
  5
C0B3
330
BF3F
100
AcDbEntity
  8
1
  6
Continuous
100
AcDbLine
 10
210.0359699999999
 20
324.8079109999999
 30
0.0
 11
210.0359699999999
 21
321.243511
 31
0.0
  0
LINE
  5
C0B4
330
BF3F
100
AcDbEntity
  8
1
  6
Continuous
100
AcDbLine
 10
197.4359699999999
 20
327.9855109999999
 30
0.0
 11
196.93597
 21
327.4855109999998
 31
0.0
  0
LINE
  5
C0B5
330
BF3F
100
AcDbEntity
  8
1
  6
Continuous
100
AcDbLine
 10
214.1359699999999
 20
325.9855109999999
 30
0.0
 11
212.1359699999999
 21
325.9855109999999
 31
0.0
  0
LINE
  5
C0B6
330
BF3F
100
AcDbEntity
  8
1
  6
Continuous
100
AcDbLine
 10
211.83597
 20
337.163111
 30
0.0
 11
209.6359699999999
 21
337.163111
 31
0.0
  0
LINE
  5
C0B7
330
BF3F
100
AcDbEntity
  8
1
  6
Continuous
100
AcDbLine
 10
212.1359699999999
 20
342.2355109999998
 30
0.0
 11
210.0359699999999
 21
342.2355109999998
 31
0.0
  0
ARC
  5
C0B8
330
BF3F
100
AcDbEntity
  8
1
  6
Continuous
100
AcDbCircle
 10
208.63597
 20
341.4855109999999
 30
0.0
 40
1.0
100
AcDbArc
 50
0.0
 51
90.0
  0
LINE
  5
C0B9
330
BF3F
100
AcDbEntity
  8
1
  6
Continuous
100
AcDbLine
 10
210.0359699999999
 20
342.2355109999998
 30
0.0
 11
210.0359699999999
 21
337.163111
 31
0.0
  0
LINE
  5
C0BA
330
BF3F
100
AcDbEntity
  8
1
  6
Continuous
100
AcDbLine
 10
210.0359699999999
 20
340.3156609999999
 30
0.0
 11
209.6359699999999
 21
340.3156609999999
 31
0.0
  0
LINE
  5
C0BB
330
BF3F
100
AcDbEntity
  8
1
  6
Continuous
100
AcDbLine
 10
196.93597
 20
334.4855109999999
 30
0.0
 11
197.4359699999999
 21
333.9855109999998
 31
0.0
  0
LINE
  5
C0BC
330
BF3F
100
AcDbEntity
  8
1
  6
Continuous
100
AcDbLine
 10
209.6359699999999
 20
341.4855109999999
 30
0.0
 11
209.6359699999999
 21
337.163111
 31
0.0
  0
LINE
  5
C0BD
330
BF3F
100
AcDbEntity
  8
1
  6
Continuous
100
AcDbLine
 10
214.1359699999999
 20
335.9855109999998
 30
0.0
 11
212.1359699999999
 21
335.9855109999998
 31
0.0
  0
LINE
  5
C0BE
330
BF3F
100
AcDbEntity
  8
1
  6
Continuous
100
AcDbLine
 10
214.1359699999999
 20
331.6423649999999
 30
0.0
 11
212.1359699999999
 21
331.6423649999999
 31
0.0
  0
LINE
  5
C0BF
330
BF3F
100
AcDbEntity
  8
1
  6
Continuous
100
AcDbLine
 10
214.1359699999999
 20
330.3286569999999
 30
0.0
 11
212.1359699999999
 21
330.3286569999999
 31
0.0
  0
LINE
  5
C0C0
330
BF3F
100
AcDbEntity
  8
1
  6
Continuous
100
AcDbLine
 10
378.1903119999999
 20
220.9855059999999
 30
0.0
 11
378.1903119999999
 21
164.9855059999999
 31
0.0
  0
LINE
  5
C0C1
330
BF3F
100
AcDbEntity
  8
1
  6
Continuous
100
AcDbLine
 10
355.1903119999999
 20
220.9855059999999
 30
0.0
 11
355.1903119999999
 21
164.9855059999999
 31
0.0
  0
LINE
  5
C0C2
330
BF3F
100
AcDbEntity
  8
1
  6
Continuous
100
AcDbLine
 10
380.690312
 20
230.9855059999999
 30
0.0
 11
380.690312
 21
154.9855059999999
 31
0.0
  0
LINE
  5
C0C3
330
BF3F
100
AcDbEntity
  8
1
  6
Continuous
100
AcDbLine
 10
352.690312
 20
230.9855059999999
 30
0.0
 11
352.690312
 21
154.9855059999999
 31
0.0
  0
LINE
  5
C0C4
330
BF3F
100
AcDbEntity
  8
4
  6
CENTER
100
AcDbLine
 10
366.690312
 20
238.800559
 30
0.0
 11
366.690312
 21
145.7298909999998
 31
0.0
  0
LINE
  5
C0C5
330
BF3F
100
AcDbEntity
  8
4
  6
CENTER
100
AcDbLine
 10
305.175313
 20
54.98869499999999
 30
0.0
 11
291.220546
 21
54.98869499999999
 31
0.0
  0
ARC
  5
C0C6
330
BF3F
100
AcDbEntity
  8
1
  6
Continuous
100
AcDbCircle
 10
255.120148
 20
55.00003
 30
0.0
 40
12.0
100
AcDbArc
 50
344.506032
 51
15.493968
  0
LINE
  5
C0C7
330
BF3F
100
AcDbEntity
  8
1
  6
Continuous
100
AcDbLine
 10
261.7201479999998
 20
61.00003
 30
0.0
 11
261.7201479999998
 21
49.00002999999998
 31
0.0
  0
LINE
  5
C0C8
330
BF3F
100
AcDbEntity
  8
1
  6
Continuous
100
AcDbLine
 10
262.520148
 20
61.00003
 30
0.0
 11
262.520148
 21
49.00002999999998
 31
0.0
  0
LINE
  5
C0C9
330
BF3F
100
AcDbEntity
  8
1
  6
Continuous
100
AcDbLine
 10
262.520148
 20
49.00002999999998
 30
0.0
 11
261.7201479999998
 21
49.00002999999998
 31
0.0
  0
LINE
  5
C0CA
330
BF3F
100
AcDbEntity
  8
1
  6
Continuous
100
AcDbLine
 10
263.820148
 20
50.50003
 30
0.0
 11
265.281647
 21
50.627895
 31
0.0
  0
LINE
  5
C0CB
330
BF3F
100
AcDbEntity
  8
1
  6
Continuous
100
AcDbLine
 10
263.820148
 20
59.50003
 30
0.0
 11
265.281647
 21
59.372166
 31
0.0
  0
LINE
  5
C0CC
330
BF3F
100
AcDbEntity
  8
1
  6
Continuous
100
AcDbLine
 10
263.820148
 20
55.00003
 30
0.0
 11
262.520148
 21
53.70003
 31
0.0
  0
LINE
  5
C0CD
330
BF3F
100
AcDbEntity
  8
1
  6
Continuous
100
AcDbLine
 10
262.520148
 20
55.00003
 30
0.0
 11
263.820148
 21
56.30003000000001
 31
0.0
  0
LINE
  5
C0CE
330
BF3F
100
AcDbEntity
  8
1
  6
Continuous
100
AcDbLine
 10
263.820148
 20
59.60003
 30
0.0
 11
263.820148
 21
50.40003
 31
0.0
  0
LINE
  5
C0CF
330
BF3F
100
AcDbEntity
  8
1
  6
Continuous
100
AcDbLine
 10
263.820148
 20
50.40003
 30
0.0
 11
262.520148
 21
50.40003
 31
0.0
  0
LINE
  5
C0D0
330
BF3F
100
AcDbEntity
  8
1
  6
Continuous
100
AcDbLine
 10
263.820148
 20
59.60003
 30
0.0
 11
262.520148
 21
59.60003
 31
0.0
  0
LINE
  5
C0D1
330
BF3F
100
AcDbEntity
  8
1
  6
Continuous
100
AcDbLine
 10
262.520148
 20
61.00003
 30
0.0
 11
261.7201479999998
 21
61.00003
 31
0.0
  0
ARC
  5
C0D2
330
BF3F
100
AcDbEntity
  8
1
  6
Continuous
100
AcDbCircle
 10
265.142197
 20
52.221806
 30
0.0
 40
1.6
100
AcDbArc
 50
275.0
 51
344.506032
  0
ARC
  5
C0D3
330
BF3F
100
AcDbEntity
  8
1
  6
Continuous
100
AcDbCircle
 10
265.142197
 20
57.77825400000001
 30
0.0
 40
1.6
100
AcDbArc
 50
15.493968
 51
85.0
  0
LINE
  5
C0D4
330
BF3F
100
AcDbEntity
  8
1
  6
Continuous
100
AcDbLine
 10
299.0346589999999
 20
61.98869499999999
 30
0.0
 11
299.0346589999999
 21
47.988695
 31
0.0
  0
ARC
  5
C0D5
330
BF3F
100
AcDbEntity
  8
1
  6
Continuous
100
AcDbCircle
 10
301.0407709999999
 20
52.88168399999999
 30
0.0
 40
1.3
100
AcDbArc
 50
275.0
 51
344.1191499999998
  0
ARC
  5
C0D6
330
BF3F
100
AcDbEntity
  8
1
  6
Continuous
100
AcDbCircle
 10
301.0407709999999
 20
57.09570600000001
 30
0.0
 40
1.3
100
AcDbArc
 50
15.88085
 51
85.0
  0
LINE
  5
C0D7
330
BF3F
100
AcDbEntity
  8
1
  6
Continuous
100
AcDbLine
 10
300.0346589999999
 20
51.48869499999999
 30
0.0
 11
301.154074
 21
51.586631
 31
0.0
  0
LINE
  5
C0D8
330
BF3F
100
AcDbEntity
  8
1
  6
Continuous
100
AcDbLine
 10
300.0346589999999
 20
58.48869499999999
 30
0.0
 11
301.154074
 21
58.390759
 31
0.0
  0
LINE
  5
C0D9
330
BF3F
100
AcDbEntity
  8
1
  6
Continuous
100
AcDbLine
 10
300.0346589999999
 20
58.788695
 30
0.0
 11
299.0346589999999
 21
58.788695
 31
0.0
  0
LINE
  5
C0DA
330
BF3F
100
AcDbEntity
  8
1
  6
Continuous
100
AcDbLine
 10
299.0346589999999
 20
54.98869499999999
 30
0.0
 11
300.0346589999999
 21
55.98869499999999
 31
0.0
  0
LINE
  5
C0DB
330
BF3F
100
AcDbEntity
  8
1
  6
Continuous
100
AcDbLine
 10
300.0346589999999
 20
54.98869499999999
 30
0.0
 11
299.0346589999999
 21
53.98869499999999
 31
0.0
  0
LINE
  5
C0DC
330
BF3F
100
AcDbEntity
  8
1
  6
Continuous
100
AcDbLine
 10
300.0346589999999
 20
51.188695
 30
0.0
 11
299.0346589999999
 21
51.188695
 31
0.0
  0
LINE
  5
C0DD
330
BF3F
100
AcDbEntity
  8
1
  6
Continuous
100
AcDbLine
 10
300.0346589999999
 20
58.788695
 30
0.0
 11
300.0346589999999
 21
51.188695
 31
0.0
  0
ARC
  5
C0DE
330
BF3F
100
AcDbEntity
  8
1
  6
Continuous
100
AcDbCircle
 10
293.6346589999999
 20
54.98869499999999
 30
0.0
 40
9.0
100
AcDbArc
 50
344.1191499999998
 51
15.88085
  0
LINE
  5
C0DF
330
BF3F
100
AcDbEntity
  8
1
  6
Continuous
100
AcDbLine
 10
294.0346589999998
 20
61.98869499999999
 30
0.0
 11
294.0346589999998
 21
47.988695
 31
0.0
  0
LINE
  5
C0E0
330
BF3F
100
AcDbEntity
  8
1
  6
Continuous
100
AcDbLine
 10
299.0346589999999
 20
47.988695
 30
0.0
 11
294.0346589999998
 21
47.988695
 31
0.0
  0
LINE
  5
C0E1
330
BF3F
100
AcDbEntity
  8
1
  6
Continuous
100
AcDbLine
 10
299.0346589999999
 20
61.98869499999999
 30
0.0
 11
294.0346589999998
 21
61.98869499999999
 31
0.0
  0
LINE
  5
C0E2
330
BF3F
100
AcDbEntity
  8
4
  6
CENTER
100
AcDbLine
 10
305.175313
 20
156.985484
 30
0.0
 11
291.220546
 21
156.985484
 31
0.0
  0
LINE
  5
C0E3
330
BF3F
100
AcDbEntity
  8
1
  6
Continuous
100
AcDbLine
 10
300.0346589999999
 20
153.185484
 30
0.0
 11
300.0346589999999
 21
160.7854839999999
 31
0.0
  0
LINE
  5
C0E4
330
BF3F
100
AcDbEntity
  8
1
  6
Continuous
100
AcDbLine
 10
299.0346589999999
 20
161.485484
 30
0.0
 11
299.0346589999999
 21
151.485484
 31
0.0
  0
LINE
  5
C0E5
330
BF3F
100
AcDbEntity
  8
1
  6
Continuous
100
AcDbLine
 10
299.0346589999999
 20
153.185484
 30
0.0
 11
299.0346589999999
 21
160.7854839999999
 31
0.0
  0
ARC
  5
C0E6
330
BF3F
100
AcDbEntity
  8
1
  6
Continuous
100
AcDbCircle
 10
301.0407709999999
 20
154.8784729999999
 30
0.0
 40
1.3
100
AcDbArc
 50
275.0
 51
344.1191499999998
  0
LINE
  5
C0E7
330
BF3F
100
AcDbEntity
  8
1
  6
Continuous
100
AcDbLine
 10
294.0346589999998
 20
161.985484
 30
0.0
 11
294.0346589999998
 21
150.985484
 31
0.0
  0
ARC
  5
C0E8
330
BF3F
100
AcDbEntity
  8
1
  6
Continuous
100
AcDbCircle
 10
298.5346589999998
 20
151.485484
 30
0.0
 40
0.5
100
AcDbArc
 50
270.0
 51
0.0
  0
LINE
  5
C0E9
330
BF3F
100
AcDbEntity
  8
1
  6
Continuous
100
AcDbLine
 10
300.0346589999999
 20
153.185484
 30
0.0
 11
299.0346589999999
 21
153.185484
 31
0.0
  0
LINE
  5
C0EA
330
BF3F
100
AcDbEntity
  8
1
  6
Continuous
100
AcDbLine
 10
300.0346589999999
 20
153.485484
 30
0.0
 11
301.154074
 21
153.58342
 31
0.0
  0
LINE
  5
C0EB
330
BF3F
100
AcDbEntity
  8
1
  6
Continuous
100
AcDbLine
 10
294.0346589999998
 20
150.985484
 30
0.0
 11
298.5346589999998
 21
150.985484
 31
0.0
  0
ARC
  5
C0EC
330
BF3F
100
AcDbEntity
  8
1
  6
Continuous
100
AcDbCircle
 10
298.5346589999998
 20
161.485484
 30
0.0
 40
0.5
100
AcDbArc
 50
0.0
 51
90.0
  0
LINE
  5
C0ED
330
BF3F
100
AcDbEntity
  8
1
  6
Continuous
100
AcDbLine
 10
300.0346589999999
 20
160.7854839999999
 30
0.0
 11
299.0346589999999
 21
160.7854839999999
 31
0.0
  0
LINE
  5
C0EE
330
BF3F
100
AcDbEntity
  8
1
  6
Continuous
100
AcDbLine
 10
300.0346589999999
 20
156.985484
 30
0.0
 11
299.0346589999999
 21
155.985484
 31
0.0
  0
LINE
  5
C0EF
330
BF3F
100
AcDbEntity
  8
1
  6
Continuous
100
AcDbLine
 10
299.0346589999999
 20
156.985484
 30
0.0
 11
300.0346589999999
 21
157.985484
 31
0.0
  0
ARC
  5
C0F0
330
BF3F
100
AcDbEntity
  8
1
  6
Continuous
100
AcDbCircle
 10
301.0407709999999
 20
159.0924949999999
 30
0.0
 40
1.3
100
AcDbArc
 50
15.88085
 51
85.0
  0
LINE
  5
C0F1
330
BF3F
100
AcDbEntity
  8
1
  6
Continuous
100
AcDbLine
 10
300.0346589999999
 20
160.485484
 30
0.0
 11
301.154074
 21
160.387548
 31
0.0
  0
ARC
  5
C0F2
330
BF3F
100
AcDbEntity
  8
1
  6
Continuous
100
AcDbCircle
 10
293.6346589999999
 20
156.985484
 30
0.0
 40
9.0
100
AcDbArc
 50
344.1191499999998
 51
15.88085
  0
LINE
  5
C0F3
330
BF3F
100
AcDbEntity
  8
1
  6
Continuous
100
AcDbLine
 10
294.0346589999998
 20
161.985484
 30
0.0
 11
298.5346589999998
 21
161.985484
 31
0.0
  0
ARC
  5
C0F4
330
BF3F
100
AcDbEntity
  8
1
  6
Continuous
100
AcDbCircle
 10
357.690312
 20
164.9855059999999
 30
0.0
 40
2.5
100
AcDbArc
 50
180.0
 51
270.0
  0
ARC
  5
C0F5
330
BF3F
100
AcDbEntity
  8
1
  6
Continuous
100
AcDbCircle
 10
357.690312
 20
154.9855059999999
 30
0.0
 40
5.0
100
AcDbArc
 50
180.0
 51
270.0
  0
ARC
  5
C0F6
330
BF3F
100
AcDbEntity
  8
1
  6
Continuous
100
AcDbCircle
 10
368.277422
 20
156.9855059999999
 30
0.0
 40
5.412889999999999
100
AcDbArc
 50
310.601295
 51
49.39870500000001
  0
ARC
  5
C0F7
330
BF3F
100
AcDbEntity
  8
1
  6
Continuous
100
AcDbCircle
 10
365.103202
 20
156.9855059999999
 30
0.0
 40
5.412889999999999
100
AcDbArc
 50
112.5237199999998
 51
229.3987049999998
  0
CIRCLE
  5
C0F8
330
BF3F
100
AcDbEntity
  8
1
  6
Continuous
100
AcDbCircle
 10
366.690312
 20
156.9855059999999
 30
0.0
 40
3.5
  0
CIRCLE
  5
C0F9
330
BF3F
100
AcDbEntity
  8
1
  6
Continuous
100
AcDbCircle
 10
366.690312
 20
156.9855059999999
 30
0.0
 40
3.799999999999998
  0
ARC
  5
C0FA
330
BF3F
100
AcDbEntity
  8
1
  6
Continuous
100
AcDbCircle
 10
375.690312
 20
154.9855059999999
 30
0.0
 40
5.0
100
AcDbArc
 50
270.0
 51
0.0
  0
CIRCLE
  5
C0FB
330
BF3F
100
AcDbEntity
  8
1
  6
Continuous
100
AcDbCircle
 10
366.690312
 20
156.9855059999999
 30
0.0
 40
3.5
  0
ARC
  5
C0FC
330
BF3F
100
AcDbEntity
  8
1
  6
Continuous
100
AcDbCircle
 10
366.690312
 20
158.8371339999999
 30
0.0
 40
7.851628999999997
100
AcDbArc
 50
229.3987049999998
 51
310.601295
  0
LINE
  5
C0FD
330
BF3F
100
AcDbEntity
  8
1
  6
Continuous
100
AcDbLine
 10
375.690312
 20
149.9855059999999
 30
0.0
 11
357.690312
 21
149.9855059999999
 31
0.0
  0
ARC
  5
C0FE
330
BF3F
100
AcDbEntity
  8
1
  6
Continuous
100
AcDbCircle
 10
366.690312
 20
155.133877
 30
0.0
 40
7.851628999999997
100
AcDbArc
 50
49.39870500000001
 51
60.766642
  0
LINE
  5
C0FF
330
BF3F
100
AcDbEntity
  8
1
  6
Continuous
100
AcDbLine
 10
375.690312
 20
166.581793
 30
0.0
 11
357.690312
 21
166.581793
 31
0.0
  0
LINE
  5
C100
330
BF3F
100
AcDbEntity
  8
1
  6
Continuous
100
AcDbLine
 10
375.690312
 20
162.4855059999999
 30
0.0
 11
357.690312
 21
162.4855059999999
 31
0.0
  0
LINE
  5
C101
330
BF3F
100
AcDbEntity
  8
4
  6
CENTER
100
AcDbLine
 10
356.2747639999998
 20
156.9855059999999
 30
0.0
 11
377.5578669999999
 21
156.9855059999999
 31
0.0
  0
LINE
  5
C102
330
BF3F
100
AcDbEntity
  8
1
  6
Continuous
100
AcDbLine
 10
367.640098
 20
156.9855059999999
 30
0.0
 11
367.8313699999998
 21
156.460055
 31
0.0
  0
LINE
  5
C103
330
BF3F
100
AcDbEntity
  8
1
  6
Continuous
100
AcDbLine
 10
367.8313699999998
 20
156.460055
 30
0.0
 11
368.4422399999998
 21
155.827548
 31
0.0
  0
LINE
  5
C104
330
BF3F
100
AcDbEntity
  8
1
  6
Continuous
100
AcDbLine
 10
367.2156929999999
 20
155.844377
 30
0.0
 11
367.8482699999999
 21
155.2335779999999
 31
0.0
  0
LINE
  5
C105
330
BF3F
100
AcDbEntity
  8
1
  6
Continuous
100
AcDbLine
 10
366.690312
 20
156.03572
 30
0.0
 11
367.2156929999999
 21
155.844377
 31
0.0
  0
LINE
  5
C106
330
BF3F
100
AcDbEntity
  8
1
  6
Continuous
100
AcDbLine
 10
365.7405259999999
 20
156.9855059999999
 30
0.0
 11
365.549254
 21
156.460055
 31
0.0
  0
LINE
  5
C107
330
BF3F
100
AcDbEntity
  8
1
  6
Continuous
100
AcDbLine
 10
365.549325
 20
156.460125
 30
0.0
 11
364.938384
 21
155.827548
 31
0.0
  0
LINE
  5
C108
330
BF3F
100
AcDbEntity
  8
1
  6
Continuous
100
AcDbLine
 10
366.1649319999999
 20
155.844377
 30
0.0
 11
365.5323539999998
 21
155.2335779999999
 31
0.0
  0
LINE
  5
C109
330
BF3F
100
AcDbEntity
  8
1
  6
Continuous
100
AcDbLine
 10
366.690312
 20
156.03572
 30
0.0
 11
366.1650029999998
 21
155.8444469999998
 31
0.0
  0
LINE
  5
C10A
330
BF3F
100
AcDbEntity
  8
1
  6
Continuous
100
AcDbLine
 10
366.690312
 20
157.935292
 30
0.0
 11
366.1649319999999
 21
158.1264929999998
 31
0.0
  0
LINE
  5
C10B
330
BF3F
100
AcDbEntity
  8
1
  6
Continuous
100
AcDbLine
 10
366.1649319999999
 20
158.1264929999998
 30
0.0
 11
365.5323539999998
 21
158.737433
 31
0.0
  0
LINE
  5
C10C
330
BF3F
100
AcDbEntity
  8
1
  6
Continuous
100
AcDbLine
 10
365.549254
 20
157.5108149999998
 30
0.0
 11
364.938384
 21
158.1434639999999
 31
0.0
  0
LINE
  5
C10D
330
BF3F
100
AcDbEntity
  8
1
  6
Continuous
100
AcDbLine
 10
365.7405259999999
 20
156.9855059999999
 30
0.0
 11
365.549254
 21
157.5108149999998
 31
0.0
  0
LINE
  5
C10E
330
BF3F
100
AcDbEntity
  8
1
  6
Continuous
100
AcDbLine
 10
367.640098
 20
156.9855059999999
 30
0.0
 11
367.8313699999998
 21
157.5108149999998
 31
0.0
  0
LINE
  5
C10F
330
BF3F
100
AcDbEntity
  8
1
  6
Continuous
100
AcDbLine
 10
367.8313699999998
 20
157.5108149999998
 30
0.0
 11
368.4422399999998
 21
158.1434639999999
 31
0.0
  0
LINE
  5
C110
330
BF3F
100
AcDbEntity
  8
1
  6
Continuous
100
AcDbLine
 10
367.2156929999999
 20
158.1264929999998
 30
0.0
 11
367.8482699999999
 21
158.737433
 31
0.0
  0
LINE
  5
C111
330
BF3F
100
AcDbEntity
  8
1
  6
Continuous
100
AcDbLine
 10
366.690312
 20
157.935292
 30
0.0
 11
367.2156929999999
 21
158.1264929999998
 31
0.0
  0
ARC
  5
C112
330
BF3F
100
AcDbEntity
  8
1
  6
Continuous
100
AcDbCircle
 10
366.690312
 20
156.9855059999999
 30
0.0
 40
2.1
100
AcDbArc
 50
303.4629999999999
 51
326.5369999999998
  0
ARC
  5
C113
330
BF3F
100
AcDbEntity
  8
1
  6
Continuous
100
AcDbCircle
 10
366.690312
 20
156.9855059999999
 30
0.0
 40
2.1
100
AcDbArc
 50
213.463
 51
236.5369999999999
  0
ARC
  5
C114
330
BF3F
100
AcDbEntity
  8
1
  6
Continuous
100
AcDbCircle
 10
366.690312
 20
156.9855059999999
 30
0.0
 40
2.1
100
AcDbArc
 50
123.4629999999998
 51
146.537
  0
ARC
  5
C115
330
BF3F
100
AcDbEntity
  8
1
  6
Continuous
100
AcDbCircle
 10
366.690312
 20
156.9855059999999
 30
0.0
 40
2.1
100
AcDbArc
 50
33.463
 51
56.537
  0
LINE
  5
C116
330
BF3F
100
AcDbEntity
  8
1
  6
Continuous
100
AcDbLine
 10
363.029708
 20
161.9855059999999
 30
0.0
 11
370.5247949999999
 21
161.9855059999999
 31
0.0
  0
ARC
  5
C117
330
BF3F
100
AcDbEntity
  8
1
  6
Continuous
100
AcDbCircle
 10
375.690312
 20
164.9855059999999
 30
0.0
 40
2.5
100
AcDbArc
 50
270.0
 51
0.0
  0
LINE
  5
C118
330
BF3F
100
AcDbEntity
  8
1
  6
Continuous
100
AcDbLine
 10
465.9635419999998
 20
161.985484
 30
0.0
 11
465.9635419999998
 21
150.985484
 31
0.0
  0
LINE
  5
C119
330
BF3F
100
AcDbEntity
  8
1
  6
Continuous
100
AcDbLine
 10
460.963542
 20
161.485484
 30
0.0
 11
460.963542
 21
151.485484
 31
0.0
  0
LINE
  5
C11A
330
BF3F
100
AcDbEntity
  8
1
  6
Continuous
100
AcDbLine
 10
460.963542
 20
153.185484
 30
0.0
 11
460.963542
 21
160.7854839999999
 31
0.0
  0
ARC
  5
C11B
330
BF3F
100
AcDbEntity
  8
1
  6
Continuous
100
AcDbCircle
 10
458.9574299999998
 20
154.8784729999999
 30
0.0
 40
1.3
100
AcDbArc
 50
195.88085
 51
265.0
  0
LINE
  5
C11C
330
BF3F
100
AcDbEntity
  8
1
  6
Continuous
100
AcDbLine
 10
459.963542
 20
153.185484
 30
0.0
 11
459.963542
 21
160.7854839999999
 31
0.0
  0
LINE
  5
C11D
330
BF3F
100
AcDbEntity
  8
1
  6
Continuous
100
AcDbLine
 10
459.963542
 20
153.185484
 30
0.0
 11
460.963542
 21
153.185484
 31
0.0
  0
LINE
  5
C11E
330
BF3F
100
AcDbEntity
  8
1
  6
Continuous
100
AcDbLine
 10
465.9635419999998
 20
150.985484
 30
0.0
 11
461.4635419999998
 21
150.985484
 31
0.0
  0
ARC
  5
C11F
330
BF3F
100
AcDbEntity
  8
1
  6
Continuous
100
AcDbCircle
 10
461.4635419999998
 20
151.485484
 30
0.0
 40
0.5
100
AcDbArc
 50
180.0
 51
270.0
  0
LINE
  5
C120
330
BF3F
100
AcDbEntity
  8
1
  6
Continuous
100
AcDbLine
 10
459.963542
 20
153.485484
 30
0.0
 11
458.8441269999998
 21
153.58342
 31
0.0
  0
LINE
  5
C121
330
BF3F
100
AcDbEntity
  8
4
  6
CENTER
100
AcDbLine
 10
454.8228879999999
 20
156.985484
 30
0.0
 11
468.7776549999998
 21
156.985484
 31
0.0
  0
LINE
  5
C122
330
BF3F
100
AcDbEntity
  8
1
  6
Continuous
100
AcDbLine
 10
459.963542
 20
160.7854839999999
 30
0.0
 11
460.963542
 21
160.7854839999999
 31
0.0
  0
LINE
  5
C123
330
BF3F
100
AcDbEntity
  8
1
  6
Continuous
100
AcDbLine
 10
459.963542
 20
156.985484
 30
0.0
 11
460.963542
 21
157.985484
 31
0.0
  0
LINE
  5
C124
330
BF3F
100
AcDbEntity
  8
1
  6
Continuous
100
AcDbLine
 10
460.963542
 20
156.985484
 30
0.0
 11
459.963542
 21
155.985484
 31
0.0
  0
LINE
  5
C125
330
BF3F
100
AcDbEntity
  8
1
  6
Continuous
100
AcDbLine
 10
465.9635419999998
 20
161.985484
 30
0.0
 11
461.4635419999998
 21
161.985484
 31
0.0
  0
ARC
  5
C126
330
BF3F
100
AcDbEntity
  8
1
  6
Continuous
100
AcDbCircle
 10
461.4635419999998
 20
161.485484
 30
0.0
 40
0.5
100
AcDbArc
 50
90.0
 51
180.0
  0
ARC
  5
C127
330
BF3F
100
AcDbEntity
  8
1
  6
Continuous
100
AcDbCircle
 10
458.9574299999998
 20
159.0924949999999
 30
0.0
 40
1.3
100
AcDbArc
 50
95.0
 51
164.1191499999998
  0
ARC
  5
C128
330
BF3F
100
AcDbEntity
  8
1
  6
Continuous
100
AcDbCircle
 10
466.363542
 20
156.985484
 30
0.0
 40
9.0
100
AcDbArc
 50
164.1191499999998
 51
195.88085
  0
LINE
  5
C129
330
BF3F
100
AcDbEntity
  8
1
  6
Continuous
100
AcDbLine
 10
459.963542
 20
160.485484
 30
0.0
 11
458.8441269999998
 21
160.387548
 31
0.0
  0
ARC
  5
C12A
330
BF3F
100
AcDbEntity
  8
1
  6
Continuous
100
AcDbCircle
 10
255.120148
 20
210.985506
 30
0.0
 40
12.0
100
AcDbArc
 50
344.506032
 51
15.493968
  0
LINE
  5
C12B
330
BF3F
100
AcDbEntity
  8
1
  6
Continuous
100
AcDbLine
 10
261.7201479999998
 20
216.9855059999999
 30
0.0
 11
261.7201479999998
 21
204.985506
 31
0.0
  0
LINE
  5
C12C
330
BF3F
100
AcDbEntity
  8
1
  6
Continuous
100
AcDbLine
 10
263.820148
 20
215.5855059999999
 30
0.0
 11
263.820148
 21
206.3855059999999
 31
0.0
  0
LINE
  5
C12D
330
BF3F
100
AcDbEntity
  8
1
  6
Continuous
100
AcDbLine
 10
262.520148
 20
216.9855059999999
 30
0.0
 11
262.520148
 21
204.985506
 31
0.0
  0
LINE
  5
C12E
330
BF3F
100
AcDbEntity
  8
1
  6
Continuous
100
AcDbLine
 10
263.820148
 20
206.3855059999999
 30
0.0
 11
262.520148
 21
206.3855059999999
 31
0.0
  0
LINE
  5
C12F
330
BF3F
100
AcDbEntity
  8
1
  6
Continuous
100
AcDbLine
 10
262.520148
 20
204.985506
 30
0.0
 11
261.7201479999998
 21
204.985506
 31
0.0
  0
LINE
  5
C130
330
BF3F
100
AcDbEntity
  8
1
  6
Continuous
100
AcDbLine
 10
263.820148
 20
206.4855059999999
 30
0.0
 11
265.281647
 21
206.6133709999999
 31
0.0
  0
LINE
  5
C131
330
BF3F
100
AcDbEntity
  8
1
  6
Continuous
100
AcDbLine
 10
263.820148
 20
215.5855059999999
 30
0.0
 11
262.520148
 21
215.5855059999999
 31
0.0
  0
LINE
  5
C132
330
BF3F
100
AcDbEntity
  8
1
  6
Continuous
100
AcDbLine
 10
262.520148
 20
216.9855059999999
 30
0.0
 11
261.7201479999998
 21
216.9855059999999
 31
0.0
  0
LINE
  5
C133
330
BF3F
100
AcDbEntity
  8
1
  6
Continuous
100
AcDbLine
 10
263.820148
 20
215.485506
 30
0.0
 11
265.281647
 21
215.3576419999999
 31
0.0
  0
LINE
  5
C134
330
BF3F
100
AcDbEntity
  8
1
  6
Continuous
100
AcDbLine
 10
263.820148
 20
210.985506
 30
0.0
 11
262.520148
 21
209.685506
 31
0.0
  0
LINE
  5
C135
330
BF3F
100
AcDbEntity
  8
1
  6
Continuous
100
AcDbLine
 10
263.820148
 20
212.285506
 30
0.0
 11
262.520148
 21
210.985506
 31
0.0
  0
ARC
  5
C136
330
BF3F
100
AcDbEntity
  8
1
  6
Continuous
100
AcDbCircle
 10
265.142197
 20
208.207282
 30
0.0
 40
1.6
100
AcDbArc
 50
275.0
 51
344.506032
  0
ARC
  5
C137
330
BF3F
100
AcDbEntity
  8
1
  6
Continuous
100
AcDbCircle
 10
265.142197
 20
213.7637299999999
 30
0.0
 40
1.6
100
AcDbArc
 50
15.493968
 51
85.0
  0
LINE
  5
C138
330
BF3F
100
AcDbEntity
  8
4
  6
CENTER
100
AcDbLine
 10
305.175313
 20
228.9854749999999
 30
0.0
 11
291.220546
 21
228.9854749999999
 31
0.0
  0
LINE
  5
C139
330
BF3F
100
AcDbEntity
  8
1
  6
Continuous
100
AcDbLine
 10
299.0346589999999
 20
224.485475
 30
0.0
 11
299.0346589999999
 21
234.485475
 31
0.0
  0
ARC
  5
C13A
330
BF3F
100
AcDbEntity
  8
1
  6
Continuous
100
AcDbCircle
 10
298.5346589999998
 20
224.485475
 30
0.0
 40
0.5
100
AcDbArc
 50
270.0
 51
0.0
  0
ARC
  5
C13B
330
BF3F
100
AcDbEntity
  8
1
  6
Continuous
100
AcDbCircle
 10
298.5346589999998
 20
234.485475
 30
0.0
 40
0.5
100
AcDbArc
 50
0.0
 51
90.0
  0
ARC
  5
C13C
330
BF3F
100
AcDbEntity
  8
1
  6
Continuous
100
AcDbCircle
 10
293.6346589999999
 20
228.9854749999999
 30
0.0
 40
9.0
100
AcDbArc
 50
344.1191499999998
 51
15.88085
  0
LINE
  5
C13D
330
BF3F
100
AcDbEntity
  8
1
  6
Continuous
100
AcDbLine
 10
300.0346589999999
 20
232.7854749999999
 30
0.0
 11
300.0346589999999
 21
225.185475
 31
0.0
  0
LINE
  5
C13E
330
BF3F
100
AcDbEntity
  8
1
  6
Continuous
100
AcDbLine
 10
299.0346589999999
 20
232.7854749999999
 30
0.0
 11
299.0346589999999
 21
225.185475
 31
0.0
  0
LINE
  5
C13F
330
BF3F
100
AcDbEntity
  8
1
  6
Continuous
100
AcDbLine
 10
300.0346589999999
 20
225.485475
 30
0.0
 11
301.154074
 21
225.5834109999999
 31
0.0
  0
ARC
  5
C140
330
BF3F
100
AcDbEntity
  8
1
  6
Continuous
100
AcDbCircle
 10
301.0407709999999
 20
226.878464
 30
0.0
 40
1.3
100
AcDbArc
 50
275.0
 51
344.1191499999998
  0
LINE
  5
C141
330
BF3F
100
AcDbEntity
  8
1
  6
Continuous
100
AcDbLine
 10
300.0346589999999
 20
225.185475
 30
0.0
 11
299.0346589999999
 21
225.185475
 31
0.0
  0
LINE
  5
C142
330
BF3F
100
AcDbEntity
  8
1
  6
Continuous
100
AcDbLine
 10
300.0346589999999
 20
232.485475
 30
0.0
 11
301.154074
 21
232.3875389999999
 31
0.0
  0
ARC
  5
C143
330
BF3F
100
AcDbEntity
  8
1
  6
Continuous
100
AcDbCircle
 10
301.0407709999999
 20
231.0924859999999
 30
0.0
 40
1.3
100
AcDbArc
 50
15.88085
 51
85.0
  0
LINE
  5
C144
330
BF3F
100
AcDbEntity
  8
1
  6
Continuous
100
AcDbLine
 10
300.0346589999999
 20
232.7854749999999
 30
0.0
 11
299.0346589999999
 21
232.7854749999999
 31
0.0
  0
LINE
  5
C145
330
BF3F
100
AcDbEntity
  8
1
  6
Continuous
100
AcDbLine
 10
299.0346589999999
 20
228.9854749999999
 30
0.0
 11
300.0346589999999
 21
229.985475
 31
0.0
  0
LINE
  5
C146
330
BF3F
100
AcDbEntity
  8
1
  6
Continuous
100
AcDbLine
 10
300.0346589999999
 20
228.9854749999999
 30
0.0
 11
299.0346589999999
 21
227.985475
 31
0.0
  0
LINE
  5
C147
330
BF3F
100
AcDbEntity
  8
1
  6
Continuous
100
AcDbLine
 10
294.0346589999998
 20
223.985475
 30
0.0
 11
294.0346589999998
 21
234.9854749999999
 31
0.0
  0
LINE
  5
C148
330
BF3F
100
AcDbEntity
  8
1
  6
Continuous
100
AcDbLine
 10
294.0346589999998
 20
223.985475
 30
0.0
 11
298.5346589999998
 21
223.985475
 31
0.0
  0
LINE
  5
C149
330
BF3F
100
AcDbEntity
  8
1
  6
Continuous
100
AcDbLine
 10
294.0346589999998
 20
234.9854749999999
 30
0.0
 11
298.5346589999998
 21
234.9854749999999
 31
0.0
  0
ARC
  5
C14A
330
BF3F
100
AcDbEntity
  8
1
  6
Continuous
100
AcDbCircle
 10
366.690312
 20
210.985506
 30
0.0
 40
8.3
100
AcDbArc
 50
60.0
 51
210.0
  0
LINE
  5
C14B
330
BF3F
100
AcDbEntity
  8
1
  6
Continuous
100
AcDbLine
 10
362.2428409999998
 20
218.6887519999999
 30
0.0
 11
360.512737
 21
221.6853799999999
 31
0.0
  0
ARC
  5
C14C
330
BF3F
100
AcDbEntity
  8
1
  6
Continuous
100
AcDbCircle
 10
366.690312
 20
210.985506
 30
0.0
 40
10.0
100
AcDbArc
 50
119.9999999999999
 51
210.0
  0
ARC
  5
C14D
330
BF3F
100
AcDbEntity
  8
1
  6
Continuous
100
AcDbCircle
 10
366.690312
 20
210.985506
 30
0.0
 40
11.25
100
AcDbArc
 50
210.0
 51
60.0
  0
LINE
  5
C14E
330
BF3F
100
AcDbEntity
  8
1
  6
Continuous
100
AcDbLine
 10
371.137784
 20
218.6887519999999
 30
0.0
 11
372.8678879999998
 21
221.6853799999999
 31
0.0
  0
ARC
  5
C14F
330
BF3F
100
AcDbEntity
  8
1
  6
Continuous
100
AcDbCircle
 10
366.690312
 20
211.9855059999999
 30
0.0
 40
11.5
100
AcDbArc
 50
0.0
 51
180.0
  0
ARC
  5
C150
330
BF3F
100
AcDbEntity
  8
1
  6
Continuous
100
AcDbCircle
 10
356.190312
 20
197.0350439999999
 30
0.0
 40
1.0
100
AcDbArc
 50
180.0
 51
270.0
  0
ARC
  5
C151
330
BF3F
100
AcDbEntity
  8
1
  6
Continuous
100
AcDbCircle
 10
357.690312
 20
186.485506
 30
0.0
 40
2.5
100
AcDbArc
 50
90.0
 51
180.0
  0
ARC
  5
C152
330
BF3F
100
AcDbEntity
  8
1
  6
Continuous
100
AcDbCircle
 10
356.190312
 20
199.4855059999999
 30
0.0
 40
1.0
100
AcDbArc
 50
180.0
 51
270.0
  0
ARC
  5
C153
330
BF3F
100
AcDbEntity
  8
1
  6
Continuous
100
AcDbCircle
 10
366.690312
 20
209.9855059999999
 30
0.0
 40
11.5
100
AcDbArc
 50
180.0
 51
0.0
  0
LINE
  5
C154
330
BF3F
100
AcDbEntity
  8
4
  6
CENTER
100
AcDbLine
 10
382.7885609999999
 20
210.985506
 30
0.0
 11
352.0307199999999
 21
210.985506
 31
0.0
  0
LINE
  5
C155
330
BF3F
100
AcDbEntity
  8
1
  6
Continuous
100
AcDbLine
 10
375.690312
 20
188.985506
 30
0.0
 11
357.690312
 21
188.985506
 31
0.0
  0
LINE
  5
C156
330
BF3F
100
AcDbEntity
  8
1
  6
Continuous
100
AcDbLine
 10
377.190312
 20
196.035044
 30
0.0
 11
356.190312
 21
196.035044
 31
0.0
  0
ARC
  5
C157
330
BF3F
100
AcDbEntity
  8
1
  6
Continuous
100
AcDbCircle
 10
377.190312
 20
197.0350439999999
 30
0.0
 40
1.0
100
AcDbArc
 50
270.0
 51
0.0
  0
ARC
  5
C158
330
BF3F
100
AcDbEntity
  8
1
  6
Continuous
100
AcDbCircle
 10
375.690312
 20
186.485506
 30
0.0
 40
2.5
100
AcDbArc
 50
0.0
 51
90.0
  0
CIRCLE
  5
C159
330
BF3F
100
AcDbEntity
  8
1
  6
Continuous
100
AcDbCircle
 10
366.690312
 20
210.985506
 30
0.0
 40
6.0
  0
LINE
  5
C15A
330
BF3F
100
AcDbEntity
  8
1
  6
Continuous
100
AcDbLine
 10
377.190312
 20
198.4855059999999
 30
0.0
 11
356.190312
 21
198.4855059999999
 31
0.0
  0
CIRCLE
  5
C15B
330
BF3F
100
AcDbEntity
  8
1
  6
Continuous
100
AcDbCircle
 10
366.690312
 20
210.985506
 30
0.0
 40
4.5
  0
LINE
  5
C15C
330
BF3F
100
AcDbEntity
  8
1
  6
Continuous
100
AcDbLine
 10
367.7108089999999
 20
210.985506
 30
0.0
 11
367.9396279999999
 21
211.6139819999999
 31
0.0
  0
LINE
  5
C15D
330
BF3F
100
AcDbEntity
  8
1
  6
Continuous
100
AcDbLine
 10
367.9396279999999
 20
211.6139819999999
 30
0.0
 11
368.6941109999998
 21
212.3953349999999
 31
0.0
  0
LINE
  5
C15E
330
BF3F
100
AcDbEntity
  8
1
  6
Continuous
100
AcDbLine
 10
367.3188589999999
 20
212.2347509999999
 30
0.0
 11
368.100142
 21
212.9893049999998
 31
0.0
  0
LINE
  5
C15F
330
BF3F
100
AcDbEntity
  8
1
  6
Continuous
100
AcDbLine
 10
366.690312
 20
212.0060019999999
 30
0.0
 11
367.3188589999999
 21
212.2347509999999
 31
0.0
  0
LINE
  5
C160
330
BF3F
100
AcDbEntity
  8
1
  6
Continuous
100
AcDbLine
 10
366.0618359999999
 20
212.234822
 30
0.0
 11
365.280553
 21
212.989234
 31
0.0
  0
LINE
  5
C161
330
BF3F
100
AcDbEntity
  8
1
  6
Continuous
100
AcDbLine
 10
366.690312
 20
212.0060019999999
 30
0.0
 11
366.0618359999999
 21
212.234822
 31
0.0
  0
LINE
  5
C162
330
BF3F
100
AcDbEntity
  8
1
  6
Continuous
100
AcDbLine
 10
365.669816
 20
210.985506
 30
0.0
 11
365.4410669999998
 21
211.614053
 31
0.0
  0
LINE
  5
C163
330
BF3F
100
AcDbEntity
  8
1
  6
Continuous
100
AcDbLine
 10
365.441137
 20
211.6139819999999
 30
0.0
 11
364.6865839999999
 21
212.395264
 31
0.0
  0
LINE
  5
C164
330
BF3F
100
AcDbEntity
  8
1
  6
Continuous
100
AcDbLine
 10
365.441137
 20
210.3570289999999
 30
0.0
 11
364.6865839999999
 21
209.575747
 31
0.0
  0
LINE
  5
C165
330
BF3F
100
AcDbEntity
  8
1
  6
Continuous
100
AcDbLine
 10
365.669816
 20
210.985506
 30
0.0
 11
365.441137
 21
210.3570289999999
 31
0.0
  0
LINE
  5
C166
330
BF3F
100
AcDbEntity
  8
1
  6
Continuous
100
AcDbLine
 10
366.690312
 20
209.9650089999999
 30
0.0
 11
366.061906
 21
209.7362599999999
 31
0.0
  0
LINE
  5
C167
330
BF3F
100
AcDbEntity
  8
1
  6
Continuous
100
AcDbLine
 10
366.061906
 20
209.7362599999999
 30
0.0
 11
365.280553
 21
208.9817769999999
 31
0.0
  0
LINE
  5
C168
330
BF3F
100
AcDbEntity
  8
1
  6
Continuous
100
AcDbLine
 10
367.3188589999999
 20
209.7362599999999
 30
0.0
 11
368.100142
 21
208.981706
 31
0.0
  0
LINE
  5
C169
330
BF3F
100
AcDbEntity
  8
1
  6
Continuous
100
AcDbLine
 10
366.690312
 20
209.9650089999999
 30
0.0
 11
367.3188589999999
 21
209.7362599999999
 31
0.0
  0
LINE
  5
C16A
330
BF3F
100
AcDbEntity
  8
1
  6
Continuous
100
AcDbLine
 10
367.7108089999999
 20
210.985506
 30
0.0
 11
367.9396279999999
 21
210.3570289999999
 31
0.0
  0
LINE
  5
C16B
330
BF3F
100
AcDbEntity
  8
1
  6
Continuous
100
AcDbLine
 10
367.9396279999999
 20
210.3570289999999
 30
0.0
 11
368.6941109999998
 21
209.5756759999999
 31
0.0
  0
ARC
  5
C16C
330
BF3F
100
AcDbEntity
  8
1
  6
Continuous
100
AcDbCircle
 10
366.690312
 20
210.985506
 30
0.0
 40
2.45
100
AcDbArc
 50
35.129
 51
54.87089
  0
ARC
  5
C16D
330
BF3F
100
AcDbEntity
  8
1
  6
Continuous
100
AcDbCircle
 10
366.690312
 20
210.985506
 30
0.0
 40
2.45
100
AcDbArc
 50
125.1291
 51
144.8709
  0
ARC
  5
C16E
330
BF3F
100
AcDbEntity
  8
1
  6
Continuous
100
AcDbCircle
 10
366.690312
 20
210.985506
 30
0.0
 40
2.45
100
AcDbArc
 50
215.1289999999999
 51
234.871
  0
ARC
  5
C16F
330
BF3F
100
AcDbEntity
  8
1
  6
Continuous
100
AcDbCircle
 10
366.690312
 20
210.985506
 30
0.0
 40
2.45
100
AcDbArc
 50
305.129
 51
324.8709999999999
  0
CIRCLE
  5
C170
330
BF3F
100
AcDbEntity
  8
1
  6
Continuous
100
AcDbCircle
 10
366.690312
 20
210.985506
 30
0.0
 40
4.599999999999997
  0
LINE
  5
C171
330
BF3F
100
AcDbEntity
  8
1
  6
Continuous
100
AcDbLine
 10
370.8403119999999
 20
218.173517
 30
0.0
 11
371.137784
 21
218.6887519999999
 31
0.0
  0
ARC
  5
C172
330
BF3F
100
AcDbEntity
  8
1
  6
Continuous
100
AcDbCircle
 10
370.877976
 20
218.838752
 30
0.0
 40
0.3
100
AcDbArc
 50
241.931684
 51
330.0
  0
ARC
  5
C173
330
BF3F
100
AcDbEntity
  8
1
  6
Continuous
100
AcDbCircle
 10
362.502649
 20
218.838752
 30
0.0
 40
0.3
100
AcDbArc
 50
210.0
 51
298.0683159999998
  0
ARC
  5
C174
330
BF3F
100
AcDbEntity
  8
1
  6
Continuous
100
AcDbCircle
 10
366.690312
 20
210.985506
 30
0.0
 40
8.599999999999997
100
AcDbArc
 50
61.931684
 51
118.068316
  0
LINE
  5
C175
330
BF3F
100
AcDbEntity
  8
1
  6
Continuous
100
AcDbLine
 10
359.5023019999999
 20
206.835506
 30
0.0
 11
356.9475269999998
 21
205.3605059999999
 31
0.0
  0
ARC
  5
C176
330
BF3F
100
AcDbEntity
  8
1
  6
Continuous
100
AcDbCircle
 10
366.690312
 20
210.985506
 30
0.0
 40
9.5
100
AcDbArc
 50
119.9999999999999
 51
210.0
  0
ARC
  5
C177
330
BF3F
100
AcDbEntity
  8
1
  6
Continuous
100
AcDbCircle
 10
377.190312
 20
199.4855059999999
 30
0.0
 40
1.0
100
AcDbArc
 50
270.0
 51
0.0
  0
ARC
  5
C178
330
BF3F
100
AcDbEntity
  8
1
  6
Continuous
100
AcDbCircle
 10
357.690312
 20
220.9855059999999
 30
0.0
 40
2.5
100
AcDbArc
 50
90.0
 51
180.0
  0
ARC
  5
C179
330
BF3F
100
AcDbEntity
  8
1
  6
Continuous
100
AcDbCircle
 10
357.690312
 20
230.9855059999999
 30
0.0
 40
5.0
100
AcDbArc
 50
90.0
 51
180.0
  0
ARC
  5
C17A
330
BF3F
100
AcDbEntity
  8
1
  6
Continuous
100
AcDbCircle
 10
366.690312
 20
230.8371339999999
 30
0.0
 40
7.851628999999997
100
AcDbArc
 50
299.233358
 51
310.601295
  0
ARC
  5
C17B
330
BF3F
100
AcDbEntity
  8
1
  6
Continuous
100
AcDbCircle
 10
366.690312
 20
227.133877
 30
0.0
 40
7.851628999999997
100
AcDbArc
 50
49.39870500000001
 51
130.6012949999999
  0
LINE
  5
C17C
330
BF3F
100
AcDbEntity
  8
1
  6
Continuous
100
AcDbLine
 10
375.690312
 20
223.485506
 30
0.0
 11
357.690312
 21
223.485506
 31
0.0
  0
LINE
  5
C17D
330
BF3F
100
AcDbEntity
  8
1
  6
Continuous
100
AcDbLine
 10
375.690312
 20
235.985506
 30
0.0
 11
357.690312
 21
235.985506
 31
0.0
  0
LINE
  5
C17E
330
BF3F
100
AcDbEntity
  8
4
  6
CENTER
100
AcDbLine
 10
356.043427
 20
228.9855059999999
 30
0.0
 11
377.0951919999998
 21
228.9855059999999
 31
0.0
  0
CIRCLE
  5
C17F
330
BF3F
100
AcDbEntity
  8
1
  6
Continuous
100
AcDbCircle
 10
366.690312
 20
228.9855059999999
 30
0.0
 40
3.5
  0
CIRCLE
  5
C180
330
BF3F
100
AcDbEntity
  8
1
  6
Continuous
100
AcDbCircle
 10
366.690312
 20
228.9855059999999
 30
0.0
 40
3.799999999999998
  0
LINE
  5
C181
330
BF3F
100
AcDbEntity
  8
1
  6
Continuous
100
AcDbLine
 10
367.640098
 20
228.9855059999999
 30
0.0
 11
367.8313699999998
 21
229.510957
 31
0.0
  0
LINE
  5
C182
330
BF3F
100
AcDbEntity
  8
1
  6
Continuous
100
AcDbLine
 10
367.8313699999998
 20
229.510957
 30
0.0
 11
368.4422399999998
 21
230.143464
 31
0.0
  0
LINE
  5
C183
330
BF3F
100
AcDbEntity
  8
1
  6
Continuous
100
AcDbLine
 10
367.2156929999999
 20
230.126635
 30
0.0
 11
367.8482699999999
 21
230.737433
 31
0.0
  0
LINE
  5
C184
330
BF3F
100
AcDbEntity
  8
1
  6
Continuous
100
AcDbLine
 10
366.690312
 20
229.935292
 30
0.0
 11
367.2156929999999
 21
230.126635
 31
0.0
  0
LINE
  5
C185
330
BF3F
100
AcDbEntity
  8
1
  6
Continuous
100
AcDbLine
 10
365.7405259999999
 20
228.9855059999999
 30
0.0
 11
365.549254
 21
229.510957
 31
0.0
  0
LINE
  5
C186
330
BF3F
100
AcDbEntity
  8
1
  6
Continuous
100
AcDbLine
 10
365.549325
 20
229.510886
 30
0.0
 11
364.938384
 21
230.143464
 31
0.0
  0
LINE
  5
C187
330
BF3F
100
AcDbEntity
  8
1
  6
Continuous
100
AcDbLine
 10
366.1649319999999
 20
230.126635
 30
0.0
 11
365.5323539999998
 21
230.737433
 31
0.0
  0
LINE
  5
C188
330
BF3F
100
AcDbEntity
  8
1
  6
Continuous
100
AcDbLine
 10
366.690312
 20
229.935292
 30
0.0
 11
366.1650029999998
 21
230.126564
 31
0.0
  0
LINE
  5
C189
330
BF3F
100
AcDbEntity
  8
1
  6
Continuous
100
AcDbLine
 10
366.690312
 20
228.03572
 30
0.0
 11
366.1649319999999
 21
227.8445179999999
 31
0.0
  0
LINE
  5
C18A
330
BF3F
100
AcDbEntity
  8
1
  6
Continuous
100
AcDbLine
 10
366.1649319999999
 20
227.8445179999999
 30
0.0
 11
365.5323539999998
 21
227.2335779999999
 31
0.0
  0
LINE
  5
C18B
330
BF3F
100
AcDbEntity
  8
1
  6
Continuous
100
AcDbLine
 10
365.549254
 20
228.4601959999999
 30
0.0
 11
364.938384
 21
227.827548
 31
0.0
  0
LINE
  5
C18C
330
BF3F
100
AcDbEntity
  8
1
  6
Continuous
100
AcDbLine
 10
365.7405259999999
 20
228.9855059999999
 30
0.0
 11
365.549254
 21
228.4601959999999
 31
0.0
  0
LINE
  5
C18D
330
BF3F
100
AcDbEntity
  8
1
  6
Continuous
100
AcDbLine
 10
367.640098
 20
228.9855059999999
 30
0.0
 11
367.8313699999998
 21
228.4601959999999
 31
0.0
  0
LINE
  5
C18E
330
BF3F
100
AcDbEntity
  8
1
  6
Continuous
100
AcDbLine
 10
367.8313699999998
 20
228.4601959999999
 30
0.0
 11
368.4422399999998
 21
227.827548
 31
0.0
  0
LINE
  5
C18F
330
BF3F
100
AcDbEntity
  8
1
  6
Continuous
100
AcDbLine
 10
367.2156929999999
 20
227.8445179999999
 30
0.0
 11
367.8482699999999
 21
227.2335779999999
 31
0.0
  0
LINE
  5
C190
330
BF3F
100
AcDbEntity
  8
1
  6
Continuous
100
AcDbLine
 10
366.690312
 20
228.03572
 30
0.0
 11
367.2156929999999
 21
227.8445179999999
 31
0.0
  0
ARC
  5
C191
330
BF3F
100
AcDbEntity
  8
1
  6
Continuous
100
AcDbCircle
 10
366.690312
 20
228.9855059999999
 30
0.0
 40
2.1
100
AcDbArc
 50
33.463
 51
56.537
  0
ARC
  5
C192
330
BF3F
100
AcDbEntity
  8
1
  6
Continuous
100
AcDbCircle
 10
366.690312
 20
228.9855059999999
 30
0.0
 40
2.1
100
AcDbArc
 50
123.4629999999998
 51
146.537
  0
ARC
  5
C193
330
BF3F
100
AcDbEntity
  8
1
  6
Continuous
100
AcDbCircle
 10
366.690312
 20
228.9855059999999
 30
0.0
 40
2.1
100
AcDbArc
 50
213.463
 51
236.5369999999999
  0
ARC
  5
C194
330
BF3F
100
AcDbEntity
  8
1
  6
Continuous
100
AcDbCircle
 10
366.690312
 20
228.9855059999999
 30
0.0
 40
2.1
100
AcDbArc
 50
303.4629999999999
 51
326.5369999999998
  0
LINE
  5
C195
330
BF3F
100
AcDbEntity
  8
1
  6
Continuous
100
AcDbLine
 10
363.029708
 20
223.985506
 30
0.0
 11
370.5247949999999
 21
223.985506
 31
0.0
  0
ARC
  5
C196
330
BF3F
100
AcDbEntity
  8
1
  6
Continuous
100
AcDbCircle
 10
365.103202
 20
228.9855059999999
 30
0.0
 40
5.412889999999999
100
AcDbArc
 50
130.6012949999999
 51
247.4762799999998
  0
CIRCLE
  5
C197
330
BF3F
100
AcDbEntity
  8
1
  6
Continuous
100
AcDbCircle
 10
366.690312
 20
228.9855059999999
 30
0.0
 40
3.5
  0
ARC
  5
C198
330
BF3F
100
AcDbEntity
  8
1
  6
Continuous
100
AcDbCircle
 10
368.277422
 20
228.9855059999999
 30
0.0
 40
5.412889999999999
100
AcDbArc
 50
310.601295
 51
49.39870500000001
  0
ARC
  5
C199
330
BF3F
100
AcDbEntity
  8
1
  6
Continuous
100
AcDbCircle
 10
375.690312
 20
230.9855059999999
 30
0.0
 40
5.0
100
AcDbArc
 50
0.0
 51
90.0
  0
ARC
  5
C19A
330
BF3F
100
AcDbEntity
  8
1
  6
Continuous
100
AcDbCircle
 10
375.690312
 20
220.9855059999999
 30
0.0
 40
2.5
100
AcDbArc
 50
0.0
 51
90.0
  0
LINE
  5
C19B
330
BF3F
100
AcDbEntity
  8
4
  6
CENTER
100
AcDbLine
 10
305.175313
 20
330.974176
 30
0.0
 11
291.220546
 21
330.974176
 31
0.0
  0
ARC
  5
C19C
330
BF3F
100
AcDbEntity
  8
1
  6
Continuous
100
AcDbCircle
 10
255.120148
 20
330.9855109999999
 30
0.0
 40
12.0
100
AcDbArc
 50
344.506032
 51
15.493968
  0
LINE
  5
C19D
330
BF3F
100
AcDbEntity
  8
1
  6
Continuous
100
AcDbLine
 10
263.820148
 20
330.9855109999999
 30
0.0
 11
262.520148
 21
329.6855109999999
 31
0.0
  0
LINE
  5
C19E
330
BF3F
100
AcDbEntity
  8
1
  6
Continuous
100
AcDbLine
 10
262.520148
 20
336.9855109999999
 30
0.0
 11
262.520148
 21
324.9855109999999
 31
0.0
  0
LINE
  5
C19F
330
BF3F
100
AcDbEntity
  8
1
  6
Continuous
100
AcDbLine
 10
263.820148
 20
335.585511
 30
0.0
 11
263.820148
 21
326.385511
 31
0.0
  0
LINE
  5
C1A0
330
BF3F
100
AcDbEntity
  8
1
  6
Continuous
100
AcDbLine
 10
261.7201479999998
 20
336.9855109999999
 30
0.0
 11
261.7201479999998
 21
324.9855109999999
 31
0.0
  0
LINE
  5
C1A1
330
BF3F
100
AcDbEntity
  8
1
  6
Continuous
100
AcDbLine
 10
263.820148
 20
326.4855109999999
 30
0.0
 11
265.281647
 21
326.6133759999998
 31
0.0
  0
LINE
  5
C1A2
330
BF3F
100
AcDbEntity
  8
1
  6
Continuous
100
AcDbLine
 10
262.520148
 20
324.9855109999999
 30
0.0
 11
261.7201479999998
 21
324.9855109999999
 31
0.0
  0
LINE
  5
C1A3
330
BF3F
100
AcDbEntity
  8
1
  6
Continuous
100
AcDbLine
 10
263.820148
 20
326.385511
 30
0.0
 11
262.520148
 21
326.385511
 31
0.0
  0
ARC
  5
C1A4
330
BF3F
100
AcDbEntity
  8
1
  6
Continuous
100
AcDbCircle
 10
265.142197
 20
328.207287
 30
0.0
 40
1.6
100
AcDbArc
 50
275.0
 51
344.506032
  0
LINE
  5
C1A5
330
BF3F
100
AcDbEntity
  8
1
  6
Continuous
100
AcDbLine
 10
263.820148
 20
335.4855109999999
 30
0.0
 11
265.281647
 21
335.3576470000001
 31
0.0
  0
LINE
  5
C1A6
330
BF3F
100
AcDbEntity
  8
1
  6
Continuous
100
AcDbLine
 10
262.520148
 20
336.9855109999999
 30
0.0
 11
261.7201479999998
 21
336.9855109999999
 31
0.0
  0
LINE
  5
C1A7
330
BF3F
100
AcDbEntity
  8
1
  6
Continuous
100
AcDbLine
 10
263.820148
 20
335.585511
 30
0.0
 11
262.520148
 21
335.585511
 31
0.0
  0
LINE
  5
C1A8
330
BF3F
100
AcDbEntity
  8
1
  6
Continuous
100
AcDbLine
 10
262.520148
 20
330.9855109999999
 30
0.0
 11
263.820148
 21
332.2855109999999
 31
0.0
  0
ARC
  5
C1A9
330
BF3F
100
AcDbEntity
  8
1
  6
Continuous
100
AcDbCircle
 10
265.142197
 20
333.763735
 30
0.0
 40
1.6
100
AcDbArc
 50
15.493968
 51
85.0
  0
ARC
  5
C1AA
330
BF3F
100
AcDbEntity
  8
1
  6
Continuous
100
AcDbCircle
 10
293.6346589999999
 20
330.974176
 30
0.0
 40
9.0
100
AcDbArc
 50
344.1191499999998
 51
15.88085
  0
LINE
  5
C1AB
330
BF3F
100
AcDbEntity
  8
1
  6
Continuous
100
AcDbLine
 10
300.0346589999999
 20
334.7741759999999
 30
0.0
 11
300.0346589999999
 21
327.1741759999998
 31
0.0
  0
LINE
  5
C1AC
330
BF3F
100
AcDbEntity
  8
1
  6
Continuous
100
AcDbLine
 10
300.0346589999999
 20
330.974176
 30
0.0
 11
299.0346589999999
 21
329.9741759999998
 31
0.0
  0
LINE
  5
C1AD
330
BF3F
100
AcDbEntity
  8
1
  6
Continuous
100
AcDbLine
 10
299.0346589999999
 20
337.9741759999999
 30
0.0
 11
299.0346589999999
 21
323.974176
 31
0.0
  0
LINE
  5
C1AE
330
BF3F
100
AcDbEntity
  8
1
  6
Continuous
100
AcDbLine
 10
294.0346589999998
 20
337.9741759999999
 30
0.0
 11
294.0346589999998
 21
323.974176
 31
0.0
  0
LINE
  5
C1AF
330
BF3F
100
AcDbEntity
  8
1
  6
Continuous
100
AcDbLine
 10
300.0346589999999
 20
327.1741759999998
 30
0.0
 11
299.0346589999999
 21
327.1741759999998
 31
0.0
  0
LINE
  5
C1B0
330
BF3F
100
AcDbEntity
  8
1
  6
Continuous
100
AcDbLine
 10
300.0346589999999
 20
327.4741759999999
 30
0.0
 11
301.154074
 21
327.572112
 31
0.0
  0
ARC
  5
C1B1
330
BF3F
100
AcDbEntity
  8
1
  6
Continuous
100
AcDbCircle
 10
301.0407709999999
 20
328.8671649999999
 30
0.0
 40
1.3
100
AcDbArc
 50
275.0
 51
344.1191499999998
  0
LINE
  5
C1B2
330
BF3F
100
AcDbEntity
  8
1
  6
Continuous
100
AcDbLine
 10
299.0346589999999
 20
323.974176
 30
0.0
 11
294.0346589999998
 21
323.974176
 31
0.0
  0
LINE
  5
C1B3
330
BF3F
100
AcDbEntity
  8
1
  6
Continuous
100
AcDbLine
 10
299.0346589999999
 20
337.9741759999999
 30
0.0
 11
294.0346589999998
 21
337.9741759999999
 31
0.0
  0
LINE
  5
C1B4
330
BF3F
100
AcDbEntity
  8
1
  6
Continuous
100
AcDbLine
 10
299.0346589999999
 20
330.974176
 30
0.0
 11
300.0346589999999
 21
331.9741759999998
 31
0.0
  0
LINE
  5
C1B5
330
BF3F
100
AcDbEntity
  8
1
  6
Continuous
100
AcDbLine
 10
300.0346589999999
 20
334.7741759999999
 30
0.0
 11
299.0346589999999
 21
334.7741759999999
 31
0.0
  0
LINE
  5
C1B6
330
BF3F
100
AcDbEntity
  8
1
  6
Continuous
100
AcDbLine
 10
300.0346589999999
 20
334.474176
 30
0.0
 11
301.154074
 21
334.37624
 31
0.0
  0
ARC
  5
C1B7
330
BF3F
100
AcDbEntity
  8
1
  6
Continuous
100
AcDbCircle
 10
301.0407709999999
 20
333.081187
 30
0.0
 40
1.3
100
AcDbArc
 50
15.88085
 51
85.0
  0
LINE
  5
C1B8
330
BF3F
100
AcDbEntity
  8
1
  6
Continuous
100
AcDbLine
 10
482.6683499999998
 20
216.9855059999999
 30
0.0
 11
483.4683499999998
 21
216.9855059999999
 31
0.0
  0
LINE
  5
C1B9
330
BF3F
100
AcDbEntity
  8
4
  6
CENTER
100
AcDbLine
 10
476.3683499999998
 20
210.985506
 30
0.0
 11
485.788416
 21
210.985506
 31
0.0
  0
LINE
  5
C1BA
330
BF3F
100
AcDbEntity
  8
1
  6
Continuous
100
AcDbLine
 10
482.6683499999998
 20
204.985506
 30
0.0
 11
483.4683499999998
 21
204.985506
 31
0.0
  0
LINE
  5
C1BB
330
BF3F
100
AcDbEntity
  8
1
  6
Continuous
100
AcDbLine
 10
481.36835
 20
215.485506
 30
0.0
 11
479.9068509999998
 21
215.3576419999999
 31
0.0
  0
LINE
  5
C1BC
330
BF3F
100
AcDbEntity
  8
1
  6
Continuous
100
AcDbLine
 10
481.36835
 20
215.5855059999999
 30
0.0
 11
482.6683499999998
 21
215.5855059999999
 31
0.0
  0
ARC
  5
C1BD
330
BF3F
100
AcDbEntity
  8
1
  6
Continuous
100
AcDbCircle
 10
480.0463009999998
 20
208.207282
 30
0.0
 40
1.6
100
AcDbArc
 50
195.4939679999999
 51
265.0
  0
LINE
  5
C1BE
330
BF3F
100
AcDbEntity
  8
1
  6
Continuous
100
AcDbLine
 10
481.36835
 20
209.685506
 30
0.0
 11
482.6683499999998
 21
210.985506
 31
0.0
  0
LINE
  5
C1BF
330
BF3F
100
AcDbEntity
  8
1
  6
Continuous
100
AcDbLine
 10
481.36835
 20
210.985506
 30
0.0
 11
482.6683499999998
 21
212.285506
 31
0.0
  0
LINE
  5
C1C0
330
BF3F
100
AcDbEntity
  8
1
  6
Continuous
100
AcDbLine
 10
481.36835
 20
206.4855059999999
 30
0.0
 11
479.9068509999998
 21
206.6133709999999
 31
0.0
  0
LINE
  5
C1C1
330
BF3F
100
AcDbEntity
  8
1
  6
Continuous
100
AcDbLine
 10
481.36835
 20
206.3855059999999
 30
0.0
 11
482.6683499999998
 21
206.3855059999999
 31
0.0
  0
ARC
  5
C1C2
330
BF3F
100
AcDbEntity
  8
1
  6
Continuous
100
AcDbCircle
 10
490.06835
 20
210.985506
 30
0.0
 40
12.0
100
AcDbArc
 50
164.5060319999998
 51
195.4939679999999
  0
ARC
  5
C1C3
330
BF3F
100
AcDbEntity
  8
1
  6
Continuous
100
AcDbCircle
 10
480.0463009999998
 20
213.7637299999999
 30
0.0
 40
1.6
100
AcDbArc
 50
95.0
 51
164.5060319999998
  0
LINE
  5
C1C4
330
BF3F
100
AcDbEntity
  8
1
  6
Continuous
100
AcDbLine
 10
482.6683499999998
 20
216.9855059999999
 30
0.0
 11
482.6683499999998
 21
204.985506
 31
0.0
  0
LINE
  5
C1C5
330
BF3F
100
AcDbEntity
  8
1
  6
Continuous
100
AcDbLine
 10
481.36835
 20
215.5855059999999
 30
0.0
 11
481.36835
 21
206.3855059999999
 31
0.0
  0
LINE
  5
C1C6
330
BF3F
100
AcDbEntity
  8
1
  6
Continuous
100
AcDbLine
 10
483.4683499999998
 20
216.9855059999999
 30
0.0
 11
483.4683499999998
 21
204.985506
 31
0.0
  0
LINE
  5
C1C7
330
BF3F
100
AcDbEntity
  8
4
  6
CENTER
100
AcDbLine
 10
454.8228879999999
 20
228.9854749999999
 30
0.0
 11
468.7776549999998
 21
228.9854749999999
 31
0.0
  0
LINE
  5
C1C8
330
BF3F
100
AcDbEntity
  8
1
  6
Continuous
100
AcDbLine
 10
459.963542
 20
228.9854749999999
 30
0.0
 11
460.963542
 21
229.985475
 31
0.0
  0
LINE
  5
C1C9
330
BF3F
100
AcDbEntity
  8
1
  6
Continuous
100
AcDbLine
 10
460.963542
 20
228.9854749999999
 30
0.0
 11
459.963542
 21
227.985475
 31
0.0
  0
LINE
  5
C1CA
330
BF3F
100
AcDbEntity
  8
1
  6
Continuous
100
AcDbLine
 10
459.963542
 20
232.7854749999999
 30
0.0
 11
460.963542
 21
232.7854749999999
 31
0.0
  0
LINE
  5
C1CB
330
BF3F
100
AcDbEntity
  8
1
  6
Continuous
100
AcDbLine
 10
459.963542
 20
225.185475
 30
0.0
 11
460.963542
 21
225.185475
 31
0.0
  0
LINE
  5
C1CC
330
BF3F
100
AcDbEntity
  8
1
  6
Continuous
100
AcDbLine
 10
465.9635419999998
 20
234.9854749999999
 30
0.0
 11
461.4635419999998
 21
234.9854749999999
 31
0.0
  0
LINE
  5
C1CD
330
BF3F
100
AcDbEntity
  8
1
  6
Continuous
100
AcDbLine
 10
465.9635419999998
 20
223.985475
 30
0.0
 11
461.4635419999998
 21
223.985475
 31
0.0
  0
LINE
  5
C1CE
330
BF3F
100
AcDbEntity
  8
1
  6
Continuous
100
AcDbLine
 10
465.9635419999998
 20
223.985475
 30
0.0
 11
465.9635419999998
 21
234.9854749999999
 31
0.0
  0
LINE
  5
C1CF
330
BF3F
100
AcDbEntity
  8
1
  6
Continuous
100
AcDbLine
 10
460.963542
 20
232.7854749999999
 30
0.0
 11
460.963542
 21
225.185475
 31
0.0
  0
ARC
  5
C1D0
330
BF3F
100
AcDbEntity
  8
1
  6
Continuous
100
AcDbCircle
 10
461.4635419999998
 20
234.485475
 30
0.0
 40
0.5
100
AcDbArc
 50
90.0
 51
180.0
  0
ARC
  5
C1D1
330
BF3F
100
AcDbEntity
  8
1
  6
Continuous
100
AcDbCircle
 10
461.4635419999998
 20
224.485475
 30
0.0
 40
0.5
100
AcDbArc
 50
180.0
 51
270.0
  0
LINE
  5
C1D2
330
BF3F
100
AcDbEntity
  8
1
  6
Continuous
100
AcDbLine
 10
460.963542
 20
224.485475
 30
0.0
 11
460.963542
 21
234.485475
 31
0.0
  0
ARC
  5
C1D3
330
BF3F
100
AcDbEntity
  8
1
  6
Continuous
100
AcDbCircle
 10
458.9574299999998
 20
231.0924859999999
 30
0.0
 40
1.3
100
AcDbArc
 50
95.0
 51
164.1191499999998
  0
ARC
  5
C1D4
330
BF3F
100
AcDbEntity
  8
1
  6
Continuous
100
AcDbCircle
 10
458.9574299999998
 20
226.878464
 30
0.0
 40
1.3
100
AcDbArc
 50
195.88085
 51
265.0
  0
ARC
  5
C1D5
330
BF3F
100
AcDbEntity
  8
1
  6
Continuous
100
AcDbCircle
 10
466.363542
 20
228.9854749999999
 30
0.0
 40
9.0
100
AcDbArc
 50
164.1191499999998
 51
195.88085
  0
LINE
  5
C1D6
330
BF3F
100
AcDbEntity
  8
1
  6
Continuous
100
AcDbLine
 10
459.963542
 20
232.7854749999999
 30
0.0
 11
459.963542
 21
225.185475
 31
0.0
  0
LINE
  5
C1D7
330
BF3F
100
AcDbEntity
  8
1
  6
Continuous
100
AcDbLine
 10
459.963542
 20
232.485475
 30
0.0
 11
458.8441269999998
 21
232.3875389999999
 31
0.0
  0
LINE
  5
C1D8
330
BF3F
100
AcDbEntity
  8
1
  6
Continuous
100
AcDbLine
 10
459.963542
 20
225.485475
 30
0.0
 11
458.8441269999998
 21
225.5834109999999
 31
0.0
  0
LINE
  5
C1D9
330
BF3F
100
AcDbEntity
  8
1
  6
Continuous
100
AcDbLine
 10
538.1525279999998
 20
185.9855059999999
 30
0.0
 11
538.1525279999998
 21
167.5415929999998
 31
0.0
  0
LINE
  5
C1DA
330
BF3F
100
AcDbEntity
  8
5
  6
PHANTOM
100
AcDbLine
 10
562.2884189999998
 20
184.044738
 30
0.0
 11
572.398746
 21
173.93441
 31
0.0
  0
ARC
  5
C1DB
330
BF3F
100
AcDbEntity
  8
5
  6
PHANTOM
100
AcDbCircle
 10
551.752528
 20
210.985506
 30
0.0
 40
45.49999999999999
100
AcDbArc
 50
304.4477259999998
 51
315.0
  0
LINE
  5
C1DC
330
BF3F
100
AcDbEntity
  8
1
  6
Continuous
100
AcDbLine
 10
551.752528
 20
235.985506
 30
0.0
 11
551.752528
 21
149.9855059999999
 31
0.0
  0
LINE
  5
C1DD
330
BF3F
100
AcDbEntity
  8
1
  6
Continuous
100
AcDbLine
 10
555.752528
 20
232.9855059999999
 30
0.0
 11
555.752528
 21
152.9855059999999
 31
0.0
  0
LINE
  5
C1DE
330
BF3F
100
AcDbEntity
  8
1
  6
Continuous
100
AcDbLine
 10
552.7525279999998
 20
235.985506
 30
0.0
 11
552.7525279999998
 21
149.9855059999999
 31
0.0
  0
LINE
  5
C1DF
330
BF3F
100
AcDbEntity
  8
1
  6
Continuous
100
AcDbLine
 10
554.2525279999998
 20
235.985506
 30
0.0
 11
554.2525279999998
 21
149.9855059999999
 31
0.0
  0
LINE
  5
C1E0
330
BF3F
100
AcDbEntity
  8
1
  6
Continuous
100
AcDbLine
 10
556.7525279999999
 20
204.7723019999998
 30
0.0
 11
556.7525279999999
 21
166.4855059999999
 31
0.0
  0
LINE
  5
C1E1
330
BF3F
100
AcDbEntity
  8
4
  6
CENTER
100
AcDbLine
 10
545.708288
 20
156.9855059999999
 30
0.0
 11
556.905475
 21
156.9855059999999
 31
0.0
  0
ARC
  5
C1E2
330
BF3F
100
AcDbEntity
  8
1
  6
Continuous
100
AcDbCircle
 10
551.752528
 20
210.985506
 30
0.0
 40
48.5
100
AcDbArc
 50
259.447726
 51
270.0
  0
ARC
  5
C1E3
330
BF3F
100
AcDbEntity
  8
1
  6
Continuous
100
AcDbCircle
 10
544.1525279999998
 20
170.1873439999999
 30
0.0
 40
7.0
100
AcDbArc
 50
221.409622
 51
259.447726
  0
ARC
  5
C1E4
330
BF3F
100
AcDbEntity
  8
1
  6
Continuous
100
AcDbCircle
 10
541.1525280000001
 20
167.5415929999998
 30
0.0
 40
3.0
100
AcDbArc
 50
180.0
 51
221.409622
  0
LINE
  5
C1E5
330
BF3F
100
AcDbEntity
  8
1
  6
Continuous
100
AcDbLine
 10
547.752528
 20
153.9855059999999
 30
0.0
 11
547.752528
 21
159.9855059999999
 31
0.0
  0
LINE
  5
C1E6
330
BF3F
100
AcDbEntity
  8
1
  6
Continuous
100
AcDbLine
 10
548.2525279999999
 20
160.485506
 30
0.0
 11
548.2525279999999
 21
153.4855059999999
 31
0.0
  0
LINE
  5
C1E7
330
BF3F
100
AcDbEntity
  8
1
  6
Continuous
100
AcDbLine
 10
547.752528
 20
153.9855059999999
 30
0.0
 11
548.2525279999999
 21
153.4855059999999
 31
0.0
  0
LINE
  5
C1E8
330
BF3F
100
AcDbEntity
  8
1
  6
Continuous
100
AcDbLine
 10
554.2525279999998
 20
149.9855059999999
 30
0.0
 11
555.752528
 21
152.9855059999999
 31
0.0
  0
LINE
  5
C1E9
330
BF3F
100
AcDbEntity
  8
1
  6
Continuous
100
AcDbLine
 10
551.752528
 20
149.9855059999999
 30
0.0
 11
552.7525279999998
 21
149.9855059999999
 31
0.0
  0
LINE
  5
C1EA
330
BF3F
100
AcDbEntity
  8
1
  6
Continuous
100
AcDbLine
 10
552.7525279999998
 20
149.9855059999999
 30
0.0
 11
554.2525279999998
 21
149.9855059999999
 31
0.0
  0
LINE
  5
C1EB
330
BF3F
100
AcDbEntity
  8
1
  6
Continuous
100
AcDbLine
 10
548.2525279999999
 20
153.4855059999999
 30
0.0
 11
551.752528
 21
153.4855059999999
 31
0.0
  0
LINE
  5
C1EC
330
BF3F
100
AcDbEntity
  8
1
  6
Continuous
100
AcDbLine
 10
548.2525279999999
 20
160.485506
 30
0.0
 11
547.752528
 21
159.9855059999999
 31
0.0
  0
ARC
  5
C1ED
330
BF3F
100
AcDbEntity
  8
1
  6
Continuous
100
AcDbCircle
 10
555.752528
 20
166.4855059999999
 30
0.0
 40
1.0
100
AcDbArc
 50
270.0
 51
0.0
  0
LINE
  5
C1EE
330
BF3F
100
AcDbEntity
  8
1
  6
Continuous
100
AcDbLine
 10
548.2525279999999
 20
160.485506
 30
0.0
 11
551.752528
 21
160.485506
 31
0.0
  0
ARC
  5
C1EF
330
BF3F
100
AcDbEntity
  8
5
  6
PHANTOM
100
AcDbCircle
 10
575.227173
 20
176.7628379999999
 30
0.0
 40
4.0
100
AcDbArc
 50
225.0
 51
304.4477259999998
  0
LINE
  5
C1F0
330
BF3F
100
AcDbEntity
  8
5
  6
PHANTOM
100
AcDbLine
 10
559.68146
 20
210.127642
 30
0.0
 11
586.754314
 21
183.054788
 31
0.0
  0
LINE
  5
C1F1
330
BF3F
100
AcDbEntity
  8
1
  6
Continuous
100
AcDbLine
 10
550.752528
 20
222.4855059999999
 30
0.0
 11
550.752528
 21
211.9855059999999
 31
0.0
  0
LINE
  5
C1F2
330
BF3F
100
AcDbEntity
  8
1
  6
Continuous
100
AcDbLine
 10
535.5525280000001
 20
221.6853799999999
 30
0.0
 11
535.5525280000001
 21
199.4855059999999
 31
0.0
  0
LINE
  5
C1F3
330
BF3F
100
AcDbEntity
  8
1
  6
Continuous
100
AcDbLine
 10
533.052528
 20
220.7282919999999
 30
0.0
 11
533.052528
 21
199.7355059999999
 31
0.0
  0
LINE
  5
C1F4
330
BF3F
100
AcDbEntity
  8
1
  6
Continuous
100
AcDbLine
 10
535.052528
 20
220.7282919999999
 30
0.0
 11
535.052528
 21
199.7355059999999
 31
0.0
  0
ARC
  5
C1F5
330
BF3F
100
AcDbEntity
  8
5
  6
PHANTOM
100
AcDbCircle
 10
555.752528
 20
219.385506
 30
0.0
 40
1.0
100
AcDbArc
 50
0.0
 51
90.0
  0
LINE
  5
C1F6
330
BF3F
100
AcDbEntity
  8
1
  6
Continuous
100
AcDbLine
 10
545.3020659999999
 20
198.4855059999999
 30
0.0
 11
547.752528
 21
196.035044
 31
0.0
  0
LINE
  5
C1F7
330
BF3F
100
AcDbEntity
  8
4
  6
CENTER
100
AcDbLine
 10
559.68146
 20
210.985506
 30
0.0
 11
527.626072
 21
210.985506
 31
0.0
  0
ARC
  5
C1F8
330
BF3F
100
AcDbEntity
  8
1
  6
Continuous
100
AcDbCircle
 10
544.7525279999998
 20
191.9855059999999
 30
0.0
 40
3.0
100
AcDbArc
 50
270.0
 51
0.0
  0
ARC
  5
C1F9
330
BF3F
100
AcDbEntity
  8
1
  6
Continuous
100
AcDbCircle
 10
541.1525280000001
 20
185.9855059999999
 30
0.0
 40
3.0
100
AcDbArc
 50
90.0
 51
180.0
  0
LINE
  5
C1FA
330
BF3F
100
AcDbEntity
  8
1
  6
Continuous
100
AcDbLine
 10
541.1525280000001
 20
188.985506
 30
0.0
 11
544.7525279999998
 21
188.985506
 31
0.0
  0
LINE
  5
C1FB
330
BF3F
100
AcDbEntity
  8
1
  6
Continuous
100
AcDbLine
 10
531.052528
 20
215.9855059999999
 30
0.0
 11
533.052528
 21
215.9855059999999
 31
0.0
  0
LINE
  5
C1FC
330
BF3F
100
AcDbEntity
  8
1
  6
Continuous
100
AcDbLine
 10
535.352528
 20
219.64576
 30
0.0
 11
535.5525280000001
 21
219.64576
 31
0.0
  0
ARC
  5
C1FD
330
BF3F
100
AcDbEntity
  8
1
  6
Continuous
100
AcDbCircle
 10
535.352528
 20
219.44576
 30
0.0
 40
0.2
100
AcDbArc
 50
90.0
 51
180.0
  0
LINE
  5
C1FE
330
BF3F
100
AcDbEntity
  8
1
  6
Continuous
100
AcDbLine
 10
535.1525279999998
 20
216.8855059999999
 30
0.0
 11
535.052528
 21
216.8855059999999
 31
0.0
  0
LINE
  5
C1FF
330
BF3F
100
AcDbEntity
  8
1
  6
Continuous
100
AcDbLine
 10
533.052528
 20
199.7355059999999
 30
0.0
 11
535.052528
 21
199.7355059999999
 31
0.0
  0
LINE
  5
C200
330
BF3F
100
AcDbEntity
  8
1
  6
Continuous
100
AcDbLine
 10
531.052528
 20
205.9855059999999
 30
0.0
 11
533.052528
 21
205.9855059999999
 31
0.0
  0
LINE
  5
C201
330
BF3F
100
AcDbEntity
  8
1
  6
Continuous
100
AcDbLine
 10
531.052528
 20
211.64236
 30
0.0
 11
533.052528
 21
211.64236
 31
0.0
  0
LINE
  5
C202
330
BF3F
100
AcDbEntity
  8
1
  6
Continuous
100
AcDbLine
 10
531.052528
 20
210.328652
 30
0.0
 11
533.052528
 21
210.328652
 31
0.0
  0
LINE
  5
C203
330
BF3F
100
AcDbEntity
  8
1
  6
Continuous
100
AcDbLine
 10
545.3020659999999
 20
198.4855059999999
 30
0.0
 11
536.552528
 21
198.4855059999999
 31
0.0
  0
ARC
  5
C204
330
BF3F
100
AcDbEntity
  8
1
  6
Continuous
100
AcDbCircle
 10
544.7525279999998
 20
199.4855059999999
 30
0.0
 40
1.0
100
AcDbArc
 50
180.0
 51
270.0
  0
LINE
  5
C205
330
BF3F
100
AcDbEntity
  8
1
  6
Continuous
100
AcDbLine
 10
543.752528
 20
209.9855059999999
 30
0.0
 11
543.752528
 21
199.4855059999999
 31
0.0
  0
ARC
  5
C206
330
BF3F
100
AcDbEntity
  8
1
  6
Continuous
100
AcDbCircle
 10
536.552528
 20
199.4855059999999
 30
0.0
 40
1.0
100
AcDbArc
 50
180.0
 51
270.0
  0
LINE
  5
C207
330
BF3F
100
AcDbEntity
  8
1
  6
Continuous
100
AcDbLine
 10
535.5525280000001
 20
200.985506
 30
0.0
 11
535.352528
 21
200.985506
 31
0.0
  0
ARC
  5
C208
330
BF3F
100
AcDbEntity
  8
1
  6
Continuous
100
AcDbCircle
 10
535.4087779999998
 20
201.2355059999999
 30
0.0
 40
0.25625
100
AcDbArc
 50
180.0
 51
257.319617
  0
LINE
  5
C209
330
BF3F
100
AcDbEntity
  8
1
  6
Continuous
100
AcDbLine
 10
535.1525279999998
 20
205.0855059999999
 30
0.0
 11
535.052528
 21
205.0855059999999
 31
0.0
  0
LINE
  5
C20A
330
BF3F
100
AcDbEntity
  8
1
  6
Continuous
100
AcDbLine
 10
531.052528
 20
215.9855059999999
 30
0.0
 11
531.052528
 21
205.9855059999999
 31
0.0
  0
LINE
  5
C20B
330
BF3F
100
AcDbEntity
  8
1
  6
Continuous
100
AcDbLine
 10
535.1525279999998
 20
219.44576
 30
0.0
 11
535.1525279999998
 21
201.2355059999999
 31
0.0
  0
LINE
  5
C20C
330
BF3F
100
AcDbEntity
  8
5
  6
PHANTOM
100
AcDbLine
 10
557.9241009999998
 20
203.399719
 30
0.0
 11
564.1268969999997
 21
197.1969239999999
 31
0.0
  0
LINE
  5
C20D
330
BF3F
100
AcDbEntity
  8
5
  6
PHANTOM
100
AcDbLine
 10
562.2884189999998
 20
186.8731649999998
 30
0.0
 11
564.1268969999997
 21
188.7116419999999
 31
0.0
  0
ARC
  5
C20E
330
BF3F
100
AcDbEntity
  8
5
  6
PHANTOM
100
AcDbCircle
 10
563.702633
 20
185.458951
 30
0.0
 40
2.0
100
AcDbArc
 50
135.0
 51
225.0
  0
LINE
  5
C20F
330
BF3F
100
AcDbEntity
  8
1
  6
Continuous
100
AcDbLine
 10
547.752528
 20
196.035044
 30
0.0
 11
547.752528
 21
191.9855059999999
 31
0.0
  0
ARC
  5
C210
330
BF3F
100
AcDbEntity
  8
5
  6
PHANTOM
100
AcDbCircle
 10
559.8842559999999
 20
192.954283
 30
0.0
 40
6.0
100
AcDbArc
 50
315.0
 51
45.0
  0
ARC
  5
C211
330
BF3F
100
AcDbEntity
  8
1
  6
Continuous
100
AcDbCircle
 10
551.752528
 20
210.985506
 30
0.0
 40
9.4
100
AcDbArc
 50
45.0
 51
64.815663
  0
LINE
  5
C212
330
BF3F
100
AcDbEntity
  8
1
  6
Continuous
100
AcDbLine
 10
558.3993320000002
 20
217.6323099999999
 30
0.0
 11
561.2277589999998
 21
214.803882
 31
0.0
  0
LINE
  5
C213
330
BF3F
100
AcDbEntity
  8
5
  6
PHANTOM
100
AcDbLine
 10
556.7525279999999
 20
219.385506
 30
0.0
 11
556.7525279999999
 21
217.198709
 31
0.0
  0
ARC
  5
C214
330
BF3F
100
AcDbEntity
  8
1
  6
Continuous
100
AcDbCircle
 10
566.7525279999997
 20
204.7723019999998
 30
0.0
 40
10.0
100
AcDbArc
 50
135.0
 51
180.0
  0
LINE
  5
C215
330
BF3F
100
AcDbEntity
  8
5
  6
PHANTOM
100
AcDbLine
 10
556.7525279999999
 20
201.585506
 30
0.0
 11
559.7383139999998
 21
201.585506
 31
0.0
  0
ARC
  5
C216
330
BF3F
100
AcDbEntity
  8
5
  6
PHANTOM
100
AcDbCircle
 10
560.7525279999999
 20
206.228147
 30
0.0
 40
4.0
100
AcDbArc
 50
188.0986709999998
 51
225.0
  0
LINE
  5
C217
330
BF3F
100
AcDbEntity
  8
1
  6
Continuous
100
AcDbLine
 10
561.2277589999998
 20
213.3896689999999
 30
0.0
 11
559.68146
 21
211.8433699999999
 31
0.0
  0
ARC
  5
C218
330
BF3F
100
AcDbEntity
  8
5
  6
PHANTOM
100
AcDbCircle
 10
566.7525279999997
 20
217.198709
 30
0.0
 40
10.0
100
AcDbArc
 50
180.0
 51
225.0
  0
ARC
  5
C219
330
BF3F
100
AcDbEntity
  8
1
  6
Continuous
100
AcDbCircle
 10
560.5206519999998
 20
214.0967759999998
 30
0.0
 40
1.0
100
AcDbArc
 50
315.0
 51
45.0
  0
LINE
  5
C21A
330
BF3F
100
AcDbEntity
  8
1
  6
Continuous
100
AcDbLine
 10
551.752528
 20
223.485506
 30
0.0
 11
533.552528
 21
223.485506
 31
0.0
  0
LINE
  5
C21B
330
BF3F
100
AcDbEntity
  8
4
  6
CENTER
100
AcDbLine
 10
545.0230389999997
 20
228.9855059999999
 30
0.0
 11
556.905475
 21
228.9855059999999
 31
0.0
  0
LINE
  5
C21C
330
BF3F
100
AcDbEntity
  8
1
  6
Continuous
100
AcDbLine
 10
533.3525279999999
 20
223.2855059999999
 30
0.0
 11
533.3525279999999
 21
220.7282919999999
 31
0.0
  0
ARC
  5
C21D
330
BF3F
100
AcDbEntity
  8
1
  6
Continuous
100
AcDbCircle
 10
533.552528
 20
223.2855059999999
 30
0.0
 40
0.2
100
AcDbArc
 50
90.0
 51
180.0
  0
ARC
  5
C21E
330
BF3F
100
AcDbEntity
  8
1
  6
Continuous
100
AcDbCircle
 10
533.552528
 20
221.8853799999999
 30
0.0
 40
0.2
100
AcDbArc
 50
180.0
 51
270.0
  0
LINE
  5
C21F
330
BF3F
100
AcDbEntity
  8
1
  6
Continuous
100
AcDbLine
 10
533.052528
 20
220.7282919999999
 30
0.0
 11
535.052528
 21
220.7282919999999
 31
0.0
  0
LINE
  5
C220
330
BF3F
100
AcDbEntity
  8
1
  6
Continuous
100
AcDbLine
 10
533.552528
 20
221.6853799999999
 30
0.0
 11
535.5525280000001
 21
221.6853799999999
 31
0.0
  0
LINE
  5
C221
330
BF3F
100
AcDbEntity
  8
1
  6
Continuous
100
AcDbLine
 10
547.752528
 20
225.985506
 30
0.0
 11
547.752528
 21
231.985506
 31
0.0
  0
LINE
  5
C222
330
BF3F
100
AcDbEntity
  8
1
  6
Continuous
100
AcDbLine
 10
548.2525279999999
 20
232.4855059999999
 30
0.0
 11
548.2525279999999
 21
225.485506
 31
0.0
  0
LINE
  5
C223
330
BF3F
100
AcDbEntity
  8
1
  6
Continuous
100
AcDbLine
 10
547.752528
 20
225.985506
 30
0.0
 11
548.2525279999999
 21
225.485506
 31
0.0
  0
LINE
  5
C224
330
BF3F
100
AcDbEntity
  8
1
  6
Continuous
100
AcDbLine
 10
548.2525279999999
 20
232.4855059999999
 30
0.0
 11
547.752528
 21
231.985506
 31
0.0
  0
LINE
  5
C225
330
BF3F
100
AcDbEntity
  8
1
  6
Continuous
100
AcDbLine
 10
554.2525279999998
 20
235.985506
 30
0.0
 11
555.752528
 21
232.9855059999999
 31
0.0
  0
LINE
  5
C226
330
BF3F
100
AcDbEntity
  8
1
  6
Continuous
100
AcDbLine
 10
551.752528
 20
235.985506
 30
0.0
 11
552.7525279999998
 21
235.985506
 31
0.0
  0
LINE
  5
C227
330
BF3F
100
AcDbEntity
  8
1
  6
Continuous
100
AcDbLine
 10
552.7525279999998
 20
235.985506
 30
0.0
 11
554.2525279999998
 21
235.985506
 31
0.0
  0
LINE
  5
C228
330
BF3F
100
AcDbEntity
  8
1
  6
Continuous
100
AcDbLine
 10
548.2525279999999
 20
232.4855059999999
 30
0.0
 11
551.752528
 21
232.4855059999999
 31
0.0
  0
LINE
  5
C229
330
BF3F
100
AcDbEntity
  8
1
  6
Continuous
100
AcDbLine
 10
548.2525279999999
 20
225.485506
 30
0.0
 11
551.752528
 21
225.485506
 31
0.0
  0
ARC
  5
C22A
330
BF3F
100
AcDbEntity
  8
1
  6
Continuous
100
AcDbCircle
 10
551.752528
 20
222.4855059999999
 30
0.0
 40
1.0
100
AcDbArc
 50
90.0
 51
180.0
  0
ARC
  5
C22B
330
BF3F
100
AcDbEntity
  8
5
  6
PHANTOM
100
AcDbCircle
 10
586.0472070000001
 20
182.347681
 30
0.0
 40
1.0
100
AcDbArc
 50
315.0
 51
45.0
  0
LINE
  5
C22C
330
BF3F
100
AcDbEntity
  8
5
  6
PHANTOM
100
AcDbLine
 10
586.754314
 20
181.640574
 30
0.0
 11
583.925887
 21
178.812147
 31
0.0
  0
ENDSEC
  0
SECTION
  2
OBJECTS
  0
DICTIONARY
  5
BF2D
330
0
100
AcDbDictionary
281
     1
  3
ACAD_CIP_PREVIOUS_PRODUCT_INFO
350
C292
  3
ACAD_COLOR
350
C274
  3
ACAD_DETAILVIEWSTYLE
350
C28D
  3
ACAD_GROUP
350
BF2E
  3
ACAD_LAYOUT
350
BF3A
  3
ACAD_MATERIAL
350
C242
  3
ACAD_MLEADERSTYLE
350
C289
  3
ACAD_MLINESTYLE
350
BF37
  3
ACAD_PLOTSETTINGS
350
BF39
  3
ACAD_PLOTSTYLENAME
350
C240
  3
ACAD_SCALELIST
350
C277
  3
ACAD_SECTIONVIEWSTYLE
350
C28B
  3
ACAD_TABLESTYLE
350
C275
  3
ACAD_VISUALSTYLE
350
C25B
  3
ACDB_RECOMPOSE_DATA
350
C2B0
  3
AcDbVariableDictionary
350
C2A3
  3
DWGPROPS
350
C2B1
  0
DICTIONARY
  5
C293
330
BF31
100
AcDbDictionary
280
     1
281
     1
  3
ADSK_XREC_LAYER_RECONCILED
360
C294
  0
DICTIONARY
  5
C295
330
BF47
100
AcDbDictionary
280
     1
281
     1
  3
ADSK_XREC_LAYER_RECONCILED
360
C296
  0
DICTIONARY
  5
C297
330
BF48
100
AcDbDictionary
280
     1
281
     1
  3
ADSK_XREC_LAYER_RECONCILED
360
C298
  0
DICTIONARY
  5
C299
330
BF49
100
AcDbDictionary
280
     1
281
     1
  3
ADSK_XREC_LAYER_RECONCILED
360
C29A
  0
DICTIONARY
  5
C29B
330
BF4A
100
AcDbDictionary
280
     1
281
     1
  3
ADSK_XREC_LAYER_RECONCILED
360
C29C
  0
DICTIONARY
  5
C29D
330
BF4B
100
AcDbDictionary
280
     1
281
     1
  3
ADSK_XREC_LAYER_RECONCILED
360
C29E
  0
DICTIONARY
  5
C29F
330
BF4C
100
AcDbDictionary
280
     1
281
     1
  3
ADSK_XREC_LAYER_RECONCILED
360
C2A0
  0
DICTIONARY
  5
C2A1
330
BF4D
100
AcDbDictionary
280
     1
281
     1
  3
ADSK_XREC_LAYER_RECONCILED
360
C2A2
  0
DICTIONARY
  5
C23B
330
BF3F
100
AcDbDictionary
281
     1
  3
ACAD_LAYOUTSELFREF
350
C23C
  0
DICTIONARY
  5
C239
330
BF3B
100
AcDbDictionary
281
     1
  3
ACAD_LAYOUTSELFREF
350
C23A
  0
XRECORD
  5
C292
102
{ACAD_REACTORS
330
BF2D
102
}
330
BF2D
100
AcDbXrecord
280
     1
300
ACDLT
300
2014
300
ACDLT_F_S
  0
DICTIONARY
  5
C274
102
{ACAD_REACTORS
330
BF2D
102
}
330
BF2D
100
AcDbDictionary
281
     1
  0
DICTIONARY
  5
C28D
102
{ACAD_REACTORS
330
BF2D
102
}
330
BF2D
100
AcDbDictionary
281
     1
  3
Imperial24
350
C28E
  0
DICTIONARY
  5
BF2E
102
{ACAD_REACTORS
330
BF2D
102
}
330
BF2D
100
AcDbDictionary
281
     1
  0
DICTIONARY
  5
BF3A
102
{ACAD_REACTORS
330
BF2D
102
}
330
BF2D
100
AcDbDictionary
281
     1
  3
Model
350
C28F
  3
レイアウト1
350
C290
  0
DICTIONARY
  5
C242
102
{ACAD_REACTORS
330
BF2D
102
}
330
BF2D
100
AcDbDictionary
281
     1
  3
ByBlock
350
C24B
  3
ByLayer
350
C243
  3
Global
350
C253
  0
DICTIONARY
  5
C289
102
{ACAD_REACTORS
330
BF2D
102
}
330
BF2D
100
AcDbDictionary
281
     1
  3
Standard
350
C28A
  0
DICTIONARY
  5
BF37
102
{ACAD_REACTORS
330
BF2D
102
}
330
BF2D
100
AcDbDictionary
281
     1
  3
STANDARD
350
BF38
  0
DICTIONARY
  5
BF39
102
{ACAD_REACTORS
330
BF2D
102
}
330
BF2D
100
AcDbDictionary
281
     1
  0
ACDBDICTIONARYWDFLT
  5
C240
102
{ACAD_REACTORS
330
BF2D
102
}
330
BF2D
100
AcDbDictionary
281
     1
  3
Normal
350
C241
100
AcDbDictionaryWithDefault
340
C241
  0
DICTIONARY
  5
C277
102
{ACAD_REACTORS
330
BF2D
102
}
330
BF2D
100
AcDbDictionary
281
     1
  3
A0
350
C278
  3
A1
350
C279
  3
A2
350
C27A
  3
A3
350
C27B
  3
A4
350
C27C
  3
A5
350
C27D
  3
A6
350
C27E
  3
A7
350
C27F
  3
A8
350
C280
  3
A9
350
C281
  3
B0
350
C282
  3
B1
350
C283
  3
B2
350
C284
  3
B3
350
C285
  3
B4
350
C286
  3
B5
350
C287
  3
B6
350
C288
  0
DICTIONARY
  5
C28B
102
{ACAD_REACTORS
330
BF2D
102
}
330
BF2D
100
AcDbDictionary
281
     1
  3
Imperial24
350
C28C
  0
DICTIONARY
  5
C275
102
{ACAD_REACTORS
330
BF2D
102
}
330
BF2D
100
AcDbDictionary
281
     1
  3
Standard
350
C276
  0
DICTIONARY
  5
C25B
102
{ACAD_REACTORS
330
BF2D
102
}
330
BF2D
100
AcDbDictionary
281
     1
  3
2dWireframe
350
C261
  3
Basic
350
C260
  3
Brighten
350
C267
  3
ColorChange
350
C26B
  3
Conceptual
350
C264
  3
Dim
350
C266
  3
EdgeColorOff
350
C273
  3
Facepattern
350
C26A
  3
Flat
350
C25C
  3
FlatWithEdges
350
C25D
  3
Gouraud
350
C25E
  3
GouraudWithEdges
350
C25F
  3
Hidden
350
C263
  3
JitterOff
350
C271
  3
Linepattern
350
C269
  3
OverhangOff
350
C272
  3
Realistic
350
C265
  3
Shaded
350
C270
  3
Shaded with edges
350
C26F
  3
Shades of Gray
350
C26C
  3
Sketchy
350
C26D
  3
Thicken
350
C268
  3
Wireframe
350
C262
  3
X-Ray
350
C26E
  0
XRECORD
  5
C2B0
102
{ACAD_REACTORS
330
BF2D
102
}
330
BF2D
100
AcDbXrecord
280
     1
 90
        1
330
C276
  0
DICTIONARY
  5
C2A3
102
{ACAD_REACTORS
330
BF2D
102
}
330
BF2D
100
AcDbDictionary
281
     1
  3
CANNOSCALE
350
C2A8
  3
CMLEADERSTYLE
350
C2A5
  3
CTABLESTYLE
350
C2A4
  3
CVIEWDETAILSTYLE
350
C2A6
  3
CVIEWSECTIONSTYLE
350
C2A7
  3
DIMASSOC
350
C2AB
  3
INDEXCTL
350
C2AA
  3
SORTENTS
350
C2A9
  3
XCLIPFRAME
350
C2AC
  0
XRECORD
  5
C2B1
102
{ACAD_REACTORS
330
BF2D
102
}
330
BF2D
100
AcDbXrecord
280
     1
  1
DWGPROPS COOKIE
  2

  3

  4

  6

  7

  8
Yoshitsune
  9

300
=
301
=
302
=
303
=
304
=
305
=
306
=
307
=
308
=
309
=
 40
0.0000155671296296
 41
2451345.429828125
 42
2457192.643609398
  1

 90
        0
  0
XRECORD
  5
C294
102
{ACAD_REACTORS
330
C293
102
}
330
C293
100
AcDbXrecord
280
     1
290
     1
  0
XRECORD
  5
C296
102
{ACAD_REACTORS
330
C295
102
}
330
C295
100
AcDbXrecord
280
     1
290
     1
  0
XRECORD
  5
C298
102
{ACAD_REACTORS
330
C297
102
}
330
C297
100
AcDbXrecord
280
     1
290
     1
  0
XRECORD
  5
C29A
102
{ACAD_REACTORS
330
C299
102
}
330
C299
100
AcDbXrecord
280
     1
290
     1
  0
XRECORD
  5
C29C
102
{ACAD_REACTORS
330
C29B
102
}
330
C29B
100
AcDbXrecord
280
     1
290
     1
  0
XRECORD
  5
C29E
102
{ACAD_REACTORS
330
C29D
102
}
330
C29D
100
AcDbXrecord
280
     1
290
     1
  0
XRECORD
  5
C2A0
102
{ACAD_REACTORS
330
C29F
102
}
330
C29F
100
AcDbXrecord
280
     1
290
     1
  0
XRECORD
  5
C2A2
102
{ACAD_REACTORS
330
C2A1
102
}
330
C2A1
100
AcDbXrecord
280
     1
290
     1
  0
XRECORD
  5
C23C
102
{ACAD_REACTORS
330
C23B
102
}
330
C23B
100
AcDbXrecord
280
     1
340
BF3F
  0
XRECORD
  5
C23A
102
{ACAD_REACTORS
330
C239
102
}
330
C239
100
AcDbXrecord
280
     1
340
BF3B
  0
ACDBDETAILVIEWSTYLE
  5
C28E
102
{ACAD_XDICTIONARY
360
C2E9
102
}
102
{ACAD_REACTORS
330
C28D
102
}
330
C28D
100
AcDbModelDocViewStyle
 70
     0
  3
Imperial24
290
     0
100
AcDbDetailViewStyle
 70
     0
 71
     0
 90
        3
 71
     1
340
BF32
 40
0.24
340
0
 40
0.24
300

 40
0.36
280
     3
 71
     2
340
BF36
 90
       25
 71
     3
340
BF32
 40
0.24
 90
        1
 40
0.75
 90
        1
300
%<\AcVar ViewType \f "%tc1">% %<\AcVar ViewDetailId>%\PSCALE %<\AcVar ViewScale \f "%sn">%
 71
     4
340
BF36
 90
       25
340
BF36
 90
       25
280
     0
  0
LAYOUT
  5
C28F
102
{ACAD_XDICTIONARY
360
C2EB
102
}
102
{ACAD_REACTORS
330
BF3A
102
}
330
BF3A
100
AcDbPlotSettings
  1

  2
Canon LBP9100C
  4

  6

 40
0.0
 41
0.0
 42
0.0
 43
0.0
 44
0.0
 45
0.0
 46
0.0
 47
0.0
 48
0.0
 49
0.0
140
0.0
141
0.0
142
1.0
143
1.0
 70
  1712
 72
     0
 73
     0
 74
     0
  7

 75
     0
147
1.0
148
0.0
149
0.0
100
AcDbLayout
  1
Model
 70
     1
 71
     0
 10
0.0
 20
0.0
 11
12.0
 21
9.0
 12
0.0
 22
0.0
 32
0.0
 14
0.0
 24
0.0
 34
0.0
 15
0.0
 25
0.0
 35
0.0
146
0.0
 13
0.0
 23
0.0
 33
0.0
 16
1.0
 26
0.0
 36
0.0
 17
0.0
 27
1.0
 37
0.0
 76
     0
330
BF3F
331
C238
  0
LAYOUT
  5
C290
102
{ACAD_XDICTIONARY
360
C2ED
102
}
102
{ACAD_REACTORS
330
BF3A
102
}
330
BF3A
100
AcDbPlotSettings
  1

  2
Canon LBP9100C
  4

  6

 40
0.0
 41
0.0
 42
0.0
 43
0.0
 44
0.0
 45
0.0
 46
0.0
 47
0.0
 48
0.0
 49
0.0
140
0.0
141
0.0
142
1.0
143
1.0
 70
   688
 72
     0
 73
     0
 74
     5
  7

 75
    16
147
1.0
148
0.0
149
0.0
100
AcDbLayout
  1
レイアウト1
 70
     0
 71
     1
 10
0.0
 20
0.0
 11
420.0
 21
297.0
 12
0.0
 22
0.0
 32
0.0
 14
1.000000000000000E+20
 24
1.000000000000000E+20
 34
1.000000000000000E+20
 15
-1.000000000000000E+20
 25
-1.000000000000000E+20
 35
-1.000000000000000E+20
146
0.0
 13
0.0
 23
0.0
 33
0.0
 16
1.0
 26
0.0
 36
0.0
 17
0.0
 27
1.0
 37
0.0
 76
     0
330
BF3B
  0
MATERIAL
  5
C24B
102
{ACAD_XDICTIONARY
360
C24C
102
}
102
{ACAD_REACTORS
330
C242
102
}
330
C242
100
AcDbMaterial
  1
ByBlock
 72
     0
 43
0.0208333333333333
 43
0.0
 43
0.0
 43
0.0
 43
0.0
 43
0.0208333333333333
 43
0.0
 43
0.0
 43
0.0
 43
0.0
 43
1.0
 43
0.0
 43
0.0
 43
0.0
 43
0.0
 43
1.0
 77
     0
 47
0.0208333333333333
 47
0.0
 47
0.0
 47
0.0
 47
0.0
 47
0.0208333333333333
 47
0.0
 47
0.0
 47
0.0
 47
0.0
 47
1.0
 47
0.0
 47
0.0
 47
0.0
 47
0.0
 47
1.0
171
     0
 49
0.0208333333333333
 49
0.0
 49
0.0
 49
0.0
 49
0.0
 49
0.0208333333333333
 49
0.0
 49
0.0
 49
0.0
 49
0.0
 49
1.0
 49
0.0
 49
0.0
 49
0.0
 49
0.0
 49
1.0
175
     0
142
0.0208333333333333
142
0.0
142
0.0
142
0.0
142
0.0
142
0.0208333333333333
142
0.0
142
0.0
142
0.0
142
0.0
142
1.0
142
0.0
142
0.0
142
0.0
142
0.0
142
1.0
179
     0
144
0.0208333333333333
144
0.0
144
0.0
144
0.0
144
0.0
144
0.0208333333333333
144
0.0
144
0.0
144
0.0
144
0.0
144
1.0
144
0.0
144
0.0
144
0.0
144
0.0
144
1.0
147
0.0208333333333333
147
0.0
147
0.0
147
0.0
147
0.0
147
0.0208333333333333
147
0.0
147
0.0
147
0.0
147
0.0
147
1.0
147
0.0
147
0.0
147
0.0
147
0.0
147
1.0
  0
MATERIAL
  5
C243
102
{ACAD_XDICTIONARY
360
C244
102
}
102
{ACAD_REACTORS
330
C242
102
}
330
C242
100
AcDbMaterial
  1
ByLayer
 72
     0
 43
0.0208333333333333
 43
0.0
 43
0.0
 43
0.0
 43
0.0
 43
0.0208333333333333
 43
0.0
 43
0.0
 43
0.0
 43
0.0
 43
1.0
 43
0.0
 43
0.0
 43
0.0
 43
0.0
 43
1.0
 77
     0
 47
0.0208333333333333
 47
0.0
 47
0.0
 47
0.0
 47
0.0
 47
0.0208333333333333
 47
0.0
 47
0.0
 47
0.0
 47
0.0
 47
1.0
 47
0.0
 47
0.0
 47
0.0
 47
0.0
 47
1.0
171
     0
 49
0.0208333333333333
 49
0.0
 49
0.0
 49
0.0
 49
0.0
 49
0.0208333333333333
 49
0.0
 49
0.0
 49
0.0
 49
0.0
 49
1.0
 49
0.0
 49
0.0
 49
0.0
 49
0.0
 49
1.0
175
     0
142
0.0208333333333333
142
0.0
142
0.0
142
0.0
142
0.0
142
0.0208333333333333
142
0.0
142
0.0
142
0.0
142
0.0
142
1.0
142
0.0
142
0.0
142
0.0
142
0.0
142
1.0
179
     0
144
0.0208333333333333
144
0.0
144
0.0
144
0.0
144
0.0
144
0.0208333333333333
144
0.0
144
0.0
144
0.0
144
0.0
144
1.0
144
0.0
144
0.0
144
0.0
144
0.0
144
1.0
147
0.0208333333333333
147
0.0
147
0.0
147
0.0
147
0.0
147
0.0208333333333333
147
0.0
147
0.0
147
0.0
147
0.0
147
1.0
147
0.0
147
0.0
147
0.0
147
0.0
147
1.0
  0
MATERIAL
  5
C253
102
{ACAD_XDICTIONARY
360
C254
102
}
102
{ACAD_REACTORS
330
C242
102
}
330
C242
100
AcDbMaterial
  1
Global
 72
     0
 43
0.0208333333333333
 43
0.0
 43
0.0
 43
0.0
 43
0.0
 43
0.0208333333333333
 43
0.0
 43
0.0
 43
0.0
 43
0.0
 43
1.0
 43
0.0
 43
0.0
 43
0.0
 43
0.0
 43
1.0
 77
     0
 47
0.0208333333333333
 47
0.0
 47
0.0
 47
0.0
 47
0.0
 47
0.0208333333333333
 47
0.0
 47
0.0
 47
0.0
 47
0.0
 47
1.0
 47
0.0
 47
0.0
 47
0.0
 47
0.0
 47
1.0
171
     0
 49
0.0208333333333333
 49
0.0
 49
0.0
 49
0.0
 49
0.0
 49
0.0208333333333333
 49
0.0
 49
0.0
 49
0.0
 49
0.0
 49
1.0
 49
0.0
 49
0.0
 49
0.0
 49
0.0
 49
1.0
175
     0
142
0.0208333333333333
142
0.0
142
0.0
142
0.0
142
0.0
142
0.0208333333333333
142
0.0
142
0.0
142
0.0
142
0.0
142
1.0
142
0.0
142
0.0
142
0.0
142
0.0
142
1.0
179
     0
144
0.0208333333333333
144
0.0
144
0.0
144
0.0
144
0.0
144
0.0208333333333333
144
0.0
144
0.0
144
0.0
144
0.0
144
1.0
144
0.0
144
0.0
144
0.0
144
0.0
144
1.0
147
0.0208333333333333
147
0.0
147
0.0
147
0.0
147
0.0
147
0.0208333333333333
147
0.0
147
0.0
147
0.0
147
0.0
147
1.0
147
0.0
147
0.0
147
0.0
147
0.0
147
1.0
  0
MLEADERSTYLE
  5
C28A
102
{ACAD_REACTORS
330
C289
102
}
330
C289
100
AcDbMLeaderStyle
170
     2
171
     1
172
     0
 90
        2
 40
0.0
 41
0.0
173
     1
 91
-1056964608
340
BF34
 92
       -2
290
     1
 42
0.09
291
     1
 43
0.36
  3
Standard
 44
0.18
300

342
BF32
174
     1
178
     6
175
     1
176
     0
 93
-1056964608
 45
0.18
292
     0
297
     0
 46
0.18
 94
-1056964608
 47
1.0
 49
1.0
140
1.0
293
     1
141
0.0
294
     1
177
     0
142
1.0
295
     0
296
     0
143
0.125
1001
ACAD_MLEADERVER
1070
     2
  0
MLINESTYLE
  5
BF38
102
{ACAD_REACTORS
330
BF37
102
}
330
BF37
100
AcDbMlineStyle
  2
STANDARD
 70
     0
  3

 62
   256
 51
90.0
 52
90.0
 71
     2
 49
0.5
 62
   256
  6
BYLAYER
 49
-0.5
 62
   256
  6
BYLAYER
  0
ACDBPLACEHOLDER
  5
C241
102
{ACAD_REACTORS
330
C240
102
}
330
C240
  0
SCALE
  5
C278
102
{ACAD_REACTORS
330
C277
102
}
330
C277
100
AcDbScale
 70
     0
300
1:1
140
1.0
141
1.0
290
     1
  0
SCALE
  5
C279
102
{ACAD_REACTORS
330
C277
102
}
330
C277
100
AcDbScale
 70
     0
300
1/128" = 1'-0"
140
0.0078125
141
12.0
290
     0
  0
SCALE
  5
C27A
102
{ACAD_REACTORS
330
C277
102
}
330
C277
100
AcDbScale
 70
     0
300
1/64" = 1'-0"
140
0.015625
141
12.0
290
     0
  0
SCALE
  5
C27B
102
{ACAD_REACTORS
330
C277
102
}
330
C277
100
AcDbScale
 70
     0
300
1/32" = 1'-0"
140
0.03125
141
12.0
290
     0
  0
SCALE
  5
C27C
102
{ACAD_REACTORS
330
C277
102
}
330
C277
100
AcDbScale
 70
     0
300
1/16" = 1'-0"
140
0.0625
141
12.0
290
     0
  0
SCALE
  5
C27D
102
{ACAD_REACTORS
330
C277
102
}
330
C277
100
AcDbScale
 70
     0
300
3/32" = 1'-0"
140
0.09375
141
12.0
290
     0
  0
SCALE
  5
C27E
102
{ACAD_REACTORS
330
C277
102
}
330
C277
100
AcDbScale
 70
     0
300
1/8" = 1'-0"
140
0.125
141
12.0
290
     0
  0
SCALE
  5
C27F
102
{ACAD_REACTORS
330
C277
102
}
330
C277
100
AcDbScale
 70
     0
300
3/16" = 1'-0"
140
0.1875
141
12.0
290
     0
  0
SCALE
  5
C280
102
{ACAD_REACTORS
330
C277
102
}
330
C277
100
AcDbScale
 70
     0
300
1/4" = 1'-0"
140
0.25
141
12.0
290
     0
  0
SCALE
  5
C281
102
{ACAD_REACTORS
330
C277
102
}
330
C277
100
AcDbScale
 70
     0
300
3/8" = 1'-0"
140
0.375
141
12.0
290
     0
  0
SCALE
  5
C282
102
{ACAD_REACTORS
330
C277
102
}
330
C277
100
AcDbScale
 70
     0
300
1/2" = 1'-0"
140
0.5
141
12.0
290
     0
  0
SCALE
  5
C283
102
{ACAD_REACTORS
330
C277
102
}
330
C277
100
AcDbScale
 70
     0
300
3/4" = 1'-0"
140
0.75
141
12.0
290
     0
  0
SCALE
  5
C284
102
{ACAD_REACTORS
330
C277
102
}
330
C277
100
AcDbScale
 70
     0
300
1" = 1'-0"
140
1.0
141
12.0
290
     0
  0
SCALE
  5
C285
102
{ACAD_REACTORS
330
C277
102
}
330
C277
100
AcDbScale
 70
     0
300
1-1/2" = 1'-0"
140
1.5
141
12.0
290
     0
  0
SCALE
  5
C286
102
{ACAD_REACTORS
330
C277
102
}
330
C277
100
AcDbScale
 70
     0
300
3" = 1'-0"
140
3.0
141
12.0
290
     0
  0
SCALE
  5
C287
102
{ACAD_REACTORS
330
C277
102
}
330
C277
100
AcDbScale
 70
     0
300
6" = 1'-0"
140
6.0
141
12.0
290
     0
  0
SCALE
  5
C288
102
{ACAD_REACTORS
330
C277
102
}
330
C277
100
AcDbScale
 70
     0
300
1'-0" = 1'-0"
140
12.0
141
12.0
290
     0
  0
ACDBSECTIONVIEWSTYLE
  5
C28C
102
{ACAD_XDICTIONARY
360
C2E7
102
}
102
{ACAD_REACTORS
330
C28B
102
}
330
C28B
100
AcDbModelDocViewStyle
 70
     0
  3
Imperial24
290
     0
100
AcDbSectionViewStyle
 70
     0
 71
     0
 90
       78
 71
     1
340
BF32
 40
0.24
340
0
340
0
 40
0.24
300
I, O, Q, S, X, Z
 40
0.48
 90
        3
 40
0.18
 90
        1
 71
     2
340
BF36
 90
       25
340
BF36
 90
       50
 40
0.24
 40
0.0
 40
0.24
 71
     3
340
BF32
 40
0.24
 90
        1
 40
0.75
 90
        1
300
%<\AcVar ViewType \f "%tc1">% %<\AcVar ViewSectionStartId>%-%<\AcVar ViewSectionEndId>%\PSCALE %<\AcVar ViewScale \f "%sn">%
 71
     4
300
ANSI31
 40
1.0
 90
        0
290
     0
290
     0
 90
        6
 40
0.0
 40
1.570796326794896
 40
0.2617993877991494
 40
1.308996938995747
 40
-0.2617993877991494
 40
1.832595714594046
  0
TABLESTYLE
  5
C276
102
{ACAD_XDICTIONARY
360
C2AE
102
}
102
{ACAD_REACTORS
330
C275
102
}
330
C275
100
AcDbTableStyle
  3
Standard
 70
     0
 71
     0
 40
0.06
 41
0.06
280
     0
281
     0
  7
STANDARD
140
0.18
170
     2
 62
     0
 63
     7
283
     0
274
    -2
284
     1
 64
     0
275
    -2
285
     1
 65
     0
276
    -2
286
     1
 66
     0
277
    -2
287
     1
 67
     0
278
    -2
288
     1
 68
     0
279
    -2
289
     1
 69
     0
  7
STANDARD
140
0.25
170
     5
 62
     0
 63
     7
283
     0
274
    -2
284
     1
 64
     0
275
    -2
285
     1
 65
     0
276
    -2
286
     1
 66
     0
277
    -2
287
     1
 67
     0
278
    -2
288
     1
 68
     0
279
    -2
289
     1
 69
     0
  7
STANDARD
140
0.18
170
     5
 62
     0
 63
     7
283
     0
274
    -2
284
     1
 64
     0
275
    -2
285
     1
 65
     0
276
    -2
286
     1
 66
     0
277
    -2
287
     1
 67
     0
278
    -2
288
     1
 68
     0
279
    -2
289
     1
 69
     0
  0
VISUALSTYLE
  5
C261
102
{ACAD_XDICTIONARY
360
C2BF
102
}
102
{ACAD_REACTORS
330
C25B
102
}
330
C25B
100
AcDbVisualStyle
  2
2dWireframe
 70
     4
 71
     0
 72
     2
 73
     0
 90
        0
 40
-0.6
 41
-30.0
 62
     5
 63
     7
 74
     1
 91
        4
 64
     7
 65
   257
 75
     1
175
     1
 42
1.0
 92
        0
 66
   257
 43
1.0
 76
     1
 77
     6
 78
     2
 67
     7
 79
     5
170
     0
171
     0
290
     0
174
     0
 93
        1
 44
0.0
173
     0
291
     0
 45
0.0
1001
ACAD
1000
AcDbSavedByObjectVersion
1070
     0
  0
VISUALSTYLE
  5
C260
102
{ACAD_XDICTIONARY
360
C2BD
102
}
102
{ACAD_REACTORS
330
C25B
102
}
330
C25B
100
AcDbVisualStyle
  2
Basic
 70
     7
 71
     1
 72
     0
 73
     1
 90
        0
 40
-0.6
 41
-30.0
 62
     5
 63
     7
 74
     0
 91
        4
 64
     7
 65
   257
 75
     1
175
     1
 42
1.0
 92
        8
 66
     7
 43
1.0
 76
     1
 77
     6
 78
     2
 67
     7
 79
     5
170
     0
171
     0
290
     0
174
     0
 93
        1
 44
0.0
173
     0
291
     1
 45
0.0
1001
ACAD
1000
AcDbSavedByObjectVersion
1070
     0
  0
VISUALSTYLE
  5
C267
102
{ACAD_XDICTIONARY
360
C2CB
102
}
102
{ACAD_REACTORS
330
C25B
102
}
330
C25B
100
AcDbVisualStyle
  2
Brighten
 70
    12
 71
     2
 72
     2
 73
     0
 90
        0
 40
-0.6
 41
-30.0
 62
     5
 63
     7
 74
     1
 91
        4
 64
     7
 65
   257
 75
     1
175
     1
 42
1.0
 92
        8
 66
     7
 43
1.0
 76
     1
 77
     6
 78
     2
 67
     7
 79
     5
170
     0
171
     0
290
     0
174
     0
 93
        1
 44
50.0
173
     0
291
     1
 45
0.0
1001
ACAD
1000
AcDbSavedByObjectVersion
1070
     0
  0
VISUALSTYLE
  5
C26B
102
{ACAD_XDICTIONARY
360
C2D3
102
}
102
{ACAD_REACTORS
330
C25B
102
}
330
C25B
100
AcDbVisualStyle
  2
ColorChange
 70
    16
 71
     2
 72
     2
 73
     3
 90
        0
 40
-0.6
 41
-30.0
 62
     5
 63
     8
 74
     1
 91
        4
 64
     7
 65
   257
 75
     1
175
     1
 42
1.0
 92
        8
 66
     8
 43
1.0
 76
     1
 77
     6
 78
     2
 67
     7
 79
     5
170
     0
171
     0
290
     0
174
     0
 93
        1
 44
0.0
173
     0
291
     1
 45
0.0
1001
ACAD
1000
AcDbSavedByObjectVersion
1070
     0
  0
VISUALSTYLE
  5
C264
102
{ACAD_XDICTIONARY
360
C2C5
102
}
102
{ACAD_REACTORS
330
C25B
102
}
330
C25B
100
AcDbVisualStyle
  2
Conceptual
 70
     9
 71
     3
 72
     2
 73
     0
 90
        0
 40
-0.6
 41
-30.0
 62
     5
 63
     7
 74
     2
 91
        2
 64
     7
 65
   257
 75
     1
175
     1
 42
179.0
 92
        8
 66
     7
 43
1.0
 76
     1
 77
     6
 78
     2
 67
     7
 79
     3
170
     0
171
     0
290
     0
174
     0
 93
        1
 44
0.0
173
     0
291
     0
 45
0.0
1001
ACAD
1000
AcDbSavedByObjectVersion
1070
     0
  0
VISUALSTYLE
  5
C266
102
{ACAD_XDICTIONARY
360
C2C9
102
}
102
{ACAD_REACTORS
330
C25B
102
}
330
C25B
100
AcDbVisualStyle
  2
Dim
 70
    11
 71
     2
 72
     2
 73
     0
 90
        0
 40
-0.6
 41
-30.0
 62
     5
 63
     7
 74
     1
 91
        4
 64
     7
 65
   257
 75
     1
175
     1
 42
1.0
 92
        8
 66
     7
 43
1.0
 76
     1
 77
     6
 78
     2
 67
     7
 79
     5
170
     0
171
     0
290
     0
174
     0
 93
        1
 44
-50.0
173
     0
291
     1
 45
0.0
1001
ACAD
1000
AcDbSavedByObjectVersion
1070
     0
  0
VISUALSTYLE
  5
C273
102
{ACAD_XDICTIONARY
360
C2E3
102
}
102
{ACAD_REACTORS
330
C25B
102
}
330
C25B
100
AcDbVisualStyle
  2
EdgeColorOff
 70
    22
 71
     2
 72
     2
 73
     0
 90
        0
 40
-0.6
 41
-30.0
 62
     5
 63
     7
 74
     1
 91
        4
 64
     7
 65
   257
 75
     1
175
     1
 42
1.0
 92
        8
 66
     7
 43
1.0
 76
     1
 77
     6
 78
     2
 67
     7
 79
     5
170
     0
171
     0
290
     0
174
     0
 93
        1
 44
0.0
173
     0
291
     1
 45
0.0
1001
ACAD
1000
AcDbSavedByObjectVersion
1070
     0
  0
VISUALSTYLE
  5
C26A
102
{ACAD_XDICTIONARY
360
C2D1
102
}
102
{ACAD_REACTORS
330
C25B
102
}
330
C25B
100
AcDbVisualStyle
  2
Facepattern
 70
    15
 71
     2
 72
     2
 73
     0
 90
        0
 40
-0.6
 41
-30.0
 62
     5
 63
     7
 74
     1
 91
        4
 64
     7
 65
   257
 75
     1
175
     1
 42
1.0
 92
        8
 66
     7
 43
1.0
 76
     1
 77
     6
 78
     2
 67
     7
 79
     5
170
     0
171
     0
290
     0
174
     0
 93
        1
 44
0.0
173
     0
291
     1
 45
0.0
1001
ACAD
1000
AcDbSavedByObjectVersion
1070
     0
  0
VISUALSTYLE
  5
C25C
102
{ACAD_XDICTIONARY
360
C2B5
102
}
102
{ACAD_REACTORS
330
C25B
102
}
330
C25B
100
AcDbVisualStyle
  2
Flat
 70
     0
 71
     2
 72
     1
 73
     1
 90
        2
 40
-0.6
 41
30.0
 62
     5
 63
     7
 74
     0
 91
        0
 64
     7
 65
   257
 75
     1
175
     1
 42
1.0
 92
        8
 66
     7
 43
1.0
 76
     1
 77
     6
 78
     2
 67
     7
 79
     5
170
     0
171
     0
290
     0
174
     0
 93
       13
 44
0.0
173
     0
291
     1
 45
0.0
1001
ACAD
1000
AcDbSavedByObjectVersion
1070
     0
  0
VISUALSTYLE
  5
C25D
102
{ACAD_XDICTIONARY
360
C2B7
102
}
102
{ACAD_REACTORS
330
C25B
102
}
330
C25B
100
AcDbVisualStyle
  2
FlatWithEdges
 70
     1
 71
     2
 72
     1
 73
     1
 90
        2
 40
-0.6
 41
30.0
 62
     5
 63
     7
 74
     1
 91
        0
 64
     7
 65
   257
 75
     1
175
     1
 42
1.0
 92
        0
 66
   257
 43
1.0
 76
     1
 77
     6
 78
     2
 67
     7
 79
     5
170
     0
171
     0
290
     0
174
     0
 93
       13
 44
0.0
173
     0
291
     1
 45
0.0
1001
ACAD
1000
AcDbSavedByObjectVersion
1070
     0
  0
VISUALSTYLE
  5
C25E
102
{ACAD_XDICTIONARY
360
C2B9
102
}
102
{ACAD_REACTORS
330
C25B
102
}
330
C25B
100
AcDbVisualStyle
  2
Gouraud
 70
     2
 71
     2
 72
     2
 73
     1
 90
        2
 40
-0.6
 41
30.0
 62
     5
 63
     7
 74
     0
 91
        0
 64
     7
 65
   257
 75
     1
175
     1
 42
1.0
 92
        0
 66
     7
 43
1.0
 76
     1
 77
     6
 78
     2
 67
     7
 79
     5
170
     0
171
     0
290
     0
174
     0
 93
       13
 44
0.0
173
     0
291
     1
 45
0.0
1001
ACAD
1000
AcDbSavedByObjectVersion
1070
     0
  0
VISUALSTYLE
  5
C25F
102
{ACAD_XDICTIONARY
360
C2BB
102
}
102
{ACAD_REACTORS
330
C25B
102
}
330
C25B
100
AcDbVisualStyle
  2
GouraudWithEdges
 70
     3
 71
     2
 72
     2
 73
     1
 90
        2
 40
-0.6
 41
30.0
 62
     5
 63
     7
 74
     1
 91
        0
 64
     7
 65
   257
 75
     1
175
     1
 42
1.0
 92
        0
 66
   257
 43
1.0
 76
     1
 77
     6
 78
     2
 67
     7
 79
     5
170
     0
171
     0
290
     0
174
     0
 93
       13
 44
0.0
173
     0
291
     1
 45
0.0
1001
ACAD
1000
AcDbSavedByObjectVersion
1070
     0
  0
VISUALSTYLE
  5
C263
102
{ACAD_XDICTIONARY
360
C2C3
102
}
102
{ACAD_REACTORS
330
C25B
102
}
330
C25B
100
AcDbVisualStyle
  2
Hidden
 70
     6
 71
     1
 72
     2
 73
     2
 90
        0
 40
-0.6
 41
-30.0
 62
     5
 63
     7
 74
     2
 91
        2
 64
     7
 65
   257
 75
     2
175
     1
 42
40.0
 92
        0
 66
   257
 43
1.0
 76
     1
 77
     6
 78
     2
 67
     7
 79
     3
170
     0
171
     0
290
     0
174
     0
 93
        1
 44
0.0
173
     0
291
     0
 45
0.0
1001
ACAD
1000
AcDbSavedByObjectVersion
1070
     0
  0
VISUALSTYLE
  5
C271
102
{ACAD_XDICTIONARY
360
C2DF
102
}
102
{ACAD_REACTORS
330
C25B
102
}
330
C25B
100
AcDbVisualStyle
  2
JitterOff
 70
    20
 71
     2
 72
     2
 73
     0
 90
        0
 40
-0.6
 41
-30.0
 62
     5
 63
     7
 74
     1
 91
        4
 64
     7
 65
   257
 75
     1
175
     1
 42
1.0
 92
       10
 66
     7
 43
1.0
 76
     1
 77
     6
 78
     2
 67
     7
 79
     5
170
     0
171
     0
290
     0
174
     0
 93
        1
 44
0.0
173
     0
291
     1
 45
0.0
1001
ACAD
1000
AcDbSavedByObjectVersion
1070
     0
  0
VISUALSTYLE
  5
C269
102
{ACAD_XDICTIONARY
360
C2CF
102
}
102
{ACAD_REACTORS
330
C25B
102
}
330
C25B
100
AcDbVisualStyle
  2
Linepattern
 70
    14
 71
     2
 72
     2
 73
     0
 90
        0
 40
-0.6
 41
-30.0
 62
     5
 63
     7
 74
     1
 91
        4
 64
     7
 65
   257
 75
     7
175
     7
 42
1.0
 92
        8
 66
     7
 43
1.0
 76
     1
 77
     6
 78
     2
 67
     7
 79
     5
170
     0
171
     0
290
     0
174
     0
 93
        1
 44
0.0
173
     0
291
     1
 45
0.0
1001
ACAD
1000
AcDbSavedByObjectVersion
1070
     0
  0
VISUALSTYLE
  5
C272
102
{ACAD_XDICTIONARY
360
C2E1
102
}
102
{ACAD_REACTORS
330
C25B
102
}
330
C25B
100
AcDbVisualStyle
  2
OverhangOff
 70
    21
 71
     2
 72
     2
 73
     0
 90
        0
 40
-0.6
 41
-30.0
 62
     5
 63
     7
 74
     1
 91
        4
 64
     7
 65
   257
 75
     1
175
     1
 42
1.0
 92
        9
 66
     7
 43
1.0
 76
     1
 77
     6
 78
     2
 67
     7
 79
     5
170
     0
171
     0
290
     0
174
     0
 93
        1
 44
0.0
173
     0
291
     1
 45
0.0
1001
ACAD
1000
AcDbSavedByObjectVersion
1070
     0
  0
VISUALSTYLE
  5
C265
102
{ACAD_XDICTIONARY
360
C2C7
102
}
102
{ACAD_REACTORS
330
C25B
102
}
330
C25B
100
AcDbVisualStyle
  2
Realistic
 70
     8
 71
     2
 72
     3
 73
     0
 90
        2
 40
-0.6
 41
30.0
 62
     5
 63
     7
 74
     0
 91
        0
 64
     7
 65
   257
 75
     1
175
     1
 42
1.0
 92
        8
 66
   257
 43
1.0
 76
     1
 77
     6
 78
     2
 67
     7
 79
     3
170
     0
171
     0
290
     0
174
     0
 93
       13
 44
0.0
173
     0
291
     0
 45
0.0
1001
ACAD
1000
AcDbSavedByObjectVersion
1070
     0
  0
VISUALSTYLE
  5
C270
102
{ACAD_XDICTIONARY
360
C2DD
102
}
102
{ACAD_REACTORS
330
C25B
102
}
330
C25B
100
AcDbVisualStyle
  2
Shaded
 70
    27
 71
     2
 72
     2
 73
     1
 90
        2
 40
-0.6
 41
30.0
 62
     5
 63
     7
 74
     0
 91
        4
 64
     7
 65
   257
 75
     1
175
     1
 42
1.0
 92
        8
 66
   257
 43
1.0
 76
     1
 77
     6
 78
     2
 67
     8
 79
     3
170
     0
171
     0
290
     0
174
     0
 93
        5
 44
0.0
173
     0
291
     0
 45
0.0
1001
ACAD
1000
AcDbSavedByObjectVersion
1070
     0
  0
VISUALSTYLE
  5
C26F
102
{ACAD_XDICTIONARY
360
C2DB
102
}
102
{ACAD_REACTORS
330
C25B
102
}
330
C25B
100
AcDbVisualStyle
  2
Shaded with edges
 70
    26
 71
     2
 72
     2
 73
     1
 90
        2
 40
-0.6
 41
30.0
 62
     5
 63
     7
 74
     1
 91
       10
 64
     7
 65
   257
 75
     2
175
     1
 42
1.0
 92
        8
 66
   257
 43
1.0
 76
     1
 77
     6
 78
     2
 67
     7
 79
     3
170
     0
171
     0
290
     0
174
     0
 93
        5
 44
0.0
173
     0
291
     0
 45
0.0
1001
ACAD
1000
AcDbSavedByObjectVersion
1070
     0
  0
VISUALSTYLE
  5
C26C
102
{ACAD_XDICTIONARY
360
C2D5
102
}
102
{ACAD_REACTORS
330
C25B
102
}
330
C25B
100
AcDbVisualStyle
  2
Shades of Gray
 70
    23
 71
     2
 72
     2
 73
     3
 90
        0
 40
-0.6
 41
-30.0
 62
     5
 63
     7
 74
     2
 91
        2
 64
     7
 65
     7
 75
     1
175
     1
 42
40.0
 92
        8
 66
     7
 43
1.0
 76
     1
 77
     6
 78
     2
 67
     7
 79
     3
170
     0
171
     0
290
     0
174
     0
 93
        1
 44
0.0
173
     0
291
     0
 45
0.0
1001
ACAD
1000
AcDbSavedByObjectVersion
1070
     0
  0
VISUALSTYLE
  5
C26D
102
{ACAD_XDICTIONARY
360
C2D7
102
}
102
{ACAD_REACTORS
330
C25B
102
}
330
C25B
100
AcDbVisualStyle
  2
Sketchy
 70
    24
 71
     1
 72
     2
 73
     2
 90
        0
 40
-0.6
 41
-30.0
 62
     5
 63
     7
 74
     2
 91
        2
 64
     7
 65
     7
 75
     1
175
     1
 42
40.0
 92
       11
 66
     7
 43
1.0
 76
     1
 77
     6
 78
     2
 67
     7
 79
     6
170
     0
171
     0
290
     0
174
     0
 93
        1
 44
0.0
173
     0
291
     0
 45
0.0
1001
ACAD
1000
AcDbSavedByObjectVersion
1070
     0
  0
VISUALSTYLE
  5
C268
102
{ACAD_XDICTIONARY
360
C2CD
102
}
102
{ACAD_REACTORS
330
C25B
102
}
330
C25B
100
AcDbVisualStyle
  2
Thicken
 70
    13
 71
     2
 72
     2
 73
     0
 90
        0
 40
-0.6
 41
-30.0
 62
     5
 63
     7
 74
     1
 91
        4
 64
     7
 65
   257
 75
     1
175
     1
 42
1.0
 92
       12
 66
     7
 43
1.0
 76
     1
 77
     6
 78
     2
 67
     7
 79
     5
170
     0
171
     0
290
     0
174
     0
 93
        1
 44
0.0
173
     0
291
     1
 45
0.0
1001
ACAD
1000
AcDbSavedByObjectVersion
1070
     0
  0
VISUALSTYLE
  5
C262
102
{ACAD_XDICTIONARY
360
C2C1
102
}
102
{ACAD_REACTORS
330
C25B
102
}
330
C25B
100
AcDbVisualStyle
  2
Wireframe
 70
     5
 71
     0
 72
     2
 73
     0
 90
        0
 40
-0.6
 41
-30.0
 62
     5
 63
     7
 74
     1
 91
        4
 64
     7
 65
   257
 75
     1
175
     1
 42
1.0
 92
        0
 66
   257
 43
1.0
 76
     1
 77
     6
 78
     2
 67
     7
 79
     3
170
     0
171
     0
290
     0
174
     0
 93
        1
 44
0.0
173
     0
291
     0
 45
0.0
1001
ACAD
1000
AcDbSavedByObjectVersion
1070
     0
  0
VISUALSTYLE
  5
C26E
102
{ACAD_XDICTIONARY
360
C2D9
102
}
102
{ACAD_REACTORS
330
C25B
102
}
330
C25B
100
AcDbVisualStyle
  2
X-Ray
 70
    25
 71
     2
 72
     2
 73
     1
 90
        1
 40
0.5
 41
-30.0
 62
     5
 63
     7
 74
     1
 91
        0
 64
     7
 65
   257
 75
     1
175
     1
 42
1.0
 92
        8
 66
     7
 43
1.0
 76
     1
 77
     6
 78
     2
 67
     7
 79
     3
170
     0
171
     0
290
     0
174
     0
 93
       13
 44
0.0
173
     0
291
     0
 45
0.0
1001
ACAD
1000
AcDbSavedByObjectVersion
1070
     0
  0
DICTIONARYVAR
  5
C2A8
102
{ACAD_REACTORS
330
C2A3
102
}
330
C2A3
100
DictionaryVariables
280
     0
  1
1:1
  0
DICTIONARYVAR
  5
C2A5
102
{ACAD_REACTORS
330
C2A3
102
}
330
C2A3
100
DictionaryVariables
280
     0
  1
STANDARD
  0
DICTIONARYVAR
  5
C2A4
102
{ACAD_REACTORS
330
C2A3
102
}
330
C2A3
100
DictionaryVariables
280
     0
  1
STANDARD
  0
DICTIONARYVAR
  5
C2A6
102
{ACAD_REACTORS
330
C2A3
102
}
330
C2A3
100
DictionaryVariables
280
     0
  1
Imperial24
  0
DICTIONARYVAR
  5
C2A7
102
{ACAD_REACTORS
330
C2A3
102
}
330
C2A3
100
DictionaryVariables
280
     0
  1
Imperial24
  0
DICTIONARYVAR
  5
C2AB
102
{ACAD_REACTORS
330
C2A3
102
}
330
C2A3
100
DictionaryVariables
280
     0
  1
1
  0
DICTIONARYVAR
  5
C2AA
102
{ACAD_REACTORS
330
C2A3
102
}
330
C2A3
100
DictionaryVariables
280
     0
  1
0
  0
DICTIONARYVAR
  5
C2A9
102
{ACAD_REACTORS
330
C2A3
102
}
330
C2A3
100
DictionaryVariables
280
     0
  1
127
  0
DICTIONARYVAR
  5
C2AC
102
{ACAD_REACTORS
330
C2A3
102
}
330
C2A3
100
DictionaryVariables
280
     0
  1
2
  0
DICTIONARY
  5
C2E9
330
C28E
100
AcDbDictionary
280
     1
281
     1
  3
ACAD_XREC_ROUNDTRIP
360
C2EA
  0
DICTIONARY
  5
C2EB
330
C28F
100
AcDbDictionary
280
     1
281
     1
  3
ACAD_XREC_ROUNDTRIP
360
C2EC
  0
DICTIONARY
  5
C2ED
330
C290
100
AcDbDictionary
280
     1
281
     1
  3
ACAD_XREC_ROUNDTRIP
360
C2EE
  0
DICTIONARY
  5
C24C
330
C24B
100
AcDbDictionary
280
     1
281
     1
  3
ACAD_XREC_ROUNDTRIP
360
C2B3
  3
BUMPTILE
360
C24E
  3
DIFFUSETILE
360
C24D
  3
OPACITYTILE
360
C251
  3
REFLECTIONTILE
360
C250
  3
REFRACTIONTILE
360
C252
  3
SPECULARTILE
360
C24F
  0
DICTIONARY
  5
C244
330
C243
100
AcDbDictionary
280
     1
281
     1
  3
ACAD_XREC_ROUNDTRIP
360
C2B2
  3
BUMPTILE
360
C246
  3
DIFFUSETILE
360
C245
  3
OPACITYTILE
360
C249
  3
REFLECTIONTILE
360
C248
  3
REFRACTIONTILE
360
C24A
  3
SPECULARTILE
360
C247
  0
DICTIONARY
  5
C254
330
C253
100
AcDbDictionary
280
     1
281
     1
  3
ACAD_XREC_ROUNDTRIP
360
C2B4
  3
BUMPTILE
360
C256
  3
DIFFUSETILE
360
C255
  3
OPACITYTILE
360
C259
  3
REFLECTIONTILE
360
C258
  3
REFRACTIONTILE
360
C25A
  3
SPECULARTILE
360
C257
  0
DICTIONARY
  5
C2E7
330
C28C
100
AcDbDictionary
280
     1
281
     1
  3
ACAD_XREC_ROUNDTRIP
360
C2E8
  0
DICTIONARY
  5
C2AE
330
C276
100
AcDbDictionary
280
     1
281
     1
  3
ACAD_ROUNDTRIP_2008_TABLESTYLE_CELLSTYLEMAP
360
C2AF
  3
ACAD_XREC_ROUNDTRIP
360
C2E5
  0
DICTIONARY
  5
C2BF
330
C261
100
AcDbDictionary
280
     1
281
     1
  3
ACAD_XREC_ROUNDTRIP
360
C2C0
  0
DICTIONARY
  5
C2BD
330
C260
100
AcDbDictionary
280
     1
281
     1
  3
ACAD_XREC_ROUNDTRIP
360
C2BE
  0
DICTIONARY
  5
C2CB
330
C267
100
AcDbDictionary
280
     1
281
     1
  3
ACAD_XREC_ROUNDTRIP
360
C2CC
  0
DICTIONARY
  5
C2D3
330
C26B
100
AcDbDictionary
280
     1
281
     1
  3
ACAD_XREC_ROUNDTRIP
360
C2D4
  0
DICTIONARY
  5
C2C5
330
C264
100
AcDbDictionary
280
     1
281
     1
  3
ACAD_XREC_ROUNDTRIP
360
C2C6
  0
DICTIONARY
  5
C2C9
330
C266
100
AcDbDictionary
280
     1
281
     1
  3
ACAD_XREC_ROUNDTRIP
360
C2CA
  0
DICTIONARY
  5
C2E3
330
C273
100
AcDbDictionary
280
     1
281
     1
  3
ACAD_XREC_ROUNDTRIP
360
C2E4
  0
DICTIONARY
  5
C2D1
330
C26A
100
AcDbDictionary
280
     1
281
     1
  3
ACAD_XREC_ROUNDTRIP
360
C2D2
  0
DICTIONARY
  5
C2B5
330
C25C
100
AcDbDictionary
280
     1
281
     1
  3
ACAD_XREC_ROUNDTRIP
360
C2B6
  0
DICTIONARY
  5
C2B7
330
C25D
100
AcDbDictionary
280
     1
281
     1
  3
ACAD_XREC_ROUNDTRIP
360
C2B8
  0
DICTIONARY
  5
C2B9
330
C25E
100
AcDbDictionary
280
     1
281
     1
  3
ACAD_XREC_ROUNDTRIP
360
C2BA
  0
DICTIONARY
  5
C2BB
330
C25F
100
AcDbDictionary
280
     1
281
     1
  3
ACAD_XREC_ROUNDTRIP
360
C2BC
  0
DICTIONARY
  5
C2C3
330
C263
100
AcDbDictionary
280
     1
281
     1
  3
ACAD_XREC_ROUNDTRIP
360
C2C4
  0
DICTIONARY
  5
C2DF
330
C271
100
AcDbDictionary
280
     1
281
     1
  3
ACAD_XREC_ROUNDTRIP
360
C2E0
  0
DICTIONARY
  5
C2CF
330
C269
100
AcDbDictionary
280
     1
281
     1
  3
ACAD_XREC_ROUNDTRIP
360
C2D0
  0
DICTIONARY
  5
C2E1
330
C272
100
AcDbDictionary
280
     1
281
     1
  3
ACAD_XREC_ROUNDTRIP
360
C2E2
  0
DICTIONARY
  5
C2C7
330
C265
100
AcDbDictionary
280
     1
281
     1
  3
ACAD_XREC_ROUNDTRIP
360
C2C8
  0
DICTIONARY
  5
C2DD
330
C270
100
AcDbDictionary
280
     1
281
     1
  3
ACAD_XREC_ROUNDTRIP
360
C2DE
  0
DICTIONARY
  5
C2DB
330
C26F
100
AcDbDictionary
280
     1
281
     1
  3
ACAD_XREC_ROUNDTRIP
360
C2DC
  0
DICTIONARY
  5
C2D5
330
C26C
100
AcDbDictionary
280
     1
281
     1
  3
ACAD_XREC_ROUNDTRIP
360
C2D6
  0
DICTIONARY
  5
C2D7
330
C26D
100
AcDbDictionary
280
     1
281
     1
  3
ACAD_XREC_ROUNDTRIP
360
C2D8
  0
DICTIONARY
  5
C2CD
330
C268
100
AcDbDictionary
280
     1
281
     1
  3
ACAD_XREC_ROUNDTRIP
360
C2CE
  0
DICTIONARY
  5
C2C1
330
C262
100
AcDbDictionary
280
     1
281
     1
  3
ACAD_XREC_ROUNDTRIP
360
C2C2
  0
DICTIONARY
  5
C2D9
330
C26E
100
AcDbDictionary
280
     1
281
     1
  3
ACAD_XREC_ROUNDTRIP
360
C2DA
  0
XRECORD
  5
C2EA
102
{ACAD_REACTORS
330
C2E9
102
}
330
C2E9
100
AcDbXrecord
280
     1
102
DISPLAYNAME
  1
Imperial24
102
FLAGS
 90
        0
  0
XRECORD
  5
C2EC
102
{ACAD_REACTORS
330
C2EB
102
}
330
C2EB
100
AcDbXrecord
280
     1
102
SHADEPLOT
 70
     0
102
SHADEPLOTRESLEVEL
 70
     2
102
SHADEPLOTCUSTOMDPI
 70
   300
  0
XRECORD
  5
C2EE
102
{ACAD_REACTORS
330
C2ED
102
}
330
C2ED
100
AcDbXrecord
280
     1
102
SHADEPLOT
 70
     0
102
SHADEPLOTRESLEVEL
 70
     2
102
SHADEPLOTCUSTOMDPI
 70
   300
  0
XRECORD
  5
C2B3
102
{ACAD_REACTORS
330
C24C
102
}
330
C24C
100
AcDbXrecord
280
     1
102
MATERIAL
148
0.0
149
0.0
149
0.0
 93
        0
 94
      127
282
     0
 72
     0
 77
     0
171
     0
175
     0
179
     0
273
     0
  0
XRECORD
  5
C24E
102
{ACAD_REACTORS
330
C24C
102
}
330
C24C
100
AcDbXrecord
280
     1
270
     1
271
     1
  0
XRECORD
  5
C24D
102
{ACAD_REACTORS
330
C24C
102
}
330
C24C
100
AcDbXrecord
280
     1
270
     1
271
     1
  0
XRECORD
  5
C251
102
{ACAD_REACTORS
330
C24C
102
}
330
C24C
100
AcDbXrecord
280
     1
270
     1
271
     1
  0
XRECORD
  5
C250
102
{ACAD_REACTORS
330
C24C
102
}
330
C24C
100
AcDbXrecord
280
     1
270
     1
271
     1
  0
XRECORD
  5
C252
102
{ACAD_REACTORS
330
C24C
102
}
330
C24C
100
AcDbXrecord
280
     1
270
     1
271
     1
  0
XRECORD
  5
C24F
102
{ACAD_REACTORS
330
C24C
102
}
330
C24C
100
AcDbXrecord
280
     1
270
     1
271
     1
  0
XRECORD
  5
C2B2
102
{ACAD_REACTORS
330
C244
102
}
330
C244
100
AcDbXrecord
280
     1
102
MATERIAL
148
0.0
149
0.0
149
0.0
 93
        0
 94
      127
282
     0
 72
     0
 77
     0
171
     0
175
     0
179
     0
273
     0
  0
XRECORD
  5
C246
102
{ACAD_REACTORS
330
C244
102
}
330
C244
100
AcDbXrecord
280
     1
270
     1
271
     1
  0
XRECORD
  5
C245
102
{ACAD_REACTORS
330
C244
102
}
330
C244
100
AcDbXrecord
280
     1
270
     1
271
     1
  0
XRECORD
  5
C249
102
{ACAD_REACTORS
330
C244
102
}
330
C244
100
AcDbXrecord
280
     1
270
     1
271
     1
  0
XRECORD
  5
C248
102
{ACAD_REACTORS
330
C244
102
}
330
C244
100
AcDbXrecord
280
     1
270
     1
271
     1
  0
XRECORD
  5
C24A
102
{ACAD_REACTORS
330
C244
102
}
330
C244
100
AcDbXrecord
280
     1
270
     1
271
     1
  0
XRECORD
  5
C247
102
{ACAD_REACTORS
330
C244
102
}
330
C244
100
AcDbXrecord
280
     1
270
     1
271
     1
  0
XRECORD
  5
C2B4
102
{ACAD_REACTORS
330
C254
102
}
330
C254
100
AcDbXrecord
280
     1
102
MATERIAL
148
0.0
149
0.0
149
0.0
 93
        0
 94
      127
282
     0
 72
     0
 77
     0
171
     0
175
     0
179
     0
273
     0
  0
XRECORD
  5
C256
102
{ACAD_REACTORS
330
C254
102
}
330
C254
100
AcDbXrecord
280
     1
270
     1
271
     1
  0
XRECORD
  5
C255
102
{ACAD_REACTORS
330
C254
102
}
330
C254
100
AcDbXrecord
280
     1
270
     1
271
     1
  0
XRECORD
  5
C259
102
{ACAD_REACTORS
330
C254
102
}
330
C254
100
AcDbXrecord
280
     1
270
     1
271
     1
  0
XRECORD
  5
C258
102
{ACAD_REACTORS
330
C254
102
}
330
C254
100
AcDbXrecord
280
     1
270
     1
271
     1
  0
XRECORD
  5
C25A
102
{ACAD_REACTORS
330
C254
102
}
330
C254
100
AcDbXrecord
280
     1
270
     1
271
     1
  0
XRECORD
  5
C257
102
{ACAD_REACTORS
330
C254
102
}
330
C254
100
AcDbXrecord
280
     1
270
     1
271
     1
  0
XRECORD
  5
C2E8
102
{ACAD_REACTORS
330
C2E7
102
}
330
C2E7
100
AcDbXrecord
280
     1
102
DISPLAYNAME
  1
Imperial24
102
FLAGS
 90
        0
  0
CELLSTYLEMAP
  5
C2AF
102
{ACAD_REACTORS
330
C2AE
102
}
330
C2AE
100
AcDbCellStyleMap
 90
        3
300
CELLSTYLE
  1
TABLEFORMAT_BEGIN
 90
        5
170
     1
 91
        0
 92
    32768
 62
   257
 93
        1
300
CONTENTFORMAT
  1
CONTENTFORMAT_BEGIN
 90
        0
 91
        0
 92
      512
 93
        0
300

 40
0.0
140
1.0
 94
        5
 62
     0
340
BF32
144
0.25
309
CONTENTFORMAT_END
171
     0
 94
        0
309
TABLEFORMAT_END
  1
CELLSTYLE_BEGIN
 90
        1
 91
        1
300
_TITLE
309
CELLSTYLE_END
300
CELLSTYLE
  1
TABLEFORMAT_BEGIN
 90
        5
170
     1
 91
        0
 92
        0
 62
   257
 93
        1
300
CONTENTFORMAT
  1
CONTENTFORMAT_BEGIN
 90
        0
 91
        0
 92
      512
 93
        0
300

 40
0.0
140
1.0
 94
        5
 62
     0
340
BF32
144
0.18
309
CONTENTFORMAT_END
171
     0
 94
        0
309
TABLEFORMAT_END
  1
CELLSTYLE_BEGIN
 90
        2
 91
        1
300
_HEADER
309
CELLSTYLE_END
300
CELLSTYLE
  1
TABLEFORMAT_BEGIN
 90
        5
170
     1
 91
        0
 92
        0
 62
   257
 93
        1
300
CONTENTFORMAT
  1
CONTENTFORMAT_BEGIN
 90
        0
 91
        0
 92
      512
 93
        0
300

 40
0.0
140
1.0
 94
        2
 62
     0
340
BF32
144
0.18
309
CONTENTFORMAT_END
171
     0
 94
        0
309
TABLEFORMAT_END
  1
CELLSTYLE_BEGIN
 90
        3
 91
        2
300
_DATA
309
CELLSTYLE_END
  0
XRECORD
  5
C2E5
102
{ACAD_REACTORS
330
C2AE
102
}
330
C2AE
100
AcDbXrecord
280
     1
102
ACAD_ROUNDTRIP_PRE2007_TABLESTYLE
 90
      512
 91
        0
  1

 92
      512
 93
        0
  2

 94
      512
 95
        0
  3

  0
XRECORD
  5
C2C0
102
{ACAD_REACTORS
330
C2BF
102
}
330
C2BF
100
AcDbXrecord
280
     1
102
RTVSPost2010Prop28
280
     1
102
RTVSPost2010PropOp28
 70
     1
102
RTVSPost2010Prop29
280
     1
102
RTVSPost2010PropOp29
 70
     1
102
RTVSPost2010Prop30
280
     0
102
RTVSPost2010PropOp30
 70
     1
102
RTVSPost2010Prop31
280
     0
102
RTVSPost2010PropOp31
 70
     1
102
RTVSPost2010Prop32
280
     0
102
RTVSPost2010PropOp32
 70
     1
102
RTVSPost2010Prop33
280
     0
102
RTVSPost2010PropOp33
 70
     1
102
RTVSPost2010Prop34
280
     0
102
RTVSPost2010PropOp34
 70
     1
102
RTVSPost2010Prop35
280
     0
102
RTVSPost2010PropOp35
 70
     1
102
RTVSPost2010Prop36
280
     0
102
RTVSPost2010PropOp36
 70
     1
102
RTVSPost2010Prop37
 90
       50
102
RTVSPost2010PropOp37
 70
     1
102
RTVSPost2010Prop38
140
0.0
102
RTVSPost2010PropOp38
 70
     1
102
RTVSPost2010Prop39
140
1.0
102
RTVSPost2010PropOp39
 70
     1
102
RTVSPost2010Prop40
 90
        0
102
RTVSPost2010PropOp40
 70
     1
102
RTVSPost2010Prop41ColorIndex
 90
       18
102
RTVSPost2010Prop41ColorRGB
 90
        0
102
RTVSPost2010PropOp41
 70
     1
102
RTVSPost2010Prop42
 90
       50
102
RTVSPost2010PropOp42
 70
     1
102
RTVSPost2010Prop43
 90
        3
102
RTVSPost2010PropOp43
 70
     1
102
RTVSPost2010Prop44ColorIndex
 90
        5
102
RTVSPost2010Prop44ColorRGB
 90
      255
102
RTVSPost2010PropOp44
 70
     1
102
RTVSPost2010Prop45
280
     0
102
RTVSPost2010PropOp45
 70
     1
102
RTVSPost2010Prop46
 90
       50
102
RTVSPost2010PropOp46
 70
     1
102
RTVSPost2010Prop47
 90
       50
102
RTVSPost2010PropOp47
 70
     1
102
RTVSPost2010Prop48
 90
       50
102
RTVSPost2010PropOp48
 70
     1
102
RTVSPost2010Prop49
280
     0
102
RTVSPost2010PropOp49
 70
     1
102
RTVSPost2010Prop50
 90
       50
102
RTVSPost2010PropOp50
 70
     1
102
RTVSPost2010Prop51ColorIndex
 90
      256
102
RTVSPost2010Prop51ColorRGB
 90
-16777216
102
RTVSPost2010PropOp51
 70
     0
102
RTVSPost2010Prop52
140
1.0
102
RTVSPost2010PropOp52
 70
     0
102
RTVSPost2010Prop53
 90
        2
102
RTVSPost2010PropOp53
 70
     1
102
RTVSPost2010Prop54
  1
strokes_ogs.tif
102
RTVSPost2010PropOp54
 70
     1
102
RTVSPost2010Prop55
280
     0
102
RTVSPost2010PropOp55
 70
     1
102
RTVSPost2010Prop56
140
1.0
102
RTVSPost2010PropOp56
 70
     1
102
RTVSPost2010Prop57
140
1.0
102
RTVSPost2010PropOp57
 70
     1
102
RTVSPropertyOp0
 70
     1
102
RTVSPropertyOp1
 70
     1
102
RTVSPropertyOp2
 70
     1
102
RTVSPropertyOp3
 70
     1
102
RTVSPropertyOp4
 70
     1
102
RTVSPropertyOp5
 70
     1
102
RTVSPropertyOp6
 70
     1
102
RTVSPropertyOp7
 70
     1
102
RTVSPropertyOp8
 70
     1
102
RTVSPropertyOp9
 70
     1
102
RTVSPropertyOp10
 70
     1
102
RTVSPropertyOp11
 70
     1
102
RTVSPropertyOp12
 70
     1
102
RTVSPropertyOp13
 70
     1
102
RTVSPropertyOp14
 70
     1
102
RTVSPropertyOp15
 70
     1
102
RTVSPropertyOp16
 70
     1
102
RTVSPropertyOp17
 70
     1
102
RTVSPropertyOp18
 70
     1
102
RTVSPropertyOp19
 70
     1
102
RTVSPropertyOp20
 70
     1
102
RTVSPropertyOp21
 70
     1
102
RTVSPropertyOp22
 70
     1
102
RTVSPropertyOp23
 70
     1
102
RTVSPropertyOp24
 70
     1
102
RTVSPropertyOp25
 70
     1
102
RTVSPropertyOp26
 70
     1
102
RTVSPropertyOp27
 70
     1
102
RTVSPropertyOp28
 70
     1
102
RTVSPropertyOp29
 70
     1
102
RTVSPropertyOp30
 70
     1
102
RTVSPropertyOp31
 70
     1
102
RTVSPropertyOp32
 70
     1
102
RTVSPropertyOp33
 70
     1
102
RTVSPropertyOp34
 70
     1
102
RTVSPropertyOp35
 70
     1
102
RTVSPropertyOp36
 70
     1
102
RTVSPropertyOp37
 70
     1
102
RTVSPropertyOp38
 70
     1
102
RTVSPropertyOp39
 70
     1
102
RTVSPropertyOp40
 70
     1
102
RTVSPropertyOp41
 70
     1
102
RTVSPropertyOp42
 70
     1
102
RTVSPropertyOp43
 70
     1
102
RTVSPropertyOp44
 70
     1
102
RTVSPropertyOp45
 70
     1
102
RTVSPropertyOp46
 70
     1
102
RTVSPropertyOp47
 70
     1
102
RTVSPropertyOp48
 70
     1
102
RTVSPropertyOp49
 70
     1
102
RTVSPropertyOp50
 70
     1
102
RTVSPropertyOp51
 70
     0
102
RTVSPropertyOp52
 70
     0
102
RTVSPropertyOp53
 70
     1
102
RTVSPropertyOp54
 70
     1
102
RTVSPropertyOp55
 70
     1
102
RTVSPropertyOp56
 70
     1
102
RTVSPropertyOp57
 70
     1
102
RTVSPropertyOp58
 70
     1
102
RTVSPropertyOp59
 70
     1
102
RTVSPropertyOp60
 70
     1
102
RTVSPropertyOp61
 70
     1
102
RTVSPropertyOp62
 70
     1
  0
XRECORD
  5
C2BE
102
{ACAD_REACTORS
330
C2BD
102
}
330
C2BD
100
AcDbXrecord
280
     1
102
RTVSPost2010Prop28
280
     0
102
RTVSPost2010PropOp28
 70
     1
102
RTVSPost2010Prop29
280
     1
102
RTVSPost2010PropOp29
 70
     1
102
RTVSPost2010Prop30
280
     1
102
RTVSPost2010PropOp30
 70
     1
102
RTVSPost2010Prop31
280
     0
102
RTVSPost2010PropOp31
 70
     1
102
RTVSPost2010Prop32
280
     0
102
RTVSPost2010PropOp32
 70
     1
102
RTVSPost2010Prop33
280
     0
102
RTVSPost2010PropOp33
 70
     1
102
RTVSPost2010Prop34
280
     0
102
RTVSPost2010PropOp34
 70
     1
102
RTVSPost2010Prop35
280
     0
102
RTVSPost2010PropOp35
 70
     1
102
RTVSPost2010Prop36
280
     0
102
RTVSPost2010PropOp36
 70
     1
102
RTVSPost2010Prop37
 90
       50
102
RTVSPost2010PropOp37
 70
     1
102
RTVSPost2010Prop38
140
0.0
102
RTVSPost2010PropOp38
 70
     1
102
RTVSPost2010Prop39
140
1.0
102
RTVSPost2010PropOp39
 70
     1
102
RTVSPost2010Prop40
 90
        0
102
RTVSPost2010PropOp40
 70
     1
102
RTVSPost2010Prop41ColorIndex
 90
       18
102
RTVSPost2010Prop41ColorRGB
 90
        0
102
RTVSPost2010PropOp41
 70
     1
102
RTVSPost2010Prop42
 90
       50
102
RTVSPost2010PropOp42
 70
     1
102
RTVSPost2010Prop43
 90
        3
102
RTVSPost2010PropOp43
 70
     1
102
RTVSPost2010Prop44ColorIndex
 90
        5
102
RTVSPost2010Prop44ColorRGB
 90
      255
102
RTVSPost2010PropOp44
 70
     1
102
RTVSPost2010Prop45
280
     0
102
RTVSPost2010PropOp45
 70
     1
102
RTVSPost2010Prop46
 90
       50
102
RTVSPost2010PropOp46
 70
     1
102
RTVSPost2010Prop47
 90
       50
102
RTVSPost2010PropOp47
 70
     1
102
RTVSPost2010Prop48
 90
       50
102
RTVSPost2010PropOp48
 70
     1
102
RTVSPost2010Prop49
280
     0
102
RTVSPost2010PropOp49
 70
     1
102
RTVSPost2010Prop50
 90
       50
102
RTVSPost2010PropOp50
 70
     1
102
RTVSPost2010Prop51ColorIndex
 90
      256
102
RTVSPost2010Prop51ColorRGB
 90
-16777216
102
RTVSPost2010PropOp51
 70
     0
102
RTVSPost2010Prop52
140
1.0
102
RTVSPost2010PropOp52
 70
     0
102
RTVSPost2010Prop53
 90
        2
102
RTVSPost2010PropOp53
 70
     1
102
RTVSPost2010Prop54
  1
strokes_ogs.tif
102
RTVSPost2010PropOp54
 70
     1
102
RTVSPost2010Prop55
280
     0
102
RTVSPost2010PropOp55
 70
     1
102
RTVSPost2010Prop56
140
1.0
102
RTVSPost2010PropOp56
 70
     1
102
RTVSPost2010Prop57
140
1.0
102
RTVSPost2010PropOp57
 70
     1
102
RTVSPropertyOp0
 70
     1
102
RTVSPropertyOp1
 70
     1
102
RTVSPropertyOp2
 70
     1
102
RTVSPropertyOp3
 70
     1
102
RTVSPropertyOp4
 70
     1
102
RTVSPropertyOp5
 70
     1
102
RTVSPropertyOp6
 70
     1
102
RTVSPropertyOp7
 70
     1
102
RTVSPropertyOp8
 70
     1
102
RTVSPropertyOp9
 70
     1
102
RTVSPropertyOp10
 70
     1
102
RTVSPropertyOp11
 70
     1
102
RTVSPropertyOp12
 70
     1
102
RTVSPropertyOp13
 70
     1
102
RTVSPropertyOp14
 70
     1
102
RTVSPropertyOp15
 70
     1
102
RTVSPropertyOp16
 70
     1
102
RTVSPropertyOp17
 70
     1
102
RTVSPropertyOp18
 70
     1
102
RTVSPropertyOp19
 70
     1
102
RTVSPropertyOp20
 70
     1
102
RTVSPropertyOp21
 70
     1
102
RTVSPropertyOp22
 70
     1
102
RTVSPropertyOp23
 70
     1
102
RTVSPropertyOp24
 70
     1
102
RTVSPropertyOp25
 70
     1
102
RTVSPropertyOp26
 70
     1
102
RTVSPropertyOp27
 70
     1
102
RTVSPropertyOp28
 70
     1
102
RTVSPropertyOp29
 70
     1
102
RTVSPropertyOp30
 70
     1
102
RTVSPropertyOp31
 70
     1
102
RTVSPropertyOp32
 70
     1
102
RTVSPropertyOp33
 70
     1
102
RTVSPropertyOp34
 70
     1
102
RTVSPropertyOp35
 70
     1
102
RTVSPropertyOp36
 70
     1
102
RTVSPropertyOp37
 70
     1
102
RTVSPropertyOp38
 70
     1
102
RTVSPropertyOp39
 70
     1
102
RTVSPropertyOp40
 70
     1
102
RTVSPropertyOp41
 70
     1
102
RTVSPropertyOp42
 70
     1
102
RTVSPropertyOp43
 70
     1
102
RTVSPropertyOp44
 70
     1
102
RTVSPropertyOp45
 70
     1
102
RTVSPropertyOp46
 70
     1
102
RTVSPropertyOp47
 70
     1
102
RTVSPropertyOp48
 70
     1
102
RTVSPropertyOp49
 70
     1
102
RTVSPropertyOp50
 70
     1
102
RTVSPropertyOp51
 70
     0
102
RTVSPropertyOp52
 70
     0
102
RTVSPropertyOp53
 70
     1
102
RTVSPropertyOp54
 70
     1
102
RTVSPropertyOp55
 70
     1
102
RTVSPropertyOp56
 70
     1
102
RTVSPropertyOp57
 70
     1
102
RTVSPropertyOp58
 70
     1
102
RTVSPropertyOp59
 70
     1
102
RTVSPropertyOp60
 70
     1
102
RTVSPropertyOp61
 70
     1
102
RTVSPropertyOp62
 70
     1
  0
XRECORD
  5
C2CC
102
{ACAD_REACTORS
330
C2CB
102
}
330
C2CB
100
AcDbXrecord
280
     1
102
RTVSPost2010Prop28
280
     0
102
RTVSPost2010PropOp28
 70
     1
102
RTVSPost2010Prop29
280
     1
102
RTVSPost2010PropOp29
 70
     1
102
RTVSPost2010Prop30
280
     1
102
RTVSPost2010PropOp30
 70
     1
102
RTVSPost2010Prop31
280
     0
102
RTVSPost2010PropOp31
 70
     1
102
RTVSPost2010Prop32
280
     0
102
RTVSPost2010PropOp32
 70
     1
102
RTVSPost2010Prop33
280
     0
102
RTVSPost2010PropOp33
 70
     1
102
RTVSPost2010Prop34
280
     0
102
RTVSPost2010PropOp34
 70
     1
102
RTVSPost2010Prop35
280
     0
102
RTVSPost2010PropOp35
 70
     1
102
RTVSPost2010Prop36
280
     0
102
RTVSPost2010PropOp36
 70
     1
102
RTVSPost2010Prop37
 90
       50
102
RTVSPost2010PropOp37
 70
     1
102
RTVSPost2010Prop38
140
0.0
102
RTVSPost2010PropOp38
 70
     1
102
RTVSPost2010Prop39
140
1.0
102
RTVSPost2010PropOp39
 70
     1
102
RTVSPost2010Prop40
 90
        0
102
RTVSPost2010PropOp40
 70
     1
102
RTVSPost2010Prop41ColorIndex
 90
       18
102
RTVSPost2010Prop41ColorRGB
 90
        0
102
RTVSPost2010PropOp41
 70
     1
102
RTVSPost2010Prop42
 90
       50
102
RTVSPost2010PropOp42
 70
     1
102
RTVSPost2010Prop43
 90
        3
102
RTVSPost2010PropOp43
 70
     1
102
RTVSPost2010Prop44ColorIndex
 90
        5
102
RTVSPost2010Prop44ColorRGB
 90
      255
102
RTVSPost2010PropOp44
 70
     1
102
RTVSPost2010Prop45
280
     0
102
RTVSPost2010PropOp45
 70
     1
102
RTVSPost2010Prop46
 90
       50
102
RTVSPost2010PropOp46
 70
     1
102
RTVSPost2010Prop47
 90
       50
102
RTVSPost2010PropOp47
 70
     1
102
RTVSPost2010Prop48
 90
       50
102
RTVSPost2010PropOp48
 70
     1
102
RTVSPost2010Prop49
280
     0
102
RTVSPost2010PropOp49
 70
     1
102
RTVSPost2010Prop50
 90
       50
102
RTVSPost2010PropOp50
 70
     1
102
RTVSPost2010Prop51ColorIndex
 90
      256
102
RTVSPost2010Prop51ColorRGB
 90
-16777216
102
RTVSPost2010PropOp51
 70
     0
102
RTVSPost2010Prop52
140
1.0
102
RTVSPost2010PropOp52
 70
     0
102
RTVSPost2010Prop53
 90
        2
102
RTVSPost2010PropOp53
 70
     1
102
RTVSPost2010Prop54
  1
strokes_ogs.tif
102
RTVSPost2010PropOp54
 70
     1
102
RTVSPost2010Prop55
280
     0
102
RTVSPost2010PropOp55
 70
     1
102
RTVSPost2010Prop56
140
1.0
102
RTVSPost2010PropOp56
 70
     1
102
RTVSPost2010Prop57
140
1.0
102
RTVSPost2010PropOp57
 70
     1
102
RTVSPropertyOp0
 70
     1
102
RTVSPropertyOp1
 70
     1
102
RTVSPropertyOp2
 70
     1
102
RTVSPropertyOp3
 70
     1
102
RTVSPropertyOp4
 70
     1
102
RTVSPropertyOp5
 70
     1
102
RTVSPropertyOp6
 70
     1
102
RTVSPropertyOp7
 70
     1
102
RTVSPropertyOp8
 70
     1
102
RTVSPropertyOp9
 70
     1
102
RTVSPropertyOp10
 70
     1
102
RTVSPropertyOp11
 70
     1
102
RTVSPropertyOp12
 70
     1
102
RTVSPropertyOp13
 70
     1
102
RTVSPropertyOp14
 70
     1
102
RTVSPropertyOp15
 70
     1
102
RTVSPropertyOp16
 70
     1
102
RTVSPropertyOp17
 70
     1
102
RTVSPropertyOp18
 70
     1
102
RTVSPropertyOp19
 70
     1
102
RTVSPropertyOp20
 70
     1
102
RTVSPropertyOp21
 70
     1
102
RTVSPropertyOp22
 70
     1
102
RTVSPropertyOp23
 70
     1
102
RTVSPropertyOp24
 70
     1
102
RTVSPropertyOp25
 70
     1
102
RTVSPropertyOp26
 70
     1
102
RTVSPropertyOp27
 70
     1
102
RTVSPropertyOp28
 70
     1
102
RTVSPropertyOp29
 70
     1
102
RTVSPropertyOp30
 70
     1
102
RTVSPropertyOp31
 70
     1
102
RTVSPropertyOp32
 70
     1
102
RTVSPropertyOp33
 70
     1
102
RTVSPropertyOp34
 70
     1
102
RTVSPropertyOp35
 70
     1
102
RTVSPropertyOp36
 70
     1
102
RTVSPropertyOp37
 70
     1
102
RTVSPropertyOp38
 70
     1
102
RTVSPropertyOp39
 70
     1
102
RTVSPropertyOp40
 70
     1
102
RTVSPropertyOp41
 70
     1
102
RTVSPropertyOp42
 70
     1
102
RTVSPropertyOp43
 70
     1
102
RTVSPropertyOp44
 70
     1
102
RTVSPropertyOp45
 70
     1
102
RTVSPropertyOp46
 70
     1
102
RTVSPropertyOp47
 70
     1
102
RTVSPropertyOp48
 70
     1
102
RTVSPropertyOp49
 70
     1
102
RTVSPropertyOp50
 70
     1
102
RTVSPropertyOp51
 70
     0
102
RTVSPropertyOp52
 70
     0
102
RTVSPropertyOp53
 70
     1
102
RTVSPropertyOp54
 70
     1
102
RTVSPropertyOp55
 70
     1
102
RTVSPropertyOp56
 70
     1
102
RTVSPropertyOp57
 70
     1
102
RTVSPropertyOp58
 70
     1
102
RTVSPropertyOp59
 70
     1
102
RTVSPropertyOp60
 70
     1
102
RTVSPropertyOp61
 70
     1
102
RTVSPropertyOp62
 70
     1
  0
XRECORD
  5
C2D4
102
{ACAD_REACTORS
330
C2D3
102
}
330
C2D3
100
AcDbXrecord
280
     1
102
RTVSPost2010Prop28
280
     0
102
RTVSPost2010PropOp28
 70
     1
102
RTVSPost2010Prop29
280
     1
102
RTVSPost2010PropOp29
 70
     1
102
RTVSPost2010Prop30
280
     1
102
RTVSPost2010PropOp30
 70
     1
102
RTVSPost2010Prop31
280
     0
102
RTVSPost2010PropOp31
 70
     1
102
RTVSPost2010Prop32
280
     0
102
RTVSPost2010PropOp32
 70
     1
102
RTVSPost2010Prop33
280
     0
102
RTVSPost2010PropOp33
 70
     1
102
RTVSPost2010Prop34
280
     0
102
RTVSPost2010PropOp34
 70
     1
102
RTVSPost2010Prop35
280
     0
102
RTVSPost2010PropOp35
 70
     1
102
RTVSPost2010Prop36
280
     0
102
RTVSPost2010PropOp36
 70
     1
102
RTVSPost2010Prop37
 90
       50
102
RTVSPost2010PropOp37
 70
     1
102
RTVSPost2010Prop38
140
0.0
102
RTVSPost2010PropOp38
 70
     1
102
RTVSPost2010Prop39
140
1.0
102
RTVSPost2010PropOp39
 70
     1
102
RTVSPost2010Prop40
 90
        0
102
RTVSPost2010PropOp40
 70
     1
102
RTVSPost2010Prop41ColorIndex
 90
       18
102
RTVSPost2010Prop41ColorRGB
 90
        0
102
RTVSPost2010PropOp41
 70
     1
102
RTVSPost2010Prop42
 90
       50
102
RTVSPost2010PropOp42
 70
     1
102
RTVSPost2010Prop43
 90
        3
102
RTVSPost2010PropOp43
 70
     1
102
RTVSPost2010Prop44ColorIndex
 90
        5
102
RTVSPost2010Prop44ColorRGB
 90
      255
102
RTVSPost2010PropOp44
 70
     1
102
RTVSPost2010Prop45
280
     0
102
RTVSPost2010PropOp45
 70
     1
102
RTVSPost2010Prop46
 90
       50
102
RTVSPost2010PropOp46
 70
     1
102
RTVSPost2010Prop47
 90
       50
102
RTVSPost2010PropOp47
 70
     1
102
RTVSPost2010Prop48
 90
       50
102
RTVSPost2010PropOp48
 70
     1
102
RTVSPost2010Prop49
280
     0
102
RTVSPost2010PropOp49
 70
     1
102
RTVSPost2010Prop50
 90
       50
102
RTVSPost2010PropOp50
 70
     1
102
RTVSPost2010Prop51ColorIndex
 90
      256
102
RTVSPost2010Prop51ColorRGB
 90
-16777216
102
RTVSPost2010PropOp51
 70
     0
102
RTVSPost2010Prop52
140
1.0
102
RTVSPost2010PropOp52
 70
     0
102
RTVSPost2010Prop53
 90
        2
102
RTVSPost2010PropOp53
 70
     1
102
RTVSPost2010Prop54
  1
strokes_ogs.tif
102
RTVSPost2010PropOp54
 70
     1
102
RTVSPost2010Prop55
280
     0
102
RTVSPost2010PropOp55
 70
     1
102
RTVSPost2010Prop56
140
1.0
102
RTVSPost2010PropOp56
 70
     1
102
RTVSPost2010Prop57
140
1.0
102
RTVSPost2010PropOp57
 70
     1
102
RTVSPropertyOp0
 70
     1
102
RTVSPropertyOp1
 70
     1
102
RTVSPropertyOp2
 70
     1
102
RTVSPropertyOp3
 70
     1
102
RTVSPropertyOp4
 70
     1
102
RTVSPropertyOp5
 70
     1
102
RTVSPropertyOp6
 70
     1
102
RTVSPropertyOp7
 70
     1
102
RTVSPropertyOp8
 70
     1
102
RTVSPropertyOp9
 70
     1
102
RTVSPropertyOp10
 70
     1
102
RTVSPropertyOp11
 70
     1
102
RTVSPropertyOp12
 70
     1
102
RTVSPropertyOp13
 70
     1
102
RTVSPropertyOp14
 70
     1
102
RTVSPropertyOp15
 70
     1
102
RTVSPropertyOp16
 70
     1
102
RTVSPropertyOp17
 70
     1
102
RTVSPropertyOp18
 70
     1
102
RTVSPropertyOp19
 70
     1
102
RTVSPropertyOp20
 70
     1
102
RTVSPropertyOp21
 70
     1
102
RTVSPropertyOp22
 70
     1
102
RTVSPropertyOp23
 70
     1
102
RTVSPropertyOp24
 70
     1
102
RTVSPropertyOp25
 70
     1
102
RTVSPropertyOp26
 70
     1
102
RTVSPropertyOp27
 70
     1
102
RTVSPropertyOp28
 70
     1
102
RTVSPropertyOp29
 70
     1
102
RTVSPropertyOp30
 70
     1
102
RTVSPropertyOp31
 70
     1
102
RTVSPropertyOp32
 70
     1
102
RTVSPropertyOp33
 70
     1
102
RTVSPropertyOp34
 70
     1
102
RTVSPropertyOp35
 70
     1
102
RTVSPropertyOp36
 70
     1
102
RTVSPropertyOp37
 70
     1
102
RTVSPropertyOp38
 70
     1
102
RTVSPropertyOp39
 70
     1
102
RTVSPropertyOp40
 70
     1
102
RTVSPropertyOp41
 70
     1
102
RTVSPropertyOp42
 70
     1
102
RTVSPropertyOp43
 70
     1
102
RTVSPropertyOp44
 70
     1
102
RTVSPropertyOp45
 70
     1
102
RTVSPropertyOp46
 70
     1
102
RTVSPropertyOp47
 70
     1
102
RTVSPropertyOp48
 70
     1
102
RTVSPropertyOp49
 70
     1
102
RTVSPropertyOp50
 70
     1
102
RTVSPropertyOp51
 70
     0
102
RTVSPropertyOp52
 70
     0
102
RTVSPropertyOp53
 70
     1
102
RTVSPropertyOp54
 70
     1
102
RTVSPropertyOp55
 70
     1
102
RTVSPropertyOp56
 70
     1
102
RTVSPropertyOp57
 70
     1
102
RTVSPropertyOp58
 70
     1
102
RTVSPropertyOp59
 70
     1
102
RTVSPropertyOp60
 70
     1
102
RTVSPropertyOp61
 70
     1
102
RTVSPropertyOp62
 70
     1
  0
XRECORD
  5
C2C6
102
{ACAD_REACTORS
330
C2C5
102
}
330
C2C5
100
AcDbXrecord
280
     1
102
RTVSPost2010Prop28
280
     0
102
RTVSPost2010PropOp28
 70
     1
102
RTVSPost2010Prop29
280
     1
102
RTVSPost2010PropOp29
 70
     1
102
RTVSPost2010Prop30
280
     1
102
RTVSPost2010PropOp30
 70
     1
102
RTVSPost2010Prop31
280
     0
102
RTVSPost2010PropOp31
 70
     1
102
RTVSPost2010Prop32
280
     0
102
RTVSPost2010PropOp32
 70
     1
102
RTVSPost2010Prop33
280
     0
102
RTVSPost2010PropOp33
 70
     1
102
RTVSPost2010Prop34
280
     0
102
RTVSPost2010PropOp34
 70
     1
102
RTVSPost2010Prop35
280
     0
102
RTVSPost2010PropOp35
 70
     1
102
RTVSPost2010Prop36
280
     0
102
RTVSPost2010PropOp36
 70
     1
102
RTVSPost2010Prop37
 90
       50
102
RTVSPost2010PropOp37
 70
     1
102
RTVSPost2010Prop38
140
0.0
102
RTVSPost2010PropOp38
 70
     1
102
RTVSPost2010Prop39
140
1.0
102
RTVSPost2010PropOp39
 70
     1
102
RTVSPost2010Prop40
 90
        0
102
RTVSPost2010PropOp40
 70
     1
102
RTVSPost2010Prop41ColorIndex
 90
       18
102
RTVSPost2010Prop41ColorRGB
 90
        0
102
RTVSPost2010PropOp41
 70
     1
102
RTVSPost2010Prop42
 90
       50
102
RTVSPost2010PropOp42
 70
     1
102
RTVSPost2010Prop43
 90
        3
102
RTVSPost2010PropOp43
 70
     1
102
RTVSPost2010Prop44ColorIndex
 90
        5
102
RTVSPost2010Prop44ColorRGB
 90
      255
102
RTVSPost2010PropOp44
 70
     1
102
RTVSPost2010Prop45
280
     0
102
RTVSPost2010PropOp45
 70
     1
102
RTVSPost2010Prop46
 90
       50
102
RTVSPost2010PropOp46
 70
     1
102
RTVSPost2010Prop47
 90
       50
102
RTVSPost2010PropOp47
 70
     1
102
RTVSPost2010Prop48
 90
       50
102
RTVSPost2010PropOp48
 70
     1
102
RTVSPost2010Prop49
280
     0
102
RTVSPost2010PropOp49
 70
     1
102
RTVSPost2010Prop50
 90
       50
102
RTVSPost2010PropOp50
 70
     1
102
RTVSPost2010Prop51ColorIndex
 90
      256
102
RTVSPost2010Prop51ColorRGB
 90
-16777216
102
RTVSPost2010PropOp51
 70
     0
102
RTVSPost2010Prop52
140
1.0
102
RTVSPost2010PropOp52
 70
     0
102
RTVSPost2010Prop53
 90
        2
102
RTVSPost2010PropOp53
 70
     1
102
RTVSPost2010Prop54
  1
strokes_ogs.tif
102
RTVSPost2010PropOp54
 70
     1
102
RTVSPost2010Prop55
280
     0
102
RTVSPost2010PropOp55
 70
     1
102
RTVSPost2010Prop56
140
1.0
102
RTVSPost2010PropOp56
 70
     1
102
RTVSPost2010Prop57
140
1.0
102
RTVSPost2010PropOp57
 70
     1
102
RTVSPropertyOp0
 70
     1
102
RTVSPropertyOp1
 70
     1
102
RTVSPropertyOp2
 70
     1
102
RTVSPropertyOp3
 70
     1
102
RTVSPropertyOp4
 70
     1
102
RTVSPropertyOp5
 70
     1
102
RTVSPropertyOp6
 70
     1
102
RTVSPropertyOp7
 70
     1
102
RTVSPropertyOp8
 70
     1
102
RTVSPropertyOp9
 70
     1
102
RTVSPropertyOp10
 70
     1
102
RTVSPropertyOp11
 70
     1
102
RTVSPropertyOp12
 70
     1
102
RTVSPropertyOp13
 70
     1
102
RTVSPropertyOp14
 70
     1
102
RTVSPropertyOp15
 70
     1
102
RTVSPropertyOp16
 70
     1
102
RTVSPropertyOp17
 70
     1
102
RTVSPropertyOp18
 70
     1
102
RTVSPropertyOp19
 70
     1
102
RTVSPropertyOp20
 70
     1
102
RTVSPropertyOp21
 70
     1
102
RTVSPropertyOp22
 70
     1
102
RTVSPropertyOp23
 70
     1
102
RTVSPropertyOp24
 70
     1
102
RTVSPropertyOp25
 70
     1
102
RTVSPropertyOp26
 70
     1
102
RTVSPropertyOp27
 70
     1
102
RTVSPropertyOp28
 70
     1
102
RTVSPropertyOp29
 70
     1
102
RTVSPropertyOp30
 70
     1
102
RTVSPropertyOp31
 70
     1
102
RTVSPropertyOp32
 70
     1
102
RTVSPropertyOp33
 70
     1
102
RTVSPropertyOp34
 70
     1
102
RTVSPropertyOp35
 70
     1
102
RTVSPropertyOp36
 70
     1
102
RTVSPropertyOp37
 70
     1
102
RTVSPropertyOp38
 70
     1
102
RTVSPropertyOp39
 70
     1
102
RTVSPropertyOp40
 70
     1
102
RTVSPropertyOp41
 70
     1
102
RTVSPropertyOp42
 70
     1
102
RTVSPropertyOp43
 70
     1
102
RTVSPropertyOp44
 70
     1
102
RTVSPropertyOp45
 70
     1
102
RTVSPropertyOp46
 70
     1
102
RTVSPropertyOp47
 70
     1
102
RTVSPropertyOp48
 70
     1
102
RTVSPropertyOp49
 70
     1
102
RTVSPropertyOp50
 70
     1
102
RTVSPropertyOp51
 70
     0
102
RTVSPropertyOp52
 70
     0
102
RTVSPropertyOp53
 70
     1
102
RTVSPropertyOp54
 70
     1
102
RTVSPropertyOp55
 70
     1
102
RTVSPropertyOp56
 70
     1
102
RTVSPropertyOp57
 70
     1
102
RTVSPropertyOp58
 70
     1
102
RTVSPropertyOp59
 70
     1
102
RTVSPropertyOp60
 70
     1
102
RTVSPropertyOp61
 70
     1
102
RTVSPropertyOp62
 70
     1
  0
XRECORD
  5
C2CA
102
{ACAD_REACTORS
330
C2C9
102
}
330
C2C9
100
AcDbXrecord
280
     1
102
RTVSPost2010Prop28
280
     0
102
RTVSPost2010PropOp28
 70
     1
102
RTVSPost2010Prop29
280
     1
102
RTVSPost2010PropOp29
 70
     1
102
RTVSPost2010Prop30
280
     1
102
RTVSPost2010PropOp30
 70
     1
102
RTVSPost2010Prop31
280
     0
102
RTVSPost2010PropOp31
 70
     1
102
RTVSPost2010Prop32
280
     0
102
RTVSPost2010PropOp32
 70
     1
102
RTVSPost2010Prop33
280
     0
102
RTVSPost2010PropOp33
 70
     1
102
RTVSPost2010Prop34
280
     0
102
RTVSPost2010PropOp34
 70
     1
102
RTVSPost2010Prop35
280
     0
102
RTVSPost2010PropOp35
 70
     1
102
RTVSPost2010Prop36
280
     0
102
RTVSPost2010PropOp36
 70
     1
102
RTVSPost2010Prop37
 90
       50
102
RTVSPost2010PropOp37
 70
     1
102
RTVSPost2010Prop38
140
0.0
102
RTVSPost2010PropOp38
 70
     1
102
RTVSPost2010Prop39
140
1.0
102
RTVSPost2010PropOp39
 70
     1
102
RTVSPost2010Prop40
 90
        0
102
RTVSPost2010PropOp40
 70
     1
102
RTVSPost2010Prop41ColorIndex
 90
       18
102
RTVSPost2010Prop41ColorRGB
 90
        0
102
RTVSPost2010PropOp41
 70
     1
102
RTVSPost2010Prop42
 90
       50
102
RTVSPost2010PropOp42
 70
     1
102
RTVSPost2010Prop43
 90
        3
102
RTVSPost2010PropOp43
 70
     1
102
RTVSPost2010Prop44ColorIndex
 90
        5
102
RTVSPost2010Prop44ColorRGB
 90
      255
102
RTVSPost2010PropOp44
 70
     1
102
RTVSPost2010Prop45
280
     0
102
RTVSPost2010PropOp45
 70
     1
102
RTVSPost2010Prop46
 90
       50
102
RTVSPost2010PropOp46
 70
     1
102
RTVSPost2010Prop47
 90
       50
102
RTVSPost2010PropOp47
 70
     1
102
RTVSPost2010Prop48
 90
       50
102
RTVSPost2010PropOp48
 70
     1
102
RTVSPost2010Prop49
280
     0
102
RTVSPost2010PropOp49
 70
     1
102
RTVSPost2010Prop50
 90
       50
102
RTVSPost2010PropOp50
 70
     1
102
RTVSPost2010Prop51ColorIndex
 90
      256
102
RTVSPost2010Prop51ColorRGB
 90
-16777216
102
RTVSPost2010PropOp51
 70
     0
102
RTVSPost2010Prop52
140
1.0
102
RTVSPost2010PropOp52
 70
     0
102
RTVSPost2010Prop53
 90
        2
102
RTVSPost2010PropOp53
 70
     1
102
RTVSPost2010Prop54
  1
strokes_ogs.tif
102
RTVSPost2010PropOp54
 70
     1
102
RTVSPost2010Prop55
280
     0
102
RTVSPost2010PropOp55
 70
     1
102
RTVSPost2010Prop56
140
1.0
102
RTVSPost2010PropOp56
 70
     1
102
RTVSPost2010Prop57
140
1.0
102
RTVSPost2010PropOp57
 70
     1
102
RTVSPropertyOp0
 70
     1
102
RTVSPropertyOp1
 70
     1
102
RTVSPropertyOp2
 70
     1
102
RTVSPropertyOp3
 70
     1
102
RTVSPropertyOp4
 70
     1
102
RTVSPropertyOp5
 70
     1
102
RTVSPropertyOp6
 70
     1
102
RTVSPropertyOp7
 70
     1
102
RTVSPropertyOp8
 70
     1
102
RTVSPropertyOp9
 70
     1
102
RTVSPropertyOp10
 70
     1
102
RTVSPropertyOp11
 70
     1
102
RTVSPropertyOp12
 70
     1
102
RTVSPropertyOp13
 70
     1
102
RTVSPropertyOp14
 70
     1
102
RTVSPropertyOp15
 70
     1
102
RTVSPropertyOp16
 70
     1
102
RTVSPropertyOp17
 70
     1
102
RTVSPropertyOp18
 70
     1
102
RTVSPropertyOp19
 70
     1
102
RTVSPropertyOp20
 70
     1
102
RTVSPropertyOp21
 70
     1
102
RTVSPropertyOp22
 70
     1
102
RTVSPropertyOp23
 70
     1
102
RTVSPropertyOp24
 70
     1
102
RTVSPropertyOp25
 70
     1
102
RTVSPropertyOp26
 70
     1
102
RTVSPropertyOp27
 70
     1
102
RTVSPropertyOp28
 70
     1
102
RTVSPropertyOp29
 70
     1
102
RTVSPropertyOp30
 70
     1
102
RTVSPropertyOp31
 70
     1
102
RTVSPropertyOp32
 70
     1
102
RTVSPropertyOp33
 70
     1
102
RTVSPropertyOp34
 70
     1
102
RTVSPropertyOp35
 70
     1
102
RTVSPropertyOp36
 70
     1
102
RTVSPropertyOp37
 70
     1
102
RTVSPropertyOp38
 70
     1
102
RTVSPropertyOp39
 70
     1
102
RTVSPropertyOp40
 70
     1
102
RTVSPropertyOp41
 70
     1
102
RTVSPropertyOp42
 70
     1
102
RTVSPropertyOp43
 70
     1
102
RTVSPropertyOp44
 70
     1
102
RTVSPropertyOp45
 70
     1
102
RTVSPropertyOp46
 70
     1
102
RTVSPropertyOp47
 70
     1
102
RTVSPropertyOp48
 70
     1
102
RTVSPropertyOp49
 70
     1
102
RTVSPropertyOp50
 70
     1
102
RTVSPropertyOp51
 70
     0
102
RTVSPropertyOp52
 70
     0
102
RTVSPropertyOp53
 70
     1
102
RTVSPropertyOp54
 70
     1
102
RTVSPropertyOp55
 70
     1
102
RTVSPropertyOp56
 70
     1
102
RTVSPropertyOp57
 70
     1
102
RTVSPropertyOp58
 70
     1
102
RTVSPropertyOp59
 70
     1
102
RTVSPropertyOp60
 70
     1
102
RTVSPropertyOp61
 70
     1
102
RTVSPropertyOp62
 70
     1
  0
XRECORD
  5
C2E4
102
{ACAD_REACTORS
330
C2E3
102
}
330
C2E3
100
AcDbXrecord
280
     1
102
RTVSPost2010Prop28
280
     0
102
RTVSPost2010PropOp28
 70
     1
102
RTVSPost2010Prop29
280
     1
102
RTVSPost2010PropOp29
 70
     1
102
RTVSPost2010Prop30
280
     1
102
RTVSPost2010PropOp30
 70
     1
102
RTVSPost2010Prop31
280
     0
102
RTVSPost2010PropOp31
 70
     1
102
RTVSPost2010Prop32
280
     0
102
RTVSPost2010PropOp32
 70
     1
102
RTVSPost2010Prop33
280
     0
102
RTVSPost2010PropOp33
 70
     1
102
RTVSPost2010Prop34
280
     0
102
RTVSPost2010PropOp34
 70
     1
102
RTVSPost2010Prop35
280
     0
102
RTVSPost2010PropOp35
 70
     1
102
RTVSPost2010Prop36
280
     0
102
RTVSPost2010PropOp36
 70
     1
102
RTVSPost2010Prop37
 90
       50
102
RTVSPost2010PropOp37
 70
     0
102
RTVSPost2010Prop38
140
0.0
102
RTVSPost2010PropOp38
 70
     0
102
RTVSPost2010Prop39
140
1.0
102
RTVSPost2010PropOp39
 70
     0
102
RTVSPost2010Prop40
 90
        0
102
RTVSPost2010PropOp40
 70
     0
102
RTVSPost2010Prop41ColorIndex
 90
       18
102
RTVSPost2010Prop41ColorRGB
 90
        0
102
RTVSPost2010PropOp41
 70
     0
102
RTVSPost2010Prop42
 90
       50
102
RTVSPost2010PropOp42
 70
     0
102
RTVSPost2010Prop43
 90
        3
102
RTVSPost2010PropOp43
 70
     0
102
RTVSPost2010Prop44ColorIndex
 90
        5
102
RTVSPost2010Prop44ColorRGB
 90
      255
102
RTVSPost2010PropOp44
 70
     0
102
RTVSPost2010Prop45
280
     0
102
RTVSPost2010PropOp45
 70
     1
102
RTVSPost2010Prop46
 90
       50
102
RTVSPost2010PropOp46
 70
     0
102
RTVSPost2010Prop47
 90
       50
102
RTVSPost2010PropOp47
 70
     0
102
RTVSPost2010Prop48
 90
       50
102
RTVSPost2010PropOp48
 70
     0
102
RTVSPost2010Prop49
280
     0
102
RTVSPost2010PropOp49
 70
     1
102
RTVSPost2010Prop50
 90
       50
102
RTVSPost2010PropOp50
 70
     0
102
RTVSPost2010Prop51ColorIndex
 90
      256
102
RTVSPost2010Prop51ColorRGB
 90
-16777216
102
RTVSPost2010PropOp51
 70
     0
102
RTVSPost2010Prop52
140
1.0
102
RTVSPost2010PropOp52
 70
     0
102
RTVSPost2010Prop53
 90
        2
102
RTVSPost2010PropOp53
 70
     0
102
RTVSPost2010Prop54
  1
strokes_ogs.tif
102
RTVSPost2010PropOp54
 70
     0
102
RTVSPost2010Prop55
280
     0
102
RTVSPost2010PropOp55
 70
     1
102
RTVSPost2010Prop56
140
1.0
102
RTVSPost2010PropOp56
 70
     0
102
RTVSPost2010Prop57
140
1.0
102
RTVSPost2010PropOp57
 70
     0
102
RTVSPropertyOp0
 70
     0
102
RTVSPropertyOp1
 70
     0
102
RTVSPropertyOp2
 70
     0
102
RTVSPropertyOp3
 70
     0
102
RTVSPropertyOp4
 70
     0
102
RTVSPropertyOp5
 70
     0
102
RTVSPropertyOp6
 70
     0
102
RTVSPropertyOp7
 70
     0
102
RTVSPropertyOp8
 70
     0
102
RTVSPropertyOp9
 70
     0
102
RTVSPropertyOp10
 70
     0
102
RTVSPropertyOp11
 70
     0
102
RTVSPropertyOp12
 70
     0
102
RTVSPropertyOp13
 70
     0
102
RTVSPropertyOp14
 70
     2
102
RTVSPropertyOp15
 70
     0
102
RTVSPropertyOp16
 70
     0
102
RTVSPropertyOp17
 70
     0
102
RTVSPropertyOp18
 70
     0
102
RTVSPropertyOp19
 70
     0
102
RTVSPropertyOp20
 70
     0
102
RTVSPropertyOp21
 70
     0
102
RTVSPropertyOp22
 70
     0
102
RTVSPropertyOp23
 70
     0
102
RTVSPropertyOp24
 70
     0
102
RTVSPropertyOp25
 70
     0
102
RTVSPropertyOp26
 70
     0
102
RTVSPropertyOp27
 70
     0
102
RTVSPropertyOp28
 70
     1
102
RTVSPropertyOp29
 70
     1
102
RTVSPropertyOp30
 70
     1
102
RTVSPropertyOp31
 70
     1
102
RTVSPropertyOp32
 70
     1
102
RTVSPropertyOp33
 70
     1
102
RTVSPropertyOp34
 70
     1
102
RTVSPropertyOp35
 70
     1
102
RTVSPropertyOp36
 70
     1
102
RTVSPropertyOp37
 70
     0
102
RTVSPropertyOp38
 70
     0
102
RTVSPropertyOp39
 70
     0
102
RTVSPropertyOp40
 70
     0
102
RTVSPropertyOp41
 70
     0
102
RTVSPropertyOp42
 70
     0
102
RTVSPropertyOp43
 70
     0
102
RTVSPropertyOp44
 70
     0
102
RTVSPropertyOp45
 70
     1
102
RTVSPropertyOp46
 70
     0
102
RTVSPropertyOp47
 70
     0
102
RTVSPropertyOp48
 70
     0
102
RTVSPropertyOp49
 70
     1
102
RTVSPropertyOp50
 70
     0
102
RTVSPropertyOp51
 70
     0
102
RTVSPropertyOp52
 70
     0
102
RTVSPropertyOp53
 70
     0
102
RTVSPropertyOp54
 70
     0
102
RTVSPropertyOp55
 70
     1
102
RTVSPropertyOp56
 70
     0
102
RTVSPropertyOp57
 70
     0
102
RTVSPropertyOp58
 70
     0
102
RTVSPropertyOp59
 70
     0
102
RTVSPropertyOp60
 70
     0
102
RTVSPropertyOp61
 70
     0
102
RTVSPropertyOp62
 70
     0
  0
XRECORD
  5
C2D2
102
{ACAD_REACTORS
330
C2D1
102
}
330
C2D1
100
AcDbXrecord
280
     1
102
RTVSPost2010Prop28
280
     0
102
RTVSPost2010PropOp28
 70
     1
102
RTVSPost2010Prop29
280
     1
102
RTVSPost2010PropOp29
 70
     1
102
RTVSPost2010Prop30
280
     1
102
RTVSPost2010PropOp30
 70
     1
102
RTVSPost2010Prop31
280
     0
102
RTVSPost2010PropOp31
 70
     1
102
RTVSPost2010Prop32
280
     0
102
RTVSPost2010PropOp32
 70
     1
102
RTVSPost2010Prop33
280
     0
102
RTVSPost2010PropOp33
 70
     1
102
RTVSPost2010Prop34
280
     0
102
RTVSPost2010PropOp34
 70
     1
102
RTVSPost2010Prop35
280
     0
102
RTVSPost2010PropOp35
 70
     1
102
RTVSPost2010Prop36
280
     0
102
RTVSPost2010PropOp36
 70
     1
102
RTVSPost2010Prop37
 90
       50
102
RTVSPost2010PropOp37
 70
     1
102
RTVSPost2010Prop38
140
0.0
102
RTVSPost2010PropOp38
 70
     1
102
RTVSPost2010Prop39
140
1.0
102
RTVSPost2010PropOp39
 70
     1
102
RTVSPost2010Prop40
 90
        0
102
RTVSPost2010PropOp40
 70
     1
102
RTVSPost2010Prop41ColorIndex
 90
       18
102
RTVSPost2010Prop41ColorRGB
 90
        0
102
RTVSPost2010PropOp41
 70
     1
102
RTVSPost2010Prop42
 90
       50
102
RTVSPost2010PropOp42
 70
     1
102
RTVSPost2010Prop43
 90
        3
102
RTVSPost2010PropOp43
 70
     1
102
RTVSPost2010Prop44ColorIndex
 90
        5
102
RTVSPost2010Prop44ColorRGB
 90
      255
102
RTVSPost2010PropOp44
 70
     1
102
RTVSPost2010Prop45
280
     0
102
RTVSPost2010PropOp45
 70
     1
102
RTVSPost2010Prop46
 90
       50
102
RTVSPost2010PropOp46
 70
     1
102
RTVSPost2010Prop47
 90
       50
102
RTVSPost2010PropOp47
 70
     1
102
RTVSPost2010Prop48
 90
       50
102
RTVSPost2010PropOp48
 70
     1
102
RTVSPost2010Prop49
280
     0
102
RTVSPost2010PropOp49
 70
     1
102
RTVSPost2010Prop50
 90
       50
102
RTVSPost2010PropOp50
 70
     1
102
RTVSPost2010Prop51ColorIndex
 90
      256
102
RTVSPost2010Prop51ColorRGB
 90
-16777216
102
RTVSPost2010PropOp51
 70
     0
102
RTVSPost2010Prop52
140
1.0
102
RTVSPost2010PropOp52
 70
     0
102
RTVSPost2010Prop53
 90
        2
102
RTVSPost2010PropOp53
 70
     1
102
RTVSPost2010Prop54
  1
strokes_ogs.tif
102
RTVSPost2010PropOp54
 70
     1
102
RTVSPost2010Prop55
280
     0
102
RTVSPost2010PropOp55
 70
     1
102
RTVSPost2010Prop56
140
1.0
102
RTVSPost2010PropOp56
 70
     1
102
RTVSPost2010Prop57
140
1.0
102
RTVSPost2010PropOp57
 70
     1
102
RTVSPropertyOp0
 70
     1
102
RTVSPropertyOp1
 70
     1
102
RTVSPropertyOp2
 70
     1
102
RTVSPropertyOp3
 70
     1
102
RTVSPropertyOp4
 70
     1
102
RTVSPropertyOp5
 70
     1
102
RTVSPropertyOp6
 70
     1
102
RTVSPropertyOp7
 70
     1
102
RTVSPropertyOp8
 70
     1
102
RTVSPropertyOp9
 70
     1
102
RTVSPropertyOp10
 70
     1
102
RTVSPropertyOp11
 70
     1
102
RTVSPropertyOp12
 70
     1
102
RTVSPropertyOp13
 70
     1
102
RTVSPropertyOp14
 70
     1
102
RTVSPropertyOp15
 70
     1
102
RTVSPropertyOp16
 70
     1
102
RTVSPropertyOp17
 70
     1
102
RTVSPropertyOp18
 70
     1
102
RTVSPropertyOp19
 70
     1
102
RTVSPropertyOp20
 70
     1
102
RTVSPropertyOp21
 70
     1
102
RTVSPropertyOp22
 70
     1
102
RTVSPropertyOp23
 70
     1
102
RTVSPropertyOp24
 70
     1
102
RTVSPropertyOp25
 70
     1
102
RTVSPropertyOp26
 70
     1
102
RTVSPropertyOp27
 70
     1
102
RTVSPropertyOp28
 70
     1
102
RTVSPropertyOp29
 70
     1
102
RTVSPropertyOp30
 70
     1
102
RTVSPropertyOp31
 70
     1
102
RTVSPropertyOp32
 70
     1
102
RTVSPropertyOp33
 70
     1
102
RTVSPropertyOp34
 70
     1
102
RTVSPropertyOp35
 70
     1
102
RTVSPropertyOp36
 70
     1
102
RTVSPropertyOp37
 70
     1
102
RTVSPropertyOp38
 70
     1
102
RTVSPropertyOp39
 70
     1
102
RTVSPropertyOp40
 70
     1
102
RTVSPropertyOp41
 70
     1
102
RTVSPropertyOp42
 70
     1
102
RTVSPropertyOp43
 70
     1
102
RTVSPropertyOp44
 70
     1
102
RTVSPropertyOp45
 70
     1
102
RTVSPropertyOp46
 70
     1
102
RTVSPropertyOp47
 70
     1
102
RTVSPropertyOp48
 70
     1
102
RTVSPropertyOp49
 70
     1
102
RTVSPropertyOp50
 70
     1
102
RTVSPropertyOp51
 70
     0
102
RTVSPropertyOp52
 70
     0
102
RTVSPropertyOp53
 70
     1
102
RTVSPropertyOp54
 70
     1
102
RTVSPropertyOp55
 70
     1
102
RTVSPropertyOp56
 70
     1
102
RTVSPropertyOp57
 70
     1
102
RTVSPropertyOp58
 70
     1
102
RTVSPropertyOp59
 70
     1
102
RTVSPropertyOp60
 70
     1
102
RTVSPropertyOp61
 70
     1
102
RTVSPropertyOp62
 70
     1
  0
XRECORD
  5
C2B6
102
{ACAD_REACTORS
330
C2B5
102
}
330
C2B5
100
AcDbXrecord
280
     1
102
RTVSPost2010Prop28
280
     0
102
RTVSPost2010PropOp28
 70
     1
102
RTVSPost2010Prop29
280
     1
102
RTVSPost2010PropOp29
 70
     1
102
RTVSPost2010Prop30
280
     1
102
RTVSPost2010PropOp30
 70
     1
102
RTVSPost2010Prop31
280
     0
102
RTVSPost2010PropOp31
 70
     1
102
RTVSPost2010Prop32
280
     0
102
RTVSPost2010PropOp32
 70
     1
102
RTVSPost2010Prop33
280
     0
102
RTVSPost2010PropOp33
 70
     1
102
RTVSPost2010Prop34
280
     0
102
RTVSPost2010PropOp34
 70
     1
102
RTVSPost2010Prop35
280
     0
102
RTVSPost2010PropOp35
 70
     1
102
RTVSPost2010Prop36
280
     0
102
RTVSPost2010PropOp36
 70
     1
102
RTVSPost2010Prop37
 90
       50
102
RTVSPost2010PropOp37
 70
     1
102
RTVSPost2010Prop38
140
0.0
102
RTVSPost2010PropOp38
 70
     1
102
RTVSPost2010Prop39
140
1.0
102
RTVSPost2010PropOp39
 70
     1
102
RTVSPost2010Prop40
 90
        0
102
RTVSPost2010PropOp40
 70
     1
102
RTVSPost2010Prop41ColorIndex
 90
       18
102
RTVSPost2010Prop41ColorRGB
 90
        0
102
RTVSPost2010PropOp41
 70
     1
102
RTVSPost2010Prop42
 90
       50
102
RTVSPost2010PropOp42
 70
     1
102
RTVSPost2010Prop43
 90
        3
102
RTVSPost2010PropOp43
 70
     1
102
RTVSPost2010Prop44ColorIndex
 90
        5
102
RTVSPost2010Prop44ColorRGB
 90
      255
102
RTVSPost2010PropOp44
 70
     1
102
RTVSPost2010Prop45
280
     0
102
RTVSPost2010PropOp45
 70
     1
102
RTVSPost2010Prop46
 90
       50
102
RTVSPost2010PropOp46
 70
     1
102
RTVSPost2010Prop47
 90
       50
102
RTVSPost2010PropOp47
 70
     1
102
RTVSPost2010Prop48
 90
       50
102
RTVSPost2010PropOp48
 70
     1
102
RTVSPost2010Prop49
280
     0
102
RTVSPost2010PropOp49
 70
     1
102
RTVSPost2010Prop50
 90
       50
102
RTVSPost2010PropOp50
 70
     1
102
RTVSPost2010Prop51ColorIndex
 90
      256
102
RTVSPost2010Prop51ColorRGB
 90
-16777216
102
RTVSPost2010PropOp51
 70
     0
102
RTVSPost2010Prop52
140
1.0
102
RTVSPost2010PropOp52
 70
     0
102
RTVSPost2010Prop53
 90
        2
102
RTVSPost2010PropOp53
 70
     1
102
RTVSPost2010Prop54
  1
strokes_ogs.tif
102
RTVSPost2010PropOp54
 70
     1
102
RTVSPost2010Prop55
280
     0
102
RTVSPost2010PropOp55
 70
     1
102
RTVSPost2010Prop56
140
1.0
102
RTVSPost2010PropOp56
 70
     1
102
RTVSPost2010Prop57
140
1.0
102
RTVSPost2010PropOp57
 70
     1
102
RTVSPropertyOp0
 70
     1
102
RTVSPropertyOp1
 70
     1
102
RTVSPropertyOp2
 70
     1
102
RTVSPropertyOp3
 70
     1
102
RTVSPropertyOp4
 70
     1
102
RTVSPropertyOp5
 70
     1
102
RTVSPropertyOp6
 70
     1
102
RTVSPropertyOp7
 70
     1
102
RTVSPropertyOp8
 70
     1
102
RTVSPropertyOp9
 70
     1
102
RTVSPropertyOp10
 70
     1
102
RTVSPropertyOp11
 70
     1
102
RTVSPropertyOp12
 70
     1
102
RTVSPropertyOp13
 70
     1
102
RTVSPropertyOp14
 70
     1
102
RTVSPropertyOp15
 70
     1
102
RTVSPropertyOp16
 70
     1
102
RTVSPropertyOp17
 70
     1
102
RTVSPropertyOp18
 70
     1
102
RTVSPropertyOp19
 70
     1
102
RTVSPropertyOp20
 70
     1
102
RTVSPropertyOp21
 70
     1
102
RTVSPropertyOp22
 70
     1
102
RTVSPropertyOp23
 70
     1
102
RTVSPropertyOp24
 70
     1
102
RTVSPropertyOp25
 70
     1
102
RTVSPropertyOp26
 70
     1
102
RTVSPropertyOp27
 70
     1
102
RTVSPropertyOp28
 70
     1
102
RTVSPropertyOp29
 70
     1
102
RTVSPropertyOp30
 70
     1
102
RTVSPropertyOp31
 70
     1
102
RTVSPropertyOp32
 70
     1
102
RTVSPropertyOp33
 70
     1
102
RTVSPropertyOp34
 70
     1
102
RTVSPropertyOp35
 70
     1
102
RTVSPropertyOp36
 70
     1
102
RTVSPropertyOp37
 70
     1
102
RTVSPropertyOp38
 70
     1
102
RTVSPropertyOp39
 70
     1
102
RTVSPropertyOp40
 70
     1
102
RTVSPropertyOp41
 70
     1
102
RTVSPropertyOp42
 70
     1
102
RTVSPropertyOp43
 70
     1
102
RTVSPropertyOp44
 70
     1
102
RTVSPropertyOp45
 70
     1
102
RTVSPropertyOp46
 70
     1
102
RTVSPropertyOp47
 70
     1
102
RTVSPropertyOp48
 70
     1
102
RTVSPropertyOp49
 70
     1
102
RTVSPropertyOp50
 70
     1
102
RTVSPropertyOp51
 70
     0
102
RTVSPropertyOp52
 70
     0
102
RTVSPropertyOp53
 70
     1
102
RTVSPropertyOp54
 70
     1
102
RTVSPropertyOp55
 70
     1
102
RTVSPropertyOp56
 70
     1
102
RTVSPropertyOp57
 70
     1
102
RTVSPropertyOp58
 70
     1
102
RTVSPropertyOp59
 70
     1
102
RTVSPropertyOp60
 70
     1
102
RTVSPropertyOp61
 70
     1
102
RTVSPropertyOp62
 70
     1
  0
XRECORD
  5
C2B8
102
{ACAD_REACTORS
330
C2B7
102
}
330
C2B7
100
AcDbXrecord
280
     1
102
RTVSPost2010Prop28
280
     0
102
RTVSPost2010PropOp28
 70
     1
102
RTVSPost2010Prop29
280
     1
102
RTVSPost2010PropOp29
 70
     1
102
RTVSPost2010Prop30
280
     1
102
RTVSPost2010PropOp30
 70
     1
102
RTVSPost2010Prop31
280
     0
102
RTVSPost2010PropOp31
 70
     1
102
RTVSPost2010Prop32
280
     0
102
RTVSPost2010PropOp32
 70
     1
102
RTVSPost2010Prop33
280
     0
102
RTVSPost2010PropOp33
 70
     1
102
RTVSPost2010Prop34
280
     0
102
RTVSPost2010PropOp34
 70
     1
102
RTVSPost2010Prop35
280
     0
102
RTVSPost2010PropOp35
 70
     1
102
RTVSPost2010Prop36
280
     0
102
RTVSPost2010PropOp36
 70
     1
102
RTVSPost2010Prop37
 90
       50
102
RTVSPost2010PropOp37
 70
     1
102
RTVSPost2010Prop38
140
0.0
102
RTVSPost2010PropOp38
 70
     1
102
RTVSPost2010Prop39
140
1.0
102
RTVSPost2010PropOp39
 70
     1
102
RTVSPost2010Prop40
 90
        0
102
RTVSPost2010PropOp40
 70
     1
102
RTVSPost2010Prop41ColorIndex
 90
       18
102
RTVSPost2010Prop41ColorRGB
 90
        0
102
RTVSPost2010PropOp41
 70
     1
102
RTVSPost2010Prop42
 90
       50
102
RTVSPost2010PropOp42
 70
     1
102
RTVSPost2010Prop43
 90
        3
102
RTVSPost2010PropOp43
 70
     1
102
RTVSPost2010Prop44ColorIndex
 90
        5
102
RTVSPost2010Prop44ColorRGB
 90
      255
102
RTVSPost2010PropOp44
 70
     1
102
RTVSPost2010Prop45
280
     0
102
RTVSPost2010PropOp45
 70
     1
102
RTVSPost2010Prop46
 90
       50
102
RTVSPost2010PropOp46
 70
     1
102
RTVSPost2010Prop47
 90
       50
102
RTVSPost2010PropOp47
 70
     1
102
RTVSPost2010Prop48
 90
       50
102
RTVSPost2010PropOp48
 70
     1
102
RTVSPost2010Prop49
280
     0
102
RTVSPost2010PropOp49
 70
     1
102
RTVSPost2010Prop50
 90
       50
102
RTVSPost2010PropOp50
 70
     1
102
RTVSPost2010Prop51ColorIndex
 90
      256
102
RTVSPost2010Prop51ColorRGB
 90
-16777216
102
RTVSPost2010PropOp51
 70
     0
102
RTVSPost2010Prop52
140
1.0
102
RTVSPost2010PropOp52
 70
     0
102
RTVSPost2010Prop53
 90
        2
102
RTVSPost2010PropOp53
 70
     1
102
RTVSPost2010Prop54
  1
strokes_ogs.tif
102
RTVSPost2010PropOp54
 70
     1
102
RTVSPost2010Prop55
280
     0
102
RTVSPost2010PropOp55
 70
     1
102
RTVSPost2010Prop56
140
1.0
102
RTVSPost2010PropOp56
 70
     1
102
RTVSPost2010Prop57
140
1.0
102
RTVSPost2010PropOp57
 70
     1
102
RTVSPropertyOp0
 70
     1
102
RTVSPropertyOp1
 70
     1
102
RTVSPropertyOp2
 70
     1
102
RTVSPropertyOp3
 70
     1
102
RTVSPropertyOp4
 70
     1
102
RTVSPropertyOp5
 70
     1
102
RTVSPropertyOp6
 70
     1
102
RTVSPropertyOp7
 70
     1
102
RTVSPropertyOp8
 70
     1
102
RTVSPropertyOp9
 70
     1
102
RTVSPropertyOp10
 70
     1
102
RTVSPropertyOp11
 70
     1
102
RTVSPropertyOp12
 70
     1
102
RTVSPropertyOp13
 70
     1
102
RTVSPropertyOp14
 70
     1
102
RTVSPropertyOp15
 70
     1
102
RTVSPropertyOp16
 70
     1
102
RTVSPropertyOp17
 70
     1
102
RTVSPropertyOp18
 70
     1
102
RTVSPropertyOp19
 70
     1
102
RTVSPropertyOp20
 70
     1
102
RTVSPropertyOp21
 70
     1
102
RTVSPropertyOp22
 70
     1
102
RTVSPropertyOp23
 70
     1
102
RTVSPropertyOp24
 70
     1
102
RTVSPropertyOp25
 70
     1
102
RTVSPropertyOp26
 70
     1
102
RTVSPropertyOp27
 70
     1
102
RTVSPropertyOp28
 70
     1
102
RTVSPropertyOp29
 70
     1
102
RTVSPropertyOp30
 70
     1
102
RTVSPropertyOp31
 70
     1
102
RTVSPropertyOp32
 70
     1
102
RTVSPropertyOp33
 70
     1
102
RTVSPropertyOp34
 70
     1
102
RTVSPropertyOp35
 70
     1
102
RTVSPropertyOp36
 70
     1
102
RTVSPropertyOp37
 70
     1
102
RTVSPropertyOp38
 70
     1
102
RTVSPropertyOp39
 70
     1
102
RTVSPropertyOp40
 70
     1
102
RTVSPropertyOp41
 70
     1
102
RTVSPropertyOp42
 70
     1
102
RTVSPropertyOp43
 70
     1
102
RTVSPropertyOp44
 70
     1
102
RTVSPropertyOp45
 70
     1
102
RTVSPropertyOp46
 70
     1
102
RTVSPropertyOp47
 70
     1
102
RTVSPropertyOp48
 70
     1
102
RTVSPropertyOp49
 70
     1
102
RTVSPropertyOp50
 70
     1
102
RTVSPropertyOp51
 70
     0
102
RTVSPropertyOp52
 70
     0
102
RTVSPropertyOp53
 70
     1
102
RTVSPropertyOp54
 70
     1
102
RTVSPropertyOp55
 70
     1
102
RTVSPropertyOp56
 70
     1
102
RTVSPropertyOp57
 70
     1
102
RTVSPropertyOp58
 70
     1
102
RTVSPropertyOp59
 70
     1
102
RTVSPropertyOp60
 70
     1
102
RTVSPropertyOp61
 70
     1
102
RTVSPropertyOp62
 70
     1
  0
XRECORD
  5
C2BA
102
{ACAD_REACTORS
330
C2B9
102
}
330
C2B9
100
AcDbXrecord
280
     1
102
RTVSPost2010Prop28
280
     0
102
RTVSPost2010PropOp28
 70
     1
102
RTVSPost2010Prop29
280
     1
102
RTVSPost2010PropOp29
 70
     1
102
RTVSPost2010Prop30
280
     1
102
RTVSPost2010PropOp30
 70
     1
102
RTVSPost2010Prop31
280
     0
102
RTVSPost2010PropOp31
 70
     1
102
RTVSPost2010Prop32
280
     0
102
RTVSPost2010PropOp32
 70
     1
102
RTVSPost2010Prop33
280
     0
102
RTVSPost2010PropOp33
 70
     1
102
RTVSPost2010Prop34
280
     0
102
RTVSPost2010PropOp34
 70
     1
102
RTVSPost2010Prop35
280
     0
102
RTVSPost2010PropOp35
 70
     1
102
RTVSPost2010Prop36
280
     0
102
RTVSPost2010PropOp36
 70
     1
102
RTVSPost2010Prop37
 90
       50
102
RTVSPost2010PropOp37
 70
     1
102
RTVSPost2010Prop38
140
0.0
102
RTVSPost2010PropOp38
 70
     1
102
RTVSPost2010Prop39
140
1.0
102
RTVSPost2010PropOp39
 70
     1
102
RTVSPost2010Prop40
 90
        0
102
RTVSPost2010PropOp40
 70
     1
102
RTVSPost2010Prop41ColorIndex
 90
       18
102
RTVSPost2010Prop41ColorRGB
 90
        0
102
RTVSPost2010PropOp41
 70
     1
102
RTVSPost2010Prop42
 90
       50
102
RTVSPost2010PropOp42
 70
     1
102
RTVSPost2010Prop43
 90
        3
102
RTVSPost2010PropOp43
 70
     1
102
RTVSPost2010Prop44ColorIndex
 90
        5
102
RTVSPost2010Prop44ColorRGB
 90
      255
102
RTVSPost2010PropOp44
 70
     1
102
RTVSPost2010Prop45
280
     0
102
RTVSPost2010PropOp45
 70
     1
102
RTVSPost2010Prop46
 90
       50
102
RTVSPost2010PropOp46
 70
     1
102
RTVSPost2010Prop47
 90
       50
102
RTVSPost2010PropOp47
 70
     1
102
RTVSPost2010Prop48
 90
       50
102
RTVSPost2010PropOp48
 70
     1
102
RTVSPost2010Prop49
280
     0
102
RTVSPost2010PropOp49
 70
     1
102
RTVSPost2010Prop50
 90
       50
102
RTVSPost2010PropOp50
 70
     1
102
RTVSPost2010Prop51ColorIndex
 90
      256
102
RTVSPost2010Prop51ColorRGB
 90
-16777216
102
RTVSPost2010PropOp51
 70
     0
102
RTVSPost2010Prop52
140
1.0
102
RTVSPost2010PropOp52
 70
     0
102
RTVSPost2010Prop53
 90
        2
102
RTVSPost2010PropOp53
 70
     1
102
RTVSPost2010Prop54
  1
strokes_ogs.tif
102
RTVSPost2010PropOp54
 70
     1
102
RTVSPost2010Prop55
280
     0
102
RTVSPost2010PropOp55
 70
     1
102
RTVSPost2010Prop56
140
1.0
102
RTVSPost2010PropOp56
 70
     1
102
RTVSPost2010Prop57
140
1.0
102
RTVSPost2010PropOp57
 70
     1
102
RTVSPropertyOp0
 70
     1
102
RTVSPropertyOp1
 70
     1
102
RTVSPropertyOp2
 70
     1
102
RTVSPropertyOp3
 70
     1
102
RTVSPropertyOp4
 70
     1
102
RTVSPropertyOp5
 70
     1
102
RTVSPropertyOp6
 70
     1
102
RTVSPropertyOp7
 70
     1
102
RTVSPropertyOp8
 70
     1
102
RTVSPropertyOp9
 70
     1
102
RTVSPropertyOp10
 70
     1
102
RTVSPropertyOp11
 70
     1
102
RTVSPropertyOp12
 70
     1
102
RTVSPropertyOp13
 70
     1
102
RTVSPropertyOp14
 70
     1
102
RTVSPropertyOp15
 70
     1
102
RTVSPropertyOp16
 70
     1
102
RTVSPropertyOp17
 70
     1
102
RTVSPropertyOp18
 70
     1
102
RTVSPropertyOp19
 70
     1
102
RTVSPropertyOp20
 70
     1
102
RTVSPropertyOp21
 70
     1
102
RTVSPropertyOp22
 70
     1
102
RTVSPropertyOp23
 70
     1
102
RTVSPropertyOp24
 70
     1
102
RTVSPropertyOp25
 70
     1
102
RTVSPropertyOp26
 70
     1
102
RTVSPropertyOp27
 70
     1
102
RTVSPropertyOp28
 70
     1
102
RTVSPropertyOp29
 70
     1
102
RTVSPropertyOp30
 70
     1
102
RTVSPropertyOp31
 70
     1
102
RTVSPropertyOp32
 70
     1
102
RTVSPropertyOp33
 70
     1
102
RTVSPropertyOp34
 70
     1
102
RTVSPropertyOp35
 70
     1
102
RTVSPropertyOp36
 70
     1
102
RTVSPropertyOp37
 70
     1
102
RTVSPropertyOp38
 70
     1
102
RTVSPropertyOp39
 70
     1
102
RTVSPropertyOp40
 70
     1
102
RTVSPropertyOp41
 70
     1
102
RTVSPropertyOp42
 70
     1
102
RTVSPropertyOp43
 70
     1
102
RTVSPropertyOp44
 70
     1
102
RTVSPropertyOp45
 70
     1
102
RTVSPropertyOp46
 70
     1
102
RTVSPropertyOp47
 70
     1
102
RTVSPropertyOp48
 70
     1
102
RTVSPropertyOp49
 70
     1
102
RTVSPropertyOp50
 70
     1
102
RTVSPropertyOp51
 70
     0
102
RTVSPropertyOp52
 70
     0
102
RTVSPropertyOp53
 70
     1
102
RTVSPropertyOp54
 70
     1
102
RTVSPropertyOp55
 70
     1
102
RTVSPropertyOp56
 70
     1
102
RTVSPropertyOp57
 70
     1
102
RTVSPropertyOp58
 70
     1
102
RTVSPropertyOp59
 70
     1
102
RTVSPropertyOp60
 70
     1
102
RTVSPropertyOp61
 70
     1
102
RTVSPropertyOp62
 70
     1
  0
XRECORD
  5
C2BC
102
{ACAD_REACTORS
330
C2BB
102
}
330
C2BB
100
AcDbXrecord
280
     1
102
RTVSPost2010Prop28
280
     0
102
RTVSPost2010PropOp28
 70
     1
102
RTVSPost2010Prop29
280
     1
102
RTVSPost2010PropOp29
 70
     1
102
RTVSPost2010Prop30
280
     1
102
RTVSPost2010PropOp30
 70
     1
102
RTVSPost2010Prop31
280
     0
102
RTVSPost2010PropOp31
 70
     1
102
RTVSPost2010Prop32
280
     0
102
RTVSPost2010PropOp32
 70
     1
102
RTVSPost2010Prop33
280
     0
102
RTVSPost2010PropOp33
 70
     1
102
RTVSPost2010Prop34
280
     0
102
RTVSPost2010PropOp34
 70
     1
102
RTVSPost2010Prop35
280
     0
102
RTVSPost2010PropOp35
 70
     1
102
RTVSPost2010Prop36
280
     0
102
RTVSPost2010PropOp36
 70
     1
102
RTVSPost2010Prop37
 90
       50
102
RTVSPost2010PropOp37
 70
     1
102
RTVSPost2010Prop38
140
0.0
102
RTVSPost2010PropOp38
 70
     1
102
RTVSPost2010Prop39
140
1.0
102
RTVSPost2010PropOp39
 70
     1
102
RTVSPost2010Prop40
 90
        0
102
RTVSPost2010PropOp40
 70
     1
102
RTVSPost2010Prop41ColorIndex
 90
       18
102
RTVSPost2010Prop41ColorRGB
 90
        0
102
RTVSPost2010PropOp41
 70
     1
102
RTVSPost2010Prop42
 90
       50
102
RTVSPost2010PropOp42
 70
     1
102
RTVSPost2010Prop43
 90
        3
102
RTVSPost2010PropOp43
 70
     1
102
RTVSPost2010Prop44ColorIndex
 90
        5
102
RTVSPost2010Prop44ColorRGB
 90
      255
102
RTVSPost2010PropOp44
 70
     1
102
RTVSPost2010Prop45
280
     0
102
RTVSPost2010PropOp45
 70
     1
102
RTVSPost2010Prop46
 90
       50
102
RTVSPost2010PropOp46
 70
     1
102
RTVSPost2010Prop47
 90
       50
102
RTVSPost2010PropOp47
 70
     1
102
RTVSPost2010Prop48
 90
       50
102
RTVSPost2010PropOp48
 70
     1
102
RTVSPost2010Prop49
280
     0
102
RTVSPost2010PropOp49
 70
     1
102
RTVSPost2010Prop50
 90
       50
102
RTVSPost2010PropOp50
 70
     1
102
RTVSPost2010Prop51ColorIndex
 90
      256
102
RTVSPost2010Prop51ColorRGB
 90
-16777216
102
RTVSPost2010PropOp51
 70
     0
102
RTVSPost2010Prop52
140
1.0
102
RTVSPost2010PropOp52
 70
     0
102
RTVSPost2010Prop53
 90
        2
102
RTVSPost2010PropOp53
 70
     1
102
RTVSPost2010Prop54
  1
strokes_ogs.tif
102
RTVSPost2010PropOp54
 70
     1
102
RTVSPost2010Prop55
280
     0
102
RTVSPost2010PropOp55
 70
     1
102
RTVSPost2010Prop56
140
1.0
102
RTVSPost2010PropOp56
 70
     1
102
RTVSPost2010Prop57
140
1.0
102
RTVSPost2010PropOp57
 70
     1
102
RTVSPropertyOp0
 70
     1
102
RTVSPropertyOp1
 70
     1
102
RTVSPropertyOp2
 70
     1
102
RTVSPropertyOp3
 70
     1
102
RTVSPropertyOp4
 70
     1
102
RTVSPropertyOp5
 70
     1
102
RTVSPropertyOp6
 70
     1
102
RTVSPropertyOp7
 70
     1
102
RTVSPropertyOp8
 70
     1
102
RTVSPropertyOp9
 70
     1
102
RTVSPropertyOp10
 70
     1
102
RTVSPropertyOp11
 70
     1
102
RTVSPropertyOp12
 70
     1
102
RTVSPropertyOp13
 70
     1
102
RTVSPropertyOp14
 70
     1
102
RTVSPropertyOp15
 70
     1
102
RTVSPropertyOp16
 70
     1
102
RTVSPropertyOp17
 70
     1
102
RTVSPropertyOp18
 70
     1
102
RTVSPropertyOp19
 70
     1
102
RTVSPropertyOp20
 70
     1
102
RTVSPropertyOp21
 70
     1
102
RTVSPropertyOp22
 70
     1
102
RTVSPropertyOp23
 70
     1
102
RTVSPropertyOp24
 70
     1
102
RTVSPropertyOp25
 70
     1
102
RTVSPropertyOp26
 70
     1
102
RTVSPropertyOp27
 70
     1
102
RTVSPropertyOp28
 70
     1
102
RTVSPropertyOp29
 70
     1
102
RTVSPropertyOp30
 70
     1
102
RTVSPropertyOp31
 70
     1
102
RTVSPropertyOp32
 70
     1
102
RTVSPropertyOp33
 70
     1
102
RTVSPropertyOp34
 70
     1
102
RTVSPropertyOp35
 70
     1
102
RTVSPropertyOp36
 70
     1
102
RTVSPropertyOp37
 70
     1
102
RTVSPropertyOp38
 70
     1
102
RTVSPropertyOp39
 70
     1
102
RTVSPropertyOp40
 70
     1
102
RTVSPropertyOp41
 70
     1
102
RTVSPropertyOp42
 70
     1
102
RTVSPropertyOp43
 70
     1
102
RTVSPropertyOp44
 70
     1
102
RTVSPropertyOp45
 70
     1
102
RTVSPropertyOp46
 70
     1
102
RTVSPropertyOp47
 70
     1
102
RTVSPropertyOp48
 70
     1
102
RTVSPropertyOp49
 70
     1
102
RTVSPropertyOp50
 70
     1
102
RTVSPropertyOp51
 70
     0
102
RTVSPropertyOp52
 70
     0
102
RTVSPropertyOp53
 70
     1
102
RTVSPropertyOp54
 70
     1
102
RTVSPropertyOp55
 70
     1
102
RTVSPropertyOp56
 70
     1
102
RTVSPropertyOp57
 70
     1
102
RTVSPropertyOp58
 70
     1
102
RTVSPropertyOp59
 70
     1
102
RTVSPropertyOp60
 70
     1
102
RTVSPropertyOp61
 70
     1
102
RTVSPropertyOp62
 70
     1
  0
XRECORD
  5
C2C4
102
{ACAD_REACTORS
330
C2C3
102
}
330
C2C3
100
AcDbXrecord
280
     1
102
RTVSPost2010Prop28
280
     0
102
RTVSPost2010PropOp28
 70
     1
102
RTVSPost2010Prop29
280
     1
102
RTVSPost2010PropOp29
 70
     1
102
RTVSPost2010Prop30
280
     1
102
RTVSPost2010PropOp30
 70
     1
102
RTVSPost2010Prop31
280
     0
102
RTVSPost2010PropOp31
 70
     1
102
RTVSPost2010Prop32
280
     0
102
RTVSPost2010PropOp32
 70
     1
102
RTVSPost2010Prop33
280
     0
102
RTVSPost2010PropOp33
 70
     1
102
RTVSPost2010Prop34
280
     0
102
RTVSPost2010PropOp34
 70
     1
102
RTVSPost2010Prop35
280
     0
102
RTVSPost2010PropOp35
 70
     1
102
RTVSPost2010Prop36
280
     0
102
RTVSPost2010PropOp36
 70
     1
102
RTVSPost2010Prop37
 90
       50
102
RTVSPost2010PropOp37
 70
     1
102
RTVSPost2010Prop38
140
0.0
102
RTVSPost2010PropOp38
 70
     1
102
RTVSPost2010Prop39
140
1.0
102
RTVSPost2010PropOp39
 70
     1
102
RTVSPost2010Prop40
 90
        0
102
RTVSPost2010PropOp40
 70
     1
102
RTVSPost2010Prop41ColorIndex
 90
       18
102
RTVSPost2010Prop41ColorRGB
 90
        0
102
RTVSPost2010PropOp41
 70
     1
102
RTVSPost2010Prop42
 90
       50
102
RTVSPost2010PropOp42
 70
     1
102
RTVSPost2010Prop43
 90
        3
102
RTVSPost2010PropOp43
 70
     1
102
RTVSPost2010Prop44ColorIndex
 90
        5
102
RTVSPost2010Prop44ColorRGB
 90
      255
102
RTVSPost2010PropOp44
 70
     1
102
RTVSPost2010Prop45
280
     0
102
RTVSPost2010PropOp45
 70
     1
102
RTVSPost2010Prop46
 90
       50
102
RTVSPost2010PropOp46
 70
     1
102
RTVSPost2010Prop47
 90
       50
102
RTVSPost2010PropOp47
 70
     1
102
RTVSPost2010Prop48
 90
       50
102
RTVSPost2010PropOp48
 70
     1
102
RTVSPost2010Prop49
280
     0
102
RTVSPost2010PropOp49
 70
     1
102
RTVSPost2010Prop50
 90
       50
102
RTVSPost2010PropOp50
 70
     1
102
RTVSPost2010Prop51ColorIndex
 90
      256
102
RTVSPost2010Prop51ColorRGB
 90
-16777216
102
RTVSPost2010PropOp51
 70
     0
102
RTVSPost2010Prop52
140
1.0
102
RTVSPost2010PropOp52
 70
     0
102
RTVSPost2010Prop53
 90
        2
102
RTVSPost2010PropOp53
 70
     1
102
RTVSPost2010Prop54
  1
strokes_ogs.tif
102
RTVSPost2010PropOp54
 70
     1
102
RTVSPost2010Prop55
280
     0
102
RTVSPost2010PropOp55
 70
     1
102
RTVSPost2010Prop56
140
1.0
102
RTVSPost2010PropOp56
 70
     1
102
RTVSPost2010Prop57
140
1.0
102
RTVSPost2010PropOp57
 70
     1
102
RTVSPropertyOp0
 70
     1
102
RTVSPropertyOp1
 70
     1
102
RTVSPropertyOp2
 70
     1
102
RTVSPropertyOp3
 70
     1
102
RTVSPropertyOp4
 70
     1
102
RTVSPropertyOp5
 70
     1
102
RTVSPropertyOp6
 70
     1
102
RTVSPropertyOp7
 70
     1
102
RTVSPropertyOp8
 70
     1
102
RTVSPropertyOp9
 70
     1
102
RTVSPropertyOp10
 70
     1
102
RTVSPropertyOp11
 70
     1
102
RTVSPropertyOp12
 70
     1
102
RTVSPropertyOp13
 70
     1
102
RTVSPropertyOp14
 70
     1
102
RTVSPropertyOp15
 70
     1
102
RTVSPropertyOp16
 70
     1
102
RTVSPropertyOp17
 70
     1
102
RTVSPropertyOp18
 70
     1
102
RTVSPropertyOp19
 70
     1
102
RTVSPropertyOp20
 70
     1
102
RTVSPropertyOp21
 70
     1
102
RTVSPropertyOp22
 70
     1
102
RTVSPropertyOp23
 70
     1
102
RTVSPropertyOp24
 70
     1
102
RTVSPropertyOp25
 70
     1
102
RTVSPropertyOp26
 70
     1
102
RTVSPropertyOp27
 70
     1
102
RTVSPropertyOp28
 70
     1
102
RTVSPropertyOp29
 70
     1
102
RTVSPropertyOp30
 70
     1
102
RTVSPropertyOp31
 70
     1
102
RTVSPropertyOp32
 70
     1
102
RTVSPropertyOp33
 70
     1
102
RTVSPropertyOp34
 70
     1
102
RTVSPropertyOp35
 70
     1
102
RTVSPropertyOp36
 70
     1
102
RTVSPropertyOp37
 70
     1
102
RTVSPropertyOp38
 70
     1
102
RTVSPropertyOp39
 70
     1
102
RTVSPropertyOp40
 70
     1
102
RTVSPropertyOp41
 70
     1
102
RTVSPropertyOp42
 70
     1
102
RTVSPropertyOp43
 70
     1
102
RTVSPropertyOp44
 70
     1
102
RTVSPropertyOp45
 70
     1
102
RTVSPropertyOp46
 70
     1
102
RTVSPropertyOp47
 70
     1
102
RTVSPropertyOp48
 70
     1
102
RTVSPropertyOp49
 70
     1
102
RTVSPropertyOp50
 70
     1
102
RTVSPropertyOp51
 70
     0
102
RTVSPropertyOp52
 70
     0
102
RTVSPropertyOp53
 70
     1
102
RTVSPropertyOp54
 70
     1
102
RTVSPropertyOp55
 70
     1
102
RTVSPropertyOp56
 70
     1
102
RTVSPropertyOp57
 70
     1
102
RTVSPropertyOp58
 70
     1
102
RTVSPropertyOp59
 70
     1
102
RTVSPropertyOp60
 70
     1
102
RTVSPropertyOp61
 70
     1
102
RTVSPropertyOp62
 70
     1
  0
XRECORD
  5
C2E0
102
{ACAD_REACTORS
330
C2DF
102
}
330
C2DF
100
AcDbXrecord
280
     1
102
RTVSPost2010Prop28
280
     0
102
RTVSPost2010PropOp28
 70
     1
102
RTVSPost2010Prop29
280
     1
102
RTVSPost2010PropOp29
 70
     1
102
RTVSPost2010Prop30
280
     1
102
RTVSPost2010PropOp30
 70
     1
102
RTVSPost2010Prop31
280
     0
102
RTVSPost2010PropOp31
 70
     1
102
RTVSPost2010Prop32
280
     0
102
RTVSPost2010PropOp32
 70
     1
102
RTVSPost2010Prop33
280
     0
102
RTVSPost2010PropOp33
 70
     1
102
RTVSPost2010Prop34
280
     0
102
RTVSPost2010PropOp34
 70
     1
102
RTVSPost2010Prop35
280
     0
102
RTVSPost2010PropOp35
 70
     1
102
RTVSPost2010Prop36
280
     0
102
RTVSPost2010PropOp36
 70
     1
102
RTVSPost2010Prop37
 90
       50
102
RTVSPost2010PropOp37
 70
     0
102
RTVSPost2010Prop38
140
0.0
102
RTVSPost2010PropOp38
 70
     0
102
RTVSPost2010Prop39
140
1.0
102
RTVSPost2010PropOp39
 70
     0
102
RTVSPost2010Prop40
 90
        0
102
RTVSPost2010PropOp40
 70
     0
102
RTVSPost2010Prop41ColorIndex
 90
       18
102
RTVSPost2010Prop41ColorRGB
 90
        0
102
RTVSPost2010PropOp41
 70
     0
102
RTVSPost2010Prop42
 90
       50
102
RTVSPost2010PropOp42
 70
     0
102
RTVSPost2010Prop43
 90
        3
102
RTVSPost2010PropOp43
 70
     0
102
RTVSPost2010Prop44ColorIndex
 90
        5
102
RTVSPost2010Prop44ColorRGB
 90
      255
102
RTVSPost2010PropOp44
 70
     0
102
RTVSPost2010Prop45
280
     0
102
RTVSPost2010PropOp45
 70
     1
102
RTVSPost2010Prop46
 90
       50
102
RTVSPost2010PropOp46
 70
     0
102
RTVSPost2010Prop47
 90
       50
102
RTVSPost2010PropOp47
 70
     0
102
RTVSPost2010Prop48
 90
       50
102
RTVSPost2010PropOp48
 70
     0
102
RTVSPost2010Prop49
280
     0
102
RTVSPost2010PropOp49
 70
     1
102
RTVSPost2010Prop50
 90
       50
102
RTVSPost2010PropOp50
 70
     0
102
RTVSPost2010Prop51ColorIndex
 90
      256
102
RTVSPost2010Prop51ColorRGB
 90
-16777216
102
RTVSPost2010PropOp51
 70
     0
102
RTVSPost2010Prop52
140
1.0
102
RTVSPost2010PropOp52
 70
     0
102
RTVSPost2010Prop53
 90
        2
102
RTVSPost2010PropOp53
 70
     0
102
RTVSPost2010Prop54
  1
strokes_ogs.tif
102
RTVSPost2010PropOp54
 70
     0
102
RTVSPost2010Prop55
280
     0
102
RTVSPost2010PropOp55
 70
     1
102
RTVSPost2010Prop56
140
1.0
102
RTVSPost2010PropOp56
 70
     0
102
RTVSPost2010Prop57
140
1.0
102
RTVSPost2010PropOp57
 70
     0
102
RTVSPropertyOp0
 70
     0
102
RTVSPropertyOp1
 70
     0
102
RTVSPropertyOp2
 70
     0
102
RTVSPropertyOp3
 70
     0
102
RTVSPropertyOp4
 70
     0
102
RTVSPropertyOp5
 70
     0
102
RTVSPropertyOp6
 70
     0
102
RTVSPropertyOp7
 70
     0
102
RTVSPropertyOp8
 70
     0
102
RTVSPropertyOp9
 70
     0
102
RTVSPropertyOp10
 70
     0
102
RTVSPropertyOp11
 70
     0
102
RTVSPropertyOp12
 70
     0
102
RTVSPropertyOp13
 70
     0
102
RTVSPropertyOp14
 70
     2
102
RTVSPropertyOp15
 70
     0
102
RTVSPropertyOp16
 70
     0
102
RTVSPropertyOp17
 70
     0
102
RTVSPropertyOp18
 70
     0
102
RTVSPropertyOp19
 70
     0
102
RTVSPropertyOp20
 70
     0
102
RTVSPropertyOp21
 70
     0
102
RTVSPropertyOp22
 70
     0
102
RTVSPropertyOp23
 70
     0
102
RTVSPropertyOp24
 70
     0
102
RTVSPropertyOp25
 70
     0
102
RTVSPropertyOp26
 70
     0
102
RTVSPropertyOp27
 70
     0
102
RTVSPropertyOp28
 70
     1
102
RTVSPropertyOp29
 70
     1
102
RTVSPropertyOp30
 70
     1
102
RTVSPropertyOp31
 70
     1
102
RTVSPropertyOp32
 70
     1
102
RTVSPropertyOp33
 70
     1
102
RTVSPropertyOp34
 70
     1
102
RTVSPropertyOp35
 70
     1
102
RTVSPropertyOp36
 70
     1
102
RTVSPropertyOp37
 70
     0
102
RTVSPropertyOp38
 70
     0
102
RTVSPropertyOp39
 70
     0
102
RTVSPropertyOp40
 70
     0
102
RTVSPropertyOp41
 70
     0
102
RTVSPropertyOp42
 70
     0
102
RTVSPropertyOp43
 70
     0
102
RTVSPropertyOp44
 70
     0
102
RTVSPropertyOp45
 70
     1
102
RTVSPropertyOp46
 70
     0
102
RTVSPropertyOp47
 70
     0
102
RTVSPropertyOp48
 70
     0
102
RTVSPropertyOp49
 70
     1
102
RTVSPropertyOp50
 70
     0
102
RTVSPropertyOp51
 70
     0
102
RTVSPropertyOp52
 70
     0
102
RTVSPropertyOp53
 70
     0
102
RTVSPropertyOp54
 70
     0
102
RTVSPropertyOp55
 70
     1
102
RTVSPropertyOp56
 70
     0
102
RTVSPropertyOp57
 70
     0
102
RTVSPropertyOp58
 70
     0
102
RTVSPropertyOp59
 70
     0
102
RTVSPropertyOp60
 70
     0
102
RTVSPropertyOp61
 70
     0
102
RTVSPropertyOp62
 70
     0
  0
XRECORD
  5
C2D0
102
{ACAD_REACTORS
330
C2CF
102
}
330
C2CF
100
AcDbXrecord
280
     1
102
RTVSPost2010Prop28
280
     0
102
RTVSPost2010PropOp28
 70
     1
102
RTVSPost2010Prop29
280
     1
102
RTVSPost2010PropOp29
 70
     1
102
RTVSPost2010Prop30
280
     1
102
RTVSPost2010PropOp30
 70
     1
102
RTVSPost2010Prop31
280
     0
102
RTVSPost2010PropOp31
 70
     1
102
RTVSPost2010Prop32
280
     0
102
RTVSPost2010PropOp32
 70
     1
102
RTVSPost2010Prop33
280
     0
102
RTVSPost2010PropOp33
 70
     1
102
RTVSPost2010Prop34
280
     0
102
RTVSPost2010PropOp34
 70
     1
102
RTVSPost2010Prop35
280
     0
102
RTVSPost2010PropOp35
 70
     1
102
RTVSPost2010Prop36
280
     0
102
RTVSPost2010PropOp36
 70
     1
102
RTVSPost2010Prop37
 90
       50
102
RTVSPost2010PropOp37
 70
     1
102
RTVSPost2010Prop38
140
0.0
102
RTVSPost2010PropOp38
 70
     1
102
RTVSPost2010Prop39
140
1.0
102
RTVSPost2010PropOp39
 70
     1
102
RTVSPost2010Prop40
 90
        0
102
RTVSPost2010PropOp40
 70
     1
102
RTVSPost2010Prop41ColorIndex
 90
       18
102
RTVSPost2010Prop41ColorRGB
 90
        0
102
RTVSPost2010PropOp41
 70
     1
102
RTVSPost2010Prop42
 90
       50
102
RTVSPost2010PropOp42
 70
     1
102
RTVSPost2010Prop43
 90
        3
102
RTVSPost2010PropOp43
 70
     1
102
RTVSPost2010Prop44ColorIndex
 90
        5
102
RTVSPost2010Prop44ColorRGB
 90
      255
102
RTVSPost2010PropOp44
 70
     1
102
RTVSPost2010Prop45
280
     0
102
RTVSPost2010PropOp45
 70
     1
102
RTVSPost2010Prop46
 90
       50
102
RTVSPost2010PropOp46
 70
     1
102
RTVSPost2010Prop47
 90
       50
102
RTVSPost2010PropOp47
 70
     1
102
RTVSPost2010Prop48
 90
       50
102
RTVSPost2010PropOp48
 70
     1
102
RTVSPost2010Prop49
280
     0
102
RTVSPost2010PropOp49
 70
     1
102
RTVSPost2010Prop50
 90
       50
102
RTVSPost2010PropOp50
 70
     1
102
RTVSPost2010Prop51ColorIndex
 90
      256
102
RTVSPost2010Prop51ColorRGB
 90
-16777216
102
RTVSPost2010PropOp51
 70
     0
102
RTVSPost2010Prop52
140
1.0
102
RTVSPost2010PropOp52
 70
     0
102
RTVSPost2010Prop53
 90
        2
102
RTVSPost2010PropOp53
 70
     1
102
RTVSPost2010Prop54
  1
strokes_ogs.tif
102
RTVSPost2010PropOp54
 70
     1
102
RTVSPost2010Prop55
280
     0
102
RTVSPost2010PropOp55
 70
     1
102
RTVSPost2010Prop56
140
1.0
102
RTVSPost2010PropOp56
 70
     1
102
RTVSPost2010Prop57
140
1.0
102
RTVSPost2010PropOp57
 70
     1
102
RTVSPropertyOp0
 70
     1
102
RTVSPropertyOp1
 70
     1
102
RTVSPropertyOp2
 70
     1
102
RTVSPropertyOp3
 70
     1
102
RTVSPropertyOp4
 70
     1
102
RTVSPropertyOp5
 70
     1
102
RTVSPropertyOp6
 70
     1
102
RTVSPropertyOp7
 70
     1
102
RTVSPropertyOp8
 70
     1
102
RTVSPropertyOp9
 70
     1
102
RTVSPropertyOp10
 70
     1
102
RTVSPropertyOp11
 70
     1
102
RTVSPropertyOp12
 70
     1
102
RTVSPropertyOp13
 70
     1
102
RTVSPropertyOp14
 70
     1
102
RTVSPropertyOp15
 70
     1
102
RTVSPropertyOp16
 70
     1
102
RTVSPropertyOp17
 70
     1
102
RTVSPropertyOp18
 70
     1
102
RTVSPropertyOp19
 70
     1
102
RTVSPropertyOp20
 70
     1
102
RTVSPropertyOp21
 70
     1
102
RTVSPropertyOp22
 70
     1
102
RTVSPropertyOp23
 70
     1
102
RTVSPropertyOp24
 70
     1
102
RTVSPropertyOp25
 70
     1
102
RTVSPropertyOp26
 70
     1
102
RTVSPropertyOp27
 70
     1
102
RTVSPropertyOp28
 70
     1
102
RTVSPropertyOp29
 70
     1
102
RTVSPropertyOp30
 70
     1
102
RTVSPropertyOp31
 70
     1
102
RTVSPropertyOp32
 70
     1
102
RTVSPropertyOp33
 70
     1
102
RTVSPropertyOp34
 70
     1
102
RTVSPropertyOp35
 70
     1
102
RTVSPropertyOp36
 70
     1
102
RTVSPropertyOp37
 70
     1
102
RTVSPropertyOp38
 70
     1
102
RTVSPropertyOp39
 70
     1
102
RTVSPropertyOp40
 70
     1
102
RTVSPropertyOp41
 70
     1
102
RTVSPropertyOp42
 70
     1
102
RTVSPropertyOp43
 70
     1
102
RTVSPropertyOp44
 70
     1
102
RTVSPropertyOp45
 70
     1
102
RTVSPropertyOp46
 70
     1
102
RTVSPropertyOp47
 70
     1
102
RTVSPropertyOp48
 70
     1
102
RTVSPropertyOp49
 70
     1
102
RTVSPropertyOp50
 70
     1
102
RTVSPropertyOp51
 70
     0
102
RTVSPropertyOp52
 70
     0
102
RTVSPropertyOp53
 70
     1
102
RTVSPropertyOp54
 70
     1
102
RTVSPropertyOp55
 70
     1
102
RTVSPropertyOp56
 70
     1
102
RTVSPropertyOp57
 70
     1
102
RTVSPropertyOp58
 70
     1
102
RTVSPropertyOp59
 70
     1
102
RTVSPropertyOp60
 70
     1
102
RTVSPropertyOp61
 70
     1
102
RTVSPropertyOp62
 70
     1
  0
XRECORD
  5
C2E2
102
{ACAD_REACTORS
330
C2E1
102
}
330
C2E1
100
AcDbXrecord
280
     1
102
RTVSPost2010Prop28
280
     0
102
RTVSPost2010PropOp28
 70
     1
102
RTVSPost2010Prop29
280
     1
102
RTVSPost2010PropOp29
 70
     1
102
RTVSPost2010Prop30
280
     1
102
RTVSPost2010PropOp30
 70
     1
102
RTVSPost2010Prop31
280
     0
102
RTVSPost2010PropOp31
 70
     1
102
RTVSPost2010Prop32
280
     0
102
RTVSPost2010PropOp32
 70
     1
102
RTVSPost2010Prop33
280
     0
102
RTVSPost2010PropOp33
 70
     1
102
RTVSPost2010Prop34
280
     0
102
RTVSPost2010PropOp34
 70
     1
102
RTVSPost2010Prop35
280
     0
102
RTVSPost2010PropOp35
 70
     1
102
RTVSPost2010Prop36
280
     0
102
RTVSPost2010PropOp36
 70
     1
102
RTVSPost2010Prop37
 90
       50
102
RTVSPost2010PropOp37
 70
     0
102
RTVSPost2010Prop38
140
0.0
102
RTVSPost2010PropOp38
 70
     0
102
RTVSPost2010Prop39
140
1.0
102
RTVSPost2010PropOp39
 70
     0
102
RTVSPost2010Prop40
 90
        0
102
RTVSPost2010PropOp40
 70
     0
102
RTVSPost2010Prop41ColorIndex
 90
       18
102
RTVSPost2010Prop41ColorRGB
 90
        0
102
RTVSPost2010PropOp41
 70
     0
102
RTVSPost2010Prop42
 90
       50
102
RTVSPost2010PropOp42
 70
     0
102
RTVSPost2010Prop43
 90
        3
102
RTVSPost2010PropOp43
 70
     0
102
RTVSPost2010Prop44ColorIndex
 90
        5
102
RTVSPost2010Prop44ColorRGB
 90
      255
102
RTVSPost2010PropOp44
 70
     0
102
RTVSPost2010Prop45
280
     0
102
RTVSPost2010PropOp45
 70
     1
102
RTVSPost2010Prop46
 90
       50
102
RTVSPost2010PropOp46
 70
     0
102
RTVSPost2010Prop47
 90
       50
102
RTVSPost2010PropOp47
 70
     0
102
RTVSPost2010Prop48
 90
       50
102
RTVSPost2010PropOp48
 70
     0
102
RTVSPost2010Prop49
280
     0
102
RTVSPost2010PropOp49
 70
     1
102
RTVSPost2010Prop50
 90
       50
102
RTVSPost2010PropOp50
 70
     0
102
RTVSPost2010Prop51ColorIndex
 90
      256
102
RTVSPost2010Prop51ColorRGB
 90
-16777216
102
RTVSPost2010PropOp51
 70
     0
102
RTVSPost2010Prop52
140
1.0
102
RTVSPost2010PropOp52
 70
     0
102
RTVSPost2010Prop53
 90
        2
102
RTVSPost2010PropOp53
 70
     0
102
RTVSPost2010Prop54
  1
strokes_ogs.tif
102
RTVSPost2010PropOp54
 70
     0
102
RTVSPost2010Prop55
280
     0
102
RTVSPost2010PropOp55
 70
     1
102
RTVSPost2010Prop56
140
1.0
102
RTVSPost2010PropOp56
 70
     0
102
RTVSPost2010Prop57
140
1.0
102
RTVSPost2010PropOp57
 70
     0
102
RTVSPropertyOp0
 70
     0
102
RTVSPropertyOp1
 70
     0
102
RTVSPropertyOp2
 70
     0
102
RTVSPropertyOp3
 70
     0
102
RTVSPropertyOp4
 70
     0
102
RTVSPropertyOp5
 70
     0
102
RTVSPropertyOp6
 70
     0
102
RTVSPropertyOp7
 70
     0
102
RTVSPropertyOp8
 70
     0
102
RTVSPropertyOp9
 70
     0
102
RTVSPropertyOp10
 70
     0
102
RTVSPropertyOp11
 70
     0
102
RTVSPropertyOp12
 70
     0
102
RTVSPropertyOp13
 70
     0
102
RTVSPropertyOp14
 70
     2
102
RTVSPropertyOp15
 70
     0
102
RTVSPropertyOp16
 70
     0
102
RTVSPropertyOp17
 70
     0
102
RTVSPropertyOp18
 70
     0
102
RTVSPropertyOp19
 70
     0
102
RTVSPropertyOp20
 70
     0
102
RTVSPropertyOp21
 70
     0
102
RTVSPropertyOp22
 70
     0
102
RTVSPropertyOp23
 70
     0
102
RTVSPropertyOp24
 70
     0
102
RTVSPropertyOp25
 70
     0
102
RTVSPropertyOp26
 70
     0
102
RTVSPropertyOp27
 70
     0
102
RTVSPropertyOp28
 70
     1
102
RTVSPropertyOp29
 70
     1
102
RTVSPropertyOp30
 70
     1
102
RTVSPropertyOp31
 70
     1
102
RTVSPropertyOp32
 70
     1
102
RTVSPropertyOp33
 70
     1
102
RTVSPropertyOp34
 70
     1
102
RTVSPropertyOp35
 70
     1
102
RTVSPropertyOp36
 70
     1
102
RTVSPropertyOp37
 70
     0
102
RTVSPropertyOp38
 70
     0
102
RTVSPropertyOp39
 70
     0
102
RTVSPropertyOp40
 70
     0
102
RTVSPropertyOp41
 70
     0
102
RTVSPropertyOp42
 70
     0
102
RTVSPropertyOp43
 70
     0
102
RTVSPropertyOp44
 70
     0
102
RTVSPropertyOp45
 70
     1
102
RTVSPropertyOp46
 70
     0
102
RTVSPropertyOp47
 70
     0
102
RTVSPropertyOp48
 70
     0
102
RTVSPropertyOp49
 70
     1
102
RTVSPropertyOp50
 70
     0
102
RTVSPropertyOp51
 70
     0
102
RTVSPropertyOp52
 70
     0
102
RTVSPropertyOp53
 70
     0
102
RTVSPropertyOp54
 70
     0
102
RTVSPropertyOp55
 70
     1
102
RTVSPropertyOp56
 70
     0
102
RTVSPropertyOp57
 70
     0
102
RTVSPropertyOp58
 70
     0
102
RTVSPropertyOp59
 70
     0
102
RTVSPropertyOp60
 70
     0
102
RTVSPropertyOp61
 70
     0
102
RTVSPropertyOp62
 70
     0
  0
XRECORD
  5
C2C8
102
{ACAD_REACTORS
330
C2C7
102
}
330
C2C7
100
AcDbXrecord
280
     1
102
RTVSPost2010Prop28
280
     0
102
RTVSPost2010PropOp28
 70
     1
102
RTVSPost2010Prop29
280
     1
102
RTVSPost2010PropOp29
 70
     1
102
RTVSPost2010Prop30
280
     1
102
RTVSPost2010PropOp30
 70
     1
102
RTVSPost2010Prop31
280
     0
102
RTVSPost2010PropOp31
 70
     1
102
RTVSPost2010Prop32
280
     0
102
RTVSPost2010PropOp32
 70
     1
102
RTVSPost2010Prop33
280
     0
102
RTVSPost2010PropOp33
 70
     1
102
RTVSPost2010Prop34
280
     0
102
RTVSPost2010PropOp34
 70
     1
102
RTVSPost2010Prop35
280
     0
102
RTVSPost2010PropOp35
 70
     1
102
RTVSPost2010Prop36
280
     0
102
RTVSPost2010PropOp36
 70
     1
102
RTVSPost2010Prop37
 90
       50
102
RTVSPost2010PropOp37
 70
     1
102
RTVSPost2010Prop38
140
0.0
102
RTVSPost2010PropOp38
 70
     1
102
RTVSPost2010Prop39
140
1.0
102
RTVSPost2010PropOp39
 70
     1
102
RTVSPost2010Prop40
 90
        0
102
RTVSPost2010PropOp40
 70
     1
102
RTVSPost2010Prop41ColorIndex
 90
       18
102
RTVSPost2010Prop41ColorRGB
 90
        0
102
RTVSPost2010PropOp41
 70
     1
102
RTVSPost2010Prop42
 90
       50
102
RTVSPost2010PropOp42
 70
     1
102
RTVSPost2010Prop43
 90
        3
102
RTVSPost2010PropOp43
 70
     1
102
RTVSPost2010Prop44ColorIndex
 90
        5
102
RTVSPost2010Prop44ColorRGB
 90
      255
102
RTVSPost2010PropOp44
 70
     1
102
RTVSPost2010Prop45
280
     0
102
RTVSPost2010PropOp45
 70
     1
102
RTVSPost2010Prop46
 90
       50
102
RTVSPost2010PropOp46
 70
     1
102
RTVSPost2010Prop47
 90
       50
102
RTVSPost2010PropOp47
 70
     1
102
RTVSPost2010Prop48
 90
       50
102
RTVSPost2010PropOp48
 70
     1
102
RTVSPost2010Prop49
280
     0
102
RTVSPost2010PropOp49
 70
     1
102
RTVSPost2010Prop50
 90
       50
102
RTVSPost2010PropOp50
 70
     1
102
RTVSPost2010Prop51ColorIndex
 90
      256
102
RTVSPost2010Prop51ColorRGB
 90
-16777216
102
RTVSPost2010PropOp51
 70
     0
102
RTVSPost2010Prop52
140
1.0
102
RTVSPost2010PropOp52
 70
     0
102
RTVSPost2010Prop53
 90
        2
102
RTVSPost2010PropOp53
 70
     1
102
RTVSPost2010Prop54
  1
strokes_ogs.tif
102
RTVSPost2010PropOp54
 70
     1
102
RTVSPost2010Prop55
280
     0
102
RTVSPost2010PropOp55
 70
     1
102
RTVSPost2010Prop56
140
1.0
102
RTVSPost2010PropOp56
 70
     1
102
RTVSPost2010Prop57
140
1.0
102
RTVSPost2010PropOp57
 70
     1
102
RTVSPropertyOp0
 70
     1
102
RTVSPropertyOp1
 70
     1
102
RTVSPropertyOp2
 70
     1
102
RTVSPropertyOp3
 70
     1
102
RTVSPropertyOp4
 70
     1
102
RTVSPropertyOp5
 70
     1
102
RTVSPropertyOp6
 70
     1
102
RTVSPropertyOp7
 70
     1
102
RTVSPropertyOp8
 70
     1
102
RTVSPropertyOp9
 70
     1
102
RTVSPropertyOp10
 70
     1
102
RTVSPropertyOp11
 70
     1
102
RTVSPropertyOp12
 70
     1
102
RTVSPropertyOp13
 70
     1
102
RTVSPropertyOp14
 70
     1
102
RTVSPropertyOp15
 70
     1
102
RTVSPropertyOp16
 70
     1
102
RTVSPropertyOp17
 70
     1
102
RTVSPropertyOp18
 70
     1
102
RTVSPropertyOp19
 70
     1
102
RTVSPropertyOp20
 70
     1
102
RTVSPropertyOp21
 70
     1
102
RTVSPropertyOp22
 70
     1
102
RTVSPropertyOp23
 70
     1
102
RTVSPropertyOp24
 70
     1
102
RTVSPropertyOp25
 70
     1
102
RTVSPropertyOp26
 70
     1
102
RTVSPropertyOp27
 70
     1
102
RTVSPropertyOp28
 70
     1
102
RTVSPropertyOp29
 70
     1
102
RTVSPropertyOp30
 70
     1
102
RTVSPropertyOp31
 70
     1
102
RTVSPropertyOp32
 70
     1
102
RTVSPropertyOp33
 70
     1
102
RTVSPropertyOp34
 70
     1
102
RTVSPropertyOp35
 70
     1
102
RTVSPropertyOp36
 70
     1
102
RTVSPropertyOp37
 70
     1
102
RTVSPropertyOp38
 70
     1
102
RTVSPropertyOp39
 70
     1
102
RTVSPropertyOp40
 70
     1
102
RTVSPropertyOp41
 70
     1
102
RTVSPropertyOp42
 70
     1
102
RTVSPropertyOp43
 70
     1
102
RTVSPropertyOp44
 70
     1
102
RTVSPropertyOp45
 70
     1
102
RTVSPropertyOp46
 70
     1
102
RTVSPropertyOp47
 70
     1
102
RTVSPropertyOp48
 70
     1
102
RTVSPropertyOp49
 70
     1
102
RTVSPropertyOp50
 70
     1
102
RTVSPropertyOp51
 70
     0
102
RTVSPropertyOp52
 70
     0
102
RTVSPropertyOp53
 70
     1
102
RTVSPropertyOp54
 70
     1
102
RTVSPropertyOp55
 70
     1
102
RTVSPropertyOp56
 70
     1
102
RTVSPropertyOp57
 70
     1
102
RTVSPropertyOp58
 70
     1
102
RTVSPropertyOp59
 70
     1
102
RTVSPropertyOp60
 70
     1
102
RTVSPropertyOp61
 70
     1
102
RTVSPropertyOp62
 70
     1
  0
XRECORD
  5
C2DE
102
{ACAD_REACTORS
330
C2DD
102
}
330
C2DD
100
AcDbXrecord
280
     1
102
RTVSPost2010Prop28
280
     0
102
RTVSPost2010PropOp28
 70
     1
102
RTVSPost2010Prop29
280
     1
102
RTVSPost2010PropOp29
 70
     1
102
RTVSPost2010Prop30
280
     1
102
RTVSPost2010PropOp30
 70
     1
102
RTVSPost2010Prop31
280
     0
102
RTVSPost2010PropOp31
 70
     1
102
RTVSPost2010Prop32
280
     0
102
RTVSPost2010PropOp32
 70
     1
102
RTVSPost2010Prop33
280
     0
102
RTVSPost2010PropOp33
 70
     1
102
RTVSPost2010Prop34
280
     0
102
RTVSPost2010PropOp34
 70
     1
102
RTVSPost2010Prop35
280
     0
102
RTVSPost2010PropOp35
 70
     1
102
RTVSPost2010Prop36
280
     0
102
RTVSPost2010PropOp36
 70
     1
102
RTVSPost2010Prop37
 90
       50
102
RTVSPost2010PropOp37
 70
     1
102
RTVSPost2010Prop38
140
0.0
102
RTVSPost2010PropOp38
 70
     1
102
RTVSPost2010Prop39
140
1.0
102
RTVSPost2010PropOp39
 70
     1
102
RTVSPost2010Prop40
 90
        0
102
RTVSPost2010PropOp40
 70
     1
102
RTVSPost2010Prop41ColorIndex
 90
       18
102
RTVSPost2010Prop41ColorRGB
 90
        0
102
RTVSPost2010PropOp41
 70
     1
102
RTVSPost2010Prop42
 90
       50
102
RTVSPost2010PropOp42
 70
     1
102
RTVSPost2010Prop43
 90
        3
102
RTVSPost2010PropOp43
 70
     1
102
RTVSPost2010Prop44ColorIndex
 90
        5
102
RTVSPost2010Prop44ColorRGB
 90
      255
102
RTVSPost2010PropOp44
 70
     1
102
RTVSPost2010Prop45
280
     0
102
RTVSPost2010PropOp45
 70
     1
102
RTVSPost2010Prop46
 90
       50
102
RTVSPost2010PropOp46
 70
     1
102
RTVSPost2010Prop47
 90
       50
102
RTVSPost2010PropOp47
 70
     1
102
RTVSPost2010Prop48
 90
       50
102
RTVSPost2010PropOp48
 70
     1
102
RTVSPost2010Prop49
280
     0
102
RTVSPost2010PropOp49
 70
     1
102
RTVSPost2010Prop50
 90
       50
102
RTVSPost2010PropOp50
 70
     1
102
RTVSPost2010Prop51ColorIndex
 90
      256
102
RTVSPost2010Prop51ColorRGB
 90
-16777216
102
RTVSPost2010PropOp51
 70
     0
102
RTVSPost2010Prop52
140
1.0
102
RTVSPost2010PropOp52
 70
     0
102
RTVSPost2010Prop53
 90
        2
102
RTVSPost2010PropOp53
 70
     1
102
RTVSPost2010Prop54
  1
strokes_ogs.tif
102
RTVSPost2010PropOp54
 70
     1
102
RTVSPost2010Prop55
280
     0
102
RTVSPost2010PropOp55
 70
     1
102
RTVSPost2010Prop56
140
1.0
102
RTVSPost2010PropOp56
 70
     1
102
RTVSPost2010Prop57
140
1.0
102
RTVSPost2010PropOp57
 70
     1
102
RTVSPropertyOp0
 70
     1
102
RTVSPropertyOp1
 70
     1
102
RTVSPropertyOp2
 70
     1
102
RTVSPropertyOp3
 70
     1
102
RTVSPropertyOp4
 70
     1
102
RTVSPropertyOp5
 70
     1
102
RTVSPropertyOp6
 70
     1
102
RTVSPropertyOp7
 70
     1
102
RTVSPropertyOp8
 70
     1
102
RTVSPropertyOp9
 70
     1
102
RTVSPropertyOp10
 70
     1
102
RTVSPropertyOp11
 70
     1
102
RTVSPropertyOp12
 70
     1
102
RTVSPropertyOp13
 70
     1
102
RTVSPropertyOp14
 70
     1
102
RTVSPropertyOp15
 70
     1
102
RTVSPropertyOp16
 70
     1
102
RTVSPropertyOp17
 70
     1
102
RTVSPropertyOp18
 70
     1
102
RTVSPropertyOp19
 70
     1
102
RTVSPropertyOp20
 70
     1
102
RTVSPropertyOp21
 70
     1
102
RTVSPropertyOp22
 70
     1
102
RTVSPropertyOp23
 70
     1
102
RTVSPropertyOp24
 70
     1
102
RTVSPropertyOp25
 70
     1
102
RTVSPropertyOp26
 70
     1
102
RTVSPropertyOp27
 70
     1
102
RTVSPropertyOp28
 70
     1
102
RTVSPropertyOp29
 70
     1
102
RTVSPropertyOp30
 70
     1
102
RTVSPropertyOp31
 70
     1
102
RTVSPropertyOp32
 70
     1
102
RTVSPropertyOp33
 70
     1
102
RTVSPropertyOp34
 70
     1
102
RTVSPropertyOp35
 70
     1
102
RTVSPropertyOp36
 70
     1
102
RTVSPropertyOp37
 70
     1
102
RTVSPropertyOp38
 70
     1
102
RTVSPropertyOp39
 70
     1
102
RTVSPropertyOp40
 70
     1
102
RTVSPropertyOp41
 70
     1
102
RTVSPropertyOp42
 70
     1
102
RTVSPropertyOp43
 70
     1
102
RTVSPropertyOp44
 70
     1
102
RTVSPropertyOp45
 70
     1
102
RTVSPropertyOp46
 70
     1
102
RTVSPropertyOp47
 70
     1
102
RTVSPropertyOp48
 70
     1
102
RTVSPropertyOp49
 70
     1
102
RTVSPropertyOp50
 70
     1
102
RTVSPropertyOp51
 70
     0
102
RTVSPropertyOp52
 70
     0
102
RTVSPropertyOp53
 70
     1
102
RTVSPropertyOp54
 70
     1
102
RTVSPropertyOp55
 70
     1
102
RTVSPropertyOp56
 70
     1
102
RTVSPropertyOp57
 70
     1
102
RTVSPropertyOp58
 70
     1
102
RTVSPropertyOp59
 70
     1
102
RTVSPropertyOp60
 70
     1
102
RTVSPropertyOp61
 70
     1
102
RTVSPropertyOp62
 70
     1
  0
XRECORD
  5
C2DC
102
{ACAD_REACTORS
330
C2DB
102
}
330
C2DB
100
AcDbXrecord
280
     1
102
RTVSPost2010Prop28
280
     0
102
RTVSPost2010PropOp28
 70
     1
102
RTVSPost2010Prop29
280
     1
102
RTVSPost2010PropOp29
 70
     1
102
RTVSPost2010Prop30
280
     1
102
RTVSPost2010PropOp30
 70
     1
102
RTVSPost2010Prop31
280
     0
102
RTVSPost2010PropOp31
 70
     1
102
RTVSPost2010Prop32
280
     0
102
RTVSPost2010PropOp32
 70
     1
102
RTVSPost2010Prop33
280
     0
102
RTVSPost2010PropOp33
 70
     1
102
RTVSPost2010Prop34
280
     0
102
RTVSPost2010PropOp34
 70
     1
102
RTVSPost2010Prop35
280
     0
102
RTVSPost2010PropOp35
 70
     1
102
RTVSPost2010Prop36
280
     0
102
RTVSPost2010PropOp36
 70
     1
102
RTVSPost2010Prop37
 90
       50
102
RTVSPost2010PropOp37
 70
     1
102
RTVSPost2010Prop38
140
0.0
102
RTVSPost2010PropOp38
 70
     1
102
RTVSPost2010Prop39
140
1.0
102
RTVSPost2010PropOp39
 70
     1
102
RTVSPost2010Prop40
 90
        0
102
RTVSPost2010PropOp40
 70
     1
102
RTVSPost2010Prop41ColorIndex
 90
       18
102
RTVSPost2010Prop41ColorRGB
 90
        0
102
RTVSPost2010PropOp41
 70
     1
102
RTVSPost2010Prop42
 90
       50
102
RTVSPost2010PropOp42
 70
     1
102
RTVSPost2010Prop43
 90
        3
102
RTVSPost2010PropOp43
 70
     1
102
RTVSPost2010Prop44ColorIndex
 90
        5
102
RTVSPost2010Prop44ColorRGB
 90
      255
102
RTVSPost2010PropOp44
 70
     1
102
RTVSPost2010Prop45
280
     0
102
RTVSPost2010PropOp45
 70
     1
102
RTVSPost2010Prop46
 90
       50
102
RTVSPost2010PropOp46
 70
     1
102
RTVSPost2010Prop47
 90
       50
102
RTVSPost2010PropOp47
 70
     1
102
RTVSPost2010Prop48
 90
       50
102
RTVSPost2010PropOp48
 70
     1
102
RTVSPost2010Prop49
280
     0
102
RTVSPost2010PropOp49
 70
     1
102
RTVSPost2010Prop50
 90
       50
102
RTVSPost2010PropOp50
 70
     1
102
RTVSPost2010Prop51ColorIndex
 90
      256
102
RTVSPost2010Prop51ColorRGB
 90
-16777216
102
RTVSPost2010PropOp51
 70
     0
102
RTVSPost2010Prop52
140
1.0
102
RTVSPost2010PropOp52
 70
     0
102
RTVSPost2010Prop53
 90
        2
102
RTVSPost2010PropOp53
 70
     1
102
RTVSPost2010Prop54
  1
strokes_ogs.tif
102
RTVSPost2010PropOp54
 70
     1
102
RTVSPost2010Prop55
280
     0
102
RTVSPost2010PropOp55
 70
     1
102
RTVSPost2010Prop56
140
1.0
102
RTVSPost2010PropOp56
 70
     1
102
RTVSPost2010Prop57
140
1.0
102
RTVSPost2010PropOp57
 70
     1
102
RTVSPropertyOp0
 70
     1
102
RTVSPropertyOp1
 70
     1
102
RTVSPropertyOp2
 70
     1
102
RTVSPropertyOp3
 70
     1
102
RTVSPropertyOp4
 70
     1
102
RTVSPropertyOp5
 70
     1
102
RTVSPropertyOp6
 70
     1
102
RTVSPropertyOp7
 70
     1
102
RTVSPropertyOp8
 70
     1
102
RTVSPropertyOp9
 70
     1
102
RTVSPropertyOp10
 70
     1
102
RTVSPropertyOp11
 70
     1
102
RTVSPropertyOp12
 70
     1
102
RTVSPropertyOp13
 70
     1
102
RTVSPropertyOp14
 70
     1
102
RTVSPropertyOp15
 70
     1
102
RTVSPropertyOp16
 70
     1
102
RTVSPropertyOp17
 70
     1
102
RTVSPropertyOp18
 70
     1
102
RTVSPropertyOp19
 70
     1
102
RTVSPropertyOp20
 70
     1
102
RTVSPropertyOp21
 70
     1
102
RTVSPropertyOp22
 70
     1
102
RTVSPropertyOp23
 70
     1
102
RTVSPropertyOp24
 70
     1
102
RTVSPropertyOp25
 70
     1
102
RTVSPropertyOp26
 70
     1
102
RTVSPropertyOp27
 70
     1
102
RTVSPropertyOp28
 70
     1
102
RTVSPropertyOp29
 70
     1
102
RTVSPropertyOp30
 70
     1
102
RTVSPropertyOp31
 70
     1
102
RTVSPropertyOp32
 70
     1
102
RTVSPropertyOp33
 70
     1
102
RTVSPropertyOp34
 70
     1
102
RTVSPropertyOp35
 70
     1
102
RTVSPropertyOp36
 70
     1
102
RTVSPropertyOp37
 70
     1
102
RTVSPropertyOp38
 70
     1
102
RTVSPropertyOp39
 70
     1
102
RTVSPropertyOp40
 70
     1
102
RTVSPropertyOp41
 70
     1
102
RTVSPropertyOp42
 70
     1
102
RTVSPropertyOp43
 70
     1
102
RTVSPropertyOp44
 70
     1
102
RTVSPropertyOp45
 70
     1
102
RTVSPropertyOp46
 70
     1
102
RTVSPropertyOp47
 70
     1
102
RTVSPropertyOp48
 70
     1
102
RTVSPropertyOp49
 70
     1
102
RTVSPropertyOp50
 70
     1
102
RTVSPropertyOp51
 70
     0
102
RTVSPropertyOp52
 70
     0
102
RTVSPropertyOp53
 70
     1
102
RTVSPropertyOp54
 70
     1
102
RTVSPropertyOp55
 70
     1
102
RTVSPropertyOp56
 70
     1
102
RTVSPropertyOp57
 70
     1
102
RTVSPropertyOp58
 70
     1
102
RTVSPropertyOp59
 70
     1
102
RTVSPropertyOp60
 70
     1
102
RTVSPropertyOp61
 70
     1
102
RTVSPropertyOp62
 70
     1
  0
XRECORD
  5
C2D6
102
{ACAD_REACTORS
330
C2D5
102
}
330
C2D5
100
AcDbXrecord
280
     1
102
RTVSPost2010Prop28
280
     0
102
RTVSPost2010PropOp28
 70
     1
102
RTVSPost2010Prop29
280
     1
102
RTVSPost2010PropOp29
 70
     1
102
RTVSPost2010Prop30
280
     1
102
RTVSPost2010PropOp30
 70
     1
102
RTVSPost2010Prop31
280
     0
102
RTVSPost2010PropOp31
 70
     1
102
RTVSPost2010Prop32
280
     0
102
RTVSPost2010PropOp32
 70
     1
102
RTVSPost2010Prop33
280
     0
102
RTVSPost2010PropOp33
 70
     1
102
RTVSPost2010Prop34
280
     0
102
RTVSPost2010PropOp34
 70
     1
102
RTVSPost2010Prop35
280
     0
102
RTVSPost2010PropOp35
 70
     1
102
RTVSPost2010Prop36
280
     0
102
RTVSPost2010PropOp36
 70
     1
102
RTVSPost2010Prop37
 90
       50
102
RTVSPost2010PropOp37
 70
     1
102
RTVSPost2010Prop38
140
0.0
102
RTVSPost2010PropOp38
 70
     1
102
RTVSPost2010Prop39
140
1.0
102
RTVSPost2010PropOp39
 70
     1
102
RTVSPost2010Prop40
 90
        0
102
RTVSPost2010PropOp40
 70
     1
102
RTVSPost2010Prop41ColorIndex
 90
       18
102
RTVSPost2010Prop41ColorRGB
 90
        0
102
RTVSPost2010PropOp41
 70
     1
102
RTVSPost2010Prop42
 90
       50
102
RTVSPost2010PropOp42
 70
     1
102
RTVSPost2010Prop43
 90
        3
102
RTVSPost2010PropOp43
 70
     1
102
RTVSPost2010Prop44ColorIndex
 90
        5
102
RTVSPost2010Prop44ColorRGB
 90
      255
102
RTVSPost2010PropOp44
 70
     1
102
RTVSPost2010Prop45
280
     0
102
RTVSPost2010PropOp45
 70
     1
102
RTVSPost2010Prop46
 90
       50
102
RTVSPost2010PropOp46
 70
     1
102
RTVSPost2010Prop47
 90
       50
102
RTVSPost2010PropOp47
 70
     1
102
RTVSPost2010Prop48
 90
       50
102
RTVSPost2010PropOp48
 70
     1
102
RTVSPost2010Prop49
280
     0
102
RTVSPost2010PropOp49
 70
     1
102
RTVSPost2010Prop50
 90
       50
102
RTVSPost2010PropOp50
 70
     1
102
RTVSPost2010Prop51ColorIndex
 90
      256
102
RTVSPost2010Prop51ColorRGB
 90
-16777216
102
RTVSPost2010PropOp51
 70
     0
102
RTVSPost2010Prop52
140
1.0
102
RTVSPost2010PropOp52
 70
     0
102
RTVSPost2010Prop53
 90
        2
102
RTVSPost2010PropOp53
 70
     1
102
RTVSPost2010Prop54
  1
strokes_ogs.tif
102
RTVSPost2010PropOp54
 70
     1
102
RTVSPost2010Prop55
280
     0
102
RTVSPost2010PropOp55
 70
     1
102
RTVSPost2010Prop56
140
1.0
102
RTVSPost2010PropOp56
 70
     1
102
RTVSPost2010Prop57
140
1.0
102
RTVSPost2010PropOp57
 70
     1
102
RTVSPropertyOp0
 70
     1
102
RTVSPropertyOp1
 70
     1
102
RTVSPropertyOp2
 70
     1
102
RTVSPropertyOp3
 70
     1
102
RTVSPropertyOp4
 70
     1
102
RTVSPropertyOp5
 70
     1
102
RTVSPropertyOp6
 70
     1
102
RTVSPropertyOp7
 70
     1
102
RTVSPropertyOp8
 70
     1
102
RTVSPropertyOp9
 70
     1
102
RTVSPropertyOp10
 70
     1
102
RTVSPropertyOp11
 70
     1
102
RTVSPropertyOp12
 70
     1
102
RTVSPropertyOp13
 70
     1
102
RTVSPropertyOp14
 70
     1
102
RTVSPropertyOp15
 70
     1
102
RTVSPropertyOp16
 70
     1
102
RTVSPropertyOp17
 70
     1
102
RTVSPropertyOp18
 70
     1
102
RTVSPropertyOp19
 70
     1
102
RTVSPropertyOp20
 70
     1
102
RTVSPropertyOp21
 70
     1
102
RTVSPropertyOp22
 70
     1
102
RTVSPropertyOp23
 70
     1
102
RTVSPropertyOp24
 70
     1
102
RTVSPropertyOp25
 70
     1
102
RTVSPropertyOp26
 70
     1
102
RTVSPropertyOp27
 70
     1
102
RTVSPropertyOp28
 70
     1
102
RTVSPropertyOp29
 70
     1
102
RTVSPropertyOp30
 70
     1
102
RTVSPropertyOp31
 70
     1
102
RTVSPropertyOp32
 70
     1
102
RTVSPropertyOp33
 70
     1
102
RTVSPropertyOp34
 70
     1
102
RTVSPropertyOp35
 70
     1
102
RTVSPropertyOp36
 70
     1
102
RTVSPropertyOp37
 70
     1
102
RTVSPropertyOp38
 70
     1
102
RTVSPropertyOp39
 70
     1
102
RTVSPropertyOp40
 70
     1
102
RTVSPropertyOp41
 70
     1
102
RTVSPropertyOp42
 70
     1
102
RTVSPropertyOp43
 70
     1
102
RTVSPropertyOp44
 70
     1
102
RTVSPropertyOp45
 70
     1
102
RTVSPropertyOp46
 70
     1
102
RTVSPropertyOp47
 70
     1
102
RTVSPropertyOp48
 70
     1
102
RTVSPropertyOp49
 70
     1
102
RTVSPropertyOp50
 70
     1
102
RTVSPropertyOp51
 70
     0
102
RTVSPropertyOp52
 70
     0
102
RTVSPropertyOp53
 70
     1
102
RTVSPropertyOp54
 70
     1
102
RTVSPropertyOp55
 70
     1
102
RTVSPropertyOp56
 70
     1
102
RTVSPropertyOp57
 70
     1
102
RTVSPropertyOp58
 70
     1
102
RTVSPropertyOp59
 70
     1
102
RTVSPropertyOp60
 70
     1
102
RTVSPropertyOp61
 70
     1
102
RTVSPropertyOp62
 70
     1
  0
XRECORD
  5
C2D8
102
{ACAD_REACTORS
330
C2D7
102
}
330
C2D7
100
AcDbXrecord
280
     1
102
RTVSPost2010Prop28
280
     0
102
RTVSPost2010PropOp28
 70
     1
102
RTVSPost2010Prop29
280
     1
102
RTVSPost2010PropOp29
 70
     1
102
RTVSPost2010Prop30
280
     1
102
RTVSPost2010PropOp30
 70
     1
102
RTVSPost2010Prop31
280
     0
102
RTVSPost2010PropOp31
 70
     1
102
RTVSPost2010Prop32
280
     0
102
RTVSPost2010PropOp32
 70
     1
102
RTVSPost2010Prop33
280
     0
102
RTVSPost2010PropOp33
 70
     1
102
RTVSPost2010Prop34
280
     0
102
RTVSPost2010PropOp34
 70
     1
102
RTVSPost2010Prop35
280
     0
102
RTVSPost2010PropOp35
 70
     1
102
RTVSPost2010Prop36
280
     0
102
RTVSPost2010PropOp36
 70
     1
102
RTVSPost2010Prop37
 90
       50
102
RTVSPost2010PropOp37
 70
     1
102
RTVSPost2010Prop38
140
0.0
102
RTVSPost2010PropOp38
 70
     1
102
RTVSPost2010Prop39
140
1.0
102
RTVSPost2010PropOp39
 70
     1
102
RTVSPost2010Prop40
 90
        0
102
RTVSPost2010PropOp40
 70
     1
102
RTVSPost2010Prop41ColorIndex
 90
       18
102
RTVSPost2010Prop41ColorRGB
 90
        0
102
RTVSPost2010PropOp41
 70
     1
102
RTVSPost2010Prop42
 90
       50
102
RTVSPost2010PropOp42
 70
     1
102
RTVSPost2010Prop43
 90
        3
102
RTVSPost2010PropOp43
 70
     1
102
RTVSPost2010Prop44ColorIndex
 90
        5
102
RTVSPost2010Prop44ColorRGB
 90
      255
102
RTVSPost2010PropOp44
 70
     1
102
RTVSPost2010Prop45
280
     0
102
RTVSPost2010PropOp45
 70
     1
102
RTVSPost2010Prop46
 90
       50
102
RTVSPost2010PropOp46
 70
     1
102
RTVSPost2010Prop47
 90
       50
102
RTVSPost2010PropOp47
 70
     1
102
RTVSPost2010Prop48
 90
       50
102
RTVSPost2010PropOp48
 70
     1
102
RTVSPost2010Prop49
280
     0
102
RTVSPost2010PropOp49
 70
     1
102
RTVSPost2010Prop50
 90
       50
102
RTVSPost2010PropOp50
 70
     1
102
RTVSPost2010Prop51ColorIndex
 90
      256
102
RTVSPost2010Prop51ColorRGB
 90
-16777216
102
RTVSPost2010PropOp51
 70
     0
102
RTVSPost2010Prop52
140
1.0
102
RTVSPost2010PropOp52
 70
     0
102
RTVSPost2010Prop53
 90
        2
102
RTVSPost2010PropOp53
 70
     1
102
RTVSPost2010Prop54
  1
strokes_ogs.tif
102
RTVSPost2010PropOp54
 70
     1
102
RTVSPost2010Prop55
280
     0
102
RTVSPost2010PropOp55
 70
     1
102
RTVSPost2010Prop56
140
1.0
102
RTVSPost2010PropOp56
 70
     1
102
RTVSPost2010Prop57
140
1.0
102
RTVSPost2010PropOp57
 70
     1
102
RTVSPropertyOp0
 70
     1
102
RTVSPropertyOp1
 70
     1
102
RTVSPropertyOp2
 70
     1
102
RTVSPropertyOp3
 70
     1
102
RTVSPropertyOp4
 70
     1
102
RTVSPropertyOp5
 70
     1
102
RTVSPropertyOp6
 70
     1
102
RTVSPropertyOp7
 70
     1
102
RTVSPropertyOp8
 70
     1
102
RTVSPropertyOp9
 70
     1
102
RTVSPropertyOp10
 70
     1
102
RTVSPropertyOp11
 70
     1
102
RTVSPropertyOp12
 70
     1
102
RTVSPropertyOp13
 70
     1
102
RTVSPropertyOp14
 70
     1
102
RTVSPropertyOp15
 70
     1
102
RTVSPropertyOp16
 70
     1
102
RTVSPropertyOp17
 70
     1
102
RTVSPropertyOp18
 70
     1
102
RTVSPropertyOp19
 70
     1
102
RTVSPropertyOp20
 70
     1
102
RTVSPropertyOp21
 70
     1
102
RTVSPropertyOp22
 70
     1
102
RTVSPropertyOp23
 70
     1
102
RTVSPropertyOp24
 70
     1
102
RTVSPropertyOp25
 70
     1
102
RTVSPropertyOp26
 70
     1
102
RTVSPropertyOp27
 70
     1
102
RTVSPropertyOp28
 70
     1
102
RTVSPropertyOp29
 70
     1
102
RTVSPropertyOp30
 70
     1
102
RTVSPropertyOp31
 70
     1
102
RTVSPropertyOp32
 70
     1
102
RTVSPropertyOp33
 70
     1
102
RTVSPropertyOp34
 70
     1
102
RTVSPropertyOp35
 70
     1
102
RTVSPropertyOp36
 70
     1
102
RTVSPropertyOp37
 70
     1
102
RTVSPropertyOp38
 70
     1
102
RTVSPropertyOp39
 70
     1
102
RTVSPropertyOp40
 70
     1
102
RTVSPropertyOp41
 70
     1
102
RTVSPropertyOp42
 70
     1
102
RTVSPropertyOp43
 70
     1
102
RTVSPropertyOp44
 70
     1
102
RTVSPropertyOp45
 70
     1
102
RTVSPropertyOp46
 70
     1
102
RTVSPropertyOp47
 70
     1
102
RTVSPropertyOp48
 70
     1
102
RTVSPropertyOp49
 70
     1
102
RTVSPropertyOp50
 70
     1
102
RTVSPropertyOp51
 70
     0
102
RTVSPropertyOp52
 70
     0
102
RTVSPropertyOp53
 70
     1
102
RTVSPropertyOp54
 70
     1
102
RTVSPropertyOp55
 70
     1
102
RTVSPropertyOp56
 70
     1
102
RTVSPropertyOp57
 70
     1
102
RTVSPropertyOp58
 70
     1
102
RTVSPropertyOp59
 70
     1
102
RTVSPropertyOp60
 70
     1
102
RTVSPropertyOp61
 70
     1
102
RTVSPropertyOp62
 70
     1
  0
XRECORD
  5
C2CE
102
{ACAD_REACTORS
330
C2CD
102
}
330
C2CD
100
AcDbXrecord
280
     1
102
RTVSPost2010Prop28
280
     0
102
RTVSPost2010PropOp28
 70
     1
102
RTVSPost2010Prop29
280
     1
102
RTVSPost2010PropOp29
 70
     1
102
RTVSPost2010Prop30
280
     1
102
RTVSPost2010PropOp30
 70
     1
102
RTVSPost2010Prop31
280
     0
102
RTVSPost2010PropOp31
 70
     1
102
RTVSPost2010Prop32
280
     0
102
RTVSPost2010PropOp32
 70
     1
102
RTVSPost2010Prop33
280
     0
102
RTVSPost2010PropOp33
 70
     1
102
RTVSPost2010Prop34
280
     0
102
RTVSPost2010PropOp34
 70
     1
102
RTVSPost2010Prop35
280
     0
102
RTVSPost2010PropOp35
 70
     1
102
RTVSPost2010Prop36
280
     0
102
RTVSPost2010PropOp36
 70
     1
102
RTVSPost2010Prop37
 90
       50
102
RTVSPost2010PropOp37
 70
     1
102
RTVSPost2010Prop38
140
0.0
102
RTVSPost2010PropOp38
 70
     1
102
RTVSPost2010Prop39
140
1.0
102
RTVSPost2010PropOp39
 70
     1
102
RTVSPost2010Prop40
 90
        0
102
RTVSPost2010PropOp40
 70
     1
102
RTVSPost2010Prop41ColorIndex
 90
       18
102
RTVSPost2010Prop41ColorRGB
 90
        0
102
RTVSPost2010PropOp41
 70
     1
102
RTVSPost2010Prop42
 90
       50
102
RTVSPost2010PropOp42
 70
     1
102
RTVSPost2010Prop43
 90
        3
102
RTVSPost2010PropOp43
 70
     1
102
RTVSPost2010Prop44ColorIndex
 90
        5
102
RTVSPost2010Prop44ColorRGB
 90
      255
102
RTVSPost2010PropOp44
 70
     1
102
RTVSPost2010Prop45
280
     0
102
RTVSPost2010PropOp45
 70
     1
102
RTVSPost2010Prop46
 90
       50
102
RTVSPost2010PropOp46
 70
     1
102
RTVSPost2010Prop47
 90
       50
102
RTVSPost2010PropOp47
 70
     1
102
RTVSPost2010Prop48
 90
       50
102
RTVSPost2010PropOp48
 70
     1
102
RTVSPost2010Prop49
280
     0
102
RTVSPost2010PropOp49
 70
     1
102
RTVSPost2010Prop50
 90
       50
102
RTVSPost2010PropOp50
 70
     1
102
RTVSPost2010Prop51ColorIndex
 90
      256
102
RTVSPost2010Prop51ColorRGB
 90
-16777216
102
RTVSPost2010PropOp51
 70
     0
102
RTVSPost2010Prop52
140
1.0
102
RTVSPost2010PropOp52
 70
     0
102
RTVSPost2010Prop53
 90
        2
102
RTVSPost2010PropOp53
 70
     1
102
RTVSPost2010Prop54
  1
strokes_ogs.tif
102
RTVSPost2010PropOp54
 70
     1
102
RTVSPost2010Prop55
280
     0
102
RTVSPost2010PropOp55
 70
     1
102
RTVSPost2010Prop56
140
1.0
102
RTVSPost2010PropOp56
 70
     1
102
RTVSPost2010Prop57
140
1.0
102
RTVSPost2010PropOp57
 70
     1
102
RTVSPropertyOp0
 70
     1
102
RTVSPropertyOp1
 70
     1
102
RTVSPropertyOp2
 70
     1
102
RTVSPropertyOp3
 70
     1
102
RTVSPropertyOp4
 70
     1
102
RTVSPropertyOp5
 70
     1
102
RTVSPropertyOp6
 70
     1
102
RTVSPropertyOp7
 70
     1
102
RTVSPropertyOp8
 70
     1
102
RTVSPropertyOp9
 70
     1
102
RTVSPropertyOp10
 70
     1
102
RTVSPropertyOp11
 70
     1
102
RTVSPropertyOp12
 70
     1
102
RTVSPropertyOp13
 70
     1
102
RTVSPropertyOp14
 70
     1
102
RTVSPropertyOp15
 70
     1
102
RTVSPropertyOp16
 70
     1
102
RTVSPropertyOp17
 70
     1
102
RTVSPropertyOp18
 70
     1
102
RTVSPropertyOp19
 70
     1
102
RTVSPropertyOp20
 70
     1
102
RTVSPropertyOp21
 70
     1
102
RTVSPropertyOp22
 70
     1
102
RTVSPropertyOp23
 70
     1
102
RTVSPropertyOp24
 70
     1
102
RTVSPropertyOp25
 70
     1
102
RTVSPropertyOp26
 70
     1
102
RTVSPropertyOp27
 70
     1
102
RTVSPropertyOp28
 70
     1
102
RTVSPropertyOp29
 70
     1
102
RTVSPropertyOp30
 70
     1
102
RTVSPropertyOp31
 70
     1
102
RTVSPropertyOp32
 70
     1
102
RTVSPropertyOp33
 70
     1
102
RTVSPropertyOp34
 70
     1
102
RTVSPropertyOp35
 70
     1
102
RTVSPropertyOp36
 70
     1
102
RTVSPropertyOp37
 70
     1
102
RTVSPropertyOp38
 70
     1
102
RTVSPropertyOp39
 70
     1
102
RTVSPropertyOp40
 70
     1
102
RTVSPropertyOp41
 70
     1
102
RTVSPropertyOp42
 70
     1
102
RTVSPropertyOp43
 70
     1
102
RTVSPropertyOp44
 70
     1
102
RTVSPropertyOp45
 70
     1
102
RTVSPropertyOp46
 70
     1
102
RTVSPropertyOp47
 70
     1
102
RTVSPropertyOp48
 70
     1
102
RTVSPropertyOp49
 70
     1
102
RTVSPropertyOp50
 70
     1
102
RTVSPropertyOp51
 70
     0
102
RTVSPropertyOp52
 70
     0
102
RTVSPropertyOp53
 70
     1
102
RTVSPropertyOp54
 70
     1
102
RTVSPropertyOp55
 70
     1
102
RTVSPropertyOp56
 70
     1
102
RTVSPropertyOp57
 70
     1
102
RTVSPropertyOp58
 70
     1
102
RTVSPropertyOp59
 70
     1
102
RTVSPropertyOp60
 70
     1
102
RTVSPropertyOp61
 70
     1
102
RTVSPropertyOp62
 70
     1
  0
XRECORD
  5
C2C2
102
{ACAD_REACTORS
330
C2C1
102
}
330
C2C1
100
AcDbXrecord
280
     1
102
RTVSPost2010Prop28
280
     0
102
RTVSPost2010PropOp28
 70
     1
102
RTVSPost2010Prop29
280
     1
102
RTVSPost2010PropOp29
 70
     1
102
RTVSPost2010Prop30
280
     1
102
RTVSPost2010PropOp30
 70
     1
102
RTVSPost2010Prop31
280
     0
102
RTVSPost2010PropOp31
 70
     1
102
RTVSPost2010Prop32
280
     0
102
RTVSPost2010PropOp32
 70
     1
102
RTVSPost2010Prop33
280
     0
102
RTVSPost2010PropOp33
 70
     1
102
RTVSPost2010Prop34
280
     0
102
RTVSPost2010PropOp34
 70
     1
102
RTVSPost2010Prop35
280
     0
102
RTVSPost2010PropOp35
 70
     1
102
RTVSPost2010Prop36
280
     0
102
RTVSPost2010PropOp36
 70
     1
102
RTVSPost2010Prop37
 90
       50
102
RTVSPost2010PropOp37
 70
     1
102
RTVSPost2010Prop38
140
0.0
102
RTVSPost2010PropOp38
 70
     1
102
RTVSPost2010Prop39
140
1.0
102
RTVSPost2010PropOp39
 70
     1
102
RTVSPost2010Prop40
 90
        0
102
RTVSPost2010PropOp40
 70
     1
102
RTVSPost2010Prop41ColorIndex
 90
       18
102
RTVSPost2010Prop41ColorRGB
 90
        0
102
RTVSPost2010PropOp41
 70
     1
102
RTVSPost2010Prop42
 90
       50
102
RTVSPost2010PropOp42
 70
     1
102
RTVSPost2010Prop43
 90
        3
102
RTVSPost2010PropOp43
 70
     1
102
RTVSPost2010Prop44ColorIndex
 90
        5
102
RTVSPost2010Prop44ColorRGB
 90
      255
102
RTVSPost2010PropOp44
 70
     1
102
RTVSPost2010Prop45
280
     0
102
RTVSPost2010PropOp45
 70
     1
102
RTVSPost2010Prop46
 90
       50
102
RTVSPost2010PropOp46
 70
     1
102
RTVSPost2010Prop47
 90
       50
102
RTVSPost2010PropOp47
 70
     1
102
RTVSPost2010Prop48
 90
       50
102
RTVSPost2010PropOp48
 70
     1
102
RTVSPost2010Prop49
280
     0
102
RTVSPost2010PropOp49
 70
     1
102
RTVSPost2010Prop50
 90
       50
102
RTVSPost2010PropOp50
 70
     1
102
RTVSPost2010Prop51ColorIndex
 90
      256
102
RTVSPost2010Prop51ColorRGB
 90
-16777216
102
RTVSPost2010PropOp51
 70
     0
102
RTVSPost2010Prop52
140
1.0
102
RTVSPost2010PropOp52
 70
     0
102
RTVSPost2010Prop53
 90
        2
102
RTVSPost2010PropOp53
 70
     1
102
RTVSPost2010Prop54
  1
strokes_ogs.tif
102
RTVSPost2010PropOp54
 70
     1
102
RTVSPost2010Prop55
280
     0
102
RTVSPost2010PropOp55
 70
     1
102
RTVSPost2010Prop56
140
1.0
102
RTVSPost2010PropOp56
 70
     1
102
RTVSPost2010Prop57
140
1.0
102
RTVSPost2010PropOp57
 70
     1
102
RTVSPropertyOp0
 70
     1
102
RTVSPropertyOp1
 70
     1
102
RTVSPropertyOp2
 70
     1
102
RTVSPropertyOp3
 70
     1
102
RTVSPropertyOp4
 70
     1
102
RTVSPropertyOp5
 70
     1
102
RTVSPropertyOp6
 70
     1
102
RTVSPropertyOp7
 70
     1
102
RTVSPropertyOp8
 70
     1
102
RTVSPropertyOp9
 70
     1
102
RTVSPropertyOp10
 70
     1
102
RTVSPropertyOp11
 70
     1
102
RTVSPropertyOp12
 70
     1
102
RTVSPropertyOp13
 70
     1
102
RTVSPropertyOp14
 70
     1
102
RTVSPropertyOp15
 70
     1
102
RTVSPropertyOp16
 70
     1
102
RTVSPropertyOp17
 70
     1
102
RTVSPropertyOp18
 70
     1
102
RTVSPropertyOp19
 70
     1
102
RTVSPropertyOp20
 70
     1
102
RTVSPropertyOp21
 70
     1
102
RTVSPropertyOp22
 70
     1
102
RTVSPropertyOp23
 70
     1
102
RTVSPropertyOp24
 70
     1
102
RTVSPropertyOp25
 70
     1
102
RTVSPropertyOp26
 70
     1
102
RTVSPropertyOp27
 70
     1
102
RTVSPropertyOp28
 70
     1
102
RTVSPropertyOp29
 70
     1
102
RTVSPropertyOp30
 70
     1
102
RTVSPropertyOp31
 70
     1
102
RTVSPropertyOp32
 70
     1
102
RTVSPropertyOp33
 70
     1
102
RTVSPropertyOp34
 70
     1
102
RTVSPropertyOp35
 70
     1
102
RTVSPropertyOp36
 70
     1
102
RTVSPropertyOp37
 70
     1
102
RTVSPropertyOp38
 70
     1
102
RTVSPropertyOp39
 70
     1
102
RTVSPropertyOp40
 70
     1
102
RTVSPropertyOp41
 70
     1
102
RTVSPropertyOp42
 70
     1
102
RTVSPropertyOp43
 70
     1
102
RTVSPropertyOp44
 70
     1
102
RTVSPropertyOp45
 70
     1
102
RTVSPropertyOp46
 70
     1
102
RTVSPropertyOp47
 70
     1
102
RTVSPropertyOp48
 70
     1
102
RTVSPropertyOp49
 70
     1
102
RTVSPropertyOp50
 70
     1
102
RTVSPropertyOp51
 70
     0
102
RTVSPropertyOp52
 70
     0
102
RTVSPropertyOp53
 70
     1
102
RTVSPropertyOp54
 70
     1
102
RTVSPropertyOp55
 70
     1
102
RTVSPropertyOp56
 70
     1
102
RTVSPropertyOp57
 70
     1
102
RTVSPropertyOp58
 70
     1
102
RTVSPropertyOp59
 70
     1
102
RTVSPropertyOp60
 70
     1
102
RTVSPropertyOp61
 70
     1
102
RTVSPropertyOp62
 70
     1
  0
XRECORD
  5
C2DA
102
{ACAD_REACTORS
330
C2D9
102
}
330
C2D9
100
AcDbXrecord
280
     1
102
RTVSPost2010Prop28
280
     0
102
RTVSPost2010PropOp28
 70
     1
102
RTVSPost2010Prop29
280
     1
102
RTVSPost2010PropOp29
 70
     1
102
RTVSPost2010Prop30
280
     1
102
RTVSPost2010PropOp30
 70
     1
102
RTVSPost2010Prop31
280
     0
102
RTVSPost2010PropOp31
 70
     1
102
RTVSPost2010Prop32
280
     0
102
RTVSPost2010PropOp32
 70
     1
102
RTVSPost2010Prop33
280
     0
102
RTVSPost2010PropOp33
 70
     1
102
RTVSPost2010Prop34
280
     0
102
RTVSPost2010PropOp34
 70
     1
102
RTVSPost2010Prop35
280
     0
102
RTVSPost2010PropOp35
 70
     1
102
RTVSPost2010Prop36
280
     0
102
RTVSPost2010PropOp36
 70
     1
102
RTVSPost2010Prop37
 90
       50
102
RTVSPost2010PropOp37
 70
     1
102
RTVSPost2010Prop38
140
0.0
102
RTVSPost2010PropOp38
 70
     1
102
RTVSPost2010Prop39
140
1.0
102
RTVSPost2010PropOp39
 70
     1
102
RTVSPost2010Prop40
 90
        0
102
RTVSPost2010PropOp40
 70
     1
102
RTVSPost2010Prop41ColorIndex
 90
       18
102
RTVSPost2010Prop41ColorRGB
 90
        0
102
RTVSPost2010PropOp41
 70
     1
102
RTVSPost2010Prop42
 90
       50
102
RTVSPost2010PropOp42
 70
     1
102
RTVSPost2010Prop43
 90
        3
102
RTVSPost2010PropOp43
 70
     1
102
RTVSPost2010Prop44ColorIndex
 90
        5
102
RTVSPost2010Prop44ColorRGB
 90
      255
102
RTVSPost2010PropOp44
 70
     1
102
RTVSPost2010Prop45
280
     0
102
RTVSPost2010PropOp45
 70
     1
102
RTVSPost2010Prop46
 90
       50
102
RTVSPost2010PropOp46
 70
     1
102
RTVSPost2010Prop47
 90
       50
102
RTVSPost2010PropOp47
 70
     1
102
RTVSPost2010Prop48
 90
       50
102
RTVSPost2010PropOp48
 70
     1
102
RTVSPost2010Prop49
280
     0
102
RTVSPost2010PropOp49
 70
     1
102
RTVSPost2010Prop50
 90
       50
102
RTVSPost2010PropOp50
 70
     1
102
RTVSPost2010Prop51ColorIndex
 90
      256
102
RTVSPost2010Prop51ColorRGB
 90
-16777216
102
RTVSPost2010PropOp51
 70
     0
102
RTVSPost2010Prop52
140
1.0
102
RTVSPost2010PropOp52
 70
     0
102
RTVSPost2010Prop53
 90
        2
102
RTVSPost2010PropOp53
 70
     1
102
RTVSPost2010Prop54
  1
strokes_ogs.tif
102
RTVSPost2010PropOp54
 70
     1
102
RTVSPost2010Prop55
280
     0
102
RTVSPost2010PropOp55
 70
     1
102
RTVSPost2010Prop56
140
1.0
102
RTVSPost2010PropOp56
 70
     1
102
RTVSPost2010Prop57
140
1.0
102
RTVSPost2010PropOp57
 70
     1
102
RTVSPropertyOp0
 70
     1
102
RTVSPropertyOp1
 70
     1
102
RTVSPropertyOp2
 70
     1
102
RTVSPropertyOp3
 70
     1
102
RTVSPropertyOp4
 70
     1
102
RTVSPropertyOp5
 70
     1
102
RTVSPropertyOp6
 70
     1
102
RTVSPropertyOp7
 70
     1
102
RTVSPropertyOp8
 70
     1
102
RTVSPropertyOp9
 70
     1
102
RTVSPropertyOp10
 70
     1
102
RTVSPropertyOp11
 70
     1
102
RTVSPropertyOp12
 70
     1
102
RTVSPropertyOp13
 70
     1
102
RTVSPropertyOp14
 70
     1
102
RTVSPropertyOp15
 70
     1
102
RTVSPropertyOp16
 70
     1
102
RTVSPropertyOp17
 70
     1
102
RTVSPropertyOp18
 70
     1
102
RTVSPropertyOp19
 70
     1
102
RTVSPropertyOp20
 70
     1
102
RTVSPropertyOp21
 70
     1
102
RTVSPropertyOp22
 70
     1
102
RTVSPropertyOp23
 70
     1
102
RTVSPropertyOp24
 70
     1
102
RTVSPropertyOp25
 70
     1
102
RTVSPropertyOp26
 70
     1
102
RTVSPropertyOp27
 70
     1
102
RTVSPropertyOp28
 70
     1
102
RTVSPropertyOp29
 70
     1
102
RTVSPropertyOp30
 70
     1
102
RTVSPropertyOp31
 70
     1
102
RTVSPropertyOp32
 70
     1
102
RTVSPropertyOp33
 70
     1
102
RTVSPropertyOp34
 70
     1
102
RTVSPropertyOp35
 70
     1
102
RTVSPropertyOp36
 70
     1
102
RTVSPropertyOp37
 70
     1
102
RTVSPropertyOp38
 70
     1
102
RTVSPropertyOp39
 70
     1
102
RTVSPropertyOp40
 70
     1
102
RTVSPropertyOp41
 70
     1
102
RTVSPropertyOp42
 70
     1
102
RTVSPropertyOp43
 70
     1
102
RTVSPropertyOp44
 70
     1
102
RTVSPropertyOp45
 70
     1
102
RTVSPropertyOp46
 70
     1
102
RTVSPropertyOp47
 70
     1
102
RTVSPropertyOp48
 70
     1
102
RTVSPropertyOp49
 70
     1
102
RTVSPropertyOp50
 70
     1
102
RTVSPropertyOp51
 70
     0
102
RTVSPropertyOp52
 70
     0
102
RTVSPropertyOp53
 70
     1
102
RTVSPropertyOp54
 70
     1
102
RTVSPropertyOp55
 70
     1
102
RTVSPropertyOp56
 70
     1
102
RTVSPropertyOp57
 70
     1
102
RTVSPropertyOp58
 70
     1
102
RTVSPropertyOp59
 70
     1
102
RTVSPropertyOp60
 70
     1
102
RTVSPropertyOp61
 70
     1
102
RTVSPropertyOp62
 70
     1
  0
ENDSEC
  0
EOF
