  0
SECTION
  2
HEADER
  9
$ACADVER
  1
AC1015
  9
$ACADMAINTVER
 70
    20
  9
$DWGCODEPAGE
  3
ANSI_932
  9
$INSBASE
 10
0.0
 20
0.0
 30
0.0
  9
$EXTMIN
 10
9.9999975266385
 20
10.0
 30
0.0
  9
$EXTMAX
 10
476.9803888079368
 20
385.2698949143808
 30
0.0
  9
$LIMMIN
 10
0.0000015376081137
 20
-0.0000001931532552
  9
$LIMMAX
 10
575.0000015376082
 20
396.4015149583618
  9
$ORTHOMODE
 70
     1
  9
$REGENMODE
 70
     1
  9
$FILLMODE
 70
     1
  9
$QTEXTMODE
 70
     0
  9
$MIRRTEXT
 70
     1
  9
$LTSCALE
 40
0.5
  9
$ATTMODE
 70
     1
  9
$TEXTSIZE
 40
2.5
  9
$TRACEWID
 40
1.0
  9
$TEXTSTYLE
  7
STANDARD
  9
$CLAYER
  8
0
  9
$CELTYPE
  6
BYLAYER
  9
$CECOLOR
 62
   256
  9
$CELTSCALE
 40
1.0
  9
$DISPSILH
 70
     0
  9
$DIMSCALE
 40
1.0
  9
$DIMASZ
 40
2.5
  9
$DIMEXO
 40
1.0
  9
$DIMDLI
 40
10.0
  9
$DIMRND
 40
0.0
  9
$DIMDLE
 40
0.0
  9
$DIMEXE
 40
1.0
  9
$DIMTP
 40
0.0
  9
$DIMTM
 40
0.0
  9
$DIMTXT
 40
2.5
  9
$DIMCEN
 40
0.0
  9
$DIMTSZ
 40
0.0
  9
$DIMTOL
 70
     0
  9
$DIMLIM
 70
     0
  9
$DIMTIH
 70
     0
  9
$DIMTOH
 70
     0
  9
$DIMSE1
 70
     0
  9
$DIMSE2
 70
     0
  9
$DIMTAD
 70
     3
  9
$DIMZIN
 70
     8
  9
$DIMBLK
  1

  9
$DIMASO
 70
     1
  9
$DIMSHO
 70
     1
  9
$DIMPOST
  1

  9
$DIMAPOST
  1

  9
$DIMALT
 70
     0
  9
$DIMALTD
 70
     2
  9
$DIMALTF
 40
25.4
  9
$DIMLFAC
 40
1.0
  9
$DIMTOFL
 70
     1
  9
$DIMTVP
 40
0.0
  9
$DIMTIX
 70
     0
  9
$DIMSOXD
 70
     0
  9
$DIMSAH
 70
     1
  9
$DIMBLK1
  1
OPEN
  9
$DIMBLK2
  1
OPEN
  9
$DIMSTYLE
  2
STANDARD
  9
$DIMCLRD
 70
     0
  9
$DIMCLRE
 70
     0
  9
$DIMCLRT
 70
     0
  9
$DIMTFAC
 40
1.0
  9
$DIMGAP
 40
1.0
  9
$DIMJUST
 70
     0
  9
$DIMSD1
 70
     0
  9
$DIMSD2
 70
     0
  9
$DIMTOLJ
 70
     1
  9
$DIMTZIN
 70
     0
  9
$DIMALTZ
 70
     0
  9
$DIMALTTZ
 70
     0
  9
$DIMUPT
 70
     0
  9
$DIMDEC
 70
     4
  9
$DIMTDEC
 70
     4
  9
$DIMALTU
 70
     2
  9
$DIMALTTD
 70
     2
  9
$DIMTXSTY
  7
STANDARD
  9
$DIMAUNIT
 70
     0
  9
$DIMADEC
 70
     0
  9
$DIMALTRND
 40
0.0
  9
$DIMAZIN
 70
     0
  9
$DIMDSEP
 70
    46
  9
$DIMATFIT
 70
     3
  9
$DIMFRAC
 70
     0
  9
$DIMLDRBLK
  1
OPEN
  9
$DIMLUNIT
 70
     2
  9
$DIMLWD
 70
    -2
  9
$DIMLWE
 70
    -2
  9
$DIMTMOVE
 70
     0
  9
$LUNITS
 70
     2
  9
$LUPREC
 70
     4
  9
$SKETCHINC
 40
1.0
  9
$FILLETRAD
 40
0.0
  9
$AUNITS
 70
     0
  9
$AUPREC
 70
     0
  9
$MENU
  1
.
  9
$ELEVATION
 40
0.0
  9
$PELEVATION
 40
0.0
  9
$THICKNESS
 40
0.0
  9
$LIMCHECK
 70
     0
  9
$CHAMFERA
 40
10.0
  9
$CHAMFERB
 40
10.0
  9
$CHAMFERC
 40
20.0
  9
$CHAMFERD
 40
0.0
  9
$SKPOLY
 70
     0
  9
$TDCREATE
 40
2452957.455275961
  9
$TDUCREATE
 40
2452957.080275961
  9
$TDUPDATE
 40
2457192.643808090
  9
$TDUUPDATE
 40
2457192.268808090
  9
$TDINDWG
 40
0.1196282639
  9
$TDUSRTIMER
 40
0.1196280556
  9
$USRTIMER
 70
     1
  9
$ANGBASE
 50
0.0
  9
$ANGDIR
 70
     0
  9
$PDMODE
 70
     0
  9
$PDSIZE
 40
0.0
  9
$PLINEWID
 40
0.0
  9
$SPLFRAME
 70
     0
  9
$SPLINETYPE
 70
     6
  9
$SPLINESEGS
 70
     8
  9
$HANDSEED
  5
26ED
  9
$SURFTAB1
 70
     6
  9
$SURFTAB2
 70
     6
  9
$SURFTYPE
 70
     6
  9
$SURFU
 70
     6
  9
$SURFV
 70
     6
  9
$UCSBASE
  2

  9
$UCSNAME
  2

  9
$UCSORG
 10
0.0
 20
0.0
 30
0.0
  9
$UCSXDIR
 10
1.0
 20
0.0
 30
0.0
  9
$UCSYDIR
 10
0.0
 20
1.0
 30
0.0
  9
$UCSORTHOREF
  2

  9
$UCSORTHOVIEW
 70
     0
  9
$UCSORGTOP
 10
0.0
 20
0.0
 30
0.0
  9
$UCSORGBOTTOM
 10
0.0
 20
0.0
 30
0.0
  9
$UCSORGLEFT
 10
0.0
 20
0.0
 30
0.0
  9
$UCSORGRIGHT
 10
0.0
 20
0.0
 30
0.0
  9
$UCSORGFRONT
 10
0.0
 20
0.0
 30
0.0
  9
$UCSORGBACK
 10
0.0
 20
0.0
 30
0.0
  9
$PUCSBASE
  2

  9
$PUCSNAME
  2

  9
$PUCSORG
 10
0.0
 20
0.0
 30
0.0
  9
$PUCSXDIR
 10
1.0
 20
0.0
 30
0.0
  9
$PUCSYDIR
 10
0.0
 20
1.0
 30
0.0
  9
$PUCSORTHOREF
  2

  9
$PUCSORTHOVIEW
 70
     0
  9
$PUCSORGTOP
 10
0.0
 20
0.0
 30
0.0
  9
$PUCSORGBOTTOM
 10
0.0
 20
0.0
 30
0.0
  9
$PUCSORGLEFT
 10
0.0
 20
0.0
 30
0.0
  9
$PUCSORGRIGHT
 10
0.0
 20
0.0
 30
0.0
  9
$PUCSORGFRONT
 10
0.0
 20
0.0
 30
0.0
  9
$PUCSORGBACK
 10
0.0
 20
0.0
 30
0.0
  9
$USERI1
 70
     0
  9
$USERI2
 70
     0
  9
$USERI3
 70
     0
  9
$USERI4
 70
     0
  9
$USERI5
 70
     0
  9
$USERR1
 40
0.0
  9
$USERR2
 40
0.0
  9
$USERR3
 40
0.0
  9
$USERR4
 40
0.0
  9
$USERR5
 40
0.0
  9
$WORLDVIEW
 70
     1
  9
$SHADEDGE
 70
     3
  9
$SHADEDIF
 70
    70
  9
$TILEMODE
 70
     1
  9
$MAXACTVP
 70
    48
  9
$PINSBASE
 10
0.0
 20
0.0
 30
0.0
  9
$PLIMCHECK
 70
     0
  9
$PEXTMIN
 10
1.000000000000000E+20
 20
1.000000000000000E+20
 30
1.000000000000000E+20
  9
$PEXTMAX
 10
-1.000000000000000E+20
 20
-1.000000000000000E+20
 30
-1.000000000000000E+20
  9
$PLIMMIN
 10
0.0
 20
0.0
  9
$PLIMMAX
 10
420.0
 20
297.0
  9
$UNITMODE
 70
     0
  9
$VISRETAIN
 70
     1
  9
$PLINEGEN
 70
     0
  9
$PSLTSCALE
 70
     1
  9
$TREEDEPTH
 70
  3020
  9
$CMLSTYLE
  2
STANDARD
  9
$CMLJUST
 70
     0
  9
$CMLSCALE
 40
20.0
  9
$PROXYGRAPHICS
 70
     1
  9
$MEASUREMENT
 70
     0
  9
$CELWEIGHT
370
    -1
  9
$ENDCAPS
280
     0
  9
$JOINSTYLE
280
     0
  9
$LWDISPLAY
290
     0
  9
$INSUNITS
 70
     0
  9
$HYPERLINKBASE
  1

  9
$STYLESHEET
  1

  9
$XEDIT
290
     1
  9
$CEPSNTYPE
380
     0
  9
$PSTYLEMODE
290
     1
  9
$FINGERPRINTGUID
  2
{627DC779-7FB2-4D9D-A76F-415671E76AB2}
  9
$VERSIONGUID
  2
{4436DCF3-6C61-4096-B5CD-8550D7449556}
  9
$EXTNAMES
290
     1
  9
$PSVPSCALE
 40
0.0
  9
$OLESTARTUP
290
     0
  0
ENDSEC
  0
SECTION
  2
CLASSES
  0
CLASS
  1
ACDBDICTIONARYWDFLT
  2
AcDbDictionaryWithDefault
  3
ObjectDBX Classes
 90
        0
280
     0
281
     0
  0
CLASS
  1
ACDBPLACEHOLDER
  2
AcDbPlaceHolder
  3
ObjectDBX Classes
 90
        0
280
     0
281
     0
  0
CLASS
  1
LAYOUT
  2
AcDbLayout
  3
ObjectDBX Classes
 90
        0
280
     0
281
     0
  0
CLASS
  1
DICTIONARYVAR
  2
AcDbDictionaryVar
  3
ObjectDBX Classes
 90
        0
280
     0
281
     0
  0
CLASS
  1
MATERIAL
  2
AcDbMaterial
  3
ObjectDBX Classes
 90
     1153
280
     0
281
     0
  0
CLASS
  1
VISUALSTYLE
  2
AcDbVisualStyle
  3
ObjectDBX Classes
 90
     4095
280
     0
281
     0
  0
CLASS
  1
TABLESTYLE
  2
AcDbTableStyle
  3
ObjectDBX Classes
 90
     4095
280
     0
281
     0
  0
CLASS
  1
SCALE
  2
AcDbScale
  3
ObjectDBX Classes
 90
     1153
280
     0
281
     0
  0
CLASS
  1
MLEADERSTYLE
  2
AcDbMLeaderStyle
  3
ACDB_MLEADERSTYLE_CLASS
 90
     4095
280
     0
281
     0
  0
CLASS
  1
ACDBSECTIONVIEWSTYLE
  2
AcDbSectionViewStyle
  3
ObjectDBX Classes
 90
     1025
280
     0
281
     0
  0
CLASS
  1
ACDBDETAILVIEWSTYLE
  2
AcDbDetailViewStyle
  3
ObjectDBX Classes
 90
     1025
280
     0
281
     0
  0
CLASS
  1
CELLSTYLEMAP
  2
AcDbCellStyleMap
  3
ObjectDBX Classes
 90
     1152
280
     0
281
     0
  0
ENDSEC
  0
SECTION
  2
TABLES
  0
TABLE
  2
VPORT
  5
8
330
0
100
AcDbSymbolTable
 70
     1
  0
VPORT
  5
2639
330
8
100
AcDbSymbolTableRecord
100
AcDbViewportTableRecord
  2
*ACTIVE
 70
     0
 10
0.0
 20
0.0
 11
1.0
 21
1.0
 12
397.9131399801685
 22
197.6412621477999
 13
0.0
 23
0.0
 14
10.0
 24
10.0
 15
10.0
 25
10.0
 16
0.0
 26
0.0
 36
1.0
 17
0.0
 27
0.0
 37
0.0
 40
378.204632849368
 41
1.899603698811096
 42
50.0
 43
0.0
 44
0.0
 50
0.0
 51
0.0
 71
     0
 72
   100
 73
     1
 74
     0
 75
     0
 76
     0
 77
     0
 78
     0
281
     0
 65
     1
110
0.0
120
0.0
130
0.0
111
1.0
121
0.0
131
0.0
112
0.0
122
1.0
132
0.0
 79
     0
146
0.0
1001
ACAD_NAV_VCDISPLAY
1070
     3
  0
ENDTAB
  0
TABLE
  2
LTYPE
  5
5
330
0
100
AcDbSymbolTable
 70
     4
  0
LTYPE
  5
12
330
5
100
AcDbSymbolTableRecord
100
AcDbLinetypeTableRecord
  2
BYBLOCK
 70
     0
  3

 72
    65
 73
     0
 40
0.0
  0
LTYPE
  5
13
330
5
100
AcDbSymbolTableRecord
100
AcDbLinetypeTableRecord
  2
BYLAYER
 70
     0
  3

 72
    65
 73
     0
 40
0.0
  0
LTYPE
  5
14
330
5
100
AcDbSymbolTableRecord
100
AcDbLinetypeTableRecord
  2
CONTINUOUS
 70
     0
  3
Solid line
 72
    65
 73
     0
 40
0.0
  0
LTYPE
  5
4B
330
5
100
AcDbSymbolTableRecord
100
AcDbLinetypeTableRecord
  2
DASHED
 70
     0
  3
Dashed __ __ __ __ __ __ __ __ __ __ __ __ __ _
 72
    65
 73
     2
 40
19.04999999999998
 49
12.7
 74
     0
 49
-6.349999999999997
 74
     0
  0
LTYPE
  5
4C
330
5
100
AcDbSymbolTableRecord
100
AcDbLinetypeTableRecord
  2
CENTER
 70
     0
  3
Center ____ _ ____ _ ____ _ ____ _ ____ _ ____
 72
    65
 73
     4
 40
50.8
 49
31.75
 74
     0
 49
-6.349999999999997
 74
     0
 49
6.349999999999997
 74
     0
 49
-6.349999999999997
 74
     0
  0
LTYPE
  5
4D
330
5
100
AcDbSymbolTableRecord
100
AcDbLinetypeTableRecord
  2
PHANTOM
 70
     0
  3
Phantom ______  __  __  ______  __  __  ______
 72
    65
 73
     6
 40
63.5
 49
31.75
 74
     0
 49
-6.349999999999997
 74
     0
 49
6.349999999999997
 74
     0
 49
-6.349999999999997
 74
     0
 49
6.349999999999997
 74
     0
 49
-6.349999999999997
 74
     0
  0
ENDTAB
  0
TABLE
  2
LAYER
  5
2
330
0
100
AcDbSymbolTable
 70
     8
  0
LAYER
  5
E
102
{ACAD_XDICTIONARY
360
2691
102
}
330
2
100
AcDbSymbolTableRecord
100
AcDbLayerTableRecord
  2
0
 70
     0
 62
     7
  6
CONTINUOUS
370
    -3
390
2640
  0
LAYER
  5
4E
102
{ACAD_XDICTIONARY
360
2693
102
}
330
2
100
AcDbSymbolTableRecord
100
AcDbLayerTableRecord
  2
4
 70
     0
 62
     1
  6
CENTER
370
    -3
390
2640
  0
LAYER
  5
4F
102
{ACAD_XDICTIONARY
360
2695
102
}
330
2
100
AcDbSymbolTableRecord
100
AcDbLayerTableRecord
  2
5
 70
     0
 62
     6
  6
PHANTOM
370
    -3
390
2640
  0
LAYER
  5
50
102
{ACAD_XDICTIONARY
360
2697
102
}
330
2
100
AcDbSymbolTableRecord
100
AcDbLayerTableRecord
  2
1
 70
     0
 62
     7
  6
CONTINUOUS
370
    -3
390
2640
  0
LAYER
  5
51
102
{ACAD_XDICTIONARY
360
2699
102
}
330
2
100
AcDbSymbolTableRecord
100
AcDbLayerTableRecord
  2
2
 70
     0
 62
     4
  6
CONTINUOUS
370
    -3
390
2640
  0
LAYER
  5
52
102
{ACAD_XDICTIONARY
360
269B
102
}
330
2
100
AcDbSymbolTableRecord
100
AcDbLayerTableRecord
  2
3
 70
     0
 62
     2
  6
DASHED
370
    -3
390
2640
  0
LAYER
  5
53
102
{ACAD_XDICTIONARY
360
269D
102
}
330
2
100
AcDbSymbolTableRecord
100
AcDbLayerTableRecord
  2
6
 70
     0
 62
     5
  6
CONTINUOUS
370
    -3
390
2640
  0
LAYER
  5
54
102
{ACAD_XDICTIONARY
360
269F
102
}
330
2
100
AcDbSymbolTableRecord
100
AcDbLayerTableRecord
  2
7
 70
     0
 62
     3
  6
CONTINUOUS
370
    -3
390
2640
  0
ENDTAB
  0
TABLE
  2
STYLE
  5
3
330
0
100
AcDbSymbolTable
 70
     1
  0
STYLE
  5
F
330
3
100
AcDbSymbolTableRecord
100
AcDbTextStyleTableRecord
  2
STANDARD
 70
     0
 40
0.0
 41
1.0
 50
0.0
 71
     0
 42
2.5
  3
simplex.shx
  4

  0
ENDTAB
  0
TABLE
  2
VIEW
  5
6
330
0
100
AcDbSymbolTable
 70
     0
  0
ENDTAB
  0
TABLE
  2
UCS
  5
7
330
0
100
AcDbSymbolTable
 70
     0
  0
ENDTAB
  0
TABLE
  2
APPID
  5
9
330
0
100
AcDbSymbolTable
 70
     7
  0
APPID
  5
10
330
9
100
AcDbSymbolTableRecord
100
AcDbRegAppTableRecord
  2
ACAD
 70
     0
  0
APPID
  5
3E
330
9
100
AcDbSymbolTableRecord
100
AcDbRegAppTableRecord
  2
CONTENTTABDATA
 70
     0
  0
APPID
  5
3F
330
9
100
AcDbSymbolTableRecord
100
AcDbRegAppTableRecord
  2
CONTENTCURRENTTAB
 70
     0
  0
APPID
  5
C8E
330
9
100
AcDbSymbolTableRecord
100
AcDbRegAppTableRecord
  2
CONTENTBLOCKICON
 70
     0
  0
APPID
  5
C8F
330
9
100
AcDbSymbolTableRecord
100
AcDbRegAppTableRecord
  2
CONTENTBLOCKDESCRIPTION
 70
     0
  0
APPID
  5
26AB
330
9
100
AcDbSymbolTableRecord
100
AcDbRegAppTableRecord
  2
ACAD_NAV_VCDISPLAY
 70
     0
  0
APPID
  5
26E4
330
9
100
AcDbSymbolTableRecord
100
AcDbRegAppTableRecord
  2
ACAD_MLEADERVER
 70
     0
  0
ENDTAB
  0
TABLE
  2
DIMSTYLE
  5
A
330
0
100
AcDbSymbolTable
 70
     1
100
AcDbDimStyleTable
 71
     0
  0
DIMSTYLE
105
1D
330
A
100
AcDbSymbolTableRecord
100
AcDbDimStyleTableRecord
  2
STANDARD
 70
     0
 41
2.5
 42
1.0
 43
10.0
 44
1.0
 73
     0
 74
     0
 77
     3
 78
     8
140
2.5
141
0.0
147
1.0
172
     1
173
     1
340
F
341
2E
343
2E
344
2E
  0
ENDTAB
  0
TABLE
  2
BLOCK_RECORD
  5
1
330
0
100
AcDbSymbolTable
 70
     1
  0
BLOCK_RECORD
  5
18
102
{ACAD_XDICTIONARY
360
2622
102
}
330
1
100
AcDbSymbolTableRecord
100
AcDbBlockTableRecord
  2
*MODEL_SPACE
340
268E
  0
BLOCK_RECORD
  5
15
102
{ACAD_XDICTIONARY
360
2620
102
}
330
1
100
AcDbSymbolTableRecord
100
AcDbBlockTableRecord
  2
*PAPER_SPACE
340
268F
  0
BLOCK_RECORD
  5
2E
330
1
100
AcDbSymbolTableRecord
100
AcDbBlockTableRecord
  2
_OPEN
340
0
  0
ENDTAB
  0
ENDSEC
  0
SECTION
  2
BLOCKS
  0
BLOCK
  5
19
330
18
100
AcDbEntity
  8
0
100
AcDbBlockBegin
  2
*MODEL_SPACE
 70
     0
 10
0.0
 20
0.0
 30
0.0
  3
*MODEL_SPACE
  1

  0
ENDBLK
  5
1A
330
18
100
AcDbEntity
  8
0
100
AcDbBlockEnd
  0
BLOCK
  5
16
330
15
100
AcDbEntity
 67
     1
  8
0
100
AcDbBlockBegin
  2
*PAPER_SPACE
 70
     0
 10
0.0
 20
0.0
 30
0.0
  3
*PAPER_SPACE
  1

  0
ENDBLK
  5
17
330
15
100
AcDbEntity
 67
     1
  8
0
100
AcDbBlockEnd
  0
BLOCK
  5
2F
330
2E
100
AcDbEntity
  8
0
100
AcDbBlockBegin
  2
_OPEN
 70
     0
 10
0.0
 20
0.0
 30
0.0
  3
_OPEN
  1

  0
LINE
  5
30
330
2E
100
AcDbEntity
  8
0
  6
ByBlock
 62
     0
100
AcDbLine
 10
-1.0
 20
0.1666666666666666
 30
0.0
 11
0.0
 21
0.0
 31
0.0
  0
LINE
  5
31
330
2E
100
AcDbEntity
  8
0
  6
ByBlock
 62
     0
100
AcDbLine
 10
0.0
 20
0.0
 30
0.0
 11
-1.0
 21
-0.1666666666666666
 31
0.0
  0
LINE
  5
32
330
2E
100
AcDbEntity
  8
0
  6
ByBlock
 62
     0
100
AcDbLine
 10
0.0
 20
0.0
 30
0.0
 11
-1.0
 21
0.0
 31
0.0
  0
ENDBLK
  5
33
330
2E
100
AcDbEntity
  8
0
100
AcDbBlockEnd
  0
ENDSEC
  0
SECTION
  2
ENTITIES
  0
TEXT
  5
63
330
18
100
AcDbEntity
  8
4
  6
CENTER
 48
0.25
100
AcDbText
 10
23.97950852663849
 20
10.0
 30
0.0
 40
1.399999999999999
  1
4
100
AcDbText
  0
TEXT
  5
64
330
18
100
AcDbEntity
  8
7
  6
Continuous
 48
0.25
100
AcDbText
 10
9.999997526638502
 20
26.0000007607689
 30
0.0
 40
3.0
  1
CODE No.13238
100
AcDbText
  0
TEXT
  5
65
330
18
100
AcDbEntity
  8
7
  6
Continuous
 48
0.25
100
AcDbText
 10
9.999997526638502
 20
18.00000076076889
 30
0.0
 40
3.0
  1
TYPE No.THA-540-3
100
AcDbText
  0
TEXT
  5
66
330
18
100
AcDbEntity
  8
1
  6
Continuous
 48
0.25
100
AcDbText
 10
9.999997526638502
 20
10.00000076076889
 30
0.0
 40
1.399999999999999
  1
LAYER
100
AcDbText
  0
TEXT
  5
67
330
18
100
AcDbEntity
  8
2
  6
Continuous
 48
0.25
100
AcDbText
 10
19.9795085266385
 20
10.0
 30
0.0
 40
1.399999999999999
  1
2
100
AcDbText
  0
TEXT
  5
68
330
18
100
AcDbEntity
  8
3
  6
DASHED
 48
0.25
100
AcDbText
 10
21.97950852663849
 20
10.0
 30
0.0
 40
1.399999999999999
  1
3
100
AcDbText
  0
TEXT
  5
69
330
18
100
AcDbEntity
  8
1
  6
Continuous
 48
0.25
100
AcDbText
 10
17.9795085266385
 20
10.0
 30
0.0
 40
1.399999999999999
  1
1
100
AcDbText
  0
TEXT
  5
6A
330
18
100
AcDbEntity
  8
5
  6
PHANTOM
 48
0.25
100
AcDbText
 10
25.97950852663849
 20
10.0
 30
0.0
 40
1.399999999999999
  1
5
100
AcDbText
  0
TEXT
  5
6B
330
18
100
AcDbEntity
  8
6
  6
Continuous
 48
0.25
100
AcDbText
 10
27.97950852663849
 20
10.0
 30
0.0
 40
1.399999999999999
  1
6
100
AcDbText
  0
TEXT
  5
6C
330
18
100
AcDbEntity
  8
7
  6
Continuous
 48
0.25
100
AcDbText
 10
29.9795085266385
 20
10.0
 30
0.0
 40
1.399999999999999
  1
7
100
AcDbText
  0
LINE
  5
3A6
330
18
100
AcDbEntity
  8
1
  6
Continuous
100
AcDbLine
 10
211.5469016938193
 20
221.4186511641317
 30
0.0
 11
211.5469016938015
 21
182.4186511641197
 31
0.0
  0
LINE
  5
3A7
330
18
100
AcDbEntity
  8
1
  6
Continuous
100
AcDbLine
 10
210.2469016937968
 20
180.127363316514
 30
0.0
 11
210.2469016937968
 21
201.9186511635008
 31
0.0
  0
LINE
  5
3AB
330
18
100
AcDbEntity
  8
1
  6
Continuous
100
AcDbLine
 10
198.5469016937967
 20
168.9186511640139
 30
0.0
 11
198.5469016937967
 21
252.918651164014
 31
0.0
  0
LINE
  5
3AC
330
18
100
AcDbEntity
  8
1
  6
Continuous
100
AcDbLine
 10
199.5469016937968
 20
168.9186511640139
 30
0.0
 11
199.5469016937968
 21
252.918651164014
 31
0.0
  0
LINE
  5
3AD
330
18
100
AcDbEntity
  8
1
  6
Continuous
100
AcDbLine
 10
197.0469016937967
 20
170.9186511640113
 30
0.0
 11
197.0469016937967
 21
250.9186511640113
 31
0.0
  0
LINE
  5
3AE
330
18
100
AcDbEntity
  8
1
  6
Continuous
100
AcDbLine
 10
210.5469016938391
 20
182.418651164151
 30
0.0
 11
210.5469016938391
 21
201.9186511634968
 31
0.0
  0
LINE
  5
3AF
330
18
100
AcDbEntity
  8
1
  6
Continuous
100
AcDbLine
 10
210.4469016937969
 20
179.9266640052149
 30
0.0
 11
210.4469016937969
 21
201.9186511635008
 31
0.0
  0
LINE
  5
3B1
330
18
100
AcDbEntity
  8
1
  6
Continuous
100
AcDbLine
 10
100.4611773304618
 20
186.3186511642641
 30
0.0
 11
100.4611773304618
 21
201.4186511643643
 31
0.0
  0
LINE
  5
3B2
330
18
100
AcDbEntity
  8
1
  6
Continuous
100
AcDbLine
 10
84.66117733046178
 20
186.3186511642641
 30
0.0
 11
84.66117733046178
 21
201.4186511643724
 31
0.0
  0
LINE
  5
3B3
330
18
100
AcDbEntity
  8
1
  6
Continuous
100
AcDbLine
 10
100.9611773304617
 20
186.3186511642641
 30
0.0
 11
100.9611773304617
 21
201.4186511637984
 31
0.0
  0
LINE
  5
3B4
330
18
100
AcDbEntity
  8
1
  6
Continuous
100
AcDbLine
 10
84.16117733046178
 20
186.3186511642641
 30
0.0
 11
84.16117733046178
 21
201.4186511637984
 31
0.0
  0
LINE
  5
3B5
330
18
100
AcDbEntity
  8
1
  6
Continuous
100
AcDbLine
 10
194.5469016938019
 20
177.9186511642194
 30
0.0
 11
197.0469016938021
 21
201.9186511637526
 31
0.0
  0
LINE
  5
3B6
330
18
100
AcDbEntity
  8
1
  6
Continuous
100
AcDbLine
 10
84.06117733053486
 20
189.918651164015
 30
0.0
 11
84.06117733043492
 21
230.9186511639679
 31
0.0
  0
LINE
  5
3B7
330
18
100
AcDbEntity
  8
1
  6
Continuous
100
AcDbLine
 10
101.0611773303911
 20
189.9186511640216
 30
0.0
 11
101.061177330407
 21
230.9186511639746
 31
0.0
  0
LINE
  5
3B8
330
18
100
AcDbEntity
  8
4
  6
CENTER
100
AcDbLine
 10
92.56117733041127
 20
255.9186511640902
 30
0.0
 11
92.56117733047243
 21
165.9186511640901
 31
0.0
  0
LINE
  5
3B9
330
18
100
AcDbEntity
  8
1
  6
Continuous
100
AcDbLine
 10
106.5611773304137
 20
247.9186511639845
 30
0.0
 11
106.5611773303847
 21
173.9186511639742
 31
0.0
  0
LINE
  5
3BA
330
18
100
AcDbEntity
  8
1
  6
Continuous
100
AcDbLine
 10
80.5611773304138
 20
247.9186511639992
 30
0.0
 11
80.5611773303848
 21
173.9186511639559
 31
0.0
  0
LINE
  5
3BB
330
18
100
AcDbEntity
  8
1
  6
Continuous
100
AcDbLine
 10
104.5611773304603
 20
247.9186511639829
 30
0.0
 11
104.5611773304732
 21
173.9186511639763
 31
0.0
  0
LINE
  5
3BC
330
18
100
AcDbEntity
  8
1
  6
Continuous
100
AcDbLine
 10
78.5611773304604
 20
247.9186511640093
 30
0.0
 11
78.56117733047323
 21
173.9186511639615
 31
0.0
  0
ARC
  5
3BD
330
18
100
AcDbEntity
  8
1
  6
Continuous
100
AcDbCircle
 10
83.56117733047325
 20
173.9186511639615
 30
0.0
 40
5.0
100
AcDbArc
 50
180.0
 51
270.0
  0
ARC
  5
3BE
330
18
100
AcDbEntity
  8
1
  6
Continuous
100
AcDbCircle
 10
83.56117733038479
 20
173.9186511639548
 30
0.0
 40
3.0
100
AcDbArc
 50
180.0
 51
270.0
  0
LINE
  5
3BF
330
18
100
AcDbEntity
  8
1
  6
Continuous
100
AcDbLine
 10
84.06117733054989
 20
177.9186511642712
 30
0.0
 11
92.56117733047053
 21
170.9186511639654
 31
0.0
  0
LINE
  5
3C0
330
18
100
AcDbEntity
  8
1
  6
Continuous
100
AcDbLine
 10
92.56117733047041
 20
170.9186511639654
 30
0.0
 11
101.0611773303865
 21
177.9186511642573
 31
0.0
  0
LINE
  5
3C2
330
18
100
AcDbEntity
  8
1
  6
Continuous
100
AcDbLine
 10
101.5611773304768
 20
170.9186511639761
 30
0.0
 11
83.56117733038844
 21
170.9186511639548
 31
0.0
  0
LINE
  5
3C3
330
18
100
AcDbEntity
  8
1
  6
Continuous
100
AcDbLine
 10
83.56117733047732
 20
168.9186511639614
 30
0.0
 11
101.5611773303887
 21
168.9186511639761
 31
0.0
  0
ARC
  5
3C4
330
18
100
AcDbEntity
  8
1
  6
Continuous
100
AcDbCircle
 10
101.5611773303846
 20
173.9186511639761
 30
0.0
 40
5.0
100
AcDbArc
 50
270.0
 51
0.0
  0
ARC
  5
3C5
330
18
100
AcDbEntity
  8
1
  6
Continuous
100
AcDbCircle
 10
101.5611773304732
 20
173.9186511639761
 30
0.0
 40
3.0
100
AcDbArc
 50
270.0
 51
0.0
  0
ARC
  5
3C6
330
18
100
AcDbEntity
  8
1
  6
Continuous
100
AcDbCircle
 10
92.56117733046188
 20
186.3186511642641
 30
0.0
 40
7.900000000000003
100
AcDbArc
 50
180.0
 51
0.0
  0
ARC
  5
3C7
330
18
100
AcDbEntity
  8
1
  6
Continuous
100
AcDbCircle
 10
92.56117733046188
 20
186.3186511642641
 30
0.0
 40
8.400000000000002
100
AcDbArc
 50
180.0
 51
0.0
  0
LINE
  5
3C8
330
18
100
AcDbEntity
  8
1
  6
Continuous
100
AcDbLine
 10
84.06117733054989
 20
177.9186511642711
 30
0.0
 11
101.0611773303867
 21
177.9186511642573
 31
0.0
  0
ARC
  5
3C9
330
18
100
AcDbEntity
  8
1
  6
Continuous
100
AcDbCircle
 10
92.56117733045844
 20
189.9186511640249
 30
0.0
 40
8.499999999923726
100
AcDbArc
 50
180.0
 51
188.7974107068155
  0
ARC
  5
3CA
330
18
100
AcDbEntity
  8
1
  6
Continuous
100
AcDbCircle
 10
92.56117733045844
 20
189.9186511640249
 30
0.0
 40
8.499999999923726
100
AcDbArc
 50
351.202589293477
 51
0.0
  0
LINE
  5
3CF
330
18
100
AcDbEntity
  8
4
  6
CENTER
100
AcDbLine
 10
198.9628353288521
 20
174.9186511640024
 30
0.0
 11
205.3892551156458
 21
174.9186511640118
 31
0.0
  0
ARC
  5
3D0
330
18
100
AcDbEntity
  8
1
  6
Continuous
100
AcDbCircle
 10
230.6469016938553
 20
179.118651163814
 30
0.0
 40
8.999999999790484
100
AcDbArc
 50
269.9999999999544
 51
298.0724869365628
  0
ARC
  5
3D1
330
18
100
AcDbEntity
  8
1
  6
Continuous
100
AcDbCircle
 10
230.6469016938501
 20
170.7186511638145
 30
0.0
 40
9.000000000209023
100
AcDbArc
 50
61.92751306485398
 51
89.99999999995441
  0
LINE
  5
3D2
330
18
100
AcDbEntity
  8
1
  6
Continuous
100
AcDbLine
 10
203.0469016937967
 20
171.4186511640176
 30
0.0
 11
203.0469016937967
 21
178.4186511640176
 31
0.0
  0
LINE
  5
3D3
330
18
100
AcDbEntity
  8
1
  6
Continuous
100
AcDbLine
 10
230.646901693848
 20
170.1186511640235
 30
0.0
 11
230.6469016938558
 21
179.7186511640235
 31
0.0
  0
LINE
  5
3D4
330
18
100
AcDbEntity
  8
1
  6
Continuous
100
AcDbLine
 10
203.5469016937967
 20
177.9186511640179
 30
0.0
 11
203.5469016937967
 21
171.9186511640179
 31
0.0
  0
LINE
  5
3D5
330
18
100
AcDbEntity
  8
1
  6
Continuous
100
AcDbLine
 10
197.0469016937967
 20
170.9186511640113
 30
0.0
 11
198.5469016937967
 21
168.9186511640129
 31
0.0
  0
LINE
  5
3D6
330
18
100
AcDbEntity
  8
1
  6
Continuous
100
AcDbLine
 10
198.5469016937967
 20
168.9186511640129
 30
0.0
 11
199.5469016937969
 21
168.9186511640139
 31
0.0
  0
LINE
  5
3D7
330
18
100
AcDbEntity
  8
1
  6
Continuous
100
AcDbLine
 10
199.5469016939041
 20
171.4186511640139
 30
0.0
 11
203.0469016937967
 21
171.4186511640175
 31
0.0
  0
LINE
  5
3D8
330
18
100
AcDbEntity
  8
1
  6
Continuous
100
AcDbLine
 10
203.5469016937969
 20
171.9186511640181
 30
0.0
 11
203.0469016937969
 21
171.4186511640176
 31
0.0
  0
LINE
  5
3D9
330
18
100
AcDbEntity
  8
1
  6
Continuous
100
AcDbLine
 10
196.7469016938118
 20
192.3186511640803
 30
0.0
 11
196.7469016938013
 21
178.418651164221
 31
0.0
  0
LINE
  5
3DA
330
18
100
AcDbEntity
  8
1
  6
Continuous
100
AcDbLine
 10
196.9469016938041
 20
183.5758300306045
 30
0.0
 11
196.9469016937998
 21
178.1186511642221
 31
0.0
  0
ARC
  5
3DB
330
18
100
AcDbEntity
  8
1
  6
Continuous
100
AcDbCircle
 10
196.2469016938
 20
178.4186511642215
 30
0.0
 40
0.5
100
AcDbArc
 50
270.0
 51
0.0
  0
ARC
  5
3DC
330
18
100
AcDbEntity
  8
1
  6
Continuous
100
AcDbCircle
 10
196.7469016937986
 20
178.1186511642221
 30
0.0
 40
0.2
100
AcDbArc
 50
270.0
 51
0.0
  0
LINE
  5
3DD
330
18
100
AcDbEntity
  8
1
  6
Continuous
100
AcDbLine
 10
194.5469016938021
 20
177.9186511642194
 30
0.0
 11
196.746901693799
 21
177.9186511642221
 31
0.0
  0
LINE
  5
3DE
330
18
100
AcDbEntity
  8
1
  6
Continuous
100
AcDbLine
 10
197.0469016937967
 20
185.0731353094019
 30
0.0
 11
196.7469016938045
 21
185.0731353094024
 31
0.0
  0
ARC
  5
3E0
330
18
100
AcDbEntity
  8
1
  6
Continuous
100
AcDbCircle
 10
197.7469016938029
 20
182.9186511640091
 30
0.0
 40
1.0
100
AcDbArc
 50
134.4270040013019
 51
143.1301023541096
  0
LINE
  5
3E2
330
18
100
AcDbEntity
  8
1
  6
Continuous
100
AcDbLine
 10
199.5469016937969
 20
179.918651164014
 30
0.0
 11
210.2469016937123
 21
179.918651164025
 31
0.0
  0
LINE
  5
3E3
330
18
100
AcDbEntity
  8
1
  6
Continuous
100
AcDbLine
 10
199.5469016938968
 20
178.418651164014
 30
0.0
 11
203.0469016937967
 21
178.4186511640176
 31
0.0
  0
LINE
  5
3E4
330
18
100
AcDbEntity
  8
1
  6
Continuous
100
AcDbLine
 10
203.0469016937969
 20
178.4186511640176
 30
0.0
 11
203.5469016937969
 21
177.9186511640181
 31
0.0
  0
LINE
  5
3E7
330
18
100
AcDbEntity
  8
1
  6
Continuous
100
AcDbLine
 10
211.5469016937967
 20
182.4186511641197
 30
0.0
 11
210.5469016938425
 21
182.4186511641189
 31
0.0
  0
LINE
  5
3E8
330
18
100
AcDbEntity
  8
1
  6
Continuous
100
AcDbLine
 10
210.4469016937969
 20
190.9186511637585
 30
0.0
 11
210.5469016938391
 21
190.9186511637585
 31
0.0
  0
LINE
  5
3E9
330
18
100
AcDbEntity
  8
1
  6
Continuous
100
AcDbLine
 10
210.4469016937969
 20
194.9186511637585
 30
0.0
 11
210.4469016937969
 21
195.31865116375
 31
0.0
  0
LINE
  5
3EA
330
18
100
AcDbEntity
  8
1
  6
Continuous
100
AcDbLine
 10
210.4469016937969
 20
194.9186511637585
 30
0.0
 11
210.5469016938391
 21
194.9186511637585
 31
0.0
  0
LINE
  5
3EB
330
18
100
AcDbEntity
  8
1
  6
Continuous
100
AcDbLine
 10
210.5469016938391
 20
197.918651163613
 30
0.0
 11
210.4469016937969
 21
197.9186511636129
 31
0.0
  0
LINE
  5
3EC
330
18
100
AcDbEntity
  8
1
  6
Continuous
100
AcDbLine
 10
210.5469016938391
 20
195.31865116375
 30
0.0
 11
210.4469016937969
 21
195.31865116375
 31
0.0
  0
ARC
  5
3EE
330
18
100
AcDbEntity
  8
1
  6
Continuous
100
AcDbCircle
 10
229.746901693852
 20
174.918651164015
 30
0.0
 40
9.0
100
AcDbArc
 50
344.1191499917214
 51
15.88085000827869
  0
LINE
  5
3EF
330
18
100
AcDbEntity
  8
1
  6
Continuous
100
AcDbLine
 10
236.1469016938519
 20
171.118651164015
 30
0.0
 11
236.1469016938519
 21
178.718651164015
 31
0.0
  0
LINE
  5
3F0
330
18
100
AcDbEntity
  8
1
  6
Continuous
100
AcDbLine
 10
235.1469016938519
 20
171.1186511640139
 30
0.0
 11
235.1469016938519
 21
178.718651164014
 31
0.0
  0
ARC
  5
3F4
330
18
100
AcDbEntity
  8
1
  6
Continuous
100
AcDbCircle
 10
234.6469016938491
 20
171.6186511640484
 30
0.0
 40
0.5
100
AcDbArc
 50
298.0724869365628
 51
359.9999999999552
  0
LINE
  5
3F5
330
18
100
AcDbEntity
  8
1
  6
Continuous
100
AcDbLine
 10
235.1469016935143
 20
174.3413008946329
 30
0.0
 11
236.1469016938519
 21
174.9186511640169
 31
0.0
  0
LINE
  5
3F6
330
18
100
AcDbEntity
  8
1
  6
Continuous
100
AcDbLine
 10
235.1469016938519
 20
171.1186511640139
 30
0.0
 11
236.1469016938519
 21
171.118651164015
 31
0.0
  0
LINE
  5
3F7
330
18
100
AcDbEntity
  8
1
  6
Continuous
100
AcDbLine
 10
236.1469016938519
 20
171.418651164015
 30
0.0
 11
237.2663168836862
 21
171.5165873024558
 31
0.0
  0
ARC
  5
3F8
330
18
100
AcDbEntity
  8
1
  6
Continuous
100
AcDbCircle
 10
237.1530144180745
 20
172.8116404104288
 30
0.0
 40
1.3
100
AcDbArc
 50
274.9999999999997
 51
344.1191499917214
  0
ARC
  5
3FB
330
18
100
AcDbEntity
  8
1
  6
Continuous
100
AcDbCircle
 10
234.646901693856
 20
178.2186511640484
 30
0.0
 40
0.5
100
AcDbArc
 50
359.9999999999552
 51
61.92751306485398
  0
LINE
  5
3FC
330
18
100
AcDbEntity
  8
1
  6
Continuous
100
AcDbLine
 10
235.1469016938519
 20
178.718651164014
 30
0.0
 11
236.1469016938519
 21
178.7186511640148
 31
0.0
  0
ARC
  5
3FD
330
18
100
AcDbEntity
  8
1
  6
Continuous
100
AcDbCircle
 10
237.1530144180607
 20
177.0256619175978
 30
0.0
 40
1.3
100
AcDbArc
 50
15.88085000827869
 51
85.00000000000019
  0
LINE
  5
3FE
330
18
100
AcDbEntity
  8
1
  6
Continuous
100
AcDbLine
 10
236.1469016938519
 20
178.418651164015
 30
0.0
 11
237.2663168836528
 21
178.3207150253475
 31
0.0
  0
LINE
  5
401
330
18
100
AcDbEntity
  8
1
  6
Continuous
100
AcDbLine
 10
100.9611773301738
 20
231.5186511641764
 30
0.0
 11
100.9611773301867
 21
203.4186511636166
 31
0.0
  0
LINE
  5
402
330
18
100
AcDbEntity
  8
1
  6
Continuous
100
AcDbLine
 10
84.16117733017381
 20
231.5186511641764
 30
0.0
 11
84.16117733018664
 21
203.4186511636288
 31
0.0
  0
LINE
  5
403
330
18
100
AcDbEntity
  8
1
  6
Continuous
100
AcDbLine
 10
84.66117733046189
 20
201.4186511643718
 30
0.0
 11
100.4611773304618
 21
201.4186511643643
 31
0.0
  0
LINE
  5
404
330
18
100
AcDbEntity
  8
1
  6
Continuous
100
AcDbLine
 10
101.0611773303957
 20
201.9186511636144
 30
0.0
 11
84.06117733039343
 21
201.9186511636311
 31
0.0
  0
ARC
  5
405
330
18
100
AcDbEntity
  8
1
  6
Continuous
100
AcDbCircle
 10
85.66117733018664
 20
203.4186511636295
 30
0.0
 40
1.5
100
AcDbArc
 50
180.0
 51
270.0
  0
ARC
  5
406
330
18
100
AcDbEntity
  8
1
  6
Continuous
100
AcDbCircle
 10
84.66117733046178
 20
201.4186511637984
 30
0.0
 40
0.5
100
AcDbArc
 50
90.0
 51
180.0
  0
LINE
  5
407
330
18
100
AcDbEntity
  8
1
  6
Continuous
100
AcDbLine
 10
84.0611773304929
 20
212.918651164175
 30
0.0
 11
84.16117733018234
 21
212.918651164175
 31
0.0
  0
LINE
  5
408
330
18
100
AcDbEntity
  8
1
  6
Continuous
100
AcDbLine
 10
84.06117733049176
 20
214.918651164129
 30
0.0
 11
84.16117733018143
 21
214.918651164129
 31
0.0
  0
ARC
  5
409
330
18
100
AcDbEntity
  8
1
  6
Continuous
100
AcDbCircle
 10
99.46117733018674
 20
203.4186511636161
 30
0.0
 40
1.5
100
AcDbArc
 50
270.0
 51
0.0
  0
ARC
  5
40A
330
18
100
AcDbEntity
  8
1
  6
Continuous
100
AcDbCircle
 10
100.4611773304618
 20
201.4186511637984
 30
0.0
 40
0.5
100
AcDbArc
 50
0.0
 51
90.0
  0
LINE
  5
40B
330
18
100
AcDbEntity
  8
1
  6
Continuous
100
AcDbLine
 10
101.0611773303879
 20
212.9186511641866
 30
0.0
 11
100.9611773306985
 21
212.9186511641865
 31
0.0
  0
LINE
  5
40C
330
18
100
AcDbEntity
  8
1
  6
Continuous
100
AcDbLine
 10
101.0611773303865
 20
214.9186511641405
 30
0.0
 11
100.9611773306968
 21
214.9186511641403
 31
0.0
  0
ARC
  5
40D
330
18
100
AcDbEntity
  8
1
  6
Continuous
100
AcDbCircle
 10
92.56117733015868
 20
229.5186511641764
 30
0.0
 40
8.400000000015182
100
AcDbArc
 50
0.0
 51
180.0
  0
ARC
  5
40E
330
18
100
AcDbEntity
  8
1
  6
Continuous
100
AcDbCircle
 10
92.56117733041582
 20
230.9186511639778
 30
0.0
 40
8.5
100
AcDbArc
 50
0.0
 51
180.0
  0
LINE
  5
40F
330
18
100
AcDbEntity
  8
1
  6
Continuous
100
AcDbLine
 10
84.06117733045709
 20
224.9186511640133
 30
0.0
 11
84.16117733017689
 21
224.9186511640133
 31
0.0
  0
LINE
  5
410
330
18
100
AcDbEntity
  8
1
  6
Continuous
100
AcDbLine
 10
84.06117733044709
 20
225.9186511641706
 30
0.0
 11
84.16117733017641
 21
225.9186511641706
 31
0.0
  0
LINE
  5
411
330
18
100
AcDbEntity
  8
1
  6
Continuous
100
AcDbLine
 10
84.06117733043732
 20
229.9186511641706
 30
0.0
 11
84.16117733017461
 21
229.9186511641706
 31
0.0
  0
LINE
  5
412
330
18
100
AcDbEntity
  8
1
  6
Continuous
100
AcDbLine
 10
84.06117733043744
 20
230.9186511640592
 30
0.0
 11
84.16117733017415
 21
230.9186511640592
 31
0.0
  0
ARC
  5
413
330
18
100
AcDbEntity
  8
1
  6
Continuous
100
AcDbCircle
 10
92.56117733015868
 20
231.5186511641764
 30
0.0
 40
8.400000000015182
100
AcDbArc
 50
172.4180312278043
 51
180.0
  0
LINE
  5
414
330
18
100
AcDbEntity
  8
1
  6
Continuous
100
AcDbLine
 10
101.0611773304076
 20
224.9186511640248
 30
0.0
 11
100.9611773306877
 21
224.9186511640246
 31
0.0
  0
LINE
  5
415
330
18
100
AcDbEntity
  8
1
  6
Continuous
100
AcDbLine
 10
101.061177330416
 20
225.9186511641821
 30
0.0
 11
100.9611773306869
 21
225.9186511641821
 31
0.0
  0
LINE
  5
416
330
18
100
AcDbEntity
  8
1
  6
Continuous
100
AcDbLine
 10
101.0611773304205
 20
229.9186511641821
 30
0.0
 11
100.9611773306832
 21
229.918651164182
 31
0.0
  0
LINE
  5
417
330
18
100
AcDbEntity
  8
1
  6
Continuous
100
AcDbLine
 10
101.0611773304189
 20
230.9186511640707
 30
0.0
 11
100.9611773306822
 21
230.9186511640707
 31
0.0
  0
ARC
  5
418
330
18
100
AcDbEntity
  8
1
  6
Continuous
100
AcDbCircle
 10
92.56117733015868
 20
231.5186511641764
 30
0.0
 40
8.400000000015182
100
AcDbArc
 50
0.0
 51
7.581968821296254
  0
ARC
  5
419
330
18
100
AcDbEntity
  8
1
  6
Continuous
100
AcDbCircle
 10
83.56117733046039
 20
247.9186511640093
 30
0.0
 40
5.0
100
AcDbArc
 50
90.0
 51
180.0
  0
ARC
  5
41A
330
18
100
AcDbEntity
  8
1
  6
Continuous
100
AcDbCircle
 10
83.56117733041378
 20
247.918651163998
 30
0.0
 40
3.0
100
AcDbArc
 50
90.0
 51
180.0
  0
LINE
  5
41B
330
18
100
AcDbEntity
  8
1
  6
Continuous
100
AcDbLine
 10
83.5611773304164
 20
250.9186511639978
 30
0.0
 11
101.5611773304629
 21
250.9186511639828
 31
0.0
  0
ARC
  5
41D
330
18
100
AcDbEntity
  8
1
  6
Continuous
100
AcDbCircle
 10
101.5611773304136
 20
247.9186511639865
 30
0.0
 40
5.0
100
AcDbArc
 50
0.0
 51
90.0
  0
ARC
  5
41E
330
18
100
AcDbEntity
  8
1
  6
Continuous
100
AcDbCircle
 10
101.5611773304603
 20
247.9186511639828
 30
0.0
 40
3.0
100
AcDbArc
 50
0.0
 51
90.0
  0
LINE
  5
421
330
18
100
AcDbEntity
  8
5
  6
PHANTOM
100
AcDbLine
 10
180.5208831633704
 20
215.554108747822
 30
0.0
 11
181.4580071177859
 21
214.1514709673873
 31
0.0
  0
LINE
  5
422
330
18
100
AcDbEntity
  8
5
  6
PHANTOM
100
AcDbLine
 10
182.526250659272
 20
216.8994159369431
 30
0.0
 11
180.7759310619927
 21
216.3053477856525
 31
0.0
  0
LINE
  5
423
330
18
100
AcDbEntity
  8
5
  6
PHANTOM
100
AcDbLine
 10
178.0698026431686
 20
222.251057841982
 30
0.0
 11
182.526250659272
 21
216.8994159369431
 31
0.0
  0
LINE
  5
424
330
18
100
AcDbEntity
  8
5
  6
PHANTOM
100
AcDbLine
 10
193.1072756057772
 20
227.354861027194
 30
0.0
 11
177.1228578050684
 21
221.9296612357176
 31
0.0
  0
LINE
  5
425
330
18
100
AcDbEntity
  8
5
  6
PHANTOM
100
AcDbLine
 10
195.5469016937969
 20
231.3509689995289
 30
0.0
 11
177.5790797113256
 21
225.2525908610228
 31
0.0
  0
ARC
  5
428
330
18
100
AcDbEntity
  8
5
  6
PHANTOM
100
AcDbCircle
 10
180.9366301067564
 20
215.8318756988173
 30
0.0
 40
0.5
100
AcDbArc
 50
108.7474964998184
 51
213.7474964999091
  0
LINE
  5
429
330
18
100
AcDbEntity
  8
5
  6
PHANTOM
100
AcDbLine
 10
176.6407610991016
 20
223.3500759483053
 30
0.0
 11
177.1228583200168
 21
221.9296597176894
 31
0.0
  0
ARC
  5
42A
330
18
100
AcDbEntity
  8
5
  6
PHANTOM
100
AcDbCircle
 10
178.061177330406
 20
223.8321731694543
 30
0.0
 40
1.5
100
AcDbArc
 50
108.7474999999995
 51
198.747499999999
  0
LINE
  5
42C
330
18
100
AcDbEntity
  8
1
  6
Continuous
100
AcDbLine
 10
212.0469016938026
 20
217.9186511640444
 30
0.0
 11
212.0469016937821
 21
252.918651164024
 31
0.0
  0
LINE
  5
42D
330
18
100
AcDbEntity
  8
1
  6
Continuous
100
AcDbLine
 10
203.0469016937969
 20
243.4186511640175
 30
0.0
 11
203.0469016937969
 21
250.4186511640174
 31
0.0
  0
LINE
  5
42E
330
18
100
AcDbEntity
  8
1
  6
Continuous
100
AcDbLine
 10
214.0469016938026
 20
217.9186511640454
 30
0.0
 11
214.0469016937821
 21
252.918651164025
 31
0.0
  0
LINE
  5
42F
330
18
100
AcDbEntity
  8
1
  6
Continuous
100
AcDbLine
 10
203.5469016937967
 20
249.918651164018
 30
0.0
 11
203.5469016937967
 21
243.918651164018
 31
0.0
  0
LINE
  5
430
330
18
100
AcDbEntity
  8
4
  6
CENTER
100
AcDbLine
 10
198.0469016938013
 20
227.918651164017
 30
0.0
 11
220.2469016937968
 21
227.918651164032
 31
0.0
  0
LINE
  5
431
330
18
100
AcDbEntity
  8
4
  6
CENTER
100
AcDbLine
 10
210.5469016938109
 20
222.9186511640428
 30
0.0
 11
215.7476995979835
 21
222.9186511640466
 31
0.0
  0
LINE
  5
432
330
18
100
AcDbEntity
  8
1
  6
Continuous
100
AcDbLine
 10
212.0469016938026
 20
217.9186511640442
 30
0.0
 11
214.0469016938026
 21
217.9186511640463
 31
0.0
  0
ARC
  5
433
330
18
100
AcDbEntity
  8
5
  6
PHANTOM
100
AcDbCircle
 10
187.2378904478106
 20
220.0826152325191
 30
0.0
 40
2.0
100
AcDbArc
 50
108.7474964998184
 51
192.738490542326
  0
LINE
  5
434
330
18
100
AcDbEntity
  8
5
  6
PHANTOM
100
AcDbLine
 10
184.6219579132923
 20
222.5839388754206
 30
0.0
 11
186.1327683782315
 21
215.9008809587585
 31
0.0
  0
ARC
  5
435
330
18
100
AcDbEntity
  8
5
  6
PHANTOM
100
AcDbCircle
 10
185.1573817441576
 20
215.6803794529363
 30
0.0
 40
1.0
100
AcDbArc
 50
288.7474964998185
 51
12.73849054232689
  0
LINE
  5
436
330
18
100
AcDbEntity
  8
5
  6
PHANTOM
100
AcDbLine
 10
185.4787798336849
 20
214.733435279266
 30
0.0
 11
182.6108990940854
 21
213.7600606957075
 31
0.0
  0
ARC
  5
437
330
18
100
AcDbEntity
  8
5
  6
PHANTOM
100
AcDbCircle
 10
182.2895010045581
 20
214.7070048693779
 30
0.0
 40
1.0
100
AcDbArc
 50
213.7474964999098
 51
288.7474964998185
  0
LINE
  5
438
330
18
100
AcDbEntity
  8
1
  6
Continuous
100
AcDbLine
 10
210.2469016937968
 20
201.9186511635005
 30
0.0
 11
211.5469016937967
 21
201.9186511635018
 31
0.0
  0
LINE
  5
439
330
18
100
AcDbEntity
  8
1
  6
Continuous
100
AcDbLine
 10
210.4469016937969
 20
200.7186511637538
 30
0.0
 11
210.5469016938391
 21
200.7186511637538
 31
0.0
  0
LINE
  5
43A
330
18
100
AcDbEntity
  8
1
  6
Continuous
100
AcDbLine
 10
210.4469016937969
 20
200.3402412898427
 30
0.0
 11
210.5469016938391
 21
200.3402412898426
 31
0.0
  0
LINE
  5
43B
330
18
100
AcDbEntity
  8
1
  6
Continuous
100
AcDbLine
 10
210.5469016938391
 20
198.7435975154254
 30
0.0
 11
210.4469016937969
 21
198.7435975154254
 31
0.0
  0
LINE
  5
43C
330
18
100
AcDbEntity
  8
1
  6
Continuous
100
AcDbLine
 10
212.0469016937967
 20
219.9186511640755
 30
0.0
 11
211.5469016937955
 21
219.9186511640752
 31
0.0
  0
LINE
  5
43D
330
18
100
AcDbEntity
  8
5
  6
PHANTOM
100
AcDbLine
 10
194.3677303404665
 20
224.6145809466279
 30
0.0
 11
186.5950937514784
 21
221.9765051075484
 31
0.0
  0
ARC
  5
43E
330
18
100
AcDbEntity
  8
5
  6
PHANTOM
100
AcDbCircle
 10
186.5727311814404
 20
223.0249418870651
 30
0.0
 40
2.0
100
AcDbArc
 50
108.7474964998184
 51
192.7384905423268
  0
LINE
  5
43F
330
18
100
AcDbEntity
  8
5
  6
PHANTOM
100
AcDbLine
 10
193.7758862662754
 20
225.3849147471222
 30
0.0
 11
195.5469022087451
 21
227.5568613429553
 31
0.0
  0
LINE
  5
440
330
18
100
AcDbEntity
  8
5
  6
PHANTOM
100
AcDbLine
 10
193.7758857513269
 20
225.3849162651501
 30
0.0
 11
192.9465770764871
 21
227.8283315961795
 31
0.0
  0
LINE
  5
441
330
18
100
AcDbEntity
  8
5
  6
PHANTOM
100
AcDbLine
 10
193.7758871526767
 20
225.3849158341911
 30
0.0
 11
194.8519247333295
 21
225.054000409044
 31
0.0
  0
ARC
  5
442
330
18
100
AcDbEntity
  8
5
  6
PHANTOM
100
AcDbCircle
 10
194.5490871881897
 20
224.3065239328829
 30
0.0
 40
0.35
100
AcDbArc
 50
132.2245893837514
 51
312.2245893837515
  0
LINE
  5
443
330
18
100
AcDbEntity
  8
5
  6
PHANTOM
100
AcDbLine
 10
195.5469016937965
 20
225.6847107329586
 30
0.0
 11
194.313873728806
 21
224.5657046199039
 31
0.0
  0
LINE
  5
444
330
18
100
AcDbEntity
  8
5
  6
PHANTOM
100
AcDbLine
 10
195.5469016937969
 20
224.7394242503281
 30
0.0
 11
194.7843006475734
 21
224.0473432458617
 31
0.0
  0
LINE
  5
445
330
18
100
AcDbEntity
  8
5
  6
PHANTOM
100
AcDbLine
 10
195.5469022087453
 20
228.7108963252292
 30
0.0
 11
192.9465770762374
 21
227.8283315960948
 31
0.0
  0
CIRCLE
  5
446
330
18
100
AcDbEntity
  8
1
  6
Continuous
100
AcDbCircle
 10
202.5469016937968
 20
227.918651164017
 30
0.0
 40
2.999999999995566
  0
LINE
  5
447
330
18
100
AcDbEntity
  8
4
  6
CENTER
100
AcDbLine
 10
202.5469016937968
 20
223.4186511640216
 30
0.0
 11
202.5469016937968
 21
232.4186511640125
 31
0.0
  0
LINE
  5
448
330
18
100
AcDbEntity
  8
1
  6
Continuous
100
AcDbLine
 10
202.5469016937968
 20
224.9186511640216
 30
0.0
 11
199.5469016938029
 21
224.9186511640174
 31
0.0
  0
LINE
  5
449
330
18
100
AcDbEntity
  8
1
  6
Continuous
100
AcDbLine
 10
200.8885892986255
 20
225.4186511640181
 30
0.0
 11
199.5469016938022
 21
225.4186511640162
 31
0.0
  0
LINE
  5
44A
330
18
100
AcDbEntity
  8
1
  6
Continuous
100
AcDbLine
 10
202.5469016937884
 20
230.9186511640127
 30
0.0
 11
199.5469016937945
 21
230.9186511640084
 31
0.0
  0
LINE
  5
44B
330
18
100
AcDbEntity
  8
1
  6
Continuous
100
AcDbLine
 10
200.8885892986286
 20
230.4186511640181
 30
0.0
 11
199.5469016937953
 21
230.4186511640163
 31
0.0
  0
LINE
  5
44E
330
18
100
AcDbEntity
  8
1
  6
Continuous
100
AcDbLine
 10
199.5469016937969
 20
241.918651164014
 30
0.0
 11
212.0469016937967
 21
241.9186511640269
 31
0.0
  0
LINE
  5
44F
330
18
100
AcDbEntity
  8
1
  6
Continuous
100
AcDbLine
 10
199.5469016937954
 20
243.4186511640139
 30
0.0
 11
203.0469016937967
 21
243.4186511640175
 31
0.0
  0
LINE
  5
450
330
18
100
AcDbEntity
  8
1
  6
Continuous
100
AcDbLine
 10
203.0469016937967
 20
243.4186511640175
 30
0.0
 11
203.5469016937967
 21
243.918651164018
 31
0.0
  0
ARC
  5
452
330
18
100
AcDbEntity
  8
1
  6
Continuous
100
AcDbCircle
 10
209.7469016937968
 20
227.9186511640278
 30
0.0
 40
9.0
100
AcDbArc
 50
344.1191499917214
 51
15.88085000827869
  0
LINE
  5
453
330
18
100
AcDbEntity
  8
1
  6
Continuous
100
AcDbLine
 10
214.346901693797
 20
222.9186511640267
 30
0.0
 11
214.346901693797
 21
232.9186511640267
 31
0.0
  0
LINE
  5
454
330
18
100
AcDbEntity
  8
1
  6
Continuous
100
AcDbLine
 10
215.1469016937969
 20
222.9186511640267
 30
0.0
 11
215.1469016937969
 21
232.9186511640267
 31
0.0
  0
LINE
  5
455
330
18
100
AcDbEntity
  8
1
  6
Continuous
100
AcDbLine
 10
216.146901693797
 20
224.1186511640278
 30
0.0
 11
216.146901693797
 21
231.7186511640279
 31
0.0
  0
ARC
  5
456
330
18
100
AcDbEntity
  8
1
  6
Continuous
100
AcDbCircle
 10
217.1530144180195
 20
225.8116404104415
 30
0.0
 40
1.3
100
AcDbArc
 50
274.9999999999997
 51
344.1191499917214
  0
LINE
  5
457
330
18
100
AcDbEntity
  8
1
  6
Continuous
100
AcDbLine
 10
216.1469016937966
 20
224.4186511640279
 30
0.0
 11
217.2663168836313
 21
224.5165873024685
 31
0.0
  0
LINE
  5
459
330
18
100
AcDbEntity
  8
1
  6
Continuous
100
AcDbLine
 10
214.3469016937967
 20
222.9186511640259
 30
0.0
 11
215.1469016937969
 21
222.9186511640267
 31
0.0
  0
LINE
  5
45A
330
18
100
AcDbEntity
  8
1
  6
Continuous
100
AcDbLine
 10
215.1469016937969
 20
224.1186511640268
 30
0.0
 11
216.146901693797
 21
224.1186511640278
 31
0.0
  0
LINE
  5
45B
330
18
100
AcDbEntity
  8
1
  6
Continuous
100
AcDbLine
 10
214.0469016937984
 20
225.2186511640288
 30
0.0
 11
214.3469016937967
 21
225.2186511640292
 31
0.0
  0
ARC
  5
45C
330
18
100
AcDbEntity
  8
1
  6
Continuous
100
AcDbCircle
 10
217.1530144180056
 20
230.0256619176106
 30
0.0
 40
1.3
100
AcDbArc
 50
15.88085000827869
 51
85.00000000000019
  0
LINE
  5
45D
330
18
100
AcDbEntity
  8
1
  6
Continuous
100
AcDbLine
 10
216.146901693797
 20
231.4186511640278
 30
0.0
 11
217.2663168835978
 21
231.3207150253603
 31
0.0
  0
LINE
  5
45E
330
18
100
AcDbEntity
  8
1
  6
Continuous
100
AcDbLine
 10
215.1469016934595
 20
227.3413008946453
 30
0.0
 11
216.146901693797
 21
227.9186511640292
 31
0.0
  0
LINE
  5
45F
330
18
100
AcDbEntity
  8
1
  6
Continuous
100
AcDbLine
 10
214.346901693797
 20
232.9186511640259
 30
0.0
 11
215.1469016937969
 21
232.9186511640267
 31
0.0
  0
LINE
  5
460
330
18
100
AcDbEntity
  8
1
  6
Continuous
100
AcDbLine
 10
215.1469016937969
 20
231.7186511640267
 30
0.0
 11
216.146901693797
 21
231.7186511640279
 31
0.0
  0
LINE
  5
461
330
18
100
AcDbEntity
  8
1
  6
Continuous
100
AcDbLine
 10
214.0469016937952
 20
230.6186511640288
 30
0.0
 11
214.346901693797
 21
230.618651164029
 31
0.0
  0
LINE
  5
465
330
18
100
AcDbEntity
  8
1
  6
Continuous
100
AcDbLine
 10
215.5469016937967
 20
238.9186511640171
 30
0.0
 11
214.0469016937903
 21
238.9186511640171
 31
0.0
  0
LINE
  5
466
330
18
100
AcDbEntity
  8
1
  6
Continuous
100
AcDbLine
 10
215.5469016937967
 20
238.9186511640171
 30
0.0
 11
215.5469016937967
 21
237.4333697897784
 31
0.0
  0
LINE
  5
467
330
18
100
AcDbEntity
  8
1
  6
Continuous
100
AcDbLine
 10
214.0469016937923
 20
235.9333697897736
 30
0.0
 11
215.5469016937967
 21
237.4333697897784
 31
0.0
  0
LINE
  5
469
330
18
100
AcDbEntity
  8
1
  6
Continuous
100
AcDbLine
 10
212.0469016937821
 20
252.9186511640443
 30
0.0
 11
214.0469016937821
 21
252.9186511640463
 31
0.0
  0
LINE
  5
46A
330
18
100
AcDbEntity
  8
1
  6
Continuous
100
AcDbLine
 10
197.0469016937967
 20
250.9186511640113
 30
0.0
 11
198.5469016937967
 21
252.9186511640128
 31
0.0
  0
LINE
  5
46B
330
18
100
AcDbEntity
  8
1
  6
Continuous
100
AcDbLine
 10
199.5469016937881
 20
250.4186511640138
 30
0.0
 11
203.0469016937967
 21
250.4186511640176
 31
0.0
  0
LINE
  5
46C
330
18
100
AcDbEntity
  8
4
  6
CENTER
100
AcDbLine
 10
199.004675753394
 20
246.918651164014
 30
0.0
 11
205.0469016936849
 21
246.9186511640196
 31
0.0
  0
LINE
  5
46D
330
18
100
AcDbEntity
  8
1
  6
Continuous
100
AcDbLine
 10
203.0469016937966
 20
250.4186511640174
 30
0.0
 11
203.5469016937967
 21
249.9186511640179
 31
0.0
  0
LINE
  5
46E
330
18
100
AcDbEntity
  8
1
  6
Continuous
100
AcDbLine
 10
198.5469016937969
 20
252.9186511640129
 30
0.0
 11
199.5469016937935
 21
252.9186511640139
 31
0.0
  0
LINE
  5
470
330
18
100
AcDbEntity
  8
4
  6
CENTER
100
AcDbLine
 10
305.7707830691715
 20
203.4186511634829
 30
0.0
 11
305.7707830691715
 21
195.4186511634829
 31
0.0
  0
LINE
  5
471
330
18
100
AcDbEntity
  8
4
  6
CENTER
100
AcDbLine
 10
294.7707830691712
 20
203.4186511635009
 30
0.0
 11
294.7707830691712
 21
195.4186511635009
 31
0.0
  0
CIRCLE
  5
472
330
18
100
AcDbEntity
  8
1
  6
Continuous
100
AcDbCircle
 10
305.7707830691715
 20
199.4186511634829
 30
0.0
 40
2.5
  0
CIRCLE
  5
473
330
18
100
AcDbEntity
  8
1
  6
Continuous
100
AcDbCircle
 10
294.7707830691712
 20
199.4186511635009
 30
0.0
 40
2.5
  0
ARC
  5
474
330
18
100
AcDbEntity
  8
1
  6
Continuous
100
AcDbCircle
 10
305.7707830691715
 20
199.4186511634829
 30
0.0
 40
1.199999999999999
100
AcDbArc
 50
208.3282509640172
 51
241.6717490359781
  0
ARC
  5
475
330
18
100
AcDbEntity
  8
1
  6
Continuous
100
AcDbCircle
 10
305.7707830691715
 20
199.4186511634829
 30
0.0
 40
1.199999999999999
100
AcDbArc
 50
298.3282509640064
 51
331.6717490359731
  0
LINE
  5
476
330
18
100
AcDbEntity
  8
1
  6
Continuous
100
AcDbLine
 10
305.519873978262
 20
198.6699479059619
 30
0.0
 11
305.2013563206585
 21
198.3623589794362
 31
0.0
  0
LINE
  5
477
330
18
100
AcDbEntity
  8
1
  6
Continuous
100
AcDbLine
 10
306.0216921600803
 20
198.6699479059621
 30
0.0
 11
306.3402098176843
 21
198.3623589794362
 31
0.0
  0
CIRCLE
  5
478
330
18
100
AcDbEntity
  8
1
  6
Continuous
100
AcDbCircle
 10
305.7707830691715
 20
199.4186511634829
 30
0.0
 40
2.299999999999998
  0
ARC
  5
479
330
18
100
AcDbEntity
  8
1
  6
Continuous
100
AcDbCircle
 10
294.7707830691712
 20
199.4186511635009
 30
0.0
 40
1.199999999999999
100
AcDbArc
 50
208.3282509640172
 51
241.6717490359781
  0
ARC
  5
47A
330
18
100
AcDbEntity
  8
1
  6
Continuous
100
AcDbCircle
 10
294.7707830691712
 20
199.4186511635009
 30
0.0
 40
1.199999999999999
100
AcDbArc
 50
298.3282509640064
 51
331.6717490359731
  0
LINE
  5
47B
330
18
100
AcDbEntity
  8
1
  6
Continuous
100
AcDbLine
 10
294.5198739782621
 20
198.6699479059799
 30
0.0
 11
294.2013563206584
 21
198.362358979454
 31
0.0
  0
LINE
  5
47C
330
18
100
AcDbEntity
  8
1
  6
Continuous
100
AcDbLine
 10
295.0216921600803
 20
198.6699479059799
 30
0.0
 11
295.3402098176844
 21
198.362358979454
 31
0.0
  0
CIRCLE
  5
47D
330
18
100
AcDbEntity
  8
1
  6
Continuous
100
AcDbCircle
 10
294.7707830691712
 20
199.4186511635009
 30
0.0
 40
2.299999999999998
  0
LINE
  5
481
330
18
100
AcDbEntity
  8
1
  6
Continuous
100
AcDbLine
 10
311.7707830691715
 20
217.9186511641896
 30
0.0
 11
311.7707830691715
 21
182.418651164199
 31
0.0
  0
LINE
  5
482
330
18
100
AcDbEntity
  8
1
  6
Continuous
100
AcDbLine
 10
288.7707830691713
 20
217.9186511641896
 30
0.0
 11
288.7707830691713
 21
182.4186511641802
 31
0.0
  0
ARC
  5
483
330
18
100
AcDbEntity
  8
1
  6
Continuous
100
AcDbCircle
 10
300.2707830691712
 20
196.4186511638489
 30
0.0
 40
2.2
100
AcDbArc
 50
90.0
 51
270.0
  0
ARC
  5
484
330
18
100
AcDbEntity
  8
1
  6
Continuous
100
AcDbCircle
 10
300.2707830691712
 20
192.9186511638487
 30
0.0
 40
5.700000000000102
100
AcDbArc
 50
0.0
 51
90.0
  0
LINE
  5
485
330
18
100
AcDbEntity
  8
1
  6
Continuous
100
AcDbLine
 10
314.2707830690271
 20
217.9186511641896
 30
0.0
 11
314.2707830690271
 21
173.9186511641744
 31
0.0
  0
LINE
  5
486
330
18
100
AcDbEntity
  8
1
  6
Continuous
100
AcDbLine
 10
286.2707830690272
 20
217.9186511641896
 30
0.0
 11
286.2707830690272
 21
173.9186511641756
 31
0.0
  0
ARC
  5
489
330
18
100
AcDbEntity
  8
1
  6
Continuous
100
AcDbCircle
 10
291.2707830690271
 20
173.9186511641756
 30
0.0
 40
5.0
100
AcDbArc
 50
180.0
 51
270.0
  0
CIRCLE
  5
48B
330
18
100
AcDbEntity
  8
1
  6
Continuous
100
AcDbCircle
 10
300.2707830691712
 20
174.9186511641896
 30
0.0
 40
1.620999999999999
  0
CIRCLE
  5
48C
330
18
100
AcDbEntity
  8
1
  6
Continuous
100
AcDbCircle
 10
300.2707830691712
 20
174.9186511641896
 30
0.0
 40
3.0
  0
CIRCLE
  5
48D
330
18
100
AcDbEntity
  8
2
  6
Continuous
100
AcDbCircle
 10
300.2707830691712
 20
174.9186511641896
 30
0.0
 40
2.0
  0
CIRCLE
  5
48E
330
18
100
AcDbEntity
  8
1
  6
Continuous
100
AcDbCircle
 10
300.2707830691712
 20
174.9186511641896
 30
0.0
 40
3.5
  0
LINE
  5
48F
330
18
100
AcDbEntity
  8
1
  6
Continuous
100
AcDbLine
 10
309.2707830690264
 20
168.9186511641745
 30
0.0
 11
291.2707830690265
 21
168.9186511641759
 31
0.0
  0
LINE
  5
490
330
18
100
AcDbEntity
  8
4
  6
CENTER
100
AcDbLine
 10
305.2707830691715
 20
174.9186511641896
 30
0.0
 11
295.2707830691712
 21
174.9186511641896
 31
0.0
  0
ARC
  5
491
330
18
100
AcDbEntity
  8
1
  6
Continuous
100
AcDbCircle
 10
309.2707830690271
 20
173.9186511641744
 30
0.0
 40
5.0
100
AcDbArc
 50
270.0
 51
0.0
  0
ARC
  5
492
330
18
100
AcDbEntity
  8
1
  6
Continuous
100
AcDbCircle
 10
303.7707830691715
 20
192.9186511638487
 30
0.0
 40
2.2
100
AcDbArc
 50
180.0
 51
0.0
  0
LINE
  5
493
330
18
100
AcDbEntity
  8
1
  6
Continuous
100
AcDbLine
 10
291.2707830691712
 20
182.4186511641804
 30
0.0
 11
309.2707830691715
 21
182.418651164199
 31
0.0
  0
ARC
  5
494
330
18
100
AcDbEntity
  8
1
  6
Continuous
100
AcDbCircle
 10
300.2707830691712
 20
189.918651164147
 30
0.0
 40
8.5
100
AcDbArc
 50
276.7563270305881
 51
298.0724869365196
  0
LINE
  5
495
330
18
100
AcDbEntity
  8
1
  6
Continuous
100
AcDbLine
 10
291.270783069174
 20
179.9186511641804
 30
0.0
 11
309.270783069174
 21
179.9186511641991
 31
0.0
  0
LINE
  5
496
330
18
100
AcDbEntity
  8
1
  6
Continuous
100
AcDbLine
 10
291.2707830691712
 20
179.9186511641804
 30
0.0
 11
291.2707830691712
 21
182.4186511641804
 31
0.0
  0
LINE
  5
497
330
18
100
AcDbEntity
  8
1
  6
Continuous
100
AcDbLine
 10
290.2707830691712
 20
180.1273633167024
 30
0.0
 11
290.2707830691712
 21
182.6273633167024
 31
0.0
  0
ARC
  5
498
330
18
100
AcDbEntity
  8
1
  6
Continuous
100
AcDbCircle
 10
291.2707830691712
 20
182.4186511641802
 30
0.0
 40
2.5
100
AcDbArc
 50
180.0
 51
270.0
  0
ARC
  5
499
330
18
100
AcDbEntity
  8
1
  6
Continuous
100
AcDbCircle
 10
291.2707830691712
 20
184.9186511641802
 30
0.0
 40
2.5
100
AcDbArc
 50
180.0
 51
270.0
  0
LINE
  5
49A
330
18
100
AcDbEntity
  8
1
  6
Continuous
100
AcDbLine
 10
301.2707830691715
 20
181.4776796560799
 30
0.0
 11
301.2707830691715
 21
182.4186511641906
 31
0.0
  0
ARC
  5
49B
330
18
100
AcDbEntity
  8
1
  6
Continuous
100
AcDbCircle
 10
300.2707830691712
 20
192.9186511638487
 30
0.0
 40
1.300000000000125
100
AcDbArc
 50
0.0
 51
90.0
  0
ARC
  5
49C
330
18
100
AcDbEntity
  8
1
  6
Continuous
100
AcDbCircle
 10
309.2707830691715
 20
184.9186511641989
 30
0.0
 40
2.5
100
AcDbArc
 50
270.0
 51
0.0
  0
ARC
  5
49D
330
18
100
AcDbEntity
  8
1
  6
Continuous
100
AcDbCircle
 10
309.2707830691715
 20
182.418651164199
 30
0.0
 40
2.5
100
AcDbArc
 50
270.0
 51
0.0
  0
LINE
  5
49E
330
18
100
AcDbEntity
  8
1
  6
Continuous
100
AcDbLine
 10
310.2707830691715
 20
180.127363316721
 30
0.0
 11
310.2707830691715
 21
182.6273633167209
 31
0.0
  0
LINE
  5
49F
330
18
100
AcDbEntity
  8
1
  6
Continuous
100
AcDbLine
 10
309.2707830691715
 20
179.9186511641991
 30
0.0
 11
309.2707830691715
 21
182.418651164199
 31
0.0
  0
LINE
  5
4A3
330
18
100
AcDbEntity
  8
5
  6
PHANTOM
100
AcDbLine
 10
277.6286474454471
 20
227.9186511641868
 30
0.0
 11
330.6616560344382
 21
174.8856425751954
 31
0.0
  0
LINE
  5
4A4
330
18
100
AcDbEntity
  8
5
  6
PHANTOM
100
AcDbLine
 10
302.3773847869763
 20
252.6673885057159
 30
0.0
 11
330.6616560344382
 21
224.3831172582539
 31
0.0
  0
LINE
  5
4A5
330
18
100
AcDbEntity
  8
4
  6
CENTER
100
AcDbLine
 10
300.2707830691712
 20
166.0747268775495
 30
0.0
 11
300.2707830691712
 21
255.9186511641896
 31
0.0
  0
LINE
  5
4A6
330
18
100
AcDbEntity
  8
5
  6
PHANTOM
100
AcDbLine
 10
277.6286474454471
 20
234.9897189760521
 30
0.0
 11
295.3063169751107
 21
252.6673885057159
 31
0.0
  0
LINE
  5
4A7
330
18
100
AcDbEntity
  8
4
  6
CENTER
100
AcDbLine
 10
285.2707830691711
 20
227.9186511641801
 30
0.0
 11
315.2707830691714
 21
227.9186511641918
 31
0.0
  0
CIRCLE
  5
4A8
330
18
100
AcDbEntity
  8
1
  6
Continuous
100
AcDbCircle
 10
291.7707830691711
 20
227.9186511641801
 30
0.0
 40
5.0
  0
LINE
  5
4AA
330
18
100
AcDbEntity
  8
4
  6
CENTER
100
AcDbLine
 10
283.6390550855327
 20
233.9290588042724
 30
0.0
 11
278.6893076172268
 21
228.9793113359666
 31
0.0
  0
CIRCLE
  5
4AB
330
18
100
AcDbEntity
  8
5
  6
PHANTOM
100
AcDbCircle
 10
281.1641813513796
 20
231.4541850701195
 30
0.0
 40
2.0
  0
ARC
  5
4AC
330
18
100
AcDbEntity
  8
5
  6
PHANTOM
100
AcDbCircle
 10
281.1641813513796
 20
231.4541850701195
 30
0.0
 40
5.0
100
AcDbArc
 50
135.0
 51
225.0
  0
LINE
  5
4AE
330
18
100
AcDbEntity
  8
4
  6
CENTER
100
AcDbLine
 10
283.6390550855326
 20
228.9793113359666
 30
0.0
 11
278.6893076172268
 21
233.9290588042724
 31
0.0
  0
LINE
  5
4AF
330
18
100
AcDbEntity
  8
4
  6
CENTER
100
AcDbLine
 10
291.7707830691711
 20
234.4186511641801
 30
0.0
 11
291.7707830691711
 21
221.4186511641802
 31
0.0
  0
LINE
  5
4B0
330
18
100
AcDbEntity
  8
4
  6
CENTER
100
AcDbLine
 10
308.7707830691714
 20
232.9186511641919
 30
0.0
 11
308.7707830691714
 21
221.4186511641918
 31
0.0
  0
LINE
  5
4B3
330
18
100
AcDbEntity
  8
4
  6
CENTER
100
AcDbLine
 10
309.7707830691715
 20
199.4186511634829
 30
0.0
 11
301.7707830691715
 21
199.4186511634829
 31
0.0
  0
ARC
  5
4B4
330
18
100
AcDbEntity
  8
1
  6
Continuous
100
AcDbCircle
 10
300.2707830691712
 20
211.2520407018058
 30
0.0
 40
7.166580352953972
100
AcDbArc
 50
54.46232220799704
 51
68.47162037407315
  0
LINE
  5
4B5
330
18
100
AcDbEntity
  8
1
  6
Continuous
100
AcDbLine
 10
303.6091679909172
 20
214.8790436624091
 30
0.0
 11
304.2367495993801
 21
217.2212101110795
 31
0.0
  0
ARC
  5
4B6
330
18
100
AcDbEntity
  8
1
  6
Continuous
100
AcDbCircle
 10
300.2707830691712
 20
220.585261626583
 30
0.0
 40
7.166580352953972
100
AcDbArc
 50
234.4623222080521
 51
305.5376777919478
  0
LINE
  5
4B7
330
18
100
AcDbEntity
  8
1
  6
Continuous
100
AcDbLine
 10
290.2707830691712
 20
204.918651163592
 30
0.0
 11
310.2707830691715
 21
204.918651163592
 31
0.0
  0
LINE
  5
4B8
330
18
100
AcDbEntity
  8
1
  6
Continuous
100
AcDbLine
 10
288.7707830691713
 20
201.9186511635921
 30
0.0
 11
311.7707830691715
 21
201.9186511635921
 31
0.0
  0
LINE
  5
4B9
330
18
100
AcDbEntity
  8
1
  6
Continuous
100
AcDbLine
 10
290.2707830691712
 20
204.918651163592
 30
0.0
 11
290.2707830691712
 21
217.9186511641896
 31
0.0
  0
LINE
  5
4BA
330
18
100
AcDbEntity
  8
4
  6
CENTER
100
AcDbLine
 10
298.7707830691712
 20
199.4186511635009
 30
0.0
 11
290.7707830691712
 21
199.4186511635009
 31
0.0
  0
ARC
  5
4BB
330
18
100
AcDbEntity
  8
1
  6
Continuous
100
AcDbCircle
 10
294.7707830691712
 20
199.4186511635009
 30
0.0
 40
1.199999999999999
100
AcDbArc
 50
28.32825096400355
 51
61.67174903597814
  0
LINE
  5
4BC
330
18
100
AcDbEntity
  8
1
  6
Continuous
100
AcDbLine
 10
295.5194863266924
 20
199.1677420725915
 30
0.0
 11
295.827075253218
 21
198.8492244149879
 31
0.0
  0
LINE
  5
4BD
330
18
100
AcDbEntity
  8
1
  6
Continuous
100
AcDbLine
 10
295.5194863266921
 20
199.6695602544098
 30
0.0
 11
295.827075253218
 21
199.9880779120135
 31
0.0
  0
ARC
  5
4BE
330
18
100
AcDbEntity
  8
1
  6
Continuous
100
AcDbCircle
 10
291.2707830691712
 20
199.4186511635921
 30
0.0
 40
2.5
100
AcDbArc
 50
90.0
 51
180.0
  0
ARC
  5
4BF
330
18
100
AcDbEntity
  8
1
  6
Continuous
100
AcDbCircle
 10
294.7707830691712
 20
199.4186511635009
 30
0.0
 40
1.199999999999999
100
AcDbArc
 50
118.3282509640138
 51
151.6717490359854
  0
LINE
  5
4C0
330
18
100
AcDbEntity
  8
1
  6
Continuous
100
AcDbLine
 10
294.7707830691712
 20
198.7662628820434
 30
0.0
 11
294.5198739782621
 21
198.6699479059799
 31
0.0
  0
LINE
  5
4C1
330
18
100
AcDbEntity
  8
1
  6
Continuous
100
AcDbLine
 10
294.7707830691712
 20
198.7662628820434
 30
0.0
 11
295.0216921600802
 21
198.6699479059799
 31
0.0
  0
LINE
  5
4C2
330
18
100
AcDbEntity
  8
1
  6
Continuous
100
AcDbLine
 10
295.4231713506286
 20
199.4186511635008
 30
0.0
 11
295.5194863266924
 21
199.1677420725915
 31
0.0
  0
LINE
  5
4C3
330
18
100
AcDbEntity
  8
1
  6
Continuous
100
AcDbLine
 10
295.423171350629
 20
199.4186511635009
 30
0.0
 11
295.5194863266924
 21
199.6695602544098
 31
0.0
  0
LINE
  5
4C4
330
18
100
AcDbEntity
  8
1
  6
Continuous
100
AcDbLine
 10
295.0216921600807
 20
200.1673544210215
 30
0.0
 11
295.3402098176844
 21
200.4749433475474
 31
0.0
  0
LINE
  5
4C5
330
18
100
AcDbEntity
  8
1
  6
Continuous
100
AcDbLine
 10
294.7707830691712
 20
200.0710394449582
 30
0.0
 11
295.0216921600807
 21
200.1673544210215
 31
0.0
  0
LINE
  5
4C6
330
18
100
AcDbEntity
  8
1
  6
Continuous
100
AcDbLine
 10
294.7707830691715
 20
200.0710394449582
 30
0.0
 11
294.5198739782627
 21
200.1673544210218
 31
0.0
  0
LINE
  5
4C7
330
18
100
AcDbEntity
  8
1
  6
Continuous
100
AcDbLine
 10
294.5198739782627
 20
200.1673544210218
 30
0.0
 11
294.2013563206586
 21
200.4749433475476
 31
0.0
  0
LINE
  5
4C8
330
18
100
AcDbEntity
  8
1
  6
Continuous
100
AcDbLine
 10
294.0220798116503
 20
199.1677420725915
 30
0.0
 11
293.7144908851248
 21
198.8492244149879
 31
0.0
  0
LINE
  5
4C9
330
18
100
AcDbEntity
  8
1
  6
Continuous
100
AcDbLine
 10
294.0220798116505
 20
199.6695602544098
 30
0.0
 11
293.7144908851248
 21
199.9880779120136
 31
0.0
  0
LINE
  5
4CA
330
18
100
AcDbEntity
  8
1
  6
Continuous
100
AcDbLine
 10
294.1183947877139
 20
199.4186511635009
 30
0.0
 11
294.0220798116503
 21
199.1677420725915
 31
0.0
  0
LINE
  5
4CB
330
18
100
AcDbEntity
  8
1
  6
Continuous
100
AcDbLine
 10
294.1183947877139
 20
199.4186511635009
 30
0.0
 11
294.0220798116505
 21
199.6695602544096
 31
0.0
  0
ARC
  5
4CC
330
18
100
AcDbEntity
  8
1
  6
Continuous
100
AcDbCircle
 10
296.9374898817509
 20
215.9186511641897
 30
0.0
 40
1.431765911236078
100
AcDbArc
 50
180.0
 51
234.4623222080521
  0
ARC
  5
4CD
330
18
100
AcDbEntity
  8
1
  6
Continuous
100
AcDbCircle
 10
296.9374898817509
 20
215.9186511641897
 30
0.0
 40
1.431765911236078
100
AcDbArc
 50
125.5376777920028
 51
166.5374393917334
  0
LINE
  5
4CE
330
18
100
AcDbEntity
  8
1
  6
Continuous
100
AcDbLine
 10
303.0485273920216
 20
215.9186511641897
 30
0.0
 11
303.0485273920216
 21
214.5861055344918
 31
0.0
  0
LINE
  5
4CF
330
18
100
AcDbEntity
  8
1
  6
Continuous
100
AcDbLine
 10
302.2152040951668
 20
217.744836089384
 30
0.0
 11
302.2152040951668
 21
214.2666411905961
 31
0.0
  0
LINE
  5
4D0
330
18
100
AcDbEntity
  8
1
  6
Continuous
100
AcDbLine
 10
301.6596552305966
 20
214.3502310111869
 30
0.0
 11
301.6596552305966
 21
215.9186511641897
 31
0.0
  0
LINE
  5
4D1
330
18
100
AcDbEntity
  8
1
  6
Continuous
100
AcDbLine
 10
301.1041063660263
 20
217.7469748087573
 30
0.0
 11
301.1041063660263
 21
214.0903275196314
 31
0.0
  0
LINE
  5
4D2
330
18
100
AcDbEntity
  8
1
  6
Continuous
100
AcDbLine
 10
300.5485575014562
 20
217.8572340150382
 30
0.0
 11
300.5485575014562
 21
213.9800683133505
 31
0.0
  0
LINE
  5
4D3
330
18
100
AcDbEntity
  8
1
  6
Continuous
100
AcDbLine
 10
299.9930086368863
 20
217.8572340150382
 30
0.0
 11
299.9930086368863
 21
213.9800683133505
 31
0.0
  0
LINE
  5
4D4
330
18
100
AcDbEntity
  8
1
  6
Continuous
100
AcDbLine
 10
299.4374597723163
 20
217.8103415201062
 30
0.0
 11
299.4374597723163
 21
214.0269608082824
 31
0.0
  0
LINE
  5
4D5
330
18
100
AcDbEntity
  8
1
  6
Continuous
100
AcDbLine
 10
298.326362043176
 20
217.3620680397395
 30
0.0
 11
298.326362043176
 21
214.475234288649
 31
0.0
  0
LINE
  5
4D6
330
18
100
AcDbEntity
  8
1
  6
Continuous
100
AcDbLine
 10
297.7708131786058
 20
217.2888914198901
 30
0.0
 11
297.7708131786058
 21
214.5484109084985
 31
0.0
  0
LINE
  5
4D7
330
18
100
AcDbEntity
  8
1
  6
Continuous
100
AcDbLine
 10
297.2152643140359
 20
214.893664186892
 30
0.0
 11
297.2152643140359
 21
216.9436381414968
 31
0.0
  0
LINE
  5
4D8
330
18
100
AcDbEntity
  8
1
  6
Continuous
100
AcDbLine
 10
296.6597154494658
 20
217.4423609359505
 30
0.0
 11
296.6597154494658
 21
215.047579080037
 31
0.0
  0
LINE
  5
4D9
330
18
100
AcDbEntity
  8
1
  6
Continuous
100
AcDbLine
 10
298.8819109077462
 20
214.1908966087131
 30
0.0
 11
298.8819109077462
 21
215.2519925267057
 31
0.0
  0
ARC
  5
4DA
330
18
100
AcDbEntity
  8
1
  6
Continuous
100
AcDbCircle
 10
298.8263560212891
 20
214.1908966087131
 30
0.0
 40
0.0555548864570075
100
AcDbArc
 50
257.2710561268771
 51
0.0
  0
ARC
  5
4DB
330
18
100
AcDbEntity
  8
1
  6
Continuous
100
AcDbCircle
 10
300.2707830691712
 20
220.585261626583
 30
0.0
 40
6.611031488383896
100
AcDbArc
 50
254.7937121239436
 51
257.2710561268771
  0
ARC
  5
4DC
330
18
100
AcDbEntity
  8
1
  6
Continuous
100
AcDbCircle
 10
300.2707830691712
 20
220.585261626583
 30
0.0
 40
6.611031488383896
100
AcDbArc
 50
254.7424767095415
 51
254.7937121239436
  0
ARC
  5
4DD
330
18
100
AcDbEntity
  8
1
  6
Continuous
100
AcDbCircle
 10
298.6041364754612
 20
214.475234288649
 30
0.0
 40
0.2777744322850376
100
AcDbArc
 50
180.0
 51
254.7424767095415
  0
ARC
  5
4DE
330
18
100
AcDbEntity
  8
1
  6
Continuous
100
AcDbCircle
 10
297.4930387463208
 20
214.893664186892
 30
0.0
 40
0.2777744322850376
100
AcDbArc
 50
180.0
 51
243.9856340003641
  0
ARC
  5
4DF
330
18
100
AcDbEntity
  8
1
  6
Continuous
100
AcDbCircle
 10
300.2707830691712
 20
220.585261626583
 30
0.0
 40
6.611031488383896
100
AcDbArc
 50
243.9856340003641
 51
247.0560464434621
  0
ARC
  5
4E0
330
18
100
AcDbEntity
  8
1
  6
Continuous
100
AcDbCircle
 10
297.7152582921488
 20
214.5484109084985
 30
0.0
 40
0.0555548864570075
100
AcDbArc
 50
247.0560464434621
 51
0.0
  0
ARC
  5
4E1
330
18
100
AcDbEntity
  8
1
  6
Continuous
100
AcDbCircle
 10
301.3818807983116
 20
214.3502310111869
 30
0.0
 40
0.2777744322850376
100
AcDbArc
 50
280.104182716122
 51
0.0
  0
ARC
  5
4E2
330
18
100
AcDbEntity
  8
1
  6
Continuous
100
AcDbCircle
 10
300.2707830691712
 20
220.585261626583
 30
0.0
 40
6.611031488383896
100
AcDbArc
 50
277.7929243354195
 51
280.104182716122
  0
ARC
  5
4E3
330
18
100
AcDbEntity
  8
1
  6
Continuous
100
AcDbCircle
 10
301.1596612524833
 20
214.0903275196314
 30
0.0
 40
0.0555548864570075
100
AcDbArc
 50
180.0
 51
277.7929243354259
  0
LINE
  5
4E4
330
18
100
AcDbEntity
  8
1
  6
Continuous
100
AcDbLine
 10
299.9930086368863
 20
215.9186511641897
 30
0.0
 11
299.4374597723163
 21
215.9186511641897
 31
0.0
  0
ARC
  5
4E5
330
18
100
AcDbEntity
  8
1
  6
Continuous
100
AcDbCircle
 10
300.2707830691712
 20
211.2520407018058
 30
0.0
 40
7.166580352953972
100
AcDbArc
 50
111.5283796259268
 51
125.5376777920028
  0
ARC
  5
4E6
330
18
100
AcDbEntity
  8
1
  6
Continuous
100
AcDbCircle
 10
298.6041364754612
 20
217.3620680397395
 30
0.0
 40
0.2777744322850376
100
AcDbArc
 50
105.2575232904582
 51
180.0
  0
ARC
  5
4E7
330
18
100
AcDbEntity
  8
1
  6
Continuous
100
AcDbCircle
 10
300.2707830691712
 20
211.2520407018058
 30
0.0
 40
6.611031488383896
100
AcDbArc
 50
103.268118970557
 51
105.2575232904582
  0
ARC
  5
4E8
330
18
100
AcDbEntity
  8
1
  6
Continuous
100
AcDbCircle
 10
300.2707830691712
 20
211.2520407018058
 30
0.0
 40
6.611031488383896
100
AcDbArc
 50
102.7289438731228
 51
103.268118970557
  0
ARC
  5
4E9
330
18
100
AcDbEntity
  8
1
  6
Continuous
100
AcDbCircle
 10
298.8263560212891
 20
217.6464057196755
 30
0.0
 40
0.0555548864570075
100
AcDbArc
 50
0.0
 51
102.7289438731228
  0
LINE
  5
4EA
330
18
100
AcDbEntity
  8
1
  6
Continuous
100
AcDbLine
 10
298.8819109077462
 20
216.5853098016738
 30
0.0
 11
298.8819109077462
 21
217.6464057196755
 31
0.0
  0
ARC
  5
4EB
330
18
100
AcDbEntity
  8
1
  6
Continuous
100
AcDbCircle
 10
297.7152582921488
 20
217.2888914198901
 30
0.0
 40
0.0555548864570075
100
AcDbArc
 50
0.0
 51
112.9439535565377
  0
ARC
  5
4EC
330
18
100
AcDbEntity
  8
1
  6
Continuous
100
AcDbCircle
 10
300.2707830691712
 20
211.2520407018058
 30
0.0
 40
6.611031488383896
100
AcDbArc
 50
112.9439535565377
 51
116.0143659996357
  0
ARC
  5
4ED
330
18
100
AcDbEntity
  8
1
  6
Continuous
100
AcDbCircle
 10
297.4930387463208
 20
216.9436381414968
 30
0.0
 40
0.2777744322850376
100
AcDbArc
 50
116.0143659996357
 51
180.0
  0
LINE
  5
4EE
330
18
100
AcDbEntity
  8
1
  6
Continuous
100
AcDbLine
 10
303.3263018243066
 20
216.1964255964749
 30
0.0
 11
303.3263018243066
 21
217.383246707534
 31
0.0
  0
ARC
  5
4EF
330
18
100
AcDbEntity
  8
1
  6
Continuous
100
AcDbCircle
 10
303.0485273920216
 20
216.1964255964749
 30
0.0
 40
0.2777744322850389
100
AcDbArc
 50
180.0
 51
0.0
  0
LINE
  5
4F0
330
18
100
AcDbEntity
  8
1
  6
Continuous
100
AcDbLine
 10
302.7707529597368
 20
217.483110052116
 30
0.0
 11
302.7707529597368
 21
216.1964255964749
 31
0.0
  0
LINE
  5
4F1
330
18
100
AcDbEntity
  8
1
  6
Continuous
100
AcDbLine
 10
301.6596552305966
 20
215.9186511641897
 30
0.0
 11
301.3818807983116
 21
215.9186511641897
 31
0.0
  0
ARC
  5
4F2
330
18
100
AcDbEntity
  8
1
  6
Continuous
100
AcDbCircle
 10
301.1596612524833
 20
217.7469748087573
 30
0.0
 40
0.0555548864570075
100
AcDbArc
 50
82.207075664574
 51
180.0
  0
ARC
  5
4F3
330
18
100
AcDbEntity
  8
1
  6
Continuous
100
AcDbCircle
 10
300.2707830691712
 20
211.2520407018058
 30
0.0
 40
6.611031488383896
100
AcDbArc
 50
79.8958172838779
 51
82.20707566458049
  0
ARC
  5
4F4
330
18
100
AcDbEntity
  8
1
  6
Continuous
100
AcDbCircle
 10
301.3818807983116
 20
217.4870713172018
 30
0.0
 40
0.2777744322850376
100
AcDbArc
 50
0.0
 51
79.89581728387149
  0
LINE
  5
4F5
330
18
100
AcDbEntity
  8
1
  6
Continuous
100
AcDbLine
 10
301.6596552305966
 20
216.5853098016738
 30
0.0
 11
301.6596552305966
 21
217.4870713172018
 31
0.0
  0
LINE
  5
4F6
330
18
100
AcDbEntity
  8
1
  6
Continuous
100
AcDbLine
 10
310.2707830691715
 20
204.918651163592
 30
0.0
 11
310.2707830691715
 21
217.9186511641896
 31
0.0
  0
ARC
  5
4F7
330
18
100
AcDbEntity
  8
1
  6
Continuous
100
AcDbCircle
 10
309.2707830691715
 20
199.4186511635921
 30
0.0
 40
2.5
100
AcDbArc
 50
0.0
 51
90.0
  0
ARC
  5
4F8
330
18
100
AcDbEntity
  8
1
  6
Continuous
100
AcDbCircle
 10
305.7707830691715
 20
199.4186511634829
 30
0.0
 40
1.199999999999999
100
AcDbArc
 50
118.3282509640138
 51
151.6717490359854
  0
ARC
  5
4F9
330
18
100
AcDbEntity
  8
1
  6
Continuous
100
AcDbCircle
 10
305.7707830691715
 20
199.4186511634829
 30
0.0
 40
1.199999999999999
100
AcDbArc
 50
28.32825096400355
 51
61.67174903597814
  0
LINE
  5
4FA
330
18
100
AcDbEntity
  8
1
  6
Continuous
100
AcDbLine
 10
305.7707830691715
 20
198.7662628820254
 30
0.0
 11
305.5198739782621
 21
198.6699479059619
 31
0.0
  0
LINE
  5
4FB
330
18
100
AcDbEntity
  8
1
  6
Continuous
100
AcDbLine
 10
305.7707830691712
 20
198.7662628820254
 30
0.0
 11
306.0216921600801
 21
198.6699479059619
 31
0.0
  0
LINE
  5
4FC
330
18
100
AcDbEntity
  8
1
  6
Continuous
100
AcDbLine
 10
306.5194863266924
 20
199.1677420725735
 30
0.0
 11
306.827075253218
 21
198.8492244149698
 31
0.0
  0
LINE
  5
4FD
330
18
100
AcDbEntity
  8
1
  6
Continuous
100
AcDbLine
 10
306.4231713506287
 20
199.4186511634828
 30
0.0
 11
306.5194863266924
 21
199.1677420725734
 31
0.0
  0
LINE
  5
4FE
330
18
100
AcDbEntity
  8
1
  6
Continuous
100
AcDbLine
 10
306.4231713506288
 20
199.4186511634829
 30
0.0
 11
306.5194863266924
 21
199.6695602543918
 31
0.0
  0
LINE
  5
4FF
330
18
100
AcDbEntity
  8
1
  6
Continuous
100
AcDbLine
 10
306.5194863266921
 20
199.6695602543918
 30
0.0
 11
306.827075253218
 21
199.9880779119956
 31
0.0
  0
LINE
  5
500
330
18
100
AcDbEntity
  8
1
  6
Continuous
100
AcDbLine
 10
306.0216921600806
 20
200.1673544210035
 30
0.0
 11
306.3402098176843
 21
200.4749433475294
 31
0.0
  0
LINE
  5
501
330
18
100
AcDbEntity
  8
1
  6
Continuous
100
AcDbLine
 10
305.7707830691712
 20
200.0710394449401
 30
0.0
 11
306.0216921600806
 21
200.1673544210035
 31
0.0
  0
LINE
  5
502
330
18
100
AcDbEntity
  8
1
  6
Continuous
100
AcDbLine
 10
305.7707830691715
 20
200.0710394449401
 30
0.0
 11
305.5198739782627
 21
200.1673544210038
 31
0.0
  0
LINE
  5
503
330
18
100
AcDbEntity
  8
1
  6
Continuous
100
AcDbLine
 10
305.5198739782627
 20
200.1673544210038
 30
0.0
 11
305.2013563206587
 21
200.4749433475296
 31
0.0
  0
LINE
  5
504
330
18
100
AcDbEntity
  8
1
  6
Continuous
100
AcDbLine
 10
305.0220798116503
 20
199.1677420725735
 30
0.0
 11
304.7144908851247
 21
198.8492244149699
 31
0.0
  0
LINE
  5
505
330
18
100
AcDbEntity
  8
1
  6
Continuous
100
AcDbLine
 10
305.0220798116506
 20
199.6695602543918
 30
0.0
 11
304.7144908851247
 21
199.9880779119957
 31
0.0
  0
LINE
  5
506
330
18
100
AcDbEntity
  8
1
  6
Continuous
100
AcDbLine
 10
305.1183947877138
 20
199.4186511634829
 30
0.0
 11
305.0220798116503
 21
199.1677420725735
 31
0.0
  0
LINE
  5
507
330
18
100
AcDbEntity
  8
1
  6
Continuous
100
AcDbLine
 10
305.1183947877138
 20
199.4186511634829
 30
0.0
 11
305.0220798116506
 21
199.6695602543915
 31
0.0
  0
ARC
  5
508
330
18
100
AcDbEntity
  8
1
  6
Continuous
100
AcDbCircle
 10
303.6040762565919
 20
215.9186511641897
 30
0.0
 40
1.431765911236078
100
AcDbArc
 50
332.2496545546282
 51
54.46232220799704
  0
ARC
  5
509
330
18
100
AcDbEntity
  8
1
  6
Continuous
100
AcDbCircle
 10
303.6040762565919
 20
215.9186511641897
 30
0.0
 40
1.431765911236078
100
AcDbArc
 50
305.5376777919478
 51
315.6988392796187
  0
LINE
  5
50A
330
18
100
AcDbEntity
  8
1
  6
Continuous
100
AcDbLine
 10
305.0358421678278
 20
215.9186511641897
 30
0.0
 11
303.8877299814656
 21
215.9186511641897
 31
0.0
  0
LINE
  5
50B
330
18
100
AcDbEntity
  8
1
  6
Continuous
100
AcDbLine
 10
303.2707830694387
 20
231.6603085511213
 30
0.0
 11
305.4541582789945
 21
231.660308551124
 31
0.0
  0
LINE
  5
50C
330
18
100
AcDbEntity
  8
1
  6
Continuous
100
AcDbLine
 10
303.7707830691712
 20
230.9186511641899
 30
0.0
 11
304.7707830691706
 21
230.9186511641908
 31
0.0
  0
ARC
  5
50D
330
18
100
AcDbEntity
  8
1
  6
Continuous
100
AcDbCircle
 10
300.2707830691712
 20
231.5186511641882
 30
0.0
 40
8.4
100
AcDbArc
 50
9.561571174233135
 51
85.07731813394981
  0
CIRCLE
  5
50E
330
18
100
AcDbEntity
  8
1
  6
Continuous
100
AcDbCircle
 10
308.7707830691714
 20
227.9186511641918
 30
0.0
 40
5.0
  0
ARC
  5
50F
330
18
100
AcDbEntity
  8
1
  6
Continuous
100
AcDbCircle
 10
303.7915983493427
 20
239.9394664443609
 30
0.0
 40
2.799999999999998
100
AcDbArc
 50
45.0
 51
180.0
  0
LINE
  5
510
330
18
100
AcDbEntity
  8
1
  6
Continuous
100
AcDbLine
 10
303.1430643924318
 20
240.4186511641924
 30
0.0
 11
307.1262381259198
 21
240.4186511641966
 31
0.0
  0
ARC
  5
511
330
18
100
AcDbEntity
  8
1
  6
Continuous
100
AcDbCircle
 10
300.2707830691712
 20
232.4186511641896
 30
0.0
 40
8.5
100
AcDbArc
 50
3.372140426504571
 51
84.05093820924987
  0
LINE
  5
512
330
18
100
AcDbEntity
  8
1
  6
Continuous
100
AcDbLine
 10
301.8109853521143
 20
241.9186511641914
 30
0.0
 11
305.7722115677151
 21
241.9186511641955
 31
0.0
  0
ARC
  5
513
330
18
100
AcDbEntity
  8
1
  6
Continuous
100
AcDbCircle
 10
297.0740839280703
 20
234.6361655854619
 30
0.0
 40
4.0
100
AcDbArc
 50
97.5884792496361
 51
211.1574385847863
  0
LINE
  5
514
330
18
100
AcDbEntity
  8
1
  6
Continuous
100
AcDbLine
 10
303.2707830694748
 20
237.9186511641047
 30
0.0
 11
303.2707830694906
 21
227.7946624444719
 31
0.0
  0
LINE
  5
515
330
18
100
AcDbEntity
  8
1
  6
Continuous
100
AcDbLine
 10
297.2707830694746
 20
237.9186511641414
 30
0.0
 11
297.2707830694898
 21
228.272899852764
 31
0.0
  0
LINE
  5
516
330
18
100
AcDbEntity
  8
1
  6
Continuous
100
AcDbLine
 10
295.1082932923196
 20
231.6603085511105
 30
0.0
 11
297.2707830694387
 21
231.6603085511135
 31
0.0
  0
ARC
  5
517
330
18
100
AcDbEntity
  8
1
  6
Continuous
100
AcDbCircle
 10
291.7707830691711
 20
227.9186511641896
 30
0.0
 40
5.013878188659965
100
AcDbArc
 50
19.44003482817636
 51
67.97443962191903
  0
LINE
  5
518
330
18
100
AcDbEntity
  8
1
  6
Continuous
100
AcDbLine
 10
293.0810137698331
 20
227.4795602550889
 30
0.0
 11
293.619294391253
 21
226.9221543542826
 31
0.0
  0
LINE
  5
519
330
18
100
AcDbEntity
  8
1
  6
Continuous
100
AcDbLine
 10
290.4605523685097
 20
227.4795602550889
 30
0.0
 11
289.9222717470896
 21
226.9221543542824
 31
0.0
  0
CIRCLE
  5
51A
330
18
100
AcDbEntity
  8
1
  6
Continuous
100
AcDbCircle
 10
291.7707830691711
 20
227.9186511641801
 30
0.0
 40
3.5
  0
CIRCLE
  5
51B
330
18
100
AcDbEntity
  8
1
  6
Continuous
100
AcDbCircle
 10
291.7707830691711
 20
227.9186511641801
 30
0.0
 40
3.799999999999998
  0
LINE
  5
51C
330
18
100
AcDbEntity
  8
1
  6
Continuous
100
AcDbLine
 10
291.7707830691714
 20
226.7769716716298
 30
0.0
 11
291.3316921600801
 21
226.6084204635185
 31
0.0
  0
ARC
  5
51D
330
18
100
AcDbEntity
  8
1
  6
Continuous
100
AcDbCircle
 10
291.7707830691711
 20
227.9186511641801
 30
0.0
 40
2.1
100
AcDbArc
 50
208.3282509640172
 51
241.6717490359781
  0
LINE
  5
51E
330
18
100
AcDbEntity
  8
1
  6
Continuous
100
AcDbLine
 10
291.3316921600801
 20
226.6084204635185
 30
0.0
 11
290.7742862592738
 21
226.0701398420985
 31
0.0
  0
ARC
  5
51F
330
18
100
AcDbEntity
  8
1
  6
Continuous
100
AcDbCircle
 10
291.7707830691711
 20
227.9186511641801
 30
0.0
 40
2.1
100
AcDbArc
 50
298.3282509640064
 51
331.6717490359731
  0
LINE
  5
520
330
18
100
AcDbEntity
  8
1
  6
Continuous
100
AcDbLine
 10
291.7707830691711
 20
226.7769716716296
 30
0.0
 11
292.2098739782617
 21
226.6084204635189
 31
0.0
  0
LINE
  5
521
330
18
100
AcDbEntity
  8
1
  6
Continuous
100
AcDbLine
 10
292.2098739782617
 20
226.6084204635188
 30
0.0
 11
292.7672798790687
 21
226.0701398420983
 31
0.0
  0
LINE
  5
522
330
18
100
AcDbEntity
  8
1
  6
Continuous
100
AcDbLine
 10
291.7707830691714
 20
229.0603306567307
 30
0.0
 11
291.3316921600808
 21
229.2288818648415
 31
0.0
  0
ARC
  5
523
330
18
100
AcDbEntity
  8
1
  6
Continuous
100
AcDbCircle
 10
291.7707830691711
 20
227.9186511641801
 30
0.0
 40
2.1
100
AcDbArc
 50
118.3282509640138
 51
151.6717490359854
  0
LINE
  5
524
330
18
100
AcDbEntity
  8
1
  6
Continuous
100
AcDbLine
 10
291.3316921600808
 20
229.2288818648415
 30
0.0
 11
290.774286259274
 21
229.7671624862619
 31
0.0
  0
LINE
  5
525
330
18
100
AcDbEntity
  8
1
  6
Continuous
100
AcDbLine
 10
290.4605523685098
 20
228.3577420732707
 30
0.0
 11
289.9222717470895
 21
228.9151479740775
 31
0.0
  0
LINE
  5
526
330
18
100
AcDbEntity
  8
1
  6
Continuous
100
AcDbLine
 10
290.6291035766208
 20
227.9186511641801
 30
0.0
 11
290.4605523685097
 21
227.4795602550889
 31
0.0
  0
LINE
  5
527
330
18
100
AcDbEntity
  8
1
  6
Continuous
100
AcDbLine
 10
290.6291035766206
 20
227.9186511641801
 30
0.0
 11
290.4605523685098
 21
228.3577420732707
 31
0.0
  0
ARC
  5
528
330
18
100
AcDbEntity
  8
1
  6
Continuous
100
AcDbCircle
 10
291.7707830691711
 20
227.9186511641801
 30
0.0
 40
2.1
100
AcDbArc
 50
28.32825096400355
 51
61.67174903597814
  0
LINE
  5
529
330
18
100
AcDbEntity
  8
1
  6
Continuous
100
AcDbLine
 10
292.9124625617219
 20
227.9186511641802
 30
0.0
 11
293.0810137698328
 21
227.4795602550887
 31
0.0
  0
LINE
  5
52A
330
18
100
AcDbEntity
  8
1
  6
Continuous
100
AcDbLine
 10
292.9124625617221
 20
227.9186511641802
 30
0.0
 11
293.0810137698328
 21
228.3577420732709
 31
0.0
  0
LINE
  5
52B
330
18
100
AcDbEntity
  8
1
  6
Continuous
100
AcDbLine
 10
293.0810137698328
 20
228.3577420732707
 30
0.0
 11
293.619294391253
 21
228.9151479740775
 31
0.0
  0
LINE
  5
52C
330
18
100
AcDbEntity
  8
1
  6
Continuous
100
AcDbLine
 10
292.2098739782626
 20
229.2288818648419
 30
0.0
 11
292.7672798790687
 21
229.7671624862618
 31
0.0
  0
LINE
  5
52D
330
18
100
AcDbEntity
  8
1
  6
Continuous
100
AcDbLine
 10
291.7707830691711
 20
229.0603306567305
 30
0.0
 11
292.2098739782626
 21
229.2288818648419
 31
0.0
  0
LINE
  5
52E
330
18
100
AcDbEntity
  8
1
  6
Continuous
100
AcDbLine
 10
301.7230102082152
 20
227.1915831024789
 30
0.0
 11
303.7712876140135
 21
227.9896806922573
 31
0.0
  0
ARC
  5
52F
330
18
100
AcDbEntity
  8
1
  6
Continuous
100
AcDbCircle
 10
300.2707830691712
 20
230.9186511641896
 30
0.0
 40
4.0
100
AcDbArc
 50
199.4400348281764
 51
291.2880427493997
  0
LINE
  5
531
330
18
100
AcDbEntity
  8
1
  6
Continuous
100
AcDbLine
 10
296.7707830691712
 20
229.9186511641845
 30
0.0
 11
297.270783069487
 21
229.9186511641849
 31
0.0
  0
LINE
  5
532
330
18
100
AcDbEntity
  8
1
  6
Continuous
100
AcDbLine
 10
296.7707830691712
 20
228.982159491086
 30
0.0
 11
296.7707830691712
 21
230.9186511641801
 31
0.0
  0
LINE
  5
533
330
18
100
AcDbEntity
  8
1
  6
Continuous
100
AcDbLine
 10
295.7881173209821
 20
230.9186511641813
 30
0.0
 11
296.7707830691712
 21
230.9186511641822
 31
0.0
  0
LINE
  5
534
330
18
100
AcDbEntity
  8
1
  6
Continuous
100
AcDbLine
 10
303.7707830691712
 20
227.9894840997346
 30
0.0
 11
303.7707830691712
 21
230.9186511641908
 31
0.0
  0
LINE
  5
535
330
18
100
AcDbEntity
  8
1
  6
Continuous
100
AcDbLine
 10
303.270783069487
 20
229.9186511641872
 30
0.0
 11
303.7707830691712
 21
229.9186511641873
 31
0.0
  0
ARC
  5
536
330
18
100
AcDbEntity
  8
1
  6
Continuous
100
AcDbCircle
 10
300.2707830691712
 20
231.5186511641882
 30
0.0
 40
8.4
100
AcDbArc
 50
128.9868581172215
 51
142.450126040662
  0
LINE
  5
537
330
18
100
AcDbEntity
  8
1
  6
Continuous
100
AcDbLine
 10
296.5458556124939
 20
238.6011340401438
 30
0.0
 11
300.9915983493438
 21
239.1934129508623
 31
0.0
  0
ARC
  5
538
330
18
100
AcDbEntity
  8
1
  6
Continuous
100
AcDbCircle
 10
300.2707830694503
 20
233.9186511641233
 30
0.0
 40
5.0
100
AcDbArc
 50
53.13010235380422
 51
126.8698976454949
  0
LINE
  5
53A
330
18
100
AcDbEntity
  8
1
  6
Continuous
100
AcDbLine
 10
300.9915983493426
 20
239.9394664443609
 30
0.0
 11
300.9915983493438
 21
239.193412950863
 31
0.0
  0
ARC
  5
53B
330
18
100
AcDbEntity
  8
1
  6
Continuous
100
AcDbCircle
 10
291.7707830691711
 20
227.9186511641896
 30
0.0
 40
19.8
100
AcDbArc
 50
12.9643599632106
 51
45.0
  0
LINE
  5
53C
330
18
100
AcDbEntity
  8
1
  6
Continuous
100
AcDbLine
 10
308.7707830691714
 20
232.9186511641919
 30
0.0
 11
308.7707830691714
 21
238.0695131965492
 31
0.0
  0
CIRCLE
  5
53D
330
18
100
AcDbEntity
  8
1
  6
Continuous
100
AcDbCircle
 10
308.7707830691714
 20
227.918651164192
 30
0.0
 40
3.5
  0
CIRCLE
  5
53E
330
18
100
AcDbEntity
  8
1
  6
Continuous
100
AcDbCircle
 10
308.7707830691714
 20
227.9186511641918
 30
0.0
 40
3.799999999999998
  0
LINE
  5
53F
330
18
100
AcDbEntity
  8
1
  6
Continuous
100
AcDbLine
 10
310.0810137698331
 20
227.4795602551006
 30
0.0
 11
310.6192943912531
 21
226.9221543542943
 31
0.0
  0
LINE
  5
540
330
18
100
AcDbEntity
  8
1
  6
Continuous
100
AcDbLine
 10
307.4605523685097
 20
227.4795602551006
 30
0.0
 11
306.9222717470896
 21
226.9221543542943
 31
0.0
  0
LINE
  5
541
330
18
100
AcDbEntity
  8
1
  6
Continuous
100
AcDbLine
 10
308.33169216008
 20
226.6084204635304
 30
0.0
 11
307.7742862592738
 21
226.0701398421101
 31
0.0
  0
ARC
  5
542
330
18
100
AcDbEntity
  8
1
  6
Continuous
100
AcDbCircle
 10
308.7707830691714
 20
227.918651164192
 30
0.0
 40
2.1
100
AcDbArc
 50
208.3282509640172
 51
241.6717490359781
  0
ARC
  5
543
330
18
100
AcDbEntity
  8
1
  6
Continuous
100
AcDbCircle
 10
308.7707830691714
 20
227.918651164192
 30
0.0
 40
2.1
100
AcDbArc
 50
298.3282509640064
 51
331.6717490359731
  0
LINE
  5
544
330
18
100
AcDbEntity
  8
1
  6
Continuous
100
AcDbLine
 10
308.7707830691714
 20
226.7769716716415
 30
0.0
 11
308.33169216008
 21
226.6084204635304
 31
0.0
  0
LINE
  5
545
330
18
100
AcDbEntity
  8
1
  6
Continuous
100
AcDbLine
 10
308.7707830691712
 20
226.7769716716415
 30
0.0
 11
309.2098739782617
 21
226.6084204635307
 31
0.0
  0
LINE
  5
546
330
18
100
AcDbEntity
  8
1
  6
Continuous
100
AcDbLine
 10
309.2098739782617
 20
226.6084204635305
 30
0.0
 11
309.7672798790687
 21
226.0701398421101
 31
0.0
  0
LINE
  5
547
330
18
100
AcDbEntity
  8
1
  6
Continuous
100
AcDbLine
 10
308.3316921600808
 20
229.2288818648535
 30
0.0
 11
307.774286259274
 21
229.7671624862738
 31
0.0
  0
ARC
  5
548
330
18
100
AcDbEntity
  8
1
  6
Continuous
100
AcDbCircle
 10
308.7707830691714
 20
227.918651164192
 30
0.0
 40
2.1
100
AcDbArc
 50
118.3282509640138
 51
151.6717490359854
  0
LINE
  5
549
330
18
100
AcDbEntity
  8
1
  6
Continuous
100
AcDbLine
 10
307.4605523685098
 20
228.3577420732825
 30
0.0
 11
306.9222717470895
 21
228.9151479740894
 31
0.0
  0
LINE
  5
54A
330
18
100
AcDbEntity
  8
1
  6
Continuous
100
AcDbLine
 10
307.6291035766208
 20
227.9186511641918
 30
0.0
 11
307.4605523685097
 21
227.4795602551006
 31
0.0
  0
LINE
  5
54B
330
18
100
AcDbEntity
  8
1
  6
Continuous
100
AcDbLine
 10
307.6291035766207
 20
227.9186511641918
 30
0.0
 11
307.4605523685098
 21
228.3577420732825
 31
0.0
  0
ARC
  5
54C
330
18
100
AcDbEntity
  8
1
  6
Continuous
100
AcDbCircle
 10
308.7707830691714
 20
227.918651164192
 30
0.0
 40
2.1
100
AcDbArc
 50
28.32825096400355
 51
61.67174903597814
  0
LINE
  5
54D
330
18
100
AcDbEntity
  8
1
  6
Continuous
100
AcDbLine
 10
309.9124625617219
 20
227.918651164192
 30
0.0
 11
310.0810137698328
 21
227.4795602551005
 31
0.0
  0
LINE
  5
54E
330
18
100
AcDbEntity
  8
1
  6
Continuous
100
AcDbLine
 10
309.9124625617219
 20
227.918651164192
 30
0.0
 11
310.0810137698328
 21
228.3577420732826
 31
0.0
  0
LINE
  5
54F
330
18
100
AcDbEntity
  8
1
  6
Continuous
100
AcDbLine
 10
310.0810137698328
 20
228.3577420732826
 30
0.0
 11
310.6192943912531
 21
228.9151479740893
 31
0.0
  0
LINE
  5
550
330
18
100
AcDbEntity
  8
1
  6
Continuous
100
AcDbLine
 10
309.2098739782627
 20
229.2288818648537
 30
0.0
 11
309.767279879069
 21
229.7671624862736
 31
0.0
  0
LINE
  5
551
330
18
100
AcDbEntity
  8
1
  6
Continuous
100
AcDbLine
 10
308.7707830691712
 20
229.0603306567423
 30
0.0
 11
309.2098739782627
 21
229.2288818648536
 31
0.0
  0
LINE
  5
552
330
18
100
AcDbEntity
  8
1
  6
Continuous
100
AcDbLine
 10
308.7707830691712
 20
229.0603306567423
 30
0.0
 11
308.3316921600808
 21
229.2288818648533
 31
0.0
  0
ARC
  5
553
330
18
100
AcDbEntity
  8
5
  6
PHANTOM
100
AcDbCircle
 10
298.8418508810434
 20
249.1318545997831
 30
0.0
 40
5.0
100
AcDbArc
 50
44.99999999999999
 51
135.0
  0
LINE
  5
554
330
18
100
AcDbEntity
  8
5
  6
PHANTOM
100
AcDbLine
 10
327.1261221285056
 20
213.7765155404555
 30
0.0
 11
330.6616560344382
 21
217.3120494463884
 31
0.0
  0
LINE
  5
557
330
18
100
AcDbEntity
  8
5
  6
PHANTOM
100
AcDbLine
 10
341.2682577522363
 20
192.5633121048591
 30
0.0
 11
341.2682577522363
 21
178.4211764811282
 31
0.0
  0
LINE
  5
55A
330
18
100
AcDbEntity
  8
5
  6
PHANTOM
100
AcDbLine
 10
327.1261221285056
 20
206.7054477285902
 30
0.0
 11
341.2682577522363
 21
192.5633121048591
 31
0.0
  0
LINE
  5
55B
330
18
100
AcDbEntity
  8
1
  6
Continuous
100
AcDbLine
 10
328.4374296628816
 20
227.9186511641896
 30
0.0
 11
328.1041003441396
 21
227.9186511641896
 31
0.0
  0
ARC
  5
55C
330
18
100
AcDbEntity
  8
1
  6
Continuous
100
AcDbCircle
 10
328.1041003441396
 20
226.0365469805864
 30
0.0
 40
0.3333293187420452
100
AcDbArc
 50
280.104182716122
 51
0.0
  0
ARC
  5
55D
330
18
100
AcDbEntity
  8
1
  6
Continuous
100
AcDbCircle
 10
328.1041003441396
 20
229.8007553478041
 30
0.0
 40
0.3333293187420452
100
AcDbArc
 50
0.0
 51
79.89581728387149
  0
ARC
  5
55E
330
18
100
AcDbEntity
  8
1
  6
Continuous
100
AcDbCircle
 10
326.7707830691715
 20
233.5185837190615
 30
0.0
 40
8.599896423544768
100
AcDbArc
 50
234.4623222080521
 51
305.5376777919478
  0
ARC
  5
55F
330
18
100
AcDbEntity
  8
1
  6
Continuous
100
AcDbCircle
 10
326.7707830691715
 20
222.3187186093289
 30
0.0
 40
8.599896423544768
100
AcDbArc
 50
54.46232220799704
 51
125.5376777920028
  0
LINE
  5
560
330
18
100
AcDbEntity
  8
1
  6
Continuous
100
AcDbLine
 10
327.7707710253977
 20
230.1126395376706
 30
0.0
 11
327.7707710253977
 21
225.7246627907196
 31
0.0
  0
LINE
  5
561
330
18
100
AcDbEntity
  8
1
  6
Continuous
100
AcDbLine
 10
327.1041123879135
 20
230.2449505852079
 30
0.0
 11
327.1041123879135
 21
225.5923517431825
 31
0.0
  0
LINE
  5
562
330
18
100
AcDbEntity
  8
1
  6
Continuous
100
AcDbLine
 10
326.4374537504293
 20
230.2449505852079
 30
0.0
 11
326.4374537504293
 21
225.5923517431825
 31
0.0
  0
LINE
  5
563
330
18
100
AcDbEntity
  8
1
  6
Continuous
100
AcDbLine
 10
325.7707951129451
 20
230.1886795912894
 30
0.0
 11
325.7707951129451
 21
225.6486227371009
 31
0.0
  0
LINE
  5
564
330
18
100
AcDbEntity
  8
1
  6
Continuous
100
AcDbLine
 10
324.437477837977
 20
229.6507514148494
 30
0.0
 11
324.437477837977
 21
226.1865509135406
 31
0.0
  0
LINE
  5
565
330
18
100
AcDbEntity
  8
1
  6
Continuous
100
AcDbLine
 10
323.7708192004928
 20
229.5629394710299
 30
0.0
 11
323.7708192004928
 21
226.2743628573602
 31
0.0
  0
LINE
  5
566
330
18
100
AcDbEntity
  8
1
  6
Continuous
100
AcDbLine
 10
323.1041605630088
 20
226.6886667914322
 30
0.0
 11
323.1041605630088
 21
229.1486355369581
 31
0.0
  0
LINE
  5
567
330
18
100
AcDbEntity
  8
1
  6
Continuous
100
AcDbLine
 10
322.4375019255248
 20
229.7471028903023
 30
0.0
 11
322.4375019255248
 21
226.8733646632065
 31
0.0
  0
ARC
  5
568
330
18
100
AcDbEntity
  8
1
  6
Continuous
100
AcDbCircle
 10
322.7708312442667
 20
227.9186511641896
 30
0.0
 40
1.718119093483293
100
AcDbArc
 50
180.0
 51
234.4623222080521
  0
ARC
  5
569
330
18
100
AcDbEntity
  8
1
  6
Continuous
100
AcDbCircle
 10
323.4374898817508
 20
226.6886667914322
 30
0.0
 40
0.3333293187420452
100
AcDbArc
 50
180.0
 51
243.9856340003641
  0
ARC
  5
56A
330
18
100
AcDbEntity
  8
1
  6
Continuous
100
AcDbCircle
 10
326.7707830691715
 20
233.5185837190615
 30
0.0
 40
7.933237786060675
100
AcDbArc
 50
243.9856340003641
 51
247.0560464434621
  0
ARC
  5
56B
330
18
100
AcDbEntity
  8
1
  6
Continuous
100
AcDbCircle
 10
323.7041533367446
 20
226.2743628573602
 30
0.0
 40
0.066665863748409
100
AcDbArc
 50
247.0560464434621
 51
0.0
  0
ARC
  5
56C
330
18
100
AcDbEntity
  8
1
  6
Continuous
100
AcDbCircle
 10
326.7707830691715
 20
233.5185837190615
 30
0.0
 40
7.933237786060675
100
AcDbArc
 50
277.7929243354195
 51
280.104182716122
  0
ARC
  5
56D
330
18
100
AcDbEntity
  8
1
  6
Continuous
100
AcDbCircle
 10
327.837436889146
 20
225.7246627907196
 30
0.0
 40
0.066665863748409
100
AcDbArc
 50
180.0
 51
277.7929243354259
  0
LINE
  5
56E
330
18
100
AcDbEntity
  8
1
  6
Continuous
100
AcDbLine
 10
325.104136475461
 20
225.8453456976176
 30
0.0
 11
325.104136475461
 21
227.1186607992087
 31
0.0
  0
ARC
  5
56F
330
18
100
AcDbEntity
  8
1
  6
Continuous
100
AcDbCircle
 10
325.0374706117127
 20
225.8453456976176
 30
0.0
 40
0.066665863748409
100
AcDbArc
 50
257.2710561268771
 51
0.0
  0
ARC
  5
570
330
18
100
AcDbEntity
  8
1
  6
Continuous
100
AcDbCircle
 10
326.7707830691715
 20
233.5185837190615
 30
0.0
 40
7.933237786060675
100
AcDbArc
 50
254.7937121239436
 51
257.2710561268771
  0
ARC
  5
571
330
18
100
AcDbEntity
  8
1
  6
Continuous
100
AcDbCircle
 10
326.7707830691715
 20
233.5185837190615
 30
0.0
 40
7.933237786060675
100
AcDbArc
 50
254.7424767095415
 51
254.7937121239436
  0
ARC
  5
572
330
18
100
AcDbEntity
  8
1
  6
Continuous
100
AcDbCircle
 10
324.770807156719
 20
226.1865509135406
 30
0.0
 40
0.3333293187420452
100
AcDbArc
 50
180.0
 51
254.7424767095415
  0
ARC
  5
573
330
18
100
AcDbEntity
  8
1
  6
Continuous
100
AcDbCircle
 10
323.7041533367446
 20
229.5629394710299
 30
0.0
 40
0.066665863748409
100
AcDbArc
 50
0.0
 51
112.9439535565377
  0
ARC
  5
574
330
18
100
AcDbEntity
  8
1
  6
Continuous
100
AcDbCircle
 10
326.7707830691715
 20
222.3187186093289
 30
0.0
 40
7.933237786060675
100
AcDbArc
 50
112.9439535565377
 51
116.0143659996357
  0
ARC
  5
575
330
18
100
AcDbEntity
  8
1
  6
Continuous
100
AcDbCircle
 10
323.4374898817508
 20
229.1486355369581
 30
0.0
 40
0.3333293187420452
100
AcDbArc
 50
116.0143659996357
 51
180.0
  0
ARC
  5
576
330
18
100
AcDbEntity
  8
1
  6
Continuous
100
AcDbCircle
 10
322.7708312442667
 20
227.9186511641896
 30
0.0
 40
1.718119093483293
100
AcDbArc
 50
125.5376777920028
 51
166.5374393917334
  0
ARC
  5
577
330
18
100
AcDbEntity
  8
1
  6
Continuous
100
AcDbCircle
 10
327.837436889146
 20
230.1126395376706
 30
0.0
 40
0.066665863748409
100
AcDbArc
 50
82.207075664574
 51
180.0
  0
ARC
  5
578
330
18
100
AcDbEntity
  8
1
  6
Continuous
100
AcDbCircle
 10
326.7707830691715
 20
222.3187186093289
 30
0.0
 40
7.933237786060675
100
AcDbArc
 50
79.8958172838779
 51
82.20707566458049
  0
LINE
  5
579
330
18
100
AcDbEntity
  8
1
  6
Continuous
100
AcDbLine
 10
326.4374537504293
 20
227.9186511641896
 30
0.0
 11
325.7707951129451
 21
227.9186511641896
 31
0.0
  0
ARC
  5
57A
330
18
100
AcDbEntity
  8
1
  6
Continuous
100
AcDbCircle
 10
324.770807156719
 20
229.6507514148494
 30
0.0
 40
0.3333293187420452
100
AcDbArc
 50
105.2575232904582
 51
180.0
  0
ARC
  5
57B
330
18
100
AcDbEntity
  8
1
  6
Continuous
100
AcDbCircle
 10
326.7707830691715
 20
222.3187186093289
 30
0.0
 40
7.933237786060675
100
AcDbArc
 50
103.268118970557
 51
105.2575232904582
  0
ARC
  5
57C
330
18
100
AcDbEntity
  8
1
  6
Continuous
100
AcDbCircle
 10
326.7707830691715
 20
222.3187186093289
 30
0.0
 40
7.933237786060675
100
AcDbArc
 50
102.7289438731228
 51
103.268118970557
  0
ARC
  5
57D
330
18
100
AcDbEntity
  8
1
  6
Continuous
100
AcDbCircle
 10
325.0374706117127
 20
229.9919566307726
 30
0.0
 40
0.066665863748409
100
AcDbArc
 50
0.0
 51
102.7289438731228
  0
LINE
  5
57E
330
18
100
AcDbEntity
  8
1
  6
Continuous
100
AcDbLine
 10
325.104136475461
 20
228.7186415291705
 30
0.0
 11
325.104136475461
 21
229.9919566307726
 31
0.0
  0
LINE
  5
57F
330
18
100
AcDbEntity
  8
1
  6
Continuous
100
AcDbLine
 10
330.7768449752666
 20
226.6711221620528
 30
0.0
 11
331.5299429054218
 21
229.4817219004576
 31
0.0
  0
LINE
  5
580
330
18
100
AcDbEntity
  8
1
  6
Continuous
100
AcDbLine
 10
330.1040762565918
 20
227.9186511641896
 30
0.0
 11
330.1040762565918
 21
226.319596408552
 31
0.0
  0
LINE
  5
581
330
18
100
AcDbEntity
  8
1
  6
Continuous
100
AcDbLine
 10
329.1040883003656
 20
230.1100730744229
 30
0.0
 11
329.1040883003656
 21
225.936239195877
 31
0.0
  0
LINE
  5
582
330
18
100
AcDbEntity
  8
1
  6
Continuous
100
AcDbLine
 10
328.4374296628816
 20
226.0365469805864
 30
0.0
 11
328.4374296628816
 21
227.9186511641896
 31
0.0
  0
ARC
  5
583
330
18
100
AcDbEntity
  8
1
  6
Continuous
100
AcDbCircle
 10
330.770734894076
 20
227.9186511641896
 30
0.0
 40
1.718119093483293
100
AcDbArc
 50
332.2496545546282
 51
54.46232220799704
  0
ARC
  5
584
330
18
100
AcDbEntity
  8
1
  6
Continuous
100
AcDbCircle
 10
330.770734894076
 20
227.9186511641896
 30
0.0
 40
1.718119093483293
100
AcDbArc
 50
305.5376777919478
 51
315.6988392796187
  0
LINE
  5
585
330
18
100
AcDbEntity
  8
1
  6
Continuous
100
AcDbLine
 10
332.4888539875591
 20
227.9186511641896
 30
0.0
 11
331.1111193639248
 21
227.9186511641896
 31
0.0
  0
LINE
  5
586
330
18
100
AcDbEntity
  8
1
  6
Continuous
100
AcDbLine
 10
330.4374055753338
 20
228.2519804829318
 30
0.0
 11
330.4374055753338
 21
229.6761658162025
 31
0.0
  0
ARC
  5
587
330
18
100
AcDbEntity
  8
1
  6
Continuous
100
AcDbCircle
 10
330.1040762565918
 20
228.2519804829318
 30
0.0
 40
0.3333293187420467
100
AcDbArc
 50
180.0
 51
0.0
  0
LINE
  5
588
330
18
100
AcDbEntity
  8
1
  6
Continuous
100
AcDbLine
 10
329.7707469378497
 20
229.7960018297014
 30
0.0
 11
329.7707469378497
 21
228.2519804829318
 31
0.0
  0
LINE
  5
589
330
18
100
AcDbEntity
  8
1
  6
Continuous
100
AcDbLine
 10
328.4374296628816
 20
228.7186415291705
 30
0.0
 11
328.4374296628816
 21
229.8007553478041
 31
0.0
  0
ARC
  5
58A
330
18
100
AcDbEntity
  8
5
  6
PHANTOM
100
AcDbCircle
 10
330.6616560344382
 20
210.2409816345228
 30
0.0
 40
5.0
100
AcDbArc
 50
135.0
 51
225.0
  0
ARC
  5
58B
330
18
100
AcDbEntity
  8
5
  6
PHANTOM
100
AcDbCircle
 10
334.1971899403708
 20
178.421176481128
 30
0.0
 40
5.0
100
AcDbArc
 50
225.0
 51
315.0
  0
LINE
  5
58C
330
18
100
AcDbEntity
  8
5
  6
PHANTOM
100
AcDbLine
 10
337.7327238463037
 20
174.8856425751954
 30
0.0
 11
341.2682577522363
 21
178.4211764811282
 31
0.0
  0
ARC
  5
58D
330
18
100
AcDbEntity
  8
5
  6
PHANTOM
100
AcDbCircle
 10
327.1261221285056
 20
220.847583352321
 30
0.0
 40
5.0
100
AcDbArc
 50
315.0
 51
44.99999999999999
  0
LINE
  5
6BF
330
18
100
AcDbEntity
  8
1
  6
Continuous
100
AcDbLine
 10
215.1469016934595
 20
227.9186511638338
 30
0.0
 11
216.146901693797
 21
228.4960014332177
 31
0.0
  0
LINE
  5
6C2
330
18
100
AcDbEntity
  8
1
  6
Continuous
100
AcDbLine
 10
84.66117733046244
 20
193.4186511637984
 30
0.0
 11
100.4611773304619
 21
193.4186511603658
 31
0.0
  0
LINE
  5
6CA
330
18
100
AcDbEntity
  8
1
  6
Continuous
100
AcDbLine
 10
84.66117733046244
 20
195.4186511637984
 30
0.0
 11
100.4611773304618
 21
195.4186511649433
 31
0.0
  0
LINE
  5
6D2
330
18
100
AcDbEntity
  8
1
  6
Continuous
100
AcDbLine
 10
84.66117733046244
 20
197.4186511637984
 30
0.0
 11
100.4611773304618
 21
197.4186511616685
 31
0.0
  0
LINE
  5
6DA
330
18
100
AcDbEntity
  8
1
  6
Continuous
100
AcDbLine
 10
84.66117733046244
 20
199.4186511637984
 30
0.0
 11
100.4611773304618
 21
199.4186511623763
 31
0.0
  0
LINE
  5
6E6
330
18
100
AcDbEntity
  8
1
  6
Continuous
100
AcDbLine
 10
84.66117733046244
 20
191.4186511637984
 30
0.0
 11
100.4611773304618
 21
191.4186511694998
 31
0.0
  0
LINE
  5
6EE
330
18
100
AcDbEntity
  8
1
  6
Continuous
100
AcDbLine
 10
84.66117733046244
 20
189.4186511637984
 30
0.0
 11
100.4611773304618
 21
189.4186511644559
 31
0.0
  0
LINE
  5
6F6
330
18
100
AcDbEntity
  8
1
  6
Continuous
100
AcDbLine
 10
84.66117733046258
 20
187.4186511637984
 30
0.0
 11
100.4611773304618
 21
187.4186511637189
 31
0.0
  0
LINE
  5
6FE
330
18
100
AcDbEntity
  8
1
  6
Continuous
100
AcDbLine
 10
84.71261058238347
 20
185.4186511637308
 30
0.0
 11
100.4097440786063
 21
185.4186511643071
 31
0.0
  0
LINE
  5
703
330
18
100
AcDbEntity
  8
1
  6
Continuous
100
AcDbLine
 10
85.2127081022262
 20
183.4186511639756
 30
0.0
 11
99.9096465586971
 21
183.4186511639744
 31
0.0
  0
LINE
  5
707
330
18
100
AcDbEntity
  8
1
  6
Continuous
100
AcDbLine
 10
86.36440397703848
 20
181.4186511636209
 30
0.0
 11
98.75795068388391
 21
181.4186511636195
 31
0.0
  0
LINE
  5
70B
330
18
100
AcDbEntity
  8
1
  6
Continuous
100
AcDbLine
 10
88.71410051909595
 20
179.4186511637239
 30
0.0
 11
96.40825414182543
 21
179.4186511637228
 31
0.0
  0
ARC
  5
770
330
18
100
AcDbEntity
  8
1
  6
Continuous
100
AcDbCircle
 10
91.44600666277799
 20
175.5822883010974
 30
0.0
 40
0.5927544590217826
100
AcDbArc
 50
212.0053832080841
 51
327.9946167919157
  0
ARC
  5
771
330
18
100
AcDbEntity
  8
1
  6
Continuous
100
AcDbCircle
 10
91.44600666277799
 20
176.8967793830538
 30
0.0
 40
0.5927544590217826
100
AcDbArc
 50
32.00538320808419
 51
147.9946167919158
  0
ARC
  5
77C
330
18
100
AcDbEntity
  8
1
  6
Continuous
100
AcDbCircle
 10
92.49759952834313
 20
176.2395338420757
 30
0.0
 40
1.832842865565158
100
AcDbArc
 50
147.9946167919151
 51
212.0053832080848
  0
LINE
  5
77D
330
18
100
AcDbEntity
  8
1
  6
Continuous
100
AcDbLine
 10
88.53585779585579
 20
177.4895338420757
 30
0.0
 11
88.53585779585579
 21
174.9895338420755
 31
0.0
  0
LINE
  5
77E
330
18
100
AcDbEntity
  8
1
  6
Continuous
100
AcDbLine
 10
89.03851257179779
 20
177.4895338420757
 30
0.0
 11
88.53585779585579
 21
177.4895338420757
 31
0.0
  0
LINE
  5
781
330
18
100
AcDbEntity
  8
1
  6
Continuous
100
AcDbLine
 10
95.56504610909859
 20
177.4895338420757
 30
0.0
 11
97.00254610909858
 21
174.9895338420755
 31
0.0
  0
LINE
  5
782
330
18
100
AcDbEntity
  8
1
  6
Continuous
100
AcDbLine
 10
95.56504610909859
 20
177.4895338420757
 30
0.0
 11
95.56504610909859
 21
174.9895338420755
 31
0.0
  0
ARC
  5
785
330
18
100
AcDbEntity
  8
1
  6
Continuous
100
AcDbCircle
 10
90.3944137972129
 20
176.2395338420757
 30
0.0
 40
1.832842865565158
100
AcDbArc
 50
327.9946167919157
 51
32.00538320808419
  0
LINE
  5
788
330
18
100
AcDbEntity
  8
1
  6
Continuous
100
AcDbLine
 10
97.00254610909858
 20
177.4895338420757
 30
0.0
 11
97.00254610909858
 21
174.9895338420755
 31
0.0
  0
LINE
  5
793
330
18
100
AcDbEntity
  8
1
  6
Continuous
100
AcDbLine
 10
94.2767272636504
 20
174.9895338420755
 30
0.0
 11
93.82672726365035
 21
177.4895338420757
 31
0.0
  0
LINE
  5
794
330
18
100
AcDbEntity
  8
1
  6
Continuous
100
AcDbLine
 10
94.72672726365043
 20
177.4895338420757
 30
0.0
 11
94.2767272636504
 21
174.9895338420755
 31
0.0
  0
ARC
  5
7AD
330
18
100
AcDbEntity
  8
1
  6
Continuous
100
AcDbCircle
 10
87.9869197062327
 20
176.2395338420757
 30
0.0
 40
1.832842865565158
100
AcDbArc
 50
327.9946167919157
 51
32.00538320808419
  0
ARC
  5
7AE
330
18
100
AcDbEntity
  8
1
  6
Continuous
100
AcDbCircle
 10
89.03851257179779
 20
176.8967793830538
 30
0.0
 40
0.5927544590217826
100
AcDbArc
 50
32.00538320808419
 51
90.0
  0
ARC
  5
7AF
330
18
100
AcDbEntity
  8
1
  6
Continuous
100
AcDbCircle
 10
89.03851257179779
 20
175.5822883010974
 30
0.0
 40
0.5927544590217826
100
AcDbArc
 50
270.0
 51
327.9946167919157
  0
LINE
  5
7B0
330
18
100
AcDbEntity
  8
1
  6
Continuous
100
AcDbLine
 10
89.03851257179779
 20
174.9895338420755
 30
0.0
 11
88.53585779585579
 21
174.9895338420755
 31
0.0
  0
LINE
  5
7B1
330
18
100
AcDbEntity
  8
1
  6
Continuous
100
AcDbLine
 10
93.82672726365035
 20
177.4895338420757
 30
0.0
 11
93.37672726365033
 21
174.9895338420755
 31
0.0
  0
LINE
  5
7B2
330
18
100
AcDbEntity
  8
1
  6
Continuous
100
AcDbLine
 10
93.37672726365033
 20
174.9895338420755
 30
0.0
 11
92.92672726365026
 21
177.4895338420757
 31
0.0
  0
LINE
  5
80A
330
18
100
AcDbEntity
  8
1
  6
Continuous
100
AcDbLine
 10
302.327847187626
 20
207.3561511641944
 30
0.0
 11
303.5778471876259
 21
207.3561511641944
 31
0.0
  0
LINE
  5
80B
330
18
100
AcDbEntity
  8
1
  6
Continuous
100
AcDbLine
 10
303.2028471876259
 20
208.9186511641944
 30
0.0
 11
302.327847187626
 21
207.3561511641944
 31
0.0
  0
LINE
  5
80C
330
18
100
AcDbEntity
  8
1
  6
Continuous
100
AcDbLine
 10
303.2028471876259
 20
208.9186511641944
 30
0.0
 11
303.2028471876259
 21
206.4186511641944
 31
0.0
  0
LINE
  5
80D
330
18
100
AcDbEntity
  8
1
  6
Continuous
100
AcDbLine
 10
308.1652502768351
 20
207.6686511641944
 30
0.0
 11
307.9775461281812
 21
207.6686511641944
 31
0.0
  0
ARC
  5
80E
330
18
100
AcDbEntity
  8
1
  6
Continuous
100
AcDbCircle
 10
308.1652502768351
 20
208.2936511641944
 30
0.0
 40
0.625
100
AcDbArc
 50
270.0
 51
180.0
  0
ARC
  5
80F
330
18
100
AcDbEntity
  8
1
  6
Continuous
100
AcDbCircle
 10
308.1652502768351
 20
207.0436511641944
 30
0.0
 40
0.6250000000000006
100
AcDbArc
 50
180.0
 51
90.0
  0
LINE
  5
810
330
18
100
AcDbEntity
  8
1
  6
Continuous
100
AcDbLine
 10
301.7168460004052
 20
208.9186511641944
 30
0.0
 11
300.4668460004052
 21
208.9186511641944
 31
0.0
  0
LINE
  5
811
330
18
100
AcDbEntity
  8
1
  6
Continuous
100
AcDbLine
 10
301.0918460004052
 20
206.4186511641944
 30
0.0
 11
300.4668460004052
 21
206.4186511641944
 31
0.0
  0
ARC
  5
812
330
18
100
AcDbEntity
  8
1
  6
Continuous
100
AcDbCircle
 10
301.0918460004052
 20
207.0436511641944
 30
0.0
 40
0.625
100
AcDbArc
 50
270.0
 51
90.0
  0
LINE
  5
813
330
18
100
AcDbEntity
  8
1
  6
Continuous
100
AcDbLine
 10
301.0918460004052
 20
207.6686511641944
 30
0.0
 11
300.4668460004052
 21
207.6686511641944
 31
0.0
  0
LINE
  5
814
330
18
100
AcDbEntity
  8
1
  6
Continuous
100
AcDbLine
 10
300.4668460004052
 20
208.9186511641944
 30
0.0
 11
300.4668460004052
 21
207.6686511641944
 31
0.0
  0
LINE
  5
81D
330
18
100
AcDbEntity
  8
1
  6
Continuous
100
AcDbLine
 10
305.5621617502302
 20
208.2936511641944
 30
0.0
 11
305.5621617502302
 21
207.0436511641944
 31
0.0
  0
LINE
  5
81E
330
18
100
AcDbEntity
  8
1
  6
Continuous
100
AcDbLine
 10
304.3121617502301
 20
208.2936511641944
 30
0.0
 11
304.3121617502301
 21
207.0436511641944
 31
0.0
  0
ARC
  5
81F
330
18
100
AcDbEntity
  8
1
  6
Continuous
100
AcDbCircle
 10
304.9371617502302
 20
207.0436511641944
 30
0.0
 40
0.625
100
AcDbArc
 50
180.0
 51
0.0
  0
ARC
  5
820
330
18
100
AcDbEntity
  8
1
  6
Continuous
100
AcDbCircle
 10
304.9371617502302
 20
208.2936511641944
 30
0.0
 40
0.625
100
AcDbArc
 50
0.0
 51
180.0
  0
LINE
  5
83F
330
18
100
AcDbEntity
  8
1
  6
Continuous
100
AcDbLine
 10
293.260081819193
 20
208.9186511641944
 30
0.0
 11
291.760081819193
 21
208.9186511641944
 31
0.0
  0
LINE
  5
840
330
18
100
AcDbEntity
  8
1
  6
Continuous
100
AcDbLine
 10
292.5100818191931
 20
208.9186511641944
 30
0.0
 11
292.5100818191931
 21
206.4186511641944
 31
0.0
  0
LINE
  5
841
330
18
100
AcDbEntity
  8
1
  6
Continuous
100
AcDbLine
 10
293.9623217086916
 20
207.6686511641944
 30
0.0
 11
295.3998217086917
 21
207.6686511641944
 31
0.0
  0
LINE
  5
842
330
18
100
AcDbEntity
  8
1
  6
Continuous
100
AcDbLine
 10
293.9623217086916
 20
208.9186511641944
 30
0.0
 11
293.9623217086916
 21
206.4186511641944
 31
0.0
  0
LINE
  5
843
330
18
100
AcDbEntity
  8
1
  6
Continuous
100
AcDbLine
 10
295.3998217086917
 20
208.9186511641944
 30
0.0
 11
295.3998217086917
 21
206.4186511641944
 31
0.0
  0
LINE
  5
844
330
18
100
AcDbEntity
  8
1
  6
Continuous
100
AcDbLine
 10
296.935539723494
 20
208.9186511641944
 30
0.0
 11
297.685539723494
 21
206.4186511641944
 31
0.0
  0
LINE
  5
845
330
18
100
AcDbEntity
  8
1
  6
Continuous
100
AcDbLine
 10
299.6055360557129
 20
207.6686511641944
 30
0.0
 11
298.4316378751311
 21
207.6686511641944
 31
0.0
  0
LINE
  5
846
330
18
100
AcDbEntity
  8
1
  6
Continuous
100
AcDbLine
 10
296.1855397234939
 20
206.4186511641944
 30
0.0
 11
296.935539723494
 21
208.9186511641944
 31
0.0
  0
LINE
  5
847
330
18
100
AcDbEntity
  8
1
  6
Continuous
100
AcDbLine
 10
296.466789723494
 20
207.3561511641944
 30
0.0
 11
297.4042897234939
 21
207.3561511641944
 31
0.0
  0
LINE
  5
84F
330
18
100
AcDbEntity
  8
1
  6
Continuous
100
AcDbLine
 10
235.1469016938519
 20
174.9186511640164
 30
0.0
 11
236.1469016941895
 21
175.4960014334002
 31
0.0
  0
LINE
  5
850
330
18
100
AcDbEntity
  8
4
  6
CENTER
100
AcDbLine
 10
228.4932667136985
 20
174.9186511640118
 30
0.0
 11
240.2469016938518
 21
174.918651164019
 31
0.0
  0
ARC
  5
851
330
18
100
AcDbEntity
  8
1
  6
Continuous
100
AcDbCircle
 10
336.1430673374471
 20
227.9186511641896
 30
0.0
 40
1.832842865565158
100
AcDbArc
 50
327.9946167919192
 51
32.00538320808073
  0
LINE
  5
852
330
18
100
AcDbEntity
  8
1
  6
Continuous
100
AcDbLine
 10
335.7845113360902
 20
229.1686511641896
 30
0.0
 11
334.2845113360902
 21
229.1686511641896
 31
0.0
  0
LINE
  5
853
330
18
100
AcDbEntity
  8
1
  6
Continuous
100
AcDbLine
 10
335.0345113360901
 20
229.1686511641896
 30
0.0
 11
335.0345113360901
 21
226.6686511641896
 31
0.0
  0
ARC
  5
854
330
18
100
AcDbEntity
  8
1
  6
Continuous
100
AcDbCircle
 10
338.2462530685776
 20
227.9186511641896
 30
0.0
 40
1.832842865565158
100
AcDbArc
 50
147.9946167919192
 51
212.0053832080805
  0
ARC
  5
855
330
18
100
AcDbEntity
  8
1
  6
Continuous
100
AcDbCircle
 10
337.1946602030125
 20
228.575896705168
 30
0.0
 40
0.5927544590217826
100
AcDbArc
 50
32.00538320808073
 51
147.9946167919192
  0
ARC
  5
856
330
18
100
AcDbEntity
  8
1
  6
Continuous
100
AcDbCircle
 10
337.1946602030125
 20
227.2614056232113
 30
0.0
 40
0.5927544590217826
100
AcDbArc
 50
212.0053832080805
 51
327.9946167919192
  0
LINE
  5
857
330
18
100
AcDbEntity
  8
1
  6
Continuous
100
AcDbLine
 10
340.2644190686404
 20
227.9186511641896
 30
0.0
 11
339.0905208880585
 21
227.9186511641896
 31
0.0
  0
ARC
  5
858
330
18
100
AcDbEntity
  8
1
  6
Continuous
100
AcDbCircle
 10
341.8972262124095
 20
227.2936511641896
 30
0.0
 40
0.6250000000000006
100
AcDbArc
 50
180.0
 51
90.0
  0
ARC
  5
859
330
18
100
AcDbEntity
  8
1
  6
Continuous
100
AcDbCircle
 10
341.8972262124095
 20
228.5436511641896
 30
0.0
 40
0.625
100
AcDbArc
 50
270.0
 51
180.0
  0
LINE
  5
85A
330
18
100
AcDbEntity
  8
1
  6
Continuous
100
AcDbLine
 10
341.8972262124095
 20
227.9186511641896
 30
0.0
 11
341.7095220637556
 21
227.9186511641896
 31
0.0
  0
ARC
  5
85B
330
18
100
AcDbEntity
  8
1
  6
Continuous
100
AcDbCircle
 10
344.1612085609223
 20
228.5436511641896
 30
0.0
 40
0.625
100
AcDbArc
 50
0.0
 51
180.0
  0
ARC
  5
85C
330
18
100
AcDbEntity
  8
1
  6
Continuous
100
AcDbCircle
 10
344.1612085609223
 20
227.2936511641896
 30
0.0
 40
0.625
100
AcDbArc
 50
180.0
 51
0.0
  0
LINE
  5
85D
330
18
100
AcDbEntity
  8
1
  6
Continuous
100
AcDbLine
 10
343.5362085609223
 20
228.5436511641896
 30
0.0
 11
343.5362085609223
 21
227.2936511641896
 31
0.0
  0
LINE
  5
85E
330
18
100
AcDbEntity
  8
1
  6
Continuous
100
AcDbLine
 10
344.7862085609223
 20
228.5436511641896
 30
0.0
 11
344.7862085609223
 21
227.2936511641896
 31
0.0
  0
ARC
  5
85F
330
18
100
AcDbEntity
  8
1
  6
Continuous
100
AcDbCircle
 10
346.3306405221231
 20
228.5436511641896
 30
0.0
 40
0.6250000000000006
100
AcDbArc
 50
323.1301023541547
 51
180.0
  0
LINE
  5
860
330
18
100
AcDbEntity
  8
1
  6
Continuous
100
AcDbLine
 10
346.8306405221234
 20
228.1686511641896
 30
0.0
 11
345.705640522123
 21
226.6686511641896
 31
0.0
  0
LINE
  5
861
330
18
100
AcDbEntity
  8
1
  6
Continuous
100
AcDbLine
 10
346.955640522123
 20
226.6686511641896
 30
0.0
 11
345.705640522123
 21
226.6686511641896
 31
0.0
  0
LINE
  5
862
330
18
100
AcDbEntity
  8
1
  6
Continuous
100
AcDbLine
 10
349.2047712320961
 20
227.9186511641896
 30
0.0
 11
348.0308730515143
 21
227.9186511641896
 31
0.0
  0
ARC
  5
863
330
18
100
AcDbEntity
  8
1
  6
Continuous
100
AcDbCircle
 10
350.9370542951277
 20
228.5436511641896
 30
0.0
 40
0.625
100
AcDbArc
 50
0.0
 51
180.0
  0
ARC
  5
864
330
18
100
AcDbEntity
  8
1
  6
Continuous
100
AcDbCircle
 10
350.9370542951277
 20
227.2936511641896
 30
0.0
 40
0.625
100
AcDbArc
 50
180.0
 51
0.0
  0
LINE
  5
865
330
18
100
AcDbEntity
  8
1
  6
Continuous
100
AcDbLine
 10
350.3120542951275
 20
228.5436511641896
 30
0.0
 11
350.3120542951275
 21
227.2936511641896
 31
0.0
  0
LINE
  5
866
330
18
100
AcDbEntity
  8
1
  6
Continuous
100
AcDbLine
 10
351.5620542951277
 20
228.5436511641896
 30
0.0
 11
351.5620542951277
 21
227.2936511641896
 31
0.0
  0
LINE
  5
867
330
18
100
AcDbEntity
  8
1
  6
Continuous
100
AcDbLine
 10
305.4510403621633
 20
212.4186511641944
 30
0.0
 11
306.2010403621633
 21
211.1686511641944
 31
0.0
  0
ARC
  5
868
330
18
100
AcDbEntity
  8
1
  6
Continuous
100
AcDbCircle
 10
296.9902866429301
 20
211.8258967051725
 30
0.0
 40
0.5927544590217826
100
AcDbArc
 50
32.00538320808073
 51
147.9946167919192
  0
ARC
  5
869
330
18
100
AcDbEntity
  8
1
  6
Continuous
100
AcDbCircle
 10
293.6186378205501
 20
211.1686511641944
 30
0.0
 40
1.832842865565158
100
AcDbArc
 50
327.9946167919192
 51
32.00538320808073
  0
ARC
  5
86A
330
18
100
AcDbEntity
  8
1
  6
Continuous
100
AcDbCircle
 10
298.0418795084954
 20
211.1686511641944
 30
0.0
 40
1.832842865565158
100
AcDbArc
 50
147.9946167919192
 51
212.0053832080805
  0
ARC
  5
86B
330
18
100
AcDbEntity
  8
1
  6
Continuous
100
AcDbCircle
 10
296.9902866429301
 20
210.5114056232161
 30
0.0
 40
0.5927544590217826
100
AcDbArc
 50
212.0053832080805
 51
327.9946167919192
  0
LINE
  5
86C
330
18
100
AcDbEntity
  8
1
  6
Continuous
100
AcDbLine
 10
293.260081819193
 20
212.4186511641944
 30
0.0
 11
291.760081819193
 21
212.4186511641944
 31
0.0
  0
LINE
  5
86D
330
18
100
AcDbEntity
  8
1
  6
Continuous
100
AcDbLine
 10
292.5100818191931
 20
212.4186511641944
 30
0.0
 11
292.5100818191931
 21
209.9186511641944
 31
0.0
  0
ARC
  5
86E
330
18
100
AcDbEntity
  8
1
  6
Continuous
100
AcDbCircle
 10
295.7218235516807
 20
211.1686511641944
 30
0.0
 40
1.832842865565158
100
AcDbArc
 50
147.9946167919192
 51
212.0053832080805
  0
ARC
  5
86F
330
18
100
AcDbEntity
  8
1
  6
Continuous
100
AcDbCircle
 10
294.6702306861153
 20
211.8258967051725
 30
0.0
 40
0.5927544590217826
100
AcDbArc
 50
32.00538320808073
 51
147.9946167919192
  0
ARC
  5
870
330
18
100
AcDbEntity
  8
1
  6
Continuous
100
AcDbCircle
 10
294.6702306861153
 20
210.5114056232161
 30
0.0
 40
0.5927544590217826
100
AcDbArc
 50
212.0053832080805
 51
327.9946167919192
  0
LINE
  5
871
330
18
100
AcDbEntity
  8
1
  6
Continuous
100
AcDbLine
 10
304.5918141267188
 20
212.4186511641944
 30
0.0
 11
304.5918141267188
 21
209.9186511641944
 31
0.0
  0
ARC
  5
872
330
18
100
AcDbEntity
  8
1
  6
Continuous
100
AcDbCircle
 10
301.7076819284145
 20
211.2892311580101
 30
0.0
 40
1.901006672846339
100
AcDbArc
 50
324.9406618563501
 51
356.3633132383579
  0
LINE
  5
873
330
18
100
AcDbEntity
  8
1
  6
Continuous
100
AcDbLine
 10
303.6048605798066
 20
211.1686511641944
 30
0.0
 11
303.6048605798066
 21
210.0397863551456
 31
0.0
  0
LINE
  5
874
330
18
100
AcDbEntity
  8
1
  6
Continuous
100
AcDbLine
 10
303.6048605798066
 20
211.1686511641944
 30
0.0
 11
302.7434623992248
 21
211.1686511641944
 31
0.0
  0
ARC
  5
875
330
18
100
AcDbEntity
  8
1
  6
Continuous
100
AcDbCircle
 10
301.7076819284145
 20
211.0480711703785
 30
0.0
 40
1.901006672846339
100
AcDbArc
 50
25.72010630391563
 51
35.05933814364976
  0
LINE
  5
876
330
18
100
AcDbEntity
  8
1
  6
Continuous
100
AcDbLine
 10
300.8205130242483
 20
212.4186511641944
 30
0.0
 11
300.8205130242483
 21
209.9186511641944
 31
0.0
  0
LINE
  5
877
330
18
100
AcDbEntity
  8
1
  6
Continuous
100
AcDbLine
 10
299.7580130242484
 20
212.4186511641944
 30
0.0
 11
299.7580130242484
 21
209.9186511641944
 31
0.0
  0
ARC
  5
878
330
18
100
AcDbEntity
  8
1
  6
Continuous
100
AcDbCircle
 10
303.7502034453718
 20
211.1686511641944
 30
0.0
 40
1.832842865565158
100
AcDbArc
 50
147.9946167919192
 51
212.0053832080805
  0
LINE
  5
879
330
18
100
AcDbEntity
  8
1
  6
Continuous
100
AcDbLine
 10
298.3205130242483
 20
212.4186511641944
 30
0.0
 11
298.3205130242483
 21
209.9186511641944
 31
0.0
  0
LINE
  5
87A
330
18
100
AcDbEntity
  8
1
  6
Continuous
100
AcDbLine
 10
298.3205130242483
 20
211.1686511641944
 30
0.0
 11
299.7580130242484
 21
211.1686511641944
 31
0.0
  0
ARC
  5
87B
330
18
100
AcDbEntity
  8
1
  6
Continuous
100
AcDbCircle
 10
302.7298605798066
 20
211.7677613115995
 30
0.0
 40
0.6508898525948183
100
AcDbArc
 50
34.88826809940436
 51
145.1117319005956
  0
ARC
  5
87C
330
18
100
AcDbEntity
  8
1
  6
Continuous
100
AcDbCircle
 10
302.7298605798066
 20
210.5695410167891
 30
0.0
 40
0.6508898525948183
100
AcDbArc
 50
214.8882680994042
 51
325.1117319005956
  0
LINE
  5
87D
330
18
100
AcDbEntity
  8
1
  6
Continuous
100
AcDbLine
 10
307.2201122786476
 20
209.9186511641944
 30
0.0
 11
307.9701122786476
 21
212.4186511641944
 31
0.0
  0
LINE
  5
87E
330
18
100
AcDbEntity
  8
1
  6
Continuous
100
AcDbLine
 10
307.9701122786476
 20
212.4186511641944
 30
0.0
 11
308.7201122786476
 21
209.9186511641944
 31
0.0
  0
LINE
  5
87F
330
18
100
AcDbEntity
  8
1
  6
Continuous
100
AcDbLine
 10
307.5013622786476
 20
210.8561511641944
 30
0.0
 11
308.4388622786476
 21
210.8561511641944
 31
0.0
  0
LINE
  5
880
330
18
100
AcDbEntity
  8
1
  6
Continuous
100
AcDbLine
 10
306.2010403621633
 20
211.1686511641944
 30
0.0
 11
306.2010403621633
 21
209.9186511641944
 31
0.0
  0
LINE
  5
881
330
18
100
AcDbEntity
  8
1
  6
Continuous
100
AcDbLine
 10
306.2010403621633
 20
211.1686511641944
 30
0.0
 11
306.9510403621634
 21
212.4186511641944
 31
0.0
  0
LINE
  5
882
330
18
100
AcDbEntity
  8
1
  6
Continuous
100
AcDbLine
 10
307.1729338615791
 20
207.6686511641944
 30
0.0
 11
305.9990356809973
 21
207.6686511641944
 31
0.0
  0
LINE
  5
887
330
18
100
AcDbEntity
  8
1
  6
Continuous
100
AcDbLine
 10
281.7707830691712
 20
217.9186511641896
 30
0.0
 11
356.7707830691714
 21
217.9186511641896
 31
0.0
  0
LINE
  5
888
330
18
100
AcDbEntity
  8
1
  6
Continuous
100
AcDbLine
 10
351.7707830691715
 20
237.9186511641896
 30
0.0
 11
361.7707830691715
 21
227.9186511641896
 31
0.0
  0
ARC
  5
889
330
18
100
AcDbEntity
  8
1
  6
Continuous
100
AcDbCircle
 10
356.7707830691714
 20
222.9186511641896
 30
0.0
 40
5.0
100
AcDbArc
 50
270.0
 51
0.0
  0
LINE
  5
88A
330
18
100
AcDbEntity
  8
1
  6
Continuous
100
AcDbLine
 10
361.7707830691715
 20
222.9186511641896
 30
0.0
 11
361.7707830691715
 21
227.9186511641896
 31
0.0
  0
LINE
  5
88B
330
18
100
AcDbEntity
  8
1
  6
Continuous
100
AcDbLine
 10
331.7707830691714
 20
237.9186511641896
 30
0.0
 11
351.7707830691715
 21
237.9186511641896
 31
0.0
  0
ARC
  5
88C
330
18
100
AcDbEntity
  8
1
  6
Continuous
100
AcDbCircle
 10
321.7707830691715
 20
247.9186511641896
 30
0.0
 40
5.0
100
AcDbArc
 50
0.0
 51
90.0
  0
ARC
  5
88D
330
18
100
AcDbEntity
  8
1
  6
Continuous
100
AcDbCircle
 10
331.7707830691714
 20
242.9186511641896
 30
0.0
 40
5.0
100
AcDbArc
 50
180.0
 51
270.0
  0
LINE
  5
88E
330
18
100
AcDbEntity
  8
1
  6
Continuous
100
AcDbLine
 10
326.7707830691715
 20
242.9186511641896
 30
0.0
 11
326.7707830691715
 21
247.9186511641896
 31
0.0
  0
LINE
  5
88F
330
18
100
AcDbEntity
  8
1
  6
Continuous
100
AcDbLine
 10
281.7707830691712
 20
252.9186511641896
 30
0.0
 11
321.7707830691715
 21
252.9186511641896
 31
0.0
  0
LINE
  5
890
330
18
100
AcDbEntity
  8
1
  6
Continuous
100
AcDbLine
 10
276.7707830691712
 20
222.9186511641896
 30
0.0
 11
276.7707830691712
 21
247.9186511641896
 31
0.0
  0
ARC
  5
891
330
18
100
AcDbEntity
  8
1
  6
Continuous
100
AcDbCircle
 10
281.7707830691712
 20
247.9186511641896
 30
0.0
 40
5.0
100
AcDbArc
 50
90.0
 51
180.0
  0
ARC
  5
892
330
18
100
AcDbEntity
  8
1
  6
Continuous
100
AcDbCircle
 10
281.7707830691712
 20
222.9186511641896
 30
0.0
 40
5.0
100
AcDbArc
 50
180.0
 51
270.0
  0
CIRCLE
  5
893
330
18
100
AcDbEntity
  8
1
  6
Continuous
100
AcDbCircle
 10
281.7707830691712
 20
222.9186511641896
 30
0.0
 40
2.0
  0
LINE
  5
894
330
18
100
AcDbEntity
  8
4
  6
CENTER
100
AcDbLine
 10
285.2707830691711
 20
222.9186511641896
 30
0.0
 11
278.2707830691712
 21
222.9186511641896
 31
0.0
  0
LINE
  5
895
330
18
100
AcDbEntity
  8
4
  6
CENTER
100
AcDbLine
 10
281.7707830691712
 20
226.4186511641895
 30
0.0
 11
281.7707830691712
 21
219.4186511641896
 31
0.0
  0
LINE
  5
896
330
18
100
AcDbEntity
  8
4
  6
CENTER
100
AcDbLine
 10
81.5697373535686
 20
227.918651164017
 30
0.0
 11
103.769737353564
 21
227.918651164032
 31
0.0
  0
LINE
  5
897
330
18
100
AcDbEntity
  8
1
  6
Continuous
100
AcDbLine
 10
235.1469016938519
 20
243.118651164023
 30
0.0
 11
235.1469016938519
 21
250.718651164023
 31
0.0
  0
LINE
  5
898
330
18
100
AcDbEntity
  8
1
  6
Continuous
100
AcDbLine
 10
236.1469016938519
 20
243.118651164024
 30
0.0
 11
236.1469016938519
 21
250.7186511640242
 31
0.0
  0
ARC
  5
899
330
18
100
AcDbEntity
  8
1
  6
Continuous
100
AcDbCircle
 10
229.746901693852
 20
246.918651164024
 30
0.0
 40
9.0
100
AcDbArc
 50
344.1191499917214
 51
15.88085000827869
  0
LINE
  5
89A
330
18
100
AcDbEntity
  8
1
  6
Continuous
100
AcDbLine
 10
230.646901693848
 20
242.1186511640326
 30
0.0
 11
230.6469016938558
 21
251.7186511640326
 31
0.0
  0
LINE
  5
89B
330
18
100
AcDbEntity
  8
4
  6
CENTER
100
AcDbLine
 10
228.4932667136985
 20
246.9186511640209
 30
0.0
 11
240.2469016938518
 21
246.9186511640283
 31
0.0
  0
LINE
  5
89C
330
18
100
AcDbEntity
  8
1
  6
Continuous
100
AcDbLine
 10
235.1469016938519
 20
246.9186511640255
 30
0.0
 11
236.1469016941895
 21
247.4960014334094
 31
0.0
  0
ARC
  5
89D
330
18
100
AcDbEntity
  8
1
  6
Continuous
100
AcDbCircle
 10
237.1530144180745
 20
244.8116404104379
 30
0.0
 40
1.3
100
AcDbArc
 50
274.9999999999997
 51
344.1191499917214
  0
LINE
  5
89E
330
18
100
AcDbEntity
  8
1
  6
Continuous
100
AcDbLine
 10
236.1469016938519
 20
243.418651164024
 30
0.0
 11
237.2663168836862
 21
243.5165873024649
 31
0.0
  0
LINE
  5
89F
330
18
100
AcDbEntity
  8
1
  6
Continuous
100
AcDbLine
 10
235.1469016938519
 20
243.118651164023
 30
0.0
 11
236.1469016938519
 21
243.118651164024
 31
0.0
  0
LINE
  5
8A0
330
18
100
AcDbEntity
  8
1
  6
Continuous
100
AcDbLine
 10
235.1469016935143
 20
246.3413008946421
 30
0.0
 11
236.1469016938519
 21
246.918651164026
 31
0.0
  0
ARC
  5
8A1
330
18
100
AcDbEntity
  8
1
  6
Continuous
100
AcDbCircle
 10
234.6469016938491
 20
243.6186511640574
 30
0.0
 40
0.5
100
AcDbArc
 50
298.0724869365628
 51
359.9999999999552
  0
ARC
  5
8A2
330
18
100
AcDbEntity
  8
1
  6
Continuous
100
AcDbCircle
 10
230.6469016938553
 20
251.1186511638232
 30
0.0
 40
8.999999999790484
100
AcDbArc
 50
269.9999999999544
 51
298.0724869365628
  0
LINE
  5
8A3
330
18
100
AcDbEntity
  8
1
  6
Continuous
100
AcDbLine
 10
236.1469016938519
 20
250.4186511640241
 30
0.0
 11
237.2663168836528
 21
250.3207150253566
 31
0.0
  0
ARC
  5
8A4
330
18
100
AcDbEntity
  8
1
  6
Continuous
100
AcDbCircle
 10
237.1530144180607
 20
249.0256619176069
 30
0.0
 40
1.3
100
AcDbArc
 50
15.88085000827869
 51
85.00000000000019
  0
LINE
  5
8A5
330
18
100
AcDbEntity
  8
1
  6
Continuous
100
AcDbLine
 10
235.1469016938519
 20
250.718651164023
 30
0.0
 11
236.1469016938519
 21
250.7186511640241
 31
0.0
  0
ARC
  5
8A6
330
18
100
AcDbEntity
  8
1
  6
Continuous
100
AcDbCircle
 10
234.646901693856
 20
250.2186511640574
 30
0.0
 40
0.5
100
AcDbArc
 50
359.9999999999552
 51
61.92751306485398
  0
ARC
  5
8A7
330
18
100
AcDbEntity
  8
1
  6
Continuous
100
AcDbCircle
 10
230.6469016938501
 20
242.7186511638236
 30
0.0
 40
9.000000000209023
100
AcDbArc
 50
61.92751306485398
 51
89.99999999995441
  0
LINE
  5
965
330
18
100
AcDbEntity
  8
4
  6
CENTER
100
AcDbLine
 10
292.9707830691593
 20
151.1132477617813
 30
0.0
 11
307.5707830691641
 21
151.1132477617894
 31
0.0
  0
LINE
  5
966
330
18
100
AcDbEntity
  8
1
  6
Continuous
100
AcDbLine
 10
230.646901693848
 20
329.5698949142026
 30
0.0
 11
230.646901693848
 21
317.9698949142025
 31
0.0
  0
LINE
  5
968
330
18
100
AcDbEntity
  8
1
  6
Continuous
100
AcDbLine
 10
235.146901693848
 20
328.0698949141746
 30
0.0
 11
235.146901693848
 21
319.4698949141745
 31
0.0
  0
ARC
  5
96A
330
18
100
AcDbEntity
  8
1
  6
Continuous
100
AcDbCircle
 10
230.646901693848
 20
320.5698949144119
 30
0.0
 40
8.999999999790484
100
AcDbArc
 50
61.92751306339509
 51
89.99999999999998
  0
ARC
  5
96C
330
18
100
AcDbEntity
  8
1
  6
Continuous
100
AcDbCircle
 10
234.6469016938478
 20
328.0698949141746
 30
0.0
 40
0.5
100
AcDbArc
 50
0.0
 51
61.92751306339509
  0
CIRCLE
  5
96E
330
18
100
AcDbEntity
  8
1
  6
Continuous
100
AcDbCircle
 10
300.2707830691738
 20
151.1132477617855
 30
0.0
 40
3.799999999999998
  0
LINE
  5
974
330
18
100
AcDbEntity
  8
1
  6
Continuous
100
AcDbLine
 10
299.2707830691595
 20
155.9132477617919
 30
0.0
 11
301.2707830691642
 21
155.9132477617919
 31
0.0
  0
ARC
  5
975
330
18
100
AcDbEntity
  8
1
  6
Continuous
100
AcDbCircle
 10
230.646901693848
 20
326.9698949144113
 30
0.0
 40
9.000000000209025
100
AcDbArc
 50
270.0
 51
298.0724869351026
  0
ARC
  5
977
330
18
100
AcDbEntity
  8
1
  6
Continuous
100
AcDbCircle
 10
234.6469016938478
 20
319.4698949141745
 30
0.0
 40
0.5
100
AcDbArc
 50
298.0724869351026
 51
0.0
  0
ARC
  5
97A
330
18
100
AcDbEntity
  8
1
  6
Continuous
100
AcDbCircle
 10
299.2707830691595
 20
151.1132477617919
 30
0.0
 40
4.800000000000012
100
AcDbArc
 50
90.0
 51
270.0
  0
ARC
  5
97C
330
18
100
AcDbEntity
  8
1
  6
Continuous
100
AcDbCircle
 10
301.2707830691642
 20
151.1132477617919
 30
0.0
 40
4.799999999999997
100
AcDbArc
 50
270.0
 51
90.0
  0
LINE
  5
97D
330
18
100
AcDbEntity
  8
4
  6
CENTER
100
AcDbLine
 10
300.2707830691763
 20
144.8132477617918
 30
0.0
 11
300.2707830691712
 21
157.4132477617919
 31
0.0
  0
LINE
  5
97E
330
18
100
AcDbEntity
  8
1
  6
Continuous
100
AcDbLine
 10
299.2707830691595
 20
146.3132477617919
 30
0.0
 11
301.2707830691642
 21
146.3132477617919
 31
0.0
  0
LINE
  5
97F
330
18
100
AcDbEntity
  8
4
  6
CENTER
100
AcDbLine
 10
240.2476353170227
 20
323.7698949142
 30
0.0
 11
229.146901693848
 21
323.7698949142031
 31
0.0
  0
ARC
  5
A7A
330
18
100
AcDbEntity
  8
1
  6
Continuous
100
AcDbCircle
 10
299.2707830691738
 20
151.113247761783
 30
0.0
 40
3.594228634041916
100
AcDbArc
 50
94.16044765909985
 51
265.8395523411873
  0
ARC
  5
A7C
330
18
100
AcDbEntity
  8
1
  6
Continuous
100
AcDbCircle
 10
301.2707830691712
 20
151.113247761783
 30
0.0
 40
3.594228634041916
100
AcDbArc
 50
274.1604476588672
 51
85.83955234084568
  0
LINE
  5
A7E
330
18
100
AcDbEntity
  8
1
  6
Continuous
100
AcDbLine
 10
236.1469016938487
 20
319.9698949141997
 30
0.0
 11
236.1469016938487
 21
327.5698949141998
 31
0.0
  0
ARC
  5
A7F
330
18
100
AcDbEntity
  8
1
  6
Continuous
100
AcDbCircle
 10
229.7469016938489
 20
323.7698949141996
 30
0.0
 40
9.0
100
AcDbArc
 50
344.1191499917214
 51
15.88085000827869
  0
LINE
  5
A80
330
18
100
AcDbEntity
  8
1
  6
Continuous
100
AcDbLine
 10
236.1469016938487
 20
327.2698949141998
 30
0.0
 11
237.2663168836496
 21
327.1719587755321
 31
0.0
  0
ARC
  5
A81
330
18
100
AcDbEntity
  8
1
  6
Continuous
100
AcDbCircle
 10
237.1530144180575
 20
325.8769056677825
 30
0.0
 40
1.3
100
AcDbArc
 50
15.88085000827869
 51
85.00000000000019
  0
LINE
  5
A82
330
18
100
AcDbEntity
  8
1
  6
Continuous
100
AcDbLine
 10
235.1469016938488
 20
327.5698949141987
 30
0.0
 11
236.1469016938487
 21
327.5698949141997
 31
0.0
  0
LINE
  5
A83
330
18
100
AcDbEntity
  8
1
  6
Continuous
100
AcDbLine
 10
235.1469016938488
 20
323.7698949142012
 30
0.0
 11
236.1469016941863
 21
324.347245183585
 31
0.0
  0
LINE
  5
A84
330
18
100
AcDbEntity
  8
1
  6
Continuous
100
AcDbLine
 10
235.146901693511
 20
323.1925446448178
 30
0.0
 11
236.1469016938487
 21
323.7698949142016
 31
0.0
  0
ARC
  5
A85
330
18
100
AcDbEntity
  8
1
  6
Continuous
100
AcDbCircle
 10
237.1530144180715
 20
321.6628841606135
 30
0.0
 40
1.3
100
AcDbArc
 50
274.9999999999997
 51
344.1191499917214
  0
LINE
  5
A86
330
18
100
AcDbEntity
  8
1
  6
Continuous
100
AcDbLine
 10
236.1469016938487
 20
320.2698949141997
 30
0.0
 11
237.2663168836832
 21
320.3678310526405
 31
0.0
  0
LINE
  5
A87
330
18
100
AcDbEntity
  8
1
  6
Continuous
100
AcDbLine
 10
235.1469016938488
 20
319.9698949141986
 30
0.0
 11
236.1469016938487
 21
319.9698949141997
 31
0.0
  0
CIRCLE
  5
AA6
330
18
100
AcDbEntity
  8
1
  6
Continuous
 48
0.25
100
AcDbCircle
 10
300.2707830691738
 20
151.1132477617854
 30
0.0
 40
3.5
  0
LINE
  5
AA7
330
18
100
AcDbEntity
  8
1
  6
Continuous
 48
0.25
100
AcDbLine
 10
300.7951634075951
 20
149.9726845237316
 30
0.0
 11
301.4287310835383
 21
149.3617442647864
 31
0.0
  0
LINE
  5
AA8
330
18
100
AcDbEntity
  8
1
  6
Continuous
 48
0.25
100
AcDbLine
 10
300.7958705143763
 20
152.2545181066206
 30
0.0
 11
301.4280239767571
 21
152.8654583655656
 31
0.0
  0
ARC
  5
AA9
330
18
100
AcDbEntity
  8
1
  6
Continuous
 48
0.25
100
AcDbCircle
 10
300.2697830691736
 20
151.1132477617854
 30
0.0
 40
2.1
100
AcDbArc
 50
213.4630000000009
 51
236.5370000000051
  0
ARC
  5
AAA
330
18
100
AcDbEntity
  8
1
  6
Continuous
 48
0.25
100
AcDbCircle
 10
300.2697830691736
 20
151.1132477617854
 30
0.0
 40
2.1
100
AcDbArc
 50
123.4629999999947
 51
146.5369999999989
  0
LINE
  5
AAB
330
18
100
AcDbEntity
  8
1
  6
Continuous
 48
0.25
100
AcDbLine
 10
299.1292198311198
 20
150.587867423364
 30
0.0
 11
298.5182795721746
 21
149.955713960983
 31
0.0
  0
LINE
  5
AAC
330
18
100
AcDbEntity
  8
1
  6
Continuous
 48
0.25
100
AcDbLine
 10
299.1292198311198
 20
151.6386281002071
 30
0.0
 11
298.5182795721746
 21
152.2707815625879
 31
0.0
  0
LINE
  5
AAD
330
18
100
AcDbEntity
  8
1
  6
Continuous
 48
0.25
100
AcDbLine
 10
300.270490175955
 20
150.1636033546519
 30
0.0
 11
300.7951634075951
 21
149.9726845237316
 31
0.0
  0
LINE
  5
AAE
330
18
100
AcDbEntity
  8
1
  6
Continuous
 48
0.25
100
AcDbLine
 10
299.3201386620403
 20
151.1139548685666
 30
0.0
 11
299.1292198311198
 21
150.587867423364
 31
0.0
  0
LINE
  5
AAF
330
18
100
AcDbEntity
  8
1
  6
Continuous
 48
0.25
100
AcDbLine
 10
299.7444027307522
 20
149.9726845237316
 30
0.0
 11
299.1122492683712
 21
149.3617442647864
 31
0.0
  0
LINE
  5
AB0
330
18
100
AcDbEntity
  8
1
  6
Continuous
 48
0.25
100
AcDbLine
 10
300.270490175955
 20
150.1636033546519
 30
0.0
 11
299.7444027307522
 21
149.9726845237316
 31
0.0
  0
LINE
  5
AB1
330
18
100
AcDbEntity
  8
1
  6
Continuous
 48
0.25
100
AcDbLine
 10
300.2697830691736
 20
152.0635992757002
 30
0.0
 11
299.7451098375334
 21
152.2545181066206
 31
0.0
  0
LINE
  5
AB2
330
18
100
AcDbEntity
  8
1
  6
Continuous
 48
0.25
100
AcDbLine
 10
299.7451098375334
 20
152.2545181066206
 30
0.0
 11
299.1122492683714
 21
152.8647512587846
 31
0.0
  0
LINE
  5
AB3
330
18
100
AcDbEntity
  8
1
  6
Continuous
 48
0.25
100
AcDbLine
 10
299.3201386620403
 20
151.1139548685666
 30
0.0
 11
299.1292198311198
 21
151.6386281002071
 31
0.0
  0
LINE
  5
AB4
330
18
100
AcDbEntity
  8
1
  6
Continuous
 48
0.25
100
AcDbLine
 10
300.2697830691736
 20
152.0635992757002
 30
0.0
 11
300.7958705143763
 21
152.2545181066206
 31
0.0
  0
ARC
  5
AB5
330
18
100
AcDbEntity
  8
1
  6
Continuous
 48
0.25
100
AcDbCircle
 10
300.2697830691736
 20
151.1132477617854
 30
0.0
 40
2.1
100
AcDbArc
 50
303.4629999999946
 51
326.5369999999989
  0
ARC
  5
AB6
330
18
100
AcDbEntity
  8
1
  6
Continuous
 48
0.25
100
AcDbCircle
 10
300.2697830691736
 20
151.1132477617854
 30
0.0
 40
2.1
100
AcDbArc
 50
33.46300000000105
 51
56.53700000000527
  0
LINE
  5
AB7
330
18
100
AcDbEntity
  8
1
  6
Continuous
 48
0.25
100
AcDbLine
 10
301.4110534140089
 20
150.588574530145
 30
0.0
 11
302.021993672954
 21
149.955006854202
 31
0.0
  0
LINE
  5
AB8
330
18
100
AcDbEntity
  8
1
  6
Continuous
 48
0.25
100
AcDbLine
 10
301.2201345830884
 20
151.1132477617855
 30
0.0
 11
301.4110534140089
 21
150.588574530145
 31
0.0
  0
LINE
  5
AB9
330
18
100
AcDbEntity
  8
1
  6
Continuous
 48
0.25
100
AcDbLine
 10
301.4110534140089
 20
151.6393352069884
 30
0.0
 11
302.021993672954
 21
152.2714886693691
 31
0.0
  0
LINE
  5
ABA
330
18
100
AcDbEntity
  8
1
  6
Continuous
 48
0.25
100
AcDbLine
 10
301.2201345830884
 20
151.1132477617855
 30
0.0
 11
301.4110534140089
 21
151.6393352069884
 31
0.0
  0
LINE
  5
111B
330
18
100
AcDbEntity
  8
1
  6
Continuous
100
AcDbLine
 10
41.06117733024039
 20
237.918651163988
 30
0.0
 11
31.06117733024041
 21
227.918651163988
 31
0.0
  0
LINE
  5
111E
330
18
100
AcDbEntity
  8
1
  6
Continuous
100
AcDbLine
 10
116.0611773302405
 20
222.918651163988
 30
0.0
 11
116.0611773302405
 21
247.9186511639881
 31
0.0
  0
LINE
  5
1149
330
18
100
AcDbEntity
  8
1
  6
Continuous
100
AcDbLine
 10
111.0611773302405
 20
217.9186511639882
 30
0.0
 11
106.5611773304023
 21
217.9186511639882
 31
0.0
  0
ARC
  5
11B8
330
18
100
AcDbEntity
  8
1
  6
Continuous
100
AcDbCircle
 10
111.0611773302405
 20
222.918651163988
 30
0.0
 40
5.0
100
AcDbArc
 50
270.0
 51
0.000000000000007
  0
CIRCLE
  5
11DB
330
18
100
AcDbEntity
  8
1
  6
Continuous
100
AcDbCircle
 10
111.0611773302405
 20
222.918651163988
 30
0.0
 40
2.0
  0
LINE
  5
11DC
330
18
100
AcDbEntity
  8
4
  6
CENTER
100
AcDbLine
 10
111.0611773302405
 20
226.4186511639882
 30
0.0
 11
111.0611773302405
 21
219.418651163988
 31
0.0
  0
LINE
  5
11DD
330
18
100
AcDbEntity
  8
4
  6
CENTER
100
AcDbLine
 10
107.5611773302405
 20
222.918651163988
 30
0.0
 11
114.5611773302406
 21
222.918651163988
 31
0.0
  0
ARC
  5
1252
330
18
100
AcDbEntity
  8
1
  6
Continuous
100
AcDbCircle
 10
36.0611773302404
 20
222.918651163988
 30
0.0
 40
5.0
100
AcDbArc
 50
180.0
 51
270.0
  0
LINE
  5
1257
330
18
100
AcDbEntity
  8
1
  6
Continuous
100
AcDbLine
 10
31.06117733024041
 20
222.918651163988
 30
0.0
 11
31.06117733024041
 21
227.918651163988
 31
0.0
  0
ARC
  5
1259
330
18
100
AcDbEntity
  8
1
  6
Continuous
100
AcDbCircle
 10
71.06117733024039
 20
247.9186511639881
 30
0.0
 40
5.0
100
AcDbArc
 50
90.0
 51
180.0
  0
ARC
  5
125D
330
18
100
AcDbEntity
  8
1
  6
Continuous
100
AcDbCircle
 10
111.0611773302405
 20
247.9186511639881
 30
0.0
 40
5.0
100
AcDbArc
 50
0.000000000000007
 51
90.0
  0
LINE
  5
127B
330
18
100
AcDbEntity
  8
1
  6
Continuous
100
AcDbLine
 10
111.0611773302405
 20
252.9186511639881
 30
0.0
 11
71.06117733024039
 21
252.9186511639881
 31
0.0
  0
LINE
  5
127C
330
18
100
AcDbEntity
  8
1
  6
Continuous
100
AcDbLine
 10
61.0611773302404
 20
237.918651163988
 30
0.0
 11
41.06117733024039
 21
237.918651163988
 31
0.0
  0
ARC
  5
127D
330
18
100
AcDbEntity
  8
1
  6
Continuous
100
AcDbCircle
 10
61.0611773302404
 20
242.9186511639882
 30
0.0
 40
5.0
100
AcDbArc
 50
270.0
 51
0.000000000000007
  0
LINE
  5
1285
330
18
100
AcDbEntity
  8
1
  6
Continuous
100
AcDbLine
 10
66.06117733024039
 20
242.9186511639882
 30
0.0
 11
66.06117733024039
 21
247.9186511639881
 31
0.0
  0
LINE
  5
133C
330
18
100
AcDbEntity
  8
1
  6
Continuous
100
AcDbLine
 10
78.5611773304654
 20
217.9186511639882
 30
0.0
 11
36.0611773302404
 21
217.9186511639882
 31
0.0
  0
LINE
  5
148E
330
18
100
AcDbEntity
  8
4
  6
CENTER
100
AcDbLine
 10
305.2707830691715
 20
246.9186511641896
 30
0.0
 11
295.2707830691712
 21
246.9186511641896
 31
0.0
  0
LINE
  5
1528
330
18
100
AcDbEntity
  8
1
  6
Continuous
100
AcDbLine
 10
203.0469016937966
 20
327.2698949141673
 30
0.0
 11
203.5469016937967
 21
326.7698949141677
 31
0.0
  0
LINE
  5
1529
330
18
100
AcDbEntity
  8
1
  6
Continuous
100
AcDbLine
 10
203.0469016937967
 20
320.2698949141673
 30
0.0
 11
203.5469016937967
 21
320.7698949141678
 31
0.0
  0
LINE
  5
152A
330
18
100
AcDbEntity
  8
1
  6
Continuous
100
AcDbLine
 10
203.5469016937967
 20
326.7698949141678
 30
0.0
 11
203.5469016937967
 21
320.7698949141678
 31
0.0
  0
LINE
  5
152B
330
18
100
AcDbEntity
  8
1
  6
Continuous
100
AcDbLine
 10
203.0469016937969
 20
320.2698949141673
 30
0.0
 11
203.0469016937969
 21
327.2698949141673
 31
0.0
  0
LINE
  5
152C
330
18
100
AcDbEntity
  8
1
  6
Continuous
100
AcDbLine
 10
199.5469016937881
 20
327.2698949141636
 30
0.0
 11
203.0469016937967
 21
327.2698949141673
 31
0.0
  0
LINE
  5
152D
330
18
100
AcDbEntity
  8
1
  6
Continuous
100
AcDbLine
 10
199.5469016937954
 20
320.2698949141636
 30
0.0
 11
203.0469016937967
 21
320.2698949141673
 31
0.0
  0
LINE
  5
152E
330
18
100
AcDbEntity
  8
1
  6
Continuous
100
AcDbLine
 10
198.5469016937969
 20
337.7698949141598
 30
0.0
 11
199.5469016937935
 21
337.7698949141608
 31
0.0
  0
LINE
  5
152F
330
18
100
AcDbEntity
  8
1
  6
Continuous
100
AcDbLine
 10
197.0469016937967
 20
335.7698949141582
 30
0.0
 11
198.5469016937967
 21
337.7698949141598
 31
0.0
  0
LINE
  5
1530
330
18
100
AcDbEntity
  8
1
  6
Continuous
100
AcDbLine
 10
197.0469016937965
 20
311.7698949141399
 30
0.0
 11
197.0469016937967
 21
335.7698949141582
 31
0.0
  0
LINE
  5
1531
330
18
100
AcDbEntity
  8
1
  6
Continuous
100
AcDbLine
 10
199.5469016937968
 20
309.7698949141372
 30
0.0
 11
199.5469016937968
 21
337.769894914161
 31
0.0
  0
LINE
  5
1532
330
18
100
AcDbEntity
  8
1
  6
Continuous
100
AcDbLine
 10
198.5469016937967
 20
309.7698949141383
 30
0.0
 11
198.5469016937967
 21
337.769894914161
 31
0.0
  0
LINE
  5
1546
330
18
100
AcDbEntity
  8
4
  6
CENTER
100
AcDbLine
 10
218.7499118792918
 20
323.7698949142101
 30
0.0
 11
192.7406623354345
 21
323.769894914149
 31
0.0
  0
LINE
  5
1599
330
18
100
AcDbEntity
  8
1
  6
Continuous
100
AcDbLine
 10
197.0469016937967
 20
311.7698949141398
 30
0.0
 11
198.5469016937967
 21
309.7698949141383
 31
0.0
  0
LINE
  5
159A
330
18
100
AcDbEntity
  8
1
  6
Continuous
100
AcDbLine
 10
198.5469016937969
 20
309.7698949141382
 30
0.0
 11
199.5469016937935
 21
309.7698949141372
 31
0.0
  0
LINE
  5
159B
330
18
100
AcDbEntity
  8
1
  6
Continuous
100
AcDbLine
 10
214.0469016937821
 20
385.2698949143808
 30
0.0
 11
212.0469016937821
 21
385.2698949143808
 31
0.0
  0
LINE
  5
159C
330
18
100
AcDbEntity
  8
1
  6
Continuous
100
AcDbLine
 10
212.0469016937896
 20
350.2698949143808
 30
0.0
 11
214.0469016937896
 21
350.2698949143808
 31
0.0
  0
LINE
  5
159D
330
18
100
AcDbEntity
  8
1
  6
Continuous
100
AcDbLine
 10
214.0469016938003
 20
300.2698949143807
 30
0.0
 11
212.0469016938003
 21
300.2698949143807
 31
0.0
  0
LINE
  5
159E
330
18
100
AcDbEntity
  8
1
  6
Continuous
100
AcDbLine
 10
214.0469016938003
 20
300.2698949143807
 30
0.0
 11
214.0469016937821
 21
385.2698949143808
 31
0.0
  0
LINE
  5
159F
330
18
100
AcDbEntity
  8
1
  6
Continuous
100
AcDbLine
 10
212.0469016938003
 20
300.2698949143807
 30
0.0
 11
212.0469016937821
 21
385.2698949143798
 31
0.0
  0
LINE
  5
15A0
330
18
100
AcDbEntity
  8
4
  6
CENTER
100
AcDbLine
 10
218.5884582645136
 20
305.2698949143795
 30
0.0
 11
207.487724641339
 21
305.2698949143825
 31
0.0
  0
LINE
  5
15A2
330
18
100
AcDbEntity
  8
1
  6
Continuous
100
AcDbLine
 10
199.5469016937968
 20
335.2698949141643
 30
0.0
 11
212.0469016937967
 21
335.2698949141772
 31
0.0
  0
LINE
  5
15A3
330
18
100
AcDbEntity
  8
1
  6
Continuous
100
AcDbLine
 10
199.5469016937968
 20
312.2698949141337
 30
0.0
 11
212.0469016937967
 21
312.2698949141208
 31
0.0
  0
LINE
  5
15A4
330
18
100
AcDbEntity
  8
1
  6
Continuous
100
AcDbLine
 10
216.1469016937956
 20
335.7698949142031
 30
0.0
 11
217.2663168835964
 21
335.6719587755356
 31
0.0
  0
LINE
  5
15A5
330
18
100
AcDbEntity
  8
1
  6
Continuous
100
AcDbLine
 10
216.1469016937953
 20
328.7698949142031
 30
0.0
 11
217.26631688363
 21
328.8678310526439
 31
0.0
  0
LINE
  5
15A6
330
18
100
AcDbEntity
  8
1
  6
Continuous
100
AcDbLine
 10
216.1469016937956
 20
328.4698949142031
 30
0.0
 11
216.1469016937956
 21
336.0698949142031
 31
0.0
  0
LINE
  5
15A7
330
18
100
AcDbEntity
  8
1
  6
Continuous
100
AcDbLine
 10
215.1469016937956
 20
327.2698949142021
 30
0.0
 11
215.1469016937956
 21
337.2698949142021
 31
0.0
  0
LINE
  5
15A8
330
18
100
AcDbEntity
  8
1
  6
Continuous
100
AcDbLine
 10
214.3469016937955
 20
327.2698949142021
 30
0.0
 11
214.3469016937955
 21
337.2698949142021
 31
0.0
  0
LINE
  5
15A9
330
18
100
AcDbEntity
  8
1
  6
Continuous
100
AcDbLine
 10
214.046901693797
 20
329.5698949142042
 30
0.0
 11
214.3469016937953
 21
329.5698949142045
 31
0.0
  0
LINE
  5
15AA
330
18
100
AcDbEntity
  8
1
  6
Continuous
100
AcDbLine
 10
214.3469016937953
 20
327.2698949142013
 30
0.0
 11
215.1469016937956
 21
327.2698949142021
 31
0.0
  0
LINE
  5
15AB
330
18
100
AcDbEntity
  8
1
  6
Continuous
100
AcDbLine
 10
215.146901693458
 20
332.2698949140091
 30
0.0
 11
216.1469016937956
 21
332.8472451833929
 31
0.0
  0
LINE
  5
15AC
330
18
100
AcDbEntity
  8
1
  6
Continuous
100
AcDbLine
 10
215.146901693458
 20
331.6925446448207
 30
0.0
 11
216.1469016937956
 21
332.2698949142044
 31
0.0
  0
LINE
  5
15AD
330
18
100
AcDbEntity
  8
1
  6
Continuous
100
AcDbLine
 10
215.1469016937956
 20
328.4698949142021
 30
0.0
 11
216.1469016937956
 21
328.4698949142031
 31
0.0
  0
LINE
  5
15AE
330
18
100
AcDbEntity
  8
1
  6
Continuous
100
AcDbLine
 10
214.0469016937939
 20
334.9698949142041
 30
0.0
 11
214.3469016937955
 21
334.9698949142043
 31
0.0
  0
LINE
  5
15AF
330
18
100
AcDbEntity
  8
1
  6
Continuous
100
AcDbLine
 10
214.3469016937955
 20
337.2698949142013
 30
0.0
 11
215.1469016937956
 21
337.2698949142021
 31
0.0
  0
LINE
  5
15B0
330
18
100
AcDbEntity
  8
1
  6
Continuous
100
AcDbLine
 10
215.1469016937956
 20
336.0698949142021
 30
0.0
 11
216.1469016937956
 21
336.0698949142031
 31
0.0
  0
ARC
  5
15B1
330
18
100
AcDbEntity
  8
1
  6
Continuous
100
AcDbCircle
 10
209.7469016937955
 20
332.2698949142032
 30
0.0
 40
9.0
100
AcDbArc
 50
344.1191499917214
 51
15.88085000827869
  0
ARC
  5
15B2
330
18
100
AcDbEntity
  8
1
  6
Continuous
100
AcDbCircle
 10
217.1530144180183
 20
330.1628841606169
 30
0.0
 40
1.3
100
AcDbArc
 50
274.9999999999997
 51
344.1191499917214
  0
ARC
  5
15B3
330
18
100
AcDbEntity
  8
1
  6
Continuous
100
AcDbCircle
 10
217.1530144180044
 20
334.3769056677858
 30
0.0
 40
1.3
100
AcDbArc
 50
15.88085000827869
 51
85.00000000000019
  0
LINE
  5
15B4
330
18
100
AcDbEntity
  8
1
  6
Continuous
100
AcDbLine
 10
216.1469016937956
 20
318.7698949142031
 30
0.0
 11
217.2663168835964
 21
318.6719587755356
 31
0.0
  0
LINE
  5
15B5
330
18
100
AcDbEntity
  8
1
  6
Continuous
100
AcDbLine
 10
216.1469016937953
 20
311.7698949142031
 30
0.0
 11
217.26631688363
 21
311.8678310526439
 31
0.0
  0
LINE
  5
15B6
330
18
100
AcDbEntity
  8
1
  6
Continuous
100
AcDbLine
 10
216.1469016937956
 20
311.4698949142031
 30
0.0
 11
216.1469016937956
 21
319.0698949142031
 31
0.0
  0
LINE
  5
15B7
330
18
100
AcDbEntity
  8
1
  6
Continuous
100
AcDbLine
 10
215.1469016937956
 20
310.2698949142021
 30
0.0
 11
215.1469016937956
 21
320.2698949142021
 31
0.0
  0
LINE
  5
15B8
330
18
100
AcDbEntity
  8
1
  6
Continuous
100
AcDbLine
 10
214.3469016937955
 20
310.2698949142021
 30
0.0
 11
214.3469016937955
 21
320.2698949142021
 31
0.0
  0
LINE
  5
15B9
330
18
100
AcDbEntity
  8
1
  6
Continuous
100
AcDbLine
 10
215.146901693458
 20
315.2698949140091
 30
0.0
 11
216.1469016937956
 21
315.8472451833929
 31
0.0
  0
LINE
  5
15BA
330
18
100
AcDbEntity
  8
1
  6
Continuous
100
AcDbLine
 10
214.046901693797
 20
312.5698949142042
 30
0.0
 11
214.3469016937953
 21
312.5698949142043
 31
0.0
  0
LINE
  5
15BB
330
18
100
AcDbEntity
  8
1
  6
Continuous
100
AcDbLine
 10
214.3469016937953
 20
310.2698949142013
 30
0.0
 11
215.1469016937956
 21
310.2698949142021
 31
0.0
  0
LINE
  5
15BC
330
18
100
AcDbEntity
  8
1
  6
Continuous
100
AcDbLine
 10
215.1469016937956
 20
311.4698949142022
 30
0.0
 11
216.1469016937956
 21
311.4698949142031
 31
0.0
  0
LINE
  5
15BD
330
18
100
AcDbEntity
  8
1
  6
Continuous
100
AcDbLine
 10
215.146901693458
 20
314.6925446448207
 30
0.0
 11
216.1469016937956
 21
315.2698949142044
 31
0.0
  0
LINE
  5
15BE
330
18
100
AcDbEntity
  8
1
  6
Continuous
100
AcDbLine
 10
214.0469016937939
 20
317.9698949142041
 30
0.0
 11
214.3469016937955
 21
317.9698949142043
 31
0.0
  0
LINE
  5
15BF
330
18
100
AcDbEntity
  8
1
  6
Continuous
100
AcDbLine
 10
214.3469016937955
 20
320.2698949142013
 30
0.0
 11
215.1469016937956
 21
320.2698949142021
 31
0.0
  0
LINE
  5
15C0
330
18
100
AcDbEntity
  8
1
  6
Continuous
100
AcDbLine
 10
215.1469016937956
 20
319.0698949142021
 30
0.0
 11
216.1469016937956
 21
319.0698949142031
 31
0.0
  0
ARC
  5
15C1
330
18
100
AcDbEntity
  8
1
  6
Continuous
100
AcDbCircle
 10
209.7469016937955
 20
315.2698949142031
 30
0.0
 40
9.0
100
AcDbArc
 50
344.1191499917214
 51
15.88085000827869
  0
ARC
  5
15C2
330
18
100
AcDbEntity
  8
1
  6
Continuous
100
AcDbCircle
 10
217.1530144180183
 20
313.1628841606167
 30
0.0
 40
1.3
100
AcDbArc
 50
274.9999999999997
 51
344.1191499917214
  0
ARC
  5
15C3
330
18
100
AcDbEntity
  8
1
  6
Continuous
100
AcDbCircle
 10
217.1530144180044
 20
317.3769056677858
 30
0.0
 40
1.3
100
AcDbArc
 50
15.88085000827869
 51
85.00000000000019
  0
LINE
  5
15C4
330
18
100
AcDbEntity
  8
4
  6
CENTER
100
AcDbLine
 10
220.277992424447
 20
315.269894914202
 30
0.0
 11
210.3472499281012
 21
315.2698949142048
 31
0.0
  0
LINE
  5
15C5
330
18
100
AcDbEntity
  8
4
  6
CENTER
100
AcDbLine
 10
220.277992424447
 20
332.269894914202
 30
0.0
 11
210.3472499281012
 21
332.2698949142048
 31
0.0
  0
ARC
  5
15E7
330
18
100
AcDbEntity
  8
1
  6
Continuous
100
AcDbCircle
 10
211.3043016937967
 20
317.3324770464287
 30
0.0
 40
9.437417867778393
100
AcDbArc
 50
63.28512412263332
 51
73.10557144491681
  0
ARC
  5
15E8
330
18
100
AcDbEntity
  8
1
  6
Continuous
100
AcDbCircle
 10
211.3043016937967
 20
330.2073127819856
 30
0.0
 40
9.437417867778329
100
AcDbArc
 50
286.8944285550904
 51
296.7148758773666
  0
LINE
  5
15E9
330
18
100
AcDbEntity
  8
1
  6
Continuous
100
AcDbLine
 10
215.5469016937967
 20
321.7772949142071
 30
0.0
 11
215.5469016937967
 21
325.762494914207
 31
0.0
  0
LINE
  5
16F5
330
18
100
AcDbEntity
  8
1
  6
Continuous
100
AcDbLine
 10
197.0469016937969
 20
315.3698949141622
 30
0.0
 11
195.4219016938254
 21
315.3698949141597
 31
0.0
  0
LINE
  5
1706
330
18
100
AcDbEntity
  8
1
  6
Continuous
100
AcDbLine
 10
197.0469016937969
 20
332.1698949141624
 30
0.0
 11
195.4219016937788
 21
332.1698949141597
 31
0.0
  0
ARC
  5
1713
330
18
100
AcDbEntity
  8
1
  6
Continuous
100
AcDbCircle
 10
195.42190169378
 20
331.7071797913519
 30
0.0
 40
0.4627151227949187
100
AcDbArc
 50
90.00000000015484
 51
174.0531369461808
  0
ARC
  5
1714
330
18
100
AcDbEntity
  8
1
  6
Continuous
100
AcDbCircle
 10
271.6198365168629
 20
323.7698949141532
 30
0.0
 40
77.07293482306091
100
AcDbArc
 50
174.0531369461795
 51
185.9468630538204
  0
ARC
  5
1715
330
18
100
AcDbEntity
  8
1
  6
Continuous
100
AcDbCircle
 10
195.42190169378
 20
315.8326100369546
 30
0.0
 40
0.4627151227949187
100
AcDbArc
 50
185.9468630538192
 51
270.0000000056168
  0
LINE
  5
1716
330
18
100
AcDbEntity
  8
4
  6
CENTER
100
AcDbLine
 10
202.5469016937957
 20
310.4671952606167
 30
0.0
 11
202.5469016937957
 21
337.0725945677273
 31
0.0
  0
LINE
  5
17EC
330
18
100
AcDbEntity
  8
1
  6
Continuous
100
AcDbLine
 10
437.3946644445461
 20
231.4186511640278
 30
0.0
 11
436.2752492547452
 21
231.3207150253603
 31
0.0
  0
LINE
  5
17ED
330
18
100
AcDbEntity
  8
1
  6
Continuous
100
AcDbLine
 10
437.3946644445464
 20
224.4186511640279
 30
0.0
 11
436.2752492547117
 21
224.5165873024685
 31
0.0
  0
LINE
  5
17EE
330
18
100
AcDbEntity
  8
4
  6
CENTER
100
AcDbLine
 10
455.4946644445417
 20
227.918651164017
 30
0.0
 11
433.2946644445462
 21
227.918651164032
 31
0.0
  0
LINE
  5
17F2
330
18
100
AcDbEntity
  8
1
  6
Continuous
100
AcDbLine
 10
437.3946644445461
 20
224.1186511640278
 30
0.0
 11
437.3946644445461
 21
231.7186511640279
 31
0.0
  0
LINE
  5
17F3
330
18
100
AcDbEntity
  8
1
  6
Continuous
100
AcDbLine
 10
438.3946644445461
 20
222.9186511640267
 30
0.0
 11
438.3946644445461
 21
232.9186511640267
 31
0.0
  0
LINE
  5
17F4
330
18
100
AcDbEntity
  8
1
  6
Continuous
100
AcDbLine
 10
439.1946644445461
 20
222.9186511640267
 30
0.0
 11
439.1946644445461
 21
232.9186511640267
 31
0.0
  0
LINE
  5
17F5
330
18
100
AcDbEntity
  8
1
  6
Continuous
100
AcDbLine
 10
439.4946644445403
 20
217.9186511640454
 30
0.0
 11
439.4946644445608
 21
252.918651164025
 31
0.0
  0
LINE
  5
17F6
330
18
100
AcDbEntity
  8
1
  6
Continuous
100
AcDbLine
 10
441.4946644445404
 20
217.9186511640444
 30
0.0
 11
441.4946644445607
 21
252.918651164024
 31
0.0
  0
LINE
  5
17F7
330
18
100
AcDbEntity
  8
4
  6
CENTER
100
AcDbLine
 10
450.9946644445462
 20
223.4186511640216
 30
0.0
 11
450.9946644445462
 21
232.4186511640125
 31
0.0
  0
LINE
  5
17F8
330
18
100
AcDbEntity
  8
1
  6
Continuous
100
AcDbLine
 10
456.4946644445463
 20
170.9186511640113
 30
0.0
 11
456.4946644445463
 21
250.9186511640113
 31
0.0
  0
LINE
  5
17F9
330
18
100
AcDbEntity
  8
1
  6
Continuous
100
AcDbLine
 10
453.9946644445462
 20
168.9186511640139
 30
0.0
 11
453.9946644445462
 21
252.918651164014
 31
0.0
  0
LINE
  5
17FA
330
18
100
AcDbEntity
  8
1
  6
Continuous
100
AcDbLine
 10
454.9946644445462
 20
168.9186511640139
 30
0.0
 11
454.9946644445462
 21
252.918651164014
 31
0.0
  0
LINE
  5
17FB
330
18
100
AcDbEntity
  8
5
  6
PHANTOM
100
AcDbLine
 10
457.9946644445462
 20
231.3509689995289
 30
0.0
 11
475.9624864270174
 21
225.2525908610228
 31
0.0
  0
CIRCLE
  5
17FC
330
18
100
AcDbEntity
  8
1
  6
Continuous
100
AcDbCircle
 10
450.9946644445462
 20
227.918651164017
 30
0.0
 40
2.0
  0
LINE
  5
17FD
330
18
100
AcDbEntity
  8
1
  6
Continuous
100
AcDbLine
 10
443.0946644445461
 20
179.9266640052154
 30
0.0
 11
443.0946644445461
 21
201.9186511635008
 31
0.0
  0
LINE
  5
17FE
330
18
100
AcDbEntity
  8
1
  6
Continuous
100
AcDbLine
 10
442.9946644445037
 20
182.418651164151
 30
0.0
 11
442.9946644445037
 21
201.9186511634968
 31
0.0
  0
LINE
  5
17FF
330
18
100
AcDbEntity
  8
1
  6
Continuous
100
AcDbLine
 10
443.2946644445461
 20
180.127363316514
 30
0.0
 11
443.2946644445461
 21
201.9186511635008
 31
0.0
  0
LINE
  5
1800
330
18
100
AcDbEntity
  8
1
  6
Continuous
100
AcDbLine
 10
441.9946644445237
 20
221.4186511641317
 30
0.0
 11
441.9946644445413
 21
182.4186511641197
 31
0.0
  0
LINE
  5
1801
330
18
100
AcDbEntity
  8
1
  6
Continuous
100
AcDbLine
 10
456.794664444531
 20
192.3186511640803
 30
0.0
 11
456.7946644445417
 21
178.418651164221
 31
0.0
  0
LINE
  5
1802
330
18
100
AcDbEntity
  8
1
  6
Continuous
100
AcDbLine
 10
458.9946644445411
 20
177.9186511642194
 30
0.0
 11
456.4946644445408
 21
201.9186511637526
 31
0.0
  0
LINE
  5
1804
330
18
100
AcDbEntity
  8
1
  6
Continuous
100
AcDbLine
 10
449.9946644445462
 20
177.9186511640179
 30
0.0
 11
449.9946644445462
 21
171.9186511640179
 31
0.0
  0
LINE
  5
1805
330
18
100
AcDbEntity
  8
1
  6
Continuous
100
AcDbLine
 10
450.4946644445462
 20
171.4186511640176
 30
0.0
 11
450.4946644445462
 21
178.4186511640176
 31
0.0
  0
LINE
  5
1806
330
18
100
AcDbEntity
  8
4
  6
CENTER
100
AcDbLine
 10
454.5787308094908
 20
174.9186511640024
 30
0.0
 11
448.1523110226971
 21
174.9186511640118
 31
0.0
  0
LINE
  5
1807
330
18
100
AcDbEntity
  8
1
  6
Continuous
100
AcDbLine
 10
449.9946644445462
 20
171.9186511640181
 30
0.0
 11
450.4946644445462
 21
171.4186511640176
 31
0.0
  0
LINE
  5
1808
330
18
100
AcDbEntity
  8
1
  6
Continuous
100
AcDbLine
 10
454.9946644445462
 20
168.9186511640129
 30
0.0
 11
453.9946644445462
 21
168.9186511640139
 31
0.0
  0
LINE
  5
1809
330
18
100
AcDbEntity
  8
1
  6
Continuous
100
AcDbLine
 10
456.4946644445463
 20
170.9186511640113
 30
0.0
 11
454.9946644445462
 21
168.9186511640129
 31
0.0
  0
LINE
  5
180A
330
18
100
AcDbEntity
  8
1
  6
Continuous
100
AcDbLine
 10
453.9946644444389
 20
171.4186511640139
 30
0.0
 11
450.4946644445462
 21
171.4186511640175
 31
0.0
  0
LINE
  5
180B
330
18
100
AcDbEntity
  8
1
  6
Continuous
100
AcDbLine
 10
453.9946644445462
 20
179.918651164014
 30
0.0
 11
443.2946644445461
 21
179.918651164025
 31
0.0
  0
LINE
  5
180C
330
18
100
AcDbEntity
  8
1
  6
Continuous
100
AcDbLine
 10
450.4946644445462
 20
178.4186511640176
 30
0.0
 11
449.9946644445462
 21
177.9186511640181
 31
0.0
  0
ARC
  5
180E
330
18
100
AcDbEntity
  8
1
  6
Continuous
100
AcDbCircle
 10
455.7946644445401
 20
182.9186511640091
 30
0.0
 40
1.0
100
AcDbArc
 50
36.86989764589028
 51
45.57299599869795
  0
LINE
  5
1810
330
18
100
AcDbEntity
  8
1
  6
Continuous
100
AcDbLine
 10
456.4946644445463
 20
185.0731353094019
 30
0.0
 11
456.7946644445385
 21
185.0731353094024
 31
0.0
  0
LINE
  5
1811
330
18
100
AcDbEntity
  8
1
  6
Continuous
100
AcDbLine
 10
458.9946644445407
 20
177.9186511642194
 30
0.0
 11
456.7946644445441
 21
177.9186511642221
 31
0.0
  0
ARC
  5
1812
330
18
100
AcDbEntity
  8
1
  6
Continuous
100
AcDbCircle
 10
456.7946644445442
 20
178.1186511642221
 30
0.0
 40
0.2
100
AcDbArc
 50
180.0
 51
270.0
  0
ARC
  5
1813
330
18
100
AcDbEntity
  8
1
  6
Continuous
100
AcDbCircle
 10
457.2946644445428
 20
178.4186511642215
 30
0.0
 40
0.5
100
AcDbArc
 50
180.0
 51
270.0
  0
LINE
  5
1814
330
18
100
AcDbEntity
  8
1
  6
Continuous
100
AcDbLine
 10
456.5946644445388
 20
183.5758300306065
 30
0.0
 11
456.5946644445431
 21
178.1186511642221
 31
0.0
  0
LINE
  5
1815
330
18
100
AcDbEntity
  8
1
  6
Continuous
100
AcDbLine
 10
453.9946644444461
 20
178.418651164014
 30
0.0
 11
450.4946644445462
 21
178.4186511640176
 31
0.0
  0
LINE
  5
1816
330
18
100
AcDbEntity
  8
1
  6
Continuous
100
AcDbLine
 10
441.9946644445462
 20
182.4186511641197
 30
0.0
 11
442.9946644445005
 21
182.4186511641189
 31
0.0
  0
LINE
  5
181A
330
18
100
AcDbEntity
  8
1
  6
Continuous
100
AcDbLine
 10
442.9946644445037
 20
195.31865116375
 30
0.0
 11
443.0946644445461
 21
195.31865116375
 31
0.0
  0
LINE
  5
181B
330
18
100
AcDbEntity
  8
1
  6
Continuous
100
AcDbLine
 10
443.0946644445461
 20
194.9186511637585
 30
0.0
 11
442.9946644445037
 21
194.9186511637585
 31
0.0
  0
LINE
  5
181C
330
18
100
AcDbEntity
  8
1
  6
Continuous
100
AcDbLine
 10
443.0946644445461
 20
194.9186511637585
 30
0.0
 11
443.0946644445461
 21
195.31865116375
 31
0.0
  0
LINE
  5
181D
330
18
100
AcDbEntity
  8
1
  6
Continuous
100
AcDbLine
 10
443.0946644445461
 20
190.9186511637585
 30
0.0
 11
442.9946644445037
 21
190.9186511637585
 31
0.0
  0
LINE
  5
181E
330
18
100
AcDbEntity
  8
1
  6
Continuous
100
AcDbLine
 10
442.9946644445037
 20
198.7435975154254
 30
0.0
 11
443.0946644445461
 21
198.7435975154254
 31
0.0
  0
LINE
  5
181F
330
18
100
AcDbEntity
  8
1
  6
Continuous
100
AcDbLine
 10
443.0946644445461
 20
200.3402412898427
 30
0.0
 11
442.9946644445037
 21
200.3402412898426
 31
0.0
  0
LINE
  5
1820
330
18
100
AcDbEntity
  8
1
  6
Continuous
100
AcDbLine
 10
443.0946644445461
 20
200.7186511637538
 30
0.0
 11
442.9946644445037
 21
200.7186511637538
 31
0.0
  0
LINE
  5
1821
330
18
100
AcDbEntity
  8
1
  6
Continuous
100
AcDbLine
 10
443.2946644445461
 20
201.9186511635005
 30
0.0
 11
441.9946644445462
 21
201.9186511635018
 31
0.0
  0
LINE
  5
1822
330
18
100
AcDbEntity
  8
1
  6
Continuous
100
AcDbLine
 10
442.9946644445037
 20
197.918651163613
 30
0.0
 11
443.0946644445461
 21
197.9186511636129
 31
0.0
  0
LINE
  5
1823
330
18
100
AcDbEntity
  8
5
  6
PHANTOM
100
AcDbLine
 10
459.1738357978766
 20
224.6145809466279
 30
0.0
 11
466.9464723868643
 21
221.9765051075484
 31
0.0
  0
LINE
  5
1824
330
18
100
AcDbEntity
  8
5
  6
PHANTOM
100
AcDbLine
 10
460.4342905325658
 20
227.354861027194
 30
0.0
 11
476.4187083332747
 21
221.9296612357176
 31
0.0
  0
LINE
  5
1825
330
18
100
AcDbEntity
  8
5
  6
PHANTOM
100
AcDbLine
 10
475.4717634951743
 20
222.251057841982
 30
0.0
 11
471.015315479071
 21
216.8994159369431
 31
0.0
  0
LINE
  5
1826
330
18
100
AcDbEntity
  8
5
  6
PHANTOM
100
AcDbLine
 10
468.9196082250503
 20
222.5839388754206
 30
0.0
 11
467.4087977601116
 21
215.9008809587585
 31
0.0
  0
ARC
  5
1827
330
18
100
AcDbEntity
  8
5
  6
PHANTOM
100
AcDbCircle
 10
468.3841843941855
 20
215.6803794529363
 30
0.0
 40
1.0
100
AcDbArc
 50
167.2615094576731
 51
251.2525035001814
  0
ARC
  5
1828
330
18
100
AcDbEntity
  8
5
  6
PHANTOM
100
AcDbCircle
 10
471.2520651337849
 20
214.7070048693779
 30
0.0
 40
1.0
100
AcDbArc
 50
251.2525035001814
 51
326.2525035000899
  0
ARC
  5
1829
330
18
100
AcDbEntity
  8
5
  6
PHANTOM
100
AcDbCircle
 10
472.6049360315867
 20
215.8318756988173
 30
0.0
 40
0.5
100
AcDbArc
 50
326.2525035000907
 51
71.25250350018148
  0
LINE
  5
182A
330
18
100
AcDbEntity
  8
5
  6
PHANTOM
100
AcDbLine
 10
471.015315479071
 20
216.8994159369431
 30
0.0
 11
472.7656350763502
 21
216.3053477856525
 31
0.0
  0
LINE
  5
182B
330
18
100
AcDbEntity
  8
5
  6
PHANTOM
100
AcDbLine
 10
473.0206829749727
 20
215.554108747822
 30
0.0
 11
472.0835590205568
 21
214.1514709673873
 31
0.0
  0
LINE
  5
182C
330
18
100
AcDbEntity
  8
5
  6
PHANTOM
100
AcDbLine
 10
468.0627863046579
 20
214.733435279266
 30
0.0
 11
470.9306670442576
 21
213.7600606957075
 31
0.0
  0
LINE
  5
182D
330
18
100
AcDbEntity
  8
5
  6
PHANTOM
100
AcDbLine
 10
476.9008050392415
 20
223.3500759483053
 30
0.0
 11
476.4187078183264
 21
221.9296597176894
 31
0.0
  0
ARC
  5
182E
330
18
100
AcDbEntity
  8
5
  6
PHANTOM
100
AcDbCircle
 10
475.4803888079368
 20
223.8321731694543
 30
0.0
 40
1.5
100
AcDbArc
 50
341.2525000000008
 51
71.25250000000034
  0
ARC
  5
182F
330
18
100
AcDbEntity
  8
5
  6
PHANTOM
100
AcDbCircle
 10
466.9688349569026
 20
223.0249418870651
 30
0.0
 40
2.0
100
AcDbArc
 50
347.2615094576732
 51
71.25250350018148
  0
ARC
  5
1830
330
18
100
AcDbEntity
  8
5
  6
PHANTOM
100
AcDbCircle
 10
466.3036756905324
 20
220.0826152325191
 30
0.0
 40
2.0
100
AcDbArc
 50
347.2615094576738
 51
71.25250350018148
  0
LINE
  5
1831
330
18
100
AcDbEntity
  8
1
  6
Continuous
100
AcDbLine
 10
441.4946644445404
 20
217.9186511640442
 30
0.0
 11
439.4946644445403
 21
217.9186511640463
 31
0.0
  0
LINE
  5
1832
330
18
100
AcDbEntity
  8
5
  6
PHANTOM
100
AcDbLine
 10
457.9946639295974
 20
228.7108963252292
 30
0.0
 11
460.5949890621056
 21
227.8283315960948
 31
0.0
  0
LINE
  5
1833
330
18
100
AcDbEntity
  8
5
  6
PHANTOM
100
AcDbLine
 10
457.9946644445462
 20
224.7394242503281
 30
0.0
 11
458.7572654907696
 21
224.0473432458617
 31
0.0
  0
LINE
  5
1834
330
18
100
AcDbEntity
  8
5
  6
PHANTOM
100
AcDbLine
 10
457.9946644445465
 20
225.6847107329586
 30
0.0
 11
459.227692409537
 21
224.5657046199039
 31
0.0
  0
ARC
  5
1835
330
18
100
AcDbEntity
  8
5
  6
PHANTOM
100
AcDbCircle
 10
458.9924789501532
 20
224.3065239328829
 30
0.0
 40
0.35
100
AcDbArc
 50
227.7754106162485
 51
47.77541061624853
  0
LINE
  5
1836
330
18
100
AcDbEntity
  8
5
  6
PHANTOM
100
AcDbLine
 10
459.7656789856661
 20
225.3849158341911
 30
0.0
 11
458.6896414050136
 21
225.054000409044
 31
0.0
  0
LINE
  5
1837
330
18
100
AcDbEntity
  8
5
  6
PHANTOM
100
AcDbLine
 10
459.7656803870161
 20
225.3849162651501
 30
0.0
 11
460.5949890618559
 21
227.8283315961795
 31
0.0
  0
LINE
  5
1838
330
18
100
AcDbEntity
  8
5
  6
PHANTOM
100
AcDbLine
 10
459.7656798720676
 20
225.3849147471222
 30
0.0
 11
457.9946639295977
 21
227.5568613429553
 31
0.0
  0
LINE
  5
183B
330
18
100
AcDbEntity
  8
4
  6
CENTER
100
AcDbLine
 10
442.9946644445322
 20
222.9186511640428
 30
0.0
 11
437.7938665403592
 21
222.9186511640466
 31
0.0
  0
LINE
  5
183C
330
18
100
AcDbEntity
  8
1
  6
Continuous
100
AcDbLine
 10
439.4946644445447
 20
225.2186511640288
 30
0.0
 11
439.1946644445463
 21
225.2186511640292
 31
0.0
  0
LINE
  5
183D
330
18
100
AcDbEntity
  8
1
  6
Continuous
100
AcDbLine
 10
439.1946644445463
 20
222.9186511640259
 30
0.0
 11
438.3946644445461
 21
222.9186511640267
 31
0.0
  0
LINE
  5
183E
330
18
100
AcDbEntity
  8
1
  6
Continuous
100
AcDbLine
 10
441.4946644445462
 20
219.9186511640755
 30
0.0
 11
441.9946644445473
 21
219.9186511640752
 31
0.0
  0
LINE
  5
183F
330
18
100
AcDbEntity
  8
1
  6
Continuous
100
AcDbLine
 10
438.3946644448835
 20
227.9186511642004
 30
0.0
 11
437.3946644445461
 21
227.3413008948165
 31
0.0
  0
LINE
  5
1840
330
18
100
AcDbEntity
  8
1
  6
Continuous
100
AcDbLine
 10
438.3946644448835
 20
228.4960014333889
 30
0.0
 11
437.3946644445461
 21
227.918651164005
 31
0.0
  0
LINE
  5
1841
330
18
100
AcDbEntity
  8
1
  6
Continuous
100
AcDbLine
 10
438.3946644445461
 20
224.1186511640268
 30
0.0
 11
437.3946644445461
 21
224.1186511640278
 31
0.0
  0
LINE
  5
1847
330
18
100
AcDbEntity
  8
1
  6
Continuous
100
AcDbLine
 10
439.4946644445507
 20
235.9333697897736
 30
0.0
 11
437.9946644445462
 21
237.4333697897784
 31
0.0
  0
LINE
  5
1848
330
18
100
AcDbEntity
  8
1
  6
Continuous
100
AcDbLine
 10
437.9946644445462
 20
238.9186511640171
 30
0.0
 11
437.9946644445462
 21
237.4333697897784
 31
0.0
  0
LINE
  5
1849
330
18
100
AcDbEntity
  8
1
  6
Continuous
100
AcDbLine
 10
437.9946644445462
 20
238.9186511640171
 30
0.0
 11
439.4946644445526
 21
238.9186511640171
 31
0.0
  0
LINE
  5
184B
330
18
100
AcDbEntity
  8
1
  6
Continuous
100
AcDbLine
 10
439.4946644445479
 20
230.6186511640288
 30
0.0
 11
439.1946644445461
 21
230.618651164029
 31
0.0
  0
LINE
  5
184C
330
18
100
AcDbEntity
  8
1
  6
Continuous
100
AcDbLine
 10
439.1946644445461
 20
232.9186511640259
 30
0.0
 11
438.3946644445461
 21
232.9186511640267
 31
0.0
  0
LINE
  5
184D
330
18
100
AcDbEntity
  8
1
  6
Continuous
100
AcDbLine
 10
438.3946644445461
 20
231.7186511640267
 30
0.0
 11
437.3946644445461
 21
231.7186511640279
 31
0.0
  0
LINE
  5
184E
330
18
100
AcDbEntity
  8
1
  6
Continuous
100
AcDbLine
 10
453.9946644445462
 20
241.918651164014
 30
0.0
 11
441.4946644445462
 21
241.9186511640269
 31
0.0
  0
LINE
  5
184F
330
18
100
AcDbEntity
  8
4
  6
CENTER
100
AcDbLine
 10
454.5368903849489
 20
246.918651164014
 30
0.0
 11
448.4946644446581
 21
246.9186511640196
 31
0.0
  0
LINE
  5
1850
330
18
100
AcDbEntity
  8
1
  6
Continuous
100
AcDbLine
 10
450.4946644445462
 20
250.4186511640174
 30
0.0
 11
449.9946644445462
 21
249.9186511640179
 31
0.0
  0
LINE
  5
1851
330
18
100
AcDbEntity
  8
1
  6
Continuous
100
AcDbLine
 10
450.4946644445462
 20
243.4186511640175
 30
0.0
 11
449.9946644445462
 21
243.918651164018
 31
0.0
  0
LINE
  5
1852
330
18
100
AcDbEntity
  8
1
  6
Continuous
100
AcDbLine
 10
449.9946644445462
 20
249.918651164018
 30
0.0
 11
449.9946644445462
 21
243.918651164018
 31
0.0
  0
LINE
  5
1853
330
18
100
AcDbEntity
  8
1
  6
Continuous
100
AcDbLine
 10
450.4946644445462
 20
243.4186511640175
 30
0.0
 11
450.4946644445462
 21
250.4186511640174
 31
0.0
  0
LINE
  5
1854
330
18
100
AcDbEntity
  8
1
  6
Continuous
100
AcDbLine
 10
453.9946644445548
 20
250.4186511640138
 30
0.0
 11
450.4946644445462
 21
250.4186511640176
 31
0.0
  0
LINE
  5
1855
330
18
100
AcDbEntity
  8
1
  6
Continuous
100
AcDbLine
 10
453.9946644445477
 20
243.4186511640139
 30
0.0
 11
450.4946644445462
 21
243.4186511640175
 31
0.0
  0
LINE
  5
1857
330
18
100
AcDbEntity
  8
1
  6
Continuous
100
AcDbLine
 10
454.9946644445462
 20
252.9186511640129
 30
0.0
 11
453.9946644445493
 21
252.9186511640139
 31
0.0
  0
LINE
  5
1858
330
18
100
AcDbEntity
  8
1
  6
Continuous
100
AcDbLine
 10
456.4946644445463
 20
250.9186511640113
 30
0.0
 11
454.9946644445462
 21
252.9186511640128
 31
0.0
  0
LINE
  5
1859
330
18
100
AcDbEntity
  8
1
  6
Continuous
100
AcDbLine
 10
441.4946644445607
 20
252.9186511640443
 30
0.0
 11
439.4946644445608
 21
252.9186511640463
 31
0.0
  0
ARC
  5
185B
330
18
100
AcDbEntity
  8
1
  6
Continuous
100
AcDbCircle
 10
443.7946644445461
 20
227.9186511640278
 30
0.0
 40
9.0
100
AcDbArc
 50
164.1191499917212
 51
195.8808500082785
  0
LINE
  5
185C
330
18
100
AcDbEntity
  8
1
  6
Continuous
100
AcDbLine
 10
422.894664444495
 20
170.1186511640235
 30
0.0
 11
422.8946644444873
 21
179.7186511640235
 31
0.0
  0
ARC
  5
185D
330
18
100
AcDbEntity
  8
1
  6
Continuous
100
AcDbCircle
 10
423.7946644444908
 20
174.918651164015
 30
0.0
 40
9.0
100
AcDbArc
 50
164.1191499917212
 51
195.8808500082785
  0
LINE
  5
185E
330
18
100
AcDbEntity
  8
1
  6
Continuous
100
AcDbLine
 10
417.3946644444911
 20
171.118651164015
 30
0.0
 11
417.3946644444911
 21
178.718651164015
 31
0.0
  0
LINE
  5
185F
330
18
100
AcDbEntity
  8
1
  6
Continuous
100
AcDbLine
 10
418.3946644444911
 20
171.1186511640139
 30
0.0
 11
418.3946644444911
 21
178.718651164014
 31
0.0
  0
LINE
  5
1860
330
18
100
AcDbEntity
  8
4
  6
CENTER
100
AcDbLine
 10
425.0482994246445
 20
174.9186511640118
 30
0.0
 11
413.2946644444912
 21
174.918651164019
 31
0.0
  0
ARC
  5
1861
330
18
100
AcDbEntity
  8
1
  6
Continuous
100
AcDbCircle
 10
422.8946644444875
 20
179.118651163814
 30
0.0
 40
8.999999999790484
100
AcDbArc
 50
241.927513063437
 51
270.0000000000455
  0
ARC
  5
1862
330
18
100
AcDbEntity
  8
1
  6
Continuous
100
AcDbCircle
 10
418.8946644444937
 20
171.6186511640484
 30
0.0
 40
0.5
100
AcDbArc
 50
180.0000000000448
 51
241.927513063437
  0
LINE
  5
1863
330
18
100
AcDbEntity
  8
1
  6
Continuous
100
AcDbLine
 10
418.3946644448288
 20
175.4960014333907
 30
0.0
 11
417.3946644444911
 21
174.9186511640066
 31
0.0
  0
LINE
  5
1864
330
18
100
AcDbEntity
  8
1
  6
Continuous
100
AcDbLine
 10
418.3946644444911
 20
171.1186511640139
 30
0.0
 11
417.3946644444911
 21
171.118651164015
 31
0.0
  0
LINE
  5
1865
330
18
100
AcDbEntity
  8
1
  6
Continuous
100
AcDbLine
 10
417.3946644444911
 20
171.418651164015
 30
0.0
 11
416.2752492546566
 21
171.5165873024558
 31
0.0
  0
ARC
  5
1866
330
18
100
AcDbEntity
  8
1
  6
Continuous
100
AcDbCircle
 10
416.3885517202684
 20
172.8116404104288
 30
0.0
 40
1.3
100
AcDbArc
 50
195.8808500082785
 51
265.0000000000001
  0
LINE
  5
1867
330
18
100
AcDbEntity
  8
1
  6
Continuous
100
AcDbLine
 10
418.3946644444911
 20
174.9186511640073
 30
0.0
 11
417.3946644441532
 21
174.3413008946234
 31
0.0
  0
ARC
  5
1868
330
18
100
AcDbEntity
  8
1
  6
Continuous
100
AcDbCircle
 10
422.8946644444929
 20
170.7186511638145
 30
0.0
 40
9.000000000209023
100
AcDbArc
 50
90.00000000004559
 51
118.0724869351459
  0
ARC
  5
1869
330
18
100
AcDbEntity
  8
1
  6
Continuous
100
AcDbCircle
 10
418.8946644444868
 20
178.2186511640484
 30
0.0
 40
0.5
100
AcDbArc
 50
118.0724869351459
 51
180.0000000000448
  0
LINE
  5
186A
330
18
100
AcDbEntity
  8
1
  6
Continuous
100
AcDbLine
 10
418.3946644444911
 20
178.718651164014
 30
0.0
 11
417.3946644444911
 21
178.7186511640148
 31
0.0
  0
ARC
  5
186B
330
18
100
AcDbEntity
  8
1
  6
Continuous
100
AcDbCircle
 10
416.3885517202823
 20
177.0256619175978
 30
0.0
 40
1.3
100
AcDbArc
 50
94.99999999999982
 51
164.1191499917212
  0
LINE
  5
186C
330
18
100
AcDbEntity
  8
1
  6
Continuous
100
AcDbLine
 10
417.3946644444911
 20
178.418651164015
 30
0.0
 11
416.2752492546901
 21
178.3207150253475
 31
0.0
  0
ARC
  5
186D
330
18
100
AcDbEntity
  8
1
  6
Continuous
100
AcDbCircle
 10
436.3885517203233
 20
225.8116404104415
 30
0.0
 40
1.3
100
AcDbArc
 50
195.8808500082785
 51
265.0000000000001
  0
LINE
  5
186E
330
18
100
AcDbEntity
  8
1
  6
Continuous
100
AcDbLine
 10
418.3946644444911
 20
243.118651164023
 30
0.0
 11
418.3946644444911
 21
250.718651164023
 31
0.0
  0
LINE
  5
186F
330
18
100
AcDbEntity
  8
1
  6
Continuous
100
AcDbLine
 10
417.3946644444911
 20
243.118651164024
 30
0.0
 11
417.3946644444911
 21
250.7186511640242
 31
0.0
  0
LINE
  5
1870
330
18
100
AcDbEntity
  8
1
  6
Continuous
100
AcDbLine
 10
422.894664444495
 20
242.1186511640326
 30
0.0
 11
422.8946644444873
 21
251.7186511640326
 31
0.0
  0
ARC
  5
1871
330
18
100
AcDbEntity
  8
1
  6
Continuous
100
AcDbCircle
 10
418.8946644444868
 20
250.2186511640574
 30
0.0
 40
0.5
100
AcDbArc
 50
118.0724869351459
 51
180.0000000000448
  0
ARC
  5
1872
330
18
100
AcDbEntity
  8
1
  6
Continuous
100
AcDbCircle
 10
436.3885517203373
 20
230.0256619176106
 30
0.0
 40
1.3
100
AcDbArc
 50
94.99999999999982
 51
164.1191499917212
  0
LINE
  5
1873
330
18
100
AcDbEntity
  8
4
  6
CENTER
100
AcDbLine
 10
425.0482994246445
 20
246.9186511640209
 30
0.0
 11
413.2946644444912
 21
246.9186511640283
 31
0.0
  0
ARC
  5
1874
330
18
100
AcDbEntity
  8
1
  6
Continuous
100
AcDbCircle
 10
423.7946644444908
 20
246.918651164024
 30
0.0
 40
9.0
100
AcDbArc
 50
164.1191499917212
 51
195.8808500082785
  0
LINE
  5
1875
330
18
100
AcDbEntity
  8
1
  6
Continuous
100
AcDbLine
 10
418.3946644444911
 20
246.9186511640164
 30
0.0
 11
417.3946644441532
 21
246.3413008946325
 31
0.0
  0
ARC
  5
1876
330
18
100
AcDbEntity
  8
1
  6
Continuous
100
AcDbCircle
 10
416.3885517202684
 20
244.8116404104379
 30
0.0
 40
1.3
100
AcDbArc
 50
195.8808500082785
 51
265.0000000000001
  0
LINE
  5
1877
330
18
100
AcDbEntity
  8
1
  6
Continuous
100
AcDbLine
 10
417.3946644444911
 20
243.418651164024
 30
0.0
 11
416.2752492546566
 21
243.5165873024649
 31
0.0
  0
LINE
  5
1878
330
18
100
AcDbEntity
  8
1
  6
Continuous
100
AcDbLine
 10
418.3946644444911
 20
243.118651164023
 30
0.0
 11
417.3946644444911
 21
243.118651164024
 31
0.0
  0
LINE
  5
1879
330
18
100
AcDbEntity
  8
1
  6
Continuous
100
AcDbLine
 10
418.3946644448288
 20
247.4960014333998
 30
0.0
 11
417.3946644444911
 21
246.9186511640159
 31
0.0
  0
ARC
  5
187A
330
18
100
AcDbEntity
  8
1
  6
Continuous
100
AcDbCircle
 10
418.8946644444937
 20
243.6186511640574
 30
0.0
 40
0.5
100
AcDbArc
 50
180.0000000000448
 51
241.927513063437
  0
ARC
  5
187B
330
18
100
AcDbEntity
  8
1
  6
Continuous
100
AcDbCircle
 10
422.8946644444875
 20
251.1186511638232
 30
0.0
 40
8.999999999790484
100
AcDbArc
 50
241.927513063437
 51
270.0000000000455
  0
LINE
  5
187C
330
18
100
AcDbEntity
  8
1
  6
Continuous
100
AcDbLine
 10
417.3946644444911
 20
250.4186511640241
 30
0.0
 11
416.2752492546901
 21
250.3207150253566
 31
0.0
  0
ARC
  5
187D
330
18
100
AcDbEntity
  8
1
  6
Continuous
100
AcDbCircle
 10
416.3885517202823
 20
249.0256619176069
 30
0.0
 40
1.3
100
AcDbArc
 50
94.99999999999982
 51
164.1191499917212
  0
LINE
  5
187E
330
18
100
AcDbEntity
  8
1
  6
Continuous
100
AcDbLine
 10
418.3946644444911
 20
250.718651164023
 30
0.0
 11
417.3946644444911
 21
250.7186511640241
 31
0.0
  0
ARC
  5
187F
330
18
100
AcDbEntity
  8
1
  6
Continuous
100
AcDbCircle
 10
422.8946644444929
 20
242.7186511638236
 30
0.0
 40
9.000000000209023
100
AcDbArc
 50
90.00000000004559
 51
118.0724869351459
  0
LINE
  5
1A21
330
18
100
AcDbEntity
  8
1
  6
Continuous
100
AcDbLine
 10
214.0469016938003
 20
121.567407413582
 30
0.0
 11
214.0469016937821
 21
36.56740741358179
 31
0.0
  0
LINE
  5
1A22
330
18
100
AcDbEntity
  8
1
  6
Continuous
100
AcDbLine
 10
212.0469016938003
 20
121.567407413582
 30
0.0
 11
212.0469016937821
 21
36.56740741358293
 31
0.0
  0
LINE
  5
1A25
330
18
100
AcDbEntity
  8
1
  6
Continuous
100
AcDbLine
 10
214.0469016938003
 20
121.567407413582
 30
0.0
 11
212.0469016938003
 21
121.567407413582
 31
0.0
  0
LINE
  5
1A26
330
18
100
AcDbEntity
  8
1
  6
Continuous
100
AcDbLine
 10
216.1469016937953
 20
93.06740741375959
 30
0.0
 11
217.26631688363
 21
92.96947127531884
 31
0.0
  0
LINE
  5
1A27
330
18
100
AcDbEntity
  8
1
  6
Continuous
100
AcDbLine
 10
216.1469016937956
 20
86.06740741375956
 30
0.0
 11
217.2663168835964
 21
86.16534355242714
 31
0.0
  0
LINE
  5
1A28
330
18
100
AcDbEntity
  8
1
  6
Continuous
100
AcDbLine
 10
216.1469016937956
 20
103.0674074137595
 30
0.0
 11
217.2663168835964
 21
103.1653435524271
 31
0.0
  0
LINE
  5
1A29
330
18
100
AcDbEntity
  8
4
  6
CENTER
100
AcDbLine
 10
220.277992424447
 20
106.5674074137607
 30
0.0
 11
210.3472499281012
 21
106.5674074137578
 31
0.0
  0
LINE
  5
1A2A
330
18
100
AcDbEntity
  8
4
  6
CENTER
100
AcDbLine
 10
220.277992424447
 20
89.56740741376078
 30
0.0
 11
210.3472499281012
 21
89.56740741375782
 31
0.0
  0
LINE
  5
1A2D
330
18
100
AcDbEntity
  8
4
  6
CENTER
100
AcDbLine
 10
218.7499118792918
 20
98.06740741375271
 30
0.0
 11
192.7406623354345
 21
98.06740741381373
 31
0.0
  0
LINE
  5
1A2E
330
18
100
AcDbEntity
  8
4
  6
CENTER
100
AcDbLine
 10
218.5884582645136
 20
116.5674074135832
 30
0.0
 11
207.487724641339
 21
116.5674074135802
 31
0.0
  0
LINE
  5
1A2F
330
18
100
AcDbEntity
  8
1
  6
Continuous
100
AcDbLine
 10
216.1469016937953
 20
110.0674074137595
 30
0.0
 11
217.26631688363
 21
109.9694712753187
 31
0.0
  0
ARC
  5
1A31
330
18
100
AcDbEntity
  8
1
  6
Continuous
100
AcDbCircle
 10
211.3043016937967
 20
104.504825281534
 30
0.0
 40
9.437417867778393
100
AcDbArc
 50
286.8944285550832
 51
296.7148758773666
  0
LINE
  5
1A32
330
18
100
AcDbEntity
  8
1
  6
Continuous
100
AcDbLine
 10
203.0469016937969
 20
101.5674074137952
 30
0.0
 11
203.0469016937969
 21
94.56740741379549
 31
0.0
  0
LINE
  5
1A33
330
18
100
AcDbEntity
  8
1
  6
Continuous
100
AcDbLine
 10
203.5469016937967
 20
95.06740741379493
 30
0.0
 11
203.5469016937967
 21
101.0674074137948
 31
0.0
  0
ARC
  5
1A34
330
18
100
AcDbEntity
  8
1
  6
Continuous
100
AcDbCircle
 10
271.6198365168629
 20
98.0674074138095
 30
0.0
 40
77.07293482306091
100
AcDbArc
 50
174.0531369461795
 51
185.9468630538204
  0
LINE
  5
1A35
330
18
100
AcDbEntity
  8
1
  6
Continuous
100
AcDbLine
 10
199.5469016937968
 20
112.0674074138255
 30
0.0
 11
199.5469016937968
 21
84.06740741380179
 31
0.0
  0
LINE
  5
1A36
330
18
100
AcDbEntity
  8
1
  6
Continuous
100
AcDbLine
 10
198.5469016937967
 20
112.0674074138244
 30
0.0
 11
198.5469016937967
 21
84.06740741380179
 31
0.0
  0
LINE
  5
1A37
330
18
100
AcDbEntity
  8
1
  6
Continuous
100
AcDbLine
 10
197.0469016937965
 20
110.0674074138227
 30
0.0
 11
197.0469016937967
 21
86.06740741380452
 31
0.0
  0
LINE
  5
1A39
330
18
100
AcDbEntity
  8
4
  6
CENTER
100
AcDbLine
 10
202.5469016937957
 20
111.3701070673458
 30
0.0
 11
202.5469016937957
 21
84.76470776023544
 31
0.0
  0
LINE
  5
1A3A
330
18
100
AcDbEntity
  8
1
  6
Continuous
100
AcDbLine
 10
215.146901693458
 20
105.9900571443794
 30
0.0
 11
216.1469016937956
 21
106.5674074137632
 31
0.0
  0
LINE
  5
1A3B
330
18
100
AcDbEntity
  8
1
  6
Continuous
100
AcDbLine
 10
216.1469016937956
 20
110.3674074137595
 30
0.0
 11
216.1469016937956
 21
102.7674074137594
 31
0.0
  0
LINE
  5
1A3C
330
18
100
AcDbEntity
  8
1
  6
Continuous
100
AcDbLine
 10
215.1469016937956
 20
111.5674074137605
 30
0.0
 11
215.1469016937956
 21
101.5674074137606
 31
0.0
  0
LINE
  5
1A3D
330
18
100
AcDbEntity
  8
1
  6
Continuous
100
AcDbLine
 10
214.3469016937955
 20
111.5674074137605
 30
0.0
 11
214.3469016937955
 21
101.5674074137606
 31
0.0
  0
LINE
  5
1A3E
330
18
100
AcDbEntity
  8
1
  6
Continuous
100
AcDbLine
 10
199.5469016937968
 20
109.5674074138289
 30
0.0
 11
212.0469016937967
 21
109.5674074138418
 31
0.0
  0
LINE
  5
1A3F
330
18
100
AcDbEntity
  8
1
  6
Continuous
100
AcDbLine
 10
197.0469016937967
 20
110.0674074138229
 30
0.0
 11
198.5469016937967
 21
112.0674074138244
 31
0.0
  0
LINE
  5
1A40
330
18
100
AcDbEntity
  8
1
  6
Continuous
100
AcDbLine
 10
198.5469016937969
 20
112.0674074138245
 30
0.0
 11
199.5469016937935
 21
112.0674074138255
 31
0.0
  0
LINE
  5
1A41
330
18
100
AcDbEntity
  8
1
  6
Continuous
100
AcDbLine
 10
214.046901693797
 20
109.2674074137585
 30
0.0
 11
214.3469016937953
 21
109.2674074137581
 31
0.0
  0
LINE
  5
1A42
330
18
100
AcDbEntity
  8
1
  6
Continuous
100
AcDbLine
 10
214.3469016937953
 20
111.5674074137614
 30
0.0
 11
215.1469016937956
 21
111.5674074137605
 31
0.0
  0
LINE
  5
1A43
330
18
100
AcDbEntity
  8
1
  6
Continuous
100
AcDbLine
 10
215.1469016937956
 20
110.3674074137605
 30
0.0
 11
216.1469016937956
 21
110.3674074137595
 31
0.0
  0
LINE
  5
1A44
330
18
100
AcDbEntity
  8
1
  6
Continuous
100
AcDbLine
 10
199.5469016937954
 20
101.567407413799
 30
0.0
 11
203.0469016937967
 21
101.5674074137954
 31
0.0
  0
LINE
  5
1A45
330
18
100
AcDbEntity
  8
1
  6
Continuous
100
AcDbLine
 10
203.0469016937967
 20
101.5674074137954
 30
0.0
 11
203.5469016937967
 21
101.0674074137948
 31
0.0
  0
LINE
  5
1A46
330
18
100
AcDbEntity
  8
1
  6
Continuous
100
AcDbLine
 10
197.0469016937969
 20
106.4674074138004
 30
0.0
 11
195.4219016938254
 21
106.467407413803
 31
0.0
  0
ARC
  5
1A47
330
18
100
AcDbEntity
  8
1
  6
Continuous
100
AcDbCircle
 10
195.42190169378
 20
106.0046922910081
 30
0.0
 40
0.4627151227949187
100
AcDbArc
 50
89.99999999438321
 51
174.0531369461807
  0
LINE
  5
1A48
330
18
100
AcDbEntity
  8
1
  6
Continuous
100
AcDbLine
 10
215.146901693458
 20
106.5674074135679
 30
0.0
 11
216.1469016937956
 21
107.1447576829517
 31
0.0
  0
LINE
  5
1A49
330
18
100
AcDbEntity
  8
1
  6
Continuous
100
AcDbLine
 10
214.0469016937939
 20
103.8674074137585
 30
0.0
 11
214.3469016937955
 21
103.8674074137583
 31
0.0
  0
LINE
  5
1A4A
330
18
100
AcDbEntity
  8
1
  6
Continuous
100
AcDbLine
 10
214.3469016937955
 20
101.5674074137614
 30
0.0
 11
215.1469016937956
 21
101.5674074137606
 31
0.0
  0
LINE
  5
1A4B
330
18
100
AcDbEntity
  8
1
  6
Continuous
100
AcDbLine
 10
215.1469016937956
 20
102.7674074137605
 30
0.0
 11
216.1469016937956
 21
102.7674074137594
 31
0.0
  0
ARC
  5
1A4C
330
18
100
AcDbEntity
  8
1
  6
Continuous
100
AcDbCircle
 10
211.3043016937967
 20
91.62998954597721
 30
0.0
 40
9.437417867778329
100
AcDbArc
 50
63.28512412263338
 51
73.10557144490949
  0
LINE
  5
1A4D
330
18
100
AcDbEntity
  8
1
  6
Continuous
100
AcDbLine
 10
215.5469016937967
 20
100.0600074137555
 30
0.0
 11
215.5469016937967
 21
96.07480741375576
 31
0.0
  0
LINE
  5
1A4E
330
18
100
AcDbEntity
  8
1
  6
Continuous
100
AcDbLine
 10
197.0469016937967
 20
86.06740741380452
 30
0.0
 11
198.5469016937967
 21
84.06740741380298
 31
0.0
  0
LINE
  5
1A4F
330
18
100
AcDbEntity
  8
1
  6
Continuous
100
AcDbLine
 10
214.3469016937955
 20
94.56740741376064
 30
0.0
 11
214.3469016937955
 21
84.56740741376064
 31
0.0
  0
LINE
  5
1A50
330
18
100
AcDbEntity
  8
1
  6
Continuous
100
AcDbLine
 10
215.1469016937956
 20
94.56740741376064
 30
0.0
 11
215.1469016937956
 21
84.56740741376064
 31
0.0
  0
LINE
  5
1A51
330
18
100
AcDbEntity
  8
1
  6
Continuous
100
AcDbLine
 10
199.5469016937968
 20
86.56740741379849
 30
0.0
 11
212.0469016937967
 21
86.56740741378559
 31
0.0
  0
LINE
  5
1A52
330
18
100
AcDbEntity
  8
1
  6
Continuous
100
AcDbLine
 10
199.5469016937881
 20
94.56740741379913
 30
0.0
 11
203.0469016937967
 21
94.5674074137954
 31
0.0
  0
LINE
  5
1A53
330
18
100
AcDbEntity
  8
1
  6
Continuous
100
AcDbLine
 10
203.0469016937966
 20
94.56740741379549
 30
0.0
 11
203.5469016937967
 21
95.067407413795
 31
0.0
  0
LINE
  5
1A54
330
18
100
AcDbEntity
  8
1
  6
Continuous
100
AcDbLine
 10
197.0469016937969
 20
89.66740741380045
 30
0.0
 11
195.4219016937788
 21
89.667407413803
 31
0.0
  0
ARC
  5
1A55
330
18
100
AcDbEntity
  8
1
  6
Continuous
100
AcDbCircle
 10
195.42190169378
 20
90.13012253661086
 30
0.0
 40
0.4627151227949187
100
AcDbArc
 50
185.9468630538192
 51
269.9999999998451
  0
LINE
  5
1A56
330
18
100
AcDbEntity
  8
1
  6
Continuous
100
AcDbLine
 10
215.1469016937956
 20
85.76740741376061
 30
0.0
 11
216.1469016937956
 21
85.76740741375955
 31
0.0
  0
LINE
  5
1A57
330
18
100
AcDbEntity
  8
1
  6
Continuous
100
AcDbLine
 10
214.0469016937939
 20
86.86740741375865
 30
0.0
 11
214.3469016937955
 21
86.86740741375837
 31
0.0
  0
LINE
  5
1A58
330
18
100
AcDbEntity
  8
1
  6
Continuous
100
AcDbLine
 10
215.146901693458
 20
88.99005714437356
 30
0.0
 11
216.1469016937956
 21
89.56740741375744
 31
0.0
  0
LINE
  5
1A59
330
18
100
AcDbEntity
  8
1
  6
Continuous
100
AcDbLine
 10
215.1469016937956
 20
93.36740741376065
 30
0.0
 11
216.1469016937956
 21
93.36740741375969
 31
0.0
  0
LINE
  5
1A5A
330
18
100
AcDbEntity
  8
1
  6
Continuous
100
AcDbLine
 10
214.3469016937953
 20
94.56740741376149
 30
0.0
 11
215.1469016937956
 21
94.56740741376064
 31
0.0
  0
LINE
  5
1A5B
330
18
100
AcDbEntity
  8
1
  6
Continuous
100
AcDbLine
 10
214.046901693797
 20
92.2674074137585
 30
0.0
 11
214.3469016937953
 21
92.26740741375827
 31
0.0
  0
LINE
  5
1A5C
330
18
100
AcDbEntity
  8
1
  6
Continuous
100
AcDbLine
 10
215.146901693458
 20
89.56740741356204
 30
0.0
 11
216.1469016937956
 21
90.14475768294595
 31
0.0
  0
LINE
  5
1A5D
330
18
100
AcDbEntity
  8
1
  6
Continuous
100
AcDbLine
 10
216.1469016937956
 20
93.36740741375969
 30
0.0
 11
216.1469016937956
 21
85.76740741375955
 31
0.0
  0
LINE
  5
1A5E
330
18
100
AcDbEntity
  8
1
  6
Continuous
100
AcDbLine
 10
198.5469016937969
 20
84.06740741380295
 30
0.0
 11
199.5469016937935
 21
84.0674074138019
 31
0.0
  0
LINE
  5
1A5F
330
18
100
AcDbEntity
  8
1
  6
Continuous
100
AcDbLine
 10
214.3469016937955
 20
84.56740741376149
 30
0.0
 11
215.1469016937956
 21
84.56740741376064
 31
0.0
  0
LINE
  5
1A61
330
18
100
AcDbEntity
  8
1
  6
Continuous
100
AcDbLine
 10
214.0469016937821
 20
36.56740741358179
 30
0.0
 11
212.0469016937821
 21
36.56740741358179
 31
0.0
  0
ARC
  5
1A62
330
18
100
AcDbEntity
  8
1
  6
Continuous
100
AcDbCircle
 10
229.7469016938489
 20
98.06740741376309
 30
0.0
 40
9.0
100
AcDbArc
 50
344.1191499917214
 51
15.88085000827868
  0
LINE
  5
1A63
330
18
100
AcDbEntity
  8
1
  6
Continuous
100
AcDbLine
 10
235.146901693848
 20
93.76740741378815
 30
0.0
 11
235.146901693848
 21
102.3674074137882
 31
0.0
  0
LINE
  5
1A64
330
18
100
AcDbEntity
  8
1
  6
Continuous
100
AcDbLine
 10
236.1469016938487
 20
101.867407413763
 30
0.0
 11
236.1469016938487
 21
94.26740741376296
 31
0.0
  0
LINE
  5
1A65
330
18
100
AcDbEntity
  8
1
  6
Continuous
100
AcDbLine
 10
230.646901693848
 20
92.26740741376016
 30
0.0
 11
230.646901693848
 21
103.8674074137603
 31
0.0
  0
ARC
  5
1A68
330
18
100
AcDbEntity
  8
1
  6
Continuous
100
AcDbCircle
 10
209.7469016937955
 20
106.5674074137596
 30
0.0
 40
9.0
100
AcDbArc
 50
344.1191499917214
 51
15.88085000827868
  0
ARC
  5
1A69
330
18
100
AcDbEntity
  8
1
  6
Continuous
100
AcDbCircle
 10
217.1530144180183
 20
108.6744181673457
 30
0.0
 40
1.3
100
AcDbArc
 50
15.88085000827868
 51
85.00000000000024
  0
LINE
  5
1A6A
330
18
100
AcDbEntity
  8
4
  6
CENTER
100
AcDbLine
 10
240.2476353170227
 20
98.06740741376266
 30
0.0
 11
229.146901693848
 21
98.06740741375969
 31
0.0
  0
ARC
  5
1A6B
330
18
100
AcDbEntity
  8
1
  6
Continuous
100
AcDbCircle
 10
217.1530144180044
 20
104.4603966601769
 30
0.0
 40
1.3
100
AcDbArc
 50
274.9999999999997
 51
344.1191499917214
  0
LINE
  5
1A6C
330
18
100
AcDbEntity
  8
1
  6
Continuous
100
AcDbLine
 10
235.1469016938488
 20
98.06740741375776
 30
0.0
 11
236.1469016941863
 21
98.64475768314155
 31
0.0
  0
ARC
  5
1A6D
330
18
100
AcDbEntity
  8
1
  6
Continuous
100
AcDbCircle
 10
230.646901693848
 20
94.86740741355134
 30
0.0
 40
9.000000000209025
100
AcDbArc
 50
61.9275130648974
 51
90.00000000000005
  0
ARC
  5
1A6E
330
18
100
AcDbEntity
  8
1
  6
Continuous
100
AcDbCircle
 10
234.6469016938478
 20
102.3674074137882
 30
0.0
 40
0.5
100
AcDbArc
 50
0.0
 51
61.9275130648974
  0
LINE
  5
1A6F
330
18
100
AcDbEntity
  8
1
  6
Continuous
100
AcDbLine
 10
236.1469016938487
 20
101.567407413763
 30
0.0
 11
237.2663168836832
 21
101.4694712753221
 31
0.0
  0
LINE
  5
1A70
330
18
100
AcDbEntity
  8
1
  6
Continuous
100
AcDbLine
 10
235.1469016938488
 20
101.867407413764
 30
0.0
 11
236.1469016938487
 21
101.867407413763
 31
0.0
  0
ARC
  5
1A71
330
18
100
AcDbEntity
  8
1
  6
Continuous
100
AcDbCircle
 10
237.1530144180715
 20
100.1744181673491
 30
0.0
 40
1.3
100
AcDbArc
 50
15.88085000827868
 51
85.00000000000024
  0
LINE
  5
1A72
330
18
100
AcDbEntity
  8
1
  6
Continuous
100
AcDbLine
 10
235.146901693511
 20
97.49005714437435
 30
0.0
 11
236.1469016938487
 21
98.06740741375826
 31
0.0
  0
ARC
  5
1A73
330
18
100
AcDbEntity
  8
1
  6
Continuous
100
AcDbCircle
 10
217.1530144180044
 20
87.46039666017692
 30
0.0
 40
1.3
100
AcDbArc
 50
274.9999999999997
 51
344.1191499917214
  0
ARC
  5
1A74
330
18
100
AcDbEntity
  8
1
  6
Continuous
100
AcDbCircle
 10
217.1530144180183
 20
91.67441816734585
 30
0.0
 40
1.3
100
AcDbArc
 50
15.88085000827868
 51
85.00000000000024
  0
ARC
  5
1A75
330
18
100
AcDbEntity
  8
1
  6
Continuous
100
AcDbCircle
 10
209.7469016937955
 20
89.56740741375961
 30
0.0
 40
9.0
100
AcDbArc
 50
344.1191499917214
 51
15.88085000827868
  0
ARC
  5
1A76
330
18
100
AcDbEntity
  8
1
  6
Continuous
100
AcDbCircle
 10
230.646901693848
 20
101.2674074135506
 30
0.0
 40
8.999999999790484
100
AcDbArc
 50
270.0
 51
298.0724869366048
  0
LINE
  5
1A77
330
18
100
AcDbEntity
  8
1
  6
Continuous
100
AcDbLine
 10
236.1469016938487
 20
94.56740741376295
 30
0.0
 11
237.2663168836496
 21
94.66534355243055
 31
0.0
  0
ARC
  5
1A78
330
18
100
AcDbEntity
  8
1
  6
Continuous
100
AcDbCircle
 10
237.1530144180575
 20
95.96039666018027
 30
0.0
 40
1.3
100
AcDbArc
 50
274.9999999999997
 51
344.1191499917214
  0
LINE
  5
1A79
330
18
100
AcDbEntity
  8
1
  6
Continuous
100
AcDbLine
 10
235.1469016938488
 20
94.26740741376404
 30
0.0
 11
236.1469016938487
 21
94.26740741376306
 31
0.0
  0
ARC
  5
1A7A
330
18
100
AcDbEntity
  8
1
  6
Continuous
100
AcDbCircle
 10
234.6469016938478
 20
93.76740741378815
 30
0.0
 40
0.5
100
AcDbArc
 50
298.0724869366048
 51
0.0
  0
LINE
  5
1C50
330
18
100
AcDbEntity
  8
1
  6
Continuous
100
AcDbLine
 10
214.0469016937821
 20
375.2698949143808
 30
0.0
 11
212.0469016937821
 21
375.2698949143808
 31
0.0
  0
LINE
  5
1C51
330
18
100
AcDbEntity
  8
1
  6
Continuous
100
AcDbLine
 10
441.4946644445404
 20
227.9186511640443
 30
0.0
 11
439.4946644445403
 21
227.9186511640463
 31
0.0
  0
LINE
  5
1C52
330
18
100
AcDbEntity
  8
1
  6
Continuous
100
AcDbLine
 10
441.4946644445404
 20
237.9186511640443
 30
0.0
 11
439.4946644445403
 21
237.9186511640464
 31
0.0
  0
LINE
  5
1C55
330
18
100
AcDbEntity
  8
1
  6
Continuous
100
AcDbLine
 10
211.5469016938116
 20
109.5674074138413
 30
0.0
 11
211.5469016938013
 21
86.56740741378611
 31
0.0
  0
LINE
  5
1C56
330
18
100
AcDbEntity
  8
1
  6
Continuous
100
AcDbLine
 10
210.5469016938391
 20
86.56740741378714
 30
0.0
 11
210.5469016938391
 21
109.5674074138403
 31
0.0
  0
LINE
  5
229B
330
18
100
AcDbEntity
  8
1
  6
Continuous
100
AcDbLine
 10
196.7469016937801
 20
105.9674074138136
 30
0.0
 11
196.746901693824
 21
90.16740741381372
 31
0.0
  0
ARC
  5
229E
330
18
100
AcDbEntity
  8
1
  6
Continuous
100
AcDbCircle
 10
196.246901693824
 20
90.16740741381232
 30
0.0
 40
0.5
100
AcDbArc
 50
270.0
 51
0.0
  0
ARC
  5
22A3
330
18
100
AcDbEntity
  8
1
  6
Continuous
100
AcDbCircle
 10
196.2469016937801
 20
105.9674074138122
 30
0.0
 40
0.5
100
AcDbArc
 50
0.0
 51
90.0
  0
ARC
  5
25E8
330
18
100
AcDbEntity
  8
1
  6
Continuous
100
AcDbCircle
 10
213.4746048214787
 20
248.2291218912636
 30
0.0
 40
10.28148735528785
100
AcDbArc
 50
273.1908954929169
 51
281.6279724453688
  0
ARC
  5
25EC
330
18
100
AcDbEntity
  8
1
  6
Continuous
100
AcDbCircle
 10
210.2555151306734
 20
179.7437403939664
 30
0.0
 40
0.3837196085670317
100
AcDbArc
 50
66.53515860815783
 51
91.28623876285058
  0
ARC
  5
25ED
330
18
100
AcDbEntity
  8
1
  6
Continuous
100
AcDbCircle
 10
210.3910844837332
 20
180.0420223590983
 30
0.0
 40
0.0563997103922133
100
AcDbArc
 50
8.241794389032571
 51
72.21985058735334
  0
ARC
  5
25EE
330
18
100
AcDbEntity
  8
1
  6
Continuous
100
AcDbCircle
 10
197.8065211849006
 20
183.9872331669509
 30
0.0
 40
1.060941265221337
100
AcDbArc
 50
135.7240946358641
 51
182.8603269741804
  0
ARC
  5
25EF
330
18
100
AcDbEntity
  8
1
  6
Continuous
100
AcDbCircle
 10
197.8486282433415
 20
182.9421244107492
 30
0.0
 40
1.102131381810297
100
AcDbArc
 50
144.9016338306975
 51
181.5530012463548
  0
ARC
  5
25F0
330
18
100
AcDbEntity
  8
1
  6
Continuous
100
AcDbCircle
 10
210.2874965101461
 20
181.4054071423569
 30
0.0
 40
1.487310081395098
100
AcDbArc
 50
268.4359680161214
 51
276.152597753618
  0
ARC
  5
25F1
330
18
100
AcDbEntity
  8
1
  6
Continuous
100
AcDbCircle
 10
300.2707830695666
 20
239.8224570865883
 30
0.0
 40
2.389087296537776
100
AcDbArc
 50
213.4825689223332
 51
326.5174310754066
  0
ARC
  5
25F2
330
18
100
AcDbEntity
  8
1
  6
Continuous
100
AcDbCircle
 10
300.2707830694843
 20
232.289983180357
 30
0.0
 40
3.037756530484718
100
AcDbArc
 50
189.0429064992274
 51
350.9570935007197
  0
ARC
  5
25F4
330
18
100
AcDbEntity
  8
1
  6
Continuous
100
AcDbCircle
 10
439.7527921366847
 20
245.8132676596196
 30
0.0
 40
7.853935892272957
100
AcDbArc
 50
257.0645560416345
 51
268.1165760200776
  0
ARC
  5
25F9
330
18
100
AcDbEntity
  8
1
  6
Continuous
100
AcDbCircle
 10
455.6349443600283
 20
183.9684855293137
 30
0.0
 40
1.160224098685461
100
AcDbArc
 50
358.3111005728774
 51
42.18376919820049
  0
ARC
  5
2602
330
18
100
AcDbEntity
  8
1
  6
Continuous
100
AcDbCircle
 10
455.8181651148273
 20
182.9836016380289
 30
0.0
 40
0.9765683171236736
100
AcDbArc
 50
359.3189581497095
 51
37.33240926653258
  0
ARC
  5
2606
330
18
100
AcDbEntity
  8
1
  6
Continuous
100
AcDbCircle
 10
443.2851913393377
 20
179.750076858429
 30
0.0
 40
0.3774053671804808
100
AcDbArc
 50
88.56168988277975
 51
114.054525587274
  0
ARC
  5
2607
330
18
100
AcDbEntity
  8
1
  6
Continuous
100
AcDbCircle
 10
443.1470642596773
 20
180.0443910624661
 30
0.0
 40
0.0527106828332482
100
AcDbArc
 50
107.3349750022425
 51
173.7742771426955
  0
ARC
  5
2608
330
18
100
AcDbEntity
  8
1
  6
Continuous
100
AcDbCircle
 10
443.2604800248721
 20
181.5654102304925
 30
0.0
 40
1.647113838670779
100
AcDbArc
 50
264.222224616053
 51
271.1892096107964
  0
ENDSEC
  0
SECTION
  2
OBJECTS
  0
DICTIONARY
  5
C
330
0
100
AcDbDictionary
281
     1
  3
ACAD_CIP_PREVIOUS_PRODUCT_INFO
350
2690
  3
ACAD_COLOR
350
2673
  3
ACAD_DETAILVIEWSTYLE
350
268C
  3
ACAD_GROUP
350
D
  3
ACAD_LAYOUT
350
94
  3
ACAD_MATERIAL
350
2641
  3
ACAD_MLEADERSTYLE
350
2688
  3
ACAD_MLINESTYLE
350
1B
  3
ACAD_PLOTSETTINGS
350
95
  3
ACAD_PLOTSTYLENAME
350
263F
  3
ACAD_SCALELIST
350
2676
  3
ACAD_SECTIONVIEWSTYLE
350
268A
  3
ACAD_TABLESTYLE
350
2674
  3
ACAD_VISUALSTYLE
350
265A
  3
ACDB_RECOMPOSE_DATA
350
26AE
  3
AcDbVariableDictionary
350
26A1
  3
CONTENTDICTIONARY
350
3D
  3
DWGPROPS
350
26AF
  0
DICTIONARY
  5
2691
330
E
100
AcDbDictionary
280
     1
281
     1
  3
ADSK_XREC_LAYER_RECONCILED
360
2692
  0
DICTIONARY
  5
2693
330
4E
100
AcDbDictionary
280
     1
281
     1
  3
ADSK_XREC_LAYER_RECONCILED
360
2694
  0
DICTIONARY
  5
2695
330
4F
100
AcDbDictionary
280
     1
281
     1
  3
ADSK_XREC_LAYER_RECONCILED
360
2696
  0
DICTIONARY
  5
2697
330
50
100
AcDbDictionary
280
     1
281
     1
  3
ADSK_XREC_LAYER_RECONCILED
360
2698
  0
DICTIONARY
  5
2699
330
51
100
AcDbDictionary
280
     1
281
     1
  3
ADSK_XREC_LAYER_RECONCILED
360
269A
  0
DICTIONARY
  5
269B
330
52
100
AcDbDictionary
280
     1
281
     1
  3
ADSK_XREC_LAYER_RECONCILED
360
269C
  0
DICTIONARY
  5
269D
330
53
100
AcDbDictionary
280
     1
281
     1
  3
ADSK_XREC_LAYER_RECONCILED
360
269E
  0
DICTIONARY
  5
269F
330
54
100
AcDbDictionary
280
     1
281
     1
  3
ADSK_XREC_LAYER_RECONCILED
360
26A0
  0
DICTIONARY
  5
2622
330
18
100
AcDbDictionary
281
     1
  3
ACAD_LAYOUTSELFREF
350
263B
  0
DICTIONARY
  5
2620
330
15
100
AcDbDictionary
281
     1
  3
ACAD_LAYOUTSELFREF
350
263A
  0
XRECORD
  5
2690
102
{ACAD_REACTORS
330
C
102
}
330
C
100
AcDbXrecord
280
     1
300
ACDLT
300
2014
300
ACDLT_F_S
  0
DICTIONARY
  5
2673
102
{ACAD_REACTORS
330
C
102
}
330
C
100
AcDbDictionary
281
     1
  0
DICTIONARY
  5
268C
102
{ACAD_REACTORS
330
C
102
}
330
C
100
AcDbDictionary
281
     1
  3
Imperial24
350
268D
  0
DICTIONARY
  5
D
102
{ACAD_REACTORS
330
C
102
}
330
C
100
AcDbDictionary
281
     1
  0
DICTIONARY
  5
94
102
{ACAD_REACTORS
330
C
102
}
330
C
100
AcDbDictionary
281
     1
  3
Model
350
268E
  3
レイアウト1
350
268F
  0
DICTIONARY
  5
2641
102
{ACAD_REACTORS
330
C
102
}
330
C
100
AcDbDictionary
281
     1
  3
ByBlock
350
264A
  3
ByLayer
350
2642
  3
Global
350
2652
  0
DICTIONARY
  5
2688
102
{ACAD_REACTORS
330
C
102
}
330
C
100
AcDbDictionary
281
     1
  3
Standard
350
2689
  0
DICTIONARY
  5
1B
102
{ACAD_REACTORS
330
C
102
}
330
C
100
AcDbDictionary
281
     1
  3
STANDARD
350
1C
  0
DICTIONARY
  5
95
102
{ACAD_REACTORS
330
C
102
}
330
C
100
AcDbDictionary
281
     1
  0
ACDBDICTIONARYWDFLT
  5
263F
102
{ACAD_REACTORS
330
C
102
}
330
C
100
AcDbDictionary
281
     1
  3
Normal
350
2640
100
AcDbDictionaryWithDefault
340
2640
  0
DICTIONARY
  5
2676
102
{ACAD_REACTORS
330
C
102
}
330
C
100
AcDbDictionary
281
     1
  3
A0
350
2677
  3
A1
350
2678
  3
A2
350
2679
  3
A3
350
267A
  3
A4
350
267B
  3
A5
350
267C
  3
A6
350
267D
  3
A7
350
267E
  3
A8
350
267F
  3
A9
350
2680
  3
B0
350
2681
  3
B1
350
2682
  3
B2
350
2683
  3
B3
350
2684
  3
B4
350
2685
  3
B5
350
2686
  3
B6
350
2687
  0
DICTIONARY
  5
268A
102
{ACAD_REACTORS
330
C
102
}
330
C
100
AcDbDictionary
281
     1
  3
Imperial24
350
268B
  0
DICTIONARY
  5
2674
102
{ACAD_REACTORS
330
C
102
}
330
C
100
AcDbDictionary
281
     1
  3
Standard
350
2675
  0
DICTIONARY
  5
265A
102
{ACAD_REACTORS
330
C
102
}
330
C
100
AcDbDictionary
281
     1
  3
2dWireframe
350
2660
  3
Basic
350
265F
  3
Brighten
350
2666
  3
ColorChange
350
266A
  3
Conceptual
350
2663
  3
Dim
350
2665
  3
EdgeColorOff
350
2672
  3
Facepattern
350
2669
  3
Flat
350
265B
  3
FlatWithEdges
350
265C
  3
Gouraud
350
265D
  3
GouraudWithEdges
350
265E
  3
Hidden
350
2662
  3
JitterOff
350
2670
  3
Linepattern
350
2668
  3
OverhangOff
350
2671
  3
Realistic
350
2664
  3
Shaded
350
266F
  3
Shaded with edges
350
266E
  3
Shades of Gray
350
266B
  3
Sketchy
350
266C
  3
Thicken
350
2667
  3
Wireframe
350
2661
  3
X-Ray
350
266D
  0
XRECORD
  5
26AE
102
{ACAD_REACTORS
330
C
102
}
330
C
100
AcDbXrecord
280
     1
 90
        1
330
2675
  0
DICTIONARY
  5
26A1
102
{ACAD_REACTORS
330
C
102
}
330
C
100
AcDbDictionary
281
     1
  3
CANNOSCALE
350
26A6
  3
CMLEADERSTYLE
350
26A3
  3
CTABLESTYLE
350
26A2
  3
CVIEWDETAILSTYLE
350
26A4
  3
CVIEWSECTIONSTYLE
350
26A5
  3
DIMASSOC
350
26A9
  3
INDEXCTL
350
26A8
  3
SORTENTS
350
26A7
  3
XCLIPFRAME
350
26AA
  0
DICTIONARY
  5
3D
102
{ACAD_REACTORS
330
C
102
}
330
C
100
AcDbDictionary
281
     1
  0
XRECORD
  5
26AF
102
{ACAD_REACTORS
330
C
102
}
330
C
100
AcDbXrecord
280
     1
  1
DWGPROPS COOKIE
  2

  3

  4

  6

  7

  8
Yoshitsune
  9

300
=
301
=
302
=
303
=
304
=
305
=
306
=
307
=
308
=
309
=
 40
0.1196275810185185
 41
2452957.455275961
 42
2457192.64380809
  1

 90
        0
  0
XRECORD
  5
2692
102
{ACAD_REACTORS
330
2691
102
}
330
2691
100
AcDbXrecord
280
     1
290
     1
  0
XRECORD
  5
2694
102
{ACAD_REACTORS
330
2693
102
}
330
2693
100
AcDbXrecord
280
     1
290
     1
  0
XRECORD
  5
2696
102
{ACAD_REACTORS
330
2695
102
}
330
2695
100
AcDbXrecord
280
     1
290
     1
  0
XRECORD
  5
2698
102
{ACAD_REACTORS
330
2697
102
}
330
2697
100
AcDbXrecord
280
     1
290
     1
  0
XRECORD
  5
269A
102
{ACAD_REACTORS
330
2699
102
}
330
2699
100
AcDbXrecord
280
     1
290
     1
  0
XRECORD
  5
269C
102
{ACAD_REACTORS
330
269B
102
}
330
269B
100
AcDbXrecord
280
     1
290
     1
  0
XRECORD
  5
269E
102
{ACAD_REACTORS
330
269D
102
}
330
269D
100
AcDbXrecord
280
     1
290
     1
  0
XRECORD
  5
26A0
102
{ACAD_REACTORS
330
269F
102
}
330
269F
100
AcDbXrecord
280
     1
290
     1
  0
XRECORD
  5
263B
102
{ACAD_REACTORS
330
2622
102
}
330
2622
100
AcDbXrecord
280
     1
340
18
  0
XRECORD
  5
263A
102
{ACAD_REACTORS
330
2620
102
}
330
2620
100
AcDbXrecord
280
     1
340
15
  0
ACDBDETAILVIEWSTYLE
  5
268D
102
{ACAD_XDICTIONARY
360
26E7
102
}
102
{ACAD_REACTORS
330
268C
102
}
330
268C
100
AcDbModelDocViewStyle
 70
     0
  3
Imperial24
290
     0
100
AcDbDetailViewStyle
 70
     0
 71
     0
 90
        3
 71
     1
340
F
 40
0.24
340
0
 40
0.24
300

 40
0.36
280
     3
 71
     2
340
14
 90
       25
 71
     3
340
F
 40
0.24
 90
        1
 40
0.75
 90
        1
300
%<\AcVar ViewType \f "%tc1">% %<\AcVar ViewDetailId>%\PSCALE %<\AcVar ViewScale \f "%sn">%
 71
     4
340
14
 90
       25
340
14
 90
       25
280
     0
  0
LAYOUT
  5
268E
102
{ACAD_XDICTIONARY
360
26E9
102
}
102
{ACAD_REACTORS
330
94
102
}
330
94
100
AcDbPlotSettings
  1

  2
Canon LBP9100C
  4

  6

 40
0.0
 41
0.0
 42
0.0
 43
0.0
 44
0.0
 45
0.0
 46
0.0
 47
0.0
 48
0.0
 49
0.0
140
0.0
141
0.0
142
1.0
143
1.0
 70
  1712
 72
     0
 73
     0
 74
     0
  7

 75
     0
147
1.0
148
0.0
149
0.0
100
AcDbLayout
  1
Model
 70
     1
 71
     0
 10
0.0
 20
0.0
 11
12.0
 21
9.0
 12
0.0
 22
0.0
 32
0.0
 14
0.0
 24
0.0
 34
0.0
 15
0.0
 25
0.0
 35
0.0
146
0.0
 13
0.0
 23
0.0
 33
0.0
 16
1.0
 26
0.0
 36
0.0
 17
0.0
 27
1.0
 37
0.0
 76
     0
330
18
331
2639
  0
LAYOUT
  5
268F
102
{ACAD_XDICTIONARY
360
26EB
102
}
102
{ACAD_REACTORS
330
94
102
}
330
94
100
AcDbPlotSettings
  1

  2
Canon LBP9100C
  4

  6

 40
0.0
 41
0.0
 42
0.0
 43
0.0
 44
0.0
 45
0.0
 46
0.0
 47
0.0
 48
0.0
 49
0.0
140
0.0
141
0.0
142
1.0
143
1.0
 70
   688
 72
     0
 73
     0
 74
     5
  7

 75
    16
147
1.0
148
0.0
149
0.0
100
AcDbLayout
  1
レイアウト1
 70
     1
 71
     1
 10
0.0
 20
0.0
 11
420.0
 21
297.0
 12
0.0
 22
0.0
 32
0.0
 14
1.000000000000000E+20
 24
1.000000000000000E+20
 34
1.000000000000000E+20
 15
-1.000000000000000E+20
 25
-1.000000000000000E+20
 35
-1.000000000000000E+20
146
0.0
 13
0.0
 23
0.0
 33
0.0
 16
1.0
 26
0.0
 36
0.0
 17
0.0
 27
1.0
 37
0.0
 76
     0
330
15
  0
MATERIAL
  5
264A
102
{ACAD_XDICTIONARY
360
264B
102
}
102
{ACAD_REACTORS
330
2641
102
}
330
2641
100
AcDbMaterial
  1
ByBlock
 72
     0
 43
0.0208333333333333
 43
0.0
 43
0.0
 43
0.0
 43
0.0
 43
0.0208333333333333
 43
0.0
 43
0.0
 43
0.0
 43
0.0
 43
1.0
 43
0.0
 43
0.0
 43
0.0
 43
0.0
 43
1.0
 77
     0
 47
0.0208333333333333
 47
0.0
 47
0.0
 47
0.0
 47
0.0
 47
0.0208333333333333
 47
0.0
 47
0.0
 47
0.0
 47
0.0
 47
1.0
 47
0.0
 47
0.0
 47
0.0
 47
0.0
 47
1.0
171
     0
 49
0.0208333333333333
 49
0.0
 49
0.0
 49
0.0
 49
0.0
 49
0.0208333333333333
 49
0.0
 49
0.0
 49
0.0
 49
0.0
 49
1.0
 49
0.0
 49
0.0
 49
0.0
 49
0.0
 49
1.0
175
     0
142
0.0208333333333333
142
0.0
142
0.0
142
0.0
142
0.0
142
0.0208333333333333
142
0.0
142
0.0
142
0.0
142
0.0
142
1.0
142
0.0
142
0.0
142
0.0
142
0.0
142
1.0
179
     0
144
0.0208333333333333
144
0.0
144
0.0
144
0.0
144
0.0
144
0.0208333333333333
144
0.0
144
0.0
144
0.0
144
0.0
144
1.0
144
0.0
144
0.0
144
0.0
144
0.0
144
1.0
147
0.0208333333333333
147
0.0
147
0.0
147
0.0
147
0.0
147
0.0208333333333333
147
0.0
147
0.0
147
0.0
147
0.0
147
1.0
147
0.0
147
0.0
147
0.0
147
0.0
147
1.0
  0
MATERIAL
  5
2642
102
{ACAD_XDICTIONARY
360
2643
102
}
102
{ACAD_REACTORS
330
2641
102
}
330
2641
100
AcDbMaterial
  1
ByLayer
 72
     0
 43
0.0208333333333333
 43
0.0
 43
0.0
 43
0.0
 43
0.0
 43
0.0208333333333333
 43
0.0
 43
0.0
 43
0.0
 43
0.0
 43
1.0
 43
0.0
 43
0.0
 43
0.0
 43
0.0
 43
1.0
 77
     0
 47
0.0208333333333333
 47
0.0
 47
0.0
 47
0.0
 47
0.0
 47
0.0208333333333333
 47
0.0
 47
0.0
 47
0.0
 47
0.0
 47
1.0
 47
0.0
 47
0.0
 47
0.0
 47
0.0
 47
1.0
171
     0
 49
0.0208333333333333
 49
0.0
 49
0.0
 49
0.0
 49
0.0
 49
0.0208333333333333
 49
0.0
 49
0.0
 49
0.0
 49
0.0
 49
1.0
 49
0.0
 49
0.0
 49
0.0
 49
0.0
 49
1.0
175
     0
142
0.0208333333333333
142
0.0
142
0.0
142
0.0
142
0.0
142
0.0208333333333333
142
0.0
142
0.0
142
0.0
142
0.0
142
1.0
142
0.0
142
0.0
142
0.0
142
0.0
142
1.0
179
     0
144
0.0208333333333333
144
0.0
144
0.0
144
0.0
144
0.0
144
0.0208333333333333
144
0.0
144
0.0
144
0.0
144
0.0
144
1.0
144
0.0
144
0.0
144
0.0
144
0.0
144
1.0
147
0.0208333333333333
147
0.0
147
0.0
147
0.0
147
0.0
147
0.0208333333333333
147
0.0
147
0.0
147
0.0
147
0.0
147
1.0
147
0.0
147
0.0
147
0.0
147
0.0
147
1.0
  0
MATERIAL
  5
2652
102
{ACAD_XDICTIONARY
360
2653
102
}
102
{ACAD_REACTORS
330
2641
102
}
330
2641
100
AcDbMaterial
  1
Global
 72
     0
 43
0.0208333333333333
 43
0.0
 43
0.0
 43
0.0
 43
0.0
 43
0.0208333333333333
 43
0.0
 43
0.0
 43
0.0
 43
0.0
 43
1.0
 43
0.0
 43
0.0
 43
0.0
 43
0.0
 43
1.0
 77
     0
 47
0.0208333333333333
 47
0.0
 47
0.0
 47
0.0
 47
0.0
 47
0.0208333333333333
 47
0.0
 47
0.0
 47
0.0
 47
0.0
 47
1.0
 47
0.0
 47
0.0
 47
0.0
 47
0.0
 47
1.0
171
     0
 49
0.0208333333333333
 49
0.0
 49
0.0
 49
0.0
 49
0.0
 49
0.0208333333333333
 49
0.0
 49
0.0
 49
0.0
 49
0.0
 49
1.0
 49
0.0
 49
0.0
 49
0.0
 49
0.0
 49
1.0
175
     0
142
0.0208333333333333
142
0.0
142
0.0
142
0.0
142
0.0
142
0.0208333333333333
142
0.0
142
0.0
142
0.0
142
0.0
142
1.0
142
0.0
142
0.0
142
0.0
142
0.0
142
1.0
179
     0
144
0.0208333333333333
144
0.0
144
0.0
144
0.0
144
0.0
144
0.0208333333333333
144
0.0
144
0.0
144
0.0
144
0.0
144
1.0
144
0.0
144
0.0
144
0.0
144
0.0
144
1.0
147
0.0208333333333333
147
0.0
147
0.0
147
0.0
147
0.0
147
0.0208333333333333
147
0.0
147
0.0
147
0.0
147
0.0
147
1.0
147
0.0
147
0.0
147
0.0
147
0.0
147
1.0
  0
MLEADERSTYLE
  5
2689
102
{ACAD_REACTORS
330
2688
102
}
330
2688
100
AcDbMLeaderStyle
170
     2
171
     1
172
     0
 90
        2
 40
0.0
 41
0.0
173
     1
 91
-1056964608
340
12
 92
       -2
290
     1
 42
0.09
291
     1
 43
0.36
  3
Standard
 44
0.18
300

342
F
174
     1
178
     6
175
     1
176
     0
 93
-1056964608
 45
0.18
292
     0
297
     0
 46
0.18
 94
-1056964608
 47
1.0
 49
1.0
140
1.0
293
     1
141
0.0
294
     1
177
     0
142
1.0
295
     0
296
     0
143
0.125
1001
ACAD_MLEADERVER
1070
     2
  0
MLINESTYLE
  5
1C
102
{ACAD_REACTORS
330
1B
102
}
330
1B
100
AcDbMlineStyle
  2
STANDARD
 70
     0
  3

 62
   256
 51
90.0
 52
90.0
 71
     2
 49
0.5
 62
   256
  6
BYLAYER
 49
-0.5
 62
   256
  6
BYLAYER
  0
ACDBPLACEHOLDER
  5
2640
102
{ACAD_REACTORS
330
263F
102
}
330
263F
  0
SCALE
  5
2677
102
{ACAD_REACTORS
330
2676
102
}
330
2676
100
AcDbScale
 70
     0
300
1:1
140
1.0
141
1.0
290
     1
  0
SCALE
  5
2678
102
{ACAD_REACTORS
330
2676
102
}
330
2676
100
AcDbScale
 70
     0
300
1/128" = 1'-0"
140
0.0078125
141
12.0
290
     0
  0
SCALE
  5
2679
102
{ACAD_REACTORS
330
2676
102
}
330
2676
100
AcDbScale
 70
     0
300
1/64" = 1'-0"
140
0.015625
141
12.0
290
     0
  0
SCALE
  5
267A
102
{ACAD_REACTORS
330
2676
102
}
330
2676
100
AcDbScale
 70
     0
300
1/32" = 1'-0"
140
0.03125
141
12.0
290
     0
  0
SCALE
  5
267B
102
{ACAD_REACTORS
330
2676
102
}
330
2676
100
AcDbScale
 70
     0
300
1/16" = 1'-0"
140
0.0625
141
12.0
290
     0
  0
SCALE
  5
267C
102
{ACAD_REACTORS
330
2676
102
}
330
2676
100
AcDbScale
 70
     0
300
3/32" = 1'-0"
140
0.09375
141
12.0
290
     0
  0
SCALE
  5
267D
102
{ACAD_REACTORS
330
2676
102
}
330
2676
100
AcDbScale
 70
     0
300
1/8" = 1'-0"
140
0.125
141
12.0
290
     0
  0
SCALE
  5
267E
102
{ACAD_REACTORS
330
2676
102
}
330
2676
100
AcDbScale
 70
     0
300
3/16" = 1'-0"
140
0.1875
141
12.0
290
     0
  0
SCALE
  5
267F
102
{ACAD_REACTORS
330
2676
102
}
330
2676
100
AcDbScale
 70
     0
300
1/4" = 1'-0"
140
0.25
141
12.0
290
     0
  0
SCALE
  5
2680
102
{ACAD_REACTORS
330
2676
102
}
330
2676
100
AcDbScale
 70
     0
300
3/8" = 1'-0"
140
0.375
141
12.0
290
     0
  0
SCALE
  5
2681
102
{ACAD_REACTORS
330
2676
102
}
330
2676
100
AcDbScale
 70
     0
300
1/2" = 1'-0"
140
0.5
141
12.0
290
     0
  0
SCALE
  5
2682
102
{ACAD_REACTORS
330
2676
102
}
330
2676
100
AcDbScale
 70
     0
300
3/4" = 1'-0"
140
0.75
141
12.0
290
     0
  0
SCALE
  5
2683
102
{ACAD_REACTORS
330
2676
102
}
330
2676
100
AcDbScale
 70
     0
300
1" = 1'-0"
140
1.0
141
12.0
290
     0
  0
SCALE
  5
2684
102
{ACAD_REACTORS
330
2676
102
}
330
2676
100
AcDbScale
 70
     0
300
1-1/2" = 1'-0"
140
1.5
141
12.0
290
     0
  0
SCALE
  5
2685
102
{ACAD_REACTORS
330
2676
102
}
330
2676
100
AcDbScale
 70
     0
300
3" = 1'-0"
140
3.0
141
12.0
290
     0
  0
SCALE
  5
2686
102
{ACAD_REACTORS
330
2676
102
}
330
2676
100
AcDbScale
 70
     0
300
6" = 1'-0"
140
6.0
141
12.0
290
     0
  0
SCALE
  5
2687
102
{ACAD_REACTORS
330
2676
102
}
330
2676
100
AcDbScale
 70
     0
300
1'-0" = 1'-0"
140
12.0
141
12.0
290
     0
  0
ACDBSECTIONVIEWSTYLE
  5
268B
102
{ACAD_XDICTIONARY
360
26E5
102
}
102
{ACAD_REACTORS
330
268A
102
}
330
268A
100
AcDbModelDocViewStyle
 70
     0
  3
Imperial24
290
     0
100
AcDbSectionViewStyle
 70
     0
 71
     0
 90
       78
 71
     1
340
F
 40
0.24
340
0
340
0
 40
0.24
300
I, O, Q, S, X, Z
 40
0.48
 90
        3
 40
0.18
 90
        1
 71
     2
340
14
 90
       25
340
14
 90
       50
 40
0.24
 40
0.0
 40
0.24
 71
     3
340
F
 40
0.24
 90
        1
 40
0.75
 90
        1
300
%<\AcVar ViewType \f "%tc1">% %<\AcVar ViewSectionStartId>%-%<\AcVar ViewSectionEndId>%\PSCALE %<\AcVar ViewScale \f "%sn">%
 71
     4
300
ANSI31
 40
1.0
 90
        0
290
     0
290
     0
 90
        6
 40
0.0
 40
1.570796326794896
 40
0.2617993877991494
 40
1.308996938995747
 40
-0.2617993877991494
 40
1.832595714594046
  0
TABLESTYLE
  5
2675
102
{ACAD_XDICTIONARY
360
26AC
102
}
102
{ACAD_REACTORS
330
2674
102
}
330
2674
100
AcDbTableStyle
  3
Standard
 70
     0
 71
     0
 40
0.06
 41
0.06
280
     0
281
     0
  7
STANDARD
140
0.18
170
     2
 62
     0
 63
     7
283
     0
274
    -2
284
     1
 64
     0
275
    -2
285
     1
 65
     0
276
    -2
286
     1
 66
     0
277
    -2
287
     1
 67
     0
278
    -2
288
     1
 68
     0
279
    -2
289
     1
 69
     0
  7
STANDARD
140
0.25
170
     5
 62
     0
 63
     7
283
     0
274
    -2
284
     1
 64
     0
275
    -2
285
     1
 65
     0
276
    -2
286
     1
 66
     0
277
    -2
287
     1
 67
     0
278
    -2
288
     1
 68
     0
279
    -2
289
     1
 69
     0
  7
STANDARD
140
0.18
170
     5
 62
     0
 63
     7
283
     0
274
    -2
284
     1
 64
     0
275
    -2
285
     1
 65
     0
276
    -2
286
     1
 66
     0
277
    -2
287
     1
 67
     0
278
    -2
288
     1
 68
     0
279
    -2
289
     1
 69
     0
  0
VISUALSTYLE
  5
2660
102
{ACAD_XDICTIONARY
360
26BD
102
}
102
{ACAD_REACTORS
330
265A
102
}
330
265A
100
AcDbVisualStyle
  2
2dWireframe
 70
     4
 71
     0
 72
     2
 73
     0
 90
        0
 40
-0.6
 41
-30.0
 62
     5
 63
     7
 74
     1
 91
        4
 64
     7
 65
   257
 75
     1
175
     1
 42
1.0
 92
        0
 66
   257
 43
1.0
 76
     1
 77
     6
 78
     2
 67
     7
 79
     5
170
     0
171
     0
290
     0
174
     0
 93
        1
 44
0.0
173
     0
291
     0
 45
0.0
1001
ACAD
1000
AcDbSavedByObjectVersion
1070
     0
  0
VISUALSTYLE
  5
265F
102
{ACAD_XDICTIONARY
360
26BB
102
}
102
{ACAD_REACTORS
330
265A
102
}
330
265A
100
AcDbVisualStyle
  2
Basic
 70
     7
 71
     1
 72
     0
 73
     1
 90
        0
 40
-0.6
 41
-30.0
 62
     5
 63
     7
 74
     0
 91
        4
 64
     7
 65
   257
 75
     1
175
     1
 42
1.0
 92
        8
 66
     7
 43
1.0
 76
     1
 77
     6
 78
     2
 67
     7
 79
     5
170
     0
171
     0
290
     0
174
     0
 93
        1
 44
0.0
173
     0
291
     1
 45
0.0
1001
ACAD
1000
AcDbSavedByObjectVersion
1070
     0
  0
VISUALSTYLE
  5
2666
102
{ACAD_XDICTIONARY
360
26C9
102
}
102
{ACAD_REACTORS
330
265A
102
}
330
265A
100
AcDbVisualStyle
  2
Brighten
 70
    12
 71
     2
 72
     2
 73
     0
 90
        0
 40
-0.6
 41
-30.0
 62
     5
 63
     7
 74
     1
 91
        4
 64
     7
 65
   257
 75
     1
175
     1
 42
1.0
 92
        8
 66
     7
 43
1.0
 76
     1
 77
     6
 78
     2
 67
     7
 79
     5
170
     0
171
     0
290
     0
174
     0
 93
        1
 44
50.0
173
     0
291
     1
 45
0.0
1001
ACAD
1000
AcDbSavedByObjectVersion
1070
     0
  0
VISUALSTYLE
  5
266A
102
{ACAD_XDICTIONARY
360
26D1
102
}
102
{ACAD_REACTORS
330
265A
102
}
330
265A
100
AcDbVisualStyle
  2
ColorChange
 70
    16
 71
     2
 72
     2
 73
     3
 90
        0
 40
-0.6
 41
-30.0
 62
     5
 63
     8
 74
     1
 91
        4
 64
     7
 65
   257
 75
     1
175
     1
 42
1.0
 92
        8
 66
     8
 43
1.0
 76
     1
 77
     6
 78
     2
 67
     7
 79
     5
170
     0
171
     0
290
     0
174
     0
 93
        1
 44
0.0
173
     0
291
     1
 45
0.0
1001
ACAD
1000
AcDbSavedByObjectVersion
1070
     0
  0
VISUALSTYLE
  5
2663
102
{ACAD_XDICTIONARY
360
26C3
102
}
102
{ACAD_REACTORS
330
265A
102
}
330
265A
100
AcDbVisualStyle
  2
Conceptual
 70
     9
 71
     3
 72
     2
 73
     0
 90
        0
 40
-0.6
 41
-30.0
 62
     5
 63
     7
 74
     2
 91
        2
 64
     7
 65
   257
 75
     1
175
     1
 42
179.0
 92
        8
 66
     7
 43
1.0
 76
     1
 77
     6
 78
     2
 67
     7
 79
     3
170
     0
171
     0
290
     0
174
     0
 93
        1
 44
0.0
173
     0
291
     0
 45
0.0
1001
ACAD
1000
AcDbSavedByObjectVersion
1070
     0
  0
VISUALSTYLE
  5
2665
102
{ACAD_XDICTIONARY
360
26C7
102
}
102
{ACAD_REACTORS
330
265A
102
}
330
265A
100
AcDbVisualStyle
  2
Dim
 70
    11
 71
     2
 72
     2
 73
     0
 90
        0
 40
-0.6
 41
-30.0
 62
     5
 63
     7
 74
     1
 91
        4
 64
     7
 65
   257
 75
     1
175
     1
 42
1.0
 92
        8
 66
     7
 43
1.0
 76
     1
 77
     6
 78
     2
 67
     7
 79
     5
170
     0
171
     0
290
     0
174
     0
 93
        1
 44
-50.0
173
     0
291
     1
 45
0.0
1001
ACAD
1000
AcDbSavedByObjectVersion
1070
     0
  0
VISUALSTYLE
  5
2672
102
{ACAD_XDICTIONARY
360
26E1
102
}
102
{ACAD_REACTORS
330
265A
102
}
330
265A
100
AcDbVisualStyle
  2
EdgeColorOff
 70
    22
 71
     2
 72
     2
 73
     0
 90
        0
 40
-0.6
 41
-30.0
 62
     5
 63
     7
 74
     1
 91
        4
 64
     7
 65
   257
 75
     1
175
     1
 42
1.0
 92
        8
 66
     7
 43
1.0
 76
     1
 77
     6
 78
     2
 67
     7
 79
     5
170
     0
171
     0
290
     0
174
     0
 93
        1
 44
0.0
173
     0
291
     1
 45
0.0
1001
ACAD
1000
AcDbSavedByObjectVersion
1070
     0
  0
VISUALSTYLE
  5
2669
102
{ACAD_XDICTIONARY
360
26CF
102
}
102
{ACAD_REACTORS
330
265A
102
}
330
265A
100
AcDbVisualStyle
  2
Facepattern
 70
    15
 71
     2
 72
     2
 73
     0
 90
        0
 40
-0.6
 41
-30.0
 62
     5
 63
     7
 74
     1
 91
        4
 64
     7
 65
   257
 75
     1
175
     1
 42
1.0
 92
        8
 66
     7
 43
1.0
 76
     1
 77
     6
 78
     2
 67
     7
 79
     5
170
     0
171
     0
290
     0
174
     0
 93
        1
 44
0.0
173
     0
291
     1
 45
0.0
1001
ACAD
1000
AcDbSavedByObjectVersion
1070
     0
  0
VISUALSTYLE
  5
265B
102
{ACAD_XDICTIONARY
360
26B3
102
}
102
{ACAD_REACTORS
330
265A
102
}
330
265A
100
AcDbVisualStyle
  2
Flat
 70
     0
 71
     2
 72
     1
 73
     1
 90
        2
 40
-0.6
 41
30.0
 62
     5
 63
     7
 74
     0
 91
        0
 64
     7
 65
   257
 75
     1
175
     1
 42
1.0
 92
        8
 66
     7
 43
1.0
 76
     1
 77
     6
 78
     2
 67
     7
 79
     5
170
     0
171
     0
290
     0
174
     0
 93
       13
 44
0.0
173
     0
291
     1
 45
0.0
1001
ACAD
1000
AcDbSavedByObjectVersion
1070
     0
  0
VISUALSTYLE
  5
265C
102
{ACAD_XDICTIONARY
360
26B5
102
}
102
{ACAD_REACTORS
330
265A
102
}
330
265A
100
AcDbVisualStyle
  2
FlatWithEdges
 70
     1
 71
     2
 72
     1
 73
     1
 90
        2
 40
-0.6
 41
30.0
 62
     5
 63
     7
 74
     1
 91
        0
 64
     7
 65
   257
 75
     1
175
     1
 42
1.0
 92
        0
 66
   257
 43
1.0
 76
     1
 77
     6
 78
     2
 67
     7
 79
     5
170
     0
171
     0
290
     0
174
     0
 93
       13
 44
0.0
173
     0
291
     1
 45
0.0
1001
ACAD
1000
AcDbSavedByObjectVersion
1070
     0
  0
VISUALSTYLE
  5
265D
102
{ACAD_XDICTIONARY
360
26B7
102
}
102
{ACAD_REACTORS
330
265A
102
}
330
265A
100
AcDbVisualStyle
  2
Gouraud
 70
     2
 71
     2
 72
     2
 73
     1
 90
        2
 40
-0.6
 41
30.0
 62
     5
 63
     7
 74
     0
 91
        0
 64
     7
 65
   257
 75
     1
175
     1
 42
1.0
 92
        0
 66
     7
 43
1.0
 76
     1
 77
     6
 78
     2
 67
     7
 79
     5
170
     0
171
     0
290
     0
174
     0
 93
       13
 44
0.0
173
     0
291
     1
 45
0.0
1001
ACAD
1000
AcDbSavedByObjectVersion
1070
     0
  0
VISUALSTYLE
  5
265E
102
{ACAD_XDICTIONARY
360
26B9
102
}
102
{ACAD_REACTORS
330
265A
102
}
330
265A
100
AcDbVisualStyle
  2
GouraudWithEdges
 70
     3
 71
     2
 72
     2
 73
     1
 90
        2
 40
-0.6
 41
30.0
 62
     5
 63
     7
 74
     1
 91
        0
 64
     7
 65
   257
 75
     1
175
     1
 42
1.0
 92
        0
 66
   257
 43
1.0
 76
     1
 77
     6
 78
     2
 67
     7
 79
     5
170
     0
171
     0
290
     0
174
     0
 93
       13
 44
0.0
173
     0
291
     1
 45
0.0
1001
ACAD
1000
AcDbSavedByObjectVersion
1070
     0
  0
VISUALSTYLE
  5
2662
102
{ACAD_XDICTIONARY
360
26C1
102
}
102
{ACAD_REACTORS
330
265A
102
}
330
265A
100
AcDbVisualStyle
  2
Hidden
 70
     6
 71
     1
 72
     2
 73
     2
 90
        0
 40
-0.6
 41
-30.0
 62
     5
 63
     7
 74
     2
 91
        2
 64
     7
 65
   257
 75
     2
175
     1
 42
40.0
 92
        0
 66
   257
 43
1.0
 76
     1
 77
     6
 78
     2
 67
     7
 79
     3
170
     0
171
     0
290
     0
174
     0
 93
        1
 44
0.0
173
     0
291
     0
 45
0.0
1001
ACAD
1000
AcDbSavedByObjectVersion
1070
     0
  0
VISUALSTYLE
  5
2670
102
{ACAD_XDICTIONARY
360
26DD
102
}
102
{ACAD_REACTORS
330
265A
102
}
330
265A
100
AcDbVisualStyle
  2
JitterOff
 70
    20
 71
     2
 72
     2
 73
     0
 90
        0
 40
-0.6
 41
-30.0
 62
     5
 63
     7
 74
     1
 91
        4
 64
     7
 65
   257
 75
     1
175
     1
 42
1.0
 92
       10
 66
     7
 43
1.0
 76
     1
 77
     6
 78
     2
 67
     7
 79
     5
170
     0
171
     0
290
     0
174
     0
 93
        1
 44
0.0
173
     0
291
     1
 45
0.0
1001
ACAD
1000
AcDbSavedByObjectVersion
1070
     0
  0
VISUALSTYLE
  5
2668
102
{ACAD_XDICTIONARY
360
26CD
102
}
102
{ACAD_REACTORS
330
265A
102
}
330
265A
100
AcDbVisualStyle
  2
Linepattern
 70
    14
 71
     2
 72
     2
 73
     0
 90
        0
 40
-0.6
 41
-30.0
 62
     5
 63
     7
 74
     1
 91
        4
 64
     7
 65
   257
 75
     7
175
     7
 42
1.0
 92
        8
 66
     7
 43
1.0
 76
     1
 77
     6
 78
     2
 67
     7
 79
     5
170
     0
171
     0
290
     0
174
     0
 93
        1
 44
0.0
173
     0
291
     1
 45
0.0
1001
ACAD
1000
AcDbSavedByObjectVersion
1070
     0
  0
VISUALSTYLE
  5
2671
102
{ACAD_XDICTIONARY
360
26DF
102
}
102
{ACAD_REACTORS
330
265A
102
}
330
265A
100
AcDbVisualStyle
  2
OverhangOff
 70
    21
 71
     2
 72
     2
 73
     0
 90
        0
 40
-0.6
 41
-30.0
 62
     5
 63
     7
 74
     1
 91
        4
 64
     7
 65
   257
 75
     1
175
     1
 42
1.0
 92
        9
 66
     7
 43
1.0
 76
     1
 77
     6
 78
     2
 67
     7
 79
     5
170
     0
171
     0
290
     0
174
     0
 93
        1
 44
0.0
173
     0
291
     1
 45
0.0
1001
ACAD
1000
AcDbSavedByObjectVersion
1070
     0
  0
VISUALSTYLE
  5
2664
102
{ACAD_XDICTIONARY
360
26C5
102
}
102
{ACAD_REACTORS
330
265A
102
}
330
265A
100
AcDbVisualStyle
  2
Realistic
 70
     8
 71
     2
 72
     3
 73
     0
 90
        2
 40
-0.6
 41
30.0
 62
     5
 63
     7
 74
     0
 91
        0
 64
     7
 65
   257
 75
     1
175
     1
 42
1.0
 92
        8
 66
   257
 43
1.0
 76
     1
 77
     6
 78
     2
 67
     7
 79
     3
170
     0
171
     0
290
     0
174
     0
 93
       13
 44
0.0
173
     0
291
     0
 45
0.0
1001
ACAD
1000
AcDbSavedByObjectVersion
1070
     0
  0
VISUALSTYLE
  5
266F
102
{ACAD_XDICTIONARY
360
26DB
102
}
102
{ACAD_REACTORS
330
265A
102
}
330
265A
100
AcDbVisualStyle
  2
Shaded
 70
    27
 71
     2
 72
     2
 73
     1
 90
        2
 40
-0.6
 41
30.0
 62
     5
 63
     7
 74
     0
 91
        4
 64
     7
 65
   257
 75
     1
175
     1
 42
1.0
 92
        8
 66
   257
 43
1.0
 76
     1
 77
     6
 78
     2
 67
     8
 79
     3
170
     0
171
     0
290
     0
174
     0
 93
        5
 44
0.0
173
     0
291
     0
 45
0.0
1001
ACAD
1000
AcDbSavedByObjectVersion
1070
     0
  0
VISUALSTYLE
  5
266E
102
{ACAD_XDICTIONARY
360
26D9
102
}
102
{ACAD_REACTORS
330
265A
102
}
330
265A
100
AcDbVisualStyle
  2
Shaded with edges
 70
    26
 71
     2
 72
     2
 73
     1
 90
        2
 40
-0.6
 41
30.0
 62
     5
 63
     7
 74
     1
 91
       10
 64
     7
 65
   257
 75
     2
175
     1
 42
1.0
 92
        8
 66
   257
 43
1.0
 76
     1
 77
     6
 78
     2
 67
     7
 79
     3
170
     0
171
     0
290
     0
174
     0
 93
        5
 44
0.0
173
     0
291
     0
 45
0.0
1001
ACAD
1000
AcDbSavedByObjectVersion
1070
     0
  0
VISUALSTYLE
  5
266B
102
{ACAD_XDICTIONARY
360
26D3
102
}
102
{ACAD_REACTORS
330
265A
102
}
330
265A
100
AcDbVisualStyle
  2
Shades of Gray
 70
    23
 71
     2
 72
     2
 73
     3
 90
        0
 40
-0.6
 41
-30.0
 62
     5
 63
     7
 74
     2
 91
        2
 64
     7
 65
     7
 75
     1
175
     1
 42
40.0
 92
        8
 66
     7
 43
1.0
 76
     1
 77
     6
 78
     2
 67
     7
 79
     3
170
     0
171
     0
290
     0
174
     0
 93
        1
 44
0.0
173
     0
291
     0
 45
0.0
1001
ACAD
1000
AcDbSavedByObjectVersion
1070
     0
  0
VISUALSTYLE
  5
266C
102
{ACAD_XDICTIONARY
360
26D5
102
}
102
{ACAD_REACTORS
330
265A
102
}
330
265A
100
AcDbVisualStyle
  2
Sketchy
 70
    24
 71
     1
 72
     2
 73
     2
 90
        0
 40
-0.6
 41
-30.0
 62
     5
 63
     7
 74
     2
 91
        2
 64
     7
 65
     7
 75
     1
175
     1
 42
40.0
 92
       11
 66
     7
 43
1.0
 76
     1
 77
     6
 78
     2
 67
     7
 79
     6
170
     0
171
     0
290
     0
174
     0
 93
        1
 44
0.0
173
     0
291
     0
 45
0.0
1001
ACAD
1000
AcDbSavedByObjectVersion
1070
     0
  0
VISUALSTYLE
  5
2667
102
{ACAD_XDICTIONARY
360
26CB
102
}
102
{ACAD_REACTORS
330
265A
102
}
330
265A
100
AcDbVisualStyle
  2
Thicken
 70
    13
 71
     2
 72
     2
 73
     0
 90
        0
 40
-0.6
 41
-30.0
 62
     5
 63
     7
 74
     1
 91
        4
 64
     7
 65
   257
 75
     1
175
     1
 42
1.0
 92
       12
 66
     7
 43
1.0
 76
     1
 77
     6
 78
     2
 67
     7
 79
     5
170
     0
171
     0
290
     0
174
     0
 93
        1
 44
0.0
173
     0
291
     1
 45
0.0
1001
ACAD
1000
AcDbSavedByObjectVersion
1070
     0
  0
VISUALSTYLE
  5
2661
102
{ACAD_XDICTIONARY
360
26BF
102
}
102
{ACAD_REACTORS
330
265A
102
}
330
265A
100
AcDbVisualStyle
  2
Wireframe
 70
     5
 71
     0
 72
     2
 73
     0
 90
        0
 40
-0.6
 41
-30.0
 62
     5
 63
     7
 74
     1
 91
        4
 64
     7
 65
   257
 75
     1
175
     1
 42
1.0
 92
        0
 66
   257
 43
1.0
 76
     1
 77
     6
 78
     2
 67
     7
 79
     3
170
     0
171
     0
290
     0
174
     0
 93
        1
 44
0.0
173
     0
291
     0
 45
0.0
1001
ACAD
1000
AcDbSavedByObjectVersion
1070
     0
  0
VISUALSTYLE
  5
266D
102
{ACAD_XDICTIONARY
360
26D7
102
}
102
{ACAD_REACTORS
330
265A
102
}
330
265A
100
AcDbVisualStyle
  2
X-Ray
 70
    25
 71
     2
 72
     2
 73
     1
 90
        1
 40
0.5
 41
-30.0
 62
     5
 63
     7
 74
     1
 91
        0
 64
     7
 65
   257
 75
     1
175
     1
 42
1.0
 92
        8
 66
     7
 43
1.0
 76
     1
 77
     6
 78
     2
 67
     7
 79
     3
170
     0
171
     0
290
     0
174
     0
 93
       13
 44
0.0
173
     0
291
     0
 45
0.0
1001
ACAD
1000
AcDbSavedByObjectVersion
1070
     0
  0
DICTIONARYVAR
  5
26A6
102
{ACAD_REACTORS
330
26A1
102
}
330
26A1
100
DictionaryVariables
280
     0
  1
1:1
  0
DICTIONARYVAR
  5
26A3
102
{ACAD_REACTORS
330
26A1
102
}
330
26A1
100
DictionaryVariables
280
     0
  1
STANDARD
  0
DICTIONARYVAR
  5
26A2
102
{ACAD_REACTORS
330
26A1
102
}
330
26A1
100
DictionaryVariables
280
     0
  1
STANDARD
  0
DICTIONARYVAR
  5
26A4
102
{ACAD_REACTORS
330
26A1
102
}
330
26A1
100
DictionaryVariables
280
     0
  1
Imperial24
  0
DICTIONARYVAR
  5
26A5
102
{ACAD_REACTORS
330
26A1
102
}
330
26A1
100
DictionaryVariables
280
     0
  1
Imperial24
  0
DICTIONARYVAR
  5
26A9
102
{ACAD_REACTORS
330
26A1
102
}
330
26A1
100
DictionaryVariables
280
     0
  1
1
  0
DICTIONARYVAR
  5
26A8
102
{ACAD_REACTORS
330
26A1
102
}
330
26A1
100
DictionaryVariables
280
     0
  1
0
  0
DICTIONARYVAR
  5
26A7
102
{ACAD_REACTORS
330
26A1
102
}
330
26A1
100
DictionaryVariables
280
     0
  1
127
  0
DICTIONARYVAR
  5
26AA
102
{ACAD_REACTORS
330
26A1
102
}
330
26A1
100
DictionaryVariables
280
     0
  1
2
  0
DICTIONARY
  5
26E7
330
268D
100
AcDbDictionary
280
     1
281
     1
  3
ACAD_XREC_ROUNDTRIP
360
26E8
  0
DICTIONARY
  5
26E9
330
268E
100
AcDbDictionary
280
     1
281
     1
  3
ACAD_XREC_ROUNDTRIP
360
26EA
  0
DICTIONARY
  5
26EB
330
268F
100
AcDbDictionary
280
     1
281
     1
  3
ACAD_XREC_ROUNDTRIP
360
26EC
  0
DICTIONARY
  5
264B
330
264A
100
AcDbDictionary
280
     1
281
     1
  3
ACAD_XREC_ROUNDTRIP
360
26B1
  3
BUMPTILE
360
264D
  3
DIFFUSETILE
360
264C
  3
OPACITYTILE
360
2650
  3
REFLECTIONTILE
360
264F
  3
REFRACTIONTILE
360
2651
  3
SPECULARTILE
360
264E
  0
DICTIONARY
  5
2643
330
2642
100
AcDbDictionary
280
     1
281
     1
  3
ACAD_XREC_ROUNDTRIP
360
26B0
  3
BUMPTILE
360
2645
  3
DIFFUSETILE
360
2644
  3
OPACITYTILE
360
2648
  3
REFLECTIONTILE
360
2647
  3
REFRACTIONTILE
360
2649
  3
SPECULARTILE
360
2646
  0
DICTIONARY
  5
2653
330
2652
100
AcDbDictionary
280
     1
281
     1
  3
ACAD_XREC_ROUNDTRIP
360
26B2
  3
BUMPTILE
360
2655
  3
DIFFUSETILE
360
2654
  3
OPACITYTILE
360
2658
  3
REFLECTIONTILE
360
2657
  3
REFRACTIONTILE
360
2659
  3
SPECULARTILE
360
2656
  0
DICTIONARY
  5
26E5
330
268B
100
AcDbDictionary
280
     1
281
     1
  3
ACAD_XREC_ROUNDTRIP
360
26E6
  0
DICTIONARY
  5
26AC
330
2675
100
AcDbDictionary
280
     1
281
     1
  3
ACAD_ROUNDTRIP_2008_TABLESTYLE_CELLSTYLEMAP
360
26AD
  3
ACAD_XREC_ROUNDTRIP
360
26E3
  0
DICTIONARY
  5
26BD
330
2660
100
AcDbDictionary
280
     1
281
     1
  3
ACAD_XREC_ROUNDTRIP
360
26BE
  0
DICTIONARY
  5
26BB
330
265F
100
AcDbDictionary
280
     1
281
     1
  3
ACAD_XREC_ROUNDTRIP
360
26BC
  0
DICTIONARY
  5
26C9
330
2666
100
AcDbDictionary
280
     1
281
     1
  3
ACAD_XREC_ROUNDTRIP
360
26CA
  0
DICTIONARY
  5
26D1
330
266A
100
AcDbDictionary
280
     1
281
     1
  3
ACAD_XREC_ROUNDTRIP
360
26D2
  0
DICTIONARY
  5
26C3
330
2663
100
AcDbDictionary
280
     1
281
     1
  3
ACAD_XREC_ROUNDTRIP
360
26C4
  0
DICTIONARY
  5
26C7
330
2665
100
AcDbDictionary
280
     1
281
     1
  3
ACAD_XREC_ROUNDTRIP
360
26C8
  0
DICTIONARY
  5
26E1
330
2672
100
AcDbDictionary
280
     1
281
     1
  3
ACAD_XREC_ROUNDTRIP
360
26E2
  0
DICTIONARY
  5
26CF
330
2669
100
AcDbDictionary
280
     1
281
     1
  3
ACAD_XREC_ROUNDTRIP
360
26D0
  0
DICTIONARY
  5
26B3
330
265B
100
AcDbDictionary
280
     1
281
     1
  3
ACAD_XREC_ROUNDTRIP
360
26B4
  0
DICTIONARY
  5
26B5
330
265C
100
AcDbDictionary
280
     1
281
     1
  3
ACAD_XREC_ROUNDTRIP
360
26B6
  0
DICTIONARY
  5
26B7
330
265D
100
AcDbDictionary
280
     1
281
     1
  3
ACAD_XREC_ROUNDTRIP
360
26B8
  0
DICTIONARY
  5
26B9
330
265E
100
AcDbDictionary
280
     1
281
     1
  3
ACAD_XREC_ROUNDTRIP
360
26BA
  0
DICTIONARY
  5
26C1
330
2662
100
AcDbDictionary
280
     1
281
     1
  3
ACAD_XREC_ROUNDTRIP
360
26C2
  0
DICTIONARY
  5
26DD
330
2670
100
AcDbDictionary
280
     1
281
     1
  3
ACAD_XREC_ROUNDTRIP
360
26DE
  0
DICTIONARY
  5
26CD
330
2668
100
AcDbDictionary
280
     1
281
     1
  3
ACAD_XREC_ROUNDTRIP
360
26CE
  0
DICTIONARY
  5
26DF
330
2671
100
AcDbDictionary
280
     1
281
     1
  3
ACAD_XREC_ROUNDTRIP
360
26E0
  0
DICTIONARY
  5
26C5
330
2664
100
AcDbDictionary
280
     1
281
     1
  3
ACAD_XREC_ROUNDTRIP
360
26C6
  0
DICTIONARY
  5
26DB
330
266F
100
AcDbDictionary
280
     1
281
     1
  3
ACAD_XREC_ROUNDTRIP
360
26DC
  0
DICTIONARY
  5
26D9
330
266E
100
AcDbDictionary
280
     1
281
     1
  3
ACAD_XREC_ROUNDTRIP
360
26DA
  0
DICTIONARY
  5
26D3
330
266B
100
AcDbDictionary
280
     1
281
     1
  3
ACAD_XREC_ROUNDTRIP
360
26D4
  0
DICTIONARY
  5
26D5
330
266C
100
AcDbDictionary
280
     1
281
     1
  3
ACAD_XREC_ROUNDTRIP
360
26D6
  0
DICTIONARY
  5
26CB
330
2667
100
AcDbDictionary
280
     1
281
     1
  3
ACAD_XREC_ROUNDTRIP
360
26CC
  0
DICTIONARY
  5
26BF
330
2661
100
AcDbDictionary
280
     1
281
     1
  3
ACAD_XREC_ROUNDTRIP
360
26C0
  0
DICTIONARY
  5
26D7
330
266D
100
AcDbDictionary
280
     1
281
     1
  3
ACAD_XREC_ROUNDTRIP
360
26D8
  0
XRECORD
  5
26E8
102
{ACAD_REACTORS
330
26E7
102
}
330
26E7
100
AcDbXrecord
280
     1
102
DISPLAYNAME
  1
Imperial24
102
FLAGS
 90
        0
  0
XRECORD
  5
26EA
102
{ACAD_REACTORS
330
26E9
102
}
330
26E9
100
AcDbXrecord
280
     1
102
SHADEPLOT
 70
     0
102
SHADEPLOTRESLEVEL
 70
     2
102
SHADEPLOTCUSTOMDPI
 70
   300
  0
XRECORD
  5
26EC
102
{ACAD_REACTORS
330
26EB
102
}
330
26EB
100
AcDbXrecord
280
     1
102
SHADEPLOT
 70
     0
102
SHADEPLOTRESLEVEL
 70
     2
102
SHADEPLOTCUSTOMDPI
 70
   300
  0
XRECORD
  5
26B1
102
{ACAD_REACTORS
330
264B
102
}
330
264B
100
AcDbXrecord
280
     1
102
MATERIAL
148
0.0
149
0.0
149
0.0
 93
        0
 94
      127
282
     0
 72
     0
 77
     0
171
     0
175
     0
179
     0
273
     0
  0
XRECORD
  5
264D
102
{ACAD_REACTORS
330
264B
102
}
330
264B
100
AcDbXrecord
280
     1
270
     1
271
     1
  0
XRECORD
  5
264C
102
{ACAD_REACTORS
330
264B
102
}
330
264B
100
AcDbXrecord
280
     1
270
     1
271
     1
  0
XRECORD
  5
2650
102
{ACAD_REACTORS
330
264B
102
}
330
264B
100
AcDbXrecord
280
     1
270
     1
271
     1
  0
XRECORD
  5
264F
102
{ACAD_REACTORS
330
264B
102
}
330
264B
100
AcDbXrecord
280
     1
270
     1
271
     1
  0
XRECORD
  5
2651
102
{ACAD_REACTORS
330
264B
102
}
330
264B
100
AcDbXrecord
280
     1
270
     1
271
     1
  0
XRECORD
  5
264E
102
{ACAD_REACTORS
330
264B
102
}
330
264B
100
AcDbXrecord
280
     1
270
     1
271
     1
  0
XRECORD
  5
26B0
102
{ACAD_REACTORS
330
2643
102
}
330
2643
100
AcDbXrecord
280
     1
102
MATERIAL
148
0.0
149
0.0
149
0.0
 93
        0
 94
      127
282
     0
 72
     0
 77
     0
171
     0
175
     0
179
     0
273
     0
  0
XRECORD
  5
2645
102
{ACAD_REACTORS
330
2643
102
}
330
2643
100
AcDbXrecord
280
     1
270
     1
271
     1
  0
XRECORD
  5
2644
102
{ACAD_REACTORS
330
2643
102
}
330
2643
100
AcDbXrecord
280
     1
270
     1
271
     1
  0
XRECORD
  5
2648
102
{ACAD_REACTORS
330
2643
102
}
330
2643
100
AcDbXrecord
280
     1
270
     1
271
     1
  0
XRECORD
  5
2647
102
{ACAD_REACTORS
330
2643
102
}
330
2643
100
AcDbXrecord
280
     1
270
     1
271
     1
  0
XRECORD
  5
2649
102
{ACAD_REACTORS
330
2643
102
}
330
2643
100
AcDbXrecord
280
     1
270
     1
271
     1
  0
XRECORD
  5
2646
102
{ACAD_REACTORS
330
2643
102
}
330
2643
100
AcDbXrecord
280
     1
270
     1
271
     1
  0
XRECORD
  5
26B2
102
{ACAD_REACTORS
330
2653
102
}
330
2653
100
AcDbXrecord
280
     1
102
MATERIAL
148
0.0
149
0.0
149
0.0
 93
        0
 94
      127
282
     0
 72
     0
 77
     0
171
     0
175
     0
179
     0
273
     0
  0
XRECORD
  5
2655
102
{ACAD_REACTORS
330
2653
102
}
330
2653
100
AcDbXrecord
280
     1
270
     1
271
     1
  0
XRECORD
  5
2654
102
{ACAD_REACTORS
330
2653
102
}
330
2653
100
AcDbXrecord
280
     1
270
     1
271
     1
  0
XRECORD
  5
2658
102
{ACAD_REACTORS
330
2653
102
}
330
2653
100
AcDbXrecord
280
     1
270
     1
271
     1
  0
XRECORD
  5
2657
102
{ACAD_REACTORS
330
2653
102
}
330
2653
100
AcDbXrecord
280
     1
270
     1
271
     1
  0
XRECORD
  5
2659
102
{ACAD_REACTORS
330
2653
102
}
330
2653
100
AcDbXrecord
280
     1
270
     1
271
     1
  0
XRECORD
  5
2656
102
{ACAD_REACTORS
330
2653
102
}
330
2653
100
AcDbXrecord
280
     1
270
     1
271
     1
  0
XRECORD
  5
26E6
102
{ACAD_REACTORS
330
26E5
102
}
330
26E5
100
AcDbXrecord
280
     1
102
DISPLAYNAME
  1
Imperial24
102
FLAGS
 90
        0
  0
CELLSTYLEMAP
  5
26AD
102
{ACAD_REACTORS
330
26AC
102
}
330
26AC
100
AcDbCellStyleMap
 90
        3
300
CELLSTYLE
  1
TABLEFORMAT_BEGIN
 90
        5
170
     1
 91
        0
 92
    32768
 62
   257
 93
        1
300
CONTENTFORMAT
  1
CONTENTFORMAT_BEGIN
 90
        0
 91
        0
 92
      512
 93
        0
300

 40
0.0
140
1.0
 94
        5
 62
     0
340
F
144
0.25
309
CONTENTFORMAT_END
171
     0
 94
        0
309
TABLEFORMAT_END
  1
CELLSTYLE_BEGIN
 90
        1
 91
        1
300
_TITLE
309
CELLSTYLE_END
300
CELLSTYLE
  1
TABLEFORMAT_BEGIN
 90
        5
170
     1
 91
        0
 92
        0
 62
   257
 93
        1
300
CONTENTFORMAT
  1
CONTENTFORMAT_BEGIN
 90
        0
 91
        0
 92
      512
 93
        0
300

 40
0.0
140
1.0
 94
        5
 62
     0
340
F
144
0.18
309
CONTENTFORMAT_END
171
     0
 94
        0
309
TABLEFORMAT_END
  1
CELLSTYLE_BEGIN
 90
        2
 91
        1
300
_HEADER
309
CELLSTYLE_END
300
CELLSTYLE
  1
TABLEFORMAT_BEGIN
 90
        5
170
     1
 91
        0
 92
        0
 62
   257
 93
        1
300
CONTENTFORMAT
  1
CONTENTFORMAT_BEGIN
 90
        0
 91
        0
 92
      512
 93
        0
300

 40
0.0
140
1.0
 94
        2
 62
     0
340
F
144
0.18
309
CONTENTFORMAT_END
171
     0
 94
        0
309
TABLEFORMAT_END
  1
CELLSTYLE_BEGIN
 90
        3
 91
        2
300
_DATA
309
CELLSTYLE_END
  0
XRECORD
  5
26E3
102
{ACAD_REACTORS
330
26AC
102
}
330
26AC
100
AcDbXrecord
280
     1
102
ACAD_ROUNDTRIP_PRE2007_TABLESTYLE
 90
      512
 91
        0
  1

 92
      512
 93
        0
  2

 94
      512
 95
        0
  3

  0
XRECORD
  5
26BE
102
{ACAD_REACTORS
330
26BD
102
}
330
26BD
100
AcDbXrecord
280
     1
102
RTVSPost2010Prop28
280
     1
102
RTVSPost2010PropOp28
 70
     1
102
RTVSPost2010Prop29
280
     1
102
RTVSPost2010PropOp29
 70
     1
102
RTVSPost2010Prop30
280
     0
102
RTVSPost2010PropOp30
 70
     1
102
RTVSPost2010Prop31
280
     0
102
RTVSPost2010PropOp31
 70
     1
102
RTVSPost2010Prop32
280
     0
102
RTVSPost2010PropOp32
 70
     1
102
RTVSPost2010Prop33
280
     0
102
RTVSPost2010PropOp33
 70
     1
102
RTVSPost2010Prop34
280
     0
102
RTVSPost2010PropOp34
 70
     1
102
RTVSPost2010Prop35
280
     0
102
RTVSPost2010PropOp35
 70
     1
102
RTVSPost2010Prop36
280
     0
102
RTVSPost2010PropOp36
 70
     1
102
RTVSPost2010Prop37
 90
       50
102
RTVSPost2010PropOp37
 70
     1
102
RTVSPost2010Prop38
140
0.0
102
RTVSPost2010PropOp38
 70
     1
102
RTVSPost2010Prop39
140
1.0
102
RTVSPost2010PropOp39
 70
     1
102
RTVSPost2010Prop40
 90
        0
102
RTVSPost2010PropOp40
 70
     1
102
RTVSPost2010Prop41ColorIndex
 90
       18
102
RTVSPost2010Prop41ColorRGB
 90
        0
102
RTVSPost2010PropOp41
 70
     1
102
RTVSPost2010Prop42
 90
       50
102
RTVSPost2010PropOp42
 70
     1
102
RTVSPost2010Prop43
 90
        3
102
RTVSPost2010PropOp43
 70
     1
102
RTVSPost2010Prop44ColorIndex
 90
        5
102
RTVSPost2010Prop44ColorRGB
 90
      255
102
RTVSPost2010PropOp44
 70
     1
102
RTVSPost2010Prop45
280
     0
102
RTVSPost2010PropOp45
 70
     1
102
RTVSPost2010Prop46
 90
       50
102
RTVSPost2010PropOp46
 70
     1
102
RTVSPost2010Prop47
 90
       50
102
RTVSPost2010PropOp47
 70
     1
102
RTVSPost2010Prop48
 90
       50
102
RTVSPost2010PropOp48
 70
     1
102
RTVSPost2010Prop49
280
     0
102
RTVSPost2010PropOp49
 70
     1
102
RTVSPost2010Prop50
 90
       50
102
RTVSPost2010PropOp50
 70
     1
102
RTVSPost2010Prop51ColorIndex
 90
      256
102
RTVSPost2010Prop51ColorRGB
 90
-16777216
102
RTVSPost2010PropOp51
 70
     0
102
RTVSPost2010Prop52
140
1.0
102
RTVSPost2010PropOp52
 70
     0
102
RTVSPost2010Prop53
 90
        2
102
RTVSPost2010PropOp53
 70
     1
102
RTVSPost2010Prop54
  1
strokes_ogs.tif
102
RTVSPost2010PropOp54
 70
     1
102
RTVSPost2010Prop55
280
     0
102
RTVSPost2010PropOp55
 70
     1
102
RTVSPost2010Prop56
140
1.0
102
RTVSPost2010PropOp56
 70
     1
102
RTVSPost2010Prop57
140
1.0
102
RTVSPost2010PropOp57
 70
     1
102
RTVSPropertyOp0
 70
     1
102
RTVSPropertyOp1
 70
     1
102
RTVSPropertyOp2
 70
     1
102
RTVSPropertyOp3
 70
     1
102
RTVSPropertyOp4
 70
     1
102
RTVSPropertyOp5
 70
     1
102
RTVSPropertyOp6
 70
     1
102
RTVSPropertyOp7
 70
     1
102
RTVSPropertyOp8
 70
     1
102
RTVSPropertyOp9
 70
     1
102
RTVSPropertyOp10
 70
     1
102
RTVSPropertyOp11
 70
     1
102
RTVSPropertyOp12
 70
     1
102
RTVSPropertyOp13
 70
     1
102
RTVSPropertyOp14
 70
     1
102
RTVSPropertyOp15
 70
     1
102
RTVSPropertyOp16
 70
     1
102
RTVSPropertyOp17
 70
     1
102
RTVSPropertyOp18
 70
     1
102
RTVSPropertyOp19
 70
     1
102
RTVSPropertyOp20
 70
     1
102
RTVSPropertyOp21
 70
     1
102
RTVSPropertyOp22
 70
     1
102
RTVSPropertyOp23
 70
     1
102
RTVSPropertyOp24
 70
     1
102
RTVSPropertyOp25
 70
     1
102
RTVSPropertyOp26
 70
     1
102
RTVSPropertyOp27
 70
     1
102
RTVSPropertyOp28
 70
     1
102
RTVSPropertyOp29
 70
     1
102
RTVSPropertyOp30
 70
     1
102
RTVSPropertyOp31
 70
     1
102
RTVSPropertyOp32
 70
     1
102
RTVSPropertyOp33
 70
     1
102
RTVSPropertyOp34
 70
     1
102
RTVSPropertyOp35
 70
     1
102
RTVSPropertyOp36
 70
     1
102
RTVSPropertyOp37
 70
     1
102
RTVSPropertyOp38
 70
     1
102
RTVSPropertyOp39
 70
     1
102
RTVSPropertyOp40
 70
     1
102
RTVSPropertyOp41
 70
     1
102
RTVSPropertyOp42
 70
     1
102
RTVSPropertyOp43
 70
     1
102
RTVSPropertyOp44
 70
     1
102
RTVSPropertyOp45
 70
     1
102
RTVSPropertyOp46
 70
     1
102
RTVSPropertyOp47
 70
     1
102
RTVSPropertyOp48
 70
     1
102
RTVSPropertyOp49
 70
     1
102
RTVSPropertyOp50
 70
     1
102
RTVSPropertyOp51
 70
     0
102
RTVSPropertyOp52
 70
     0
102
RTVSPropertyOp53
 70
     1
102
RTVSPropertyOp54
 70
     1
102
RTVSPropertyOp55
 70
     1
102
RTVSPropertyOp56
 70
     1
102
RTVSPropertyOp57
 70
     1
102
RTVSPropertyOp58
 70
     1
102
RTVSPropertyOp59
 70
     1
102
RTVSPropertyOp60
 70
     1
102
RTVSPropertyOp61
 70
     1
102
RTVSPropertyOp62
 70
     1
  0
XRECORD
  5
26BC
102
{ACAD_REACTORS
330
26BB
102
}
330
26BB
100
AcDbXrecord
280
     1
102
RTVSPost2010Prop28
280
     0
102
RTVSPost2010PropOp28
 70
     1
102
RTVSPost2010Prop29
280
     1
102
RTVSPost2010PropOp29
 70
     1
102
RTVSPost2010Prop30
280
     1
102
RTVSPost2010PropOp30
 70
     1
102
RTVSPost2010Prop31
280
     0
102
RTVSPost2010PropOp31
 70
     1
102
RTVSPost2010Prop32
280
     0
102
RTVSPost2010PropOp32
 70
     1
102
RTVSPost2010Prop33
280
     0
102
RTVSPost2010PropOp33
 70
     1
102
RTVSPost2010Prop34
280
     0
102
RTVSPost2010PropOp34
 70
     1
102
RTVSPost2010Prop35
280
     0
102
RTVSPost2010PropOp35
 70
     1
102
RTVSPost2010Prop36
280
     0
102
RTVSPost2010PropOp36
 70
     1
102
RTVSPost2010Prop37
 90
       50
102
RTVSPost2010PropOp37
 70
     1
102
RTVSPost2010Prop38
140
0.0
102
RTVSPost2010PropOp38
 70
     1
102
RTVSPost2010Prop39
140
1.0
102
RTVSPost2010PropOp39
 70
     1
102
RTVSPost2010Prop40
 90
        0
102
RTVSPost2010PropOp40
 70
     1
102
RTVSPost2010Prop41ColorIndex
 90
       18
102
RTVSPost2010Prop41ColorRGB
 90
        0
102
RTVSPost2010PropOp41
 70
     1
102
RTVSPost2010Prop42
 90
       50
102
RTVSPost2010PropOp42
 70
     1
102
RTVSPost2010Prop43
 90
        3
102
RTVSPost2010PropOp43
 70
     1
102
RTVSPost2010Prop44ColorIndex
 90
        5
102
RTVSPost2010Prop44ColorRGB
 90
      255
102
RTVSPost2010PropOp44
 70
     1
102
RTVSPost2010Prop45
280
     0
102
RTVSPost2010PropOp45
 70
     1
102
RTVSPost2010Prop46
 90
       50
102
RTVSPost2010PropOp46
 70
     1
102
RTVSPost2010Prop47
 90
       50
102
RTVSPost2010PropOp47
 70
     1
102
RTVSPost2010Prop48
 90
       50
102
RTVSPost2010PropOp48
 70
     1
102
RTVSPost2010Prop49
280
     0
102
RTVSPost2010PropOp49
 70
     1
102
RTVSPost2010Prop50
 90
       50
102
RTVSPost2010PropOp50
 70
     1
102
RTVSPost2010Prop51ColorIndex
 90
      256
102
RTVSPost2010Prop51ColorRGB
 90
-16777216
102
RTVSPost2010PropOp51
 70
     0
102
RTVSPost2010Prop52
140
1.0
102
RTVSPost2010PropOp52
 70
     0
102
RTVSPost2010Prop53
 90
        2
102
RTVSPost2010PropOp53
 70
     1
102
RTVSPost2010Prop54
  1
strokes_ogs.tif
102
RTVSPost2010PropOp54
 70
     1
102
RTVSPost2010Prop55
280
     0
102
RTVSPost2010PropOp55
 70
     1
102
RTVSPost2010Prop56
140
1.0
102
RTVSPost2010PropOp56
 70
     1
102
RTVSPost2010Prop57
140
1.0
102
RTVSPost2010PropOp57
 70
     1
102
RTVSPropertyOp0
 70
     1
102
RTVSPropertyOp1
 70
     1
102
RTVSPropertyOp2
 70
     1
102
RTVSPropertyOp3
 70
     1
102
RTVSPropertyOp4
 70
     1
102
RTVSPropertyOp5
 70
     1
102
RTVSPropertyOp6
 70
     1
102
RTVSPropertyOp7
 70
     1
102
RTVSPropertyOp8
 70
     1
102
RTVSPropertyOp9
 70
     1
102
RTVSPropertyOp10
 70
     1
102
RTVSPropertyOp11
 70
     1
102
RTVSPropertyOp12
 70
     1
102
RTVSPropertyOp13
 70
     1
102
RTVSPropertyOp14
 70
     1
102
RTVSPropertyOp15
 70
     1
102
RTVSPropertyOp16
 70
     1
102
RTVSPropertyOp17
 70
     1
102
RTVSPropertyOp18
 70
     1
102
RTVSPropertyOp19
 70
     1
102
RTVSPropertyOp20
 70
     1
102
RTVSPropertyOp21
 70
     1
102
RTVSPropertyOp22
 70
     1
102
RTVSPropertyOp23
 70
     1
102
RTVSPropertyOp24
 70
     1
102
RTVSPropertyOp25
 70
     1
102
RTVSPropertyOp26
 70
     1
102
RTVSPropertyOp27
 70
     1
102
RTVSPropertyOp28
 70
     1
102
RTVSPropertyOp29
 70
     1
102
RTVSPropertyOp30
 70
     1
102
RTVSPropertyOp31
 70
     1
102
RTVSPropertyOp32
 70
     1
102
RTVSPropertyOp33
 70
     1
102
RTVSPropertyOp34
 70
     1
102
RTVSPropertyOp35
 70
     1
102
RTVSPropertyOp36
 70
     1
102
RTVSPropertyOp37
 70
     1
102
RTVSPropertyOp38
 70
     1
102
RTVSPropertyOp39
 70
     1
102
RTVSPropertyOp40
 70
     1
102
RTVSPropertyOp41
 70
     1
102
RTVSPropertyOp42
 70
     1
102
RTVSPropertyOp43
 70
     1
102
RTVSPropertyOp44
 70
     1
102
RTVSPropertyOp45
 70
     1
102
RTVSPropertyOp46
 70
     1
102
RTVSPropertyOp47
 70
     1
102
RTVSPropertyOp48
 70
     1
102
RTVSPropertyOp49
 70
     1
102
RTVSPropertyOp50
 70
     1
102
RTVSPropertyOp51
 70
     0
102
RTVSPropertyOp52
 70
     0
102
RTVSPropertyOp53
 70
     1
102
RTVSPropertyOp54
 70
     1
102
RTVSPropertyOp55
 70
     1
102
RTVSPropertyOp56
 70
     1
102
RTVSPropertyOp57
 70
     1
102
RTVSPropertyOp58
 70
     1
102
RTVSPropertyOp59
 70
     1
102
RTVSPropertyOp60
 70
     1
102
RTVSPropertyOp61
 70
     1
102
RTVSPropertyOp62
 70
     1
  0
XRECORD
  5
26CA
102
{ACAD_REACTORS
330
26C9
102
}
330
26C9
100
AcDbXrecord
280
     1
102
RTVSPost2010Prop28
280
     0
102
RTVSPost2010PropOp28
 70
     1
102
RTVSPost2010Prop29
280
     1
102
RTVSPost2010PropOp29
 70
     1
102
RTVSPost2010Prop30
280
     1
102
RTVSPost2010PropOp30
 70
     1
102
RTVSPost2010Prop31
280
     0
102
RTVSPost2010PropOp31
 70
     1
102
RTVSPost2010Prop32
280
     0
102
RTVSPost2010PropOp32
 70
     1
102
RTVSPost2010Prop33
280
     0
102
RTVSPost2010PropOp33
 70
     1
102
RTVSPost2010Prop34
280
     0
102
RTVSPost2010PropOp34
 70
     1
102
RTVSPost2010Prop35
280
     0
102
RTVSPost2010PropOp35
 70
     1
102
RTVSPost2010Prop36
280
     0
102
RTVSPost2010PropOp36
 70
     1
102
RTVSPost2010Prop37
 90
       50
102
RTVSPost2010PropOp37
 70
     1
102
RTVSPost2010Prop38
140
0.0
102
RTVSPost2010PropOp38
 70
     1
102
RTVSPost2010Prop39
140
1.0
102
RTVSPost2010PropOp39
 70
     1
102
RTVSPost2010Prop40
 90
        0
102
RTVSPost2010PropOp40
 70
     1
102
RTVSPost2010Prop41ColorIndex
 90
       18
102
RTVSPost2010Prop41ColorRGB
 90
        0
102
RTVSPost2010PropOp41
 70
     1
102
RTVSPost2010Prop42
 90
       50
102
RTVSPost2010PropOp42
 70
     1
102
RTVSPost2010Prop43
 90
        3
102
RTVSPost2010PropOp43
 70
     1
102
RTVSPost2010Prop44ColorIndex
 90
        5
102
RTVSPost2010Prop44ColorRGB
 90
      255
102
RTVSPost2010PropOp44
 70
     1
102
RTVSPost2010Prop45
280
     0
102
RTVSPost2010PropOp45
 70
     1
102
RTVSPost2010Prop46
 90
       50
102
RTVSPost2010PropOp46
 70
     1
102
RTVSPost2010Prop47
 90
       50
102
RTVSPost2010PropOp47
 70
     1
102
RTVSPost2010Prop48
 90
       50
102
RTVSPost2010PropOp48
 70
     1
102
RTVSPost2010Prop49
280
     0
102
RTVSPost2010PropOp49
 70
     1
102
RTVSPost2010Prop50
 90
       50
102
RTVSPost2010PropOp50
 70
     1
102
RTVSPost2010Prop51ColorIndex
 90
      256
102
RTVSPost2010Prop51ColorRGB
 90
-16777216
102
RTVSPost2010PropOp51
 70
     0
102
RTVSPost2010Prop52
140
1.0
102
RTVSPost2010PropOp52
 70
     0
102
RTVSPost2010Prop53
 90
        2
102
RTVSPost2010PropOp53
 70
     1
102
RTVSPost2010Prop54
  1
strokes_ogs.tif
102
RTVSPost2010PropOp54
 70
     1
102
RTVSPost2010Prop55
280
     0
102
RTVSPost2010PropOp55
 70
     1
102
RTVSPost2010Prop56
140
1.0
102
RTVSPost2010PropOp56
 70
     1
102
RTVSPost2010Prop57
140
1.0
102
RTVSPost2010PropOp57
 70
     1
102
RTVSPropertyOp0
 70
     1
102
RTVSPropertyOp1
 70
     1
102
RTVSPropertyOp2
 70
     1
102
RTVSPropertyOp3
 70
     1
102
RTVSPropertyOp4
 70
     1
102
RTVSPropertyOp5
 70
     1
102
RTVSPropertyOp6
 70
     1
102
RTVSPropertyOp7
 70
     1
102
RTVSPropertyOp8
 70
     1
102
RTVSPropertyOp9
 70
     1
102
RTVSPropertyOp10
 70
     1
102
RTVSPropertyOp11
 70
     1
102
RTVSPropertyOp12
 70
     1
102
RTVSPropertyOp13
 70
     1
102
RTVSPropertyOp14
 70
     1
102
RTVSPropertyOp15
 70
     1
102
RTVSPropertyOp16
 70
     1
102
RTVSPropertyOp17
 70
     1
102
RTVSPropertyOp18
 70
     1
102
RTVSPropertyOp19
 70
     1
102
RTVSPropertyOp20
 70
     1
102
RTVSPropertyOp21
 70
     1
102
RTVSPropertyOp22
 70
     1
102
RTVSPropertyOp23
 70
     1
102
RTVSPropertyOp24
 70
     1
102
RTVSPropertyOp25
 70
     1
102
RTVSPropertyOp26
 70
     1
102
RTVSPropertyOp27
 70
     1
102
RTVSPropertyOp28
 70
     1
102
RTVSPropertyOp29
 70
     1
102
RTVSPropertyOp30
 70
     1
102
RTVSPropertyOp31
 70
     1
102
RTVSPropertyOp32
 70
     1
102
RTVSPropertyOp33
 70
     1
102
RTVSPropertyOp34
 70
     1
102
RTVSPropertyOp35
 70
     1
102
RTVSPropertyOp36
 70
     1
102
RTVSPropertyOp37
 70
     1
102
RTVSPropertyOp38
 70
     1
102
RTVSPropertyOp39
 70
     1
102
RTVSPropertyOp40
 70
     1
102
RTVSPropertyOp41
 70
     1
102
RTVSPropertyOp42
 70
     1
102
RTVSPropertyOp43
 70
     1
102
RTVSPropertyOp44
 70
     1
102
RTVSPropertyOp45
 70
     1
102
RTVSPropertyOp46
 70
     1
102
RTVSPropertyOp47
 70
     1
102
RTVSPropertyOp48
 70
     1
102
RTVSPropertyOp49
 70
     1
102
RTVSPropertyOp50
 70
     1
102
RTVSPropertyOp51
 70
     0
102
RTVSPropertyOp52
 70
     0
102
RTVSPropertyOp53
 70
     1
102
RTVSPropertyOp54
 70
     1
102
RTVSPropertyOp55
 70
     1
102
RTVSPropertyOp56
 70
     1
102
RTVSPropertyOp57
 70
     1
102
RTVSPropertyOp58
 70
     1
102
RTVSPropertyOp59
 70
     1
102
RTVSPropertyOp60
 70
     1
102
RTVSPropertyOp61
 70
     1
102
RTVSPropertyOp62
 70
     1
  0
XRECORD
  5
26D2
102
{ACAD_REACTORS
330
26D1
102
}
330
26D1
100
AcDbXrecord
280
     1
102
RTVSPost2010Prop28
280
     0
102
RTVSPost2010PropOp28
 70
     1
102
RTVSPost2010Prop29
280
     1
102
RTVSPost2010PropOp29
 70
     1
102
RTVSPost2010Prop30
280
     1
102
RTVSPost2010PropOp30
 70
     1
102
RTVSPost2010Prop31
280
     0
102
RTVSPost2010PropOp31
 70
     1
102
RTVSPost2010Prop32
280
     0
102
RTVSPost2010PropOp32
 70
     1
102
RTVSPost2010Prop33
280
     0
102
RTVSPost2010PropOp33
 70
     1
102
RTVSPost2010Prop34
280
     0
102
RTVSPost2010PropOp34
 70
     1
102
RTVSPost2010Prop35
280
     0
102
RTVSPost2010PropOp35
 70
     1
102
RTVSPost2010Prop36
280
     0
102
RTVSPost2010PropOp36
 70
     1
102
RTVSPost2010Prop37
 90
       50
102
RTVSPost2010PropOp37
 70
     1
102
RTVSPost2010Prop38
140
0.0
102
RTVSPost2010PropOp38
 70
     1
102
RTVSPost2010Prop39
140
1.0
102
RTVSPost2010PropOp39
 70
     1
102
RTVSPost2010Prop40
 90
        0
102
RTVSPost2010PropOp40
 70
     1
102
RTVSPost2010Prop41ColorIndex
 90
       18
102
RTVSPost2010Prop41ColorRGB
 90
        0
102
RTVSPost2010PropOp41
 70
     1
102
RTVSPost2010Prop42
 90
       50
102
RTVSPost2010PropOp42
 70
     1
102
RTVSPost2010Prop43
 90
        3
102
RTVSPost2010PropOp43
 70
     1
102
RTVSPost2010Prop44ColorIndex
 90
        5
102
RTVSPost2010Prop44ColorRGB
 90
      255
102
RTVSPost2010PropOp44
 70
     1
102
RTVSPost2010Prop45
280
     0
102
RTVSPost2010PropOp45
 70
     1
102
RTVSPost2010Prop46
 90
       50
102
RTVSPost2010PropOp46
 70
     1
102
RTVSPost2010Prop47
 90
       50
102
RTVSPost2010PropOp47
 70
     1
102
RTVSPost2010Prop48
 90
       50
102
RTVSPost2010PropOp48
 70
     1
102
RTVSPost2010Prop49
280
     0
102
RTVSPost2010PropOp49
 70
     1
102
RTVSPost2010Prop50
 90
       50
102
RTVSPost2010PropOp50
 70
     1
102
RTVSPost2010Prop51ColorIndex
 90
      256
102
RTVSPost2010Prop51ColorRGB
 90
-16777216
102
RTVSPost2010PropOp51
 70
     0
102
RTVSPost2010Prop52
140
1.0
102
RTVSPost2010PropOp52
 70
     0
102
RTVSPost2010Prop53
 90
        2
102
RTVSPost2010PropOp53
 70
     1
102
RTVSPost2010Prop54
  1
strokes_ogs.tif
102
RTVSPost2010PropOp54
 70
     1
102
RTVSPost2010Prop55
280
     0
102
RTVSPost2010PropOp55
 70
     1
102
RTVSPost2010Prop56
140
1.0
102
RTVSPost2010PropOp56
 70
     1
102
RTVSPost2010Prop57
140
1.0
102
RTVSPost2010PropOp57
 70
     1
102
RTVSPropertyOp0
 70
     1
102
RTVSPropertyOp1
 70
     1
102
RTVSPropertyOp2
 70
     1
102
RTVSPropertyOp3
 70
     1
102
RTVSPropertyOp4
 70
     1
102
RTVSPropertyOp5
 70
     1
102
RTVSPropertyOp6
 70
     1
102
RTVSPropertyOp7
 70
     1
102
RTVSPropertyOp8
 70
     1
102
RTVSPropertyOp9
 70
     1
102
RTVSPropertyOp10
 70
     1
102
RTVSPropertyOp11
 70
     1
102
RTVSPropertyOp12
 70
     1
102
RTVSPropertyOp13
 70
     1
102
RTVSPropertyOp14
 70
     1
102
RTVSPropertyOp15
 70
     1
102
RTVSPropertyOp16
 70
     1
102
RTVSPropertyOp17
 70
     1
102
RTVSPropertyOp18
 70
     1
102
RTVSPropertyOp19
 70
     1
102
RTVSPropertyOp20
 70
     1
102
RTVSPropertyOp21
 70
     1
102
RTVSPropertyOp22
 70
     1
102
RTVSPropertyOp23
 70
     1
102
RTVSPropertyOp24
 70
     1
102
RTVSPropertyOp25
 70
     1
102
RTVSPropertyOp26
 70
     1
102
RTVSPropertyOp27
 70
     1
102
RTVSPropertyOp28
 70
     1
102
RTVSPropertyOp29
 70
     1
102
RTVSPropertyOp30
 70
     1
102
RTVSPropertyOp31
 70
     1
102
RTVSPropertyOp32
 70
     1
102
RTVSPropertyOp33
 70
     1
102
RTVSPropertyOp34
 70
     1
102
RTVSPropertyOp35
 70
     1
102
RTVSPropertyOp36
 70
     1
102
RTVSPropertyOp37
 70
     1
102
RTVSPropertyOp38
 70
     1
102
RTVSPropertyOp39
 70
     1
102
RTVSPropertyOp40
 70
     1
102
RTVSPropertyOp41
 70
     1
102
RTVSPropertyOp42
 70
     1
102
RTVSPropertyOp43
 70
     1
102
RTVSPropertyOp44
 70
     1
102
RTVSPropertyOp45
 70
     1
102
RTVSPropertyOp46
 70
     1
102
RTVSPropertyOp47
 70
     1
102
RTVSPropertyOp48
 70
     1
102
RTVSPropertyOp49
 70
     1
102
RTVSPropertyOp50
 70
     1
102
RTVSPropertyOp51
 70
     0
102
RTVSPropertyOp52
 70
     0
102
RTVSPropertyOp53
 70
     1
102
RTVSPropertyOp54
 70
     1
102
RTVSPropertyOp55
 70
     1
102
RTVSPropertyOp56
 70
     1
102
RTVSPropertyOp57
 70
     1
102
RTVSPropertyOp58
 70
     1
102
RTVSPropertyOp59
 70
     1
102
RTVSPropertyOp60
 70
     1
102
RTVSPropertyOp61
 70
     1
102
RTVSPropertyOp62
 70
     1
  0
XRECORD
  5
26C4
102
{ACAD_REACTORS
330
26C3
102
}
330
26C3
100
AcDbXrecord
280
     1
102
RTVSPost2010Prop28
280
     0
102
RTVSPost2010PropOp28
 70
     1
102
RTVSPost2010Prop29
280
     1
102
RTVSPost2010PropOp29
 70
     1
102
RTVSPost2010Prop30
280
     1
102
RTVSPost2010PropOp30
 70
     1
102
RTVSPost2010Prop31
280
     0
102
RTVSPost2010PropOp31
 70
     1
102
RTVSPost2010Prop32
280
     0
102
RTVSPost2010PropOp32
 70
     1
102
RTVSPost2010Prop33
280
     0
102
RTVSPost2010PropOp33
 70
     1
102
RTVSPost2010Prop34
280
     0
102
RTVSPost2010PropOp34
 70
     1
102
RTVSPost2010Prop35
280
     0
102
RTVSPost2010PropOp35
 70
     1
102
RTVSPost2010Prop36
280
     0
102
RTVSPost2010PropOp36
 70
     1
102
RTVSPost2010Prop37
 90
       50
102
RTVSPost2010PropOp37
 70
     1
102
RTVSPost2010Prop38
140
0.0
102
RTVSPost2010PropOp38
 70
     1
102
RTVSPost2010Prop39
140
1.0
102
RTVSPost2010PropOp39
 70
     1
102
RTVSPost2010Prop40
 90
        0
102
RTVSPost2010PropOp40
 70
     1
102
RTVSPost2010Prop41ColorIndex
 90
       18
102
RTVSPost2010Prop41ColorRGB
 90
        0
102
RTVSPost2010PropOp41
 70
     1
102
RTVSPost2010Prop42
 90
       50
102
RTVSPost2010PropOp42
 70
     1
102
RTVSPost2010Prop43
 90
        3
102
RTVSPost2010PropOp43
 70
     1
102
RTVSPost2010Prop44ColorIndex
 90
        5
102
RTVSPost2010Prop44ColorRGB
 90
      255
102
RTVSPost2010PropOp44
 70
     1
102
RTVSPost2010Prop45
280
     0
102
RTVSPost2010PropOp45
 70
     1
102
RTVSPost2010Prop46
 90
       50
102
RTVSPost2010PropOp46
 70
     1
102
RTVSPost2010Prop47
 90
       50
102
RTVSPost2010PropOp47
 70
     1
102
RTVSPost2010Prop48
 90
       50
102
RTVSPost2010PropOp48
 70
     1
102
RTVSPost2010Prop49
280
     0
102
RTVSPost2010PropOp49
 70
     1
102
RTVSPost2010Prop50
 90
       50
102
RTVSPost2010PropOp50
 70
     1
102
RTVSPost2010Prop51ColorIndex
 90
      256
102
RTVSPost2010Prop51ColorRGB
 90
-16777216
102
RTVSPost2010PropOp51
 70
     0
102
RTVSPost2010Prop52
140
1.0
102
RTVSPost2010PropOp52
 70
     0
102
RTVSPost2010Prop53
 90
        2
102
RTVSPost2010PropOp53
 70
     1
102
RTVSPost2010Prop54
  1
strokes_ogs.tif
102
RTVSPost2010PropOp54
 70
     1
102
RTVSPost2010Prop55
280
     0
102
RTVSPost2010PropOp55
 70
     1
102
RTVSPost2010Prop56
140
1.0
102
RTVSPost2010PropOp56
 70
     1
102
RTVSPost2010Prop57
140
1.0
102
RTVSPost2010PropOp57
 70
     1
102
RTVSPropertyOp0
 70
     1
102
RTVSPropertyOp1
 70
     1
102
RTVSPropertyOp2
 70
     1
102
RTVSPropertyOp3
 70
     1
102
RTVSPropertyOp4
 70
     1
102
RTVSPropertyOp5
 70
     1
102
RTVSPropertyOp6
 70
     1
102
RTVSPropertyOp7
 70
     1
102
RTVSPropertyOp8
 70
     1
102
RTVSPropertyOp9
 70
     1
102
RTVSPropertyOp10
 70
     1
102
RTVSPropertyOp11
 70
     1
102
RTVSPropertyOp12
 70
     1
102
RTVSPropertyOp13
 70
     1
102
RTVSPropertyOp14
 70
     1
102
RTVSPropertyOp15
 70
     1
102
RTVSPropertyOp16
 70
     1
102
RTVSPropertyOp17
 70
     1
102
RTVSPropertyOp18
 70
     1
102
RTVSPropertyOp19
 70
     1
102
RTVSPropertyOp20
 70
     1
102
RTVSPropertyOp21
 70
     1
102
RTVSPropertyOp22
 70
     1
102
RTVSPropertyOp23
 70
     1
102
RTVSPropertyOp24
 70
     1
102
RTVSPropertyOp25
 70
     1
102
RTVSPropertyOp26
 70
     1
102
RTVSPropertyOp27
 70
     1
102
RTVSPropertyOp28
 70
     1
102
RTVSPropertyOp29
 70
     1
102
RTVSPropertyOp30
 70
     1
102
RTVSPropertyOp31
 70
     1
102
RTVSPropertyOp32
 70
     1
102
RTVSPropertyOp33
 70
     1
102
RTVSPropertyOp34
 70
     1
102
RTVSPropertyOp35
 70
     1
102
RTVSPropertyOp36
 70
     1
102
RTVSPropertyOp37
 70
     1
102
RTVSPropertyOp38
 70
     1
102
RTVSPropertyOp39
 70
     1
102
RTVSPropertyOp40
 70
     1
102
RTVSPropertyOp41
 70
     1
102
RTVSPropertyOp42
 70
     1
102
RTVSPropertyOp43
 70
     1
102
RTVSPropertyOp44
 70
     1
102
RTVSPropertyOp45
 70
     1
102
RTVSPropertyOp46
 70
     1
102
RTVSPropertyOp47
 70
     1
102
RTVSPropertyOp48
 70
     1
102
RTVSPropertyOp49
 70
     1
102
RTVSPropertyOp50
 70
     1
102
RTVSPropertyOp51
 70
     0
102
RTVSPropertyOp52
 70
     0
102
RTVSPropertyOp53
 70
     1
102
RTVSPropertyOp54
 70
     1
102
RTVSPropertyOp55
 70
     1
102
RTVSPropertyOp56
 70
     1
102
RTVSPropertyOp57
 70
     1
102
RTVSPropertyOp58
 70
     1
102
RTVSPropertyOp59
 70
     1
102
RTVSPropertyOp60
 70
     1
102
RTVSPropertyOp61
 70
     1
102
RTVSPropertyOp62
 70
     1
  0
XRECORD
  5
26C8
102
{ACAD_REACTORS
330
26C7
102
}
330
26C7
100
AcDbXrecord
280
     1
102
RTVSPost2010Prop28
280
     0
102
RTVSPost2010PropOp28
 70
     1
102
RTVSPost2010Prop29
280
     1
102
RTVSPost2010PropOp29
 70
     1
102
RTVSPost2010Prop30
280
     1
102
RTVSPost2010PropOp30
 70
     1
102
RTVSPost2010Prop31
280
     0
102
RTVSPost2010PropOp31
 70
     1
102
RTVSPost2010Prop32
280
     0
102
RTVSPost2010PropOp32
 70
     1
102
RTVSPost2010Prop33
280
     0
102
RTVSPost2010PropOp33
 70
     1
102
RTVSPost2010Prop34
280
     0
102
RTVSPost2010PropOp34
 70
     1
102
RTVSPost2010Prop35
280
     0
102
RTVSPost2010PropOp35
 70
     1
102
RTVSPost2010Prop36
280
     0
102
RTVSPost2010PropOp36
 70
     1
102
RTVSPost2010Prop37
 90
       50
102
RTVSPost2010PropOp37
 70
     1
102
RTVSPost2010Prop38
140
0.0
102
RTVSPost2010PropOp38
 70
     1
102
RTVSPost2010Prop39
140
1.0
102
RTVSPost2010PropOp39
 70
     1
102
RTVSPost2010Prop40
 90
        0
102
RTVSPost2010PropOp40
 70
     1
102
RTVSPost2010Prop41ColorIndex
 90
       18
102
RTVSPost2010Prop41ColorRGB
 90
        0
102
RTVSPost2010PropOp41
 70
     1
102
RTVSPost2010Prop42
 90
       50
102
RTVSPost2010PropOp42
 70
     1
102
RTVSPost2010Prop43
 90
        3
102
RTVSPost2010PropOp43
 70
     1
102
RTVSPost2010Prop44ColorIndex
 90
        5
102
RTVSPost2010Prop44ColorRGB
 90
      255
102
RTVSPost2010PropOp44
 70
     1
102
RTVSPost2010Prop45
280
     0
102
RTVSPost2010PropOp45
 70
     1
102
RTVSPost2010Prop46
 90
       50
102
RTVSPost2010PropOp46
 70
     1
102
RTVSPost2010Prop47
 90
       50
102
RTVSPost2010PropOp47
 70
     1
102
RTVSPost2010Prop48
 90
       50
102
RTVSPost2010PropOp48
 70
     1
102
RTVSPost2010Prop49
280
     0
102
RTVSPost2010PropOp49
 70
     1
102
RTVSPost2010Prop50
 90
       50
102
RTVSPost2010PropOp50
 70
     1
102
RTVSPost2010Prop51ColorIndex
 90
      256
102
RTVSPost2010Prop51ColorRGB
 90
-16777216
102
RTVSPost2010PropOp51
 70
     0
102
RTVSPost2010Prop52
140
1.0
102
RTVSPost2010PropOp52
 70
     0
102
RTVSPost2010Prop53
 90
        2
102
RTVSPost2010PropOp53
 70
     1
102
RTVSPost2010Prop54
  1
strokes_ogs.tif
102
RTVSPost2010PropOp54
 70
     1
102
RTVSPost2010Prop55
280
     0
102
RTVSPost2010PropOp55
 70
     1
102
RTVSPost2010Prop56
140
1.0
102
RTVSPost2010PropOp56
 70
     1
102
RTVSPost2010Prop57
140
1.0
102
RTVSPost2010PropOp57
 70
     1
102
RTVSPropertyOp0
 70
     1
102
RTVSPropertyOp1
 70
     1
102
RTVSPropertyOp2
 70
     1
102
RTVSPropertyOp3
 70
     1
102
RTVSPropertyOp4
 70
     1
102
RTVSPropertyOp5
 70
     1
102
RTVSPropertyOp6
 70
     1
102
RTVSPropertyOp7
 70
     1
102
RTVSPropertyOp8
 70
     1
102
RTVSPropertyOp9
 70
     1
102
RTVSPropertyOp10
 70
     1
102
RTVSPropertyOp11
 70
     1
102
RTVSPropertyOp12
 70
     1
102
RTVSPropertyOp13
 70
     1
102
RTVSPropertyOp14
 70
     1
102
RTVSPropertyOp15
 70
     1
102
RTVSPropertyOp16
 70
     1
102
RTVSPropertyOp17
 70
     1
102
RTVSPropertyOp18
 70
     1
102
RTVSPropertyOp19
 70
     1
102
RTVSPropertyOp20
 70
     1
102
RTVSPropertyOp21
 70
     1
102
RTVSPropertyOp22
 70
     1
102
RTVSPropertyOp23
 70
     1
102
RTVSPropertyOp24
 70
     1
102
RTVSPropertyOp25
 70
     1
102
RTVSPropertyOp26
 70
     1
102
RTVSPropertyOp27
 70
     1
102
RTVSPropertyOp28
 70
     1
102
RTVSPropertyOp29
 70
     1
102
RTVSPropertyOp30
 70
     1
102
RTVSPropertyOp31
 70
     1
102
RTVSPropertyOp32
 70
     1
102
RTVSPropertyOp33
 70
     1
102
RTVSPropertyOp34
 70
     1
102
RTVSPropertyOp35
 70
     1
102
RTVSPropertyOp36
 70
     1
102
RTVSPropertyOp37
 70
     1
102
RTVSPropertyOp38
 70
     1
102
RTVSPropertyOp39
 70
     1
102
RTVSPropertyOp40
 70
     1
102
RTVSPropertyOp41
 70
     1
102
RTVSPropertyOp42
 70
     1
102
RTVSPropertyOp43
 70
     1
102
RTVSPropertyOp44
 70
     1
102
RTVSPropertyOp45
 70
     1
102
RTVSPropertyOp46
 70
     1
102
RTVSPropertyOp47
 70
     1
102
RTVSPropertyOp48
 70
     1
102
RTVSPropertyOp49
 70
     1
102
RTVSPropertyOp50
 70
     1
102
RTVSPropertyOp51
 70
     0
102
RTVSPropertyOp52
 70
     0
102
RTVSPropertyOp53
 70
     1
102
RTVSPropertyOp54
 70
     1
102
RTVSPropertyOp55
 70
     1
102
RTVSPropertyOp56
 70
     1
102
RTVSPropertyOp57
 70
     1
102
RTVSPropertyOp58
 70
     1
102
RTVSPropertyOp59
 70
     1
102
RTVSPropertyOp60
 70
     1
102
RTVSPropertyOp61
 70
     1
102
RTVSPropertyOp62
 70
     1
  0
XRECORD
  5
26E2
102
{ACAD_REACTORS
330
26E1
102
}
330
26E1
100
AcDbXrecord
280
     1
102
RTVSPost2010Prop28
280
     0
102
RTVSPost2010PropOp28
 70
     1
102
RTVSPost2010Prop29
280
     1
102
RTVSPost2010PropOp29
 70
     1
102
RTVSPost2010Prop30
280
     1
102
RTVSPost2010PropOp30
 70
     1
102
RTVSPost2010Prop31
280
     0
102
RTVSPost2010PropOp31
 70
     1
102
RTVSPost2010Prop32
280
     0
102
RTVSPost2010PropOp32
 70
     1
102
RTVSPost2010Prop33
280
     0
102
RTVSPost2010PropOp33
 70
     1
102
RTVSPost2010Prop34
280
     0
102
RTVSPost2010PropOp34
 70
     1
102
RTVSPost2010Prop35
280
     0
102
RTVSPost2010PropOp35
 70
     1
102
RTVSPost2010Prop36
280
     0
102
RTVSPost2010PropOp36
 70
     1
102
RTVSPost2010Prop37
 90
       50
102
RTVSPost2010PropOp37
 70
     0
102
RTVSPost2010Prop38
140
0.0
102
RTVSPost2010PropOp38
 70
     0
102
RTVSPost2010Prop39
140
1.0
102
RTVSPost2010PropOp39
 70
     0
102
RTVSPost2010Prop40
 90
        0
102
RTVSPost2010PropOp40
 70
     0
102
RTVSPost2010Prop41ColorIndex
 90
       18
102
RTVSPost2010Prop41ColorRGB
 90
        0
102
RTVSPost2010PropOp41
 70
     0
102
RTVSPost2010Prop42
 90
       50
102
RTVSPost2010PropOp42
 70
     0
102
RTVSPost2010Prop43
 90
        3
102
RTVSPost2010PropOp43
 70
     0
102
RTVSPost2010Prop44ColorIndex
 90
        5
102
RTVSPost2010Prop44ColorRGB
 90
      255
102
RTVSPost2010PropOp44
 70
     0
102
RTVSPost2010Prop45
280
     0
102
RTVSPost2010PropOp45
 70
     1
102
RTVSPost2010Prop46
 90
       50
102
RTVSPost2010PropOp46
 70
     0
102
RTVSPost2010Prop47
 90
       50
102
RTVSPost2010PropOp47
 70
     0
102
RTVSPost2010Prop48
 90
       50
102
RTVSPost2010PropOp48
 70
     0
102
RTVSPost2010Prop49
280
     0
102
RTVSPost2010PropOp49
 70
     1
102
RTVSPost2010Prop50
 90
       50
102
RTVSPost2010PropOp50
 70
     0
102
RTVSPost2010Prop51ColorIndex
 90
      256
102
RTVSPost2010Prop51ColorRGB
 90
-16777216
102
RTVSPost2010PropOp51
 70
     0
102
RTVSPost2010Prop52
140
1.0
102
RTVSPost2010PropOp52
 70
     0
102
RTVSPost2010Prop53
 90
        2
102
RTVSPost2010PropOp53
 70
     0
102
RTVSPost2010Prop54
  1
strokes_ogs.tif
102
RTVSPost2010PropOp54
 70
     0
102
RTVSPost2010Prop55
280
     0
102
RTVSPost2010PropOp55
 70
     1
102
RTVSPost2010Prop56
140
1.0
102
RTVSPost2010PropOp56
 70
     0
102
RTVSPost2010Prop57
140
1.0
102
RTVSPost2010PropOp57
 70
     0
102
RTVSPropertyOp0
 70
     0
102
RTVSPropertyOp1
 70
     0
102
RTVSPropertyOp2
 70
     0
102
RTVSPropertyOp3
 70
     0
102
RTVSPropertyOp4
 70
     0
102
RTVSPropertyOp5
 70
     0
102
RTVSPropertyOp6
 70
     0
102
RTVSPropertyOp7
 70
     0
102
RTVSPropertyOp8
 70
     0
102
RTVSPropertyOp9
 70
     0
102
RTVSPropertyOp10
 70
     0
102
RTVSPropertyOp11
 70
     0
102
RTVSPropertyOp12
 70
     0
102
RTVSPropertyOp13
 70
     0
102
RTVSPropertyOp14
 70
     2
102
RTVSPropertyOp15
 70
     0
102
RTVSPropertyOp16
 70
     0
102
RTVSPropertyOp17
 70
     0
102
RTVSPropertyOp18
 70
     0
102
RTVSPropertyOp19
 70
     0
102
RTVSPropertyOp20
 70
     0
102
RTVSPropertyOp21
 70
     0
102
RTVSPropertyOp22
 70
     0
102
RTVSPropertyOp23
 70
     0
102
RTVSPropertyOp24
 70
     0
102
RTVSPropertyOp25
 70
     0
102
RTVSPropertyOp26
 70
     0
102
RTVSPropertyOp27
 70
     0
102
RTVSPropertyOp28
 70
     1
102
RTVSPropertyOp29
 70
     1
102
RTVSPropertyOp30
 70
     1
102
RTVSPropertyOp31
 70
     1
102
RTVSPropertyOp32
 70
     1
102
RTVSPropertyOp33
 70
     1
102
RTVSPropertyOp34
 70
     1
102
RTVSPropertyOp35
 70
     1
102
RTVSPropertyOp36
 70
     1
102
RTVSPropertyOp37
 70
     0
102
RTVSPropertyOp38
 70
     0
102
RTVSPropertyOp39
 70
     0
102
RTVSPropertyOp40
 70
     0
102
RTVSPropertyOp41
 70
     0
102
RTVSPropertyOp42
 70
     0
102
RTVSPropertyOp43
 70
     0
102
RTVSPropertyOp44
 70
     0
102
RTVSPropertyOp45
 70
     1
102
RTVSPropertyOp46
 70
     0
102
RTVSPropertyOp47
 70
     0
102
RTVSPropertyOp48
 70
     0
102
RTVSPropertyOp49
 70
     1
102
RTVSPropertyOp50
 70
     0
102
RTVSPropertyOp51
 70
     0
102
RTVSPropertyOp52
 70
     0
102
RTVSPropertyOp53
 70
     0
102
RTVSPropertyOp54
 70
     0
102
RTVSPropertyOp55
 70
     1
102
RTVSPropertyOp56
 70
     0
102
RTVSPropertyOp57
 70
     0
102
RTVSPropertyOp58
 70
     0
102
RTVSPropertyOp59
 70
     0
102
RTVSPropertyOp60
 70
     0
102
RTVSPropertyOp61
 70
     0
102
RTVSPropertyOp62
 70
     0
  0
XRECORD
  5
26D0
102
{ACAD_REACTORS
330
26CF
102
}
330
26CF
100
AcDbXrecord
280
     1
102
RTVSPost2010Prop28
280
     0
102
RTVSPost2010PropOp28
 70
     1
102
RTVSPost2010Prop29
280
     1
102
RTVSPost2010PropOp29
 70
     1
102
RTVSPost2010Prop30
280
     1
102
RTVSPost2010PropOp30
 70
     1
102
RTVSPost2010Prop31
280
     0
102
RTVSPost2010PropOp31
 70
     1
102
RTVSPost2010Prop32
280
     0
102
RTVSPost2010PropOp32
 70
     1
102
RTVSPost2010Prop33
280
     0
102
RTVSPost2010PropOp33
 70
     1
102
RTVSPost2010Prop34
280
     0
102
RTVSPost2010PropOp34
 70
     1
102
RTVSPost2010Prop35
280
     0
102
RTVSPost2010PropOp35
 70
     1
102
RTVSPost2010Prop36
280
     0
102
RTVSPost2010PropOp36
 70
     1
102
RTVSPost2010Prop37
 90
       50
102
RTVSPost2010PropOp37
 70
     1
102
RTVSPost2010Prop38
140
0.0
102
RTVSPost2010PropOp38
 70
     1
102
RTVSPost2010Prop39
140
1.0
102
RTVSPost2010PropOp39
 70
     1
102
RTVSPost2010Prop40
 90
        0
102
RTVSPost2010PropOp40
 70
     1
102
RTVSPost2010Prop41ColorIndex
 90
       18
102
RTVSPost2010Prop41ColorRGB
 90
        0
102
RTVSPost2010PropOp41
 70
     1
102
RTVSPost2010Prop42
 90
       50
102
RTVSPost2010PropOp42
 70
     1
102
RTVSPost2010Prop43
 90
        3
102
RTVSPost2010PropOp43
 70
     1
102
RTVSPost2010Prop44ColorIndex
 90
        5
102
RTVSPost2010Prop44ColorRGB
 90
      255
102
RTVSPost2010PropOp44
 70
     1
102
RTVSPost2010Prop45
280
     0
102
RTVSPost2010PropOp45
 70
     1
102
RTVSPost2010Prop46
 90
       50
102
RTVSPost2010PropOp46
 70
     1
102
RTVSPost2010Prop47
 90
       50
102
RTVSPost2010PropOp47
 70
     1
102
RTVSPost2010Prop48
 90
       50
102
RTVSPost2010PropOp48
 70
     1
102
RTVSPost2010Prop49
280
     0
102
RTVSPost2010PropOp49
 70
     1
102
RTVSPost2010Prop50
 90
       50
102
RTVSPost2010PropOp50
 70
     1
102
RTVSPost2010Prop51ColorIndex
 90
      256
102
RTVSPost2010Prop51ColorRGB
 90
-16777216
102
RTVSPost2010PropOp51
 70
     0
102
RTVSPost2010Prop52
140
1.0
102
RTVSPost2010PropOp52
 70
     0
102
RTVSPost2010Prop53
 90
        2
102
RTVSPost2010PropOp53
 70
     1
102
RTVSPost2010Prop54
  1
strokes_ogs.tif
102
RTVSPost2010PropOp54
 70
     1
102
RTVSPost2010Prop55
280
     0
102
RTVSPost2010PropOp55
 70
     1
102
RTVSPost2010Prop56
140
1.0
102
RTVSPost2010PropOp56
 70
     1
102
RTVSPost2010Prop57
140
1.0
102
RTVSPost2010PropOp57
 70
     1
102
RTVSPropertyOp0
 70
     1
102
RTVSPropertyOp1
 70
     1
102
RTVSPropertyOp2
 70
     1
102
RTVSPropertyOp3
 70
     1
102
RTVSPropertyOp4
 70
     1
102
RTVSPropertyOp5
 70
     1
102
RTVSPropertyOp6
 70
     1
102
RTVSPropertyOp7
 70
     1
102
RTVSPropertyOp8
 70
     1
102
RTVSPropertyOp9
 70
     1
102
RTVSPropertyOp10
 70
     1
102
RTVSPropertyOp11
 70
     1
102
RTVSPropertyOp12
 70
     1
102
RTVSPropertyOp13
 70
     1
102
RTVSPropertyOp14
 70
     1
102
RTVSPropertyOp15
 70
     1
102
RTVSPropertyOp16
 70
     1
102
RTVSPropertyOp17
 70
     1
102
RTVSPropertyOp18
 70
     1
102
RTVSPropertyOp19
 70
     1
102
RTVSPropertyOp20
 70
     1
102
RTVSPropertyOp21
 70
     1
102
RTVSPropertyOp22
 70
     1
102
RTVSPropertyOp23
 70
     1
102
RTVSPropertyOp24
 70
     1
102
RTVSPropertyOp25
 70
     1
102
RTVSPropertyOp26
 70
     1
102
RTVSPropertyOp27
 70
     1
102
RTVSPropertyOp28
 70
     1
102
RTVSPropertyOp29
 70
     1
102
RTVSPropertyOp30
 70
     1
102
RTVSPropertyOp31
 70
     1
102
RTVSPropertyOp32
 70
     1
102
RTVSPropertyOp33
 70
     1
102
RTVSPropertyOp34
 70
     1
102
RTVSPropertyOp35
 70
     1
102
RTVSPropertyOp36
 70
     1
102
RTVSPropertyOp37
 70
     1
102
RTVSPropertyOp38
 70
     1
102
RTVSPropertyOp39
 70
     1
102
RTVSPropertyOp40
 70
     1
102
RTVSPropertyOp41
 70
     1
102
RTVSPropertyOp42
 70
     1
102
RTVSPropertyOp43
 70
     1
102
RTVSPropertyOp44
 70
     1
102
RTVSPropertyOp45
 70
     1
102
RTVSPropertyOp46
 70
     1
102
RTVSPropertyOp47
 70
     1
102
RTVSPropertyOp48
 70
     1
102
RTVSPropertyOp49
 70
     1
102
RTVSPropertyOp50
 70
     1
102
RTVSPropertyOp51
 70
     0
102
RTVSPropertyOp52
 70
     0
102
RTVSPropertyOp53
 70
     1
102
RTVSPropertyOp54
 70
     1
102
RTVSPropertyOp55
 70
     1
102
RTVSPropertyOp56
 70
     1
102
RTVSPropertyOp57
 70
     1
102
RTVSPropertyOp58
 70
     1
102
RTVSPropertyOp59
 70
     1
102
RTVSPropertyOp60
 70
     1
102
RTVSPropertyOp61
 70
     1
102
RTVSPropertyOp62
 70
     1
  0
XRECORD
  5
26B4
102
{ACAD_REACTORS
330
26B3
102
}
330
26B3
100
AcDbXrecord
280
     1
102
RTVSPost2010Prop28
280
     0
102
RTVSPost2010PropOp28
 70
     1
102
RTVSPost2010Prop29
280
     1
102
RTVSPost2010PropOp29
 70
     1
102
RTVSPost2010Prop30
280
     1
102
RTVSPost2010PropOp30
 70
     1
102
RTVSPost2010Prop31
280
     0
102
RTVSPost2010PropOp31
 70
     1
102
RTVSPost2010Prop32
280
     0
102
RTVSPost2010PropOp32
 70
     1
102
RTVSPost2010Prop33
280
     0
102
RTVSPost2010PropOp33
 70
     1
102
RTVSPost2010Prop34
280
     0
102
RTVSPost2010PropOp34
 70
     1
102
RTVSPost2010Prop35
280
     0
102
RTVSPost2010PropOp35
 70
     1
102
RTVSPost2010Prop36
280
     0
102
RTVSPost2010PropOp36
 70
     1
102
RTVSPost2010Prop37
 90
       50
102
RTVSPost2010PropOp37
 70
     1
102
RTVSPost2010Prop38
140
0.0
102
RTVSPost2010PropOp38
 70
     1
102
RTVSPost2010Prop39
140
1.0
102
RTVSPost2010PropOp39
 70
     1
102
RTVSPost2010Prop40
 90
        0
102
RTVSPost2010PropOp40
 70
     1
102
RTVSPost2010Prop41ColorIndex
 90
       18
102
RTVSPost2010Prop41ColorRGB
 90
        0
102
RTVSPost2010PropOp41
 70
     1
102
RTVSPost2010Prop42
 90
       50
102
RTVSPost2010PropOp42
 70
     1
102
RTVSPost2010Prop43
 90
        3
102
RTVSPost2010PropOp43
 70
     1
102
RTVSPost2010Prop44ColorIndex
 90
        5
102
RTVSPost2010Prop44ColorRGB
 90
      255
102
RTVSPost2010PropOp44
 70
     1
102
RTVSPost2010Prop45
280
     0
102
RTVSPost2010PropOp45
 70
     1
102
RTVSPost2010Prop46
 90
       50
102
RTVSPost2010PropOp46
 70
     1
102
RTVSPost2010Prop47
 90
       50
102
RTVSPost2010PropOp47
 70
     1
102
RTVSPost2010Prop48
 90
       50
102
RTVSPost2010PropOp48
 70
     1
102
RTVSPost2010Prop49
280
     0
102
RTVSPost2010PropOp49
 70
     1
102
RTVSPost2010Prop50
 90
       50
102
RTVSPost2010PropOp50
 70
     1
102
RTVSPost2010Prop51ColorIndex
 90
      256
102
RTVSPost2010Prop51ColorRGB
 90
-16777216
102
RTVSPost2010PropOp51
 70
     0
102
RTVSPost2010Prop52
140
1.0
102
RTVSPost2010PropOp52
 70
     0
102
RTVSPost2010Prop53
 90
        2
102
RTVSPost2010PropOp53
 70
     1
102
RTVSPost2010Prop54
  1
strokes_ogs.tif
102
RTVSPost2010PropOp54
 70
     1
102
RTVSPost2010Prop55
280
     0
102
RTVSPost2010PropOp55
 70
     1
102
RTVSPost2010Prop56
140
1.0
102
RTVSPost2010PropOp56
 70
     1
102
RTVSPost2010Prop57
140
1.0
102
RTVSPost2010PropOp57
 70
     1
102
RTVSPropertyOp0
 70
     1
102
RTVSPropertyOp1
 70
     1
102
RTVSPropertyOp2
 70
     1
102
RTVSPropertyOp3
 70
     1
102
RTVSPropertyOp4
 70
     1
102
RTVSPropertyOp5
 70
     1
102
RTVSPropertyOp6
 70
     1
102
RTVSPropertyOp7
 70
     1
102
RTVSPropertyOp8
 70
     1
102
RTVSPropertyOp9
 70
     1
102
RTVSPropertyOp10
 70
     1
102
RTVSPropertyOp11
 70
     1
102
RTVSPropertyOp12
 70
     1
102
RTVSPropertyOp13
 70
     1
102
RTVSPropertyOp14
 70
     1
102
RTVSPropertyOp15
 70
     1
102
RTVSPropertyOp16
 70
     1
102
RTVSPropertyOp17
 70
     1
102
RTVSPropertyOp18
 70
     1
102
RTVSPropertyOp19
 70
     1
102
RTVSPropertyOp20
 70
     1
102
RTVSPropertyOp21
 70
     1
102
RTVSPropertyOp22
 70
     1
102
RTVSPropertyOp23
 70
     1
102
RTVSPropertyOp24
 70
     1
102
RTVSPropertyOp25
 70
     1
102
RTVSPropertyOp26
 70
     1
102
RTVSPropertyOp27
 70
     1
102
RTVSPropertyOp28
 70
     1
102
RTVSPropertyOp29
 70
     1
102
RTVSPropertyOp30
 70
     1
102
RTVSPropertyOp31
 70
     1
102
RTVSPropertyOp32
 70
     1
102
RTVSPropertyOp33
 70
     1
102
RTVSPropertyOp34
 70
     1
102
RTVSPropertyOp35
 70
     1
102
RTVSPropertyOp36
 70
     1
102
RTVSPropertyOp37
 70
     1
102
RTVSPropertyOp38
 70
     1
102
RTVSPropertyOp39
 70
     1
102
RTVSPropertyOp40
 70
     1
102
RTVSPropertyOp41
 70
     1
102
RTVSPropertyOp42
 70
     1
102
RTVSPropertyOp43
 70
     1
102
RTVSPropertyOp44
 70
     1
102
RTVSPropertyOp45
 70
     1
102
RTVSPropertyOp46
 70
     1
102
RTVSPropertyOp47
 70
     1
102
RTVSPropertyOp48
 70
     1
102
RTVSPropertyOp49
 70
     1
102
RTVSPropertyOp50
 70
     1
102
RTVSPropertyOp51
 70
     0
102
RTVSPropertyOp52
 70
     0
102
RTVSPropertyOp53
 70
     1
102
RTVSPropertyOp54
 70
     1
102
RTVSPropertyOp55
 70
     1
102
RTVSPropertyOp56
 70
     1
102
RTVSPropertyOp57
 70
     1
102
RTVSPropertyOp58
 70
     1
102
RTVSPropertyOp59
 70
     1
102
RTVSPropertyOp60
 70
     1
102
RTVSPropertyOp61
 70
     1
102
RTVSPropertyOp62
 70
     1
  0
XRECORD
  5
26B6
102
{ACAD_REACTORS
330
26B5
102
}
330
26B5
100
AcDbXrecord
280
     1
102
RTVSPost2010Prop28
280
     0
102
RTVSPost2010PropOp28
 70
     1
102
RTVSPost2010Prop29
280
     1
102
RTVSPost2010PropOp29
 70
     1
102
RTVSPost2010Prop30
280
     1
102
RTVSPost2010PropOp30
 70
     1
102
RTVSPost2010Prop31
280
     0
102
RTVSPost2010PropOp31
 70
     1
102
RTVSPost2010Prop32
280
     0
102
RTVSPost2010PropOp32
 70
     1
102
RTVSPost2010Prop33
280
     0
102
RTVSPost2010PropOp33
 70
     1
102
RTVSPost2010Prop34
280
     0
102
RTVSPost2010PropOp34
 70
     1
102
RTVSPost2010Prop35
280
     0
102
RTVSPost2010PropOp35
 70
     1
102
RTVSPost2010Prop36
280
     0
102
RTVSPost2010PropOp36
 70
     1
102
RTVSPost2010Prop37
 90
       50
102
RTVSPost2010PropOp37
 70
     1
102
RTVSPost2010Prop38
140
0.0
102
RTVSPost2010PropOp38
 70
     1
102
RTVSPost2010Prop39
140
1.0
102
RTVSPost2010PropOp39
 70
     1
102
RTVSPost2010Prop40
 90
        0
102
RTVSPost2010PropOp40
 70
     1
102
RTVSPost2010Prop41ColorIndex
 90
       18
102
RTVSPost2010Prop41ColorRGB
 90
        0
102
RTVSPost2010PropOp41
 70
     1
102
RTVSPost2010Prop42
 90
       50
102
RTVSPost2010PropOp42
 70
     1
102
RTVSPost2010Prop43
 90
        3
102
RTVSPost2010PropOp43
 70
     1
102
RTVSPost2010Prop44ColorIndex
 90
        5
102
RTVSPost2010Prop44ColorRGB
 90
      255
102
RTVSPost2010PropOp44
 70
     1
102
RTVSPost2010Prop45
280
     0
102
RTVSPost2010PropOp45
 70
     1
102
RTVSPost2010Prop46
 90
       50
102
RTVSPost2010PropOp46
 70
     1
102
RTVSPost2010Prop47
 90
       50
102
RTVSPost2010PropOp47
 70
     1
102
RTVSPost2010Prop48
 90
       50
102
RTVSPost2010PropOp48
 70
     1
102
RTVSPost2010Prop49
280
     0
102
RTVSPost2010PropOp49
 70
     1
102
RTVSPost2010Prop50
 90
       50
102
RTVSPost2010PropOp50
 70
     1
102
RTVSPost2010Prop51ColorIndex
 90
      256
102
RTVSPost2010Prop51ColorRGB
 90
-16777216
102
RTVSPost2010PropOp51
 70
     0
102
RTVSPost2010Prop52
140
1.0
102
RTVSPost2010PropOp52
 70
     0
102
RTVSPost2010Prop53
 90
        2
102
RTVSPost2010PropOp53
 70
     1
102
RTVSPost2010Prop54
  1
strokes_ogs.tif
102
RTVSPost2010PropOp54
 70
     1
102
RTVSPost2010Prop55
280
     0
102
RTVSPost2010PropOp55
 70
     1
102
RTVSPost2010Prop56
140
1.0
102
RTVSPost2010PropOp56
 70
     1
102
RTVSPost2010Prop57
140
1.0
102
RTVSPost2010PropOp57
 70
     1
102
RTVSPropertyOp0
 70
     1
102
RTVSPropertyOp1
 70
     1
102
RTVSPropertyOp2
 70
     1
102
RTVSPropertyOp3
 70
     1
102
RTVSPropertyOp4
 70
     1
102
RTVSPropertyOp5
 70
     1
102
RTVSPropertyOp6
 70
     1
102
RTVSPropertyOp7
 70
     1
102
RTVSPropertyOp8
 70
     1
102
RTVSPropertyOp9
 70
     1
102
RTVSPropertyOp10
 70
     1
102
RTVSPropertyOp11
 70
     1
102
RTVSPropertyOp12
 70
     1
102
RTVSPropertyOp13
 70
     1
102
RTVSPropertyOp14
 70
     1
102
RTVSPropertyOp15
 70
     1
102
RTVSPropertyOp16
 70
     1
102
RTVSPropertyOp17
 70
     1
102
RTVSPropertyOp18
 70
     1
102
RTVSPropertyOp19
 70
     1
102
RTVSPropertyOp20
 70
     1
102
RTVSPropertyOp21
 70
     1
102
RTVSPropertyOp22
 70
     1
102
RTVSPropertyOp23
 70
     1
102
RTVSPropertyOp24
 70
     1
102
RTVSPropertyOp25
 70
     1
102
RTVSPropertyOp26
 70
     1
102
RTVSPropertyOp27
 70
     1
102
RTVSPropertyOp28
 70
     1
102
RTVSPropertyOp29
 70
     1
102
RTVSPropertyOp30
 70
     1
102
RTVSPropertyOp31
 70
     1
102
RTVSPropertyOp32
 70
     1
102
RTVSPropertyOp33
 70
     1
102
RTVSPropertyOp34
 70
     1
102
RTVSPropertyOp35
 70
     1
102
RTVSPropertyOp36
 70
     1
102
RTVSPropertyOp37
 70
     1
102
RTVSPropertyOp38
 70
     1
102
RTVSPropertyOp39
 70
     1
102
RTVSPropertyOp40
 70
     1
102
RTVSPropertyOp41
 70
     1
102
RTVSPropertyOp42
 70
     1
102
RTVSPropertyOp43
 70
     1
102
RTVSPropertyOp44
 70
     1
102
RTVSPropertyOp45
 70
     1
102
RTVSPropertyOp46
 70
     1
102
RTVSPropertyOp47
 70
     1
102
RTVSPropertyOp48
 70
     1
102
RTVSPropertyOp49
 70
     1
102
RTVSPropertyOp50
 70
     1
102
RTVSPropertyOp51
 70
     0
102
RTVSPropertyOp52
 70
     0
102
RTVSPropertyOp53
 70
     1
102
RTVSPropertyOp54
 70
     1
102
RTVSPropertyOp55
 70
     1
102
RTVSPropertyOp56
 70
     1
102
RTVSPropertyOp57
 70
     1
102
RTVSPropertyOp58
 70
     1
102
RTVSPropertyOp59
 70
     1
102
RTVSPropertyOp60
 70
     1
102
RTVSPropertyOp61
 70
     1
102
RTVSPropertyOp62
 70
     1
  0
XRECORD
  5
26B8
102
{ACAD_REACTORS
330
26B7
102
}
330
26B7
100
AcDbXrecord
280
     1
102
RTVSPost2010Prop28
280
     0
102
RTVSPost2010PropOp28
 70
     1
102
RTVSPost2010Prop29
280
     1
102
RTVSPost2010PropOp29
 70
     1
102
RTVSPost2010Prop30
280
     1
102
RTVSPost2010PropOp30
 70
     1
102
RTVSPost2010Prop31
280
     0
102
RTVSPost2010PropOp31
 70
     1
102
RTVSPost2010Prop32
280
     0
102
RTVSPost2010PropOp32
 70
     1
102
RTVSPost2010Prop33
280
     0
102
RTVSPost2010PropOp33
 70
     1
102
RTVSPost2010Prop34
280
     0
102
RTVSPost2010PropOp34
 70
     1
102
RTVSPost2010Prop35
280
     0
102
RTVSPost2010PropOp35
 70
     1
102
RTVSPost2010Prop36
280
     0
102
RTVSPost2010PropOp36
 70
     1
102
RTVSPost2010Prop37
 90
       50
102
RTVSPost2010PropOp37
 70
     1
102
RTVSPost2010Prop38
140
0.0
102
RTVSPost2010PropOp38
 70
     1
102
RTVSPost2010Prop39
140
1.0
102
RTVSPost2010PropOp39
 70
     1
102
RTVSPost2010Prop40
 90
        0
102
RTVSPost2010PropOp40
 70
     1
102
RTVSPost2010Prop41ColorIndex
 90
       18
102
RTVSPost2010Prop41ColorRGB
 90
        0
102
RTVSPost2010PropOp41
 70
     1
102
RTVSPost2010Prop42
 90
       50
102
RTVSPost2010PropOp42
 70
     1
102
RTVSPost2010Prop43
 90
        3
102
RTVSPost2010PropOp43
 70
     1
102
RTVSPost2010Prop44ColorIndex
 90
        5
102
RTVSPost2010Prop44ColorRGB
 90
      255
102
RTVSPost2010PropOp44
 70
     1
102
RTVSPost2010Prop45
280
     0
102
RTVSPost2010PropOp45
 70
     1
102
RTVSPost2010Prop46
 90
       50
102
RTVSPost2010PropOp46
 70
     1
102
RTVSPost2010Prop47
 90
       50
102
RTVSPost2010PropOp47
 70
     1
102
RTVSPost2010Prop48
 90
       50
102
RTVSPost2010PropOp48
 70
     1
102
RTVSPost2010Prop49
280
     0
102
RTVSPost2010PropOp49
 70
     1
102
RTVSPost2010Prop50
 90
       50
102
RTVSPost2010PropOp50
 70
     1
102
RTVSPost2010Prop51ColorIndex
 90
      256
102
RTVSPost2010Prop51ColorRGB
 90
-16777216
102
RTVSPost2010PropOp51
 70
     0
102
RTVSPost2010Prop52
140
1.0
102
RTVSPost2010PropOp52
 70
     0
102
RTVSPost2010Prop53
 90
        2
102
RTVSPost2010PropOp53
 70
     1
102
RTVSPost2010Prop54
  1
strokes_ogs.tif
102
RTVSPost2010PropOp54
 70
     1
102
RTVSPost2010Prop55
280
     0
102
RTVSPost2010PropOp55
 70
     1
102
RTVSPost2010Prop56
140
1.0
102
RTVSPost2010PropOp56
 70
     1
102
RTVSPost2010Prop57
140
1.0
102
RTVSPost2010PropOp57
 70
     1
102
RTVSPropertyOp0
 70
     1
102
RTVSPropertyOp1
 70
     1
102
RTVSPropertyOp2
 70
     1
102
RTVSPropertyOp3
 70
     1
102
RTVSPropertyOp4
 70
     1
102
RTVSPropertyOp5
 70
     1
102
RTVSPropertyOp6
 70
     1
102
RTVSPropertyOp7
 70
     1
102
RTVSPropertyOp8
 70
     1
102
RTVSPropertyOp9
 70
     1
102
RTVSPropertyOp10
 70
     1
102
RTVSPropertyOp11
 70
     1
102
RTVSPropertyOp12
 70
     1
102
RTVSPropertyOp13
 70
     1
102
RTVSPropertyOp14
 70
     1
102
RTVSPropertyOp15
 70
     1
102
RTVSPropertyOp16
 70
     1
102
RTVSPropertyOp17
 70
     1
102
RTVSPropertyOp18
 70
     1
102
RTVSPropertyOp19
 70
     1
102
RTVSPropertyOp20
 70
     1
102
RTVSPropertyOp21
 70
     1
102
RTVSPropertyOp22
 70
     1
102
RTVSPropertyOp23
 70
     1
102
RTVSPropertyOp24
 70
     1
102
RTVSPropertyOp25
 70
     1
102
RTVSPropertyOp26
 70
     1
102
RTVSPropertyOp27
 70
     1
102
RTVSPropertyOp28
 70
     1
102
RTVSPropertyOp29
 70
     1
102
RTVSPropertyOp30
 70
     1
102
RTVSPropertyOp31
 70
     1
102
RTVSPropertyOp32
 70
     1
102
RTVSPropertyOp33
 70
     1
102
RTVSPropertyOp34
 70
     1
102
RTVSPropertyOp35
 70
     1
102
RTVSPropertyOp36
 70
     1
102
RTVSPropertyOp37
 70
     1
102
RTVSPropertyOp38
 70
     1
102
RTVSPropertyOp39
 70
     1
102
RTVSPropertyOp40
 70
     1
102
RTVSPropertyOp41
 70
     1
102
RTVSPropertyOp42
 70
     1
102
RTVSPropertyOp43
 70
     1
102
RTVSPropertyOp44
 70
     1
102
RTVSPropertyOp45
 70
     1
102
RTVSPropertyOp46
 70
     1
102
RTVSPropertyOp47
 70
     1
102
RTVSPropertyOp48
 70
     1
102
RTVSPropertyOp49
 70
     1
102
RTVSPropertyOp50
 70
     1
102
RTVSPropertyOp51
 70
     0
102
RTVSPropertyOp52
 70
     0
102
RTVSPropertyOp53
 70
     1
102
RTVSPropertyOp54
 70
     1
102
RTVSPropertyOp55
 70
     1
102
RTVSPropertyOp56
 70
     1
102
RTVSPropertyOp57
 70
     1
102
RTVSPropertyOp58
 70
     1
102
RTVSPropertyOp59
 70
     1
102
RTVSPropertyOp60
 70
     1
102
RTVSPropertyOp61
 70
     1
102
RTVSPropertyOp62
 70
     1
  0
XRECORD
  5
26BA
102
{ACAD_REACTORS
330
26B9
102
}
330
26B9
100
AcDbXrecord
280
     1
102
RTVSPost2010Prop28
280
     0
102
RTVSPost2010PropOp28
 70
     1
102
RTVSPost2010Prop29
280
     1
102
RTVSPost2010PropOp29
 70
     1
102
RTVSPost2010Prop30
280
     1
102
RTVSPost2010PropOp30
 70
     1
102
RTVSPost2010Prop31
280
     0
102
RTVSPost2010PropOp31
 70
     1
102
RTVSPost2010Prop32
280
     0
102
RTVSPost2010PropOp32
 70
     1
102
RTVSPost2010Prop33
280
     0
102
RTVSPost2010PropOp33
 70
     1
102
RTVSPost2010Prop34
280
     0
102
RTVSPost2010PropOp34
 70
     1
102
RTVSPost2010Prop35
280
     0
102
RTVSPost2010PropOp35
 70
     1
102
RTVSPost2010Prop36
280
     0
102
RTVSPost2010PropOp36
 70
     1
102
RTVSPost2010Prop37
 90
       50
102
RTVSPost2010PropOp37
 70
     1
102
RTVSPost2010Prop38
140
0.0
102
RTVSPost2010PropOp38
 70
     1
102
RTVSPost2010Prop39
140
1.0
102
RTVSPost2010PropOp39
 70
     1
102
RTVSPost2010Prop40
 90
        0
102
RTVSPost2010PropOp40
 70
     1
102
RTVSPost2010Prop41ColorIndex
 90
       18
102
RTVSPost2010Prop41ColorRGB
 90
        0
102
RTVSPost2010PropOp41
 70
     1
102
RTVSPost2010Prop42
 90
       50
102
RTVSPost2010PropOp42
 70
     1
102
RTVSPost2010Prop43
 90
        3
102
RTVSPost2010PropOp43
 70
     1
102
RTVSPost2010Prop44ColorIndex
 90
        5
102
RTVSPost2010Prop44ColorRGB
 90
      255
102
RTVSPost2010PropOp44
 70
     1
102
RTVSPost2010Prop45
280
     0
102
RTVSPost2010PropOp45
 70
     1
102
RTVSPost2010Prop46
 90
       50
102
RTVSPost2010PropOp46
 70
     1
102
RTVSPost2010Prop47
 90
       50
102
RTVSPost2010PropOp47
 70
     1
102
RTVSPost2010Prop48
 90
       50
102
RTVSPost2010PropOp48
 70
     1
102
RTVSPost2010Prop49
280
     0
102
RTVSPost2010PropOp49
 70
     1
102
RTVSPost2010Prop50
 90
       50
102
RTVSPost2010PropOp50
 70
     1
102
RTVSPost2010Prop51ColorIndex
 90
      256
102
RTVSPost2010Prop51ColorRGB
 90
-16777216
102
RTVSPost2010PropOp51
 70
     0
102
RTVSPost2010Prop52
140
1.0
102
RTVSPost2010PropOp52
 70
     0
102
RTVSPost2010Prop53
 90
        2
102
RTVSPost2010PropOp53
 70
     1
102
RTVSPost2010Prop54
  1
strokes_ogs.tif
102
RTVSPost2010PropOp54
 70
     1
102
RTVSPost2010Prop55
280
     0
102
RTVSPost2010PropOp55
 70
     1
102
RTVSPost2010Prop56
140
1.0
102
RTVSPost2010PropOp56
 70
     1
102
RTVSPost2010Prop57
140
1.0
102
RTVSPost2010PropOp57
 70
     1
102
RTVSPropertyOp0
 70
     1
102
RTVSPropertyOp1
 70
     1
102
RTVSPropertyOp2
 70
     1
102
RTVSPropertyOp3
 70
     1
102
RTVSPropertyOp4
 70
     1
102
RTVSPropertyOp5
 70
     1
102
RTVSPropertyOp6
 70
     1
102
RTVSPropertyOp7
 70
     1
102
RTVSPropertyOp8
 70
     1
102
RTVSPropertyOp9
 70
     1
102
RTVSPropertyOp10
 70
     1
102
RTVSPropertyOp11
 70
     1
102
RTVSPropertyOp12
 70
     1
102
RTVSPropertyOp13
 70
     1
102
RTVSPropertyOp14
 70
     1
102
RTVSPropertyOp15
 70
     1
102
RTVSPropertyOp16
 70
     1
102
RTVSPropertyOp17
 70
     1
102
RTVSPropertyOp18
 70
     1
102
RTVSPropertyOp19
 70
     1
102
RTVSPropertyOp20
 70
     1
102
RTVSPropertyOp21
 70
     1
102
RTVSPropertyOp22
 70
     1
102
RTVSPropertyOp23
 70
     1
102
RTVSPropertyOp24
 70
     1
102
RTVSPropertyOp25
 70
     1
102
RTVSPropertyOp26
 70
     1
102
RTVSPropertyOp27
 70
     1
102
RTVSPropertyOp28
 70
     1
102
RTVSPropertyOp29
 70
     1
102
RTVSPropertyOp30
 70
     1
102
RTVSPropertyOp31
 70
     1
102
RTVSPropertyOp32
 70
     1
102
RTVSPropertyOp33
 70
     1
102
RTVSPropertyOp34
 70
     1
102
RTVSPropertyOp35
 70
     1
102
RTVSPropertyOp36
 70
     1
102
RTVSPropertyOp37
 70
     1
102
RTVSPropertyOp38
 70
     1
102
RTVSPropertyOp39
 70
     1
102
RTVSPropertyOp40
 70
     1
102
RTVSPropertyOp41
 70
     1
102
RTVSPropertyOp42
 70
     1
102
RTVSPropertyOp43
 70
     1
102
RTVSPropertyOp44
 70
     1
102
RTVSPropertyOp45
 70
     1
102
RTVSPropertyOp46
 70
     1
102
RTVSPropertyOp47
 70
     1
102
RTVSPropertyOp48
 70
     1
102
RTVSPropertyOp49
 70
     1
102
RTVSPropertyOp50
 70
     1
102
RTVSPropertyOp51
 70
     0
102
RTVSPropertyOp52
 70
     0
102
RTVSPropertyOp53
 70
     1
102
RTVSPropertyOp54
 70
     1
102
RTVSPropertyOp55
 70
     1
102
RTVSPropertyOp56
 70
     1
102
RTVSPropertyOp57
 70
     1
102
RTVSPropertyOp58
 70
     1
102
RTVSPropertyOp59
 70
     1
102
RTVSPropertyOp60
 70
     1
102
RTVSPropertyOp61
 70
     1
102
RTVSPropertyOp62
 70
     1
  0
XRECORD
  5
26C2
102
{ACAD_REACTORS
330
26C1
102
}
330
26C1
100
AcDbXrecord
280
     1
102
RTVSPost2010Prop28
280
     0
102
RTVSPost2010PropOp28
 70
     1
102
RTVSPost2010Prop29
280
     1
102
RTVSPost2010PropOp29
 70
     1
102
RTVSPost2010Prop30
280
     1
102
RTVSPost2010PropOp30
 70
     1
102
RTVSPost2010Prop31
280
     0
102
RTVSPost2010PropOp31
 70
     1
102
RTVSPost2010Prop32
280
     0
102
RTVSPost2010PropOp32
 70
     1
102
RTVSPost2010Prop33
280
     0
102
RTVSPost2010PropOp33
 70
     1
102
RTVSPost2010Prop34
280
     0
102
RTVSPost2010PropOp34
 70
     1
102
RTVSPost2010Prop35
280
     0
102
RTVSPost2010PropOp35
 70
     1
102
RTVSPost2010Prop36
280
     0
102
RTVSPost2010PropOp36
 70
     1
102
RTVSPost2010Prop37
 90
       50
102
RTVSPost2010PropOp37
 70
     1
102
RTVSPost2010Prop38
140
0.0
102
RTVSPost2010PropOp38
 70
     1
102
RTVSPost2010Prop39
140
1.0
102
RTVSPost2010PropOp39
 70
     1
102
RTVSPost2010Prop40
 90
        0
102
RTVSPost2010PropOp40
 70
     1
102
RTVSPost2010Prop41ColorIndex
 90
       18
102
RTVSPost2010Prop41ColorRGB
 90
        0
102
RTVSPost2010PropOp41
 70
     1
102
RTVSPost2010Prop42
 90
       50
102
RTVSPost2010PropOp42
 70
     1
102
RTVSPost2010Prop43
 90
        3
102
RTVSPost2010PropOp43
 70
     1
102
RTVSPost2010Prop44ColorIndex
 90
        5
102
RTVSPost2010Prop44ColorRGB
 90
      255
102
RTVSPost2010PropOp44
 70
     1
102
RTVSPost2010Prop45
280
     0
102
RTVSPost2010PropOp45
 70
     1
102
RTVSPost2010Prop46
 90
       50
102
RTVSPost2010PropOp46
 70
     1
102
RTVSPost2010Prop47
 90
       50
102
RTVSPost2010PropOp47
 70
     1
102
RTVSPost2010Prop48
 90
       50
102
RTVSPost2010PropOp48
 70
     1
102
RTVSPost2010Prop49
280
     0
102
RTVSPost2010PropOp49
 70
     1
102
RTVSPost2010Prop50
 90
       50
102
RTVSPost2010PropOp50
 70
     1
102
RTVSPost2010Prop51ColorIndex
 90
      256
102
RTVSPost2010Prop51ColorRGB
 90
-16777216
102
RTVSPost2010PropOp51
 70
     0
102
RTVSPost2010Prop52
140
1.0
102
RTVSPost2010PropOp52
 70
     0
102
RTVSPost2010Prop53
 90
        2
102
RTVSPost2010PropOp53
 70
     1
102
RTVSPost2010Prop54
  1
strokes_ogs.tif
102
RTVSPost2010PropOp54
 70
     1
102
RTVSPost2010Prop55
280
     0
102
RTVSPost2010PropOp55
 70
     1
102
RTVSPost2010Prop56
140
1.0
102
RTVSPost2010PropOp56
 70
     1
102
RTVSPost2010Prop57
140
1.0
102
RTVSPost2010PropOp57
 70
     1
102
RTVSPropertyOp0
 70
     1
102
RTVSPropertyOp1
 70
     1
102
RTVSPropertyOp2
 70
     1
102
RTVSPropertyOp3
 70
     1
102
RTVSPropertyOp4
 70
     1
102
RTVSPropertyOp5
 70
     1
102
RTVSPropertyOp6
 70
     1
102
RTVSPropertyOp7
 70
     1
102
RTVSPropertyOp8
 70
     1
102
RTVSPropertyOp9
 70
     1
102
RTVSPropertyOp10
 70
     1
102
RTVSPropertyOp11
 70
     1
102
RTVSPropertyOp12
 70
     1
102
RTVSPropertyOp13
 70
     1
102
RTVSPropertyOp14
 70
     1
102
RTVSPropertyOp15
 70
     1
102
RTVSPropertyOp16
 70
     1
102
RTVSPropertyOp17
 70
     1
102
RTVSPropertyOp18
 70
     1
102
RTVSPropertyOp19
 70
     1
102
RTVSPropertyOp20
 70
     1
102
RTVSPropertyOp21
 70
     1
102
RTVSPropertyOp22
 70
     1
102
RTVSPropertyOp23
 70
     1
102
RTVSPropertyOp24
 70
     1
102
RTVSPropertyOp25
 70
     1
102
RTVSPropertyOp26
 70
     1
102
RTVSPropertyOp27
 70
     1
102
RTVSPropertyOp28
 70
     1
102
RTVSPropertyOp29
 70
     1
102
RTVSPropertyOp30
 70
     1
102
RTVSPropertyOp31
 70
     1
102
RTVSPropertyOp32
 70
     1
102
RTVSPropertyOp33
 70
     1
102
RTVSPropertyOp34
 70
     1
102
RTVSPropertyOp35
 70
     1
102
RTVSPropertyOp36
 70
     1
102
RTVSPropertyOp37
 70
     1
102
RTVSPropertyOp38
 70
     1
102
RTVSPropertyOp39
 70
     1
102
RTVSPropertyOp40
 70
     1
102
RTVSPropertyOp41
 70
     1
102
RTVSPropertyOp42
 70
     1
102
RTVSPropertyOp43
 70
     1
102
RTVSPropertyOp44
 70
     1
102
RTVSPropertyOp45
 70
     1
102
RTVSPropertyOp46
 70
     1
102
RTVSPropertyOp47
 70
     1
102
RTVSPropertyOp48
 70
     1
102
RTVSPropertyOp49
 70
     1
102
RTVSPropertyOp50
 70
     1
102
RTVSPropertyOp51
 70
     0
102
RTVSPropertyOp52
 70
     0
102
RTVSPropertyOp53
 70
     1
102
RTVSPropertyOp54
 70
     1
102
RTVSPropertyOp55
 70
     1
102
RTVSPropertyOp56
 70
     1
102
RTVSPropertyOp57
 70
     1
102
RTVSPropertyOp58
 70
     1
102
RTVSPropertyOp59
 70
     1
102
RTVSPropertyOp60
 70
     1
102
RTVSPropertyOp61
 70
     1
102
RTVSPropertyOp62
 70
     1
  0
XRECORD
  5
26DE
102
{ACAD_REACTORS
330
26DD
102
}
330
26DD
100
AcDbXrecord
280
     1
102
RTVSPost2010Prop28
280
     0
102
RTVSPost2010PropOp28
 70
     1
102
RTVSPost2010Prop29
280
     1
102
RTVSPost2010PropOp29
 70
     1
102
RTVSPost2010Prop30
280
     1
102
RTVSPost2010PropOp30
 70
     1
102
RTVSPost2010Prop31
280
     0
102
RTVSPost2010PropOp31
 70
     1
102
RTVSPost2010Prop32
280
     0
102
RTVSPost2010PropOp32
 70
     1
102
RTVSPost2010Prop33
280
     0
102
RTVSPost2010PropOp33
 70
     1
102
RTVSPost2010Prop34
280
     0
102
RTVSPost2010PropOp34
 70
     1
102
RTVSPost2010Prop35
280
     0
102
RTVSPost2010PropOp35
 70
     1
102
RTVSPost2010Prop36
280
     0
102
RTVSPost2010PropOp36
 70
     1
102
RTVSPost2010Prop37
 90
       50
102
RTVSPost2010PropOp37
 70
     0
102
RTVSPost2010Prop38
140
0.0
102
RTVSPost2010PropOp38
 70
     0
102
RTVSPost2010Prop39
140
1.0
102
RTVSPost2010PropOp39
 70
     0
102
RTVSPost2010Prop40
 90
        0
102
RTVSPost2010PropOp40
 70
     0
102
RTVSPost2010Prop41ColorIndex
 90
       18
102
RTVSPost2010Prop41ColorRGB
 90
        0
102
RTVSPost2010PropOp41
 70
     0
102
RTVSPost2010Prop42
 90
       50
102
RTVSPost2010PropOp42
 70
     0
102
RTVSPost2010Prop43
 90
        3
102
RTVSPost2010PropOp43
 70
     0
102
RTVSPost2010Prop44ColorIndex
 90
        5
102
RTVSPost2010Prop44ColorRGB
 90
      255
102
RTVSPost2010PropOp44
 70
     0
102
RTVSPost2010Prop45
280
     0
102
RTVSPost2010PropOp45
 70
     1
102
RTVSPost2010Prop46
 90
       50
102
RTVSPost2010PropOp46
 70
     0
102
RTVSPost2010Prop47
 90
       50
102
RTVSPost2010PropOp47
 70
     0
102
RTVSPost2010Prop48
 90
       50
102
RTVSPost2010PropOp48
 70
     0
102
RTVSPost2010Prop49
280
     0
102
RTVSPost2010PropOp49
 70
     1
102
RTVSPost2010Prop50
 90
       50
102
RTVSPost2010PropOp50
 70
     0
102
RTVSPost2010Prop51ColorIndex
 90
      256
102
RTVSPost2010Prop51ColorRGB
 90
-16777216
102
RTVSPost2010PropOp51
 70
     0
102
RTVSPost2010Prop52
140
1.0
102
RTVSPost2010PropOp52
 70
     0
102
RTVSPost2010Prop53
 90
        2
102
RTVSPost2010PropOp53
 70
     0
102
RTVSPost2010Prop54
  1
strokes_ogs.tif
102
RTVSPost2010PropOp54
 70
     0
102
RTVSPost2010Prop55
280
     0
102
RTVSPost2010PropOp55
 70
     1
102
RTVSPost2010Prop56
140
1.0
102
RTVSPost2010PropOp56
 70
     0
102
RTVSPost2010Prop57
140
1.0
102
RTVSPost2010PropOp57
 70
     0
102
RTVSPropertyOp0
 70
     0
102
RTVSPropertyOp1
 70
     0
102
RTVSPropertyOp2
 70
     0
102
RTVSPropertyOp3
 70
     0
102
RTVSPropertyOp4
 70
     0
102
RTVSPropertyOp5
 70
     0
102
RTVSPropertyOp6
 70
     0
102
RTVSPropertyOp7
 70
     0
102
RTVSPropertyOp8
 70
     0
102
RTVSPropertyOp9
 70
     0
102
RTVSPropertyOp10
 70
     0
102
RTVSPropertyOp11
 70
     0
102
RTVSPropertyOp12
 70
     0
102
RTVSPropertyOp13
 70
     0
102
RTVSPropertyOp14
 70
     2
102
RTVSPropertyOp15
 70
     0
102
RTVSPropertyOp16
 70
     0
102
RTVSPropertyOp17
 70
     0
102
RTVSPropertyOp18
 70
     0
102
RTVSPropertyOp19
 70
     0
102
RTVSPropertyOp20
 70
     0
102
RTVSPropertyOp21
 70
     0
102
RTVSPropertyOp22
 70
     0
102
RTVSPropertyOp23
 70
     0
102
RTVSPropertyOp24
 70
     0
102
RTVSPropertyOp25
 70
     0
102
RTVSPropertyOp26
 70
     0
102
RTVSPropertyOp27
 70
     0
102
RTVSPropertyOp28
 70
     1
102
RTVSPropertyOp29
 70
     1
102
RTVSPropertyOp30
 70
     1
102
RTVSPropertyOp31
 70
     1
102
RTVSPropertyOp32
 70
     1
102
RTVSPropertyOp33
 70
     1
102
RTVSPropertyOp34
 70
     1
102
RTVSPropertyOp35
 70
     1
102
RTVSPropertyOp36
 70
     1
102
RTVSPropertyOp37
 70
     0
102
RTVSPropertyOp38
 70
     0
102
RTVSPropertyOp39
 70
     0
102
RTVSPropertyOp40
 70
     0
102
RTVSPropertyOp41
 70
     0
102
RTVSPropertyOp42
 70
     0
102
RTVSPropertyOp43
 70
     0
102
RTVSPropertyOp44
 70
     0
102
RTVSPropertyOp45
 70
     1
102
RTVSPropertyOp46
 70
     0
102
RTVSPropertyOp47
 70
     0
102
RTVSPropertyOp48
 70
     0
102
RTVSPropertyOp49
 70
     1
102
RTVSPropertyOp50
 70
     0
102
RTVSPropertyOp51
 70
     0
102
RTVSPropertyOp52
 70
     0
102
RTVSPropertyOp53
 70
     0
102
RTVSPropertyOp54
 70
     0
102
RTVSPropertyOp55
 70
     1
102
RTVSPropertyOp56
 70
     0
102
RTVSPropertyOp57
 70
     0
102
RTVSPropertyOp58
 70
     0
102
RTVSPropertyOp59
 70
     0
102
RTVSPropertyOp60
 70
     0
102
RTVSPropertyOp61
 70
     0
102
RTVSPropertyOp62
 70
     0
  0
XRECORD
  5
26CE
102
{ACAD_REACTORS
330
26CD
102
}
330
26CD
100
AcDbXrecord
280
     1
102
RTVSPost2010Prop28
280
     0
102
RTVSPost2010PropOp28
 70
     1
102
RTVSPost2010Prop29
280
     1
102
RTVSPost2010PropOp29
 70
     1
102
RTVSPost2010Prop30
280
     1
102
RTVSPost2010PropOp30
 70
     1
102
RTVSPost2010Prop31
280
     0
102
RTVSPost2010PropOp31
 70
     1
102
RTVSPost2010Prop32
280
     0
102
RTVSPost2010PropOp32
 70
     1
102
RTVSPost2010Prop33
280
     0
102
RTVSPost2010PropOp33
 70
     1
102
RTVSPost2010Prop34
280
     0
102
RTVSPost2010PropOp34
 70
     1
102
RTVSPost2010Prop35
280
     0
102
RTVSPost2010PropOp35
 70
     1
102
RTVSPost2010Prop36
280
     0
102
RTVSPost2010PropOp36
 70
     1
102
RTVSPost2010Prop37
 90
       50
102
RTVSPost2010PropOp37
 70
     1
102
RTVSPost2010Prop38
140
0.0
102
RTVSPost2010PropOp38
 70
     1
102
RTVSPost2010Prop39
140
1.0
102
RTVSPost2010PropOp39
 70
     1
102
RTVSPost2010Prop40
 90
        0
102
RTVSPost2010PropOp40
 70
     1
102
RTVSPost2010Prop41ColorIndex
 90
       18
102
RTVSPost2010Prop41ColorRGB
 90
        0
102
RTVSPost2010PropOp41
 70
     1
102
RTVSPost2010Prop42
 90
       50
102
RTVSPost2010PropOp42
 70
     1
102
RTVSPost2010Prop43
 90
        3
102
RTVSPost2010PropOp43
 70
     1
102
RTVSPost2010Prop44ColorIndex
 90
        5
102
RTVSPost2010Prop44ColorRGB
 90
      255
102
RTVSPost2010PropOp44
 70
     1
102
RTVSPost2010Prop45
280
     0
102
RTVSPost2010PropOp45
 70
     1
102
RTVSPost2010Prop46
 90
       50
102
RTVSPost2010PropOp46
 70
     1
102
RTVSPost2010Prop47
 90
       50
102
RTVSPost2010PropOp47
 70
     1
102
RTVSPost2010Prop48
 90
       50
102
RTVSPost2010PropOp48
 70
     1
102
RTVSPost2010Prop49
280
     0
102
RTVSPost2010PropOp49
 70
     1
102
RTVSPost2010Prop50
 90
       50
102
RTVSPost2010PropOp50
 70
     1
102
RTVSPost2010Prop51ColorIndex
 90
      256
102
RTVSPost2010Prop51ColorRGB
 90
-16777216
102
RTVSPost2010PropOp51
 70
     0
102
RTVSPost2010Prop52
140
1.0
102
RTVSPost2010PropOp52
 70
     0
102
RTVSPost2010Prop53
 90
        2
102
RTVSPost2010PropOp53
 70
     1
102
RTVSPost2010Prop54
  1
strokes_ogs.tif
102
RTVSPost2010PropOp54
 70
     1
102
RTVSPost2010Prop55
280
     0
102
RTVSPost2010PropOp55
 70
     1
102
RTVSPost2010Prop56
140
1.0
102
RTVSPost2010PropOp56
 70
     1
102
RTVSPost2010Prop57
140
1.0
102
RTVSPost2010PropOp57
 70
     1
102
RTVSPropertyOp0
 70
     1
102
RTVSPropertyOp1
 70
     1
102
RTVSPropertyOp2
 70
     1
102
RTVSPropertyOp3
 70
     1
102
RTVSPropertyOp4
 70
     1
102
RTVSPropertyOp5
 70
     1
102
RTVSPropertyOp6
 70
     1
102
RTVSPropertyOp7
 70
     1
102
RTVSPropertyOp8
 70
     1
102
RTVSPropertyOp9
 70
     1
102
RTVSPropertyOp10
 70
     1
102
RTVSPropertyOp11
 70
     1
102
RTVSPropertyOp12
 70
     1
102
RTVSPropertyOp13
 70
     1
102
RTVSPropertyOp14
 70
     1
102
RTVSPropertyOp15
 70
     1
102
RTVSPropertyOp16
 70
     1
102
RTVSPropertyOp17
 70
     1
102
RTVSPropertyOp18
 70
     1
102
RTVSPropertyOp19
 70
     1
102
RTVSPropertyOp20
 70
     1
102
RTVSPropertyOp21
 70
     1
102
RTVSPropertyOp22
 70
     1
102
RTVSPropertyOp23
 70
     1
102
RTVSPropertyOp24
 70
     1
102
RTVSPropertyOp25
 70
     1
102
RTVSPropertyOp26
 70
     1
102
RTVSPropertyOp27
 70
     1
102
RTVSPropertyOp28
 70
     1
102
RTVSPropertyOp29
 70
     1
102
RTVSPropertyOp30
 70
     1
102
RTVSPropertyOp31
 70
     1
102
RTVSPropertyOp32
 70
     1
102
RTVSPropertyOp33
 70
     1
102
RTVSPropertyOp34
 70
     1
102
RTVSPropertyOp35
 70
     1
102
RTVSPropertyOp36
 70
     1
102
RTVSPropertyOp37
 70
     1
102
RTVSPropertyOp38
 70
     1
102
RTVSPropertyOp39
 70
     1
102
RTVSPropertyOp40
 70
     1
102
RTVSPropertyOp41
 70
     1
102
RTVSPropertyOp42
 70
     1
102
RTVSPropertyOp43
 70
     1
102
RTVSPropertyOp44
 70
     1
102
RTVSPropertyOp45
 70
     1
102
RTVSPropertyOp46
 70
     1
102
RTVSPropertyOp47
 70
     1
102
RTVSPropertyOp48
 70
     1
102
RTVSPropertyOp49
 70
     1
102
RTVSPropertyOp50
 70
     1
102
RTVSPropertyOp51
 70
     0
102
RTVSPropertyOp52
 70
     0
102
RTVSPropertyOp53
 70
     1
102
RTVSPropertyOp54
 70
     1
102
RTVSPropertyOp55
 70
     1
102
RTVSPropertyOp56
 70
     1
102
RTVSPropertyOp57
 70
     1
102
RTVSPropertyOp58
 70
     1
102
RTVSPropertyOp59
 70
     1
102
RTVSPropertyOp60
 70
     1
102
RTVSPropertyOp61
 70
     1
102
RTVSPropertyOp62
 70
     1
  0
XRECORD
  5
26E0
102
{ACAD_REACTORS
330
26DF
102
}
330
26DF
100
AcDbXrecord
280
     1
102
RTVSPost2010Prop28
280
     0
102
RTVSPost2010PropOp28
 70
     1
102
RTVSPost2010Prop29
280
     1
102
RTVSPost2010PropOp29
 70
     1
102
RTVSPost2010Prop30
280
     1
102
RTVSPost2010PropOp30
 70
     1
102
RTVSPost2010Prop31
280
     0
102
RTVSPost2010PropOp31
 70
     1
102
RTVSPost2010Prop32
280
     0
102
RTVSPost2010PropOp32
 70
     1
102
RTVSPost2010Prop33
280
     0
102
RTVSPost2010PropOp33
 70
     1
102
RTVSPost2010Prop34
280
     0
102
RTVSPost2010PropOp34
 70
     1
102
RTVSPost2010Prop35
280
     0
102
RTVSPost2010PropOp35
 70
     1
102
RTVSPost2010Prop36
280
     0
102
RTVSPost2010PropOp36
 70
     1
102
RTVSPost2010Prop37
 90
       50
102
RTVSPost2010PropOp37
 70
     0
102
RTVSPost2010Prop38
140
0.0
102
RTVSPost2010PropOp38
 70
     0
102
RTVSPost2010Prop39
140
1.0
102
RTVSPost2010PropOp39
 70
     0
102
RTVSPost2010Prop40
 90
        0
102
RTVSPost2010PropOp40
 70
     0
102
RTVSPost2010Prop41ColorIndex
 90
       18
102
RTVSPost2010Prop41ColorRGB
 90
        0
102
RTVSPost2010PropOp41
 70
     0
102
RTVSPost2010Prop42
 90
       50
102
RTVSPost2010PropOp42
 70
     0
102
RTVSPost2010Prop43
 90
        3
102
RTVSPost2010PropOp43
 70
     0
102
RTVSPost2010Prop44ColorIndex
 90
        5
102
RTVSPost2010Prop44ColorRGB
 90
      255
102
RTVSPost2010PropOp44
 70
     0
102
RTVSPost2010Prop45
280
     0
102
RTVSPost2010PropOp45
 70
     1
102
RTVSPost2010Prop46
 90
       50
102
RTVSPost2010PropOp46
 70
     0
102
RTVSPost2010Prop47
 90
       50
102
RTVSPost2010PropOp47
 70
     0
102
RTVSPost2010Prop48
 90
       50
102
RTVSPost2010PropOp48
 70
     0
102
RTVSPost2010Prop49
280
     0
102
RTVSPost2010PropOp49
 70
     1
102
RTVSPost2010Prop50
 90
       50
102
RTVSPost2010PropOp50
 70
     0
102
RTVSPost2010Prop51ColorIndex
 90
      256
102
RTVSPost2010Prop51ColorRGB
 90
-16777216
102
RTVSPost2010PropOp51
 70
     0
102
RTVSPost2010Prop52
140
1.0
102
RTVSPost2010PropOp52
 70
     0
102
RTVSPost2010Prop53
 90
        2
102
RTVSPost2010PropOp53
 70
     0
102
RTVSPost2010Prop54
  1
strokes_ogs.tif
102
RTVSPost2010PropOp54
 70
     0
102
RTVSPost2010Prop55
280
     0
102
RTVSPost2010PropOp55
 70
     1
102
RTVSPost2010Prop56
140
1.0
102
RTVSPost2010PropOp56
 70
     0
102
RTVSPost2010Prop57
140
1.0
102
RTVSPost2010PropOp57
 70
     0
102
RTVSPropertyOp0
 70
     0
102
RTVSPropertyOp1
 70
     0
102
RTVSPropertyOp2
 70
     0
102
RTVSPropertyOp3
 70
     0
102
RTVSPropertyOp4
 70
     0
102
RTVSPropertyOp5
 70
     0
102
RTVSPropertyOp6
 70
     0
102
RTVSPropertyOp7
 70
     0
102
RTVSPropertyOp8
 70
     0
102
RTVSPropertyOp9
 70
     0
102
RTVSPropertyOp10
 70
     0
102
RTVSPropertyOp11
 70
     0
102
RTVSPropertyOp12
 70
     0
102
RTVSPropertyOp13
 70
     0
102
RTVSPropertyOp14
 70
     2
102
RTVSPropertyOp15
 70
     0
102
RTVSPropertyOp16
 70
     0
102
RTVSPropertyOp17
 70
     0
102
RTVSPropertyOp18
 70
     0
102
RTVSPropertyOp19
 70
     0
102
RTVSPropertyOp20
 70
     0
102
RTVSPropertyOp21
 70
     0
102
RTVSPropertyOp22
 70
     0
102
RTVSPropertyOp23
 70
     0
102
RTVSPropertyOp24
 70
     0
102
RTVSPropertyOp25
 70
     0
102
RTVSPropertyOp26
 70
     0
102
RTVSPropertyOp27
 70
     0
102
RTVSPropertyOp28
 70
     1
102
RTVSPropertyOp29
 70
     1
102
RTVSPropertyOp30
 70
     1
102
RTVSPropertyOp31
 70
     1
102
RTVSPropertyOp32
 70
     1
102
RTVSPropertyOp33
 70
     1
102
RTVSPropertyOp34
 70
     1
102
RTVSPropertyOp35
 70
     1
102
RTVSPropertyOp36
 70
     1
102
RTVSPropertyOp37
 70
     0
102
RTVSPropertyOp38
 70
     0
102
RTVSPropertyOp39
 70
     0
102
RTVSPropertyOp40
 70
     0
102
RTVSPropertyOp41
 70
     0
102
RTVSPropertyOp42
 70
     0
102
RTVSPropertyOp43
 70
     0
102
RTVSPropertyOp44
 70
     0
102
RTVSPropertyOp45
 70
     1
102
RTVSPropertyOp46
 70
     0
102
RTVSPropertyOp47
 70
     0
102
RTVSPropertyOp48
 70
     0
102
RTVSPropertyOp49
 70
     1
102
RTVSPropertyOp50
 70
     0
102
RTVSPropertyOp51
 70
     0
102
RTVSPropertyOp52
 70
     0
102
RTVSPropertyOp53
 70
     0
102
RTVSPropertyOp54
 70
     0
102
RTVSPropertyOp55
 70
     1
102
RTVSPropertyOp56
 70
     0
102
RTVSPropertyOp57
 70
     0
102
RTVSPropertyOp58
 70
     0
102
RTVSPropertyOp59
 70
     0
102
RTVSPropertyOp60
 70
     0
102
RTVSPropertyOp61
 70
     0
102
RTVSPropertyOp62
 70
     0
  0
XRECORD
  5
26C6
102
{ACAD_REACTORS
330
26C5
102
}
330
26C5
100
AcDbXrecord
280
     1
102
RTVSPost2010Prop28
280
     0
102
RTVSPost2010PropOp28
 70
     1
102
RTVSPost2010Prop29
280
     1
102
RTVSPost2010PropOp29
 70
     1
102
RTVSPost2010Prop30
280
     1
102
RTVSPost2010PropOp30
 70
     1
102
RTVSPost2010Prop31
280
     0
102
RTVSPost2010PropOp31
 70
     1
102
RTVSPost2010Prop32
280
     0
102
RTVSPost2010PropOp32
 70
     1
102
RTVSPost2010Prop33
280
     0
102
RTVSPost2010PropOp33
 70
     1
102
RTVSPost2010Prop34
280
     0
102
RTVSPost2010PropOp34
 70
     1
102
RTVSPost2010Prop35
280
     0
102
RTVSPost2010PropOp35
 70
     1
102
RTVSPost2010Prop36
280
     0
102
RTVSPost2010PropOp36
 70
     1
102
RTVSPost2010Prop37
 90
       50
102
RTVSPost2010PropOp37
 70
     1
102
RTVSPost2010Prop38
140
0.0
102
RTVSPost2010PropOp38
 70
     1
102
RTVSPost2010Prop39
140
1.0
102
RTVSPost2010PropOp39
 70
     1
102
RTVSPost2010Prop40
 90
        0
102
RTVSPost2010PropOp40
 70
     1
102
RTVSPost2010Prop41ColorIndex
 90
       18
102
RTVSPost2010Prop41ColorRGB
 90
        0
102
RTVSPost2010PropOp41
 70
     1
102
RTVSPost2010Prop42
 90
       50
102
RTVSPost2010PropOp42
 70
     1
102
RTVSPost2010Prop43
 90
        3
102
RTVSPost2010PropOp43
 70
     1
102
RTVSPost2010Prop44ColorIndex
 90
        5
102
RTVSPost2010Prop44ColorRGB
 90
      255
102
RTVSPost2010PropOp44
 70
     1
102
RTVSPost2010Prop45
280
     0
102
RTVSPost2010PropOp45
 70
     1
102
RTVSPost2010Prop46
 90
       50
102
RTVSPost2010PropOp46
 70
     1
102
RTVSPost2010Prop47
 90
       50
102
RTVSPost2010PropOp47
 70
     1
102
RTVSPost2010Prop48
 90
       50
102
RTVSPost2010PropOp48
 70
     1
102
RTVSPost2010Prop49
280
     0
102
RTVSPost2010PropOp49
 70
     1
102
RTVSPost2010Prop50
 90
       50
102
RTVSPost2010PropOp50
 70
     1
102
RTVSPost2010Prop51ColorIndex
 90
      256
102
RTVSPost2010Prop51ColorRGB
 90
-16777216
102
RTVSPost2010PropOp51
 70
     0
102
RTVSPost2010Prop52
140
1.0
102
RTVSPost2010PropOp52
 70
     0
102
RTVSPost2010Prop53
 90
        2
102
RTVSPost2010PropOp53
 70
     1
102
RTVSPost2010Prop54
  1
strokes_ogs.tif
102
RTVSPost2010PropOp54
 70
     1
102
RTVSPost2010Prop55
280
     0
102
RTVSPost2010PropOp55
 70
     1
102
RTVSPost2010Prop56
140
1.0
102
RTVSPost2010PropOp56
 70
     1
102
RTVSPost2010Prop57
140
1.0
102
RTVSPost2010PropOp57
 70
     1
102
RTVSPropertyOp0
 70
     1
102
RTVSPropertyOp1
 70
     1
102
RTVSPropertyOp2
 70
     1
102
RTVSPropertyOp3
 70
     1
102
RTVSPropertyOp4
 70
     1
102
RTVSPropertyOp5
 70
     1
102
RTVSPropertyOp6
 70
     1
102
RTVSPropertyOp7
 70
     1
102
RTVSPropertyOp8
 70
     1
102
RTVSPropertyOp9
 70
     1
102
RTVSPropertyOp10
 70
     1
102
RTVSPropertyOp11
 70
     1
102
RTVSPropertyOp12
 70
     1
102
RTVSPropertyOp13
 70
     1
102
RTVSPropertyOp14
 70
     1
102
RTVSPropertyOp15
 70
     1
102
RTVSPropertyOp16
 70
     1
102
RTVSPropertyOp17
 70
     1
102
RTVSPropertyOp18
 70
     1
102
RTVSPropertyOp19
 70
     1
102
RTVSPropertyOp20
 70
     1
102
RTVSPropertyOp21
 70
     1
102
RTVSPropertyOp22
 70
     1
102
RTVSPropertyOp23
 70
     1
102
RTVSPropertyOp24
 70
     1
102
RTVSPropertyOp25
 70
     1
102
RTVSPropertyOp26
 70
     1
102
RTVSPropertyOp27
 70
     1
102
RTVSPropertyOp28
 70
     1
102
RTVSPropertyOp29
 70
     1
102
RTVSPropertyOp30
 70
     1
102
RTVSPropertyOp31
 70
     1
102
RTVSPropertyOp32
 70
     1
102
RTVSPropertyOp33
 70
     1
102
RTVSPropertyOp34
 70
     1
102
RTVSPropertyOp35
 70
     1
102
RTVSPropertyOp36
 70
     1
102
RTVSPropertyOp37
 70
     1
102
RTVSPropertyOp38
 70
     1
102
RTVSPropertyOp39
 70
     1
102
RTVSPropertyOp40
 70
     1
102
RTVSPropertyOp41
 70
     1
102
RTVSPropertyOp42
 70
     1
102
RTVSPropertyOp43
 70
     1
102
RTVSPropertyOp44
 70
     1
102
RTVSPropertyOp45
 70
     1
102
RTVSPropertyOp46
 70
     1
102
RTVSPropertyOp47
 70
     1
102
RTVSPropertyOp48
 70
     1
102
RTVSPropertyOp49
 70
     1
102
RTVSPropertyOp50
 70
     1
102
RTVSPropertyOp51
 70
     0
102
RTVSPropertyOp52
 70
     0
102
RTVSPropertyOp53
 70
     1
102
RTVSPropertyOp54
 70
     1
102
RTVSPropertyOp55
 70
     1
102
RTVSPropertyOp56
 70
     1
102
RTVSPropertyOp57
 70
     1
102
RTVSPropertyOp58
 70
     1
102
RTVSPropertyOp59
 70
     1
102
RTVSPropertyOp60
 70
     1
102
RTVSPropertyOp61
 70
     1
102
RTVSPropertyOp62
 70
     1
  0
XRECORD
  5
26DC
102
{ACAD_REACTORS
330
26DB
102
}
330
26DB
100
AcDbXrecord
280
     1
102
RTVSPost2010Prop28
280
     0
102
RTVSPost2010PropOp28
 70
     1
102
RTVSPost2010Prop29
280
     1
102
RTVSPost2010PropOp29
 70
     1
102
RTVSPost2010Prop30
280
     1
102
RTVSPost2010PropOp30
 70
     1
102
RTVSPost2010Prop31
280
     0
102
RTVSPost2010PropOp31
 70
     1
102
RTVSPost2010Prop32
280
     0
102
RTVSPost2010PropOp32
 70
     1
102
RTVSPost2010Prop33
280
     0
102
RTVSPost2010PropOp33
 70
     1
102
RTVSPost2010Prop34
280
     0
102
RTVSPost2010PropOp34
 70
     1
102
RTVSPost2010Prop35
280
     0
102
RTVSPost2010PropOp35
 70
     1
102
RTVSPost2010Prop36
280
     0
102
RTVSPost2010PropOp36
 70
     1
102
RTVSPost2010Prop37
 90
       50
102
RTVSPost2010PropOp37
 70
     1
102
RTVSPost2010Prop38
140
0.0
102
RTVSPost2010PropOp38
 70
     1
102
RTVSPost2010Prop39
140
1.0
102
RTVSPost2010PropOp39
 70
     1
102
RTVSPost2010Prop40
 90
        0
102
RTVSPost2010PropOp40
 70
     1
102
RTVSPost2010Prop41ColorIndex
 90
       18
102
RTVSPost2010Prop41ColorRGB
 90
        0
102
RTVSPost2010PropOp41
 70
     1
102
RTVSPost2010Prop42
 90
       50
102
RTVSPost2010PropOp42
 70
     1
102
RTVSPost2010Prop43
 90
        3
102
RTVSPost2010PropOp43
 70
     1
102
RTVSPost2010Prop44ColorIndex
 90
        5
102
RTVSPost2010Prop44ColorRGB
 90
      255
102
RTVSPost2010PropOp44
 70
     1
102
RTVSPost2010Prop45
280
     0
102
RTVSPost2010PropOp45
 70
     1
102
RTVSPost2010Prop46
 90
       50
102
RTVSPost2010PropOp46
 70
     1
102
RTVSPost2010Prop47
 90
       50
102
RTVSPost2010PropOp47
 70
     1
102
RTVSPost2010Prop48
 90
       50
102
RTVSPost2010PropOp48
 70
     1
102
RTVSPost2010Prop49
280
     0
102
RTVSPost2010PropOp49
 70
     1
102
RTVSPost2010Prop50
 90
       50
102
RTVSPost2010PropOp50
 70
     1
102
RTVSPost2010Prop51ColorIndex
 90
      256
102
RTVSPost2010Prop51ColorRGB
 90
-16777216
102
RTVSPost2010PropOp51
 70
     0
102
RTVSPost2010Prop52
140
1.0
102
RTVSPost2010PropOp52
 70
     0
102
RTVSPost2010Prop53
 90
        2
102
RTVSPost2010PropOp53
 70
     1
102
RTVSPost2010Prop54
  1
strokes_ogs.tif
102
RTVSPost2010PropOp54
 70
     1
102
RTVSPost2010Prop55
280
     0
102
RTVSPost2010PropOp55
 70
     1
102
RTVSPost2010Prop56
140
1.0
102
RTVSPost2010PropOp56
 70
     1
102
RTVSPost2010Prop57
140
1.0
102
RTVSPost2010PropOp57
 70
     1
102
RTVSPropertyOp0
 70
     1
102
RTVSPropertyOp1
 70
     1
102
RTVSPropertyOp2
 70
     1
102
RTVSPropertyOp3
 70
     1
102
RTVSPropertyOp4
 70
     1
102
RTVSPropertyOp5
 70
     1
102
RTVSPropertyOp6
 70
     1
102
RTVSPropertyOp7
 70
     1
102
RTVSPropertyOp8
 70
     1
102
RTVSPropertyOp9
 70
     1
102
RTVSPropertyOp10
 70
     1
102
RTVSPropertyOp11
 70
     1
102
RTVSPropertyOp12
 70
     1
102
RTVSPropertyOp13
 70
     1
102
RTVSPropertyOp14
 70
     1
102
RTVSPropertyOp15
 70
     1
102
RTVSPropertyOp16
 70
     1
102
RTVSPropertyOp17
 70
     1
102
RTVSPropertyOp18
 70
     1
102
RTVSPropertyOp19
 70
     1
102
RTVSPropertyOp20
 70
     1
102
RTVSPropertyOp21
 70
     1
102
RTVSPropertyOp22
 70
     1
102
RTVSPropertyOp23
 70
     1
102
RTVSPropertyOp24
 70
     1
102
RTVSPropertyOp25
 70
     1
102
RTVSPropertyOp26
 70
     1
102
RTVSPropertyOp27
 70
     1
102
RTVSPropertyOp28
 70
     1
102
RTVSPropertyOp29
 70
     1
102
RTVSPropertyOp30
 70
     1
102
RTVSPropertyOp31
 70
     1
102
RTVSPropertyOp32
 70
     1
102
RTVSPropertyOp33
 70
     1
102
RTVSPropertyOp34
 70
     1
102
RTVSPropertyOp35
 70
     1
102
RTVSPropertyOp36
 70
     1
102
RTVSPropertyOp37
 70
     1
102
RTVSPropertyOp38
 70
     1
102
RTVSPropertyOp39
 70
     1
102
RTVSPropertyOp40
 70
     1
102
RTVSPropertyOp41
 70
     1
102
RTVSPropertyOp42
 70
     1
102
RTVSPropertyOp43
 70
     1
102
RTVSPropertyOp44
 70
     1
102
RTVSPropertyOp45
 70
     1
102
RTVSPropertyOp46
 70
     1
102
RTVSPropertyOp47
 70
     1
102
RTVSPropertyOp48
 70
     1
102
RTVSPropertyOp49
 70
     1
102
RTVSPropertyOp50
 70
     1
102
RTVSPropertyOp51
 70
     0
102
RTVSPropertyOp52
 70
     0
102
RTVSPropertyOp53
 70
     1
102
RTVSPropertyOp54
 70
     1
102
RTVSPropertyOp55
 70
     1
102
RTVSPropertyOp56
 70
     1
102
RTVSPropertyOp57
 70
     1
102
RTVSPropertyOp58
 70
     1
102
RTVSPropertyOp59
 70
     1
102
RTVSPropertyOp60
 70
     1
102
RTVSPropertyOp61
 70
     1
102
RTVSPropertyOp62
 70
     1
  0
XRECORD
  5
26DA
102
{ACAD_REACTORS
330
26D9
102
}
330
26D9
100
AcDbXrecord
280
     1
102
RTVSPost2010Prop28
280
     0
102
RTVSPost2010PropOp28
 70
     1
102
RTVSPost2010Prop29
280
     1
102
RTVSPost2010PropOp29
 70
     1
102
RTVSPost2010Prop30
280
     1
102
RTVSPost2010PropOp30
 70
     1
102
RTVSPost2010Prop31
280
     0
102
RTVSPost2010PropOp31
 70
     1
102
RTVSPost2010Prop32
280
     0
102
RTVSPost2010PropOp32
 70
     1
102
RTVSPost2010Prop33
280
     0
102
RTVSPost2010PropOp33
 70
     1
102
RTVSPost2010Prop34
280
     0
102
RTVSPost2010PropOp34
 70
     1
102
RTVSPost2010Prop35
280
     0
102
RTVSPost2010PropOp35
 70
     1
102
RTVSPost2010Prop36
280
     0
102
RTVSPost2010PropOp36
 70
     1
102
RTVSPost2010Prop37
 90
       50
102
RTVSPost2010PropOp37
 70
     1
102
RTVSPost2010Prop38
140
0.0
102
RTVSPost2010PropOp38
 70
     1
102
RTVSPost2010Prop39
140
1.0
102
RTVSPost2010PropOp39
 70
     1
102
RTVSPost2010Prop40
 90
        0
102
RTVSPost2010PropOp40
 70
     1
102
RTVSPost2010Prop41ColorIndex
 90
       18
102
RTVSPost2010Prop41ColorRGB
 90
        0
102
RTVSPost2010PropOp41
 70
     1
102
RTVSPost2010Prop42
 90
       50
102
RTVSPost2010PropOp42
 70
     1
102
RTVSPost2010Prop43
 90
        3
102
RTVSPost2010PropOp43
 70
     1
102
RTVSPost2010Prop44ColorIndex
 90
        5
102
RTVSPost2010Prop44ColorRGB
 90
      255
102
RTVSPost2010PropOp44
 70
     1
102
RTVSPost2010Prop45
280
     0
102
RTVSPost2010PropOp45
 70
     1
102
RTVSPost2010Prop46
 90
       50
102
RTVSPost2010PropOp46
 70
     1
102
RTVSPost2010Prop47
 90
       50
102
RTVSPost2010PropOp47
 70
     1
102
RTVSPost2010Prop48
 90
       50
102
RTVSPost2010PropOp48
 70
     1
102
RTVSPost2010Prop49
280
     0
102
RTVSPost2010PropOp49
 70
     1
102
RTVSPost2010Prop50
 90
       50
102
RTVSPost2010PropOp50
 70
     1
102
RTVSPost2010Prop51ColorIndex
 90
      256
102
RTVSPost2010Prop51ColorRGB
 90
-16777216
102
RTVSPost2010PropOp51
 70
     0
102
RTVSPost2010Prop52
140
1.0
102
RTVSPost2010PropOp52
 70
     0
102
RTVSPost2010Prop53
 90
        2
102
RTVSPost2010PropOp53
 70
     1
102
RTVSPost2010Prop54
  1
strokes_ogs.tif
102
RTVSPost2010PropOp54
 70
     1
102
RTVSPost2010Prop55
280
     0
102
RTVSPost2010PropOp55
 70
     1
102
RTVSPost2010Prop56
140
1.0
102
RTVSPost2010PropOp56
 70
     1
102
RTVSPost2010Prop57
140
1.0
102
RTVSPost2010PropOp57
 70
     1
102
RTVSPropertyOp0
 70
     1
102
RTVSPropertyOp1
 70
     1
102
RTVSPropertyOp2
 70
     1
102
RTVSPropertyOp3
 70
     1
102
RTVSPropertyOp4
 70
     1
102
RTVSPropertyOp5
 70
     1
102
RTVSPropertyOp6
 70
     1
102
RTVSPropertyOp7
 70
     1
102
RTVSPropertyOp8
 70
     1
102
RTVSPropertyOp9
 70
     1
102
RTVSPropertyOp10
 70
     1
102
RTVSPropertyOp11
 70
     1
102
RTVSPropertyOp12
 70
     1
102
RTVSPropertyOp13
 70
     1
102
RTVSPropertyOp14
 70
     1
102
RTVSPropertyOp15
 70
     1
102
RTVSPropertyOp16
 70
     1
102
RTVSPropertyOp17
 70
     1
102
RTVSPropertyOp18
 70
     1
102
RTVSPropertyOp19
 70
     1
102
RTVSPropertyOp20
 70
     1
102
RTVSPropertyOp21
 70
     1
102
RTVSPropertyOp22
 70
     1
102
RTVSPropertyOp23
 70
     1
102
RTVSPropertyOp24
 70
     1
102
RTVSPropertyOp25
 70
     1
102
RTVSPropertyOp26
 70
     1
102
RTVSPropertyOp27
 70
     1
102
RTVSPropertyOp28
 70
     1
102
RTVSPropertyOp29
 70
     1
102
RTVSPropertyOp30
 70
     1
102
RTVSPropertyOp31
 70
     1
102
RTVSPropertyOp32
 70
     1
102
RTVSPropertyOp33
 70
     1
102
RTVSPropertyOp34
 70
     1
102
RTVSPropertyOp35
 70
     1
102
RTVSPropertyOp36
 70
     1
102
RTVSPropertyOp37
 70
     1
102
RTVSPropertyOp38
 70
     1
102
RTVSPropertyOp39
 70
     1
102
RTVSPropertyOp40
 70
     1
102
RTVSPropertyOp41
 70
     1
102
RTVSPropertyOp42
 70
     1
102
RTVSPropertyOp43
 70
     1
102
RTVSPropertyOp44
 70
     1
102
RTVSPropertyOp45
 70
     1
102
RTVSPropertyOp46
 70
     1
102
RTVSPropertyOp47
 70
     1
102
RTVSPropertyOp48
 70
     1
102
RTVSPropertyOp49
 70
     1
102
RTVSPropertyOp50
 70
     1
102
RTVSPropertyOp51
 70
     0
102
RTVSPropertyOp52
 70
     0
102
RTVSPropertyOp53
 70
     1
102
RTVSPropertyOp54
 70
     1
102
RTVSPropertyOp55
 70
     1
102
RTVSPropertyOp56
 70
     1
102
RTVSPropertyOp57
 70
     1
102
RTVSPropertyOp58
 70
     1
102
RTVSPropertyOp59
 70
     1
102
RTVSPropertyOp60
 70
     1
102
RTVSPropertyOp61
 70
     1
102
RTVSPropertyOp62
 70
     1
  0
XRECORD
  5
26D4
102
{ACAD_REACTORS
330
26D3
102
}
330
26D3
100
AcDbXrecord
280
     1
102
RTVSPost2010Prop28
280
     0
102
RTVSPost2010PropOp28
 70
     1
102
RTVSPost2010Prop29
280
     1
102
RTVSPost2010PropOp29
 70
     1
102
RTVSPost2010Prop30
280
     1
102
RTVSPost2010PropOp30
 70
     1
102
RTVSPost2010Prop31
280
     0
102
RTVSPost2010PropOp31
 70
     1
102
RTVSPost2010Prop32
280
     0
102
RTVSPost2010PropOp32
 70
     1
102
RTVSPost2010Prop33
280
     0
102
RTVSPost2010PropOp33
 70
     1
102
RTVSPost2010Prop34
280
     0
102
RTVSPost2010PropOp34
 70
     1
102
RTVSPost2010Prop35
280
     0
102
RTVSPost2010PropOp35
 70
     1
102
RTVSPost2010Prop36
280
     0
102
RTVSPost2010PropOp36
 70
     1
102
RTVSPost2010Prop37
 90
       50
102
RTVSPost2010PropOp37
 70
     1
102
RTVSPost2010Prop38
140
0.0
102
RTVSPost2010PropOp38
 70
     1
102
RTVSPost2010Prop39
140
1.0
102
RTVSPost2010PropOp39
 70
     1
102
RTVSPost2010Prop40
 90
        0
102
RTVSPost2010PropOp40
 70
     1
102
RTVSPost2010Prop41ColorIndex
 90
       18
102
RTVSPost2010Prop41ColorRGB
 90
        0
102
RTVSPost2010PropOp41
 70
     1
102
RTVSPost2010Prop42
 90
       50
102
RTVSPost2010PropOp42
 70
     1
102
RTVSPost2010Prop43
 90
        3
102
RTVSPost2010PropOp43
 70
     1
102
RTVSPost2010Prop44ColorIndex
 90
        5
102
RTVSPost2010Prop44ColorRGB
 90
      255
102
RTVSPost2010PropOp44
 70
     1
102
RTVSPost2010Prop45
280
     0
102
RTVSPost2010PropOp45
 70
     1
102
RTVSPost2010Prop46
 90
       50
102
RTVSPost2010PropOp46
 70
     1
102
RTVSPost2010Prop47
 90
       50
102
RTVSPost2010PropOp47
 70
     1
102
RTVSPost2010Prop48
 90
       50
102
RTVSPost2010PropOp48
 70
     1
102
RTVSPost2010Prop49
280
     0
102
RTVSPost2010PropOp49
 70
     1
102
RTVSPost2010Prop50
 90
       50
102
RTVSPost2010PropOp50
 70
     1
102
RTVSPost2010Prop51ColorIndex
 90
      256
102
RTVSPost2010Prop51ColorRGB
 90
-16777216
102
RTVSPost2010PropOp51
 70
     0
102
RTVSPost2010Prop52
140
1.0
102
RTVSPost2010PropOp52
 70
     0
102
RTVSPost2010Prop53
 90
        2
102
RTVSPost2010PropOp53
 70
     1
102
RTVSPost2010Prop54
  1
strokes_ogs.tif
102
RTVSPost2010PropOp54
 70
     1
102
RTVSPost2010Prop55
280
     0
102
RTVSPost2010PropOp55
 70
     1
102
RTVSPost2010Prop56
140
1.0
102
RTVSPost2010PropOp56
 70
     1
102
RTVSPost2010Prop57
140
1.0
102
RTVSPost2010PropOp57
 70
     1
102
RTVSPropertyOp0
 70
     1
102
RTVSPropertyOp1
 70
     1
102
RTVSPropertyOp2
 70
     1
102
RTVSPropertyOp3
 70
     1
102
RTVSPropertyOp4
 70
     1
102
RTVSPropertyOp5
 70
     1
102
RTVSPropertyOp6
 70
     1
102
RTVSPropertyOp7
 70
     1
102
RTVSPropertyOp8
 70
     1
102
RTVSPropertyOp9
 70
     1
102
RTVSPropertyOp10
 70
     1
102
RTVSPropertyOp11
 70
     1
102
RTVSPropertyOp12
 70
     1
102
RTVSPropertyOp13
 70
     1
102
RTVSPropertyOp14
 70
     1
102
RTVSPropertyOp15
 70
     1
102
RTVSPropertyOp16
 70
     1
102
RTVSPropertyOp17
 70
     1
102
RTVSPropertyOp18
 70
     1
102
RTVSPropertyOp19
 70
     1
102
RTVSPropertyOp20
 70
     1
102
RTVSPropertyOp21
 70
     1
102
RTVSPropertyOp22
 70
     1
102
RTVSPropertyOp23
 70
     1
102
RTVSPropertyOp24
 70
     1
102
RTVSPropertyOp25
 70
     1
102
RTVSPropertyOp26
 70
     1
102
RTVSPropertyOp27
 70
     1
102
RTVSPropertyOp28
 70
     1
102
RTVSPropertyOp29
 70
     1
102
RTVSPropertyOp30
 70
     1
102
RTVSPropertyOp31
 70
     1
102
RTVSPropertyOp32
 70
     1
102
RTVSPropertyOp33
 70
     1
102
RTVSPropertyOp34
 70
     1
102
RTVSPropertyOp35
 70
     1
102
RTVSPropertyOp36
 70
     1
102
RTVSPropertyOp37
 70
     1
102
RTVSPropertyOp38
 70
     1
102
RTVSPropertyOp39
 70
     1
102
RTVSPropertyOp40
 70
     1
102
RTVSPropertyOp41
 70
     1
102
RTVSPropertyOp42
 70
     1
102
RTVSPropertyOp43
 70
     1
102
RTVSPropertyOp44
 70
     1
102
RTVSPropertyOp45
 70
     1
102
RTVSPropertyOp46
 70
     1
102
RTVSPropertyOp47
 70
     1
102
RTVSPropertyOp48
 70
     1
102
RTVSPropertyOp49
 70
     1
102
RTVSPropertyOp50
 70
     1
102
RTVSPropertyOp51
 70
     0
102
RTVSPropertyOp52
 70
     0
102
RTVSPropertyOp53
 70
     1
102
RTVSPropertyOp54
 70
     1
102
RTVSPropertyOp55
 70
     1
102
RTVSPropertyOp56
 70
     1
102
RTVSPropertyOp57
 70
     1
102
RTVSPropertyOp58
 70
     1
102
RTVSPropertyOp59
 70
     1
102
RTVSPropertyOp60
 70
     1
102
RTVSPropertyOp61
 70
     1
102
RTVSPropertyOp62
 70
     1
  0
XRECORD
  5
26D6
102
{ACAD_REACTORS
330
26D5
102
}
330
26D5
100
AcDbXrecord
280
     1
102
RTVSPost2010Prop28
280
     0
102
RTVSPost2010PropOp28
 70
     1
102
RTVSPost2010Prop29
280
     1
102
RTVSPost2010PropOp29
 70
     1
102
RTVSPost2010Prop30
280
     1
102
RTVSPost2010PropOp30
 70
     1
102
RTVSPost2010Prop31
280
     0
102
RTVSPost2010PropOp31
 70
     1
102
RTVSPost2010Prop32
280
     0
102
RTVSPost2010PropOp32
 70
     1
102
RTVSPost2010Prop33
280
     0
102
RTVSPost2010PropOp33
 70
     1
102
RTVSPost2010Prop34
280
     0
102
RTVSPost2010PropOp34
 70
     1
102
RTVSPost2010Prop35
280
     0
102
RTVSPost2010PropOp35
 70
     1
102
RTVSPost2010Prop36
280
     0
102
RTVSPost2010PropOp36
 70
     1
102
RTVSPost2010Prop37
 90
       50
102
RTVSPost2010PropOp37
 70
     1
102
RTVSPost2010Prop38
140
0.0
102
RTVSPost2010PropOp38
 70
     1
102
RTVSPost2010Prop39
140
1.0
102
RTVSPost2010PropOp39
 70
     1
102
RTVSPost2010Prop40
 90
        0
102
RTVSPost2010PropOp40
 70
     1
102
RTVSPost2010Prop41ColorIndex
 90
       18
102
RTVSPost2010Prop41ColorRGB
 90
        0
102
RTVSPost2010PropOp41
 70
     1
102
RTVSPost2010Prop42
 90
       50
102
RTVSPost2010PropOp42
 70
     1
102
RTVSPost2010Prop43
 90
        3
102
RTVSPost2010PropOp43
 70
     1
102
RTVSPost2010Prop44ColorIndex
 90
        5
102
RTVSPost2010Prop44ColorRGB
 90
      255
102
RTVSPost2010PropOp44
 70
     1
102
RTVSPost2010Prop45
280
     0
102
RTVSPost2010PropOp45
 70
     1
102
RTVSPost2010Prop46
 90
       50
102
RTVSPost2010PropOp46
 70
     1
102
RTVSPost2010Prop47
 90
       50
102
RTVSPost2010PropOp47
 70
     1
102
RTVSPost2010Prop48
 90
       50
102
RTVSPost2010PropOp48
 70
     1
102
RTVSPost2010Prop49
280
     0
102
RTVSPost2010PropOp49
 70
     1
102
RTVSPost2010Prop50
 90
       50
102
RTVSPost2010PropOp50
 70
     1
102
RTVSPost2010Prop51ColorIndex
 90
      256
102
RTVSPost2010Prop51ColorRGB
 90
-16777216
102
RTVSPost2010PropOp51
 70
     0
102
RTVSPost2010Prop52
140
1.0
102
RTVSPost2010PropOp52
 70
     0
102
RTVSPost2010Prop53
 90
        2
102
RTVSPost2010PropOp53
 70
     1
102
RTVSPost2010Prop54
  1
strokes_ogs.tif
102
RTVSPost2010PropOp54
 70
     1
102
RTVSPost2010Prop55
280
     0
102
RTVSPost2010PropOp55
 70
     1
102
RTVSPost2010Prop56
140
1.0
102
RTVSPost2010PropOp56
 70
     1
102
RTVSPost2010Prop57
140
1.0
102
RTVSPost2010PropOp57
 70
     1
102
RTVSPropertyOp0
 70
     1
102
RTVSPropertyOp1
 70
     1
102
RTVSPropertyOp2
 70
     1
102
RTVSPropertyOp3
 70
     1
102
RTVSPropertyOp4
 70
     1
102
RTVSPropertyOp5
 70
     1
102
RTVSPropertyOp6
 70
     1
102
RTVSPropertyOp7
 70
     1
102
RTVSPropertyOp8
 70
     1
102
RTVSPropertyOp9
 70
     1
102
RTVSPropertyOp10
 70
     1
102
RTVSPropertyOp11
 70
     1
102
RTVSPropertyOp12
 70
     1
102
RTVSPropertyOp13
 70
     1
102
RTVSPropertyOp14
 70
     1
102
RTVSPropertyOp15
 70
     1
102
RTVSPropertyOp16
 70
     1
102
RTVSPropertyOp17
 70
     1
102
RTVSPropertyOp18
 70
     1
102
RTVSPropertyOp19
 70
     1
102
RTVSPropertyOp20
 70
     1
102
RTVSPropertyOp21
 70
     1
102
RTVSPropertyOp22
 70
     1
102
RTVSPropertyOp23
 70
     1
102
RTVSPropertyOp24
 70
     1
102
RTVSPropertyOp25
 70
     1
102
RTVSPropertyOp26
 70
     1
102
RTVSPropertyOp27
 70
     1
102
RTVSPropertyOp28
 70
     1
102
RTVSPropertyOp29
 70
     1
102
RTVSPropertyOp30
 70
     1
102
RTVSPropertyOp31
 70
     1
102
RTVSPropertyOp32
 70
     1
102
RTVSPropertyOp33
 70
     1
102
RTVSPropertyOp34
 70
     1
102
RTVSPropertyOp35
 70
     1
102
RTVSPropertyOp36
 70
     1
102
RTVSPropertyOp37
 70
     1
102
RTVSPropertyOp38
 70
     1
102
RTVSPropertyOp39
 70
     1
102
RTVSPropertyOp40
 70
     1
102
RTVSPropertyOp41
 70
     1
102
RTVSPropertyOp42
 70
     1
102
RTVSPropertyOp43
 70
     1
102
RTVSPropertyOp44
 70
     1
102
RTVSPropertyOp45
 70
     1
102
RTVSPropertyOp46
 70
     1
102
RTVSPropertyOp47
 70
     1
102
RTVSPropertyOp48
 70
     1
102
RTVSPropertyOp49
 70
     1
102
RTVSPropertyOp50
 70
     1
102
RTVSPropertyOp51
 70
     0
102
RTVSPropertyOp52
 70
     0
102
RTVSPropertyOp53
 70
     1
102
RTVSPropertyOp54
 70
     1
102
RTVSPropertyOp55
 70
     1
102
RTVSPropertyOp56
 70
     1
102
RTVSPropertyOp57
 70
     1
102
RTVSPropertyOp58
 70
     1
102
RTVSPropertyOp59
 70
     1
102
RTVSPropertyOp60
 70
     1
102
RTVSPropertyOp61
 70
     1
102
RTVSPropertyOp62
 70
     1
  0
XRECORD
  5
26CC
102
{ACAD_REACTORS
330
26CB
102
}
330
26CB
100
AcDbXrecord
280
     1
102
RTVSPost2010Prop28
280
     0
102
RTVSPost2010PropOp28
 70
     1
102
RTVSPost2010Prop29
280
     1
102
RTVSPost2010PropOp29
 70
     1
102
RTVSPost2010Prop30
280
     1
102
RTVSPost2010PropOp30
 70
     1
102
RTVSPost2010Prop31
280
     0
102
RTVSPost2010PropOp31
 70
     1
102
RTVSPost2010Prop32
280
     0
102
RTVSPost2010PropOp32
 70
     1
102
RTVSPost2010Prop33
280
     0
102
RTVSPost2010PropOp33
 70
     1
102
RTVSPost2010Prop34
280
     0
102
RTVSPost2010PropOp34
 70
     1
102
RTVSPost2010Prop35
280
     0
102
RTVSPost2010PropOp35
 70
     1
102
RTVSPost2010Prop36
280
     0
102
RTVSPost2010PropOp36
 70
     1
102
RTVSPost2010Prop37
 90
       50
102
RTVSPost2010PropOp37
 70
     1
102
RTVSPost2010Prop38
140
0.0
102
RTVSPost2010PropOp38
 70
     1
102
RTVSPost2010Prop39
140
1.0
102
RTVSPost2010PropOp39
 70
     1
102
RTVSPost2010Prop40
 90
        0
102
RTVSPost2010PropOp40
 70
     1
102
RTVSPost2010Prop41ColorIndex
 90
       18
102
RTVSPost2010Prop41ColorRGB
 90
        0
102
RTVSPost2010PropOp41
 70
     1
102
RTVSPost2010Prop42
 90
       50
102
RTVSPost2010PropOp42
 70
     1
102
RTVSPost2010Prop43
 90
        3
102
RTVSPost2010PropOp43
 70
     1
102
RTVSPost2010Prop44ColorIndex
 90
        5
102
RTVSPost2010Prop44ColorRGB
 90
      255
102
RTVSPost2010PropOp44
 70
     1
102
RTVSPost2010Prop45
280
     0
102
RTVSPost2010PropOp45
 70
     1
102
RTVSPost2010Prop46
 90
       50
102
RTVSPost2010PropOp46
 70
     1
102
RTVSPost2010Prop47
 90
       50
102
RTVSPost2010PropOp47
 70
     1
102
RTVSPost2010Prop48
 90
       50
102
RTVSPost2010PropOp48
 70
     1
102
RTVSPost2010Prop49
280
     0
102
RTVSPost2010PropOp49
 70
     1
102
RTVSPost2010Prop50
 90
       50
102
RTVSPost2010PropOp50
 70
     1
102
RTVSPost2010Prop51ColorIndex
 90
      256
102
RTVSPost2010Prop51ColorRGB
 90
-16777216
102
RTVSPost2010PropOp51
 70
     0
102
RTVSPost2010Prop52
140
1.0
102
RTVSPost2010PropOp52
 70
     0
102
RTVSPost2010Prop53
 90
        2
102
RTVSPost2010PropOp53
 70
     1
102
RTVSPost2010Prop54
  1
strokes_ogs.tif
102
RTVSPost2010PropOp54
 70
     1
102
RTVSPost2010Prop55
280
     0
102
RTVSPost2010PropOp55
 70
     1
102
RTVSPost2010Prop56
140
1.0
102
RTVSPost2010PropOp56
 70
     1
102
RTVSPost2010Prop57
140
1.0
102
RTVSPost2010PropOp57
 70
     1
102
RTVSPropertyOp0
 70
     1
102
RTVSPropertyOp1
 70
     1
102
RTVSPropertyOp2
 70
     1
102
RTVSPropertyOp3
 70
     1
102
RTVSPropertyOp4
 70
     1
102
RTVSPropertyOp5
 70
     1
102
RTVSPropertyOp6
 70
     1
102
RTVSPropertyOp7
 70
     1
102
RTVSPropertyOp8
 70
     1
102
RTVSPropertyOp9
 70
     1
102
RTVSPropertyOp10
 70
     1
102
RTVSPropertyOp11
 70
     1
102
RTVSPropertyOp12
 70
     1
102
RTVSPropertyOp13
 70
     1
102
RTVSPropertyOp14
 70
     1
102
RTVSPropertyOp15
 70
     1
102
RTVSPropertyOp16
 70
     1
102
RTVSPropertyOp17
 70
     1
102
RTVSPropertyOp18
 70
     1
102
RTVSPropertyOp19
 70
     1
102
RTVSPropertyOp20
 70
     1
102
RTVSPropertyOp21
 70
     1
102
RTVSPropertyOp22
 70
     1
102
RTVSPropertyOp23
 70
     1
102
RTVSPropertyOp24
 70
     1
102
RTVSPropertyOp25
 70
     1
102
RTVSPropertyOp26
 70
     1
102
RTVSPropertyOp27
 70
     1
102
RTVSPropertyOp28
 70
     1
102
RTVSPropertyOp29
 70
     1
102
RTVSPropertyOp30
 70
     1
102
RTVSPropertyOp31
 70
     1
102
RTVSPropertyOp32
 70
     1
102
RTVSPropertyOp33
 70
     1
102
RTVSPropertyOp34
 70
     1
102
RTVSPropertyOp35
 70
     1
102
RTVSPropertyOp36
 70
     1
102
RTVSPropertyOp37
 70
     1
102
RTVSPropertyOp38
 70
     1
102
RTVSPropertyOp39
 70
     1
102
RTVSPropertyOp40
 70
     1
102
RTVSPropertyOp41
 70
     1
102
RTVSPropertyOp42
 70
     1
102
RTVSPropertyOp43
 70
     1
102
RTVSPropertyOp44
 70
     1
102
RTVSPropertyOp45
 70
     1
102
RTVSPropertyOp46
 70
     1
102
RTVSPropertyOp47
 70
     1
102
RTVSPropertyOp48
 70
     1
102
RTVSPropertyOp49
 70
     1
102
RTVSPropertyOp50
 70
     1
102
RTVSPropertyOp51
 70
     0
102
RTVSPropertyOp52
 70
     0
102
RTVSPropertyOp53
 70
     1
102
RTVSPropertyOp54
 70
     1
102
RTVSPropertyOp55
 70
     1
102
RTVSPropertyOp56
 70
     1
102
RTVSPropertyOp57
 70
     1
102
RTVSPropertyOp58
 70
     1
102
RTVSPropertyOp59
 70
     1
102
RTVSPropertyOp60
 70
     1
102
RTVSPropertyOp61
 70
     1
102
RTVSPropertyOp62
 70
     1
  0
XRECORD
  5
26C0
102
{ACAD_REACTORS
330
26BF
102
}
330
26BF
100
AcDbXrecord
280
     1
102
RTVSPost2010Prop28
280
     0
102
RTVSPost2010PropOp28
 70
     1
102
RTVSPost2010Prop29
280
     1
102
RTVSPost2010PropOp29
 70
     1
102
RTVSPost2010Prop30
280
     1
102
RTVSPost2010PropOp30
 70
     1
102
RTVSPost2010Prop31
280
     0
102
RTVSPost2010PropOp31
 70
     1
102
RTVSPost2010Prop32
280
     0
102
RTVSPost2010PropOp32
 70
     1
102
RTVSPost2010Prop33
280
     0
102
RTVSPost2010PropOp33
 70
     1
102
RTVSPost2010Prop34
280
     0
102
RTVSPost2010PropOp34
 70
     1
102
RTVSPost2010Prop35
280
     0
102
RTVSPost2010PropOp35
 70
     1
102
RTVSPost2010Prop36
280
     0
102
RTVSPost2010PropOp36
 70
     1
102
RTVSPost2010Prop37
 90
       50
102
RTVSPost2010PropOp37
 70
     1
102
RTVSPost2010Prop38
140
0.0
102
RTVSPost2010PropOp38
 70
     1
102
RTVSPost2010Prop39
140
1.0
102
RTVSPost2010PropOp39
 70
     1
102
RTVSPost2010Prop40
 90
        0
102
RTVSPost2010PropOp40
 70
     1
102
RTVSPost2010Prop41ColorIndex
 90
       18
102
RTVSPost2010Prop41ColorRGB
 90
        0
102
RTVSPost2010PropOp41
 70
     1
102
RTVSPost2010Prop42
 90
       50
102
RTVSPost2010PropOp42
 70
     1
102
RTVSPost2010Prop43
 90
        3
102
RTVSPost2010PropOp43
 70
     1
102
RTVSPost2010Prop44ColorIndex
 90
        5
102
RTVSPost2010Prop44ColorRGB
 90
      255
102
RTVSPost2010PropOp44
 70
     1
102
RTVSPost2010Prop45
280
     0
102
RTVSPost2010PropOp45
 70
     1
102
RTVSPost2010Prop46
 90
       50
102
RTVSPost2010PropOp46
 70
     1
102
RTVSPost2010Prop47
 90
       50
102
RTVSPost2010PropOp47
 70
     1
102
RTVSPost2010Prop48
 90
       50
102
RTVSPost2010PropOp48
 70
     1
102
RTVSPost2010Prop49
280
     0
102
RTVSPost2010PropOp49
 70
     1
102
RTVSPost2010Prop50
 90
       50
102
RTVSPost2010PropOp50
 70
     1
102
RTVSPost2010Prop51ColorIndex
 90
      256
102
RTVSPost2010Prop51ColorRGB
 90
-16777216
102
RTVSPost2010PropOp51
 70
     0
102
RTVSPost2010Prop52
140
1.0
102
RTVSPost2010PropOp52
 70
     0
102
RTVSPost2010Prop53
 90
        2
102
RTVSPost2010PropOp53
 70
     1
102
RTVSPost2010Prop54
  1
strokes_ogs.tif
102
RTVSPost2010PropOp54
 70
     1
102
RTVSPost2010Prop55
280
     0
102
RTVSPost2010PropOp55
 70
     1
102
RTVSPost2010Prop56
140
1.0
102
RTVSPost2010PropOp56
 70
     1
102
RTVSPost2010Prop57
140
1.0
102
RTVSPost2010PropOp57
 70
     1
102
RTVSPropertyOp0
 70
     1
102
RTVSPropertyOp1
 70
     1
102
RTVSPropertyOp2
 70
     1
102
RTVSPropertyOp3
 70
     1
102
RTVSPropertyOp4
 70
     1
102
RTVSPropertyOp5
 70
     1
102
RTVSPropertyOp6
 70
     1
102
RTVSPropertyOp7
 70
     1
102
RTVSPropertyOp8
 70
     1
102
RTVSPropertyOp9
 70
     1
102
RTVSPropertyOp10
 70
     1
102
RTVSPropertyOp11
 70
     1
102
RTVSPropertyOp12
 70
     1
102
RTVSPropertyOp13
 70
     1
102
RTVSPropertyOp14
 70
     1
102
RTVSPropertyOp15
 70
     1
102
RTVSPropertyOp16
 70
     1
102
RTVSPropertyOp17
 70
     1
102
RTVSPropertyOp18
 70
     1
102
RTVSPropertyOp19
 70
     1
102
RTVSPropertyOp20
 70
     1
102
RTVSPropertyOp21
 70
     1
102
RTVSPropertyOp22
 70
     1
102
RTVSPropertyOp23
 70
     1
102
RTVSPropertyOp24
 70
     1
102
RTVSPropertyOp25
 70
     1
102
RTVSPropertyOp26
 70
     1
102
RTVSPropertyOp27
 70
     1
102
RTVSPropertyOp28
 70
     1
102
RTVSPropertyOp29
 70
     1
102
RTVSPropertyOp30
 70
     1
102
RTVSPropertyOp31
 70
     1
102
RTVSPropertyOp32
 70
     1
102
RTVSPropertyOp33
 70
     1
102
RTVSPropertyOp34
 70
     1
102
RTVSPropertyOp35
 70
     1
102
RTVSPropertyOp36
 70
     1
102
RTVSPropertyOp37
 70
     1
102
RTVSPropertyOp38
 70
     1
102
RTVSPropertyOp39
 70
     1
102
RTVSPropertyOp40
 70
     1
102
RTVSPropertyOp41
 70
     1
102
RTVSPropertyOp42
 70
     1
102
RTVSPropertyOp43
 70
     1
102
RTVSPropertyOp44
 70
     1
102
RTVSPropertyOp45
 70
     1
102
RTVSPropertyOp46
 70
     1
102
RTVSPropertyOp47
 70
     1
102
RTVSPropertyOp48
 70
     1
102
RTVSPropertyOp49
 70
     1
102
RTVSPropertyOp50
 70
     1
102
RTVSPropertyOp51
 70
     0
102
RTVSPropertyOp52
 70
     0
102
RTVSPropertyOp53
 70
     1
102
RTVSPropertyOp54
 70
     1
102
RTVSPropertyOp55
 70
     1
102
RTVSPropertyOp56
 70
     1
102
RTVSPropertyOp57
 70
     1
102
RTVSPropertyOp58
 70
     1
102
RTVSPropertyOp59
 70
     1
102
RTVSPropertyOp60
 70
     1
102
RTVSPropertyOp61
 70
     1
102
RTVSPropertyOp62
 70
     1
  0
XRECORD
  5
26D8
102
{ACAD_REACTORS
330
26D7
102
}
330
26D7
100
AcDbXrecord
280
     1
102
RTVSPost2010Prop28
280
     0
102
RTVSPost2010PropOp28
 70
     1
102
RTVSPost2010Prop29
280
     1
102
RTVSPost2010PropOp29
 70
     1
102
RTVSPost2010Prop30
280
     1
102
RTVSPost2010PropOp30
 70
     1
102
RTVSPost2010Prop31
280
     0
102
RTVSPost2010PropOp31
 70
     1
102
RTVSPost2010Prop32
280
     0
102
RTVSPost2010PropOp32
 70
     1
102
RTVSPost2010Prop33
280
     0
102
RTVSPost2010PropOp33
 70
     1
102
RTVSPost2010Prop34
280
     0
102
RTVSPost2010PropOp34
 70
     1
102
RTVSPost2010Prop35
280
     0
102
RTVSPost2010PropOp35
 70
     1
102
RTVSPost2010Prop36
280
     0
102
RTVSPost2010PropOp36
 70
     1
102
RTVSPost2010Prop37
 90
       50
102
RTVSPost2010PropOp37
 70
     1
102
RTVSPost2010Prop38
140
0.0
102
RTVSPost2010PropOp38
 70
     1
102
RTVSPost2010Prop39
140
1.0
102
RTVSPost2010PropOp39
 70
     1
102
RTVSPost2010Prop40
 90
        0
102
RTVSPost2010PropOp40
 70
     1
102
RTVSPost2010Prop41ColorIndex
 90
       18
102
RTVSPost2010Prop41ColorRGB
 90
        0
102
RTVSPost2010PropOp41
 70
     1
102
RTVSPost2010Prop42
 90
       50
102
RTVSPost2010PropOp42
 70
     1
102
RTVSPost2010Prop43
 90
        3
102
RTVSPost2010PropOp43
 70
     1
102
RTVSPost2010Prop44ColorIndex
 90
        5
102
RTVSPost2010Prop44ColorRGB
 90
      255
102
RTVSPost2010PropOp44
 70
     1
102
RTVSPost2010Prop45
280
     0
102
RTVSPost2010PropOp45
 70
     1
102
RTVSPost2010Prop46
 90
       50
102
RTVSPost2010PropOp46
 70
     1
102
RTVSPost2010Prop47
 90
       50
102
RTVSPost2010PropOp47
 70
     1
102
RTVSPost2010Prop48
 90
       50
102
RTVSPost2010PropOp48
 70
     1
102
RTVSPost2010Prop49
280
     0
102
RTVSPost2010PropOp49
 70
     1
102
RTVSPost2010Prop50
 90
       50
102
RTVSPost2010PropOp50
 70
     1
102
RTVSPost2010Prop51ColorIndex
 90
      256
102
RTVSPost2010Prop51ColorRGB
 90
-16777216
102
RTVSPost2010PropOp51
 70
     0
102
RTVSPost2010Prop52
140
1.0
102
RTVSPost2010PropOp52
 70
     0
102
RTVSPost2010Prop53
 90
        2
102
RTVSPost2010PropOp53
 70
     1
102
RTVSPost2010Prop54
  1
strokes_ogs.tif
102
RTVSPost2010PropOp54
 70
     1
102
RTVSPost2010Prop55
280
     0
102
RTVSPost2010PropOp55
 70
     1
102
RTVSPost2010Prop56
140
1.0
102
RTVSPost2010PropOp56
 70
     1
102
RTVSPost2010Prop57
140
1.0
102
RTVSPost2010PropOp57
 70
     1
102
RTVSPropertyOp0
 70
     1
102
RTVSPropertyOp1
 70
     1
102
RTVSPropertyOp2
 70
     1
102
RTVSPropertyOp3
 70
     1
102
RTVSPropertyOp4
 70
     1
102
RTVSPropertyOp5
 70
     1
102
RTVSPropertyOp6
 70
     1
102
RTVSPropertyOp7
 70
     1
102
RTVSPropertyOp8
 70
     1
102
RTVSPropertyOp9
 70
     1
102
RTVSPropertyOp10
 70
     1
102
RTVSPropertyOp11
 70
     1
102
RTVSPropertyOp12
 70
     1
102
RTVSPropertyOp13
 70
     1
102
RTVSPropertyOp14
 70
     1
102
RTVSPropertyOp15
 70
     1
102
RTVSPropertyOp16
 70
     1
102
RTVSPropertyOp17
 70
     1
102
RTVSPropertyOp18
 70
     1
102
RTVSPropertyOp19
 70
     1
102
RTVSPropertyOp20
 70
     1
102
RTVSPropertyOp21
 70
     1
102
RTVSPropertyOp22
 70
     1
102
RTVSPropertyOp23
 70
     1
102
RTVSPropertyOp24
 70
     1
102
RTVSPropertyOp25
 70
     1
102
RTVSPropertyOp26
 70
     1
102
RTVSPropertyOp27
 70
     1
102
RTVSPropertyOp28
 70
     1
102
RTVSPropertyOp29
 70
     1
102
RTVSPropertyOp30
 70
     1
102
RTVSPropertyOp31
 70
     1
102
RTVSPropertyOp32
 70
     1
102
RTVSPropertyOp33
 70
     1
102
RTVSPropertyOp34
 70
     1
102
RTVSPropertyOp35
 70
     1
102
RTVSPropertyOp36
 70
     1
102
RTVSPropertyOp37
 70
     1
102
RTVSPropertyOp38
 70
     1
102
RTVSPropertyOp39
 70
     1
102
RTVSPropertyOp40
 70
     1
102
RTVSPropertyOp41
 70
     1
102
RTVSPropertyOp42
 70
     1
102
RTVSPropertyOp43
 70
     1
102
RTVSPropertyOp44
 70
     1
102
RTVSPropertyOp45
 70
     1
102
RTVSPropertyOp46
 70
     1
102
RTVSPropertyOp47
 70
     1
102
RTVSPropertyOp48
 70
     1
102
RTVSPropertyOp49
 70
     1
102
RTVSPropertyOp50
 70
     1
102
RTVSPropertyOp51
 70
     0
102
RTVSPropertyOp52
 70
     0
102
RTVSPropertyOp53
 70
     1
102
RTVSPropertyOp54
 70
     1
102
RTVSPropertyOp55
 70
     1
102
RTVSPropertyOp56
 70
     1
102
RTVSPropertyOp57
 70
     1
102
RTVSPropertyOp58
 70
     1
102
RTVSPropertyOp59
 70
     1
102
RTVSPropertyOp60
 70
     1
102
RTVSPropertyOp61
 70
     1
102
RTVSPropertyOp62
 70
     1
  0
ENDSEC
  0
EOF
