  0
SECTION
  2
HEADER
  9
$ACADVER
  1
AC1015
  9
$DWGCODEPAGE
  3
ANSI_932
  9
$LTSCALE
 40
20.0
  9
$FILLMODE
 70
     1
  9
$CLAYER
  8
0
  9
$PDMODE
 70
     0
  9
$SPLFRAME
 70
     0
  9
$SPLINETYPE
 70
     6
  9
$SPLINESEGS
 70
     8
  9
$DIMASZ
 40
2.000000
  9
$DIMEXE
 40
1.500000
  9
$DIMEXO
 40
0.800000
  9
$DIMTAD
 70
     1
  9
$DIMTIH
 70
     0
  9
$DIMTOH
 70
     0
  9
$DIMTVP
 40
0.500000
  9
$DIMTXT
 40
3.100000
  9
$EXTMIN
 10
0.000000
 20
0.000000
 30
0.000000
  9
$EXTMAX
 10
297.000000
 20
420.000000
 30
0.000000
  9
$MEASUREMENT
 70
  1
  9
$LIMMIN
 10
0.000000
 20
0.000000
  9
$LIMMAX
 10
297.000000
 20
420.000000
  9
$HANDSEED
  5
1FB
  9
$LWDISPLAY
290
     0
  9
$DIMBLK
  1
_OPEN
  9
$DIMDEC
 70
     2
  9
$DIMADEC
 70
     2
  9
$DIMAUNIT
 70
     0
  9
$DIMZIN
 70
     8
  9
$DIMAZIN
 70
     2
  9
$DIMTOFL
 70
     1
  0
ENDSEC
  0
SECTION
  2
CLASSES
  0
ENDSEC
  0
SECTION
  2
TABLES
  0
TABLE
  2
VPORT
  5
1C3
100
AcDbSymbolTable
 70
     1
  0
VPORT
  5
1C4
100
AcDbSymbolTableRecord
100
AcDbViewportTableRecord
  2
*ACTIVE
 70
     0
 12
210.690642
 22
146.171481
 40
571.844369
 41
0.973430
  0
ENDTAB
  0
TABLE
  2
LTYPE
  5
1C5
100
AcDbSymbolTable
 70
     3
  0
LTYPE
  5
1C6
100
AcDbSymbolTableRecord
100
AcDbLinetypeTableRecord
  2
BYBLOCK
 70
     0
  3

 72
    65
 73
     0
 40
0.0
  0
LTYPE
  5
1C7
100
AcDbSymbolTableRecord
100
AcDbLinetypeTableRecord
  2
BYLAYER
 70
     0
  3

 72
    65
 73
     0
 40
0.0
  0
LTYPE
  5
1C8
100
AcDbSymbolTableRecord
100
AcDbLinetypeTableRecord
  2
CONTINUOUS
 70
     0
  3
Solid line (NEC CAE2D for Win R15.2 : 2020.05.27)
 72
    65
 73
     0
 40
0.0
  0
LTYPE
  5
1C9
100
AcDbSymbolTableRecord
100
AcDbLinetypeTableRecord
  2
CENTER
 70
     0
  3
____ _ ____ _ ____ _ ____ _ ____ _ ____
 72
    65
 73
     4
 40
2.0
 49
1.25
 74
     0
 49
-0.25
 74
     0
 49
0.25
 74
     0
 49
-0.25
 74
     0
  0
LTYPE
  5
1CA
100
AcDbSymbolTableRecord
100
AcDbLinetypeTableRecord
  2
PHANTOM
 70
     0
  3
______  __  __  ______  __  __  ______ 
 72
    65
 73
     6
 40
2.5
 49
1.25
 74
     0
 49
-0.25
 74
     0
 49
0.25
 74
     0
 49
-0.25
 74
     0
 49
0.25
 74
     0
 49
-0.25
 74
     0
  0
ENDTAB
  0
TABLE
  2
LAYER
  5
1CB
100
AcDbSymbolTable
 70
    17
  0
LAYER
  5
1CC
100
AcDbSymbolTableRecord
100
AcDbLayerTableRecord
  2
0
 70
     0
 62
     7
  6
CONTINUOUS
370
    -3
390

  0
LAYER
  5
1CD
100
AcDbSymbolTableRecord
100
AcDbLayerTableRecord
  2
A0
 70
     0
 62
     9
  6
CONTINUOUS
370
    -3
390

  0
LAYER
  5
1CE
100
AcDbSymbolTableRecord
100
AcDbLayerTableRecord
  2
A1
 70
     0
 62
     1
  6
CONTINUOUS
370
    -3
390

  0
LAYER
  5
1CF
100
AcDbSymbolTableRecord
100
AcDbLayerTableRecord
  2
A2
 70
     0
 62
     9
  6
CONTINUOUS
370
    -3
390

  0
LAYER
  5
1D0
100
AcDbSymbolTableRecord
100
AcDbLayerTableRecord
  2
A4
 70
     0
 62
     9
  6
CONTINUOUS
370
    -3
390

  0
LAYER
  5
1D1
100
AcDbSymbolTableRecord
100
AcDbLayerTableRecord
  2
A5
 70
     0
 62
     8
  6
CONTINUOUS
370
    -3
390

  0
LAYER
  5
1D2
100
AcDbSymbolTableRecord
100
AcDbLayerTableRecord
  2
A6
 70
     0
 62
    12
  6
CONTINUOUS
370
    -3
390

  0
LAYER
  5
1D3
100
AcDbSymbolTableRecord
100
AcDbLayerTableRecord
  2
A8
 70
     0
 62
    10
  6
CONTINUOUS
370
    -3
390

  0
LAYER
  5
1D4
100
AcDbSymbolTableRecord
100
AcDbLayerTableRecord
  2
A9
 70
     0
 62
     9
  6
CONTINUOUS
370
    -3
390

  0
LAYER
  5
1D5
100
AcDbSymbolTableRecord
100
AcDbLayerTableRecord
  2
A10
 70
     0
 62
     6
  6
CONTINUOUS
370
    -3
390

  0
LAYER
  5
1D6
100
AcDbSymbolTableRecord
100
AcDbLayerTableRecord
  2
A11
 70
     0
 62
    10
  6
CONTINUOUS
370
    -3
390

  0
LAYER
  5
1D7
100
AcDbSymbolTableRecord
100
AcDbLayerTableRecord
  2
A15
 70
     0
 62
    14
  6
CONTINUOUS
370
    -3
390

  0
LAYER
  5
1D8
100
AcDbSymbolTableRecord
100
AcDbLayerTableRecord
  2
A20
 70
     0
 62
     1
  6
CONTINUOUS
370
    -3
390

  0
LAYER
  5
1D9
100
AcDbSymbolTableRecord
100
AcDbLayerTableRecord
  2
A30
 70
     0
 62
     1
  6
CONTINUOUS
370
    -3
390

  0
LAYER
  5
1DA
100
AcDbSymbolTableRecord
100
AcDbLayerTableRecord
  2
A40
 70
     0
 62
     9
  6
CONTINUOUS
370
    -3
390

  0
LAYER
  5
1DB
100
AcDbSymbolTableRecord
100
AcDbLayerTableRecord
  2
A50
 70
     0
 62
    12
  6
CONTINUOUS
370
    -3
390

  0
LAYER
  5
1DC
100
AcDbSymbolTableRecord
100
AcDbLayerTableRecord
  2
A1023
 70
     0
 62
    16
  6
CONTINUOUS
370
    -3
390

  0
ENDTAB
  0
TABLE
  2
STYLE
  5
1DD
100
AcDbSymbolTable
 70
     4
  0
STYLE
  5
1DE
100
AcDbSymbolTableRecord
100
AcDbTextStyleTableRecord
  2
STANDARD
 70
    64
 40
0.0
 41
1.0
 50
0.0
 71
     0
 42
3.000000000000000
  3
TXT
  4

  0
STYLE
  5
1DF
100
AcDbSymbolTableRecord
100
AcDbTextStyleTableRecord
  2
ANKTATE
 70
    68
 40
0.0
 41
1.0
 50
0.0
 71
     0
 42
3.000000000000000
  3
TXT
  4

  0
STYLE
  5
1E0
100
AcDbSymbolTableRecord
100
AcDbTextStyleTableRecord
  2
KNJYOKO
 70
    64
 40
0.0
 41
1.0
 50
0.0
 71
     0
 42
3.000000000000000
  3
TXT
  4
BIGFONT
  0
STYLE
  5
1E1
100
AcDbSymbolTableRecord
100
AcDbTextStyleTableRecord
  2
KNJTATE
 70
    68
 40
0.0
 41
1.0
 50
0.0
 71
     0
 42
3.000000000000000
  3
TXT
  4
BIGFONT
  0
ENDTAB
  0
TABLE
  2
VIEW
  5
1E2
100
AcDbSymbolTable
 70
     0
  0
ENDTAB
  0
TABLE
  2
UCS
  5
1E3
100
AcDbSymbolTable
 70
     0
  0
ENDTAB
  0
TABLE
  2
APPID
  5
1E4
100
AcDbSymbolTable
 70
     1
  0
APPID
  5
1E5
100
AcDbSymbolTableRecord
100
AcDbRegAppTableRecord
  2
ACAD
 70
     0
  0
ENDTAB
  0
TABLE
  2
DIMSTYLE
  5
1E6
100
AcDbSymbolTable
 70
     2
100
AcDbDimStyleTable
  0
DIMSTYLE
105
1E7
100
AcDbSymbolTableRecord
100
AcDbDimStyleTableRecord
  2
STANDARD
 70
     0
 41
2.000000
 44
1.500000
 42
0.800000
145
0.661290
140
3.100000
144
1.000000
146
0.645161
340
1DE
  0
DIMSTYLE
105
1E8
100
AcDbSymbolTableRecord
100
AcDbDimStyleTableRecord
  2
A001
 70
     0
 41
2.000000
 44
1.500000
 42
0.800000
145
0.661290
140
3.100000
144
1.000000
146
0.645161
 77
     1
 73
     0
 74
     0
271
     2
179
     2
275
     0
 78
     8
 79
     2
172
     1
340
1DE
  0
ENDTAB
  0
TABLE
  2
BLOCK_RECORD
  5
1E9
100
AcDbSymbolTable
 70
    12
  0
BLOCK_RECORD
  5
1EA
100
AcDbSymbolTableRecord
100
AcDbBlockTableRecord
  2
*MODEL_SPACE
  0
BLOCK_RECORD
  5
1EB
100
AcDbSymbolTableRecord
100
AcDbBlockTableRecord
  2
*PAPER_SPACE
  0
BLOCK_RECORD
  5
1EC
100
AcDbSymbolTableRecord
100
AcDbBlockTableRecord
  2
*PAPER_SPACE0
  0
BLOCK_RECORD
  5
1
100
AcDbSymbolTableRecord
100
AcDbBlockTableRecord
  2
_NONE
  0
BLOCK_RECORD
  5
4
100
AcDbSymbolTableRecord
100
AcDbBlockTableRecord
  2
_CLOSED
  0
BLOCK_RECORD
  5
B
100
AcDbSymbolTableRecord
100
AcDbBlockTableRecord
  2
_DOT
  0
BLOCK_RECORD
  5
13
100
AcDbSymbolTableRecord
100
AcDbBlockTableRecord
  2
_OPEN
  0
BLOCK_RECORD
  5
19
100
AcDbSymbolTableRecord
100
AcDbBlockTableRecord
  2
_ORIGIN
  0
BLOCK_RECORD
  5
1E
100
AcDbSymbolTableRecord
100
AcDbBlockTableRecord
  2
_OPEN30
  0
BLOCK_RECORD
  5
24
100
AcDbSymbolTableRecord
100
AcDbBlockTableRecord
  2
_BOXFILLED
  0
BLOCK_RECORD
  5
29
100
AcDbSymbolTableRecord
100
AcDbBlockTableRecord
  2
_BOXBLANK
  0
BLOCK_RECORD
  5
31
100
AcDbSymbolTableRecord
100
AcDbBlockTableRecord
  2
_OBLIQUE
  0
BLOCK_RECORD
  5
35
100
AcDbSymbolTableRecord
100
AcDbBlockTableRecord
  2
_OPEN90
  0
BLOCK_RECORD
  5
3B
100
AcDbSymbolTableRecord
100
AcDbBlockTableRecord
  2
_CLOSEDBLANK
  0
BLOCK_RECORD
  5
41
100
AcDbSymbolTableRecord
100
AcDbBlockTableRecord
  2
_DOTBLANK
  0
ENDTAB
  0
ENDSEC
  0
SECTION
  2
BLOCKS
  0
BLOCK
  5
1ED
100
AcDbEntity
  8
0
100
AcDbBlockBegin
  2
*MODEL_SPACE
 70
     0
 10
0.0
 20
0.0
 30
0.0
  3
*MODEL_SPACE
  1

  0
ENDBLK
  5
1EE
100
AcDbEntity
  8
0
100
AcDbBlockEnd
  0
BLOCK
  5
1EF
100
AcDbEntity
  8
0
100
AcDbBlockBegin
  2
*PAPER_SPACE
 70
     0
 10
0.0
 20
0.0
 30
0.0
  3
*PAPER_SPACE
  1

  0
ENDBLK
  5
1F0
100
AcDbEntity
  8
0
100
AcDbBlockEnd
  0
BLOCK
  5
1F1
100
AcDbEntity
  8
0
100
AcDbBlockBegin
  2
*PAPER_SPACE0
 70
     0
 10
0.0
 20
0.0
 30
0.0
  3
*PAPER_SPACE0
  1

  0
ENDBLK
  5
1F2
100
AcDbEntity
  8
0
100
AcDbBlockEnd
  0
BLOCK
  5
2
330
1
100
AcDbEntity
  8
0
100
AcDbBlockBegin
  2
_NONE
 70
     0
 10
0.0
 20
0.0
 30
0.0
  3
_NONE
  1

  0
ENDBLK
  5
3
330
1
100
AcDbEntity
  8
0
100
AcDbBlockEnd
  0
BLOCK
  5
5
330
4
100
AcDbEntity
  8
0
100
AcDbBlockBegin
  2
_CLOSED
 70
     0
 10
0.0
 20
0.0
 30
0.0
  3
_CLOSED
  1

  0
LINE
  5
6
330
4
100
AcDbEntity
  8
0
  6
BYBLOCK
 62
     0
370
    -2
100
AcDbLine
 10
-1.0
 20
0.166667
 30
0.0
 11
0.0
 21
0.0
 31
0.0
  0
LINE
  5
7
330
4
100
AcDbEntity
  8
0
  6
BYBLOCK
 62
     0
370
    -2
100
AcDbLine
 10
0.0
 20
0.0
 30
0.0
 11
-1.0
 21
-0.166667
 31
0.0
  0
LINE
  5
8
330
4
100
AcDbEntity
  8
0
  6
BYBLOCK
 62
     0
370
    -2
100
AcDbLine
 10
-1.0
 20
0.166667
 30
0.0
 11
-1.0
 21
-0.166667
 31
0.0
  0
LINE
  5
9
330
4
100
AcDbEntity
  8
0
  6
BYBLOCK
 62
     0
370
    -2
100
AcDbLine
 10
0.0
 20
0.0
 30
0.0
 11
-1.0
 21
0.0
 31
0.0
  0
ENDBLK
  5
A
330
4
100
AcDbEntity
  8
0
100
AcDbBlockEnd
  0
BLOCK
  5
C
330
B
100
AcDbEntity
  8
0
100
AcDbBlockBegin
  2
_DOT
 70
     0
 10
0.0
 20
0.0
 30
0.0
  3
_DOT
  1

  0
POLYLINE
  5
D
330
B
100
AcDbEntity
  8
0
  6
BYBLOCK
 62
     0
370
    -2
100
AcDb2dPolyline
 66
     1
 10
0.0
 20
0.0
 30
0.0
 70
     1
 40
0.5
 41
0.5
  0
VERTEX
  5
E
330
B
100
AcDbEntity
  8
0
  6
BYBLOCK
 62
     0
370
    -2
100
AcDbVertex
100
AcDb2dVertex
 10
-0.25
 20
0.0
 30
0.0
 42
1.0
  0
VERTEX
  5
F
330
B
100
AcDbEntity
  8
0
  6
BYBLOCK
 62
     0
370
    -2
100
AcDbVertex
100
AcDb2dVertex
 10
0.25
 20
0.0
 30
0.0
 42
1.0
  0
SEQEND
  5
10
330
B
100
AcDbEntity
  8
0
  6
BYBLOCK
 62
     0
370
    -2
  0
LINE
  5
11
330
B
100
AcDbEntity
  8
0
  6
BYBLOCK
 62
     0
370
    -2
100
AcDbLine
 10
-0.5
 20
0.0
 30
0.0
 11
-1.0
 21
0.0
 31
0.0
  0
ENDBLK
  5
12
330
B
100
AcDbEntity
  8
0
100
AcDbBlockEnd
  0
BLOCK
  5
14
330
13
100
AcDbEntity
  8
0
100
AcDbBlockBegin
  2
_OPEN
 70
     0
 10
0.0
 20
0.0
 30
0.0
  3
_OPEN
  1

  0
LINE
  5
15
330
13
100
AcDbEntity
  8
0
  6
BYBLOCK
 62
     0
370
    -2
100
AcDbLine
 10
-1.0
 20
0.166667
 30
0.0
 11
0.0
 21
0.0
 31
0.0
  0
LINE
  5
16
330
13
100
AcDbEntity
  8
0
  6
BYBLOCK
 62
     0
370
    -2
100
AcDbLine
 10
0.0
 20
0.0
 30
0.0
 11
-1.0
 21
-0.166667
 31
0.0
  0
LINE
  5
17
330
13
100
AcDbEntity
  8
0
  6
BYBLOCK
 62
     0
370
    -2
100
AcDbLine
 10
0.0
 20
0.0
 30
0.0
 11
-1.0
 21
0.0
 31
0.0
  0
ENDBLK
  5
18
330
13
100
AcDbEntity
  8
0
100
AcDbBlockEnd
  0
BLOCK
  5
1A
330
19
100
AcDbEntity
  8
0
100
AcDbBlockBegin
  2
_ORIGIN
 70
     0
 10
0.0
 20
0.0
 30
0.0
  3
_ORIGIN
  1

  0
CIRCLE
  5
1B
330
19
100
AcDbEntity
  8
0
  6
BYBLOCK
 62
     0
370
    -2
100
AcDbCircle
 10
0.0
 20
0.0
 30
0.0
 40
0.5
  0
LINE
  5
1C
330
19
100
AcDbEntity
  8
0
  6
BYBLOCK
 62
     0
370
    -2
100
AcDbLine
 10
0.0
 20
0.0
 30
0.0
 11
-1.0
 21
0.0
 31
0.0
  0
ENDBLK
  5
1D
330
19
100
AcDbEntity
  8
0
100
AcDbBlockEnd
  0
BLOCK
  5
1F
330
1E
100
AcDbEntity
  8
0
100
AcDbBlockBegin
  2
_OPEN30
 70
     0
 10
0.0
 20
0.0
 30
0.0
  3
_OPEN30
  1

  0
LINE
  5
20
330
1E
100
AcDbEntity
  8
0
  6
BYBLOCK
 62
     0
370
    -2
100
AcDbLine
 10
-1.0
 20
0.267949
 30
0.0
 11
0.0
 21
0.0
 31
0.0
  0
LINE
  5
21
330
1E
100
AcDbEntity
  8
0
  6
BYBLOCK
 62
     0
370
    -2
100
AcDbLine
 10
0.0
 20
0.0
 30
0.0
 11
-1.0
 21
-0.267949
 31
0.0
  0
LINE
  5
22
330
1E
100
AcDbEntity
  8
0
  6
BYBLOCK
 62
     0
370
    -2
100
AcDbLine
 10
0.0
 20
0.0
 30
0.0
 11
-1.0
 21
0.0
 31
0.0
  0
ENDBLK
  5
23
330
1E
100
AcDbEntity
  8
0
100
AcDbBlockEnd
  0
BLOCK
  5
25
330
24
100
AcDbEntity
  8
0
100
AcDbBlockBegin
  2
_BOXFILLED
 70
     0
 10
0.0
 20
0.0
 30
0.0
  3
_BOXFILLED
  1

  0
SOLID
  5
26
330
24
100
AcDbEntity
  8
0
  6
BYBLOCK
 62
     0
370
    -2
100
AcDbTrace
 10
-0.5
 20
0.5
 30
0.0
 11
0.5
 21
0.5
 31
0.0
 12
-0.5
 22
-0.5
 32
0.0
 13
0.5
 23
-0.5
 33
0.0
  0
LINE
  5
27
330
24
100
AcDbEntity
  8
0
  6
BYBLOCK
 62
     0
370
    -2
100
AcDbLine
 10
-0.5
 20
0.0
 30
0.0
 11
-1.0
 21
0.0
 31
0.0
  0
ENDBLK
  5
28
330
24
100
AcDbEntity
  8
0
100
AcDbBlockEnd
  0
BLOCK
  5
2A
330
29
100
AcDbEntity
  8
0
100
AcDbBlockBegin
  2
_BOXBLANK
 70
     0
 10
0.0
 20
0.0
 30
0.0
  3
_BOXBLANK
  1

  0
LINE
  5
2B
330
29
100
AcDbEntity
  8
0
  6
BYBLOCK
 62
     0
370
    -2
100
AcDbLine
 10
-0.5
 20
-0.5
 30
0.0
 11
0.5
 21
-0.5
 31
0.0
  0
LINE
  5
2C
330
29
100
AcDbEntity
  8
0
  6
BYBLOCK
 62
     0
370
    -2
100
AcDbLine
 10
0.5
 20
-0.5
 30
0.0
 11
0.5
 21
0.5
 31
0.0
  0
LINE
  5
2D
330
29
100
AcDbEntity
  8
0
  6
BYBLOCK
 62
     0
370
    -2
100
AcDbLine
 10
0.5
 20
0.5
 30
0.0
 11
-0.5
 21
0.5
 31
0.0
  0
LINE
  5
2E
330
29
100
AcDbEntity
  8
0
  6
BYBLOCK
 62
     0
370
    -2
100
AcDbLine
 10
-0.5
 20
0.5
 30
0.0
 11
-0.5
 21
-0.5
 31
0.0
  0
LINE
  5
2F
330
29
100
AcDbEntity
  8
0
  6
BYBLOCK
 62
     0
370
    -2
100
AcDbLine
 10
-0.5
 20
0.0
 30
0.0
 11
-1.0
 21
0.0
 31
0.0
  0
ENDBLK
  5
30
330
29
100
AcDbEntity
  8
0
100
AcDbBlockEnd
  0
BLOCK
  5
32
330
31
100
AcDbEntity
  8
0
100
AcDbBlockBegin
  2
_OBLIQUE
 70
     0
 10
0.0
 20
0.0
 30
0.0
  3
_OBLIQUE
  1

  0
LINE
  5
33
330
31
100
AcDbEntity
  8
0
  6
BYBLOCK
 62
     0
370
    -2
100
AcDbLine
 10
-0.5
 20
-0.5
 30
0.0
 11
0.5
 21
0.5
 31
0.0
  0
ENDBLK
  5
34
330
31
100
AcDbEntity
  8
0
100
AcDbBlockEnd
  0
BLOCK
  5
36
330
35
100
AcDbEntity
  8
0
100
AcDbBlockBegin
  2
_OPEN90
 70
     0
 10
0.0
 20
0.0
 30
0.0
  3
_OPEN90
  1

  0
LINE
  5
37
330
35
100
AcDbEntity
  8
0
  6
BYBLOCK
 62
     0
370
    -2
100
AcDbLine
 10
-0.5
 20
0.5
 30
0.0
 11
0.0
 21
0.0
 31
0.0
  0
LINE
  5
38
330
35
100
AcDbEntity
  8
0
  6
BYBLOCK
 62
     0
370
    -2
100
AcDbLine
 10
0.0
 20
0.0
 30
0.0
 11
-0.5
 21
-0.5
 31
0.0
  0
LINE
  5
39
330
35
100
AcDbEntity
  8
0
  6
BYBLOCK
 62
     0
370
    -2
100
AcDbLine
 10
0.0
 20
0.0
 30
0.0
 11
-1.0
 21
0.0
 31
0.0
  0
ENDBLK
  5
3A
330
35
100
AcDbEntity
  8
0
100
AcDbBlockEnd
  0
BLOCK
  5
3C
330
3B
100
AcDbEntity
  8
0
100
AcDbBlockBegin
  2
_CLOSEDBLANK
 70
     0
 10
0.0
 20
0.0
 30
0.0
  3
_CLOSEDBLANK
  1

  0
LINE
  5
3D
330
3B
100
AcDbEntity
  8
0
  6
BYBLOCK
 62
     0
370
    -2
100
AcDbLine
 10
-1.0
 20
0.1666666666666666
 30
0.0
 11
0.0
 21
0.0
 31
0.0
  0
LINE
  5
3E
330
3B
100
AcDbEntity
  8
0
  6
BYBLOCK
 62
     0
370
    -2
100
AcDbLine
 10
0.0
 20
0.0
 30
0.0
 11
-1.0
 21
-0.1666666666666666
 31
0.0
  0
LINE
  5
3F
330
3B
100
AcDbEntity
  8
0
  6
BYBLOCK
 62
     0
370
    -2
100
AcDbLine
 10
-1.0
 20
0.1666666666666666
 30
0.0
 11
-1.0
 21
-0.1666666666666666
 31
0.0
  0
ENDBLK
  5
40
330
3B
100
AcDbEntity
  8
0
100
AcDbBlockEnd
  0
BLOCK
  5
42
330
41
100
AcDbEntity
  8
0
100
AcDbBlockBegin
  2
_DOTBLANK
 70
     0
 10
0.0
 20
0.0
 30
0.0
  3
_DOTBLANK
  1

  0
CIRCLE
  5
43
330
41
100
AcDbEntity
  8
0
  6
BYBLOCK
 62
     0
370
    -2
100
AcDbCircle
 10
0.0
 20
0.0
 30
0.0
 40
0.5
  0
LINE
  5
44
330
41
100
AcDbEntity
  8
0
  6
BYBLOCK
 62
     0
370
    -2
100
AcDbLine
 10
-0.5
 20
0.0
 30
0.0
 11
-1.0
 21
0.0
 31
0.0
  0
ENDBLK
  5
45
330
41
100
AcDbEntity
  8
0
100
AcDbBlockEnd
  0
ENDSEC
  0
SECTION
  2
ENTITIES
  0
MTEXT
  5
46
100
AcDbEntity
  8
A8
  6
CONTINUOUS
 62
7
100
AcDbMText
 10
9.999997526638502
 20
18.00000076076889
 30
0.0000000000000000
 40
3.000000000000000
 41
0.0000000000000000
 44
0.6739999771118164
 71
     7
 72
     1
  1
{\H0.94x;{TYPE No.THA-KA-1780}}
 11
1.000000000000000
 21
0.0000000000000000
 31
0.0000000000000000
  7
STANDARD
  0
POINT
  5
47
100
AcDbEntity
  8
A0
  6
CONTINUOUS
 62
5
100
AcDbPoint
 10
9.999997526638502
 20
18.00000076076889
 30
0.0000000000000000
  0
ARC
  5
48
100
AcDbEntity
  8
A11
  6
CONTINUOUS
 62
7
100
AcDbCircle
 10
187.5188281578018
 20
83.09997523185260
 30
0.0000000000000000
 40
3.600060881422630
100
AcDbArc
 50
76.46407452431764
 51
103.5360134595015
  0
ARC
  5
49
100
AcDbEntity
  8
A11
  6
CONTINUOUS
 62
7
100
AcDbCircle
 10
170.2188281578069
 20
83.09996194884960
 30
0.0000000000000000
 40
3.600060881422494
100
AcDbArc
 50
76.46407452431687
 51
103.5360134595018
  0
ARC
  5
4A
100
AcDbEntity
  8
A11
  6
CONTINUOUS
 62
7
100
AcDbCircle
 10
202.7862696905494
 20
86.60004957511208
 30
0.0000000000000000
 40
1.500000000000000
100
AcDbArc
 50
42.99049017979500
 51
90.00004399190959
  0
ARC
  5
4B
100
AcDbEntity
  8
A11
  6
CONTINUOUS
 62
7
100
AcDbCircle
 10
217.2188368607410
 20
68.91805463847211
 30
0.0000000000000000
 40
2.999999999999999
100
AcDbArc
 50
4.399190950442188e-05
 51
42.99049017979475
  0
ARC
  5
4C
100
AcDbEntity
  8
A11
  6
CONTINUOUS
 62
7
100
AcDbCircle
 10
164.7188512686504
 20
53.00002034679871
 30
0.0000000000000000
 40
0.5000000000000004
100
AcDbArc
 50
180.0000439919095
 51
270.0000439919094
  0
ARC
  5
4D
100
AcDbEntity
  8
A11
  6
CONTINUOUS
 62
7
100
AcDbCircle
 10
169.2188281577589
 20
83.10002380190670
 30
0.0000000000000000
 40
5.000000000000001
100
AcDbArc
 50
90.00004399190938
 51
180.0000439919095
  0
ARC
  5
4E
100
AcDbEntity
  8
A11
  6
CONTINUOUS
 62
7
100
AcDbCircle
 10
187.5188281577536
 20
83.10003785271354
 30
0.0000000000000000
 40
3.600000000000001
100
AcDbArc
 50
103.5362467292903
 51
436.4638412545286
  0
ARC
  5
4F
100
AcDbEntity
  8
A11
  6
CONTINUOUS
 62
7
100
AcDbCircle
 10
170.2188281577589
 20
83.10002456971031
 30
0.0000000000000000
 40
3.600000000000000
100
AcDbArc
 50
103.5362467292902
 51
436.4638412545287
  0
ARC
  5
50
100
AcDbEntity
  8
A11
  6
CONTINUOUS
 62
7
100
AcDbCircle
 10
219.7188490826344
 20
53.00006257599922
 30
0.0000000000000000
 40
0.4999999999999935
100
AcDbArc
 50
270.0000439919086
 51
360.0000439919094
  0
LINE
  5
51
100
AcDbEntity
  8
A11
  6
CONTINUOUS
 62
7
100
AcDbLine
 10
164.2188439745160
 20
62.50001996289402
 30
0.0000000000000000
 11
164.2188466618288
 21
59.00001996289505
 31
0.0000000000000000
  0
LINE
  5
52
100
AcDbEntity
  8
A11
  6
CONTINUOUS
 62
7
100
AcDbLine
 10
219.4132375248795
 20
70.96368552532097
 30
0.0000000000000000
 11
203.8834700226188
 21
87.62286501853688
 31
0.0000000000000000
  0
LINE
  5
53
100
AcDbEntity
  8
A11
  6
CONTINUOUS
 62
7
100
AcDbLine
 10
202.7862685388446
 20
88.10004957511148
 30
0.0000000000000000
 11
169.2188243187410
 21
88.10002380190481
 31
0.0000000000000000
  0
LINE
  5
54
100
AcDbEntity
  8
A11
  6
CONTINUOUS
 62
7
100
AcDbLine
 10
164.2188281577608
 20
83.10001996288821
 30
0.0000000000000000
 11
164.2188512686511
 21
53.00001996289720
 31
0.0000000000000000
  0
LINE
  5
55
100
AcDbEntity
  8
A11
  6
CONTINUOUS
 62
7
100
AcDbLine
 10
164.7188516525522
 20
52.50002034679682
 30
0.0000000000000000
 11
219.7188494665358
 21
52.50006257599893
 31
0.0000000000000000
  0
LINE
  5
56
100
AcDbEntity
  8
A11
  6
CONTINUOUS
 62
7
100
AcDbLine
 10
220.2188490826340
 20
53.00006295990016
 30
0.0000000000000000
 11
220.2188368607403
 21
68.91805694188326
 31
0.0000000000000000
  0
SPLINE
  5
57
100
AcDbEntity
  8
A11
  6
CONTINUOUS
 62
7
100
AcDbSpline
210
0.0000000000000000
220
0.0000000000000000
230
1.000000000000000
 70
     8
 71
     3
 72
     9
 73
     5
 74
     0
 42
1.000000000000000e-07
 43
1.000000000000000e-07
 12
0.9662923127252725
 22
-0.2574474054708844
 32
0.0000000000000000
 13
0.9659375428564090
 23
-0.2587753143097871
 33
0.0000000000000000
 40
0.0000000000000000
 40
0.0000000000000000
 40
0.0000000000000000
 40
0.0000000000000000
 40
0.007958655459733399
 40
0.05676154643061530
 40
0.05676154643061530
 40
0.05676154643061530
 40
0.05676154643061530
 10
160.5984510922532
 20
64.97222223141831
 30
0.0000000000000000
 10
160.6010145547834
 20
64.97153925301861
 30
0.0000000000000000
 10
160.6192968338927
 20
64.96666645372945
 30
0.0000000000000000
 10
160.6375757661069
 20
64.96178108958544
 30
0.0000000000000000
 10
160.6532892809698
 20
64.95757142843537
 30
0.0000000000000000
  0
SPLINE
  5
58
100
AcDbEntity
  8
A11
  6
CONTINUOUS
 62
7
100
AcDbSpline
210
0.0000000000000000
220
0.0000000000000000
230
1.000000000000000
 70
     8
 71
     3
 72
     9
 73
     5
 74
     0
 42
1.000000000000000e-07
 43
1.000000000000000e-07
 12
0.9623141068477707
 22
-0.2719403606579363
 32
0.0000000000000000
 13
0.9607728422761284
 23
-0.2773365204129732
 33
0.0000000000000000
 40
0.0000000000000000
 40
0.0000000000000000
 40
0.0000000000000000
 40
0.0000000000000000
 40
0.1518785412992177
 40
0.1960951008074522
 40
0.1960951008074522
 40
0.1960951008074522
 40
0.1960951008074522
 10
161.1124071788801
 20
64.83120103708031
 30
0.0000000000000000
 10
161.1611254664867
 20
64.81743373531459
 30
0.0000000000000000
 10
161.2239886565844
 20
64.79952160615859
 30
0.0000000000000000
 10
161.2868010665888
 20
64.78143323280371
 30
0.0000000000000000
 10
161.3009617564402
 20
64.77734561055082
 30
0.0000000000000000
  0
SPLINE
  5
59
100
AcDbEntity
  8
A11
  6
CONTINUOUS
 62
7
100
AcDbSpline
210
0.0000000000000000
220
0.0000000000000000
230
1.000000000000000
 70
     8
 71
     3
 72
     9
 73
     5
 74
     0
 42
1.000000000000000e-07
 43
1.000000000000000e-07
 12
0.9541325362388307
 22
-0.2993845407916069
 32
0.0000000000000000
 13
0.9499843484268240
 23
-0.3122975147864508
 33
0.0000000000000000
 40
0.0000000000000000
 40
0.0000000000000000
 40
0.0000000000000000
 40
0.0000000000000000
 40
0.1239002200491374
 40
0.4762595298393263
 40
0.4762595298393263
 40
0.4762595298393263
 40
0.4762595298393263
 10
162.0730339315934
 20
64.54482560175622
 30
0.0000000000000000
 10
162.1124396753254
 20
64.53246099826175
 30
0.0000000000000000
 10
162.2638272919677
 20
64.48466553854861
 30
0.0000000000000000
 10
162.4148906367067
 20
64.43584347124376
 30
0.0000000000000000
 10
162.5264692464811
 20
64.39916315899065
 30
0.0000000000000000
  0
SPLINE
  5
5A
100
AcDbEntity
  8
A11
  6
CONTINUOUS
 62
7
100
AcDbSpline
210
0.0000000000000000
220
0.0000000000000000
230
1.000000000000000
 70
     8
 71
     3
 72
     9
 73
     5
 74
     0
 42
1.000000000000000e-07
 43
1.000000000000000e-07
 12
0.9997465504930005
 22
0.02251299041745369
 32
0.0000000000000000
 13
0.9974649967261939
 23
0.07115883909500553
 33
0.0000000000000000
 40
0.0000000000000000
 40
0.0000000000000000
 40
0.0000000000000000
 40
0.0000000000000000
 40
0.007697105779003100
 40
0.02470977005004610
 40
0.02470977005004610
 40
0.02470977005004610
 40
0.02470977005004610
 10
149.0551244788455
 20
66.05846406695926
 30
0.0000000000000000
 10
149.0576895304959
 20
66.05852182858214
 30
0.0000000000000000
 10
149.0659226006778
 20
66.05876975800996
 30
0.0000000000000000
 10
149.0741490311863
 20
66.05921817464653
 30
0.0000000000000000
 10
149.0798055435568
 20
66.05962170845967
 30
0.0000000000000000
  0
SPLINE
  5
5B
100
AcDbEntity
  8
A11
  6
CONTINUOUS
 62
7
100
AcDbSpline
210
0.0000000000000000
220
0.0000000000000000
230
1.000000000000000
 70
     8
 71
     3
 72
    15
 73
    11
 74
     0
 42
1.000000000000000e-07
 43
1.000000000000000e-07
 12
0.1444538034006655
 22
-0.9895115455021255
 32
0.0000000000000000
 13
0.7646141427160273
 23
-0.6444883340764704
 33
0.0000000000000000
 40
0.0000000000000000
 40
0.0000000000000000
 40
0.0000000000000000
 40
0.0000000000000000
 40
0.4992913818284786
 40
0.9985528487011346
 40
1.497799003377372
 40
1.997044115189436
 40
2.496300450689746
 40
2.995565791840975
 40
3.494831160287451
 40
3.994087136089008
 40
3.994087136089008
 40
3.994087136089008
 40
3.994087136089008
 10
143.5104173138643
 20
70.76567324817691
 30
0.0000000000000000
 10
143.5344588269010
 20
70.60098838588058
 30
0.0000000000000000
 10
143.5974125717859
 20
70.27359458202162
 30
0.0000000000000000
 10
143.7360814949590
 20
69.79329341365522
 30
0.0000000000000000
 10
143.9174216011374
 20
69.32740635353733
 30
0.0000000000000000
 10
144.1402022633012
 20
68.87984415663075
 30
0.0000000000000000
 10
144.4030351627648
 20
68.45455775006647
 30
0.0000000000000000
 10
144.7032942035370
 20
68.05481926623250
 30
0.0000000000000000
 10
145.0382849992581
 20
67.68374618604915
 30
0.0000000000000000
 10
145.2832685927030
 20
67.45763587880336
 30
0.0000000000000000
 10
145.4105146526808
 20
67.35038099476267
 30
0.0000000000000000
  0
SPLINE
  5
5C
100
AcDbEntity
  8
A11
  6
CONTINUOUS
 62
7
100
AcDbSpline
210
0.0000000000000000
220
0.0000000000000000
230
1.000000000000000
 70
     8
 71
     3
 72
     9
 73
     5
 74
     0
 42
1.000000000000000e-07
 43
1.000000000000000e-07
 12
0.9897120896247316
 22
-0.1430733366220238
 32
0.0000000000000000
 13
0.9998729701060256
 23
0.01593874675609186
 33
0.0000000000000000
 40
0.0000000000000000
 40
0.0000000000000000
 40
0.0000000000000000
 40
0.0000000000000000
 40
0.4675592856221262
 40
0.8789409864826598
 40
0.8789409864826598
 40
0.8789409864826598
 40
0.8789409864826598
 10
148.1666817072368
 20
66.11427268340893
 30
0.0000000000000000
 10
148.3209313997690
 20
66.09197426105473
 30
0.0000000000000000
 10
148.6128183279745
 20
66.06228660525611
 30
0.0000000000000000
 10
148.9060264012589
 20
66.05606729152649
 30
0.0000000000000000
 10
149.0431362156211
 20
66.05825292777652
 30
0.0000000000000000
  0
SPLINE
  5
5D
100
AcDbEntity
  8
A11
  6
CONTINUOUS
 62
7
100
AcDbSpline
210
0.0000000000000000
220
0.0000000000000000
230
1.000000000000000
 70
     8
 71
     3
 72
     9
 73
     5
 74
     0
 42
1.000000000000000e-07
 43
1.000000000000000e-07
 12
0.8907003934630211
 22
-0.4545908150014384
 32
0.0000000000000000
 13
0.9437840618518294
 23
-0.3305626182647075
 33
0.0000000000000000
 40
0.0000000000000000
 40
0.0000000000000000
 40
0.0000000000000000
 40
0.0000000000000000
 40
0.3710869653313419
 40
0.7422132260913024
 40
0.7422132260913024
 40
0.7422132260913024
 40
0.7422132260913024
 10
146.4544873122824
 20
66.65807871006044
 30
0.0000000000000000
 10
146.5646630809590
 20
66.60184780139164
 30
0.0000000000000000
 10
146.7888756386528
 20
66.49676414793637
 30
0.0000000000000000
 10
147.0196869736757
 20
66.40709808759996
 30
0.0000000000000000
 10
147.1364413236224
 20
66.36620459811209
 30
0.0000000000000000
  0
SPLINE
  5
5E
100
AcDbEntity
  8
A11
  6
CONTINUOUS
 62
7
100
AcDbSpline
210
0.0000000000000000
220
0.0000000000000000
230
1.000000000000000
 70
     8
 71
     3
 72
     9
 73
     5
 74
     0
 42
1.000000000000000e-07
 43
1.000000000000000e-07
 12
-0.9695946779104361
 22
-0.2447164901790302
 32
0.0000000000000000
 13
-0.9888607305549613
 23
-0.1488437286672593
 33
0.0000000000000000
 40
0.0000000000000000
 40
0.0000000000000000
 40
0.0000000000000000
 40
0.0000000000000000
 40
0.3348845286734771
 40
0.9773000007814904
 40
0.9773000007814904
 40
0.9773000007814904
 40
0.9773000007814904
 10
152.6307430870838
 20
72.03937287213901
 30
0.0000000000000000
 10
152.5225090015117
 20
72.01205561664827
 30
0.0000000000000000
 10
152.2053108496033
 20
71.93762126647837
 30
0.0000000000000000
 10
151.8846059348941
 20
71.87877213144409
 30
0.0000000000000000
 10
151.6728527905379
 20
71.84689896003673
 30
0.0000000000000000
  0
SPLINE
  5
5F
100
AcDbEntity
  8
A11
  6
CONTINUOUS
 62
7
100
AcDbSpline
210
0.0000000000000000
220
0.0000000000000000
230
1.000000000000000
 70
     8
 71
     3
 72
     9
 73
     5
 74
     0
 42
1.000000000000000e-07
 43
1.000000000000000e-07
 12
0.9981910961148515
 22
-0.06012100831748057
 32
0.0000000000000000
 13
0.9930997983423140
 23
-0.1172722922612479
 33
0.0000000000000000
 40
0.0000000000000000
 40
0.0000000000000000
 40
0.0000000000000000
 40
0.0000000000000000
 40
0.5488668849744517
 40
2.007916301007698
 40
2.007916301007698
 40
2.007916301007698
 40
2.007916301007698
 10
153.7009256096055
 20
66.08659972725562
 30
0.0000000000000000
 10
153.8835502887834
 20
66.07560025040337
 30
0.0000000000000000
 10
154.5513228747452
 20
66.03012370617924
 30
0.0000000000000000
 10
155.2177631032231
 20
65.96547016470552
 30
0.0000000000000000
 10
155.7007569968345
 20
65.90843480819197
 30
0.0000000000000000
  0
ELLIPSE
  5
60
100
AcDbEntity
  8
A2
  6
CONTINUOUS
 62
7
100
AcDbEllipse
 10
149.0428139960679
 20
66.55831793389100
 30
0.0000000000000000
 11
0.008969613136741638
 21
-0.4999195395519132
 31
0.0000000000000000
210
0.0000000000000000
220
0.0000000000000000
230
1.000000000000000
 40
0.9538033371342126
 41
6.264376400811638
 42
0.005444890806414044
  0
ELLIPSE
  5
61
100
AcDbEntity
  8
A11
  6
CONTINUOUS
 62
7
100
AcDbEllipse
 10
148.9786535268055
 20
67.05922460097966
 30
0.0000000000000000
 11
0.1028603630574506
 21
-0.9994563767216176
 31
0.0000000000000000
210
0.0000000000000000
220
0.0000000000000000
230
1.000000000000000
 40
0.2251280886322994
 41
6.260112558155140
 42
6.276293511777975
  0
ARC
  5
62
100
AcDbEntity
  8
A11
  6
CONTINUOUS
 62
7
100
AcDbCircle
 10
151.6094668388723
 20
31.20276474400319
 30
0.0000000000000000
 40
34.94535155080381
100
AcDbArc
 50
74.25586746844671
 51
74.86743941523386
  0
ARC
  5
63
100
AcDbEntity
  8
A11
  6
CONTINUOUS
 62
7
100
AcDbCircle
 10
179.6984650229089
 20
87.29708021218292
 30
0.0000000000000000
 40
1.000000000000001
100
AcDbArc
 50
53.41293848021643
 51
91.18567522760922
  0
ARC
  5
64
100
AcDbEntity
  8
A11
  6
CONTINUOUS
 62
7
100
AcDbCircle
 10
144.4999992321884
 20
70.90964417206627
 30
0.0000000000000000
 40
0.9999999999999991
100
AcDbArc
 50
88.18567522878672
 51
188.2776922174695
  0
ARC
  5
65
100
AcDbEntity
  8
A11
  6
CONTINUOUS
 62
7
100
AcDbCircle
 10
149.0440336174071
 20
66.55833996530990
 30
0.0000000000000000
 40
0.5000000000000004
100
AcDbArc
 50
271.1856752276084
 51
274.1205169092395
  0
ARC
  5
66
100
AcDbEntity
  8
A11
  6
CONTINUOUS
 62
7
100
AcDbCircle
 10
150.1813873541636
 20
81.74860317871688
 30
0.0000000000000000
 40
10.01340179869576
100
AcDbArc
 50
268.1967330269717
 51
278.5659044338118
  0
ARC
  5
67
100
AcDbEntity
  8
A11
  6
CONTINUOUS
 62
7
100
AcDbCircle
 10
150.1773227640292
 20
81.74909144854772
 30
0.0000000000000000
 40
10.01488422871878
100
AcDbArc
 50
284.1804982813251
 51
296.0604514847833
  0
ARC
  5
68
100
AcDbEntity
  8
A11
  6
CONTINUOUS
 62
7
100
AcDbCircle
 10
151.5943859472142
 20
31.12670068127071
 30
0.0000000000000000
 40
35.02330724895472
100
AcDbArc
 50
86.55176131196978
 51
94.11697235135304
  0
ARC
  5
69
100
AcDbEntity
  8
A11
  6
CONTINUOUS
 62
7
100
AcDbCircle
 10
150.1812680148691
 20
81.73757033353698
 30
0.0000000000000000
 40
10.00291239345003
100
AcDbArc
 50
300.1517315973691
 51
307.5914819583119
  0
ARC
  5
6A
100
AcDbEntity
  8
A11
  6
CONTINUOUS
 62
7
100
AcDbCircle
 10
174.1352018718268
 20
87.18193796074641
 30
0.0000000000000000
 40
1.000000000000000
100
AcDbArc
 50
66.64841960924984
 51
91.18567522760888
  0
ARC
  5
6B
100
AcDbEntity
  8
A11
  6
CONTINUOUS
 62
7
100
AcDbCircle
 10
151.5948644842740
 20
31.15010276139631
 30
0.0000000000000000
 40
35.00000000000002
100
AcDbArc
 50
68.85772369020343
 51
81.32721552859304
  0
ARC
  5
6C
100
AcDbEntity
  8
A11
  6
CONTINUOUS
 62
7
100
AcDbCircle
 10
150.1828946179259
 20
81.73514709970121
 30
0.0000000000000000
 40
9.999999999999998
100
AcDbArc
 50
307.5925668577510
 51
317.4915258370700
  0
ARC
  5
6D
100
AcDbEntity
  8
A11
  6
CONTINUOUS
 62
7
100
AcDbCircle
 10
151.5923146176771
 20
31.13125560006191
 30
0.0000000000000000
 40
35.01901615490119
100
AcDbArc
 50
81.32774118042509
 51
83.26252394807142
  0
LINE
  5
6E
100
AcDbEntity
  8
A11
  6
CONTINUOUS
 62
7
100
AcDbLine
 10
160.7003710255840
 20
64.94492074206286
 30
0.0000000000000000
 11
160.7320603946209
 21
64.93636641690354
 31
0.0000000000000000
  0
LINE
  5
6F
100
AcDbEntity
  8
A2
  6
CONTINUOUS
 62
7
100
AcDbLine
 10
179.6818464206272
 20
88.10003183545169
 30
0.0000000000000000
 11
179.6777725632882
 21
88.29686610031860
 31
0.0000000000000000
  0
LINE
  5
70
100
AcDbEntity
  8
A11
  6
CONTINUOUS
 62
7
100
AcDbLine
 10
179.6777725632880
 20
88.29686610031916
 30
0.0000000000000000
 11
174.1145094122065
 21
88.18172384888280
 31
0.0000000000000000
  0
LINE
  5
71
100
AcDbEntity
  8
A2
  6
CONTINUOUS
 62
7
100
AcDbLine
 10
176.1166285550008
 20
88.10002909806435
 30
0.0000000000000000
 11
176.1140811884766
 21
88.22310876812391
 31
0.0000000000000000
  0
LINE
  5
72
100
AcDbEntity
  8
A11
  6
CONTINUOUS
 62
7
100
AcDbLine
 10
161.0777195645377
 20
64.84099573712450
 30
0.0000000000000000
 11
161.1128450926022
 21
64.83107728915510
 31
0.0000000000000000
  0
LINE
  5
73
100
AcDbEntity
  8
A11
  6
CONTINUOUS
 62
7
100
AcDbLine
 10
149.8662881264355
 20
71.74016033985282
 30
0.0000000000000000
 11
144.5316598813376
 21
71.90914284805105
 31
0.0000000000000000
  0
LINE
  5
74
100
AcDbEntity
  8
A11
  6
CONTINUOUS
 62
7
100
AcDbLine
 10
155.2056475493162
 20
73.08806938580226
 30
0.0000000000000000
 11
154.5770536909438
 21
72.75241017791321
 31
0.0000000000000000
  0
LINE
  5
75
100
AcDbEntity
  8
A2
  6
CONTINUOUS
 62
7
100
AcDbLine
 10
174.1162002713538
 20
88.10002756212846
 30
0.0000000000000000
 11
174.1145094122060
 21
88.18172384888197
 31
0.0000000000000000
  0
LINE
  5
76
100
AcDbEntity
  8
A11
  6
CONTINUOUS
 62
7
100
AcDbLine
 10
174.1145094122056
 20
88.18172384888291
 30
0.0000000000000000
 11
170.1670895501200
 21
88.10002452998640
 31
0.0000000000000000
  0
LINE
  5
77
100
AcDbEntity
  8
A11
  6
CONTINUOUS
 62
7
100
AcDbLine
 10
157.5546686936614
 20
74.97815464918686
 30
0.0000000000000000
 11
164.2188288114451
 21
82.24865008818786
 31
0.0000000000000000
  0
CIRCLE
  5
78
100
AcDbEntity
  8
A11
  6
CONTINUOUS
 62
7
100
AcDbCircle
 10
170.2188281577589
 20
83.10002456971031
 30
0.0000000000000000
 40
3.500000000000000
  0
CIRCLE
  5
79
100
AcDbEntity
  8
A11
  6
CONTINUOUS
 62
7
100
AcDbCircle
 10
187.5188281577536
 20
83.10003785271354
 30
0.0000000000000000
 40
3.500000000000000
  0
SPLINE
  5
7A
100
AcDbEntity
  8
A11
  6
CONTINUOUS
 62
7
100
AcDbSpline
210
0.0000000000000000
220
0.0000000000000000
230
1.000000000000000
 70
     8
 71
     3
 72
     9
 73
     5
 74
     0
 42
1.000000000000000e-07
 43
1.000000000000000e-07
 12
0.5101501587341772
 22
-0.8600853536809154
 32
0.0000000000000000
 13
0.5912152803502977
 23
-0.8065137892908751
 33
0.0000000000000000
 40
0.0000000000000000
 40
0.0000000000000000
 40
0.0000000000000000
 40
0.0000000000000000
 40
0.03934744561418610
 40
0.07467408223565100
 40
0.07467408223565100
 40
0.07467408223565100
 40
0.07467408223565100
 10
290.1301346313230
 20
67.55703033781654
 30
0.0000000000000000
 10
290.1368256665316
 20
67.54574961725737
 30
0.0000000000000000
 10
290.1500750719337
 20
67.52466257898234
 30
0.0000000000000000
 10
290.1643307864708
 20
67.50424623224197
 30
0.0000000000000000
 10
290.1712926689287
 20
67.49474909238714
 30
0.0000000000000000
  0
SPLINE
  5
7B
100
AcDbEntity
  8
A11
  6
CONTINUOUS
 62
7
100
AcDbSpline
210
0.0000000000000000
220
0.0000000000000000
230
1.000000000000000
 70
     8
 71
     3
 72
     9
 73
     5
 74
     0
 42
1.000000000000000e-07
 43
1.000000000000000e-07
 12
0.6982819672703044
 22
-0.7158228092157515
 32
0.0000000000000000
 13
0.5820450222076943
 23
-0.8131565606469167
 33
0.0000000000000000
 40
0.0000000000000000
 40
0.0000000000000000
 40
0.0000000000000000
 40
0.0000000000000000
 40
0.02155393357707860
 40
0.4553510552419273
 40
0.4553510552419273
 40
0.4553510552419273
 40
0.4553510552419273
 10
281.0975082458298
 20
80.13630233583788
 30
0.0000000000000000
 10
281.1025251535434
 20
80.13115940341029
 30
0.0000000000000000
 10
281.2081157192528
 20
80.02213375844784
 30
0.0000000000000000
 10
281.3055781228360
 20
79.90475597374851
 30
0.0000000000000000
 10
281.3897412746070
 20
79.78717431525800
 30
0.0000000000000000
  0
SPLINE
  5
7C
100
AcDbEntity
  8
A11
  6
CONTINUOUS
 62
7
100
AcDbSpline
210
0.0000000000000000
220
0.0000000000000000
230
1.000000000000000
 70
     8
 71
     3
 72
     9
 73
     5
 74
     0
 42
1.000000000000000e-07
 43
1.000000000000000e-07
 12
0.9690424929312940
 22
-0.2468939993066215
 32
0.0000000000000000
 13
0.8988385003267467
 23
-0.4382799907953085
 33
0.0000000000000000
 40
0.0000000000000000
 40
0.0000000000000000
 40
0.0000000000000000
 40
0.0000000000000000
 40
0.3845869249053657
 40
0.6124273631731386
 40
0.6124273631731386
 40
0.6124273631731386
 40
0.6124273631731386
 10
279.6906572027023
 20
80.94978128814117
 30
0.0000000000000000
 10
279.8148842268553
 20
80.91813055348419
 30
0.0000000000000000
 10
280.0097909526516
 20
80.85505630006881
 30
0.0000000000000000
 10
280.1966833894884
 20
80.77249558166116
 30
0.0000000000000000
 10
280.2649473087706
 20
80.73920961326556
 30
0.0000000000000000
  0
ARC
  5
7D
100
AcDbEntity
  8
A11
  6
CONTINUOUS
 62
7
100
AcDbCircle
 10
291.7611185211694
 20
68.70819614914242
 30
0.0000000000000000
 40
1.999999999999976
100
AcDbArc
 50
216.0884211019916
 51
217.3464058749948
  0
ARC
  5
7E
100
AcDbEntity
  8
A11
  6
CONTINUOUS
 62
7
100
AcDbCircle
 10
291.7611185211694
 20
68.70819614914242
 30
0.0000000000000000
 40
1.999999999999976
100
AcDbArc
 50
215.5377209492615
 51
216.0884211019916
  0
ARC
  5
7F
100
AcDbEntity
  8
A11
  6
CONTINUOUS
 62
7
100
AcDbCircle
 10
291.7611185211694
 20
68.70819614914242
 30
0.0000000000000000
 40
1.999999999999976
100
AcDbArc
 50
217.3464058749948
 51
390.0000439914191
  0
ARC
  5
80
100
AcDbEntity
  8
A11
  6
CONTINUOUS
 62
7
100
AcDbCircle
 10
282.0085492192890
 20
86.60011040226894
 30
0.0000000000000000
 40
1.500000000000001
100
AcDbArc
 50
71.57913801561430
 51
82.95706635372660
  0
ARC
  5
81
100
AcDbEntity
  8
A11
  6
CONTINUOUS
 62
7
100
AcDbCircle
 10
282.0085492192890
 20
86.60011040226894
 30
0.0000000000000000
 40
1.500000000000001
100
AcDbArc
 50
30.00004399145564
 51
71.57913801561430
  0
ARC
  5
82
100
AcDbEntity
  8
A11
  6
CONTINUOUS
 62
7
100
AcDbCircle
 10
282.0085492192890
 20
86.60011040226894
 30
0.0000000000000000
 40
1.500000000000001
100
AcDbArc
 50
82.95706635372660
 51
90.00004399190938
  0
ARC
  5
83
100
AcDbEntity
  8
A11
  6
CONTINUOUS
 62
7
100
AcDbCircle
 10
278.9455132014190
 20
78.02926079693455
 30
0.0000000000000000
 40
3.014080211640683
100
AcDbArc
 50
75.68687247862213
 51
92.00143025390888
  0
ARC
  5
84
100
AcDbEntity
  8
A11
  6
CONTINUOUS
 62
7
100
AcDbCircle
 10
278.9404630941330
 20
78.03391589817855
 30
0.0000000000000000
 40
3.012120933779922
100
AcDbArc
 50
44.26479820627071
 51
63.91410124979902
  0
ARC
  5
85
100
AcDbEntity
  8
A11
  6
CONTINUOUS
 62
7
100
AcDbCircle
 10
222.1914282160428
 20
74.54777039586978
 30
0.0000000000000000
 40
5.012690278507947
100
AcDbArc
 50
91.53336806878821
 51
106.8201694142727
  0
ARC
  5
86
100
AcDbEntity
  8
A11
  6
CONTINUOUS
 62
7
100
AcDbCircle
 10
222.1985525263955
 20
74.54702071110935
 30
0.0000000000000000
 40
5.016740972729546
100
AcDbArc
 50
116.6040713223420
 51
134.4465570623108
  0
ARC
  5
87
100
AcDbEntity
  8
A11
  6
CONTINUOUS
 62
7
100
AcDbCircle
 10
222.1841635826649
 20
74.56296210408371
 30
0.0000000000000000
 40
4.996047003316074
100
AcDbArc
 50
106.7908356539390
 51
116.5383978343343
  0
ARC
  5
88
100
AcDbEntity
  8
A11
  6
CONTINUOUS
 62
7
100
AcDbCircle
 10
215.7027074692084
 20
75.00005949239724
 30
0.0000000000000000
 40
1.500000000000008
100
AcDbArc
 50
311.5319432056639
 51
356.1212888043994
  0
ARC
  5
89
100
AcDbEntity
  8
A11
  6
CONTINUOUS
 62
7
100
AcDbCircle
 10
222.1878191003208
 20
74.56036967899720
 30
0.0000000000000000
 40
4.999999999999904
100
AcDbArc
 50
141.2406698956019
 51
176.1212888044000
  0
LINE
  5
8A
100
AcDbEntity
  8
A11
  6
CONTINUOUS
 62
7
100
AcDbLine
 10
281.3897412746066
 20
79.78717431525830
 30
0.0000000000000000
 11
290.1336524543763
 21
67.54571853583644
 31
0.0000000000000000
  0
LINE
  5
8B
100
AcDbEntity
  8
A11
  6
CONTINUOUS
 62
7
100
AcDbLine
 10
293.4931685609432
 20
69.70819747900163
 30
0.0000000000000000
 11
288.2014629612883
 21
78.87368418435825
 31
0.0000000000000000
  0
LINE
  5
8C
100
AcDbEntity
  8
A11
  6
CONTINUOUS
 62
7
100
AcDbLine
 10
288.2014629612881
 20
78.87368418435895
 30
0.0000000000000000
 11
283.3075867491127
 21
87.35011139967503
 31
0.0000000000000000
  0
LINE
  5
8D
100
AcDbEntity
  8
A11
  6
CONTINUOUS
 62
7
100
AcDbLine
 10
222.0572930006036
 20
79.55866568236527
 30
0.0000000000000000
 11
278.8402481254795
 21
81.04150228559207
 31
0.0000000000000000
  0
LINE
  5
8E
100
AcDbEntity
  8
A11
  6
CONTINUOUS
 62
7
100
AcDbLine
 10
202.7862685388440
 20
88.10004957511170
 30
0.0000000000000000
 11
282.0085480675833
 21
88.10011040226820
 31
0.0000000000000000
  0
LINE
  5
8F
100
AcDbEntity
  8
A11
  6
CONTINUOUS
 62
7
100
AcDbLine
 10
218.2889068924040
 20
77.69062156236816
 30
0.0000000000000000
 11
218.6856114091559
 21
78.12849173490252
 31
0.0000000000000000
  0
LINE
  5
90
100
AcDbEntity
  8
A10
  6
CONTINUOUS
 62
7
100
AcDbLine
 10
145.4105146526804
 20
67.35038099476229
 30
0.0000000000000000
 11
146.4544873122821
 21
66.65807871006005
 31
0.0000000000000000
  0
LINE
  5
91
100
AcDbEntity
  8
A10
  6
CONTINUOUS
 62
7
100
AcDbLine
 10
147.1364413236223
 20
66.36620459811229
 30
0.0000000000000000
 11
148.1666817072368
 21
66.11427268340913
 31
0.0000000000000000
  0
SPLINE
  5
92
100
AcDbEntity
  8
A9
  6
CONTINUOUS
 62
7
100
AcDbSpline
210
0.0000000000000000
220
0.0000000000000000
230
1.000000000000000
 70
     8
 71
     3
 72
    16
 73
    12
 74
     0
 42
1.000000000000000e-07
 43
1.000000000000000e-07
 12
0.9999999049309736
 22
-0.0004360552861726319
 32
0.0000000000000000
 13
0.8888116102575623
 23
0.4582727588190210
 33
0.0000000000000000
 40
0.0000000000000000
 40
0.0000000000000000
 40
0.0000000000000000
 40
0.0000000000000000
 40
0.2379635130711638
 40
0.4517038881473837
 40
0.6411090675473410
 40
0.8061482112351974
 40
0.9469039715529644
 40
1.115625324833372
 40
1.400615499192303
 40
1.659261659101106
 40
1.891792096968262
 40
1.891792096968262
 40
1.891792096968262
 40
1.891792096968262
 10
214.0529413559677
 20
223.5599739062601
 30
0.0000000000000000
 10
214.1322625194504
 20
223.5599393178441
 30
0.0000000000000000
 10
214.2828605972686
 20
223.5636619768335
 30
0.0000000000000000
 10
214.4960730161521
 20
223.5791157521577
 30
0.0000000000000000
 10
214.6842584786977
 20
223.6009565357841
 30
0.0000000000000000
 10
214.8474055263834
 20
223.6262954360314
 30
0.0000000000000000
 10
215.0027982267763
 20
223.6559695956267
 30
0.0000000000000000
 10
215.1959650950077
 20
223.7003751154872
 30
0.0000000000000000
 10
215.4242029959675
 20
223.7667188962538
 30
0.0000000000000000
 10
215.6667697057675
 20
223.8574621864883
 30
0.0000000000000000
 10
215.8150846876326
 20
223.9272520004457
 30
0.0000000000000000
 10
215.8839766052708
 20
223.9627727888693
 30
0.0000000000000000
  0
SPLINE
  5
93
100
AcDbEntity
  8
A9
  6
CONTINUOUS
 62
7
100
AcDbSpline
210
0.0000000000000000
220
0.0000000000000000
230
1.000000000000000
 70
     8
 71
     3
 72
    12
 73
     8
 74
     0
 42
1.000000000000000e-07
 43
1.000000000000000e-07
 12
0.8848020597260984
 22
0.4659670751286740
 32
0.0000000000000000
 13
0.7522223677508464
 23
0.6589093332579523
 33
0.0000000000000000
 40
0.0000000000000000
 40
0.0000000000000000
 40
0.0000000000000000
 40
0.0000000000000000
 40
0.3951266898545567
 40
0.7751095459002373
 40
1.140046728007534
 40
1.550676328414703
 40
1.939762712891485
 40
1.939762712891485
 40
1.939762712891485
 40
1.939762712891485
 10
215.8839766052708
 20
223.9627727888693
 30
0.0000000000000000
 10
216.0005129082828
 20
224.0241447981949
 30
0.0000000000000000
 10
216.2262560578917
 20
224.1500688604225
 30
0.0000000000000000
 10
216.5490851383808
 20
224.3507972203812
 30
0.0000000000000000
 10
216.8667331820358
 20
224.5688872081515
 30
0.0000000000000000
 10
217.1762304984358
 20
224.8035022986834
 30
0.0000000000000000
 10
217.3808608195431
 20
224.9745163562016
 30
0.0000000000000000
 10
217.4784206466733
 20
225.0599739062601
 30
0.0000000000000000
  0
SPLINE
  5
94
100
AcDbEntity
  8
A9
  6
CONTINUOUS
 62
7
100
AcDbSpline
210
0.0000000000000000
220
0.0000000000000000
230
1.000000000000000
 70
     8
 71
     3
 72
    15
 73
    11
 74
     0
 42
1.000000000000000e-07
 43
1.000000000000000e-07
 12
-0.8881166417959321
 22
0.4596181355864246
 32
0.0000000000000000
 13
-0.9999997909728791
 23
-0.0006465717638093338
 33
0.0000000000000000
 40
0.0000000000000000
 40
0.0000000000000000
 40
0.0000000000000000
 40
0.0000000000000000
 40
0.1751419249979311
 40
0.3654863549946107
 40
0.5712427651639851
 40
0.7925220635811916
 40
0.9826983769414874
 40
1.225644159037744
 40
1.528717192320282
 40
1.891759261299624
 40
1.891759261299624
 40
1.891759261299624
 40
1.891759261299624
 10
215.8839766052706
 20
203.7571750236503
 30
0.0000000000000000
 10
215.8321277858483
 20
203.7840078253272
 30
0.0000000000000000
 10
215.7223064485558
 20
203.8369433294702
 30
0.0000000000000000
 10
215.5458294226816
 20
203.9087559127807
 30
0.0000000000000000
 10
215.3509388226050
 20
203.9751997665963
 30
0.0000000000000000
 10
215.1525781974701
 20
204.0302391466422
 30
0.0000000000000000
 10
214.9396084602487
 20
204.0777539101260
 30
0.0000000000000000
 10
214.6975306305960
 20
204.1187759929613
 30
0.0000000000000000
 10
214.3961019470086
 20
204.1516254817016
 30
0.0000000000000000
 10
214.1739553536656
 20
204.1600521505148
 30
0.0000000000000000
 10
214.0529413559677
 20
204.1599739062645
 30
0.0000000000000000
  0
SPLINE
  5
95
100
AcDbEntity
  8
A9
  6
CONTINUOUS
 62
7
100
AcDbSpline
210
0.0000000000000000
220
0.0000000000000000
230
1.000000000000000
 70
     8
 71
     3
 72
    11
 73
     7
 74
     0
 42
1.000000000000000e-07
 43
1.000000000000000e-07
 12
-0.9999877162038047
 22
-0.004956555579610722
 32
0.0000000000000000
 13
-0.9999951431354930
 23
0.003116681622032047
 33
0.0000000000000000
 40
0.0000000000000000
 40
0.0000000000000000
 40
0.0000000000000000
 40
0.0000000000000000
 40
0.4684469139735970
 40
0.9412639743526248
 40
1.314939722817936
 40
1.685240835283495
 40
1.685240835283495
 40
1.685240835283495
 40
1.685240835283495
 10
188.3667173643600
 20
228.3599739062598
 30
0.0000000000000000
 10
188.2105703111376
 20
228.3591999452047
 30
0.0000000000000000
 10
187.8968187841221
 20
228.3581791348571
 30
0.0000000000000000
 10
187.4585046488957
 20
228.3557941248506
 30
0.0000000000000000
 10
187.0529134909966
 20
228.3588948537036
 30
0.0000000000000000
 10
186.8049224284979
 20
228.3595892027025
 30
0.0000000000000000
 10
186.6814893238436
 20
228.3599739062598
 30
0.0000000000000000
  0
SPLINE
  5
96
100
AcDbEntity
  8
A9
  6
CONTINUOUS
 62
7
100
AcDbSpline
210
0.0000000000000000
220
0.0000000000000000
230
1.000000000000000
 70
     8
 71
     3
 72
    11
 73
     7
 74
     0
 42
1.000000000000000e-07
 43
1.000000000000000e-07
 12
-0.9999877162024404
 22
-0.004956555579610722
 32
0.0000000000000000
 13
-0.9999951431370846
 23
0.003116681622032047
 33
0.0000000000000000
 40
0.0000000000000000
 40
0.0000000000000000
 40
0.0000000000000000
 40
0.0000000000000000
 40
0.4684469139735899
 40
0.9412639743526177
 40
1.314939722817921
 40
1.685240835283480
 40
1.685240835283480
 40
1.685240835283480
 40
1.685240835283480
 10
171.0667370140577
 20
228.3599739062598
 30
0.0000000000000000
 10
170.9105899608355
 20
228.3591999452047
 30
0.0000000000000000
 10
170.5968384338200
 20
228.3581791348571
 30
0.0000000000000000
 10
170.1585242985936
 20
228.3557941248506
 30
0.0000000000000000
 10
169.7529331406944
 20
228.3588948537036
 30
0.0000000000000000
 10
169.5049420781961
 20
228.3595892027025
 30
0.0000000000000000
 10
169.3815089735414
 20
228.3599739062598
 30
0.0000000000000000
  0
SPLINE
  5
97
100
AcDbEntity
  8
A9
  6
CONTINUOUS
 62
7
100
AcDbSpline
210
0.0000000000000000
220
0.0000000000000000
230
1.000000000000000
 70
     8
 71
     3
 72
    11
 73
     7
 74
     0
 42
1.000000000000000e-07
 43
1.000000000000000e-07
 12
0.9999877307884617
 22
0.004953612374947625
 32
0.0000000000000000
 13
0.9999951349609546
 23
-0.003119303590665368
 33
0.0000000000000000
 40
0.0000000000000000
 40
0.0000000000000000
 40
0.0000000000000000
 40
0.0000000000000000
 40
0.4686898742542550
 40
0.9415612791012919
 40
1.315147069954514
 40
1.685240835479704
 40
1.685240835479704
 40
1.685240835479704
 40
1.685240835479704
 10
186.6814893238436
 20
199.3599739062598
 30
0.0000000000000000
 10
186.8377173651099
 20
199.3607478089135
 30
0.0000000000000000
 10
187.1515679949545
 20
199.3617680427015
 30
0.0000000000000000
 10
187.5899512466710
 20
199.3641538853418
 30
0.0000000000000000
 10
187.9954614166565
 20
199.3610533664315
 30
0.0000000000000000
 10
188.2433533760251
 20
199.3603587178637
 30
0.0000000000000000
 10
188.3667173643600
 20
199.3599739062598
 30
0.0000000000000000
  0
SPLINE
  5
98
100
AcDbEntity
  8
A9
  6
CONTINUOUS
 62
7
100
AcDbSpline
210
0.0000000000000000
220
0.0000000000000000
230
1.000000000000000
 70
     8
 71
     3
 72
    11
 73
     7
 74
     0
 42
1.000000000000000e-07
 43
1.000000000000000e-07
 12
0.9999877307884617
 22
0.004953612374720251
 32
0.0000000000000000
 13
0.9999951349591356
 23
-0.003119303590665368
 33
0.0000000000000000
 40
0.0000000000000000
 40
0.0000000000000000
 40
0.0000000000000000
 40
0.0000000000000000
 40
0.4686898742542337
 40
0.9415612791012706
 40
1.315147069954499
 40
1.685240835479690
 40
1.685240835479690
 40
1.685240835479690
 40
1.685240835479690
 10
169.3815089735414
 20
199.3599739062598
 30
0.0000000000000000
 10
169.5377370148078
 20
199.3607478089135
 30
0.0000000000000000
 10
169.8515876446524
 20
199.3617680427015
 30
0.0000000000000000
 10
170.2899708963689
 20
199.3641538853418
 30
0.0000000000000000
 10
170.6954810663544
 20
199.3610533664315
 30
0.0000000000000000
 10
170.9433730257230
 20
199.3603587178637
 30
0.0000000000000000
 10
171.0667370140577
 20
199.3599739062598
 30
0.0000000000000000
  0
ARC
  5
99
100
AcDbEntity
  8
A9
  6
CONTINUOUS
 62
7
100
AcDbCircle
 10
182.4518827481938
 20
187.5599752062600
 30
0.0000000000000000
 40
1.000000000000036
100
AcDbArc
 50
218.5359573928741
 51
269.9999999999994
  0
ARC
  5
9A
100
AcDbEntity
  8
A9
  6
CONTINUOUS
 62
7
100
AcDbCircle
 10
182.4518827481938
 20
240.1599726062601
 30
0.0000000000000000
 40
1.000000000000001
100
AcDbArc
 50
90.00000000000040
 51
141.4640426071275
  0
ARC
  5
9B
100
AcDbEntity
  8
A9
  6
CONTINUOUS
 62
7
100
AcDbCircle
 10
206.8448757524877
 20
187.5599752062600
 30
0.0000000000000000
 40
1.000000000000016
100
AcDbArc
 50
269.9999999999993
 51
318.4925608638870
  0
ARC
  5
9C
100
AcDbEntity
  8
A9
  6
CONTINUOUS
 62
7
100
AcDbCircle
 10
206.8448757524877
 20
240.1599726062601
 30
0.0000000000000000
 40
1.000000000000001
100
AcDbArc
 50
41.50743913611348
 51
90.00000000000031
  0
ARC
  5
9D
100
AcDbEntity
  8
A9
  6
CONTINUOUS
 62
7
100
AcDbCircle
 10
218.6804868095311
 20
226.8896796236860
 30
0.0000000000000000
 40
1.499806976397370
100
AcDbArc
 50
23.97136702570760
 51
81.21037167158156
  0
ARC
  5
9E
100
AcDbEntity
  8
A9
  6
CONTINUOUS
 62
7
100
AcDbCircle
 10
218.6803424824829
 20
200.8305118736021
 30
0.0000000000000000
 40
1.500069857225512
100
AcDbArc
 50
278.7936539471331
 51
334.0926186385009
  0
ARC
  5
9F
100
AcDbEntity
  8
A9
  6
CONTINUOUS
 62
7
100
AcDbCircle
 10
182.4586651306412
 20
187.5599752062600
 30
0.0000000000000000
 40
1.000000000000001
100
AcDbArc
 50
218.5359573928725
 51
270.0000000000000
  0
ARC
  5
A0
100
AcDbEntity
  8
A9
  6
CONTINUOUS
 62
7
100
AcDbCircle
 10
182.4586651306419
 20
240.1599726062601
 30
0.0000000000000000
 40
1.000000000000001
100
AcDbArc
 50
90.00000000000040
 51
141.4640426078830
  0
ARC
  5
A1
100
AcDbEntity
  8
A9
  6
CONTINUOUS
 62
7
100
AcDbCircle
 10
219.0730731470255
 20
229.3599739062598
 30
0.0000000000000000
 40
1.000000000000001
100
AcDbArc
 50
256.9677425597741
 51
257.4514285810677
  0
ARC
  5
A2
100
AcDbEntity
  8
A9
  6
CONTINUOUS
 62
7
100
AcDbCircle
 10
219.0730731470255
 20
229.3599739062598
 30
0.0000000000000000
 40
1.000000000000001
100
AcDbArc
 50
221.5074391361126
 51
244.2847332034898
  0
ARC
  5
A3
100
AcDbEntity
  8
A9
  6
CONTINUOUS
 62
7
100
AcDbCircle
 10
219.0730731470255
 20
229.3599739062598
 30
0.0000000000000000
 40
1.000000000000001
100
AcDbArc
 50
245.2371546472582
 51
256.9677425597741
  0
ARC
  5
A4
100
AcDbEntity
  8
A9
  6
CONTINUOUS
 62
7
100
AcDbCircle
 10
219.0730731470255
 20
198.3599739062598
 30
0.0000000000000000
 40
1.000000000000001
100
AcDbArc
 50
102.5485714169385
 51
103.4500527772047
  0
ARC
  5
A5
100
AcDbEntity
  8
A9
  6
CONTINUOUS
 62
7
100
AcDbCircle
 10
219.0730731470255
 20
198.3599739062598
 30
0.0000000000000000
 40
1.000000000000001
100
AcDbArc
 50
107.2718073182899
 51
138.4925608638612
  0
ARC
  5
A6
100
AcDbEntity
  8
A9
  6
CONTINUOUS
 62
7
100
AcDbCircle
 10
218.6974154699985
 20
226.8599739062598
 30
0.0000000000000000
 40
1.500000000000001
100
AcDbArc
 50
0.0000000000000000
 51
89.99999693364336
  0
ARC
  5
A7
100
AcDbEntity
  8
A9
  6
CONTINUOUS
 62
7
100
AcDbCircle
 10
218.6974154699985
 20
200.8599739062598
 30
0.0000000000000000
 40
1.500000000000001
100
AcDbArc
 50
270.0000000000000
 51
360.0000000000000
  0
ARC
  5
A8
100
AcDbEntity
  8
A9
  6
CONTINUOUS
 62
7
100
AcDbCircle
 10
211.1101099233971
 20
222.5599739062601
 30
0.0000000000000000
 40
1.000000000000001
100
AcDbArc
 50
53.13013359147890
 51
90.00000000000000
  0
ARC
  5
A9
100
AcDbEntity
  8
A9
  6
CONTINUOUS
 62
7
100
AcDbCircle
 10
211.1101099233971
 20
205.1599739062600
 30
0.0000000000000000
 40
1.000000000000001
100
AcDbArc
 50
270.0000000000000
 51
306.8698664085192
  0
ARC
  5
AA
100
AcDbEntity
  8
A9
  6
CONTINUOUS
 62
7
100
AcDbCircle
 10
165.6734863160520
 20
200.8599739062598
 30
0.0000000000000000
 40
1.500000000000001
100
AcDbArc
 50
180.0000000000000
 51
270.0000000000000
  0
ARC
  5
AB
100
AcDbEntity
  8
A9
  6
CONTINUOUS
 62
7
100
AcDbCircle
 10
165.6734863160520
 20
226.8599739062598
 30
0.0000000000000000
 40
1.500000000000001
100
AcDbArc
 50
90.00000000000000
 51
180.0000000000000
  0
ARC
  5
AC
100
AcDbEntity
  8
A9
  6
CONTINUOUS
 62
7
100
AcDbCircle
 10
212.0258376409844
 20
196.4434404658692
 30
0.0000000000000000
 40
8.268975114814870
100
AcDbArc
 50
48.74567873286334
 51
62.18747070209933
  0
LINE
  5
AD
100
AcDbEntity
  8
A9
  6
CONTINUOUS
 62
7
100
AcDbLine
 10
182.4518827481940
 20
186.5599752062603
 30
0.0000000000000000
 11
182.4586651306414
 21
186.5599752062603
 31
0.0000000000000000
  0
LINE
  5
AE
100
AcDbEntity
  8
A9
  6
CONTINUOUS
 62
7
100
AcDbLine
 10
182.4586651306417
 20
241.1599726062603
 30
0.0000000000000000
 11
182.4518827481940
 21
241.1599726062603
 31
0.0000000000000000
  0
LINE
  5
AF
100
AcDbEntity
  8
A9
  6
CONTINUOUS
 62
7
100
AcDbLine
 10
181.6696659636050
 20
186.9369699799799
 30
0.0000000000000000
 11
172.1921371941029
 21
198.8365473960295
 31
0.0000000000000000
  0
LINE
  5
B0
100
AcDbEntity
  8
A9
  6
CONTINUOUS
 62
7
100
AcDbLine
 10
172.5482727782055
 20
229.3305489355510
 30
0.0000000000000000
 11
181.6696659636057
 21
240.7829778325405
 31
0.0000000000000000
  0
LINE
  5
B1
100
AcDbEntity
  8
A9
  6
CONTINUOUS
 62
7
100
AcDbLine
 10
207.5937449570756
 20
186.8972583432869
 30
0.0000000000000000
 11
218.3242039424373
 21
199.0226907692338
 31
0.0000000000000000
  0
LINE
  5
B2
100
AcDbEntity
  8
A9
  6
CONTINUOUS
 62
7
100
AcDbLine
 10
218.3242039424368
 20
228.6972570432863
 30
0.0000000000000000
 11
207.5937449570753
 21
240.8226894692328
 31
0.0000000000000000
  0
LINE
  5
B3
100
AcDbEntity
  8
A9
  6
CONTINUOUS
 62
7
100
AcDbLine
 10
206.8448757524876
 20
241.1599726062603
 30
0.0000000000000000
 11
182.4586651306417
 21
241.1599726062603
 31
0.0000000000000000
  0
LINE
  5
B4
100
AcDbEntity
  8
A9
  6
CONTINUOUS
 62
7
100
AcDbLine
 10
182.4586651306414
 20
186.5599752062603
 30
0.0000000000000000
 11
206.8448757524878
 21
186.5599752062603
 31
0.0000000000000000
  0
LINE
  5
B5
100
AcDbEntity
  8
A9
  6
CONTINUOUS
 62
7
100
AcDbLine
 10
220.1974137662676
 20
223.2499053776577
 30
0.0000000000000000
 11
220.1974137662676
 21
226.8599739062600
 31
0.0000000000000000
  0
LINE
  5
B6
100
AcDbEntity
  8
A9
  6
CONTINUOUS
 62
7
100
AcDbLine
 10
220.1974137662676
 20
200.8599739062601
 30
0.0000000000000000
 11
220.1974137662676
 21
204.4700424348625
 31
0.0000000000000000
  0
LINE
  5
B7
100
AcDbEntity
  8
A9
  6
CONTINUOUS
 62
7
100
AcDbLine
 10
218.6974172539523
 20
228.3599739062600
 30
0.0000000000000000
 11
218.2961586379407
 21
228.3599739062600
 31
0.0000000000000000
  0
LINE
  5
B8
100
AcDbEntity
  8
A9
  6
CONTINUOUS
 62
7
100
AcDbLine
 10
218.2961586270733
 20
199.3599739062601
 30
0.0000000000000000
 11
218.6974171737295
 21
199.3599739062601
 31
0.0000000000000000
  0
LINE
  5
B9
100
AcDbEntity
  8
A9
  6
CONTINUOUS
 62
7
100
AcDbLine
 10
165.6878046789968
 20
223.5599739062599
 30
0.0000000000000000
 11
165.7188529186449
 21
223.5599739062599
 31
0.0000000000000000
  0
LINE
  5
BA
100
AcDbEntity
  8
A9
  6
CONTINUOUS
 62
7
100
AcDbLine
 10
165.7188529186450
 20
204.1599739062603
 30
0.0000000000000000
 11
165.6878046789967
 21
204.1599739062603
 31
0.0000000000000000
  0
LINE
  5
BB
100
AcDbEntity
  8
A9
  6
CONTINUOUS
 62
7
100
AcDbLine
 10
165.6734863160522
 20
199.3599739062601
 30
0.0000000000000000
 11
165.7188529186450
 21
199.3599739062601
 31
0.0000000000000000
  0
LINE
  5
BC
100
AcDbEntity
  8
A9
  6
CONTINUOUS
 62
7
100
AcDbLine
 10
165.7188529186450
 20
228.3599739062600
 30
0.0000000000000000
 11
165.6734863160522
 21
228.3599739062600
 31
0.0000000000000000
  0
LINE
  5
BD
100
AcDbEntity
  8
A9
  6
CONTINUOUS
 62
7
100
AcDbLine
 10
164.1878063827280
 20
225.0599739062597
 30
0.0000000000000000
 11
164.1871872398982
 21
225.0356958744711
 31
0.0000000000000000
  0
LINE
  5
BE
100
AcDbEntity
  8
A9
  6
CONTINUOUS
 62
7
100
AcDbLine
 10
164.1734880197831
 20
223.3599739062427
 30
0.0000000000000000
 11
164.1734880197831
 21
226.8599739062600
 31
0.0000000000000000
  0
LINE
  5
BF
100
AcDbEntity
  8
A9
  6
CONTINUOUS
 62
7
100
AcDbLine
 10
164.1734880197831
 20
200.8599739062601
 30
0.0000000000000000
 11
164.1734880197831
 21
204.3599739062774
 31
0.0000000000000000
  0
LINE
  5
C0
100
AcDbEntity
  8
A9
  6
CONTINUOUS
 62
7
100
AcDbLine
 10
167.3155245760962
 20
199.3599739062601
 30
0.0000000000000000
 11
167.1086905232527
 21
199.3599739062601
 31
0.0000000000000000
  0
LINE
  5
C1
100
AcDbEntity
  8
A9
  6
CONTINUOUS
 62
7
100
AcDbLine
 10
167.1086905232527
 20
199.3599739062601
 30
0.0000000000000000
 11
166.6188478074517
 21
199.3599739062601
 31
0.0000000000000000
  0
LINE
  5
C2
100
AcDbEntity
  8
A9
  6
CONTINUOUS
 62
7
100
AcDbLine
 10
166.6188478074517
 20
228.3599739062600
 30
0.0000000000000000
 11
167.6188478074517
 21
228.3599739062600
 31
0.0000000000000000
  0
LINE
  5
C3
100
AcDbEntity
  8
A9
  6
CONTINUOUS
 62
7
100
AcDbLine
 10
202.7915302231362
 20
199.3599739062599
 30
0.0000000000000000
 11
218.2961586270734
 21
199.3599739062599
 31
0.0000000000000000
  0
LINE
  5
C4
100
AcDbEntity
  8
A9
  6
CONTINUOUS
 62
7
100
AcDbLine
 10
202.7915302231362
 20
223.5599739062603
 30
0.0000000000000000
 11
214.0529413559678
 21
223.5599739062603
 31
0.0000000000000000
  0
LINE
  5
C5
100
AcDbEntity
  8
A9
  6
CONTINUOUS
 62
7
100
AcDbLine
 10
218.2961586379408
 20
228.3599739062602
 30
0.0000000000000000
 11
202.7915302231360
 21
228.3599739062602
 31
0.0000000000000000
  0
LINE
  5
C6
100
AcDbEntity
  8
A9
  6
CONTINUOUS
 62
7
100
AcDbLine
 10
214.0529413559678
 20
204.1599739062649
 30
0.0000000000000000
 11
202.7915302231361
 21
204.1599739062601
 31
0.0000000000000000
  0
LINE
  5
C7
100
AcDbEntity
  8
A9
  6
CONTINUOUS
 62
7
100
AcDbLine
 10
169.3815089735416
 20
228.3599739062600
 30
0.0000000000000000
 11
169.2241241296205
 21
228.3599739062600
 31
0.0000000000000000
  0
LINE
  5
C8
100
AcDbEntity
  8
A9
  6
CONTINUOUS
 62
7
100
AcDbLine
 10
202.7915302231362
 20
228.3599739062600
 30
0.0000000000000000
 11
188.3667173643602
 21
228.3599739062600
 31
0.0000000000000000
  0
LINE
  5
C9
100
AcDbEntity
  8
A9
  6
CONTINUOUS
 62
7
100
AcDbLine
 10
186.6814893238439
 20
228.3599739062596
 30
0.0000000000000000
 11
171.0667370140577
 21
228.3599739062596
 31
0.0000000000000000
  0
LINE
  5
CA
100
AcDbEntity
  8
A9
  6
CONTINUOUS
 62
7
100
AcDbLine
 10
169.2241241296201
 20
223.5599739062603
 30
0.0000000000000000
 11
202.7915302231361
 21
223.5599739062603
 31
0.0000000000000000
  0
LINE
  5
CB
100
AcDbEntity
  8
A9
  6
CONTINUOUS
 62
7
100
AcDbLine
 10
171.0667370140578
 20
199.3599739062601
 30
0.0000000000000000
 11
186.6814893238437
 21
199.3599739062601
 31
0.0000000000000000
  0
LINE
  5
CC
100
AcDbEntity
  8
A9
  6
CONTINUOUS
 62
7
100
AcDbLine
 10
188.3667173643602
 20
199.3599739062601
 30
0.0000000000000000
 11
202.7915302231362
 21
199.3599739062601
 31
0.0000000000000000
  0
LINE
  5
CD
100
AcDbEntity
  8
A9
  6
CONTINUOUS
 62
7
100
AcDbLine
 10
169.2241241296205
 20
199.3599739062601
 30
0.0000000000000000
 11
169.3815089735416
 21
199.3599739062601
 31
0.0000000000000000
  0
LINE
  5
CE
100
AcDbEntity
  8
A9
  6
CONTINUOUS
 62
7
100
AcDbLine
 10
202.7915302231362
 20
204.1599739062603
 30
0.0000000000000000
 11
169.2241241296205
 21
204.1599739062603
 31
0.0000000000000000
  0
LINE
  5
CF
100
AcDbEntity
  8
A9
  6
CONTINUOUS
 62
7
100
AcDbLine
 10
169.2241241296205
 20
228.3599739062600
 30
0.0000000000000000
 11
165.7188529186450
 21
228.3599739062600
 31
0.0000000000000000
  0
LINE
  5
D0
100
AcDbEntity
  8
A9
  6
CONTINUOUS
 62
7
100
AcDbLine
 10
169.2241241296205
 20
199.3599739062601
 30
0.0000000000000000
 11
165.7188529186450
 21
199.3599739062601
 31
0.0000000000000000
  0
LINE
  5
D1
100
AcDbEntity
  8
A9
  6
CONTINUOUS
 62
7
100
AcDbLine
 10
169.2241241296205
 20
204.1599739062603
 30
0.0000000000000000
 11
165.7188529186450
 21
204.1599739062603
 31
0.0000000000000000
  0
LINE
  5
D2
100
AcDbEntity
  8
A9
  6
CONTINUOUS
 62
7
100
AcDbLine
 10
169.2241241296203
 20
223.5599739062601
 30
0.0000000000000000
 11
165.7188529186448
 21
223.5599739062601
 31
0.0000000000000000
  0
SPLINE
  5
D3
100
AcDbEntity
  8
A9
  6
CONTINUOUS
 62
7
100
AcDbSpline
210
0.0000000000000000
220
0.0000000000000000
230
1.000000000000000
 70
     8
 71
     3
 72
    12
 73
     8
 74
     0
 42
1.000000000000000e-07
 43
1.000000000000000e-07
 12
-0.9999503431770336
 22
-0.009965499543341139
 32
0.0000000000000000
 13
-0.9996555164793790
 23
0.02624592105894408
 33
0.0000000000000000
 40
0.0000000000000000
 40
0.0000000000000000
 40
0.0000000000000000
 40
0.0000000000000000
 40
0.2999266503224743
 40
0.5726814733960506
 40
0.8202907175203298
 40
1.073152791226873
 40
1.277245834183220
 40
1.277245834183220
 40
1.277245834183220
 40
1.277245834183220
 10
168.7609574543177
 20
223.3599739062330
 30
0.0000000000000000
 10
168.6609868686784
 20
223.3589775999340
 30
0.0000000000000000
 10
168.4701000645902
 20
223.3568531790357
 30
0.0000000000000000
 10
168.1967456259042
 20
223.3504485404397
 30
0.0000000000000000
 10
167.9389741938350
 20
223.3488304593762
 30
0.0000000000000000
 10
167.7041768641135
 20
223.3547674388288
 30
0.0000000000000000
 10
167.5518997321412
 20
223.3581883696016
 30
0.0000000000000000
 10
167.4838921533857
 20
223.3599739062330
 30
0.0000000000000000
  0
SPLINE
  5
D4
100
AcDbEntity
  8
A9
  6
CONTINUOUS
 62
7
100
AcDbSpline
210
0.0000000000000000
220
0.0000000000000000
230
1.000000000000000
 70
     8
 71
     3
 72
    12
 73
     8
 74
     0
 42
1.000000000000000e-07
 43
1.000000000000000e-07
 12
0.9997574408957917
 22
0.02202406361266185
 32
0.0000000000000000
 13
0.9999128479480532
 23
-0.01320214037286860
 33
0.0000000000000000
 40
0.0000000000000000
 40
0.0000000000000000
 40
0.0000000000000000
 40
0.0000000000000000
 40
0.1698174356906363
 40
0.3762352404115952
 40
0.6140265131851106
 40
0.9269745798322186
 40
1.277245954679785
 40
1.277245954679785
 40
1.277245954679785
 40
1.277245954679785
 10
167.4838921532968
 20
204.3599739062871
 30
0.0000000000000000
 10
167.5404842349387
 20
204.3612205962891
 30
0.0000000000000000
 10
167.6658681393996
 20
204.3638520313621
 30
0.0000000000000000
 10
167.8704571029381
 20
204.3700942204760
 30
0.0000000000000000
 10
168.1228795619706
 20
204.3707127951130
 30
0.0000000000000000
 10
168.4231517573075
 20
204.3641327559995
 30
0.0000000000000000
 10
168.6442105051676
 20
204.3615153502402
 30
0.0000000000000000
 10
168.7609574544937
 20
204.3599739062871
 30
0.0000000000000000
  0
ELLIPSE
  5
D5
100
AcDbEntity
  8
A9
  6
CONTINUOUS
 62
7
100
AcDbEllipse
 10
176.2146966883622
 20
208.5599739095365
 30
0.0000000000000000
 11
0.0000000000000000
 21
1.000000000000000
 31
0.0000000000000000
210
0.0000000000000000
220
0.0000000000000000
230
1.000000000000000
 40
0.9998159548828585
 41
0.0000000000000000
 42
1.570796326794897
  0
ELLIPSE
  5
D6
100
AcDbEntity
  8
A9
  6
CONTINUOUS
 62
7
100
AcDbEllipse
 10
176.2146966883622
 20
219.1599739062600
 30
0.0000000000000000
 11
0.0000000000000000
 21
-1.000000000000000
 31
0.0000000000000000
210
0.0000000000000000
220
0.0000000000000000
230
1.000000000000000
 40
0.9998159548828585
 41
4.712388980384690
 42
0.0000000000000000
  0
ARC
  5
D7
100
AcDbEntity
  8
A9
  6
CONTINUOUS
 62
7
100
AcDbCircle
 10
174.5409957812646
 20
208.5599739062601
 30
0.0000000000000000
 40
1.000000000000003
100
AcDbArc
 50
1.984666121233234e-12
 51
33.18292391637394
  0
ARC
  5
D8
100
AcDbEntity
  8
A9
  6
CONTINUOUS
 62
7
100
AcDbCircle
 10
174.5409957812646
 20
205.3599739062598
 30
0.0000000000000000
 40
0.9999999999999893
100
AcDbArc
 50
270.0000000000000
 51
360.0000000000005
  0
ARC
  5
D9
100
AcDbEntity
  8
A9
  6
CONTINUOUS
 62
7
100
AcDbCircle
 10
174.5409957812646
 20
222.3599739062598
 30
0.0000000000000000
 40
0.9999999999999996
100
AcDbArc
 50
0.0000000000000000
 51
89.99999999999842
  0
ARC
  5
DA
100
AcDbEntity
  8
A9
  6
CONTINUOUS
 62
7
100
AcDbCircle
 10
174.5409957812646
 20
219.1599739062600
 30
0.0000000000000000
 40
1.000000000000001
100
AcDbArc
 50
326.8170761950838
 51
359.9999999999996
  0
ARC
  5
DB
100
AcDbEntity
  8
A9
  6
CONTINUOUS
 62
7
100
AcDbCircle
 10
144.4816654700355
 20
218.6373507727390
 30
0.0000000000000000
 40
0.9999999999999987
100
AcDbArc
 50
108.0542800191610
 51
179.9999999999998
  0
ARC
  5
DC
100
AcDbEntity
  8
A9
  6
CONTINUOUS
 62
7
100
AcDbCircle
 10
144.4816654700355
 20
209.0825970397806
 30
0.0000000000000000
 40
0.9999999999999941
100
AcDbArc
 50
179.9999999999994
 51
252.5310997230456
  0
ARC
  5
DD
100
AcDbEntity
  8
A9
  6
CONTINUOUS
 62
7
100
AcDbCircle
 10
-413.5894292514593
 20
2011.105876673668
 30
0.0000000000000000
 40
1876.326249191094
100
AcDbArc
 50
287.4642368040734
 51
287.6524201841075
  0
ARC
  5
DE
100
AcDbEntity
  8
A9
  6
CONTINUOUS
 62
7
100
AcDbCircle
 10
-410.3411875157195
 20
-1573.120274396224
 30
0.0000000000000000
 40
1865.558964412479
100
AcDbArc
 50
72.34703675455816
 51
72.53630625726079
  0
ARC
  5
DF
100
AcDbEntity
  8
A9
  6
CONTINUOUS
 62
7
100
AcDbCircle
 10
156.8763412573680
 20
218.4694118879389
 30
0.0000000000000000
 40
4.890562369205434
100
AcDbArc
 50
89.97829598297602
 51
107.6784600445075
  0
ARC
  5
E0
100
AcDbEntity
  8
A9
  6
CONTINUOUS
 62
7
100
AcDbCircle
 10
156.8756314868821
 20
209.2459660584410
 30
0.0000000000000000
 40
4.885992824063323
100
AcDbArc
 50
252.3131965058805
 51
270.0300474666362
  0
ARC
  5
E1
100
AcDbEntity
  8
A9
  6
CONTINUOUS
 62
7
100
AcDbCircle
 10
179.7048029028658
 20
217.1599739062600
 30
0.0000000000000000
 40
1.000000000000003
100
AcDbArc
 50
2.544443745170813e-13
 51
90.00000000000000
  0
ARC
  5
E2
100
AcDbEntity
  8
A9
  6
CONTINUOUS
 62
7
100
AcDbCircle
 10
179.7048029028658
 20
210.5599739095365
 30
0.0000000000000000
 40
1.000000000000002
100
AcDbArc
 50
270.0000000000002
 51
359.9999999999998
  0
LINE
  5
E3
100
AcDbEntity
  8
A9
  6
CONTINUOUS
 62
7
100
AcDbLine
 10
175.5409957812648
 20
205.3599739062601
 30
0.0000000000000000
 11
175.5409957812648
 21
208.5599739062604
 31
0.0000000000000000
  0
LINE
  5
E4
100
AcDbEntity
  8
A9
  6
CONTINUOUS
 62
7
100
AcDbLine
 10
175.5409957812648
 20
219.1599739062603
 30
0.0000000000000000
 11
175.5409957812648
 21
222.3599739062600
 31
0.0000000000000000
  0
LINE
  5
E5
100
AcDbEntity
  8
A9
  6
CONTINUOUS
 62
7
100
AcDbLine
 10
143.4816654700356
 20
218.6373507727394
 30
0.0000000000000000
 11
143.4816654700356
 21
209.0825970397809
 31
0.0000000000000000
  0
LINE
  5
E6
100
AcDbEntity
  8
A9
  6
CONTINUOUS
 62
7
100
AcDbLine
 10
144.1814773852719
 20
208.1287170086621
 30
0.0000000000000000
 11
149.5158447454909
 21
206.4499801978999
 31
0.0000000000000000
  0
LINE
  5
E7
100
AcDbEntity
  8
A9
  6
CONTINUOUS
 62
7
100
AcDbLine
 10
149.5158447454911
 20
221.2699676146203
 30
0.0000000000000000
 11
144.1814773852716
 21
219.5912308038580
 31
0.0000000000000000
  0
LINE
  5
E8
100
AcDbEntity
  8
A9
  6
CONTINUOUS
 62
7
100
AcDbLine
 10
158.2786128949182
 20
204.3599739062601
 30
0.0000000000000000
 11
156.8781938344215
 21
204.3599739062601
 31
0.0000000000000000
  0
LINE
  5
E9
100
AcDbEntity
  8
A9
  6
CONTINUOUS
 62
7
100
AcDbLine
 10
156.8781938344213
 20
223.3599739062592
 30
0.0000000000000000
 11
158.2786128949182
 21
223.3599739062592
 31
0.0000000000000000
  0
LINE
  5
EA
100
AcDbEntity
  8
A9
  6
CONTINUOUS
 62
7
100
AcDbLine
 10
174.5402596007963
 20
223.3599739062600
 30
0.0000000000000000
 11
174.1413724467340
 21
223.3599739062600
 31
0.0000000000000000
  0
LINE
  5
EB
100
AcDbEntity
  8
A9
  6
CONTINUOUS
 62
7
100
AcDbLine
 10
174.5402596007960
 20
204.3599739062601
 30
0.0000000000000000
 11
174.1413724467337
 21
204.3599739062601
 31
0.0000000000000000
  0
LINE
  5
EC
100
AcDbEntity
  8
A9
  6
CONTINUOUS
 62
7
100
AcDbLine
 10
170.0251839165694
 20
223.3599739062597
 30
0.0000000000000000
 11
168.7609574543181
 21
223.3599739062327
 31
0.0000000000000000
  0
LINE
  5
ED
100
AcDbEntity
  8
A9
  6
CONTINUOUS
 62
7
100
AcDbLine
 10
167.4838921533857
 20
223.3599739062328
 30
0.0000000000000000
 11
158.2786128949180
 21
223.3599739062599
 31
0.0000000000000000
  0
LINE
  5
EE
100
AcDbEntity
  8
A9
  6
CONTINUOUS
 62
7
100
AcDbLine
 10
158.2786128949179
 20
204.3599739062600
 30
0.0000000000000000
 11
167.4838921532970
 21
204.3599739062871
 31
0.0000000000000000
  0
LINE
  5
EF
100
AcDbEntity
  8
A9
  6
CONTINUOUS
 62
7
100
AcDbLine
 10
168.7609574544937
 20
204.3599739062873
 30
0.0000000000000000
 11
170.0251839165691
 21
204.3599739062603
 31
0.0000000000000000
  0
LINE
  5
F0
100
AcDbEntity
  8
A9
  6
CONTINUOUS
 62
7
100
AcDbLine
 10
174.1413724467340
 20
223.3599739062600
 30
0.0000000000000000
 11
170.0251839165695
 21
223.3599739062600
 31
0.0000000000000000
  0
LINE
  5
F1
100
AcDbEntity
  8
A9
  6
CONTINUOUS
 62
7
100
AcDbLine
 10
174.1413724467337
 20
204.3599739062601
 30
0.0000000000000000
 11
170.0251839165695
 21
204.3599739062601
 31
0.0000000000000000
  0
LINE
  5
F2
100
AcDbEntity
  8
A9
  6
CONTINUOUS
 62
7
100
AcDbLine
 10
176.1410043564996
 20
209.5599739095369
 30
0.0000000000000000
 11
179.7048029028659
 21
209.5599739095369
 31
0.0000000000000000
  0
LINE
  5
F3
100
AcDbEntity
  8
A9
  6
CONTINUOUS
 62
7
100
AcDbLine
 10
179.7048029028659
 20
218.1599739062603
 30
0.0000000000000000
 11
176.1410043564996
 21
218.1599739062603
 31
0.0000000000000000
  0
LINE
  5
F4
100
AcDbEntity
  8
A9
  6
CONTINUOUS
 62
7
100
AcDbLine
 10
180.7048029028659
 20
210.5599739095369
 30
0.0000000000000000
 11
180.7048029028659
 21
217.1599739062603
 31
0.0000000000000000
  0
ARC
  5
F5
100
AcDbEntity
  8
A9
  6
CONTINUOUS
 62
7
100
AcDbCircle
 10
170.2188478074515
 20
203.4306881205312
 30
0.0000000000000000
 40
4.999999999999999
100
AcDbArc
 50
234.6625115472435
 51
305.4973039054856
  0
LINE
  5
F6
100
AcDbEntity
  8
A9
  6
CONTINUOUS
 62
7
100
AcDbLine
 10
172.5188478074992
 20
229.3599739062564
 30
0.0000000000000000
 11
167.9188478074038
 21
229.3599739062564
 31
0.0000000000000000
  0
LINE
  5
F7
100
AcDbEntity
  8
A9
  6
CONTINUOUS
 62
7
100
AcDbLine
 10
167.9188478074035
 20
229.3599739062562
 30
0.0000000000000000
 11
167.6188478074072
 21
229.0599739062600
 31
0.0000000000000000
  0
LINE
  5
F8
100
AcDbEntity
  8
A9
  6
CONTINUOUS
 62
7
100
AcDbLine
 10
172.8188478074954
 20
229.0599739062598
 30
0.0000000000000000
 11
172.5188478074992
 21
229.3599739062560
 31
0.0000000000000000
  0
LINE
  5
F9
100
AcDbEntity
  8
A9
  6
CONTINUOUS
 62
7
100
AcDbLine
 10
172.8188478074953
 20
229.0599739062603
 30
0.0000000000000000
 11
167.6188478074518
 21
229.0599739062603
 31
0.0000000000000000
  0
LINE
  5
FA
100
AcDbEntity
  8
A9
  6
CONTINUOUS
 62
7
100
AcDbLine
 10
172.8188478074518
 20
228.3599739062600
 30
0.0000000000000000
 11
172.8188478074518
 21
229.0599739062603
 31
0.0000000000000000
  0
LINE
  5
FB
100
AcDbEntity
  8
A9
  6
CONTINUOUS
 62
7
100
AcDbLine
 10
172.8188478074518
 20
223.3599739062059
 30
0.0000000000000000
 11
172.8188478074518
 21
223.5599739062603
 31
0.0000000000000000
  0
LINE
  5
FC
100
AcDbEntity
  8
A9
  6
CONTINUOUS
 62
7
100
AcDbLine
 10
172.8188478074518
 20
204.1599739062603
 30
0.0000000000000000
 11
172.8188478074518
 21
204.3599739063143
 31
0.0000000000000000
  0
LINE
  5
FD
100
AcDbEntity
  8
A9
  6
CONTINUOUS
 62
7
100
AcDbLine
 10
167.6188478074517
 20
204.3630472570980
 30
0.0000000000000000
 11
167.6188478074517
 21
204.1599738934178
 31
0.0000000000000000
  0
LINE
  5
FE
100
AcDbEntity
  8
A9
  6
CONTINUOUS
 62
7
100
AcDbLine
 10
167.6188478074517
 20
223.5599740069905
 30
0.0000000000000000
 11
167.6188478074517
 21
223.3567142978958
 31
0.0000000000000000
  0
LINE
  5
FF
100
AcDbEntity
  8
A9
  6
CONTINUOUS
 62
7
100
AcDbLine
 10
167.6188478074517
 20
229.0599739062603
 30
0.0000000000000000
 11
167.6188478074517
 21
228.3599738934175
 31
0.0000000000000000
  0
LINE
  5
100
100
AcDbEntity
  8
A9
  6
CONTINUOUS
 62
7
100
AcDbLine
 10
182.1239678801459
 20
217.8599739030780
 30
0.0000000000000000
 11
182.0291426734818
 21
217.8599738987636
 31
0.0000000000000000
  0
LINE
  5
101
100
AcDbEntity
  8
A9
  6
CONTINUOUS
 62
7
100
AcDbLine
 10
182.1225061492006
 20
209.8599739062601
 30
0.0000000000000000
 11
180.4065245966984
 21
209.8599739062601
 31
0.0000000000000000
  0
LINE
  5
102
100
AcDbEntity
  8
A9
  6
CONTINUOUS
 62
7
100
AcDbLine
 10
182.1244775868116
 20
217.8599739062601
 30
0.0000000000000000
 11
180.4189457457204
 21
217.8599739062601
 31
0.0000000000000000
  0
ARC
  5
103
100
AcDbEntity
  8
A9
  6
CONTINUOUS
 62
7
100
AcDbCircle
 10
187.5188281577536
 20
203.4306881205312
 30
0.0000000000000000
 40
4.999999999999999
100
AcDbArc
 50
234.5026960945145
 51
305.4973039054856
  0
LINE
  5
104
100
AcDbEntity
  8
A9
  6
CONTINUOUS
 62
7
100
AcDbLine
 10
189.8188281578017
 20
229.3599739062564
 30
0.0000000000000000
 11
185.2188281577058
 21
229.3599739062564
 31
0.0000000000000000
  0
LINE
  5
105
100
AcDbEntity
  8
A9
  6
CONTINUOUS
 62
7
100
AcDbLine
 10
185.2188281577055
 20
229.3599739062562
 30
0.0000000000000000
 11
184.9188281577089
 21
229.0599739062596
 31
0.0000000000000000
  0
LINE
  5
106
100
AcDbEntity
  8
A9
  6
CONTINUOUS
 62
7
100
AcDbLine
 10
190.1188281577982
 20
229.0599739062595
 30
0.0000000000000000
 11
189.8188281578020
 21
229.3599739062557
 31
0.0000000000000000
  0
LINE
  5
107
100
AcDbEntity
  8
A9
  6
CONTINUOUS
 62
7
100
AcDbLine
 10
190.1188281577539
 20
229.0599739062603
 30
0.0000000000000000
 11
184.9188281577539
 21
229.0599739062603
 31
0.0000000000000000
  0
LINE
  5
108
100
AcDbEntity
  8
A9
  6
CONTINUOUS
 62
7
100
AcDbLine
 10
190.1188281577537
 20
228.3599739062601
 30
0.0000000000000000
 11
190.1188281577537
 21
229.0599739062603
 31
0.0000000000000000
  0
LINE
  5
109
100
AcDbEntity
  8
A9
  6
CONTINUOUS
 62
7
100
AcDbLine
 10
190.1188281577539
 20
223.3599739062600
 30
0.0000000000000000
 11
190.1188281577539
 21
223.5599739062603
 31
0.0000000000000000
  0
LINE
  5
10A
100
AcDbEntity
  8
A9
  6
CONTINUOUS
 62
7
100
AcDbLine
 10
190.1188281577539
 20
204.1599739062603
 30
0.0000000000000000
 11
190.1188281577539
 21
204.3599739062601
 31
0.0000000000000000
  0
LINE
  5
10B
100
AcDbEntity
  8
A9
  6
CONTINUOUS
 62
7
100
AcDbLine
 10
184.9188281577539
 20
204.3599739062601
 30
0.0000000000000000
 11
184.9188281577539
 21
204.1599739062603
 31
0.0000000000000000
  0
LINE
  5
10C
100
AcDbEntity
  8
A9
  6
CONTINUOUS
 62
7
100
AcDbLine
 10
184.9188281577539
 20
223.5599739062603
 30
0.0000000000000000
 11
184.9188281577539
 21
223.3599739062600
 31
0.0000000000000000
  0
LINE
  5
10D
100
AcDbEntity
  8
A9
  6
CONTINUOUS
 62
7
100
AcDbLine
 10
184.9188281577539
 20
229.0599739062602
 30
0.0000000000000000
 11
184.9188281577539
 21
228.3599739062604
 31
0.0000000000000000
  0
SPLINE
  5
10E
100
AcDbEntity
  8
A9
  6
CONTINUOUS
 62
7
100
AcDbSpline
210
0.0000000000000000
220
0.0000000000000000
230
1.000000000000000
 70
     8
 71
     3
 72
    62
 73
    58
 74
     0
 42
1.000000000000000e-07
 43
1.000000000000000e-07
 12
-0.001920582873935928
 22
0.9999981556793500
 32
0.0000000000000000
 13
-0.9997587500502050
 23
0.02196455539433373
 33
0.0000000000000000
 40
0.0000000000000000
 40
0.0000000000000000
 40
0.0000000000000000
 40
0.0000000000000000
 40
0.2485204563883852
 40
0.4612996144268524
 40
0.6608320001445595
 40
0.8079914920122500
 40
0.9145128620164922
 40
1.016878256135870
 40
1.132848094027426
 40
1.406324941586462
 40
1.661828956410354
 40
1.919250568357784
 40
2.145869976700689
 40
2.379458536336371
 40
2.618056804856336
 40
2.934567678785236
 40
3.207887952637573
 40
3.441992278549002
 40
3.667702685550159
 40
3.874237281913266
 40
4.055868623374064
 40
4.231290260631174
 40
4.385210596343602
 40
4.556060326583662
 40
4.741377219405569
 40
4.907018975671787
 40
5.048193950598388
 40
5.163918836527205
 40
5.282711833265412
 40
5.392984162381292
 40
5.501039833386142
 40
5.634949936299576
 40
5.797439097055641
 40
5.965127474047874
 40
6.115401910915834
 40
6.279456944084556
 40
6.415904797347979
 40
6.534801751182850
 40
6.642021409669495
 40
6.737563090992809
 40
6.822466788592027
 40
6.931241548864129
 40
7.063580590529556
 40
7.212993383407738
 40
7.346853709062109
 40
7.460614574130005
 40
7.554543721896449
 40
7.613458981029241
 40
7.671574364205331
 40
7.728886062074404
 40
7.785390917302892
 40
7.851170802300977
 40
7.943102497444088
 40
8.061062488480788
 40
8.204501992058912
 40
8.372687283264936
 40
8.564650967353865
 40
8.564650967353865
 40
8.564650967353865
 40
8.564650967353865
 10
293.7392954836907
 20
218.3534702049470
 30
0.0000000000000000
 10
293.7391363823132
 20
218.4363102042927
 30
0.0000000000000000
 10
293.7303108833182
 20
218.5902179582150
 30
0.0000000000000000
 10
293.6947277792714
 20
218.8079104216582
 30
0.0000000000000000
 10
293.6478744271232
 20
218.9886898737273
 30
0.0000000000000000
 10
293.5985457982790
 20
219.1315976439083
 30
0.0000000000000000
 10
293.5534579435659
 20
219.2414274817775
 30
0.0000000000000000
 10
293.5077396791089
 20
219.3396312429719
 30
0.0000000000000000
 10
293.4314910090915
 20
219.4848186451246
 30
0.0000000000000000
 10
293.3155035490165
 20
219.6664886457675
 30
0.0000000000000000
 10
293.1503932307423
 20
219.8706824283728
 30
0.0000000000000000
 10
292.9761805009613
 20
220.0457009007251
 30
0.0000000000000000
 10
292.7924603404355
 20
220.1993022370467
 30
0.0000000000000000
 10
292.6021220229433
 20
220.3339945525923
 30
0.0000000000000000
 10
292.3766846760297
 20
220.4696533390830
 30
0.0000000000000000
 10
292.1296641825417
 20
220.5937729761882
 30
0.0000000000000000
 10
291.8765503500671
 20
220.7007002055530
 30
0.0000000000000000
 10
291.6472147497922
 20
220.7852947583320
 30
0.0000000000000000
 10
291.4361816728230
 20
220.8547047237454
 30
0.0000000000000000
 10
291.2400393030072
 20
220.9130879743485
 30
0.0000000000000000
 10
291.0588172441373
 20
220.9626395930823
 30
0.0000000000000000
 10
290.8937187750959
 20
221.0045417399798
 30
0.0000000000000000
 10
290.7314978074793
 20
221.0430787540464
 30
0.0000000000000000
 10
290.5655377267205
 20
221.0800790275331
 30
0.0000000000000000
 10
290.3952517869049
 20
221.1155537897776
 30
0.0000000000000000
 10
290.2342435401776
 20
221.1469879692805
 30
0.0000000000000000
 10
290.0957356554867
 20
221.1725624204169
 30
0.0000000000000000
 10
289.9724056257127
 20
221.1943052446582
 30
0.0000000000000000
 10
289.8590815842921
 20
221.2134573284448
 30
0.0000000000000000
 10
289.7481580384458
 20
221.2314564747668
 30
0.0000000000000000
 10
289.6321477343587
 20
221.2495537229753
 30
0.0000000000000000
 10
289.4988069745604
 20
221.2694665179175
 30
0.0000000000000000
 10
289.3456368677514
 20
221.2911522658538
 30
0.0000000000000000
 10
289.1868892936997
 20
221.3123183285003
 30
0.0000000000000000
 10
289.0274715927009
 20
221.3323701331397
 30
0.0000000000000000
 10
288.8782567823393
 20
221.3500663483242
 30
0.0000000000000000
 10
288.7393241390304
 20
221.3656215195129
 30
0.0000000000000000
 10
288.6191479397211
 20
221.3784157150950
 30
0.0000000000000000
 10
288.5124784318033
 20
221.3892645223483
 30
0.0000000000000000
 10
288.4170427899905
 20
221.3985736015357
 30
0.0000000000000000
 10
288.3210581441523
 20
221.4075866680092
 30
0.0000000000000000
 10
288.2128233234136
 20
221.4173338566967
 30
0.0000000000000000
 10
288.0831189923387
 20
221.4284063104293
 30
0.0000000000000000
 10
287.9450221310996
 20
221.4394548861843
 30
0.0000000000000000
 10
287.8130446439670
 20
221.4493136435845
 30
0.0000000000000000
 10
287.6994729604091
 20
221.4572758139335
 30
0.0000000000000000
 10
287.6107989023805
 20
221.4631529195309
 30
0.0000000000000000
 10
287.5406201670684
 20
221.4676076405127
 30
0.0000000000000000
 10
287.4826150731121
 20
221.4711663338395
 30
0.0000000000000000
 10
287.4254047896222
 20
221.4745572301491
 30
0.0000000000000000
 10
287.3656370445435
 20
221.4779773193846
 30
0.0000000000000000
 10
287.2943395270460
 20
221.4819035332312
 30
0.0000000000000000
 10
287.2025738171748
 20
221.4866947454871
 30
0.0000000000000000
 10
287.0849324746807
 20
221.4923564721745
 30
0.0000000000000000
 10
286.9418668253649
 20
221.4984608424453
 30
0.0000000000000000
 10
286.7741095062285
 20
221.5044589326440
 30
0.0000000000000000
 10
286.6541001392536
 20
221.5076550380819
 30
0.0000000000000000
 10
286.5901276816336
 20
221.5090605037395
 30
0.0000000000000000
  0
SPLINE
  5
10F
100
AcDbEntity
  8
A9
  6
CONTINUOUS
 62
7
100
AcDbSpline
210
0.0000000000000000
220
0.0000000000000000
230
1.000000000000000
 70
     8
 71
     3
 72
    59
 73
    55
 74
     0
 42
1.000000000000000e-07
 43
1.000000000000000e-07
 12
0.9997587500520240
 22
0.02196455539296949
 32
0.0000000000000000
 13
0.001920582873935928
 23
0.9999981556775310
 33
0.0000000000000000
 40
0.0000000000000000
 40
0.0000000000000000
 40
0.0000000000000000
 40
0.0000000000000000
 40
0.1919636841007969
 40
0.3601489753023215
 40
0.5035884788779956
 40
0.6215484699145475
 40
0.7134801650601633
 40
0.8112556267609593
 40
0.9009331035684351
 40
0.9925851644984360
 40
1.092779194518649
 40
1.216313395889676
 40
1.364058309445444
 40
1.527060670766818
 40
1.655822989619770
 40
1.760664803198398
 40
1.841923345953371
 40
1.920634801923082
 40
2.007135112320503
 40
2.101425426898524
 40
2.204150422791873
 40
2.323129630583654
 40
2.460627453968518
 40
2.616583042767831
 40
2.790522046704309
 40
2.953050119251771
 40
3.078684136189733
 40
3.181841325864441
 40
3.289319470661335
 40
3.404535749714579
 40
3.516457104127008
 40
3.699904832134350
 40
3.925094565791643
 40
4.149674638552899
 40
4.346621236887269
 40
4.520825671957292
 40
4.766672052668802
 40
5.051002311609317
 40
5.356736053168236
 40
5.630056327023468
 40
5.946567200935422
 40
6.185173013760886
 40
6.419403372501760
 40
6.646694019076718
 40
6.903064564907532
 40
7.158298740018345
 40
7.431775587582186
 40
7.559809673532730
 40
7.671052711007324
 40
7.800605828477178
 40
7.933083713983247
 40
8.103342023753209
 40
8.316121181789571
 40
8.564641638183939
 40
8.564641638183939
 40
8.564641638183939
 40
8.564641638183939
 10
286.5901276816341
 20
206.2108873087805
 30
0.0000000000000000
 10
286.6541001392581
 20
206.2122927744382
 30
0.0000000000000000
 10
286.7741095058761
 20
206.2154888840847
 30
0.0000000000000000
 10
286.9418668263963
 20
206.2214869581054
 30
0.0000000000000000
 10
287.0849324717250
 20
206.2275913750046
 30
0.0000000000000000
 10
287.2025738252973
 20
206.2332529720639
 30
0.0000000000000000
 10
287.3049902091845
 20
206.2386006443336
 30
0.0000000000000000
 10
287.3979748288147
 20
206.2437736601520
 30
0.0000000000000000
 10
287.4908486771057
 20
206.2492498176049
 30
0.0000000000000000
 10
287.5845087914201
 20
206.2550794212262
 30
0.0000000000000000
 10
287.6894093051280
 20
206.2619763139265
 30
0.0000000000000000
 10
287.8129329608821
 20
206.2706070775403
 30
0.0000000000000000
 10
287.9572897865432
 20
206.2814197706071
 30
0.0000000000000000
 10
288.1033188779003
 20
206.2932084227965
 30
0.0000000000000000
 10
288.2350319987901
 20
206.3045752317654
 30
0.0000000000000000
 10
288.3395559447565
 20
206.3140724430060
 30
0.0000000000000000
 10
288.4274346016925
 20
206.3223831293486
 30
0.0000000000000000
 10
288.5092013419732
 20
206.3303804724561
 30
0.0000000000000000
 10
288.5952626661521
 20
206.3390896537267
 30
0.0000000000000000
 10
288.6892516258023
 20
206.3489565663905
 30
0.0000000000000000
 10
288.7939611419339
 20
206.3603895651714
 30
0.0000000000000000
 10
288.9129250298094
 20
206.3739524982771
 30
0.0000000000000000
 10
289.0494287478243
 20
206.3902939997998
 30
0.0000000000000000
 10
289.2039968506453
 20
206.4098379225521
 30
0.0000000000000000
 10
289.3666788572961
 20
206.4316882246704
 30
0.0000000000000000
 10
289.5191678808162
 20
206.4534602699246
 30
0.0000000000000000
 10
289.6481584018372
 20
206.4728567718108
 30
0.0000000000000000
 10
289.7588971373770
 20
206.4902114733883
 30
0.0000000000000000
 10
289.8661040398062
 20
206.5076619866978
 30
0.0000000000000000
 10
289.9760777840658
 20
206.5262854298158
 30
0.0000000000000000
 10
290.1108591024644
 20
206.5500637640576
 30
0.0000000000000000
 10
290.2814564060338
 20
206.5817977823632
 30
0.0000000000000000
 10
290.4884237429052
 20
206.6232705508542
 30
0.0000000000000000
 10
290.6990583572526
 20
206.6691985385338
 30
0.0000000000000000
 10
290.8923065676719
 20
206.7149382160152
 30
0.0000000000000000
 10
291.0915979027399
 20
206.7657817270220
 30
0.0000000000000000
 10
291.3178163098132
 20
206.8287676227520
 30
0.0000000000000000
 10
291.5837726479817
 20
206.9120770212904
 30
0.0000000000000000
 10
291.8545479825199
 20
207.0099529830519
 30
0.0000000000000000
 10
292.1296635077571
 20
207.1261744495710
 30
0.0000000000000000
 10
292.3766870199617
 20
207.2502958147389
 30
0.0000000000000000
 10
292.6023098431776
 20
207.3860659293665
 30
0.0000000000000000
 10
292.7929940499534
 20
207.5210349485834
 30
0.0000000000000000
 10
292.9767239608345
 20
207.6747641985718
 30
0.0000000000000000
 10
293.1507310080671
 20
207.8496750406685
 30
0.0000000000000000
 10
293.3155526525460
 20
208.0535362663373
 30
0.0000000000000000
 10
293.4336588334140
 20
208.2385242455090
 30
0.0000000000000000
 10
293.5127648326144
 20
208.3901168092935
 30
0.0000000000000000
 10
293.5638640567278
 20
208.5019922391089
 30
0.0000000000000000
 10
293.6094706256378
 20
208.6178343590728
 30
0.0000000000000000
 10
293.6542349612411
 20
208.7548895518040
 30
0.0000000000000000
 10
293.6963007586680
 20
208.9216751150353
 30
0.0000000000000000
 10
293.7303121031657
 20
209.1297319897522
 30
0.0000000000000000
 10
293.7391363823132
 20
209.2836376082251
 30
0.0000000000000000
 10
293.7392954836907
 20
209.3664776075726
 30
0.0000000000000000
  0
SPLINE
  5
110
100
AcDbEntity
  8
A9
  6
CONTINUOUS
 62
7
100
AcDbSpline
210
0.0000000000000000
220
0.0000000000000000
230
1.000000000000000
 70
     8
 71
     3
 72
     9
 73
     5
 74
     0
 42
1.000000000000000e-07
 43
1.000000000000000e-07
 12
0.9999999999324700
 22
1.154837741523806e-05
 32
0.0000000000000000
 13
0.9726450164312155
 23
-0.2331295129129103
 33
0.0000000000000000
 40
0.0000000000000000
 40
0.0000000000000000
 40
0.0000000000000000
 40
0.0000000000000000
 40
0.3409503135422913
 40
0.5847340298217383
 40
0.5847340298217383
 40
0.5847340298217383
 40
0.5847340298217383
 10
180.5638763678787
 20
218.6099739062598
 30
0.0000000000000000
 10
180.6775264723851
 20
218.6099752187341
 30
0.0000000000000000
 10
180.8727200143382
 20
218.5967557599143
 30
0.0000000000000000
 10
181.0646125831660
 20
218.5605103673732
 30
0.0000000000000000
 10
181.1436509220748
 20
218.5415659743624
 30
0.0000000000000000
  0
SPLINE
  5
111
100
AcDbEntity
  8
A9
  6
CONTINUOUS
 62
7
100
AcDbSpline
210
0.0000000000000000
220
0.0000000000000000
230
1.000000000000000
 70
     8
 71
     3
 72
    17
 73
    13
 74
     0
 42
1.000000000000000e-07
 43
1.000000000000000e-07
 12
0.04672912245382577
 22
-0.01418248739378214
 32
0.0000000000000000
 13
0.002132763876034005
 23
-0.9999977256570673
 33
0.0000000000000000
 40
0.0000000000000000
 40
0.0000000000000000
 40
0.0000000000000000
 40
0.0000000000000000
 40
0.6182681156030625
 40
0.9031023340087525
 40
1.174915003375934
 40
1.376236095953871
 40
1.596149549391645
 40
1.830753381726314
 40
2.014614513130919
 40
2.204112899173621
 40
2.399999901716092
 40
2.604346968570514
 40
2.604346968570514
 40
2.604346968570514
 40
2.604346968570514
 10
181.1436417270383
 20
218.5415681675871
 30
0.0000000000000000
 10
181.1532721025328
 20
218.5386453076686
 30
0.0000000000000000
 10
181.2536032012480
 20
218.5074158465758
 30
0.0000000000000000
 10
181.4361231156337
 20
218.4353531031976
 30
0.0000000000000000
 10
181.6567344785546
 20
218.3104655850303
 30
0.0000000000000000
 10
181.8424451931302
 20
218.1723288200425
 30
0.0000000000000000
 10
182.0014581201332
 20
218.0214228554615
 30
0.0000000000000000
 10
182.1344260419389
 20
217.8541952604392
 30
0.0000000000000000
 10
182.2372106744817
 20
217.6789187706728
 30
0.0000000000000000
 10
182.3104619426619
 20
217.5031755655355
 30
0.0000000000000000
 10
182.3585341449872
 20
217.3117719859432
 30
0.0000000000000000
 10
182.3695287856989
 20
217.1780894402928
 30
0.0000000000000000
 10
182.3696740603797
 20
217.1099739062598
 30
0.0000000000000000
  0
SPLINE
  5
112
100
AcDbEntity
  8
A9
  6
CONTINUOUS
 62
7
100
AcDbSpline
210
0.0000000000000000
220
0.0000000000000000
230
1.000000000000000
 70
     8
 71
     3
 72
     9
 73
     5
 74
     0
 42
1.000000000000000e-07
 43
1.000000000000000e-07
 12
-0.8261371380915534
 22
-0.1946143132754514
 32
0.0000000000000000
 13
-0.9999999999886313
 23
-4.824243205803214e-06
 33
0.0000000000000000
 40
0.0000000000000000
 40
0.0000000000000000
 40
0.0000000000000000
 40
0.0000000000000000
 40
0.2832307914030039
 40
0.6181268433315419
 40
0.6181268433315419
 40
0.6181268433315419
 40
0.6181268433315419
 10
181.1343992553781
 20
209.1761732558774
 30
0.0000000000000000
 10
181.0564034302351
 20
209.1577996672216
 30
0.0000000000000000
 10
180.8675193175681
 20
209.1227493300865
 30
0.0000000000000000
 10
180.6755083851869
 20
209.1099744447998
 30
0.0000000000000000
 10
180.5638763678787
 20
209.1099739062598
 30
0.0000000000000000
  0
SPLINE
  5
113
100
AcDbEntity
  8
A9
  6
CONTINUOUS
 62
7
100
AcDbSpline
210
0.0000000000000000
220
0.0000000000000000
230
1.000000000000000
 70
     8
 71
     3
 72
    18
 73
    14
 74
     0
 42
1.000000000000000e-07
 43
1.000000000000000e-07
 12
-0.003282688729086658
 22
-0.9999946119560263
 32
0.0000000000000000
 13
-0.9586856061450817
 23
-0.2853949590316915
 33
0.0000000000000000
 40
0.0000000000000000
 40
0.0000000000000000
 40
0.0000000000000000
 40
0.0000000000000000
 40
0.2385314393207782
 40
0.4644573746236248
 40
0.6803823445802573
 40
0.8859814809799232
 40
1.140174302173002
 40
1.366343402103518
 40
1.557815057051774
 40
1.709565726282701
 40
1.838896698876288
 40
1.991595992277076
 40
2.025627362157405
 40
2.025627362157405
 40
2.025627362157405
 40
2.025627362157405
 10
182.3696740603797
 20
210.6099739062598
 30
0.0000000000000000
 10
182.3694130522239
 20
210.5304638548922
 30
0.0000000000000000
 10
182.3545904466934
 20
210.3752119773984
 30
0.0000000000000000
 10
182.2903091889281
 20
210.1565044370242
 30
0.0000000000000000
 10
182.1955221746527
 20
209.9616119257736
 30
0.0000000000000000
 10
182.0677853451293
 20
209.7752600280647
 30
0.0000000000000000
 10
181.9113926984971
 20
209.6071064417293
 30
0.0000000000000000
 10
181.7369011836349
 20
209.4658090832100
 30
0.0000000000000000
 10
181.5766856846680
 20
209.3634678227941
 30
0.0000000000000000
 10
181.4368930566358
 20
209.2905409602350
 30
0.0000000000000000
 10
181.3041768474215
 20
209.2329069059493
 30
0.0000000000000000
 10
181.2047996371022
 20
209.1976452204973
 30
0.0000000000000000
 10
181.1452684542418
 20
209.1794093628997
 30
0.0000000000000000
 10
181.1343933260879
 20
209.1761719024288
 30
0.0000000000000000
  0
ELLIPSE
  5
114
100
AcDbEntity
  8
A9
  6
CONTINUOUS
 62
7
100
AcDbEllipse
 10
286.4614192621872
 20
219.5136893618147
 30
0.0000000000000000
 11
0.05249089175926343
 21
1.999311057910277
 31
0.0000000000000000
210
0.0000000000000000
220
0.0000000000000000
230
1.000000000000000
 40
0.8667037337546375
 41
6.239179704701306
 42
0.0000000000000000
  0
ELLIPSE
  5
115
100
AcDbEntity
  8
A9
  6
CONTINUOUS
 62
7
100
AcDbEllipse
 10
286.4614192621872
 20
208.2062584507049
 30
0.0000000000000000
 11
-0.05249089175926496
 21
1.999311057910277
 31
0.0000000000000000
210
0.0000000000000000
220
0.0000000000000000
230
1.000000000000000
 40
0.8667037337546373
 41
3.141513559876867
 42
3.185556290248384
  0
ARC
  5
116
100
AcDbEntity
  8
A9
  6
CONTINUOUS
 62
7
100
AcDbCircle
 10
177.7088917945404
 20
220.1099739062598
 30
0.0000000000000000
 40
1.500000000000000
100
AcDbArc
 50
180.0000000000000
 51
269.9999999999999
  0
ARC
  5
117
100
AcDbEntity
  8
A9
  6
CONTINUOUS
 62
7
100
AcDbCircle
 10
177.7077791317167
 20
205.7869241234158
 30
0.0000000000000000
 40
1.426953298434686
100
AcDbArc
 50
262.6956400169016
 51
270.1190696209111
  0
ARC
  5
118
100
AcDbEntity
  8
A9
  6
CONTINUOUS
 62
7
100
AcDbCircle
 10
177.7131691521838
 20
205.8729979388769
 30
0.0000000000000000
 40
1.513024245663636
100
AcDbArc
 50
262.9075956341546
 51
270.0304074196491
  0
ARC
  5
119
100
AcDbEntity
  8
A9
  6
CONTINUOUS
 62
7
100
AcDbCircle
 10
177.7088917945404
 20
205.8599739062598
 30
0.0000000000000000
 40
1.500000000000000
100
AcDbArc
 50
179.9999999999999
 51
269.9999999994551
  0
ARC
  5
11A
100
AcDbEntity
  8
A9
  6
CONTINUOUS
 62
7
100
AcDbCircle
 10
177.7138169824047
 20
221.8364511657088
 30
0.0000000000000000
 40
1.523522748452023
100
AcDbArc
 50
89.99416534713698
 51
97.06783161115240
  0
ARC
  5
11B
100
AcDbEntity
  8
A9
  6
CONTINUOUS
 62
7
100
AcDbCircle
 10
177.7078164278921
 20
221.9324296714395
 30
0.0000000000000000
 40
1.427547237868268
100
AcDbArc
 50
89.88247683249826
 51
97.30281354845592
  0
ARC
  5
11C
100
AcDbEntity
  8
A9
  6
CONTINUOUS
 62
7
100
AcDbCircle
 10
177.7088917945404
 20
221.8599739062598
 30
0.0000000000000000
 40
1.500000000000000
100
AcDbArc
 50
89.99999999966249
 51
180.0000000000000
  0
ARC
  5
11D
100
AcDbEntity
  8
A9
  6
CONTINUOUS
 62
7
100
AcDbCircle
 10
177.7088917945404
 20
207.6099739062598
 30
0.0000000000000000
 40
1.500000000000000
100
AcDbArc
 50
90.00000000000000
 51
180.0000000000000
  0
ARC
  5
11E
100
AcDbEntity
  8
A9
  6
CONTINUOUS
 62
7
100
AcDbCircle
 10
215.9744349627787
 20
221.8599739062598
 30
0.0000000000000000
 40
1.500000000000005
100
AcDbArc
 50
88.49999829704736
 51
90.00000000000259
  0
ARC
  5
11F
100
AcDbEntity
  8
A9
  6
CONTINUOUS
 62
7
100
AcDbCircle
 10
215.9744349627787
 20
205.8599739062598
 30
0.0000000000000000
 40
1.500000000000001
100
AcDbArc
 50
269.9999999999989
 51
271.4999982970452
  0
ARC
  5
120
100
AcDbEntity
  8
A9
  6
CONTINUOUS
 62
7
100
AcDbCircle
 10
177.7241144751444
 20
205.8599739062598
 30
0.0000000000000000
 40
1.500000000000002
100
AcDbArc
 50
180.0000000000001
 51
269.9999999999997
  0
ARC
  5
121
100
AcDbEntity
  8
A9
  6
CONTINUOUS
 62
7
100
AcDbCircle
 10
177.7241144751444
 20
220.1099739062598
 30
0.0000000000000000
 40
1.500000000000001
100
AcDbArc
 50
180.0000000000003
 51
270.0000000000002
  0
ARC
  5
122
100
AcDbEntity
  8
A9
  6
CONTINUOUS
 62
7
100
AcDbCircle
 10
177.7241144751444
 20
221.8599739062598
 30
0.0000000000000000
 40
1.500000000000001
100
AcDbArc
 50
89.99999999999980
 51
179.9999999999998
  0
LINE
  5
123
100
AcDbEntity
  8
A9
  6
CONTINUOUS
 62
7
100
AcDbLine
 10
293.7392976221814
 20
209.3664776075727
 30
0.0000000000000000
 11
293.7392976221814
 21
218.3534702049476
 31
0.0000000000000000
  0
LINE
  5
124
100
AcDbEntity
  8
A9
  6
CONTINUOUS
 62
7
100
AcDbLine
 10
177.7241144751446
 20
218.6099739062601
 30
0.0000000000000000
 11
177.7088917945406
 21
218.6099739062601
 31
0.0000000000000000
  0
LINE
  5
125
100
AcDbEntity
  8
A9
  6
CONTINUOUS
 62
7
100
AcDbLine
 10
177.7241144751446
 20
204.3599739062601
 30
0.0000000000000000
 11
177.7139721286232
 21
204.3599739062871
 31
0.0000000000000000
  0
LINE
  5
126
100
AcDbEntity
  8
A9
  6
CONTINUOUS
 62
7
100
AcDbLine
 10
177.7107445624598
 20
204.3599739062980
 30
0.0000000000000000
 11
177.7088917945260
 21
204.3599739062604
 31
0.0000000000000000
  0
LINE
  5
127
100
AcDbEntity
  8
A9
  6
CONTINUOUS
 62
7
100
AcDbLine
 10
176.2088934982716
 20
220.1099739062601
 30
0.0000000000000000
 11
176.2088934982716
 21
221.8599739062600
 31
0.0000000000000000
  0
LINE
  5
128
100
AcDbEntity
  8
A9
  6
CONTINUOUS
 62
7
100
AcDbLine
 10
177.7241144751445
 20
223.3599739062598
 30
0.0000000000000000
 11
177.7139721286724
 21
223.3599739062611
 31
0.0000000000000000
  0
LINE
  5
129
100
AcDbEntity
  8
A9
  6
CONTINUOUS
 62
7
100
AcDbLine
 10
177.7107445625111
 20
223.3599739062612
 30
0.0000000000000000
 11
177.7088917945494
 21
223.3599739062598
 31
0.0000000000000000
  0
LINE
  5
12A
100
AcDbEntity
  8
A9
  6
CONTINUOUS
 62
7
100
AcDbLine
 10
176.2088934982716
 20
205.8599739062601
 30
0.0000000000000000
 11
176.2088934982716
 21
207.6099739062601
 31
0.0000000000000000
  0
LINE
  5
12B
100
AcDbEntity
  8
A9
  6
CONTINUOUS
 62
7
100
AcDbLine
 10
177.7088917945405
 20
209.1099739062600
 30
0.0000000000000000
 11
177.7241144751447
 21
209.1099739062600
 31
0.0000000000000000
  0
LINE
  5
12C
100
AcDbEntity
  8
A9
  6
CONTINUOUS
 62
7
100
AcDbLine
 10
281.5685390731989
 20
206.0771092045002
 30
0.0000000000000000
 11
286.5137730993379
 21
206.2069438007543
 31
0.0000000000000000
  0
LINE
  5
12D
100
AcDbEntity
  8
A9
  6
CONTINUOUS
 62
7
100
AcDbLine
 10
281.4887239933227
 20
206.0750137003001
 30
0.0000000000000000
 11
281.5685390731991
 21
206.0771092044999
 31
0.0000000000000000
  0
LINE
  5
12E
100
AcDbEntity
  8
A9
  6
CONTINUOUS
 62
7
100
AcDbLine
 10
281.5685392416261
 20
221.6428386035986
 30
0.0000000000000000
 11
281.4887239933229
 21
221.6449341122203
 31
0.0000000000000000
  0
LINE
  5
12F
100
AcDbEntity
  8
A9
  6
CONTINUOUS
 62
7
100
AcDbLine
 10
286.5137730993382
 20
221.5130040117660
 30
0.0000000000000000
 11
281.5685392416259
 21
221.6428386035982
 31
0.0000000000000000
  0
LINE
  5
130
100
AcDbEntity
  8
A9
  6
CONTINUOUS
 62
7
100
AcDbLine
 10
216.0137003406416
 20
204.3604879187970
 30
0.0000000000000000
 11
281.4887239933224
 21
206.0750137003004
 31
0.0000000000000000
  0
LINE
  5
131
100
AcDbEntity
  8
A9
  6
CONTINUOUS
 62
7
100
AcDbLine
 10
281.4887239933224
 20
221.6449341122203
 30
0.0000000000000000
 11
216.0137003406418
 21
223.3594598937238
 31
0.0000000000000000
  0
LINE
  5
132
100
AcDbEntity
  8
A9
  6
CONTINUOUS
 62
7
100
AcDbLine
 10
182.3696141227939
 20
217.1099739062601
 30
0.0000000000000000
 11
182.3696141227939
 21
210.6099739062601
 31
0.0000000000000000
  0
LINE
  5
133
100
AcDbEntity
  8
A9
  6
CONTINUOUS
 62
7
100
AcDbLine
 10
180.5638763678788
 20
209.1099739062601
 30
0.0000000000000000
 11
177.7241144751446
 21
209.1099739062601
 31
0.0000000000000000
  0
LINE
  5
134
100
AcDbEntity
  8
A9
  6
CONTINUOUS
 62
7
100
AcDbLine
 10
177.7241144751446
 20
218.6099739062601
 30
0.0000000000000000
 11
180.5638763678788
 21
218.6099739062601
 31
0.0000000000000000
  0
LINE
  5
135
100
AcDbEntity
  8
A9
  6
CONTINUOUS
 62
7
100
AcDbLine
 10
215.9744349627790
 20
223.3599739062601
 30
0.0000000000000000
 11
177.7241144751447
 21
223.3599739062601
 31
0.0000000000000000
  0
LINE
  5
136
100
AcDbEntity
  8
A9
  6
CONTINUOUS
 62
7
100
AcDbLine
 10
177.7241144751446
 20
204.3599739062602
 30
0.0000000000000000
 11
215.9744349627787
 21
204.3599739062602
 31
0.0000000000000000
  0
CIRCLE
  5
137
100
AcDbEntity
  8
A10
  6
CONTINUOUS
 62
7
100
AcDbCircle
 10
204.1765205346482
 20
234.3599739062598
 30
0.0000000000000000
 40
5.000000000000000
  0
CIRCLE
  5
138
100
AcDbEntity
  8
A10
  6
CONTINUOUS
 62
7
100
AcDbCircle
 10
204.1765205346482
 20
234.3599739062600
 30
0.0000000000000000
 40
2.750000000000000
  0
CIRCLE
  5
139
100
AcDbEntity
  8
A10
  6
CONTINUOUS
 62
7
100
AcDbCircle
 10
187.1765398436000
 20
234.3599739062600
 30
0.0000000000000000
 40
2.750000000000000
  0
CIRCLE
  5
13A
100
AcDbEntity
  8
A10
  6
CONTINUOUS
 62
7
100
AcDbCircle
 10
187.1765398436000
 20
234.3599739062598
 30
0.0000000000000000
 40
5.000000000000000
  0
LINE
  5
13B
100
AcDbEntity
  8
A10
  6
CENTER
 62
1
100
AcDbLine
 10
210.6765205346482
 20
234.3599739062598
 30
0.0000000000000000
 11
197.6765205346482
 21
234.3599739062598
 31
0.0000000000000000
  0
LINE
  5
13C
100
AcDbEntity
  8
A10
  6
CENTER
 62
1
100
AcDbLine
 10
204.1765205346482
 20
240.8599739062598
 30
0.0000000000000000
 11
204.1765205346482
 21
227.8599739062598
 31
0.0000000000000000
  0
LINE
  5
13D
100
AcDbEntity
  8
A10
  6
CENTER
 62
1
100
AcDbLine
 10
193.6765398436000
 20
234.3599739062598
 30
0.0000000000000000
 11
180.6765398436000
 21
234.3599739062598
 31
0.0000000000000000
  0
LINE
  5
13E
100
AcDbEntity
  8
A10
  6
CENTER
 62
1
100
AcDbLine
 10
187.1765398436000
 20
240.8599739062598
 30
0.0000000000000000
 11
187.1765398436000
 21
227.8599739062598
 31
0.0000000000000000
  0
LINE
  5
13F
100
AcDbEntity
  8
A10
  6
CONTINUOUS
 62
7
100
AcDbLine
 10
218.6391739805776
 20
228.4590124679303
 30
0.0000000000000000
 11
218.6542098200339
 21
228.4519246161317
 31
0.0000000000000000
  0
LINE
  5
140
100
AcDbEntity
  8
A10
  6
CONTINUOUS
 62
7
100
AcDbLine
 10
218.8558059743914
 20
228.3838617325345
 30
0.0000000000000000
 11
218.9096677314693
 21
228.3718729550266
 31
0.0000000000000000
  0
CIRCLE
  5
141
100
AcDbEntity
  8
A10
  6
CONTINUOUS
 62
7
100
AcDbCircle
 10
204.1765205346480
 20
193.3599739062600
 30
0.0000000000000000
 40
2.750000000000000
  0
CIRCLE
  5
142
100
AcDbEntity
  8
A10
  6
CONTINUOUS
 62
7
100
AcDbCircle
 10
204.1765205346480
 20
193.3599739062598
 30
0.0000000000000000
 40
5.000000000000000
  0
LINE
  5
143
100
AcDbEntity
  8
A10
  6
CENTER
 62
1
100
AcDbLine
 10
210.6765205346480
 20
193.3599739062598
 30
0.0000000000000000
 11
197.6765205346480
 21
193.3599739062598
 31
0.0000000000000000
  0
LINE
  5
144
100
AcDbEntity
  8
A10
  6
CENTER
 62
1
100
AcDbLine
 10
204.1765205346480
 20
199.8599739062598
 30
0.0000000000000000
 11
204.1765205346480
 21
186.8599739062599
 31
0.0000000000000000
  0
CIRCLE
  5
145
100
AcDbEntity
  8
A10
  6
CONTINUOUS
 62
7
100
AcDbCircle
 10
187.1765398435998
 20
193.3599739062600
 30
0.0000000000000000
 40
5.000000000000000
  0
CIRCLE
  5
146
100
AcDbEntity
  8
A10
  6
CONTINUOUS
 62
7
100
AcDbCircle
 10
187.1765398435998
 20
193.3599739062603
 30
0.0000000000000000
 40
2.750000000000000
  0
LINE
  5
147
100
AcDbEntity
  8
A10
  6
CENTER
 62
1
100
AcDbLine
 10
193.6765398435998
 20
193.3599739062600
 30
0.0000000000000000
 11
180.6765398435998
 21
193.3599739062600
 31
0.0000000000000000
  0
LINE
  5
148
100
AcDbEntity
  8
A10
  6
CENTER
 62
1
100
AcDbLine
 10
187.1765398435998
 20
199.8599739062600
 30
0.0000000000000000
 11
187.1765398435998
 21
186.8599739062601
 31
0.0000000000000000
  0
LINE
  5
149
100
AcDbEntity
  8
A10
  6
CONTINUOUS
 62
7
100
AcDbLine
 10
218.8558059744218
 20
199.3360860799926
 30
0.0000000000000000
 11
218.9096677314739
 21
199.3480748574928
 31
0.0000000000000000
  0
LINE
  5
14A
100
AcDbEntity
  8
A10
  6
CONTINUOUS
 62
7
100
AcDbLine
 10
218.8404755289122
 20
199.3325469616381
 30
0.0000000000000000
 11
218.7761681038692
 21
199.3148809150038
 31
0.0000000000000000
  0
LINE
  5
14B
100
AcDbEntity
  8
A11
  6
CENTER
 62
1
100
AcDbLine
 10
175.3188281577588
 20
83.10002456971031
 30
0.0000000000000000
 11
165.1188281577590
 21
83.10002456971031
 31
0.0000000000000000
  0
LINE
  5
14C
100
AcDbEntity
  8
A11
  6
CENTER
 62
1
100
AcDbLine
 10
170.2188281577589
 20
88.20002456971022
 30
0.0000000000000000
 11
170.2188281577589
 21
78.00002456971040
 31
0.0000000000000000
  0
LINE
  5
14D
100
AcDbEntity
  8
A11
  6
CENTER
 62
1
100
AcDbLine
 10
192.6188281577535
 20
83.10003785271354
 30
0.0000000000000000
 11
182.4188281577537
 21
83.10003785271354
 31
0.0000000000000000
  0
LINE
  5
14E
100
AcDbEntity
  8
A11
  6
CENTER
 62
1
100
AcDbLine
 10
187.5188281577536
 20
88.20003785271345
 30
0.0000000000000000
 11
187.5188281577536
 21
78.00003785271363
 31
0.0000000000000000
  0
SPLINE
  5
14F
100
AcDbEntity
  8
A11
  6
PHANTOM
 62
1
100
AcDbSpline
210
0.0000000000000000
220
0.0000000000000000
230
1.000000000000000
 70
     8
 71
     3
 72
     9
 73
     5
 74
     0
 42
1.000000000000000e-07
 43
1.000000000000000e-07
 12
0.8545494147983845
 22
0.5193700968811754
 32
0.0000000000000000
 13
0.8282506070318050
 23
0.5603578607042436
 33
0.0000000000000000
 40
0.0000000000000000
 40
0.0000000000000000
 40
0.0000000000000000
 40
0.0000000000000000
 40
0.007697105779003100
 40
0.02470977005004610
 40
0.02470977005004610
 40
0.02470977005004610
 40
0.02470977005004610
 10
160.4113033850294
 20
57.75974841474159
 30
0.0000000000000000
 10
160.4134959041091
 20
57.76108096359964
 30
0.0000000000000000
 10
160.4205019873238
 20
57.76541221187337
 30
0.0000000000000000
 10
160.4274020768084
 20
57.76991376732646
 30
0.0000000000000000
 10
160.4320989933116
 20
57.77309149404506
 30
0.0000000000000000
  0
ELLIPSE
  5
150
100
AcDbEntity
  8
A2
  6
CONTINUOUS
 62
7
100
AcDbEllipse
 10
172.5119913404798
 20
53.00002633040050
 30
0.0000000000000000
 11
0.0000000000000000
 21
-0.4999988636011971
 31
0.0000000000000000
210
0.0000000000000000
220
0.0000000000000000
230
1.000000000000000
 40
0.7822176730473278
 41
4.712388980384686
 42
0.0000000000000000
  0
LINE
  5
151
100
AcDbEntity
  8
A2
  6
CONTINUOUS
 62
7
100
AcDbLine
 10
172.1208790488399
 20
57.50002603010446
 30
0.0000000000000000
 11
172.1208825039564
 21
53.00002603010579
 31
0.0000000000000000
  0
SPLINE
  5
152
100
AcDbEntity
  8
A11
  6
CONTINUOUS
 62
7
100
AcDbSpline
210
0.0000000000000000
220
0.0000000000000000
230
1.000000000000000
 70
     8
 71
     3
 72
    15
 73
    11
 74
     0
 42
1.000000000000000e-07
 43
1.000000000000000e-07
 12
-0.9999968392266965
 22
0.002514267722062868
 32
0.0000000000000000
 13
-0.02147476266145532
 23
-0.9997693906962013
 33
0.0000000000000000
 40
0.0000000000000000
 40
0.0000000000000000
 40
0.0000000000000000
 40
0.0000000000000000
 40
0.3621860264228169
 40
0.7247162376407699
 40
1.092088455590889
 40
1.369393676500548
 40
1.648208389229688
 40
1.838029400189641
 40
2.027488341748425
 40
2.218949561030559
 40
2.218949561030559
 40
2.218949561030559
 40
2.218949561030559
 10
173.8954936595971
 20
58.50002739266030
 30
0.0000000000000000
 10
173.7747653657188
 20
58.50033093687217
 30
0.0000000000000000
 10
173.5328871423632
 20
58.48628377553770
 30
0.0000000000000000
 10
173.1739253934579
 20
58.42114156983486
 30
0.0000000000000000
 10
172.8526201168356
 20
58.31956366802071
 30
0.0000000000000000
 10
172.5754499532376
 20
58.18275562592250
 30
0.0000000000000000
 10
172.3768725073757
 20
58.02926139187549
 30
0.0000000000000000
 10
172.2339419039924
 20
57.86154459321848
 30
0.0000000000000000
 10
172.1424934888111
 20
57.69184350762454
 30
0.0000000000000000
 10
172.1222495769206
 20
57.56383171895256
 30
0.0000000000000000
 10
172.1208790488396
 20
57.50002603010468
 30
0.0000000000000000
  0
LINE
  5
153
100
AcDbEntity
  8
A11
  6
CONTINUOUS
 62
7
100
AcDbLine
 10
216.4410218286855
 20
58.50006005927260
 30
0.0000000000000000
 11
173.8954936595972
 21
58.50002739265990
 31
0.0000000000000000
  0
SPLINE
  5
154
100
AcDbEntity
  8
A11
  6
CONTINUOUS
 62
7
100
AcDbSpline
210
0.0000000000000000
220
0.0000000000000000
230
1.000000000000000
 70
     8
 71
     3
 72
    21
 73
    17
 74
     0
 42
1.000000000000000e-07
 43
1.000000000000000e-07
 12
-0.01068205032970582
 22
0.9999429452673212
 32
0.0000000000000000
 13
-0.9999978086721057
 23
-0.002093478186793618
 33
0.0000000000000000
 40
0.0000000000000000
 40
0.0000000000000000
 40
0.0000000000000000
 40
0.0000000000000000
 40
0.1251779263468529
 40
0.2561606349436290
 40
0.3983906915689164
 40
0.5175322792397929
 40
0.6483088224601754
 40
0.7916967849404423
 40
0.9483957854303278
 40
1.118777968318260
 40
1.310522802352778
 40
1.523976401250509
 40
1.709763557767223
 40
1.882493463796172
 40
2.096155343332751
 40
2.350931864018799
 40
2.350931864018799
 40
2.350931864018799
 40
2.350931864018799
 10
218.3628428515953
 20
57.50006153485380
 30
0.0000000000000000
 10
218.3623971326255
 20
57.54178512963837
 30
0.0000000000000000
 10
218.3524710506380
 20
57.62748064362792
 30
0.0000000000000000
 10
218.3057013412169
 20
57.75296734466225
 30
0.0000000000000000
 10
218.2352640077333
 20
57.86414283272508
 30
0.0000000000000000
 10
218.1486004381242
 20
57.96244469118143
 30
0.0000000000000000
 10
218.0503607329637
 20
58.04970401763809
 30
0.0000000000000000
 10
217.9331422113534
 20
58.13311300723059
 30
0.0000000000000000
 10
217.7970029624295
 20
58.21140398627041
 30
0.0000000000000000
 10
217.6399094072933
 20
58.28420191989973
 30
0.0000000000000000
 10
217.4597248646186
 20
58.35067395417106
 30
0.0000000000000000
 10
217.2700272631916
 20
58.40452250229033
 30
0.0000000000000000
 10
217.0834457705595
 20
58.44421069507850
 30
0.0000000000000000
 10
216.8949940275747
 20
58.47413192342266
 30
0.0000000000000000
 10
216.6821551128409
 20
58.49494475054304
 30
0.0000000000000000
 10
216.5259471494812
 20
58.50023784896895
 30
0.0000000000000000
 10
216.4410218286855
 20
58.50006005927277
 30
0.0000000000000000
  0
LINE
  5
155
100
AcDbEntity
  8
A2
  6
CONTINUOUS
 62
7
100
AcDbLine
 10
218.3628428515955
 20
57.50006153485346
 30
0.0000000000000000
 11
218.3628463067121
 21
53.00006153485478
 31
0.0000000000000000
  0
ELLIPSE
  5
156
100
AcDbEntity
  8
A2
  6
CONTINUOUS
 62
7
100
AcDbEllipse
 10
217.9884112791273
 20
53.00006124736230
 30
0.0000000000000000
 11
0.0000000000000000
 21
-0.4999988636011922
 31
0.0000000000000000
210
0.0000000000000000
220
0.0000000000000000
230
1.000000000000000
 40
0.7488700551697839
 41
0.0000000000000000
 42
1.570796326794902
  0
LINE
  5
157
100
AcDbEntity
  8
A10
  6
CENTER
 62
1
100
AcDbLine
 10
187.1765398435998
 20
60.00003758989625
 30
0.0000000000000000
 11
187.1765398435998
 21
51.00003758989261
 31
0.0000000000000000
  0
LINE
  5
158
100
AcDbEntity
  8
A10
  6
CENTER
 62
1
100
AcDbLine
 10
204.1765205346480
 20
60.00005064254385
 30
0.0000000000000000
 11
204.1765205346480
 21
51.00005064254067
 31
0.0000000000000000
  0
LINE
  5
159
100
AcDbEntity
  8
A10
  6
CENTER
 62
1
100
AcDbLine
 10
295.2392976221815
 20
213.8599739062601
 30
0.0000000000000000
 11
141.9816654700356
 21
213.8599739062601
 31
0.0000000000000000
  0
SPLINE
  5
15A
100
AcDbEntity
  8
A11
  6
CONTINUOUS
 62
7
100
AcDbSpline
210
0.0000000000000000
220
0.0000000000000000
230
1.000000000000000
 70
     8
 71
     3
 72
    13
 73
     9
 74
     0
 42
1.000000000000000e-07
 43
1.000000000000000e-07
 12
5.971983227937017e-07
 22
-0.9999999999994316
 32
0.0000000000000000
 13
5.793790478492156e-07
 23
-0.9999999999890861
 33
0.0000000000000000
 40
0.0000000000000000
 40
0.0000000000000000
 40
0.0000000000000000
 40
0.0000000000000000
 40
0.2784505021862641
 40
0.5109582120565922
 40
0.6893222705468744
 40
0.7882720537243703
 40
0.8485714427910673
 40
0.8686090178914958
 40
0.8686090178914958
 40
0.8686090178914958
 40
0.8686090178914958
 10
49.99999549406056
 20
55.86860903019085
 30
0.0000000000000000
 10
49.99999554949062
 20
55.77579219612882
 30
0.0000000000000000
 10
49.99999568012328
 20
55.60547279211006
 30
0.0000000000000000
 10
49.99999588127429
 20
55.37569870192779
 30
0.0000000000000000
 10
49.99999602168799
 20
55.20575818474852
 30
0.0000000000000000
 10
49.99999610299045
 20
55.09322044117046
 30
0.0000000000000000
 10
49.99999614125869
 20
55.03345819205533
 30
0.0000000000000000
 10
49.99999615711187
 20
55.00667920399981
 30
0.0000000000000000
 10
49.99999616098165
 20
55.00000001229974
 30
0.0000000000000000
  0
SPLINE
  5
15B
100
AcDbEntity
  8
A11
  6
CONTINUOUS
 62
7
100
AcDbSpline
210
0.0000000000000000
220
0.0000000000000000
230
1.000000000000000
 70
     8
 71
     3
 72
    13
 73
     9
 74
     0
 42
1.000000000000000e-07
 43
1.000000000000000e-07
 12
-0.9999236221696606
 22
0.01235920012533143
 32
0.0000000000000000
 13
-0.9999675933775052
 23
-0.008050602163621079
 33
0.0000000000000000
 40
0.0000000000000000
 40
0.0000000000000000
 40
0.0000000000000000
 40
0.0000000000000000
 40
0.6445262353994509
 40
1.303482592443274
 40
1.974901092978262
 40
2.497285480148497
 40
3.011037475627673
 40
3.516136641158475
 40
3.516136641158475
 40
3.516136641158475
 40
3.516136641158475
 10
59.00783497630886
 20
56.00000691625026
 30
0.0000000000000000
 10
58.79300930701419
 20
56.00266219249336
 30
0.0000000000000000
 10
58.35854501622720
 20
56.00836223172657
 30
0.0000000000000000
 10
57.70046290632962
 20
56.02609046642296
 30
0.0000000000000000
 10
57.08281394208797
 20
56.02840148079129
 30
0.0000000000000000
 10
56.51368202590487
 20
56.01946455924100
 30
0.0000000000000000
 10
56.00012490595572
 20
56.00524483316521
 30
0.0000000000000000
 10
55.66051674236900
 20
56.00135966771070
 30
0.0000000000000000
 10
55.49215581004472
 20
56.00000421689909
 30
0.0000000000000000
  0
SPLINE
  5
15C
100
AcDbEntity
  8
A11
  6
CONTINUOUS
 62
7
100
AcDbSpline
210
0.0000000000000000
220
0.0000000000000000
230
1.000000000000000
 70
     8
 71
     3
 72
    13
 73
     9
 74
     0
 42
1.000000000000000e-07
 43
1.000000000000000e-07
 12
-0.9999236221686942
 22
0.01235920012533143
 32
0.0000000000000000
 13
-0.9999675933765388
 23
-0.008050602163564236
 33
0.0000000000000000
 40
0.0000000000000000
 40
0.0000000000000000
 40
0.0000000000000000
 40
0.0000000000000000
 40
0.6445262353977174
 40
1.303482592441370
 40
1.974901092976499
 40
2.497285480146677
 40
3.011037475625911
 40
3.516136641155831
 40
3.516136641155831
 40
3.516136641155831
 40
3.516136641155831
 10
72.00783497630306
 20
56.00001689769790
 30
0.0000000000000000
 10
71.79300930700919
 20
56.00267217394101
 30
0.0000000000000000
 10
71.35854501622265
 20
56.00837221317421
 30
0.0000000000000000
 10
70.70046290632598
 20
56.02610044787060
 30
0.0000000000000000
 10
70.08281394208399
 20
56.02841146223894
 30
0.0000000000000000
 10
69.51368202590101
 20
56.01947454068865
 30
0.0000000000000000
 10
69.00012490595230
 20
56.00525481461263
 30
0.0000000000000000
 10
68.66051674236581
 20
56.00136964915835
 30
0.0000000000000000
 10
68.49215581004199
 20
56.00001419834673
 30
0.0000000000000000
  0
ARC
  5
15D
100
AcDbEntity
  8
A11
  6
CONTINUOUS
 62
7
100
AcDbCircle
 10
50.49999549406033
 20
55.86860937552650
 30
0.0000000000000000
 40
0.4999999999999831
100
AcDbArc
 50
150.5532048229645
 51
176.3505604014904
  0
ARC
  5
15E
100
AcDbEntity
  8
A11
  6
CONTINUOUS
 62
7
100
AcDbCircle
 10
50.49999549406033
 20
55.86860937552650
 30
0.0000000000000000
 40
0.4999999999999831
100
AcDbArc
 50
176.3505604014904
 51
180.0000395725463
  0
ARC
  5
15F
100
AcDbEntity
  8
A11
  6
CONTINUOUS
 62
7
100
AcDbCircle
 10
74.49998349221408
 20
71.50001881118342
 30
0.0000000000000000
 40
2.999999999999993
100
AcDbArc
 50
4.399190980975513e-05
 51
90.00004399191008
  0
ARC
  5
160
100
AcDbEntity
  8
A11
  6
CONTINUOUS
 62
7
100
AcDbCircle
 10
61.61174091280094
 20
72.50000891554382
 30
0.0000000000000000
 40
2.000000000000000
100
AcDbArc
 50
90.00004399190938
 51
150.5532048229063
  0
ARC
  5
161
100
AcDbEntity
  8
A11
  6
CONTINUOUS
 62
7
100
AcDbCircle
 10
50.99999923219599
 20
51.00000076780334
 30
0.0000000000000000
 40
1.000000000000001
100
AcDbArc
 50
180.0000439919094
 51
270.0000439919102
  0
ARC
  5
162
100
AcDbEntity
  8
A11
  6
CONTINUOUS
 62
7
100
AcDbCircle
 10
76.49999616097392
 20
55.00002034679552
 30
0.0000000000000000
 40
1.000000000000000
100
AcDbArc
 50
4.399190980975513e-05
 51
90.00004399190939
  0
ARC
  5
163
100
AcDbEntity
  8
A11
  6
CONTINUOUS
 62
7
100
AcDbCircle
 10
50.99999616098120
 20
55.00000076780215
 30
0.0000000000000000
 40
1.000000000000001
100
AcDbArc
 50
90.00004399190938
 51
180.0000434633037
  0
ARC
  5
164
100
AcDbEntity
  8
A11
  6
CONTINUOUS
 62
7
100
AcDbCircle
 10
76.49999923218837
 20
51.00002034679677
 30
0.0000000000000000
 40
1.000000000000001
100
AcDbArc
 50
270.0000439919086
 51
360.0000439919094
  0
LINE
  5
165
100
AcDbEntity
  8
A11
  6
CONTINUOUS
 62
7
100
AcDbLine
 10
50.06458920165358
 20
56.11441694362102
 30
0.0000000000000000
 11
59.87011574317370
 21
73.48323918792185
 31
0.0000000000000000
  0
LINE
  5
166
100
AcDbEntity
  8
A11
  6
CONTINUOUS
 62
7
100
AcDbLine
 10
74.49998118880318
 20
74.50001881118213
 30
0.0000000000000000
 11
61.61173937719359
 21
74.50000891554285
 31
0.0000000000000000
  0
LINE
  5
167
100
AcDbEntity
  8
A11
  6
CONTINUOUS
 62
7
100
AcDbLine
 10
77.49999923218837
 20
51.00002111460049
 30
0.0000000000000000
 11
77.49998349221335
 21
71.50002111459425
 31
0.0000000000000000
  0
LINE
  5
168
100
AcDbEntity
  8
A11
  6
CONTINUOUS
 62
7
100
AcDbLine
 10
76.49999539317014
 20
56.00002034679535
 30
0.0000000000000000
 11
50.99999539317744
 21
56.00000076780191
 31
0.0000000000000000
  0
LINE
  5
169
100
AcDbEntity
  8
A11
  6
CONTINUOUS
 62
7
100
AcDbLine
 10
50.99999999999954
 20
50.00000076780368
 30
0.0000000000000000
 11
76.49999999999190
 21
50.00002034679711
 31
0.0000000000000000
  0
LINE
  5
16A
100
AcDbEntity
  8
A11
  6
CONTINUOUS
 62
7
100
AcDbLine
 10
49.99999616098179
 20
55.00000000922453
 30
0.0000000000000000
 11
49.99999923219634
 21
50.99999999999979
 31
0.0000000000000000
  0
SPLINE
  5
16B
100
AcDbEntity
  8
A15
  6
CONTINUOUS
 62
7
100
AcDbSpline
210
0.0000000000000000
220
0.0000000000000000
230
1.000000000000000
 70
     8
 71
     3
 72
     9
 73
     5
 74
     0
 42
1.000000000000000e-07
 43
1.000000000000000e-07
 12
0.9999999986494004
 22
5.197621430852450e-05
 32
0.0000000000000000
 13
0.9902534926416138
 23
-0.1392767759259641
 33
0.0000000000000000
 40
0.0000000000000000
 40
0.0000000000000000
 40
0.0000000000000000
 40
0.0000000000000000
 40
0.2036135466699043
 40
0.6989620859727592
 40
0.6989620859727592
 40
0.6989620859727592
 40
0.6989620859727592
 10
70.24959245909372
 20
198.6099739064097
 30
0.0000000000000000
 10
70.31746364122534
 20
198.6099774340969
 30
0.0000000000000000
 10
70.55044195104927
 20
198.6052602036466
 30
0.0000000000000000
 10
70.78298777269436
 20
198.5841702400821
 30
0.0000000000000000
 10
70.94649464640088
 20
198.5611733909109
 30
0.0000000000000000
  0
SPLINE
  5
16C
100
AcDbEntity
  8
A15
  6
CONTINUOUS
 62
7
100
AcDbSpline
210
0.0000000000000000
220
0.0000000000000000
230
1.000000000000000
 70
     8
 71
     3
 72
     9
 73
     5
 74
     0
 42
1.000000000000000e-07
 43
1.000000000000000e-07
 12
0.9999999986494004
 22
5.197621430852450e-05
 32
0.0000000000000000
 13
0.9902534926409317
 23
-0.1392767759261915
 33
0.0000000000000000
 40
0.0000000000000000
 40
0.0000000000000000
 40
0.0000000000000000
 40
0.0000000000000000
 40
0.2036135466698757
 40
0.6989620859727300
 40
0.6989620859727300
 40
0.6989620859727300
 40
0.6989620859727300
 10
57.24960722476271
 20
198.6099739064097
 30
0.0000000000000000
 10
57.31747840689434
 20
198.6099774340969
 30
0.0000000000000000
 10
57.55045671671826
 20
198.6052602036466
 30
0.0000000000000000
 10
57.78300253836323
 20
198.5841702400821
 30
0.0000000000000000
 10
57.94650941206964
 20
198.5611733909109
 30
0.0000000000000000
  0
SPLINE
  5
16D
100
AcDbEntity
  8
A15
  6
CONTINUOUS
 62
7
100
AcDbSpline
210
0.0000000000000000
220
0.0000000000000000
230
1.000000000000000
 70
     8
 71
     3
 72
     9
 73
     5
 74
     0
 42
1.000000000000000e-07
 43
1.000000000000000e-07
 12
0.9902187840000920
 22
-0.1395233307098351
 32
0.0000000000000000
 13
0.9434332879342833
 23
-0.3315624092335838
 33
0.0000000000000000
 40
0.0000000000000000
 40
0.0000000000000000
 40
0.0000000000000000
 40
0.0000000000000000
 40
0.4936355968506488
 40
0.9907210510307014
 40
0.9907210510307014
 40
0.9907210510307014
 40
0.9907210510307014
 10
70.94649464640088
 20
198.5611733909109
 30
0.0000000000000000
 10
71.10943039321842
 20
198.5382154967010
 30
0.0000000000000000
 10
71.43438913828618
 20
198.4760843988024
 30
0.0000000000000000
 10
71.75155459239659
 20
198.3818933219299
 30
0.0000000000000000
 10
71.90787691387038
 20
198.3269550383356
 30
0.0000000000000000
  0
SPLINE
  5
16E
100
AcDbEntity
  8
A15
  6
CONTINUOUS
 62
7
100
AcDbSpline
210
0.0000000000000000
220
0.0000000000000000
230
1.000000000000000
 70
     8
 71
     3
 72
     9
 73
     5
 74
     0
 42
1.000000000000000e-07
 43
1.000000000000000e-07
 12
0.9902187840007741
 22
-0.1395233307098351
 32
0.0000000000000000
 13
0.9434332879341696
 23
-0.3315624092335838
 33
0.0000000000000000
 40
0.0000000000000000
 40
0.0000000000000000
 40
0.0000000000000000
 40
0.0000000000000000
 40
0.4936355968506488
 40
0.9907210510307578
 40
0.9907210510307578
 40
0.9907210510307578
 40
0.9907210510307578
 10
57.94650941206964
 20
198.5611733909109
 30
0.0000000000000000
 10
58.10944515888730
 20
198.5382154967010
 30
0.0000000000000000
 10
58.43440390395506
 20
198.4760843988024
 30
0.0000000000000000
 10
58.75156935806558
 20
198.3818933219299
 30
0.0000000000000000
 10
58.90789167953938
 20
198.3269550383356
 30
0.0000000000000000
  0
SPLINE
  5
16F
100
AcDbEntity
  8
A15
  6
CONTINUOUS
 62
7
100
AcDbSpline
210
0.0000000000000000
220
0.0000000000000000
230
1.000000000000000
 70
     8
 71
     3
 72
    11
 73
     7
 74
     0
 42
1.000000000000000e-07
 43
1.000000000000000e-07
 12
-0.9999972526882175
 22
0.002344060030736728
 32
0.0000000000000000
 13
-0.8143761506007650
 23
0.5803373892294985
 33
0.0000000000000000
 40
0.0000000000000000
 40
0.0000000000000000
 40
0.0000000000000000
 40
0.0000000000000000
 40
0.2156980693710527
 40
0.4297486876160617
 40
0.5958859834443183
 40
0.7595118011465365
 40
0.7595118011465365
 40
0.7595118011465365
 40
0.7595118011465365
 10
51.71442178629741
 20
228.1099739062601
 30
0.0000000000000000
 10
51.64252262737034
 20
228.1101424426679
 30
0.0000000000000000
 10
51.49899299201024
 20
228.1224437633391
 30
0.0000000000000000
 10
51.30595430356379
 20
228.1730938440159
 30
0.0000000000000000
 10
51.13899992470010
 20
228.2450725491826
 30
0.0000000000000000
 10
51.04498682010967
 20
228.3028710969520
 30
0.0000000000000000
 10
51.00056916558992
 20
228.3345238235706
 30
0.0000000000000000
  0
SPLINE
  5
170
100
AcDbEntity
  8
A15
  6
CONTINUOUS
 62
7
100
AcDbSpline
210
0.0000000000000000
220
0.0000000000000000
230
1.000000000000000
 70
     8
 71
     3
 72
     9
 73
     5
 74
     0
 42
1.000000000000000e-07
 43
1.000000000000000e-07
 12
-0.9981553986071958
 22
0.06071079122193623
 32
0.0000000000000000
 13
-0.8511726155447832
 23
0.5248858718696283
 33
0.0000000000000000
 40
0.0000000000000000
 40
0.0000000000000000
 40
0.0000000000000000
 40
0.0000000000000000
 40
0.01083347611521330
 40
0.02057821125212800
 40
0.02057821125212800
 40
0.02057821125212800
 40
0.02057821125212800
 10
51.00056916823212
 20
199.3854239888683
 30
0.0000000000000000
 10
50.99696467067542
 20
199.3856432251705
 30
0.0000000000000000
 10
50.99013096219642
 20
199.3869150575519
 30
0.0000000000000000
 10
50.98386544862569
 20
199.3898753868825
 30
0.0000000000000000
 10
50.98110063139427
 20
199.3915803448153
 30
0.0000000000000000
  0
SPLINE
  5
171
100
AcDbEntity
  8
A15
  6
CONTINUOUS
 62
7
100
AcDbSpline
210
0.0000000000000000
220
0.0000000000000000
230
1.000000000000000
 70
     8
 71
     3
 72
    11
 73
     7
 74
     0
 42
1.000000000000000e-07
 43
1.000000000000000e-07
 12
0.8158115542823907
 22
0.5783178260244313
 32
0.0000000000000000
 13
0.9999987323114965
 23
0.001592286416780553
 33
0.0000000000000000
 40
0.0000000000000000
 40
0.0000000000000000
 40
0.0000000000000000
 40
0.0000000000000000
 40
0.2085948582856208
 40
0.4210333989396535
 40
0.5898518095749894
 40
0.7594999286557915
 40
0.7594999286557915
 40
0.7594999286557915
 40
0.7594999286557915
 10
51.00056916823212
 20
199.3854239888683
 30
0.0000000000000000
 10
51.05729386674989
 20
199.4256353638561
 30
0.0000000000000000
 10
51.17895298086592
 20
199.4973119951305
 30
0.0000000000000000
 10
51.36455288651405
 20
199.5651925377565
 30
0.0000000000000000
 10
51.54489804900959
 20
199.6022446507577
 30
0.0000000000000000
 10
51.65787248495747
 20
199.6098838634616
 30
0.0000000000000000
 10
51.71442178629741
 20
199.6099739062601
 30
0.0000000000000000
  0
SPLINE
  5
172
100
AcDbEntity
  8
A15
  6
CONTINUOUS
 62
7
100
AcDbSpline
210
0.0000000000000000
220
0.0000000000000000
230
1.000000000000000
 70
     8
 71
     3
 72
     9
 73
     5
 74
     0
 42
1.000000000000000e-07
 43
1.000000000000000e-07
 12
0.9683093358457882
 22
0.2497539391570172
 32
0.0000000000000000
 13
0.9999999956219199
 23
9.356910140922992e-05
 33
0.0000000000000000
 40
0.0000000000000000
 40
0.0000000000000000
 40
0.0000000000000000
 40
0.0000000000000000
 40
0.1423287077935536
 40
0.2524111074456047
 40
0.2524111074456047
 40
0.2524111074456047
 40
0.2524111074456047
 10
74.77636254752770
 20
225.0782197428288
 30
0.0000000000000000
 10
74.82230195303282
 20
225.0900687946377
 30
0.0000000000000000
 10
74.90538514500508
 20
225.1053800773279
 30
0.0000000000000000
 10
74.98957241094558
 20
225.1099704728231
 30
0.0000000000000000
 10
75.02626654400228
 20
225.1099739062601
 30
0.0000000000000000
  0
SPLINE
  5
173
100
AcDbEntity
  8
A15
  6
CONTINUOUS
 62
7
100
AcDbSpline
210
0.0000000000000000
220
0.0000000000000000
230
1.000000000000000
 70
     8
 71
     3
 72
     9
 73
     5
 74
     0
 42
1.000000000000000e-07
 43
1.000000000000000e-07
 12
-0.9999999418423613
 22
0.0003410493854971719
 32
0.0000000000000000
 13
-0.9682511330986472
 23
0.2499794856566950
 33
0.0000000000000000
 40
0.0000000000000000
 40
0.0000000000000000
 40
0.0000000000000000
 40
0.0000000000000000
 40
0.1402732725687382
 40
0.2524130113899676
 40
0.2524130113899676
 40
0.2524130113899676
 40
0.2524130113899676
 10
75.02626654400228
 20
202.6099739062601
 30
0.0000000000000000
 10
74.97950878919869
 20
202.6099898529646
 30
0.0000000000000000
 10
74.89524239517505
 20
202.6158570454072
 30
0.0000000000000000
 10
74.81255569051984
 20
202.6323838582971
 30
0.0000000000000000
 10
74.77636254746017
 20
202.6417280697078
 30
0.0000000000000000
  0
ELLIPSE
  5
174
100
AcDbEntity
  8
A15
  6
CONTINUOUS
 62
7
100
AcDbEllipse
 10
51.00499603065828
 20
227.0726184466702
 30
0.0000000000000000
 11
1.545016919756360
 21
0.4963654381559089
 31
0.0000000000000000
210
0.0000000000000000
220
0.0000000000000000
230
1.000000000000000
 40
0.7625815233824265
 41
1.333318154347864
 42
1.345132428196141
  0
ARC
  5
175
100
AcDbEntity
  8
A15
  6
CONTINUOUS
 62
7
100
AcDbCircle
 10
70.24440439003229
 20
234.1099739062601
 30
0.0000000000000000
 40
2.499999999999999
100
AcDbArc
 50
270.0000000000130
 51
450.0000000000133
  0
ARC
  5
176
100
AcDbEntity
  8
A15
  6
CONTINUOUS
 62
7
100
AcDbCircle
 10
70.24440439003229
 20
234.1099739062601
 30
0.0000000000000000
 40
2.499999999999999
100
AcDbArc
 50
179.9999999999999
 51
270.0000000000130
  0
ARC
  5
177
100
AcDbEntity
  8
A15
  6
CONTINUOUS
 62
7
100
AcDbCircle
 10
70.24170214836647
 20
234.1099739062601
 30
0.0000000000000000
 40
2.500000000000000
100
AcDbArc
 50
270.0000000000134
 51
450.0000000000000
  0
ARC
  5
178
100
AcDbEntity
  8
A15
  6
CONTINUOUS
 62
7
100
AcDbCircle
 10
70.24440439003263
 20
193.6099739062601
 30
0.0000000000000000
 40
2.499999999999999
100
AcDbArc
 50
90.00000000000000
 51
270.0000000000135
  0
ARC
  5
179
100
AcDbEntity
  8
A15
  6
CONTINUOUS
 62
7
100
AcDbCircle
 10
70.24170214836647
 20
193.6099739062601
 30
0.0000000000000000
 40
2.500000000000002
100
AcDbArc
 50
270.0000000000134
 51
450.0000000000000
  0
ARC
  5
17A
100
AcDbEntity
  8
A15
  6
CONTINUOUS
 62
7
100
AcDbCircle
 10
57.24441915570117
 20
234.1099739062601
 30
0.0000000000000000
 40
2.499999999999999
100
AcDbArc
 50
90.00000000000000
 51
270.0000000000135
  0
ARC
  5
17B
100
AcDbEntity
  8
A15
  6
CONTINUOUS
 62
7
100
AcDbCircle
 10
57.24171691403546
 20
234.1099739062601
 30
0.0000000000000000
 40
2.500000000000000
100
AcDbArc
 50
270.0000000000130
 51
450.0000000000000
  0
ARC
  5
17C
100
AcDbEntity
  8
A15
  6
CONTINUOUS
 62
7
100
AcDbCircle
 10
57.24441915570117
 20
193.6099739062601
 30
0.0000000000000000
 40
2.499999999999999
100
AcDbArc
 50
90.00000000000000
 51
270.0000000000135
  0
ARC
  5
17D
100
AcDbEntity
  8
A15
  6
CONTINUOUS
 62
7
100
AcDbCircle
 10
57.24171691403546
 20
193.6099739062601
 30
0.0000000000000000
 40
2.500000000000000
100
AcDbArc
 50
270.0000000000130
 51
450.0000000000000
  0
ARC
  5
17E
100
AcDbEntity
  8
A15
  6
CONTINUOUS
 62
7
100
AcDbCircle
 10
70.24440439003229
 20
234.1099739062601
 30
0.0000000000000000
 40
2.499999999999999
100
AcDbArc
 50
90.00000000001334
 51
179.9999999999999
  0
ARC
  5
17F
100
AcDbEntity
  8
A15
  6
CONTINUOUS
 62
7
100
AcDbCircle
 10
70.24440439003263
 20
193.6099739062601
 30
0.0000000000000000
 40
2.499999999999999
100
AcDbArc
 50
270.0000000000134
 51
450.0000000000000
  0
ARC
  5
180
100
AcDbEntity
  8
A15
  6
CONTINUOUS
 62
7
100
AcDbCircle
 10
57.24441915570117
 20
193.6099739062601
 30
0.0000000000000000
 40
2.499999999999999
100
AcDbArc
 50
270.0000000000134
 51
450.0000000000000
  0
ARC
  5
181
100
AcDbEntity
  8
A15
  6
CONTINUOUS
 62
7
100
AcDbCircle
 10
57.24441915570117
 20
234.1099739062601
 30
0.0000000000000000
 40
2.499999999999999
100
AcDbArc
 50
270.0000000000134
 51
450.0000000000000
  0
ARC
  5
182
100
AcDbEntity
  8
A15
  6
CONTINUOUS
 62
7
100
AcDbCircle
 10
52.99247533932305
 20
238.1099739062601
 30
0.0000000000000000
 40
3.000000000000000
100
AcDbArc
 50
89.99999999999980
 51
179.9999999999998
  0
ARC
  5
183
100
AcDbEntity
  8
A15
  6
CONTINUOUS
 62
7
100
AcDbCircle
 10
52.99247533932305
 20
189.6099739062602
 30
0.0000000000000000
 40
2.999999999999999
100
AcDbArc
 50
180.0000000000000
 51
270.0000000000000
  0
ARC
  5
184
100
AcDbEntity
  8
A15
  6
CONTINUOUS
 62
7
100
AcDbCircle
 10
70.24848453081381
 20
193.6099739062601
 30
0.0000000000000000
 40
5.000000000000001
100
AcDbArc
 50
270.0000000000000
 51
450.0000000000000
  0
ARC
  5
185
100
AcDbEntity
  8
A15
  6
CONTINUOUS
 62
7
100
AcDbCircle
 10
70.24953956808349
 20
193.6099739062601
 30
0.0000000000000000
 40
4.999999999999997
100
AcDbArc
 50
109.3700178830935
 51
270.0000000000002
  0
ARC
  5
186
100
AcDbEntity
  8
A15
  6
CONTINUOUS
 62
7
100
AcDbCircle
 10
70.24953956808349
 20
234.1099739062601
 30
0.0000000000000000
 40
4.999999999999987
100
AcDbArc
 50
289.3700178830939
 51
450.0000000000000
  0
ARC
  5
187
100
AcDbEntity
  8
A15
  6
CONTINUOUS
 62
7
100
AcDbCircle
 10
70.24848453081381
 20
234.1099739062601
 30
0.0000000000000000
 40
5.000000000000001
100
AcDbArc
 50
288.9641377923894
 51
450.0000000000000
  0
ARC
  5
188
100
AcDbEntity
  8
A15
  6
CONTINUOUS
 62
7
100
AcDbCircle
 10
57.24955433375237
 20
234.1099739062601
 30
0.0000000000000000
 40
4.999999999999997
100
AcDbArc
 50
289.3700178830937
 51
449.9999999999998
  0
ARC
  5
189
100
AcDbEntity
  8
A15
  6
CONTINUOUS
 62
7
100
AcDbCircle
 10
57.24849929648269
 20
234.1099739062601
 30
0.0000000000000000
 40
4.999999999999994
100
AcDbArc
 50
288.9641377923898
 51
450.0000000000000
  0
ARC
  5
18A
100
AcDbEntity
  8
A15
  6
CONTINUOUS
 62
7
100
AcDbCircle
 10
57.24849929648281
 20
193.6099739062601
 30
0.0000000000000000
 40
4.999999999999994
100
AcDbArc
 50
270.0000000000000
 51
450.0000000000000
  0
ARC
  5
18B
100
AcDbEntity
  8
A15
  6
CONTINUOUS
 62
7
100
AcDbCircle
 10
57.24955433375237
 20
193.6099739062601
 30
0.0000000000000000
 40
4.999999999999994
100
AcDbArc
 50
109.3700178830933
 51
270.0000000000000
  0
ARC
  5
18C
100
AcDbEntity
  8
A15
  6
CONTINUOUS
 62
7
100
AcDbCircle
 10
74.49847970357598
 20
238.1099739062601
 30
0.0000000000000000
 40
3.000000000000000
100
AcDbArc
 50
1.017777498068325e-13
 51
90.00000000000000
  0
ARC
  5
18D
100
AcDbEntity
  8
A15
  6
CONTINUOUS
 62
7
100
AcDbCircle
 10
74.49847970357598
 20
189.6099739062602
 30
0.0000000000000000
 40
3.000000000000003
100
AcDbArc
 50
270.0000000000000
 51
360.0000000000000
  0
ARC
  5
18E
100
AcDbEntity
  8
A15
  6
CONTINUOUS
 62
7
100
AcDbCircle
 10
70.24953956808349
 20
234.1099739062601
 30
0.0000000000000000
 40
4.999999999999987
100
AcDbArc
 50
90.00000000000000
 51
250.6299821169062
  0
ARC
  5
18F
100
AcDbEntity
  8
A15
  6
CONTINUOUS
 62
7
100
AcDbCircle
 10
70.24953956808349
 20
193.6099739062601
 30
0.0000000000000000
 40
4.999999999999997
100
AcDbArc
 50
270.0000000000002
 51
430.6299821169062
  0
ARC
  5
190
100
AcDbEntity
  8
A15
  6
CONTINUOUS
 62
7
100
AcDbCircle
 10
57.24955433375237
 20
234.1099739062601
 30
0.0000000000000000
 40
4.999999999999997
100
AcDbArc
 50
89.99999999999980
 51
250.6299821169067
  0
ARC
  5
191
100
AcDbEntity
  8
A15
  6
CONTINUOUS
 62
7
100
AcDbCircle
 10
57.24955433375237
 20
193.6099739062601
 30
0.0000000000000000
 40
4.999999999999994
100
AcDbArc
 50
270.0000000000000
 51
430.6299821169065
  0
ARC
  5
192
100
AcDbEntity
  8
A15
  6
CONTINUOUS
 62
7
100
AcDbCircle
 10
70.24934863882413
 20
193.6111037283672
 30
0.0000000000000000
 40
4.998870183988623
100
AcDbArc
 50
89.99720539403940
 51
109.3722483768933
  0
ARC
  5
193
100
AcDbEntity
  8
A15
  6
CONTINUOUS
 62
7
100
AcDbCircle
 10
70.24983638991330
 20
234.1082238351737
 30
0.0000000000000000
 40
4.998249927484792
100
AcDbArc
 50
269.9989558930283
 51
289.3734616605901
  0
ARC
  5
194
100
AcDbEntity
  8
A15
  6
CONTINUOUS
 62
7
100
AcDbCircle
 10
70.24934633532507
 20
234.1088304548148
 30
0.0000000000000000
 40
4.998856562217670
100
AcDbArc
 50
250.6277247128482
 51
270.0045729161826
  0
ARC
  5
195
100
AcDbEntity
  8
A15
  6
CONTINUOUS
 62
7
100
AcDbCircle
 10
52.99850412372075
 20
189.6099739062602
 30
0.0000000000000000
 40
2.999999999999999
100
AcDbArc
 50
180.0000000000000
 51
270.0000000000000
  0
ARC
  5
196
100
AcDbEntity
  8
A15
  6
CONTINUOUS
 62
7
100
AcDbCircle
 10
52.99850412372075
 20
238.1099739062601
 30
0.0000000000000000
 40
3.000000000000000
100
AcDbArc
 50
90.00000000000000
 51
179.9999999999999
  0
ARC
  5
197
100
AcDbEntity
  8
A15
  6
CONTINUOUS
 62
7
100
AcDbCircle
 10
57.24936340449312
 20
193.6111037283672
 30
0.0000000000000000
 40
4.998870183988595
100
AcDbArc
 50
89.99720539403899
 51
109.3722483768927
  0
ARC
  5
198
100
AcDbEntity
  8
A15
  6
CONTINUOUS
 62
7
100
AcDbCircle
 10
57.24985115558229
 20
234.1082238351737
 30
0.0000000000000000
 40
4.998249927484700
100
AcDbArc
 50
269.9989558929271
 51
289.3734616605904
  0
ARC
  5
199
100
AcDbEntity
  8
A15
  6
CONTINUOUS
 62
7
100
AcDbCircle
 10
57.24936110099407
 20
234.1088304548152
 30
0.0000000000000000
 40
4.998856562217770
100
AcDbArc
 50
250.6277247128486
 51
270.0045729160811
  0
ARC
  5
19A
100
AcDbEntity
  8
A15
  6
CONTINUOUS
 62
7
100
AcDbCircle
 10
735.5546381860376
 20
198.8760420110219
 30
0.0000000000000000
 40
658.0562156788232
100
AcDbArc
 50
179.8625804121472
 51
180.0231660753565
  0
ARC
  5
19B
100
AcDbEntity
  8
A15
  6
CONTINUOUS
 62
7
100
AcDbCircle
 10
789.8134354024838
 20
228.8855065308493
 30
0.0000000000000000
 40
712.3149944738719
100
AcDbArc
 50
179.9819447385468
 51
180.1280226964101
  0
ARC
  5
19C
100
AcDbEntity
  8
A15
  6
CONTINUOUS
 62
7
100
AcDbCircle
 10
76.52334616757503
 20
201.6099739062601
 30
0.0000000000000000
 40
1.000000000000001
100
AcDbArc
 50
0.0000000000000000
 51
90.00000000000000
  0
ARC
  5
19D
100
AcDbEntity
  8
A15
  6
CONTINUOUS
 62
7
100
AcDbCircle
 10
76.52334616757503
 20
226.1099739062601
 30
0.0000000000000000
 40
1.000000000000001
100
AcDbArc
 50
270.0000000000008
 51
360.0000000000000
  0
ARC
  5
19E
100
AcDbEntity
  8
A15
  6
CONTINUOUS
 62
7
100
AcDbCircle
 10
76.52334616757503
 20
227.1099739062601
 30
0.0000000000000000
 40
1.000000000000001
100
AcDbArc
 50
7.633331235512441e-13
 51
90.00000000000000
  0
ARC
  5
19F
100
AcDbEntity
  8
A15
  6
CONTINUOUS
 62
7
100
AcDbCircle
 10
76.52334616757503
 20
200.6099739062601
 30
0.0000000000000000
 40
1.000000000000001
100
AcDbArc
 50
270.0000000000000
 51
359.9999999999999
  0
ARC
  5
1A0
100
AcDbEntity
  8
A15
  6
CONTINUOUS
 62
7
100
AcDbCircle
 10
75.02636226350501
 20
224.1099739062601
 30
0.0000000000000000
 40
1.000000000000001
100
AcDbArc
 50
104.4774964291198
 51
180.0000000000000
  0
ARC
  5
1A1
100
AcDbEntity
  8
A15
  6
CONTINUOUS
 62
7
100
AcDbCircle
 10
75.02636226350501
 20
203.6099739062601
 30
0.0000000000000000
 40
1.000000000000001
100
AcDbArc
 50
180.0000000000001
 51
255.5225035668821
  0
LINE
  5
1A2
100
AcDbEntity
  8
A15
  6
CONTINUOUS
 62
7
100
AcDbLine
 10
52.99850412372076
 20
241.1099739062601
 30
0.0000000000000000
 11
52.99247533932306
 21
241.1099739062601
 31
0.0000000000000000
  0
LINE
  5
1A3
100
AcDbEntity
  8
A15
  6
CONTINUOUS
 62
7
100
AcDbLine
 10
52.99247533932309
 20
186.6099739062600
 30
0.0000000000000000
 11
52.99850412372067
 21
186.6099739062600
 31
0.0000000000000000
  0
LINE
  5
1A4
100
AcDbEntity
  8
A15
  6
CONTINUOUS
 62
7
100
AcDbLine
 10
49.99247874678509
 20
189.6099739062603
 30
0.0000000000000000
 11
49.99247874678509
 21
238.1099739062601
 31
0.0000000000000000
  0
LINE
  5
1A5
100
AcDbEntity
  8
A15
  6
CONTINUOUS
 62
7
100
AcDbLine
 10
77.49847629611385
 20
229.1099739062601
 30
0.0000000000000000
 11
77.49847629611385
 21
238.1099739062601
 31
0.0000000000000000
  0
LINE
  5
1A6
100
AcDbEntity
  8
A15
  6
CONTINUOUS
 62
7
100
AcDbLine
 10
77.49847629611385
 20
189.6099739062603
 30
0.0000000000000000
 11
77.49847629611385
 21
198.6099739062603
 31
0.0000000000000000
  0
LINE
  5
1A7
100
AcDbEntity
  8
A15
  6
CONTINUOUS
 62
7
100
AcDbLine
 10
74.49847970357600
 20
186.6099739062603
 30
0.0000000000000000
 11
52.99850412372076
 21
186.6099739062603
 31
0.0000000000000000
  0
LINE
  5
1A8
100
AcDbEntity
  8
A15
  6
CONTINUOUS
 62
7
100
AcDbLine
 10
52.99850412372076
 20
241.1099739062601
 30
0.0000000000000000
 11
74.49847970357600
 21
241.1099739062601
 31
0.0000000000000000
  0
LINE
  5
1A9
100
AcDbEntity
  8
A15
  6
CONTINUOUS
 62
7
100
AcDbLine
 10
77.49998349221336
 20
201.8248631088314
 30
0.0000000000000000
 11
77.49998349221336
 21
225.8950847036885
 31
0.0000000000000000
  0
LINE
  5
1AA
100
AcDbEntity
  8
A15
  6
CONTINUOUS
 62
7
100
AcDbLine
 10
60.76655820559472
 20
228.1099739062596
 30
0.0000000000000000
 11
51.71442178629741
 21
228.1099739062596
 31
0.0000000000000000
  0
LINE
  5
1AB
100
AcDbEntity
  8
A15
  6
CONTINUOUS
 62
7
100
AcDbLine
 10
51.71442178629741
 20
199.6099739062603
 30
0.0000000000000000
 11
60.76655820559484
 21
199.6099739062603
 31
0.0000000000000000
  0
LINE
  5
1AC
100
AcDbEntity
  8
A15
  6
CONTINUOUS
 62
7
100
AcDbLine
 10
76.52334843921655
 20
202.6099739062603
 30
0.0000000000000000
 11
75.02626654400230
 21
202.6099739062603
 31
0.0000000000000000
  0
LINE
  5
1AD
100
AcDbEntity
  8
A15
  6
CONTINUOUS
 62
7
100
AcDbLine
 10
75.02626654400233
 20
225.1099739062602
 30
0.0000000000000000
 11
76.52334843921646
 21
225.1099739062602
 31
0.0000000000000000
  0
LINE
  5
1AE
100
AcDbEntity
  8
A15
  6
CONTINUOUS
 62
7
100
AcDbLine
 10
77.52334503175440
 20
226.1099739062601
 30
0.0000000000000000
 11
77.52334503175440
 21
227.1099739062601
 31
0.0000000000000000
  0
LINE
  5
1AF
100
AcDbEntity
  8
A15
  6
CONTINUOUS
 62
7
100
AcDbLine
 10
74.52636283153554
 20
228.1099739062588
 30
0.0000000000000000
 11
76.52334843921648
 21
228.1099739062589
 31
0.0000000000000000
  0
LINE
  5
1B0
100
AcDbEntity
  8
A15
  6
CONTINUOUS
 62
7
100
AcDbLine
 10
76.52334616757504
 20
199.6099739062603
 30
0.0000000000000000
 11
74.52636283141534
 21
199.6099739062603
 31
0.0000000000000000
  0
LINE
  5
1B1
100
AcDbEntity
  8
A15
  6
CONTINUOUS
 62
7
100
AcDbLine
 10
77.52334503175440
 20
200.6099739062603
 30
0.0000000000000000
 11
77.52334503175440
 21
201.6099739062603
 31
0.0000000000000000
  0
LINE
  5
1B2
100
AcDbEntity
  8
A15
  6
CONTINUOUS
 62
7
100
AcDbLine
 10
74.02636339932566
 20
203.6099739062603
 30
0.0000000000000000
 11
74.02636339932566
 21
224.1099739062601
 31
0.0000000000000000
  0
LINE
  5
1B3
100
AcDbEntity
  8
A15
  6
CONTINUOUS
 62
7
100
AcDbLine
 10
61.63813565853375
 20
228.1099739062599
 30
0.0000000000000000
 11
74.52636283153561
 21
228.1099739062599
 31
0.0000000000000000
  0
LINE
  5
1B4
100
AcDbEntity
  8
A15
  6
CONTINUOUS
 62
7
100
AcDbLine
 10
61.63813565853378
 20
199.6099739062603
 30
0.0000000000000000
 11
74.52636283141534
 21
199.6099739062603
 31
0.0000000000000000
  0
LINE
  5
1B5
100
AcDbEntity
  8
A15
  6
CONTINUOUS
 62
7
100
AcDbLine
 10
61.63813565853378
 20
199.6099739062603
 30
0.0000000000000000
 11
60.76655820559484
 21
199.6099739062603
 31
0.0000000000000000
  0
LINE
  5
1B6
100
AcDbEntity
  8
A15
  6
CONTINUOUS
 62
7
100
AcDbLine
 10
61.63813565853393
 20
228.1099739062604
 30
0.0000000000000000
 11
60.76655820559500
 21
228.1099739062603
 31
0.0000000000000000
  0
LINE
  5
1B7
100
AcDbEntity
  8
A15
  6
CENTER
 62
1
100
AcDbLine
 10
57.24955433375237
 20
200.1099739062601
 30
0.0000000000000000
 11
57.24955433375237
 21
187.1099739062602
 31
0.0000000000000000
  0
LINE
  5
1B8
100
AcDbEntity
  8
A15
  6
CENTER
 62
1
100
AcDbLine
 10
76.74848453081381
 20
193.6099739062601
 30
0.0000000000000000
 11
50.74955433375237
 21
193.6099739062601
 31
0.0000000000000000
  0
LINE
  5
1B9
100
AcDbEntity
  8
A15
  6
CENTER
 62
1
100
AcDbLine
 10
70.24953956808349
 20
200.1099738206368
 30
0.0000000000000000
 11
70.24953956808349
 21
187.1099739062602
 31
0.0000000000000000
  0
LINE
  5
1BA
100
AcDbEntity
  8
A10
  6
CENTER
 62
1
100
AcDbLine
 10
78.99998349221335
 20
213.8599739062601
 30
0.0000000000000000
 11
48.49247874678497
 21
213.8599739062601
 31
0.0000000000000000
  0
LINE
  5
1BB
100
AcDbEntity
  8
A15
  6
CENTER
 62
1
100
AcDbLine
 10
76.74953956808349
 20
234.1099739062601
 30
0.0000000000000000
 11
50.74955433375237
 21
234.1099739062601
 31
0.0000000000000000
  0
LINE
  5
1BC
100
AcDbEntity
  8
A15
  6
CENTER
 62
1
100
AcDbLine
 10
57.24955433375237
 20
240.6099739062601
 30
0.0000000000000000
 11
57.24955433375237
 21
227.6099738954701
 31
0.0000000000000000
  0
LINE
  5
1BD
100
AcDbEntity
  8
A15
  6
CENTER
 62
1
100
AcDbLine
 10
70.24953956808349
 20
240.6099739062601
 30
0.0000000000000000
 11
70.24953956808349
 21
227.6099739144679
 31
0.0000000000000000
  0
LINE
  5
1BE
100
AcDbEntity
  8
A10
  6
CENTER
 62
1
100
AcDbLine
 10
70.24728128540603
 20
57.50001554593886
 30
0.0000000000000000
 11
70.26085297594098
 21
48.50001555635658
 31
0.0000000000000000
  0
LINE
  5
1BF
100
AcDbEntity
  8
A10
  6
CENTER
 62
1
100
AcDbLine
 10
57.24728128540983
 20
57.50000556449132
 30
0.0000000000000000
 11
57.26085297594477
 21
48.50000557490904
 31
0.0000000000000000
  0
LINE
  5
1C0
100
AcDbEntity
  8
A10
  6
CONTINUOUS
 62
7
100
AcDbLine
 10
282.8745741054038
 20
207.1117430776662
 30
0.0000000000000000
 11
282.8745741054038
 21
220.6082047348542
 31
0.0000000000000000
  0
LINE
  5
1C1
100
AcDbEntity
  8
A10
  6
CONTINUOUS
 62
7
100
AcDbLine
 10
154.5821670228290
 20
205.8974239770942
 30
0.0000000000000000
 11
154.5821670228290
 21
221.8225332400390
 31
0.0000000000000000
  0
LINE
  5
1C2
100
AcDbEntity
  8
A10
  6
CONTINUOUS
 62
7
100
AcDbLine
 10
169.5822165604823
 20
205.3599739062698
 30
0.0000000000000000
 11
169.5822165604823
 21
222.3599739062502
 31
0.0000000000000000
  0
ENDSEC
  0
SECTION
  2
OBJECTS
  0
DICTIONARY
  5
1F3
100
AcDbDictionary
  3
ACAD_GROUP
350
1F4
  3
ACAD_LAYOUT
350
1F5
  3
ACAD_MLINESTYLE
350
1F6
  0
DICTIONARY
  5
1F4
102
{ACAD_REACTORS
330
1F3
102
}
330
1F3
100
AcDbDictionary
  0
DICTIONARY
  5
1F5
102
{ACAD_REACTORS
330
1F3
102
}
330
1F3
100
AcDbDictionary
  3
Model
350
1F7
  3
ﾚｲｱｳﾄ1
350
1F8
  3
ﾚｲｱｳﾄ2
350
1F9
  0
DICTIONARY
  5
1F6
102
{ACAD_REACTORS
330
1F3
102
}
330
1F3
100
AcDbDictionary
  3
STANDARD
350
1FA
  0
LAYOUT
  5
1F7
102
{ACAD_REACTORS
330
1F5
102
}
330
1F5
100
AcDbPlotSettings
 70
11952
  4
A3
 44
297.000000
 45
420.000000
 73
  1
 72
  1
100
AcDbLayout
  1
Model
 71
0
330
1EA
  0
LAYOUT
  5
1F8
102
{ACAD_REACTORS
330
1F5
102
}
330
1F5
100
AcDbPlotSettings
100
AcDbLayout
  1
ﾚｲｱｳﾄ1
 71
1
330
1EB
  0
LAYOUT
  5
1F9
102
{ACAD_REACTORS
330
1F5
102
}
330
1F5
100
AcDbPlotSettings
100
AcDbLayout
  1
ﾚｲｱｳﾄ2
 71
2
330
1EC
  0
MLINESTYLE
  5
1FA
102
{ACAD_REACTORS
330
1F6
102
}
330
1F6
100
AcDbMlineStyle
  2
STANDARD
 70
     0
  3

 62
   256
 51
90.00
 52
90.00
 71
     2
 49
0.50
 62
   256
  6
BYLAYER
 49
-0.50
 62
   256
  6
BYLAYER
  0
ENDSEC
  0
EOF
