  0
SECTION
  2
HEADER
  9
$ACADVER
  1
AC1024
  9
$DWGCODEPAGE
  3
ANSI_932
  9
$LTSCALE
 40
20.0
  9
$FILLMODE
 70
     1
  9
$CLAYER
  8
0
  9
$PDMODE
 70
     0
  9
$SPLFRAME
 70
     0
  9
$SPLINETYPE
 70
     6
  9
$SPLINESEGS
 70
     8
  9
$DIMASZ
 40
2.000000
  9
$DIMEXE
 40
1.500000
  9
$DIMEXO
 40
0.800000
  9
$DIMTAD
 70
     1
  9
$DIMTIH
 70
     0
  9
$DIMTOH
 70
     0
  9
$DIMTVP
 40
0.500000
  9
$DIMTXT
 40
3.100000
  9
$EXTMIN
 10
0.000000
 20
0.000000
 30
0.000000
  9
$EXTMAX
 10
297.000000
 20
420.000000
 30
0.000000
  9
$MEASUREMENT
 70
  1
  9
$LIMMIN
 10
0.000000
 20
0.000000
  9
$LIMMAX
 10
297.000000
 20
420.000000
  9
$HANDSEED
  5
13E
  9
$LWDISPLAY
290
     0
  9
$DIMBLK
  1
_OPEN
  9
$DIMDEC
 70
     2
  9
$DIMADEC
 70
     2
  9
$DIMAUNIT
 70
     0
  9
$DIMZIN
 70
     8
  9
$DIMAZIN
 70
     2
  9
$DIMTOFL
 70
     1
  0
ENDSEC
  0
SECTION
  2
CLASSES
  0
ENDSEC
  0
SECTION
  2
TABLES
  0
TABLE
  2
VPORT
  5
109
100
AcDbSymbolTable
 70
     1
  0
VPORT
  5
10A
100
AcDbSymbolTableRecord
100
AcDbViewportTableRecord
  2
*ACTIVE
 70
     0
 12
108.499911
 22
96.003420
 40
156.006839
 41
1.262764
  0
ENDTAB
  0
TABLE
  2
LTYPE
  5
10B
100
AcDbSymbolTable
 70
     2
  0
LTYPE
  5
10C
100
AcDbSymbolTableRecord
100
AcDbLinetypeTableRecord
  2
BYBLOCK
 70
     0
  3

 72
    65
 73
     0
 40
0.0
  0
LTYPE
  5
10D
100
AcDbSymbolTableRecord
100
AcDbLinetypeTableRecord
  2
BYLAYER
 70
     0
  3

 72
    65
 73
     0
 40
0.0
  0
LTYPE
  5
10E
100
AcDbSymbolTableRecord
100
AcDbLinetypeTableRecord
  2
CONTINUOUS
 70
     0
  3
Solid line (NEC CAE2D for Win R18.0 : 2024.03.26)
 72
    65
 73
     0
 40
0.0
  0
LTYPE
  5
10F
100
AcDbSymbolTableRecord
100
AcDbLinetypeTableRecord
  2
CENTER
 70
     0
  3
____ _ ____ _ ____ _ ____ _ ____ _ ____
 72
    65
 73
     4
 40
2.0
 49
1.25
 74
     0
 49
-0.25
 74
     0
 49
0.25
 74
     0
 49
-0.25
 74
     0
  0
ENDTAB
  0
TABLE
  2
LAYER
  5
110
100
AcDbSymbolTable
 70
    15
  0
LAYER
  5
111
100
AcDbSymbolTableRecord
100
AcDbLayerTableRecord
  2
0
 70
     0
 62
     7
  6
CONTINUOUS
370
    -3
390

  0
LAYER
  5
112
100
AcDbSymbolTableRecord
100
AcDbLayerTableRecord
  2
A0
 70
     0
 62
     9
  6
CONTINUOUS
370
    -3
390

  0
LAYER
  5
113
100
AcDbSymbolTableRecord
100
AcDbLayerTableRecord
  2
A1
 70
     0
 62
    12
  6
CONTINUOUS
370
    -3
390

  0
LAYER
  5
114
100
AcDbSymbolTableRecord
100
AcDbLayerTableRecord
  2
A2
 70
     0
 62
     9
  6
CONTINUOUS
370
    -3
390

  0
LAYER
  5
115
100
AcDbSymbolTableRecord
100
AcDbLayerTableRecord
  2
A4
 70
     0
 62
     9
  6
CONTINUOUS
370
    -3
390

  0
LAYER
  5
116
100
AcDbSymbolTableRecord
100
AcDbLayerTableRecord
  2
A5
 70
     0
 62
     8
  6
CONTINUOUS
370
    -3
390

  0
LAYER
  5
117
100
AcDbSymbolTableRecord
100
AcDbLayerTableRecord
  2
A6
 70
     0
 62
    12
  6
CONTINUOUS
370
    -3
390

  0
LAYER
  5
118
100
AcDbSymbolTableRecord
100
AcDbLayerTableRecord
  2
A8
 70
     0
 62
    10
  6
CONTINUOUS
370
    -3
390

  0
LAYER
  5
119
100
AcDbSymbolTableRecord
100
AcDbLayerTableRecord
  2
A9
 70
     0
 62
     9
  6
CONTINUOUS
370
    -3
390

  0
LAYER
  5
11A
100
AcDbSymbolTableRecord
100
AcDbLayerTableRecord
  2
A10
 70
     0
 62
     6
  6
CONTINUOUS
370
    -3
390

  0
LAYER
  5
11B
100
AcDbSymbolTableRecord
100
AcDbLayerTableRecord
  2
A20
 70
     0
 62
     1
  6
CONTINUOUS
370
    -3
390

  0
LAYER
  5
11C
100
AcDbSymbolTableRecord
100
AcDbLayerTableRecord
  2
A30
 70
     0
 62
     1
  6
CONTINUOUS
370
    -3
390

  0
LAYER
  5
11D
100
AcDbSymbolTableRecord
100
AcDbLayerTableRecord
  2
A40
 70
     0
 62
     9
  6
CONTINUOUS
370
    -3
390

  0
LAYER
  5
11E
100
AcDbSymbolTableRecord
100
AcDbLayerTableRecord
  2
A50
 70
     0
 62
    12
  6
CONTINUOUS
370
    -3
390

  0
LAYER
  5
11F
100
AcDbSymbolTableRecord
100
AcDbLayerTableRecord
  2
A1023
 70
     0
 62
    16
  6
CONTINUOUS
370
    -3
390

  0
ENDTAB
  0
TABLE
  2
STYLE
  5
120
100
AcDbSymbolTable
 70
     4
  0
STYLE
  5
121
100
AcDbSymbolTableRecord
100
AcDbTextStyleTableRecord
  2
STANDARD
 70
    64
 40
0.0
 41
1.0
 50
0.0
 71
     0
 42
3.000000000000000
  3
TXT
  4

  0
STYLE
  5
122
100
AcDbSymbolTableRecord
100
AcDbTextStyleTableRecord
  2
ANKTATE
 70
    68
 40
0.0
 41
1.0
 50
0.0
 71
     0
 42
3.000000000000000
  3
TXT
  4

  0
STYLE
  5
123
100
AcDbSymbolTableRecord
100
AcDbTextStyleTableRecord
  2
KNJYOKO
 70
    64
 40
0.0
 41
1.0
 50
0.0
 71
     0
 42
3.000000000000000
  3
TXT
  4
BIGFONT
  0
STYLE
  5
124
100
AcDbSymbolTableRecord
100
AcDbTextStyleTableRecord
  2
KNJTATE
 70
    68
 40
0.0
 41
1.0
 50
0.0
 71
     0
 42
3.000000000000000
  3
TXT
  4
BIGFONT
  0
ENDTAB
  0
TABLE
  2
VIEW
  5
125
100
AcDbSymbolTable
 70
     0
  0
ENDTAB
  0
TABLE
  2
UCS
  5
126
100
AcDbSymbolTable
 70
     0
  0
ENDTAB
  0
TABLE
  2
APPID
  5
127
100
AcDbSymbolTable
 70
     1
  0
APPID
  5
128
100
AcDbSymbolTableRecord
100
AcDbRegAppTableRecord
  2
ACAD
 70
     0
  0
ENDTAB
  0
TABLE
  2
DIMSTYLE
  5
129
100
AcDbSymbolTable
 70
     2
100
AcDbDimStyleTable
  0
DIMSTYLE
105
12A
100
AcDbSymbolTableRecord
100
AcDbDimStyleTableRecord
  2
STANDARD
 70
     0
 41
2.000000
 44
1.500000
 42
0.800000
145
0.661290
140
3.100000
144
1.000000
146
0.645161
340
121
  0
DIMSTYLE
105
12B
100
AcDbSymbolTableRecord
100
AcDbDimStyleTableRecord
  2
A001
 70
     0
 41
2.000000
 44
1.500000
 42
0.800000
145
0.661290
140
3.100000
144
1.000000
146
0.645161
 77
     1
 73
     0
 74
     0
271
     2
179
     2
275
     0
 78
     8
 79
     2
172
     1
340
121
  0
ENDTAB
  0
TABLE
  2
BLOCK_RECORD
  5
12C
100
AcDbSymbolTable
 70
    12
  0
BLOCK_RECORD
  5
12D
100
AcDbSymbolTableRecord
100
AcDbBlockTableRecord
  2
*MODEL_SPACE
  0
BLOCK_RECORD
  5
12E
100
AcDbSymbolTableRecord
100
AcDbBlockTableRecord
  2
*PAPER_SPACE
  0
BLOCK_RECORD
  5
12F
100
AcDbSymbolTableRecord
100
AcDbBlockTableRecord
  2
*PAPER_SPACE0
  0
BLOCK_RECORD
  5
1
100
AcDbSymbolTableRecord
100
AcDbBlockTableRecord
  2
_NONE
  0
BLOCK_RECORD
  5
4
100
AcDbSymbolTableRecord
100
AcDbBlockTableRecord
  2
_CLOSED
  0
BLOCK_RECORD
  5
B
100
AcDbSymbolTableRecord
100
AcDbBlockTableRecord
  2
_DOT
  0
BLOCK_RECORD
  5
13
100
AcDbSymbolTableRecord
100
AcDbBlockTableRecord
  2
_OPEN
  0
BLOCK_RECORD
  5
19
100
AcDbSymbolTableRecord
100
AcDbBlockTableRecord
  2
_ORIGIN
  0
BLOCK_RECORD
  5
1E
100
AcDbSymbolTableRecord
100
AcDbBlockTableRecord
  2
_OPEN30
  0
BLOCK_RECORD
  5
24
100
AcDbSymbolTableRecord
100
AcDbBlockTableRecord
  2
_BOXFILLED
  0
BLOCK_RECORD
  5
29
100
AcDbSymbolTableRecord
100
AcDbBlockTableRecord
  2
_BOXBLANK
  0
BLOCK_RECORD
  5
31
100
AcDbSymbolTableRecord
100
AcDbBlockTableRecord
  2
_OBLIQUE
  0
BLOCK_RECORD
  5
35
100
AcDbSymbolTableRecord
100
AcDbBlockTableRecord
  2
_OPEN90
  0
BLOCK_RECORD
  5
3B
100
AcDbSymbolTableRecord
100
AcDbBlockTableRecord
  2
_CLOSEDBLANK
  0
BLOCK_RECORD
  5
41
100
AcDbSymbolTableRecord
100
AcDbBlockTableRecord
  2
_DOTBLANK
  0
ENDTAB
  0
ENDSEC
  0
SECTION
  2
BLOCKS
  0
BLOCK
  5
130
100
AcDbEntity
  8
0
100
AcDbBlockBegin
  2
*MODEL_SPACE
 70
     0
 10
0.0
 20
0.0
 30
0.0
  3
*MODEL_SPACE
  1

  0
ENDBLK
  5
131
100
AcDbEntity
  8
0
100
AcDbBlockEnd
  0
BLOCK
  5
132
100
AcDbEntity
  8
0
100
AcDbBlockBegin
  2
*PAPER_SPACE
 70
     0
 10
0.0
 20
0.0
 30
0.0
  3
*PAPER_SPACE
  1

  0
ENDBLK
  5
133
100
AcDbEntity
  8
0
100
AcDbBlockEnd
  0
BLOCK
  5
134
100
AcDbEntity
  8
0
100
AcDbBlockBegin
  2
*PAPER_SPACE0
 70
     0
 10
0.0
 20
0.0
 30
0.0
  3
*PAPER_SPACE0
  1

  0
ENDBLK
  5
135
100
AcDbEntity
  8
0
100
AcDbBlockEnd
  0
BLOCK
  5
2
330
1
100
AcDbEntity
  8
0
100
AcDbBlockBegin
  2
_NONE
 70
     0
 10
0.0
 20
0.0
 30
0.0
  3
_NONE
  1

  0
ENDBLK
  5
3
330
1
100
AcDbEntity
  8
0
100
AcDbBlockEnd
  0
BLOCK
  5
5
330
4
100
AcDbEntity
  8
0
100
AcDbBlockBegin
  2
_CLOSED
 70
     0
 10
0.0
 20
0.0
 30
0.0
  3
_CLOSED
  1

  0
LINE
  5
6
330
4
100
AcDbEntity
  8
0
  6
BYBLOCK
 62
     0
370
    -2
100
AcDbLine
 10
-1.0
 20
0.166667
 30
0.0
 11
0.0
 21
0.0
 31
0.0
  0
LINE
  5
7
330
4
100
AcDbEntity
  8
0
  6
BYBLOCK
 62
     0
370
    -2
100
AcDbLine
 10
0.0
 20
0.0
 30
0.0
 11
-1.0
 21
-0.166667
 31
0.0
  0
LINE
  5
8
330
4
100
AcDbEntity
  8
0
  6
BYBLOCK
 62
     0
370
    -2
100
AcDbLine
 10
-1.0
 20
0.166667
 30
0.0
 11
-1.0
 21
-0.166667
 31
0.0
  0
LINE
  5
9
330
4
100
AcDbEntity
  8
0
  6
BYBLOCK
 62
     0
370
    -2
100
AcDbLine
 10
0.0
 20
0.0
 30
0.0
 11
-1.0
 21
0.0
 31
0.0
  0
ENDBLK
  5
A
330
4
100
AcDbEntity
  8
0
100
AcDbBlockEnd
  0
BLOCK
  5
C
330
B
100
AcDbEntity
  8
0
100
AcDbBlockBegin
  2
_DOT
 70
     0
 10
0.0
 20
0.0
 30
0.0
  3
_DOT
  1

  0
POLYLINE
  5
D
330
B
100
AcDbEntity
  8
0
  6
BYBLOCK
 62
     0
370
    -2
100
AcDb2dPolyline
 66
     1
 10
0.0
 20
0.0
 30
0.0
 70
     1
 40
0.5
 41
0.5
  0
VERTEX
  5
E
330
B
100
AcDbEntity
  8
0
  6
BYBLOCK
 62
     0
370
    -2
100
AcDbVertex
100
AcDb2dVertex
 10
-0.25
 20
0.0
 30
0.0
 42
1.0
  0
VERTEX
  5
F
330
B
100
AcDbEntity
  8
0
  6
BYBLOCK
 62
     0
370
    -2
100
AcDbVertex
100
AcDb2dVertex
 10
0.25
 20
0.0
 30
0.0
 42
1.0
  0
SEQEND
  5
10
330
B
100
AcDbEntity
  8
0
  6
BYBLOCK
 62
     0
370
    -2
  0
LINE
  5
11
330
B
100
AcDbEntity
  8
0
  6
BYBLOCK
 62
     0
370
    -2
100
AcDbLine
 10
-0.5
 20
0.0
 30
0.0
 11
-1.0
 21
0.0
 31
0.0
  0
ENDBLK
  5
12
330
B
100
AcDbEntity
  8
0
100
AcDbBlockEnd
  0
BLOCK
  5
14
330
13
100
AcDbEntity
  8
0
100
AcDbBlockBegin
  2
_OPEN
 70
     0
 10
0.0
 20
0.0
 30
0.0
  3
_OPEN
  1

  0
LINE
  5
15
330
13
100
AcDbEntity
  8
0
  6
BYBLOCK
 62
     0
370
    -2
100
AcDbLine
 10
-1.0
 20
0.166667
 30
0.0
 11
0.0
 21
0.0
 31
0.0
  0
LINE
  5
16
330
13
100
AcDbEntity
  8
0
  6
BYBLOCK
 62
     0
370
    -2
100
AcDbLine
 10
0.0
 20
0.0
 30
0.0
 11
-1.0
 21
-0.166667
 31
0.0
  0
LINE
  5
17
330
13
100
AcDbEntity
  8
0
  6
BYBLOCK
 62
     0
370
    -2
100
AcDbLine
 10
0.0
 20
0.0
 30
0.0
 11
-1.0
 21
0.0
 31
0.0
  0
ENDBLK
  5
18
330
13
100
AcDbEntity
  8
0
100
AcDbBlockEnd
  0
BLOCK
  5
1A
330
19
100
AcDbEntity
  8
0
100
AcDbBlockBegin
  2
_ORIGIN
 70
     0
 10
0.0
 20
0.0
 30
0.0
  3
_ORIGIN
  1

  0
CIRCLE
  5
1B
330
19
100
AcDbEntity
  8
0
  6
BYBLOCK
 62
     0
370
    -2
100
AcDbCircle
 10
0.0
 20
0.0
 30
0.0
 40
0.5
  0
LINE
  5
1C
330
19
100
AcDbEntity
  8
0
  6
BYBLOCK
 62
     0
370
    -2
100
AcDbLine
 10
0.0
 20
0.0
 30
0.0
 11
-1.0
 21
0.0
 31
0.0
  0
ENDBLK
  5
1D
330
19
100
AcDbEntity
  8
0
100
AcDbBlockEnd
  0
BLOCK
  5
1F
330
1E
100
AcDbEntity
  8
0
100
AcDbBlockBegin
  2
_OPEN30
 70
     0
 10
0.0
 20
0.0
 30
0.0
  3
_OPEN30
  1

  0
LINE
  5
20
330
1E
100
AcDbEntity
  8
0
  6
BYBLOCK
 62
     0
370
    -2
100
AcDbLine
 10
-1.0
 20
0.267949
 30
0.0
 11
0.0
 21
0.0
 31
0.0
  0
LINE
  5
21
330
1E
100
AcDbEntity
  8
0
  6
BYBLOCK
 62
     0
370
    -2
100
AcDbLine
 10
0.0
 20
0.0
 30
0.0
 11
-1.0
 21
-0.267949
 31
0.0
  0
LINE
  5
22
330
1E
100
AcDbEntity
  8
0
  6
BYBLOCK
 62
     0
370
    -2
100
AcDbLine
 10
0.0
 20
0.0
 30
0.0
 11
-1.0
 21
0.0
 31
0.0
  0
ENDBLK
  5
23
330
1E
100
AcDbEntity
  8
0
100
AcDbBlockEnd
  0
BLOCK
  5
25
330
24
100
AcDbEntity
  8
0
100
AcDbBlockBegin
  2
_BOXFILLED
 70
     0
 10
0.0
 20
0.0
 30
0.0
  3
_BOXFILLED
  1

  0
SOLID
  5
26
330
24
100
AcDbEntity
  8
0
  6
BYBLOCK
 62
     0
370
    -2
100
AcDbTrace
 10
-0.5
 20
0.5
 30
0.0
 11
0.5
 21
0.5
 31
0.0
 12
-0.5
 22
-0.5
 32
0.0
 13
0.5
 23
-0.5
 33
0.0
  0
LINE
  5
27
330
24
100
AcDbEntity
  8
0
  6
BYBLOCK
 62
     0
370
    -2
100
AcDbLine
 10
-0.5
 20
0.0
 30
0.0
 11
-1.0
 21
0.0
 31
0.0
  0
ENDBLK
  5
28
330
24
100
AcDbEntity
  8
0
100
AcDbBlockEnd
  0
BLOCK
  5
2A
330
29
100
AcDbEntity
  8
0
100
AcDbBlockBegin
  2
_BOXBLANK
 70
     0
 10
0.0
 20
0.0
 30
0.0
  3
_BOXBLANK
  1

  0
LINE
  5
2B
330
29
100
AcDbEntity
  8
0
  6
BYBLOCK
 62
     0
370
    -2
100
AcDbLine
 10
-0.5
 20
-0.5
 30
0.0
 11
0.5
 21
-0.5
 31
0.0
  0
LINE
  5
2C
330
29
100
AcDbEntity
  8
0
  6
BYBLOCK
 62
     0
370
    -2
100
AcDbLine
 10
0.5
 20
-0.5
 30
0.0
 11
0.5
 21
0.5
 31
0.0
  0
LINE
  5
2D
330
29
100
AcDbEntity
  8
0
  6
BYBLOCK
 62
     0
370
    -2
100
AcDbLine
 10
0.5
 20
0.5
 30
0.0
 11
-0.5
 21
0.5
 31
0.0
  0
LINE
  5
2E
330
29
100
AcDbEntity
  8
0
  6
BYBLOCK
 62
     0
370
    -2
100
AcDbLine
 10
-0.5
 20
0.5
 30
0.0
 11
-0.5
 21
-0.5
 31
0.0
  0
LINE
  5
2F
330
29
100
AcDbEntity
  8
0
  6
BYBLOCK
 62
     0
370
    -2
100
AcDbLine
 10
-0.5
 20
0.0
 30
0.0
 11
-1.0
 21
0.0
 31
0.0
  0
ENDBLK
  5
30
330
29
100
AcDbEntity
  8
0
100
AcDbBlockEnd
  0
BLOCK
  5
32
330
31
100
AcDbEntity
  8
0
100
AcDbBlockBegin
  2
_OBLIQUE
 70
     0
 10
0.0
 20
0.0
 30
0.0
  3
_OBLIQUE
  1

  0
LINE
  5
33
330
31
100
AcDbEntity
  8
0
  6
BYBLOCK
 62
     0
370
    -2
100
AcDbLine
 10
-0.5
 20
-0.5
 30
0.0
 11
0.5
 21
0.5
 31
0.0
  0
ENDBLK
  5
34
330
31
100
AcDbEntity
  8
0
100
AcDbBlockEnd
  0
BLOCK
  5
36
330
35
100
AcDbEntity
  8
0
100
AcDbBlockBegin
  2
_OPEN90
 70
     0
 10
0.0
 20
0.0
 30
0.0
  3
_OPEN90
  1

  0
LINE
  5
37
330
35
100
AcDbEntity
  8
0
  6
BYBLOCK
 62
     0
370
    -2
100
AcDbLine
 10
-0.5
 20
0.5
 30
0.0
 11
0.0
 21
0.0
 31
0.0
  0
LINE
  5
38
330
35
100
AcDbEntity
  8
0
  6
BYBLOCK
 62
     0
370
    -2
100
AcDbLine
 10
0.0
 20
0.0
 30
0.0
 11
-0.5
 21
-0.5
 31
0.0
  0
LINE
  5
39
330
35
100
AcDbEntity
  8
0
  6
BYBLOCK
 62
     0
370
    -2
100
AcDbLine
 10
0.0
 20
0.0
 30
0.0
 11
-1.0
 21
0.0
 31
0.0
  0
ENDBLK
  5
3A
330
35
100
AcDbEntity
  8
0
100
AcDbBlockEnd
  0
BLOCK
  5
3C
330
3B
100
AcDbEntity
  8
0
100
AcDbBlockBegin
  2
_CLOSEDBLANK
 70
     0
 10
0.0
 20
0.0
 30
0.0
  3
_CLOSEDBLANK
  1

  0
LINE
  5
3D
330
3B
100
AcDbEntity
  8
0
  6
BYBLOCK
 62
     0
370
    -2
100
AcDbLine
 10
-1.0
 20
0.1666666666666666
 30
0.0
 11
0.0
 21
0.0
 31
0.0
  0
LINE
  5
3E
330
3B
100
AcDbEntity
  8
0
  6
BYBLOCK
 62
     0
370
    -2
100
AcDbLine
 10
0.0
 20
0.0
 30
0.0
 11
-1.0
 21
-0.1666666666666666
 31
0.0
  0
LINE
  5
3F
330
3B
100
AcDbEntity
  8
0
  6
BYBLOCK
 62
     0
370
    -2
100
AcDbLine
 10
-1.0
 20
0.1666666666666666
 30
0.0
 11
-1.0
 21
-0.1666666666666666
 31
0.0
  0
ENDBLK
  5
40
330
3B
100
AcDbEntity
  8
0
100
AcDbBlockEnd
  0
BLOCK
  5
42
330
41
100
AcDbEntity
  8
0
100
AcDbBlockBegin
  2
_DOTBLANK
 70
     0
 10
0.0
 20
0.0
 30
0.0
  3
_DOTBLANK
  1

  0
CIRCLE
  5
43
330
41
100
AcDbEntity
  8
0
  6
BYBLOCK
 62
     0
370
    -2
100
AcDbCircle
 10
0.0
 20
0.0
 30
0.0
 40
0.5
  0
LINE
  5
44
330
41
100
AcDbEntity
  8
0
  6
BYBLOCK
 62
     0
370
    -2
100
AcDbLine
 10
-0.5
 20
0.0
 30
0.0
 11
-1.0
 21
0.0
 31
0.0
  0
ENDBLK
  5
45
330
41
100
AcDbEntity
  8
0
100
AcDbBlockEnd
  0
ENDSEC
  0
SECTION
  2
ENTITIES
  0
MTEXT
  5
46
100
AcDbEntity
  8
A8
  6
CONTINUOUS
 62
3
100
AcDbMText
 10
9.999997526638502
 20
18.00000076076889
 30
0.000000000000000
 40
3.000000000000000
 41
0.000000000000000
 44
0.6739999771118164
 71
     7
 72
     1
  1
{\H0.93x;{TYPE No.TH-122-5}}
 11
1.000000000000000
 21
0.000000000000000
 31
0.000000000000000
  7
STANDARD
  0
POINT
  5
47
100
AcDbEntity
  8
A0
  6
CONTINUOUS
 62
3
100
AcDbPoint
 10
9.999997526638502
 20
18.00000076076889
 30
0.000000000000000
  0
POINT
  5
48
100
AcDbEntity
  8
A10
  6
CONTINUOUS
 62
3
100
AcDbPoint
 10
50.00000000000000
 20
50.00000000000000
 30
0.000000000000000
  0
LINE
  5
49
100
AcDbEntity
  8
A1
  6
CONTINUOUS
 62
7
100
AcDbLine
 10
136.3019002539328
 20
123.1677301307724
 30
0.000000000000000
 11
154.3019002539328
 21
123.1677301307724
 31
0.000000000000000
  0
LINE
  5
4A
100
AcDbEntity
  8
A1
  6
CONTINUOUS
 62
7
100
AcDbLine
 10
154.3019002539328
 20
110.1677221307724
 30
0.000000000000000
 11
154.3019002539328
 21
123.1677301307724
 31
0.000000000000000
  0
LINE
  5
4B
100
AcDbEntity
  8
A1
  6
CONTINUOUS
 62
7
100
AcDbLine
 10
136.3019002539328
 20
110.1677221307724
 30
0.000000000000000
 11
136.3019002539328
 21
123.1677301307724
 31
0.000000000000000
  0
LINE
  5
4C
100
AcDbEntity
  8
A1
  6
CONTINUOUS
 62
7
100
AcDbLine
 10
126.8019002539328
 20
117.6677221307724
 30
0.000000000000000
 11
126.8019002539328
 21
120.6677301307724
 31
0.000000000000000
  0
LINE
  5
4D
100
AcDbEntity
  8
A4
  6
CENTER
 62
1
100
AcDbLine
 10
201.9998242443228
 20
124.1677301307724
 30
0.000000000000000
 11
201.9998242443228
 21
107.1677221307724
 31
0.000000000000000
  0
LINE
  5
4E
100
AcDbEntity
  8
A1
  6
CONTINUOUS
 62
7
100
AcDbLine
 10
138.3019002539328
 20
108.1677221307724
 30
0.000000000000000
 11
152.3019002539328
 21
108.1677221307724
 31
0.000000000000000
  0
LINE
  5
4F
100
AcDbEntity
  8
A1
  6
CONTINUOUS
 62
7
100
AcDbLine
 10
200.4998242443228
 20
108.1677221307724
 30
0.000000000000000
 11
203.4998242443228
 21
108.1677221307724
 31
0.000000000000000
  0
LINE
  5
50
100
AcDbEntity
  8
A4
  6
CENTER
 62
1
100
AcDbLine
 10
204.9998242443228
 20
111.6677221307722
 30
0.000000000000000
 11
198.9998242443229
 21
111.6677221307722
 31
0.000000000000000
  0
LINE
  5
51
100
AcDbEntity
  8
A1
  6
CONTINUOUS
 62
7
100
AcDbLine
 10
137.3019002539328
 20
115.4596231307724
 30
0.000000000000000
 11
144.8019002539328
 21
115.4596231307724
 31
0.000000000000000
  0
LINE
  5
52
100
AcDbEntity
  8
A1
  6
CONTINUOUS
 62
7
100
AcDbLine
 10
145.8019002539328
 20
115.4596231307724
 30
0.000000000000000
 11
153.3019002539328
 21
115.4596231307724
 31
0.000000000000000
  0
LINE
  5
53
100
AcDbEntity
  8
A4
  6
CENTER
 62
1
100
AcDbLine
 10
72.40965006640081
 20
124.1677301307724
 30
0.000000000000000
 11
72.40965006640081
 21
107.1677221307724
 31
0.000000000000000
  0
LINE
  5
54
100
AcDbEntity
  8
A1
  6
CONTINUOUS
 62
7
100
AcDbLine
 10
73.90965006640081
 20
108.1677221307724
 30
0.000000000000000
 11
70.90965006640081
 21
108.1677221307724
 31
0.000000000000000
  0
LINE
  5
55
100
AcDbEntity
  8
A4
  6
CENTER
 62
1
100
AcDbLine
 10
69.40965006640081
 20
111.6677221307722
 30
0.000000000000000
 11
75.40965006640081
 21
111.6677221307722
 31
0.000000000000000
  0
LINE
  5
56
100
AcDbEntity
  8
A1
  6
CONTINUOUS
 62
7
100
AcDbLine
 10
203.4998242443228
 20
115.4596231307724
 30
0.000000000000000
 11
203.4998242443228
 21
108.1677221307724
 31
0.000000000000000
  0
LINE
  5
57
100
AcDbEntity
  8
A1
  6
CONTINUOUS
 62
7
100
AcDbLine
 10
200.4998242443228
 20
115.4596231307724
 30
0.000000000000000
 11
200.4998242443228
 21
108.1677221307724
 31
0.000000000000000
  0
LINE
  5
58
100
AcDbEntity
  8
A1
  6
CONTINUOUS
 62
7
100
AcDbLine
 10
70.90965006640081
 20
115.4596231307724
 30
0.000000000000000
 11
70.90965006640081
 21
108.1677221307724
 31
0.000000000000000
  0
LINE
  5
59
100
AcDbEntity
  8
A1
  6
CONTINUOUS
 62
7
100
AcDbLine
 10
73.90965006640081
 20
115.4596231307724
 30
0.000000000000000
 11
73.90965006640081
 21
108.1677221307724
 31
0.000000000000000
  0
LINE
  5
5A
100
AcDbEntity
  8
A1
  6
CONTINUOUS
 62
7
100
AcDbLine
 10
154.3019002539328
 20
174.0068399362388
 30
0.000000000000000
 11
154.3019002539328
 21
166.0068399362389
 31
0.000000000000000
  0
LINE
  5
5B
100
AcDbEntity
  8
A1
  6
CONTINUOUS
 62
7
100
AcDbLine
 10
136.3019002539328
 20
174.0068399362388
 30
0.000000000000000
 11
136.3019002539328
 21
166.0068399362389
 31
0.000000000000000
  0
LINE
  5
5C
100
AcDbEntity
  8
A1
  6
CONTINUOUS
 62
7
100
AcDbLine
 10
126.8019002539328
 20
171.1068459362388
 30
0.000000000000000
 11
126.8019002539328
 21
168.9068489362388
 31
0.000000000000000
  0
LINE
  5
5D
100
AcDbEntity
  8
A4
  6
CENTER
 62
1
100
AcDbLine
 10
157.6128132539326
 20
170.0068399362388
 30
0.000000000000000
 11
124.3019002539328
 21
170.0068399362388
 31
0.000000000000000
  0
LINE
  5
5E
100
AcDbEntity
  8
A1
  6
CONTINUOUS
 62
7
100
AcDbLine
 10
154.3019002539328
 20
166.0068399362389
 30
0.000000000000000
 11
136.3019002539328
 21
166.0068399362389
 31
0.000000000000000
  0
LINE
  5
5F
100
AcDbEntity
  8
A1
  6
CONTINUOUS
 62
7
100
AcDbLine
 10
129.8019002539328
 20
118.1479161307725
 30
0.000000000000000
 11
129.8019002539328
 21
120.1875201307724
 31
0.000000000000000
  0
LINE
  5
60
100
AcDbEntity
  8
A1
  6
CONTINUOUS
 62
7
100
AcDbLine
 10
129.8019002539328
 20
171.5068399362388
 30
0.000000000000000
 11
129.8019002539328
 21
171.1068459362388
 31
0.000000000000000
  0
LINE
  5
61
100
AcDbEntity
  8
A1
  6
CONTINUOUS
 62
7
100
AcDbLine
 10
129.8019002539328
 20
168.9068489362388
 30
0.000000000000000
 11
129.8019002539328
 21
168.5068399362388
 31
0.000000000000000
  0
LINE
  5
62
100
AcDbEntity
  8
A4
  6
CENTER
 62
1
100
AcDbLine
 10
77.40965006640081
 20
119.1677221307722
 30
0.000000000000000
 11
67.40965006640081
 21
119.1677221307722
 31
0.000000000000000
  0
LINE
  5
63
100
AcDbEntity
  8
A4
  6
CENTER
 62
1
100
AcDbLine
 10
140.3019002539328
 20
114.1677221307722
 30
0.000000000000000
 11
140.3019002539328
 21
109.1677221307724
 31
0.000000000000000
  0
LINE
  5
64
100
AcDbEntity
  8
A4
  6
CENTER
 62
1
100
AcDbLine
 10
142.8019002539328
 20
111.6677221307722
 30
0.000000000000000
 11
137.8019002539328
 21
111.6677221307722
 31
0.000000000000000
  0
LINE
  5
65
100
AcDbEntity
  8
A4
  6
CENTER
 62
1
100
AcDbLine
 10
152.8019002539328
 20
111.6677221307722
 30
0.000000000000000
 11
147.8019002539328
 21
111.6677221307722
 31
0.000000000000000
  0
LINE
  5
66
100
AcDbEntity
  8
A4
  6
CENTER
 62
1
100
AcDbLine
 10
150.3019002539328
 20
114.1677221307722
 30
0.000000000000000
 11
150.3019002539328
 21
109.1677221307724
 31
0.000000000000000
  0
LINE
  5
67
100
AcDbEntity
  8
A1
  6
CONTINUOUS
 62
7
100
AcDbLine
 10
129.8019002539328
 20
120.1875201307724
 30
0.000000000000000
 11
126.8019002539328
 21
120.1875201307724
 31
0.000000000000000
  0
LINE
  5
68
100
AcDbEntity
  8
A1
  6
CONTINUOUS
 62
7
100
AcDbLine
 10
129.8019002539328
 20
118.1479161307725
 30
0.000000000000000
 11
126.8019002539328
 21
118.1479161307725
 31
0.000000000000000
  0
LINE
  5
69
100
AcDbEntity
  8
A2
  6
CONTINUOUS
 62
4
100
AcDbLine
 10
129.8018932539327
 20
120.1875201307723
 30
0.000000000000000
 11
126.8018932539326
 21
118.1479161307724
 31
0.000000000000000
  0
LINE
  5
6A
100
AcDbEntity
  8
A2
  6
CONTINUOUS
 62
4
100
AcDbLine
 10
126.8019002539328
 20
120.1875361307725
 30
0.000000000000000
 11
129.8019002539328
 21
118.1479241307725
 31
0.000000000000000
  0
LINE
  5
6B
100
AcDbEntity
  8
A4
  6
CENTER
 62
1
100
AcDbLine
 10
206.9998242443228
 20
119.1677221307722
 30
0.000000000000000
 11
196.9998242443229
 21
119.1677221307722
 31
0.000000000000000
  0
LINE
  5
6C
100
AcDbEntity
  8
A1
  6
CONTINUOUS
 62
7
100
AcDbLine
 10
204.4998242443228
 20
117.7243481307724
 30
0.000000000000000
 11
204.4998242443228
 21
120.6111041307724
 31
0.000000000000000
  0
LINE
  5
6D
100
AcDbEntity
  8
A1
  6
CONTINUOUS
 62
7
100
AcDbLine
 10
199.4998242443228
 20
117.7243481307724
 30
0.000000000000000
 11
199.4998242443228
 21
120.6111041307724
 31
0.000000000000000
  0
LINE
  5
6E
100
AcDbEntity
  8
A1
  6
CONTINUOUS
 62
7
100
AcDbLine
 10
201.9998092443227
 20
116.2809581307724
 30
0.000000000000000
 11
204.4998242443227
 21
117.7243481307724
 31
0.000000000000000
  0
LINE
  5
6F
100
AcDbEntity
  8
A1
  6
CONTINUOUS
 62
7
100
AcDbLine
 10
199.4998092443228
 20
120.6110891307721
 30
0.000000000000000
 11
201.9998242443228
 21
122.0544791307724
 31
0.000000000000000
  0
LINE
  5
70
100
AcDbEntity
  8
A1
  6
CONTINUOUS
 62
7
100
AcDbLine
 10
201.9998242443228
 20
116.2809731307725
 30
0.000000000000000
 11
199.4998242443227
 21
117.7243481307724
 31
0.000000000000000
  0
LINE
  5
71
100
AcDbEntity
  8
A1
  6
CONTINUOUS
 62
7
100
AcDbLine
 10
204.4998242443228
 20
120.6111041307723
 30
0.000000000000000
 11
201.9998242443228
 21
122.0544791307723
 31
0.000000000000000
  0
LINE
  5
72
100
AcDbEntity
  8
A1
  6
CONTINUOUS
 62
7
100
AcDbLine
 10
129.8019002539328
 20
168.9068489362388
 30
0.000000000000000
 11
126.8019002539328
 21
168.9068489362388
 31
0.000000000000000
  0
LINE
  5
73
100
AcDbEntity
  8
A1
  6
CONTINUOUS
 62
7
100
AcDbLine
 10
129.8019002539328
 20
171.1068459362388
 30
0.000000000000000
 11
126.8019002539328
 21
171.1068459362388
 31
0.000000000000000
  0
LINE
  5
74
100
AcDbEntity
  8
A1
  6
CONTINUOUS
 62
7
100
AcDbLine
 10
154.3019002539328
 20
67.22073958582226
 30
0.000000000000000
 11
136.3019002539328
 21
67.22073958582226
 31
0.000000000000000
  0
LINE
  5
75
100
AcDbEntity
  8
A1
  6
CONTINUOUS
 62
7
100
AcDbLine
 10
154.3019002539328
 20
59.22073958582226
 30
0.000000000000000
 11
136.3019002539328
 21
59.22073958582226
 31
0.000000000000000
  0
LINE
  5
76
100
AcDbEntity
  8
A4
  6
CENTER
 62
1
100
AcDbLine
 10
157.6128132539326
 20
63.22073958582226
 30
0.000000000000000
 11
124.3019002539328
 21
63.22073958582226
 31
0.000000000000000
  0
LINE
  5
77
100
AcDbEntity
  8
A1
  6
CONTINUOUS
 62
7
100
AcDbLine
 10
126.8019002539328
 20
62.12074158582226
 30
0.000000000000000
 11
126.8019002539328
 21
64.32073758582226
 31
0.000000000000000
  0
LINE
  5
78
100
AcDbEntity
  8
A1
  6
CONTINUOUS
 62
7
100
AcDbLine
 10
136.3019002539328
 20
59.22073958582226
 30
0.000000000000000
 11
136.3019002539328
 21
67.22073958582226
 31
0.000000000000000
  0
LINE
  5
79
100
AcDbEntity
  8
A1
  6
CONTINUOUS
 62
7
100
AcDbLine
 10
154.3019002539328
 20
59.22073958582226
 30
0.000000000000000
 11
154.3019002539328
 21
67.22073958582226
 31
0.000000000000000
  0
LINE
  5
7A
100
AcDbEntity
  8
A1
  6
CONTINUOUS
 62
7
100
AcDbLine
 10
129.8019002539328
 20
61.72073958582226
 30
0.000000000000000
 11
129.8019002539328
 21
62.12074158582226
 31
0.000000000000000
  0
LINE
  5
7B
100
AcDbEntity
  8
A1
  6
CONTINUOUS
 62
7
100
AcDbLine
 10
129.8019002539328
 20
64.32073758582226
 30
0.000000000000000
 11
126.8019002539328
 21
64.32073758582226
 31
0.000000000000000
  0
LINE
  5
7C
100
AcDbEntity
  8
A1
  6
CONTINUOUS
 62
7
100
AcDbLine
 10
129.8019002539328
 20
62.12074158582226
 30
0.000000000000000
 11
126.8019002539328
 21
62.12074158582226
 31
0.000000000000000
  0
LINE
  5
7D
100
AcDbEntity
  8
A1
  6
CONTINUOUS
 62
7
100
AcDbLine
 10
129.8019002539328
 20
64.32073758582226
 30
0.000000000000000
 11
129.8019002539328
 21
64.72073958582226
 31
0.000000000000000
  0
LINE
  5
7E
100
AcDbEntity
  8
A1
  6
CONTINUOUS
 62
7
100
AcDbLine
 10
154.3019002539328
 20
64.72073958582226
 30
0.000000000000000
 11
136.3019002539328
 21
64.72073958582226
 31
0.000000000000000
  0
LINE
  5
7F
100
AcDbEntity
  8
A1
  6
CONTINUOUS
 62
7
100
AcDbLine
 10
154.3019002539328
 20
61.72073958582226
 30
0.000000000000000
 11
136.3019002539328
 21
61.72073958582226
 31
0.000000000000000
  0
LINE
  5
80
100
AcDbEntity
  8
A4
  6
CENTER
 62
1
100
AcDbLine
 10
140.3019002539328
 20
65.72073958582226
 30
0.000000000000000
 11
140.3019002539328
 21
60.72073958582226
 31
0.000000000000000
  0
LINE
  5
81
100
AcDbEntity
  8
A4
  6
CENTER
 62
1
100
AcDbLine
 10
150.3019002539328
 20
65.72073958582226
 30
0.000000000000000
 11
150.3019002539328
 21
60.72073958582226
 31
0.000000000000000
  0
LINE
  5
82
100
AcDbEntity
  8
A1
  6
CONTINUOUS
 62
7
100
AcDbLine
 10
154.3019002539328
 20
174.0068399362388
 30
0.000000000000000
 11
136.3019002539328
 21
174.0068399362388
 31
0.000000000000000
  0
LINE
  5
83
100
AcDbEntity
  8
A1
  6
CONTINUOUS
 62
7
100
AcDbLine
 10
134.8019002539328
 20
168.5068399362388
 30
0.000000000000000
 11
129.8019002539328
 21
168.5068399362388
 31
0.000000000000000
  0
LINE
  5
84
100
AcDbEntity
  8
A1
  6
CONTINUOUS
 62
7
100
AcDbLine
 10
134.8019002539328
 20
171.5068399362388
 30
0.000000000000000
 11
129.8019002539328
 21
171.5068399362388
 31
0.000000000000000
  0
LINE
  5
85
100
AcDbEntity
  8
A1
  6
CONTINUOUS
 62
7
100
AcDbLine
 10
134.8019002539328
 20
64.72073958582226
 30
0.000000000000000
 11
129.8019002539328
 21
64.72073958582226
 31
0.000000000000000
  0
LINE
  5
86
100
AcDbEntity
  8
A1
  6
CONTINUOUS
 62
7
100
AcDbLine
 10
134.8019002539328
 20
61.72073958582226
 30
0.000000000000000
 11
129.8019002539328
 21
61.72073958582226
 31
0.000000000000000
  0
LINE
  5
87
100
AcDbEntity
  8
A1
  6
CONTINUOUS
 62
7
100
AcDbLine
 10
126.8019002539328
 20
120.6677301307724
 30
0.000000000000000
 11
134.8019002539328
 21
120.6677301307724
 31
0.000000000000000
  0
LINE
  5
88
100
AcDbEntity
  8
A1
  6
CONTINUOUS
 62
7
100
AcDbLine
 10
126.8019002539328
 20
117.6677221307724
 30
0.000000000000000
 11
134.8019002539328
 21
117.6677221307724
 31
0.000000000000000
  0
ARC
  5
89
100
AcDbEntity
  8
A1
  6
CONTINUOUS
 62
7
100
AcDbCircle
 10
138.3019002539328
 20
110.1677221307724
 30
0.000000000000000
 40
2.000000000000000
100
AcDbArc
 50
179.9999909999999
 51
270.0000010000000
  0
ARC
  5
8A
100
AcDbEntity
  8
A1
  6
CONTINUOUS
 62
7
100
AcDbCircle
 10
152.3019002539328
 20
110.1677221307724
 30
0.000000000000000
 40
2.000000000000000
100
AcDbArc
 50
269.9999969999999
 51
360.0000000000000
  0
CIRCLE
  5
8B
100
AcDbEntity
  8
A1
  6
CONTINUOUS
 62
7
100
AcDbCircle
 10
201.9998242443228
 20
119.1677221307722
 30
0.000000000000000
 40
4.000000000000000
  0
CIRCLE
  5
8C
100
AcDbEntity
  8
A1
  6
CONTINUOUS
 62
7
100
AcDbCircle
 10
140.3019002539328
 20
111.6677221307722
 30
0.000000000000000
 40
1.600000000000000
  0
CIRCLE
  5
8D
100
AcDbEntity
  8
A1
  6
CONTINUOUS
 62
7
100
AcDbCircle
 10
150.3019002539328
 20
111.6677221307722
 30
0.000000000000000
 40
1.600000000000000
  0
CIRCLE
  5
8E
100
AcDbEntity
  8
A1
  6
CONTINUOUS
 62
7
100
AcDbCircle
 10
201.9998242443228
 20
119.1677221307722
 30
0.000000000000000
 40
2.500000000000000
  0
CIRCLE
  5
8F
100
AcDbEntity
  8
A1
  6
CONTINUOUS
 62
7
100
AcDbCircle
 10
72.40965006640081
 20
119.1677221307722
 30
0.000000000000000
 40
3.900000000000000
  0
ARC
  5
90
100
AcDbEntity
  8
A1
  6
CONTINUOUS
 62
7
100
AcDbCircle
 10
72.40965006640081
 20
119.1677221307722
 30
0.000000000000000
 40
4.000000000000000
100
AcDbArc
 50
292.0243130000001
 51
607.9756870000000
  0
CIRCLE
  5
91
100
AcDbEntity
  8
A1
  6
CONTINUOUS
 62
7
100
AcDbCircle
 10
72.40965006640081
 20
119.1677221307722
 30
0.000000000000000
 40
1.500000000000000
  0
LINE
  5
92
100
AcDbEntity
  8
A1
  6
CONTINUOUS
 62
7
100
AcDbLine
 10
73.50964806640081
 20
120.1875201307724
 30
0.000000000000000
 11
73.50964806640081
 21
118.1479161307725
 31
0.000000000000000
  0
LINE
  5
93
100
AcDbEntity
  8
A1
  6
CONTINUOUS
 62
7
100
AcDbLine
 10
71.30965206640082
 20
120.1875201307724
 30
0.000000000000000
 11
71.30965206640082
 21
118.1479161307725
 31
0.000000000000000
  0
ARC
  5
94
100
AcDbEntity
  8
A1
  6
CONTINUOUS
 62
7
100
AcDbCircle
 10
135.5519002539328
 20
119.1677301307725
 30
0.000000000000000
 40
3.900000000000000
100
AcDbArc
 50
258.9125109999998
 51
281.0874890000000
  0
LINE
  5
95
100
AcDbEntity
  8
A1
  6
CONTINUOUS
 62
7
100
AcDbLine
 10
134.8019002539328
 20
115.3405251307724
 30
0.000000000000000
 11
134.8019002539328
 21
122.9949351307725
 31
0.000000000000000
  0
ARC
  5
96
100
AcDbEntity
  8
A1
  6
CONTINUOUS
 62
7
100
AcDbCircle
 10
135.5519002539328
 20
119.1677301307725
 30
0.000000000000000
 40
3.900000000000000
100
AcDbArc
 50
78.91251099999998
 51
101.0874889999999
  0
CIRCLE
  5
97
100
AcDbEntity
  8
A1
  6
CONTINUOUS
 62
7
100
AcDbCircle
 10
201.9998242443228
 20
119.1677221307722
 30
0.000000000000000
 40
3.450000000000000
  0
CIRCLE
  5
98
100
AcDbEntity
  8
A2
  6
CONTINUOUS
 62
4
100
AcDbCircle
 10
201.9998242443228
 20
119.1677221307722
 30
0.000000000000000
 40
1.229500000000000
  0
CIRCLE
  5
99
100
AcDbEntity
  8
A1
  6
CONTINUOUS
 62
7
100
AcDbCircle
 10
201.9998242443228
 20
119.1677221307722
 30
0.000000000000000
 40
1.500000000000000
  0
LINE
  5
9A
100
AcDbEntity
  8
A1
  6
CONTINUOUS
 62
7
100
AcDbLine
 10
134.8019002539328
 20
166.1796419362389
 30
0.000000000000000
 11
134.8019002539328
 21
173.8340519362390
 31
0.000000000000000
  0
ARC
  5
9B
100
AcDbEntity
  8
A1
  6
CONTINUOUS
 62
7
100
AcDbCircle
 10
135.5519002539328
 20
170.0068469362389
 30
0.000000000000000
 40
3.900000000000000
100
AcDbArc
 50
78.91251099999998
 51
101.0874889999999
  0
ARC
  5
9C
100
AcDbEntity
  8
A1
  6
CONTINUOUS
 62
7
100
AcDbCircle
 10
135.5519002539328
 20
170.0068469362389
 30
0.000000000000000
 40
3.900000000000000
100
AcDbArc
 50
258.9125109999998
 51
281.0874890000000
  0
ARC
  5
9D
100
AcDbEntity
  8
A1
  6
CONTINUOUS
 62
7
100
AcDbCircle
 10
135.5519002539328
 20
63.22074758582227
 30
0.000000000000000
 40
3.900000000000000
100
AcDbArc
 50
78.91251099999998
 51
101.0874889999999
  0
LINE
  5
9E
100
AcDbEntity
  8
A1
  6
CONTINUOUS
 62
7
100
AcDbLine
 10
134.8019002539328
 20
59.39354158582225
 30
0.000000000000000
 11
134.8019002539328
 21
67.04795258582226
 31
0.000000000000000
  0
ARC
  5
9F
100
AcDbEntity
  8
A1
  6
CONTINUOUS
 62
7
100
AcDbCircle
 10
135.5519002539328
 20
63.22074758582227
 30
0.000000000000000
 40
3.900000000000000
100
AcDbArc
 50
258.9125109999998
 51
281.0874890000000
  0
LINE
  5
A0
100
AcDbEntity
  8
A1
  6
CONTINUOUS
 62
7
100
AcDbLine
 10
141.8150581988630
 20
119.7247477506192
 30
0.000000000000000
 11
141.3150581789948
 21
119.7247477506192
 31
0.000000000000000
  0
LINE
  5
A1
100
AcDbEntity
  8
A1
  6
CONTINUOUS
 62
7
100
AcDbLine
 10
141.8150581988630
 20
119.8914144239086
 30
0.000000000000000
 11
141.8150581988630
 21
119.7247477506192
 31
0.000000000000000
  0
LINE
  5
A2
100
AcDbEntity
  8
A1
  6
CONTINUOUS
 62
7
100
AcDbLine
 10
140.6133037651447
 20
119.8914144239086
 30
0.000000000000000
 11
141.8150581988630
 21
119.8914144239086
 31
0.000000000000000
  0
LINE
  5
A3
100
AcDbEntity
  8
A1
  6
CONTINUOUS
 62
7
100
AcDbLine
 10
140.6133037651447
 20
119.7247477506192
 30
0.000000000000000
 11
140.6133037651447
 21
119.8914144239086
 31
0.000000000000000
  0
LINE
  5
A4
100
AcDbEntity
  8
A1
  6
CONTINUOUS
 62
7
100
AcDbLine
 10
141.1133037850129
 20
119.7247477506192
 30
0.000000000000000
 11
140.6133037651447
 21
119.7247477506192
 31
0.000000000000000
  0
LINE
  5
A5
100
AcDbEntity
  8
A1
  6
CONTINUOUS
 62
7
100
AcDbLine
 10
141.1133037850129
 20
118.3914143643040
 30
0.000000000000000
 11
141.1133037850129
 21
119.7247477506192
 31
0.000000000000000
  0
LINE
  5
A6
100
AcDbEntity
  8
A1
  6
CONTINUOUS
 62
7
100
AcDbLine
 10
141.3150581789948
 20
118.3914143643040
 30
0.000000000000000
 11
141.1133037850129
 21
118.3914143643040
 31
0.000000000000000
  0
LINE
  5
A7
100
AcDbEntity
  8
A1
  6
CONTINUOUS
 62
7
100
AcDbLine
 10
141.3150581789948
 20
119.7247477506192
 30
0.000000000000000
 11
141.3150581789948
 21
118.3914143643040
 31
0.000000000000000
  0
LINE
  5
A8
100
AcDbEntity
  8
A1
  6
CONTINUOUS
 62
7
100
AcDbLine
 10
142.9554091213695
 20
119.8914144239086
 30
0.000000000000000
 11
143.1571635153514
 21
119.8914144239086
 31
0.000000000000000
  0
LINE
  5
A9
100
AcDbEntity
  8
A1
  6
CONTINUOUS
 62
7
100
AcDbLine
 10
142.9554091213695
 20
119.2598354514435
 30
0.000000000000000
 11
142.9554091213695
 21
119.8914144239086
 31
0.000000000000000
  0
LINE
  5
AA
100
AcDbEntity
  8
A1
  6
CONTINUOUS
 62
7
100
AcDbLine
 10
142.2361108471731
 20
119.2598354514435
 30
0.000000000000000
 11
142.9554091213695
 21
119.2598354514435
 31
0.000000000000000
  0
LINE
  5
AB
100
AcDbEntity
  8
A1
  6
CONTINUOUS
 62
7
100
AcDbLine
 10
142.2361108471731
 20
119.8914144239086
 30
0.000000000000000
 11
142.2361108471731
 21
119.2598354514435
 31
0.000000000000000
  0
LINE
  5
AC
100
AcDbEntity
  8
A1
  6
CONTINUOUS
 62
7
100
AcDbLine
 10
142.0343564531912
 20
119.8914144239086
 30
0.000000000000000
 11
142.2361108471731
 21
119.8914144239086
 31
0.000000000000000
  0
LINE
  5
AD
100
AcDbEntity
  8
A1
  6
CONTINUOUS
 62
7
100
AcDbLine
 10
142.0343564531912
 20
118.3914143643040
 30
0.000000000000000
 11
142.0343564531912
 21
119.8914144239086
 31
0.000000000000000
  0
LINE
  5
AE
100
AcDbEntity
  8
A1
  6
CONTINUOUS
 62
7
100
AcDbLine
 10
142.2361108471731
 20
118.3914143643040
 30
0.000000000000000
 11
142.0343564531912
 21
118.3914143643040
 31
0.000000000000000
  0
LINE
  5
AF
100
AcDbEntity
  8
A1
  6
CONTINUOUS
 62
7
100
AcDbLine
 10
142.2361108471731
 20
119.0931687781541
 30
0.000000000000000
 11
142.2361108471731
 21
118.3914143643040
 31
0.000000000000000
  0
LINE
  5
B0
100
AcDbEntity
  8
A1
  6
CONTINUOUS
 62
7
100
AcDbLine
 10
142.9554091213695
 20
119.0931687781541
 30
0.000000000000000
 11
142.2361108471731
 21
119.0931687781541
 31
0.000000000000000
  0
LINE
  5
B1
100
AcDbEntity
  8
A1
  6
CONTINUOUS
 62
7
100
AcDbLine
 10
142.9554091213695
 20
118.3914143643040
 30
0.000000000000000
 11
142.9554091213695
 21
119.0931687781541
 31
0.000000000000000
  0
LINE
  5
B2
100
AcDbEntity
  8
A1
  6
CONTINUOUS
 62
7
100
AcDbLine
 10
143.1571635153514
 20
118.3914143643040
 30
0.000000000000000
 11
142.9554091213695
 21
118.3914143643040
 31
0.000000000000000
  0
LINE
  5
B3
100
AcDbEntity
  8
A1
  6
CONTINUOUS
 62
7
100
AcDbLine
 10
143.1571635153514
 20
119.8914144239086
 30
0.000000000000000
 11
143.1571635153514
 21
118.3914143643040
 31
0.000000000000000
  0
LINE
  5
B4
100
AcDbEntity
  8
A1
  6
CONTINUOUS
 62
7
100
AcDbLine
 10
143.3764617696795
 20
119.2335196609241
 30
0.000000000000000
 11
144.3764618094160
 21
119.2335196609241
 31
0.000000000000000
  0
LINE
  5
B5
100
AcDbEntity
  8
A1
  6
CONTINUOUS
 62
7
100
AcDbLine
 10
143.3764617696795
 20
119.0931687781541
 30
0.000000000000000
 11
143.3764617696795
 21
119.2335196609241
 31
0.000000000000000
  0
LINE
  5
B6
100
AcDbEntity
  8
A1
  6
CONTINUOUS
 62
7
100
AcDbLine
 10
144.3764618094160
 20
119.0931687781541
 30
0.000000000000000
 11
143.3764617696795
 21
119.0931687781541
 31
0.000000000000000
  0
LINE
  5
B7
100
AcDbEntity
  8
A1
  6
CONTINUOUS
 62
7
100
AcDbLine
 10
144.3764618094160
 20
119.2335196609241
 30
0.000000000000000
 11
144.3764618094160
 21
119.0931687781541
 31
0.000000000000000
  0
LINE
  5
B8
100
AcDbEntity
  8
A1
  6
CONTINUOUS
 62
7
100
AcDbLine
 10
145.1396197344780
 20
118.4001862944771
 30
0.000000000000000
 11
144.9378653404961
 21
118.4001862944771
 31
0.000000000000000
  0
LINE
  5
B9
100
AcDbEntity
  8
A1
  6
CONTINUOUS
 62
7
100
AcDbLine
 10
145.1396197344780
 20
119.9177302144280
 30
0.000000000000000
 11
145.1396197344780
 21
118.4001862944771
 31
0.000000000000000
  0
LINE
  5
BA
100
AcDbEntity
  8
A1
  6
CONTINUOUS
 62
7
100
AcDbLine
 10
145.0343565724005
 20
119.9177302144280
 30
0.000000000000000
 11
145.1396197344780
 21
119.9177302144280
 31
0.000000000000000
  0
SPLINE
  5
BB
100
AcDbEntity
  8
A1
  6
CONTINUOUS
 62
7
100
AcDbSpline
210
0.000000000000000
220
0.000000000000000
230
1.000000000000000
 70
     8
 71
     3
 72
     8
 73
     4
 74
     0
 42
1.000000000000000e-07
 43
1.000000000000000e-07
 12
1.134965072853447
 22
1.134965072854129
 32
0.000000000000000
 13
0.1132487449490327
 23
1.361462562751967
 33
0.000000000000000
 40
0.000000000000000
 40
0.000000000000000
 40
0.000000000000000
 40
0.000000000000000
 40
0.2086778882798361
 40
0.2086778882798361
 40
0.2086778882798361
 40
0.2086778882798361
 10
144.9466372706692
 20
119.7422916109655
 30
0.000000000000000
 10
145.0255846422273
 20
119.8212389825236
 30
0.000000000000000
 10
145.0264790694183
 20
119.8230278369056
 30
0.000000000000000
 10
145.0343565724005
 20
119.9177302144280
 30
0.000000000000000
  0
SPLINE
  5
BC
100
AcDbEntity
  8
A1
  6
CONTINUOUS
 62
7
100
AcDbSpline
210
0.000000000000000
220
0.000000000000000
230
1.000000000000000
 70
     8
 71
     3
 72
     8
 73
     4
 74
     0
 42
1.000000000000000e-07
 43
1.000000000000000e-07
 12
1.657751828351365
 22
0.000000000000000
 32
0.000000000000000
 13
0.9219145248757741
 23
0.9380604920816040
 33
0.000000000000000
 40
0.000000000000000
 40
0.000000000000000
 40
0.000000000000000
 40
0.000000000000000
 40
0.2222413879873369
 40
0.2222413879873369
 40
0.2222413879873369
 40
0.2222413879873369
 10
144.7536548068604
 20
119.6721161695805
 30
0.000000000000000
 10
144.8764618292842
 20
119.6721161695805
 30
0.000000000000000
 10
144.8783414161312
 20
119.6727996557067
 30
0.000000000000000
 10
144.9466372706692
 20
119.7422916109655
 30
0.000000000000000
  0
LINE
  5
BD
100
AcDbEntity
  8
A1
  6
CONTINUOUS
 62
7
100
AcDbLine
 10
144.6747074353023
 20
119.6721161695805
 30
0.000000000000000
 11
144.7536548068604
 21
119.6721161695805
 31
0.000000000000000
  0
LINE
  5
BE
100
AcDbEntity
  8
A1
  6
CONTINUOUS
 62
7
100
AcDbLine
 10
144.6747074353023
 20
119.5668530075029
 30
0.000000000000000
 11
144.6747074353023
 21
119.6721161695805
 31
0.000000000000000
  0
LINE
  5
BF
100
AcDbEntity
  8
A1
  6
CONTINUOUS
 62
7
100
AcDbLine
 10
144.9378653404961
 20
119.5668530075029
 30
0.000000000000000
 11
144.6747074353023
 21
119.5668530075029
 31
0.000000000000000
  0
LINE
  5
C0
100
AcDbEntity
  8
A1
  6
CONTINUOUS
 62
7
100
AcDbLine
 10
144.9378653404961
 20
118.4001862944771
 30
0.000000000000000
 11
144.9378653404961
 21
119.5668530075029
 31
0.000000000000000
  0
LINE
  5
C1
100
AcDbEntity
  8
A1
  6
CONTINUOUS
 62
7
100
AcDbLine
 10
145.9115495897131
 20
118.5580810375934
 30
0.000000000000000
 11
146.5694443526976
 21
118.5580810375934
 31
0.000000000000000
  0
SPLINE
  5
C2
100
AcDbEntity
  8
A1
  6
CONTINUOUS
 62
7
100
AcDbSpline
210
0.000000000000000
220
0.000000000000000
230
1.000000000000000
 70
     8
 71
     3
 72
     8
 73
     4
 74
     0
 42
1.000000000000000e-07
 43
1.000000000000000e-07
 12
-1.046600197739735
 22
-1.196114511702717
 32
0.000000000000000
 13
-0.7271180124766943
 23
-1.168843101919265
 33
0.000000000000000
 40
0.000000000000000
 40
0.000000000000000
 40
0.000000000000000
 40
0.000000000000000
 40
0.1760085026101962
 40
0.1760085026101962
 40
0.1760085026101962
 40
0.1760085026101962
 10
146.0168127517906
 20
118.6984319203634
 30
0.000000000000000
 10
145.9554092405787
 20
118.6282564789784
 30
0.000000000000000
 10
145.9542092405788
 20
118.6266564789784
 30
0.000000000000000
 10
145.9115495897131
 20
118.5580810375934
 30
0.000000000000000
  0
SPLINE
  5
C3
100
AcDbEntity
  8
A1
  6
CONTINUOUS
 62
7
100
AcDbSpline
210
0.000000000000000
220
0.000000000000000
230
1.000000000000000
 70
     8
 71
     3
 72
     8
 73
     4
 74
     0
 42
1.000000000000000e-07
 43
1.000000000000000e-07
 12
-0.9965457582447925
 22
-1.121113978025960
 32
0.000000000000000
 13
-0.9776767934777126
 23
-1.099886392661574
 33
0.000000000000000
 40
0.000000000000000
 40
0.000000000000000
 40
0.000000000000000
 40
0.000000000000000
 40
0.2112560536365145
 40
0.2112560536365145
 40
0.2112560536365145
 40
0.2112560536365145
 10
146.1571636345606
 20
118.8563266634797
 30
0.000000000000000
 10
146.0869881931756
 20
118.7773792919215
 30
0.000000000000000
 10
146.0856594654980
 20
118.7758844732842
 30
0.000000000000000
 10
146.0168127517906
 20
118.6984319203634
 30
0.000000000000000
  0
SPLINE
  5
C4
100
AcDbEntity
  8
A1
  6
CONTINUOUS
 62
7
100
AcDbSpline
210
0.000000000000000
220
0.000000000000000
230
1.000000000000000
 70
     8
 71
     3
 72
     8
 73
     4
 74
     0
 42
1.000000000000000e-07
 43
1.000000000000000e-07
 12
-0.9555325407859527
 22
-1.160289513811676
 32
0.000000000000000
 13
-1.013512472297862
 23
-1.080347914869549
 33
0.000000000000000
 40
0.000000000000000
 40
0.000000000000000
 40
0.000000000000000
 40
0.000000000000000
 40
0.3855662173139732
 40
0.3855662173139732
 40
0.3855662173139732
 40
0.3855662173139732
 10
146.4115496095813
 20
119.1458003591929
 30
0.000000000000000
 10
146.2887425871576
 20
118.9966775462497
 30
0.000000000000000
 10
146.2874223579421
 20
118.9951752164528
 30
0.000000000000000
 10
146.1571636345606
 20
118.8563266634797
 30
0.000000000000000
  0
SPLINE
  5
C5
100
AcDbEntity
  8
A1
  6
CONTINUOUS
 62
7
100
AcDbSpline
210
0.000000000000000
220
0.000000000000000
230
1.000000000000000
 70
     8
 71
     3
 72
     8
 73
     4
 74
     0
 42
1.000000000000000e-07
 43
1.000000000000000e-07
 12
0.000000000000000
 22
-1.517551774165554
 32
0.000000000000000
 13
-0.9436209840343963
 23
-1.124586981130733
 33
0.000000000000000
 40
0.000000000000000
 40
0.000000000000000
 40
0.000000000000000
 40
0.000000000000000
 40
0.4161828170985594
 40
0.4161828170985594
 40
0.4161828170985594
 40
0.4161828170985594
 10
146.5431285621782
 20
119.5142214264642
 30
0.000000000000000
 10
146.5431285621782
 20
119.3036951023091
 30
0.000000000000000
 10
146.5424558893842
 20
119.3018116184860
 30
0.000000000000000
 10
146.4115496095813
 20
119.1458003591929
 30
0.000000000000000
  0
SPLINE
  5
C6
100
AcDbEntity
  8
A1
  6
CONTINUOUS
 62
7
100
AcDbSpline
210
0.000000000000000
220
0.000000000000000
230
1.000000000000000
 70
     8
 71
     3
 72
     8
 73
     4
 74
     0
 42
1.000000000000000e-07
 43
1.000000000000000e-07
 12
1.042732295103633
 22
-1.042732295103406
 32
0.000000000000000
 13
-0.006883153146191034
 23
-1.507050208176906
 33
0.000000000000000
 40
0.000000000000000
 40
0.000000000000000
 40
0.000000000000000
 40
0.000000000000000
 40
0.3280854332010915
 40
0.3280854332010915
 40
0.3280854332010915
 40
0.3280854332010915
 10
146.4290934699276
 20
119.7949231920042
 30
0.000000000000000
 10
146.5431285621782
 20
119.6808880997536
 30
0.000000000000000
 10
146.5438813162721
 20
119.6790351665994
 30
0.000000000000000
 10
146.5431285621782
 20
119.5142214264642
 30
0.000000000000000
  0
SPLINE
  5
C7
100
AcDbEntity
  8
A1
  6
CONTINUOUS
 62
7
100
AcDbSpline
210
0.000000000000000
220
0.000000000000000
230
1.000000000000000
 70
     8
 71
     3
 72
     8
 73
     4
 74
     0
 42
1.000000000000000e-07
 43
1.000000000000000e-07
 12
1.633430571720965
 22
0.000000000000000
 32
0.000000000000000
 13
0.9493399769046391
 23
-0.9593147752038931
 33
0.000000000000000
 40
0.000000000000000
 40
0.000000000000000
 40
0.000000000000000
 40
0.000000000000000
 40
0.3544364856697840
 40
0.3544364856697840
 40
0.3544364856697840
 40
0.3544364856697840
 10
146.1220759138681
 20
119.9089582842549
 30
0.000000000000000
 10
146.3150583776769
 20
119.9089582842549
 30
0.000000000000000
 10
146.3169332282210
 20
119.9082619111957
 30
0.000000000000000
 10
146.4290934699276
 20
119.7949231920042
 30
0.000000000000000
  0
SPLINE
  5
C8
100
AcDbEntity
  8
A1
  6
CONTINUOUS
 62
7
100
AcDbSpline
210
0.000000000000000
220
0.000000000000000
230
1.000000000000000
 70
     8
 71
     3
 72
     8
 73
     4
 74
     0
 42
1.000000000000000e-07
 43
1.000000000000000e-07
 12
1.071348087778460
 22
1.071348087778915
 32
0.000000000000000
 13
1.466077199861957
 23
-0.007266515542369234
 33
0.000000000000000
 40
0.000000000000000
 40
0.000000000000000
 40
0.000000000000000
 40
0.000000000000000
 40
0.3193222451736085
 40
0.3193222451736085
 40
0.3193222451736085
 40
0.3193222451736085
 10
145.8501460785012
 20
119.7949231920042
 30
0.000000000000000
 10
145.9641811707519
 20
119.9089582842549
 30
0.000000000000000
 10
145.9660255595155
 20
119.9097317376074
 30
0.000000000000000
 10
146.1220759138681
 20
119.9089582842549
 30
0.000000000000000
  0
SPLINE
  5
C9
100
AcDbEntity
  8
A1
  6
CONTINUOUS
 62
7
100
AcDbSpline
210
0.000000000000000
220
0.000000000000000
230
1.000000000000000
 70
     8
 71
     3
 72
     8
 73
     4
 74
     0
 42
1.000000000000000e-07
 43
1.000000000000000e-07
 12
0.000000000000000
 22
1.733423080659122
 32
0.000000000000000
 13
0.8905614209171517
 23
0.8826010932846202
 33
0.000000000000000
 40
0.000000000000000
 40
0.000000000000000
 40
0.000000000000000
 40
0.000000000000000
 40
0.4706234243693883
 40
0.4706234243693883
 40
0.4706234243693883
 40
0.4706234243693883
 10
145.7097951957312
 20
119.3826424738673
 30
0.000000000000000
 10
145.7097951957312
 20
119.6545723092342
 30
0.000000000000000
 10
145.7104397233268
 20
119.6564656090463
 30
0.000000000000000
 10
145.8501460785012
 20
119.7949231920042
 30
0.000000000000000
  0
LINE
  5
CA
100
AcDbEntity
  8
A1
  6
CONTINUOUS
 62
7
100
AcDbLine
 10
145.9115495897131
 20
119.3826424738673
 30
0.000000000000000
 11
145.7097951957312
 21
119.3826424738673
 31
0.000000000000000
  0
SPLINE
  5
CB
100
AcDbEntity
  8
A1
  6
CONTINUOUS
 62
7
100
AcDbSpline
210
0.000000000000000
220
0.000000000000000
230
1.000000000000000
 70
     8
 71
     3
 72
     8
 73
     4
 74
     0
 42
1.000000000000000e-07
 43
1.000000000000000e-07
 12
-0.8340296877652236
 22
-0.8340296877652236
 32
0.000000000000000
 13
0.005183150384254986
 23
-1.803209294810358
 33
0.000000000000000
 40
0.000000000000000
 40
0.000000000000000
 40
0.000000000000000
 40
0.000000000000000
 40
0.3470784073512275
 40
0.3470784073512275
 40
0.3470784073512275
 40
0.3470784073512275
 10
146.0080408216175
 20
119.6896600299267
 30
0.000000000000000
 10
145.9115495897131
 20
119.5931687980223
 30
0.000000000000000
 10
145.9109499365196
 20
119.5912608105885
 30
0.000000000000000
 10
145.9115495897131
 20
119.3826424738673
 30
0.000000000000000
  0
SPLINE
  5
CC
100
AcDbEntity
  8
A1
  6
CONTINUOUS
 62
7
100
AcDbSpline
210
0.000000000000000
220
0.000000000000000
230
1.000000000000000
 70
     8
 71
     3
 72
     8
 73
     4
 74
     0
 42
1.000000000000000e-07
 43
1.000000000000000e-07
 12
-1.454367228830051
 22
0.000000000000000
 32
0.000000000000000
 13
-1.052677352445244
 23
-1.074447677688568
 33
0.000000000000000
 40
0.000000000000000
 40
0.000000000000000
 40
0.000000000000000
 40
0.000000000000000
 40
0.1447545846618495
 40
0.1447545846618495
 40
0.1447545846618495
 40
0.1447545846618495
 10
146.1308478440413
 20
119.7422916109655
 30
0.000000000000000
 10
146.0606724026563
 20
119.7422916109655
 30
0.000000000000000
 10
146.0588341125962
 20
119.7415037723683
 30
0.000000000000000
 10
146.0080408216175
 20
119.6896600299267
 30
0.000000000000000
  0
SPLINE
  5
CD
100
AcDbEntity
  8
A1
  6
CONTINUOUS
 62
7
100
AcDbSpline
210
0.000000000000000
220
0.000000000000000
230
1.000000000000000
 70
     8
 71
     3
 72
     8
 73
     4
 74
     0
 42
1.000000000000000e-07
 43
1.000000000000000e-07
 12
-1.028454089675051
 22
1.028454089673687
 32
0.000000000000000
 13
-1.506395101257112
 23
-0.01451441330209491
 33
0.000000000000000
 40
0.000000000000000
 40
0.000000000000000
 40
0.000000000000000
 40
0.000000000000000
 40
0.1535262922297460
 40
0.1535262922297460
 40
0.1535262922297460
 40
0.1535262922297460
 10
146.2624267966382
 20
119.6896600299267
 30
0.000000000000000
 10
146.2097952155994
 20
119.7422916109655
 30
0.000000000000000
 10
146.2079382622177
 20
119.7430343923182
 30
0.000000000000000
 10
146.1308478440413
 20
119.7422916109655
 30
0.000000000000000
  0
SPLINE
  5
CE
100
AcDbEntity
  8
A1
  6
CONTINUOUS
 62
7
100
AcDbSpline
210
0.000000000000000
220
0.000000000000000
230
1.000000000000000
 70
     8
 71
     3
 72
     8
 73
     4
 74
     0
 42
1.000000000000000e-07
 43
1.000000000000000e-07
 12
0.000000000000000
 22
1.542911807455766
 32
0.000000000000000
 13
-1.017720433934301
 23
1.001389277381350
 33
0.000000000000000
 40
0.000000000000000
 40
0.000000000000000
 40
0.000000000000000
 40
0.000000000000000
 40
0.2046711190533659
 40
0.2046711190533659
 40
0.2046711190533659
 40
0.2046711190533659
 10
146.3326022380232
 20
119.5142214264642
 30
0.000000000000000
 10
146.3326022380232
 20
119.6194845885417
 30
0.000000000000000
 10
146.3318594566705
 20
119.6213415419235
 30
0.000000000000000
 10
146.2624267966382
 20
119.6896600299267
 30
0.000000000000000
  0
SPLINE
  5
CF
100
AcDbEntity
  8
A1
  6
CONTINUOUS
 62
7
100
AcDbSpline
210
0.000000000000000
220
0.000000000000000
230
1.000000000000000
 70
     8
 71
     3
 72
     8
 73
     4
 74
     0
 42
1.000000000000000e-07
 43
1.000000000000000e-07
 12
1.138928426877101
 22
1.205924216693120
 32
0.000000000000000
 13
-0.006237807685920416
 23
1.325972461497940
 33
0.000000000000000
 40
0.000000000000000
 40
0.000000000000000
 40
0.000000000000000
 40
0.000000000000000
 40
0.3927976756680009
 40
0.3927976756680009
 40
0.3927976756680009
 40
0.3927976756680009
 10
146.1834794250800
 20
119.1808880798854
 30
0.000000000000000
 10
146.3326022380232
 20
119.3387828230017
 30
0.000000000000000
 10
146.3334189701433
 20
119.3406084595055
 30
0.000000000000000
 10
146.3326022380232
 20
119.5142214264642
 30
0.000000000000000
  0
SPLINE
  5
D0
100
AcDbEntity
  8
A1
  6
CONTINUOUS
 62
7
100
AcDbSpline
210
0.000000000000000
220
0.000000000000000
230
1.000000000000000
 70
     8
 71
     3
 72
     8
 73
     4
 74
     0
 42
1.000000000000000e-07
 43
1.000000000000000e-07
 12
1.231932771847369
 22
1.330487393595035
 32
0.000000000000000
 13
0.7808701613747644
 23
0.8786865575024194
 33
0.000000000000000
 40
0.000000000000000
 40
0.000000000000000
 40
0.000000000000000
 40
0.000000000000000
 40
0.5340346308005155
 40
0.5340346308005155
 40
0.5340346308005155
 40
0.5340346308005155
 10
145.8238302879818
 20
118.7861512220947
 30
0.000000000000000
 10
146.0431285423100
 20
119.0229933367691
 30
0.000000000000000
 10
146.0444755223024
 20
119.0244717294437
 30
0.000000000000000
 10
146.1834794250800
 20
119.1808880798854
 30
0.000000000000000
  0
SPLINE
  5
D1
100
AcDbEntity
  8
A1
  6
CONTINUOUS
 62
7
100
AcDbSpline
210
0.000000000000000
220
0.000000000000000
230
1.000000000000000
 70
     8
 71
     3
 72
     8
 73
     4
 74
     0
 42
1.000000000000000e-07
 43
1.000000000000000e-07
 12
0.1784050137637223
 22
0.8920250688177020
 32
0.000000000000000
 13
1.327482537311425
 23
1.588260309423276
 33
0.000000000000000
 40
0.000000000000000
 40
0.000000000000000
 40
0.000000000000000
 40
0.000000000000000
 40
0.2950117820595730
 40
0.2950117820595730
 40
0.2950117820595730
 40
0.2950117820595730
 10
145.6747074750387
 20
118.5405371772472
 30
0.000000000000000
 10
145.6922513353850
 20
118.6282564789784
 30
0.000000000000000
 10
145.6932892916535
 20
118.6299660540089
 30
0.000000000000000
 10
145.8238302879818
 20
118.7861512220947
 30
0.000000000000000
  0
LINE
  5
D2
100
AcDbEntity
  8
A1
  6
CONTINUOUS
 62
7
100
AcDbLine
 10
145.6747074750387
 20
118.3914143643040
 30
0.000000000000000
 11
145.6747074750387
 21
118.5405371772472
 31
0.000000000000000
  0
LINE
  5
D3
100
AcDbEntity
  8
A1
  6
CONTINUOUS
 62
7
100
AcDbLine
 10
146.5694443526976
 20
118.3914143643040
 30
0.000000000000000
 11
145.6747074750387
 21
118.3914143643040
 31
0.000000000000000
  0
LINE
  5
D4
100
AcDbEntity
  8
A1
  6
CONTINUOUS
 62
7
100
AcDbLine
 10
146.5694443526976
 20
118.5580810375934
 30
0.000000000000000
 11
146.5694443526976
 21
118.3914143643040
 31
0.000000000000000
  0
LINE
  5
D5
100
AcDbEntity
  8
A1
  6
CONTINUOUS
 62
7
100
AcDbLine
 10
147.0343566518733
 20
118.5580810375934
 30
0.000000000000000
 11
147.6922514148578
 21
118.5580810375934
 31
0.000000000000000
  0
SPLINE
  5
D6
100
AcDbEntity
  8
A1
  6
CONTINUOUS
 62
7
100
AcDbSpline
210
0.000000000000000
220
0.000000000000000
230
1.000000000000000
 70
     8
 71
     3
 72
     8
 73
     4
 74
     0
 42
1.000000000000000e-07
 43
1.000000000000000e-07
 12
-1.046600197740190
 22
-1.196114511702717
 32
0.000000000000000
 13
-0.7271180124766943
 23
-1.168843101919265
 33
0.000000000000000
 40
0.000000000000000
 40
0.000000000000000
 40
0.000000000000000
 40
0.000000000000000
 40
0.1760085026101999
 40
0.1760085026101999
 40
0.1760085026101999
 40
0.1760085026101999
 10
147.1396198139508
 20
118.6984319203634
 30
0.000000000000000
 10
147.0782163027389
 20
118.6282564789784
 30
0.000000000000000
 10
147.0770163027389
 20
118.6266564789784
 30
0.000000000000000
 10
147.0343566518733
 20
118.5580810375934
 30
0.000000000000000
  0
SPLINE
  5
D7
100
AcDbEntity
  8
A1
  6
CONTINUOUS
 62
7
100
AcDbSpline
210
0.000000000000000
220
0.000000000000000
230
1.000000000000000
 70
     8
 71
     3
 72
     8
 73
     4
 74
     0
 42
1.000000000000000e-07
 43
1.000000000000000e-07
 12
-0.9965457582452473
 22
-1.121113978025960
 32
0.000000000000000
 13
-0.9776767934777126
 23
-1.099886392661574
 33
0.000000000000000
 40
0.000000000000000
 40
0.000000000000000
 40
0.000000000000000
 40
0.000000000000000
 40
0.2112560536365146
 40
0.2112560536365146
 40
0.2112560536365146
 40
0.2112560536365146
 10
147.2799706967209
 20
118.8563266634797
 30
0.000000000000000
 10
147.2097952553358
 20
118.7773792919215
 30
0.000000000000000
 10
147.2084665276582
 20
118.7758844732842
 30
0.000000000000000
 10
147.1396198139508
 20
118.6984319203634
 30
0.000000000000000
  0
SPLINE
  5
D8
100
AcDbEntity
  8
A1
  6
CONTINUOUS
 62
7
100
AcDbSpline
210
0.000000000000000
220
0.000000000000000
230
1.000000000000000
 70
     8
 71
     3
 72
     8
 73
     4
 74
     0
 42
1.000000000000000e-07
 43
1.000000000000000e-07
 12
-0.9555325407859527
 22
-1.160289513811563
 32
0.000000000000000
 13
-1.013512472297407
 23
-1.080347914869549
 33
0.000000000000000
 40
0.000000000000000
 40
0.000000000000000
 40
0.000000000000000
 40
0.000000000000000
 40
0.3855662173139635
 40
0.3855662173139635
 40
0.3855662173139635
 40
0.3855662173139635
 10
147.5343566717415
 20
119.1458003591929
 30
0.000000000000000
 10
147.4115496493178
 20
118.9966775462497
 30
0.000000000000000
 10
147.4102294201023
 20
118.9951752164528
 30
0.000000000000000
 10
147.2799706967209
 20
118.8563266634797
 30
0.000000000000000
  0
SPLINE
  5
D9
100
AcDbEntity
  8
A1
  6
CONTINUOUS
 62
7
100
AcDbSpline
210
0.000000000000000
220
0.000000000000000
230
1.000000000000000
 70
     8
 71
     3
 72
     8
 73
     4
 74
     0
 42
1.000000000000000e-07
 43
1.000000000000000e-07
 12
0.000000000000000
 22
-1.517551774165554
 32
0.000000000000000
 13
-0.9436209840341689
 23
-1.124586981130733
 33
0.000000000000000
 40
0.000000000000000
 40
0.000000000000000
 40
0.000000000000000
 40
0.000000000000000
 40
0.4161828170985594
 40
0.4161828170985594
 40
0.4161828170985594
 40
0.4161828170985594
 10
147.6659356243384
 20
119.5142214264642
 30
0.000000000000000
 10
147.6659356243384
 20
119.3036951023091
 30
0.000000000000000
 10
147.6652629515444
 20
119.3018116184860
 30
0.000000000000000
 10
147.5343566717415
 20
119.1458003591929
 30
0.000000000000000
  0
SPLINE
  5
DA
100
AcDbEntity
  8
A1
  6
CONTINUOUS
 62
7
100
AcDbSpline
210
0.000000000000000
220
0.000000000000000
230
1.000000000000000
 70
     8
 71
     3
 72
     8
 73
     4
 74
     0
 42
1.000000000000000e-07
 43
1.000000000000000e-07
 12
1.042732295103860
 22
-1.042732295103633
 32
0.000000000000000
 13
-0.006883153145963661
 23
-1.507050208176906
 33
0.000000000000000
 40
0.000000000000000
 40
0.000000000000000
 40
0.000000000000000
 40
0.000000000000000
 40
0.3280854332010814
 40
0.3280854332010814
 40
0.3280854332010814
 40
0.3280854332010814
 10
147.5519005320878
 20
119.7949231920042
 30
0.000000000000000
 10
147.6659356243384
 20
119.6808880997536
 30
0.000000000000000
 10
147.6666883784323
 20
119.6790351665994
 30
0.000000000000000
 10
147.6659356243384
 20
119.5142214264642
 30
0.000000000000000
  0
SPLINE
  5
DB
100
AcDbEntity
  8
A1
  6
CONTINUOUS
 62
7
100
AcDbSpline
210
0.000000000000000
220
0.000000000000000
230
1.000000000000000
 70
     8
 71
     3
 72
     8
 73
     4
 74
     0
 42
1.000000000000000e-07
 43
1.000000000000000e-07
 12
1.633430571720965
 22
0.000000000000000
 32
0.000000000000000
 13
0.9493399769044117
 23
-0.9593147752038931
 33
0.000000000000000
 40
0.000000000000000
 40
0.000000000000000
 40
0.000000000000000
 40
0.000000000000000
 40
0.3544364856697840
 40
0.3544364856697840
 40
0.3544364856697840
 40
0.3544364856697840
 10
147.2448829760284
 20
119.9089582842549
 30
0.000000000000000
 10
147.4378654398372
 20
119.9089582842549
 30
0.000000000000000
 10
147.4397402903812
 20
119.9082619111957
 30
0.000000000000000
 10
147.5519005320878
 20
119.7949231920042
 30
0.000000000000000
  0
SPLINE
  5
DC
100
AcDbEntity
  8
A1
  6
CONTINUOUS
 62
7
100
AcDbSpline
210
0.000000000000000
220
0.000000000000000
230
1.000000000000000
 70
     8
 71
     3
 72
     8
 73
     4
 74
     0
 42
1.000000000000000e-07
 43
1.000000000000000e-07
 12
1.071348087778688
 22
1.071348087778915
 32
0.000000000000000
 13
1.466077199862411
 23
-0.007266515542141860
 33
0.000000000000000
 40
0.000000000000000
 40
0.000000000000000
 40
0.000000000000000
 40
0.000000000000000
 40
0.3193222451736126
 40
0.3193222451736126
 40
0.3193222451736126
 40
0.3193222451736126
 10
146.9729531406614
 20
119.7949231920042
 30
0.000000000000000
 10
147.0869882329121
 20
119.9089582842549
 30
0.000000000000000
 10
147.0888326216757
 20
119.9097317376074
 30
0.000000000000000
 10
147.2448829760284
 20
119.9089582842549
 30
0.000000000000000
  0
SPLINE
  5
DD
100
AcDbEntity
  8
A1
  6
CONTINUOUS
 62
7
100
AcDbSpline
210
0.000000000000000
220
0.000000000000000
230
1.000000000000000
 70
     8
 71
     3
 72
     8
 73
     4
 74
     0
 42
1.000000000000000e-07
 43
1.000000000000000e-07
 12
0.000000000000000
 22
1.733423080659350
 32
0.000000000000000
 13
0.8905614209171517
 23
0.8826010932846202
 33
0.000000000000000
 40
0.000000000000000
 40
0.000000000000000
 40
0.000000000000000
 40
0.000000000000000
 40
0.4706234243693782
 40
0.4706234243693782
 40
0.4706234243693782
 40
0.4706234243693782
 10
146.8326022578914
 20
119.3826424738673
 30
0.000000000000000
 10
146.8326022578914
 20
119.6545723092342
 30
0.000000000000000
 10
146.8332467854870
 20
119.6564656090463
 30
0.000000000000000
 10
146.9729531406614
 20
119.7949231920042
 30
0.000000000000000
  0
LINE
  5
DE
100
AcDbEntity
  8
A1
  6
CONTINUOUS
 62
7
100
AcDbLine
 10
147.0343566518733
 20
119.3826424738673
 30
0.000000000000000
 11
146.8326022578914
 21
119.3826424738673
 31
0.000000000000000
  0
SPLINE
  5
DF
100
AcDbEntity
  8
A1
  6
CONTINUOUS
 62
7
100
AcDbSpline
210
0.000000000000000
220
0.000000000000000
230
1.000000000000000
 70
     8
 71
     3
 72
     8
 73
     4
 74
     0
 42
1.000000000000000e-07
 43
1.000000000000000e-07
 12
-0.8340296877649962
 22
-0.8340296877652236
 32
0.000000000000000
 13
0.005183150384254986
 23
-1.803209294810358
 33
0.000000000000000
 40
0.000000000000000
 40
0.000000000000000
 40
0.000000000000000
 40
0.000000000000000
 40
0.3470784073512275
 40
0.3470784073512275
 40
0.3470784073512275
 40
0.3470784073512275
 10
147.1308478837777
 20
119.6896600299267
 30
0.000000000000000
 10
147.0343566518733
 20
119.5931687980223
 30
0.000000000000000
 10
147.0337569986798
 20
119.5912608105885
 30
0.000000000000000
 10
147.0343566518733
 20
119.3826424738673
 30
0.000000000000000
  0
SPLINE
  5
E0
100
AcDbEntity
  8
A1
  6
CONTINUOUS
 62
7
100
AcDbSpline
210
0.000000000000000
220
0.000000000000000
230
1.000000000000000
 70
     8
 71
     3
 72
     8
 73
     4
 74
     0
 42
1.000000000000000e-07
 43
1.000000000000000e-07
 12
-1.454367228830051
 22
0.000000000000000
 32
0.000000000000000
 13
-1.052677352445698
 23
-1.074447677688568
 33
0.000000000000000
 40
0.000000000000000
 40
0.000000000000000
 40
0.000000000000000
 40
0.000000000000000
 40
0.1447545846618538
 40
0.1447545846618538
 40
0.1447545846618538
 40
0.1447545846618538
 10
147.2536549062015
 20
119.7422916109655
 30
0.000000000000000
 10
147.1834794648165
 20
119.7422916109655
 30
0.000000000000000
 10
147.1816411747564
 20
119.7415037723683
 30
0.000000000000000
 10
147.1308478837777
 20
119.6896600299267
 30
0.000000000000000
  0
SPLINE
  5
E1
100
AcDbEntity
  8
A1
  6
CONTINUOUS
 62
7
100
AcDbSpline
210
0.000000000000000
220
0.000000000000000
230
1.000000000000000
 70
     8
 71
     3
 72
     8
 73
     4
 74
     0
 42
1.000000000000000e-07
 43
1.000000000000000e-07
 12
-1.028454089674597
 22
1.028454089673687
 32
0.000000000000000
 13
-1.506395101258022
 23
-0.01451441330254966
 33
0.000000000000000
 40
0.000000000000000
 40
0.000000000000000
 40
0.000000000000000
 40
0.000000000000000
 40
0.1535262922297360
 40
0.1535262922297360
 40
0.1535262922297360
 40
0.1535262922297360
 10
147.3852338587984
 20
119.6896600299267
 30
0.000000000000000
 10
147.3326022777596
 20
119.7422916109655
 30
0.000000000000000
 10
147.3307453243779
 20
119.7430343923182
 30
0.000000000000000
 10
147.2536549062015
 20
119.7422916109655
 30
0.000000000000000
  0
SPLINE
  5
E2
100
AcDbEntity
  8
A1
  6
CONTINUOUS
 62
7
100
AcDbSpline
210
0.000000000000000
220
0.000000000000000
230
1.000000000000000
 70
     8
 71
     3
 72
     8
 73
     4
 74
     0
 42
1.000000000000000e-07
 43
1.000000000000000e-07
 12
0.000000000000000
 22
1.542911807455766
 32
0.000000000000000
 13
-1.017720433934755
 23
1.001389277381122
 33
0.000000000000000
 40
0.000000000000000
 40
0.000000000000000
 40
0.000000000000000
 40
0.000000000000000
 40
0.2046711190533760
 40
0.2046711190533760
 40
0.2046711190533760
 40
0.2046711190533760
 10
147.4554093001834
 20
119.5142214264642
 30
0.000000000000000
 10
147.4554093001834
 20
119.6194845885417
 30
0.000000000000000
 10
147.4546665188307
 20
119.6213415419235
 30
0.000000000000000
 10
147.3852338587984
 20
119.6896600299267
 30
0.000000000000000
  0
SPLINE
  5
E3
100
AcDbEntity
  8
A1
  6
CONTINUOUS
 62
7
100
AcDbSpline
210
0.000000000000000
220
0.000000000000000
230
1.000000000000000
 70
     8
 71
     3
 72
     8
 73
     4
 74
     0
 42
1.000000000000000e-07
 43
1.000000000000000e-07
 12
1.138928426876873
 22
1.205924216693006
 32
0.000000000000000
 13
-0.006237807686147789
 23
1.325972461497940
 33
0.000000000000000
 40
0.000000000000000
 40
0.000000000000000
 40
0.000000000000000
 40
0.000000000000000
 40
0.3927976756680107
 40
0.3927976756680107
 40
0.3927976756680107
 40
0.3927976756680107
 10
147.3062864872402
 20
119.1808880798854
 30
0.000000000000000
 10
147.4554093001834
 20
119.3387828230017
 30
0.000000000000000
 10
147.4562260323035
 20
119.3406084595055
 30
0.000000000000000
 10
147.4554093001834
 20
119.5142214264642
 30
0.000000000000000
  0
SPLINE
  5
E4
100
AcDbEntity
  8
A1
  6
CONTINUOUS
 62
7
100
AcDbSpline
210
0.000000000000000
220
0.000000000000000
230
1.000000000000000
 70
     8
 71
     3
 72
     8
 73
     4
 74
     0
 42
1.000000000000000e-07
 43
1.000000000000000e-07
 12
1.231932771847255
 22
1.330487393595035
 32
0.000000000000000
 13
0.7808701613748781
 23
0.8786865575024194
 33
0.000000000000000
 40
0.000000000000000
 40
0.000000000000000
 40
0.000000000000000
 40
0.000000000000000
 40
0.5340346308005155
 40
0.5340346308005155
 40
0.5340346308005155
 40
0.5340346308005155
 10
146.9466373501421
 20
118.7861512220947
 30
0.000000000000000
 10
147.1659356044702
 20
119.0229933367691
 30
0.000000000000000
 10
147.1672825844626
 20
119.0244717294437
 30
0.000000000000000
 10
147.3062864872402
 20
119.1808880798854
 30
0.000000000000000
  0
SPLINE
  5
E5
100
AcDbEntity
  8
A1
  6
CONTINUOUS
 62
7
100
AcDbSpline
210
0.000000000000000
220
0.000000000000000
230
1.000000000000000
 70
     8
 71
     3
 72
     8
 73
     4
 74
     0
 42
1.000000000000000e-07
 43
1.000000000000000e-07
 12
0.1784050137637223
 22
0.8920250688174747
 32
0.000000000000000
 13
1.327482537311425
 23
1.588260309423276
 33
0.000000000000000
 40
0.000000000000000
 40
0.000000000000000
 40
0.000000000000000
 40
0.000000000000000
 40
0.2950117820595674
 40
0.2950117820595674
 40
0.2950117820595674
 40
0.2950117820595674
 10
146.7975145371989
 20
118.5405371772472
 30
0.000000000000000
 10
146.8150583975452
 20
118.6282564789784
 30
0.000000000000000
 10
146.8160963538137
 20
118.6299660540089
 30
0.000000000000000
 10
146.9466373501421
 20
118.7861512220947
 30
0.000000000000000
  0
LINE
  5
E6
100
AcDbEntity
  8
A1
  6
CONTINUOUS
 62
7
100
AcDbLine
 10
146.7975145371989
 20
118.3914143643040
 30
0.000000000000000
 11
146.7975145371989
 21
118.5405371772472
 31
0.000000000000000
  0
LINE
  5
E7
100
AcDbEntity
  8
A1
  6
CONTINUOUS
 62
7
100
AcDbLine
 10
147.6922514148578
 20
118.3914143643040
 30
0.000000000000000
 11
146.7975145371989
 21
118.3914143643040
 31
0.000000000000000
  0
LINE
  5
E8
100
AcDbEntity
  8
A1
  6
CONTINUOUS
 62
7
100
AcDbLine
 10
147.6922514148578
 20
118.5580810375934
 30
0.000000000000000
 11
147.6922514148578
 21
118.3914143643040
 31
0.000000000000000
  0
LINE
  5
E9
100
AcDbEntity
  8
A1
  6
CONTINUOUS
 62
7
100
AcDbLine
 10
147.8676900183204
 20
119.2335196609241
 30
0.000000000000000
 11
148.8676900580568
 21
119.2335196609241
 31
0.000000000000000
  0
LINE
  5
EA
100
AcDbEntity
  8
A1
  6
CONTINUOUS
 62
7
100
AcDbLine
 10
147.8676900183204
 20
119.0931687781541
 30
0.000000000000000
 11
147.8676900183204
 21
119.2335196609241
 31
0.000000000000000
  0
LINE
  5
EB
100
AcDbEntity
  8
A1
  6
CONTINUOUS
 62
7
100
AcDbLine
 10
148.8676900580568
 20
119.0931687781541
 30
0.000000000000000
 11
147.8676900183204
 21
119.0931687781541
 31
0.000000000000000
  0
LINE
  5
EC
100
AcDbEntity
  8
A1
  6
CONTINUOUS
 62
7
100
AcDbLine
 10
148.8676900580568
 20
119.2335196609241
 30
0.000000000000000
 11
148.8676900580568
 21
119.0931687781541
 31
0.000000000000000
  0
LINE
  5
ED
100
AcDbEntity
  8
A4
  6
CENTER
 62
1
100
AcDbLine
 10
125.3019002539328
 20
119.1677301307724
 30
0.000000000000000
 11
139.8633037651447
 21
119.1677301307724
 31
0.000000000000000
  0
LINE
  5
EE
100
AcDbEntity
  8
A4
  6
CENTER
 62
1
100
AcDbLine
 10
150.7317251900438
 20
119.1677301307724
 30
0.000000000000000
 11
155.0519002539328
 21
119.1677301307724
 31
0.000000000000000
  0
SPLINE
  5
EF
100
AcDbEntity
  8
A1
  6
CONTINUOUS
 62
7
100
AcDbSpline
210
0.000000000000000
220
0.000000000000000
230
1.000000000000000
 70
     8
 71
     3
 72
    10
 73
     6
 74
     0
 42
1.000000000000000e-07
 43
1.000000000000000e-07
 12
-0.9999195633672571
 22
-0.01268332746894885
 32
0.000000000000000
 13
-0.7095677802631144
 23
0.7046371869350878
 33
0.000000000000000
 40
0.000000000000000
 40
0.000000000000000
 40
0.000000000000000
 40
0.000000000000000
 40
0.09385841019801200
 40
0.1818492559881962
 40
0.3186854271325223
 40
0.3186854271325223
 40
0.3186854271325223
 40
0.3186854271325223
 10
149.4729532400025
 20
118.3738705039577
 30
0.000000000000000
 10
149.4416696198213
 20
118.3734736916403
 30
0.000000000000000
 10
149.3808000762429
 20
118.3793761502769
 30
0.000000000000000
 10
149.2786385067219
 20
118.4110689662938
 30
0.000000000000000
 10
149.2158443903622
 20
118.4557656446396
 30
0.000000000000000
 10
149.1834795442894
 20
118.4879055962083
 30
0.000000000000000
  0
SPLINE
  5
F0
100
AcDbEntity
  8
A1
  6
CONTINUOUS
 62
7
100
AcDbSpline
210
0.000000000000000
220
0.000000000000000
230
1.000000000000000
 70
     8
 71
     3
 72
    10
 73
     6
 74
     0
 42
1.000000000000000e-07
 43
1.000000000000000e-07
 12
-0.7036194503707520
 22
-0.7105769972781673
 32
0.000000000000000
 13
-0.9998906824062033
 23
0.01478591347631664
 33
0.000000000000000
 40
0.000000000000000
 40
0.000000000000000
 40
0.000000000000000
 40
0.000000000000000
 40
0.09440778704447660
 40
0.1866879650775902
 40
0.3387750658433254
 40
0.3387750658433254
 40
0.3387750658433254
 40
0.3387750658433254
 10
149.7799707960620
 20
118.4966775263814
 30
0.000000000000000
 10
149.7578284109850
 20
118.4743161924355
 30
0.000000000000000
 10
149.7088830861620
 20
118.4347881113753
 30
0.000000000000000
 10
149.6062921990359
 20
118.3857437915139
 30
0.000000000000000
 10
149.5236433983258
 20
118.3731209217201
 30
0.000000000000000
 10
149.4729532400025
 20
118.3738705039577
 30
0.000000000000000
  0
SPLINE
  5
F1
100
AcDbEntity
  8
A1
  6
CONTINUOUS
 62
7
100
AcDbSpline
210
0.000000000000000
220
0.000000000000000
230
1.000000000000000
 70
     8
 71
     3
 72
    11
 73
     7
 74
     0
 42
1.000000000000000e-07
 43
1.000000000000000e-07
 12
0.02013837974845956
 22
-0.9997972022670183
 32
0.000000000000000
 13
-0.7028158666271338
 23
-0.7113718139044067
 33
0.000000000000000
 40
0.000000000000000
 40
0.000000000000000
 40
0.000000000000000
 40
0.000000000000000
 40
0.1565053251555209
 40
0.2955629283151175
 40
0.3967563145458496
 40
0.4949377314689297
 40
0.4949377314689297
 40
0.4949377314689297
 40
0.4949377314689297
 10
149.9378655391782
 20
118.9528178953840
 30
0.000000000000000
 10
149.9389161270684
 20
118.9006600333072
 30
0.000000000000000
 10
149.9307028188205
 20
118.8018355402335
 30
0.000000000000000
 10
149.8970267819244
 20
118.6730116472778
 30
0.000000000000000
 10
149.8453263205223
 20
118.5718659226997
 30
0.000000000000000
 10
149.8029719486024
 20
118.5199586905975
 30
0.000000000000000
 10
149.7799707960620
 20
118.4966775263814
 30
0.000000000000000
  0
SPLINE
  5
F2
100
AcDbEntity
  8
A1
  6
CONTINUOUS
 62
7
100
AcDbSpline
210
0.000000000000000
220
0.000000000000000
230
1.000000000000000
 70
     8
 71
     3
 72
    10
 73
     6
 74
     0
 42
1.000000000000000e-07
 43
1.000000000000000e-07
 12
0.6965593450986489
 22
-0.7174991838005553
 32
0.000000000000000
 13
-0.03863734754486359
 23
-0.9992532989062965
 33
0.000000000000000
 40
0.000000000000000
 40
0.000000000000000
 40
0.000000000000000
 40
0.000000000000000
 40
0.09765784204611330
 40
0.2012386647525582
 40
0.3890940986286079
 40
0.3890940986286079
 40
0.3890940986286079
 40
0.3890940986286079
 10
149.8150585167545
 20
119.3124670324822
 30
0.000000000000000
 10
149.8377333442543
 20
119.2891105584956
 30
0.000000000000000
 10
149.8793884858788
 20
119.2353023591559
 30
0.000000000000000
 10
149.9274074518148
 20
119.1137671916416
 30
0.000000000000000
 10
149.9402849510738
 20
119.0153896160567
 30
0.000000000000000
 10
149.9378655391782
 20
118.9528178953840
 30
0.000000000000000
  0
SPLINE
  5
F3
100
AcDbEntity
  8
A1
  6
CONTINUOUS
 62
7
100
AcDbSpline
210
0.000000000000000
220
0.000000000000000
230
1.000000000000000
 70
     8
 71
     3
 72
    10
 73
     6
 74
     0
 42
1.000000000000000e-07
 43
1.000000000000000e-07
 12
0.9999195633681666
 22
0.01268332746440137
 32
0.000000000000000
 13
0.7095677802640239
 23
-0.7046371869346331
 33
0.000000000000000
 40
0.000000000000000
 40
0.000000000000000
 40
0.000000000000000
 40
0.000000000000000
 40
0.09385841019802610
 40
0.1818492559882307
 40
0.3186854271326092
 40
0.3186854271326092
 40
0.3186854271326092
 40
0.3186854271326092
 10
149.5255848210413
 20
119.4265021247329
 30
0.000000000000000
 10
149.5568684412225
 20
119.4268989370502
 30
0.000000000000000
 10
149.6177379848009
 20
119.4209964784136
 30
0.000000000000000
 10
149.7198995543219
 20
119.3893036623967
 30
0.000000000000000
 10
149.7826936706816
 20
119.3446069840509
 30
0.000000000000000
 10
149.8150585167545
 20
119.3124670324822
 30
0.000000000000000
  0
SPLINE
  5
F4
100
AcDbEntity
  8
A1
  6
CONTINUOUS
 62
7
100
AcDbSpline
210
0.000000000000000
220
0.000000000000000
230
1.000000000000000
 70
     8
 71
     3
 72
     9
 73
     5
 74
     0
 42
1.000000000000000e-07
 43
1.000000000000000e-07
 12
0.7146099874576066
 22
0.6995230988504773
 32
0.000000000000000
 13
0.9996455546561265
 23
0.02662264179434715
 33
0.000000000000000
 40
0.000000000000000
 40
0.000000000000000
 40
0.000000000000000
 40
0.000000000000000
 40
0.1579654714331533
 40
0.2721909605146683
 40
0.2721909605146683
 40
0.2721909605146683
 40
0.2721909605146683
 10
149.2799707761937
 20
119.3212389626553
 30
0.000000000000000
 10
149.3175986773802
 20
119.3580724613514
 30
0.000000000000000
 10
149.3963569228721
 20
119.4101036533494
 30
0.000000000000000
 10
149.4875231535783
 20
119.4254884633064
 30
0.000000000000000
 10
149.5255848210413
 20
119.4265021247329
 30
0.000000000000000
  0
SPLINE
  5
F5
100
AcDbEntity
  8
A1
  6
CONTINUOUS
 62
7
100
AcDbSpline
210
0.000000000000000
220
0.000000000000000
230
1.000000000000000
 70
     8
 71
     3
 72
     9
 73
     5
 74
     0
 42
1.000000000000000e-07
 43
1.000000000000000e-07
 12
-0.3203887547533668
 22
-0.9472861478061532
 32
0.000000000000000
 13
-0.003601854848966468
 23
-0.9999935133018880
 33
0.000000000000000
 40
0.000000000000000
 40
0.000000000000000
 40
0.000000000000000
 40
0.000000000000000
 40
0.03031031927161160
 40
0.05353056811196980
 40
0.05353056811196980
 40
0.05353056811196980
 40
0.05353056811196980
 10
149.2887427063669
 20
119.3738705436941
 30
0.000000000000000
 10
149.2855056778843
 20
119.3642996951669
 30
0.000000000000000
 10
149.2812916465181
 20
119.3468362065280
 30
0.000000000000000
 10
149.2799986548490
 20
119.3289789953945
 30
0.000000000000000
 10
149.2799707761937
 20
119.3212389626553
 30
0.000000000000000
  0
SPLINE
  5
F6
100
AcDbEntity
  8
A1
  6
CONTINUOUS
 62
7
100
AcDbSpline
210
0.000000000000000
220
0.000000000000000
230
1.000000000000000
 70
     8
 71
     3
 72
     9
 73
     5
 74
     0
 42
1.000000000000000e-07
 43
1.000000000000000e-07
 12
-0.05177285504441898
 22
-0.9986588864474015
 32
0.000000000000000
 13
-0.1097936531718915
 23
-0.9939544022358859
 33
0.000000000000000
 40
0.000000000000000
 40
0.000000000000000
 40
0.000000000000000
 40
0.000000000000000
 40
0.1843443840583428
 40
0.3256604153347230
 40
0.3256604153347230
 40
0.3256604153347230
 40
0.3256604153347230
 10
149.3150584968863
 20
119.6984319600998
 30
0.000000000000000
 10
149.3118771518616
 20
119.6370662409976
 30
0.000000000000000
 10
149.3044701011594
 20
119.5287418933803
 30
0.000000000000000
 10
149.2939145741421
 20
119.4206911074920
 30
0.000000000000000
 10
149.2887427063669
 20
119.3738705436941
 30
0.000000000000000
  0
SPLINE
  5
F7
100
AcDbEntity
  8
A1
  6
CONTINUOUS
 62
7
100
AcDbSpline
210
0.000000000000000
220
0.000000000000000
230
1.000000000000000
 70
     8
 71
     3
 72
     9
 73
     5
 74
     0
 42
1.000000000000000e-07
 43
1.000000000000000e-07
 12
0.2611403247210546
 22
0.9653008498971758
 32
0.000000000000000
 13
0.01922543107139063
 23
0.9998151743238850
 33
0.000000000000000
 40
0.000000000000000
 40
0.000000000000000
 40
0.000000000000000
 40
0.000000000000000
 40
0.03722511462654990
 40
0.06213960552560460
 40
0.06213960552560460
 40
0.06213960552560460
 40
0.06213960552560460
 10
149.0957602425581
 20
119.1194845686734
 30
0.000000000000000
 10
149.0990005687319
 20
119.1314623802689
 30
0.000000000000000
 10
149.1029653787253
 20
119.1518874156065
 30
0.000000000000000
 10
149.1043725087887
 20
119.1725847845315
 30
0.000000000000000
 10
149.1045321727312
 20
119.1808880798853
 30
0.000000000000000
  0
SPLINE
  5
F8
100
AcDbEntity
  8
A1
  6
CONTINUOUS
 62
7
100
AcDbSpline
210
0.000000000000000
220
0.000000000000000
230
1.000000000000000
 70
     8
 71
     3
 72
     9
 73
     5
 74
     0
 42
1.000000000000000e-07
 43
1.000000000000000e-07
 12
-0.7291930389328627
 22
-0.6843080534172259
 32
0.000000000000000
 13
-0.5939055313920107
 23
-0.8045347846964432
 33
0.000000000000000
 40
0.000000000000000
 40
0.000000000000000
 40
0.000000000000000
 40
0.000000000000000
 40
0.06977436276516980
 40
0.1057258034722860
 40
0.1057258034722860
 40
0.1057258034722860
 40
0.1057258034722860
 10
149.3413742874056
 20
119.1984319402316
 30
0.000000000000000
 10
149.3244146275308
 20
119.1825162207775
 30
0.000000000000000
 10
149.3001171859572
 20
119.1568378028297
 30
0.000000000000000
 10
149.2783160991864
 20
119.1291259635430
 30
0.000000000000000
 10
149.2711988460206
 20
119.1194845686734
 30
0.000000000000000
  0
SPLINE
  5
F9
100
AcDbEntity
  8
A1
  6
CONTINUOUS
 62
7
100
AcDbSpline
210
0.000000000000000
220
0.000000000000000
230
1.000000000000000
 70
     8
 71
     3
 72
     9
 73
     5
 74
     0
 42
1.000000000000000e-07
 43
1.000000000000000e-07
 12
-0.9998531748760797
 22
-0.01713559719337354
 32
0.000000000000000
 13
-0.6977429144362759
 23
-0.7163482570322230
 33
0.000000000000000
 40
0.000000000000000
 40
0.000000000000000
 40
0.000000000000000
 40
0.000000000000000
 40
0.1124023510790455
 40
0.2045810995353388
 40
0.2045810995353388
 40
0.2045810995353388
 40
0.2045810995353388
 10
149.5255848210413
 20
119.2773793117897
 30
0.000000000000000
 10
149.4881228718446
 20
119.2767372846525
 30
0.000000000000000
 10
149.4187398203741
 20
119.2623505012082
 30
0.000000000000000
 10
149.3628133102712
 20
119.2204426354956
 30
0.000000000000000
 10
149.3413742874056
 20
119.1984319402316
 30
0.000000000000000
  0
SPLINE
  5
FA
100
AcDbEntity
  8
A1
  6
CONTINUOUS
 62
7
100
AcDbSpline
210
0.000000000000000
220
0.000000000000000
230
1.000000000000000
 70
     8
 71
     3
 72
     9
 73
     5
 74
     0
 42
1.000000000000000e-07
 43
1.000000000000000e-07
 12
-0.7007892532992628
 22
0.7133683637903232
 32
0.000000000000000
 13
-0.9999720980522397
 23
0.007470148521861120
 33
0.000000000000000
 40
0.000000000000000
 40
0.000000000000000
 40
0.000000000000000
 40
0.000000000000000
 40
0.07716851900349980
 40
0.1364091606320975
 40
0.1364091606320975
 40
0.1364091606320975
 40
0.1364091606320975
 10
149.6483918434651
 20
119.2247477307510
 30
0.000000000000000
 10
149.6303655538615
 20
119.2430975907969
 30
0.000000000000000
 10
149.5912714415079
 20
119.2698949820605
 30
0.000000000000000
 10
149.5453311506077
 20
119.2772317996592
 30
0.000000000000000
 10
149.5255848210413
 20
119.2773793117897
 30
0.000000000000000
  0
SPLINE
  5
FB
100
AcDbEntity
  8
A1
  6
CONTINUOUS
 62
7
100
AcDbSpline
210
0.000000000000000
220
0.000000000000000
230
1.000000000000000
 70
     8
 71
     3
 72
    11
 73
     7
 74
     0
 42
1.000000000000000e-07
 43
1.000000000000000e-07
 12
0.02542767774366439
 22
0.9996766643289448
 32
0.000000000000000
 13
-0.6805257843188883
 23
0.7327241342281923
 33
0.000000000000000
 40
0.000000000000000
 40
0.000000000000000
 40
0.000000000000000
 40
0.000000000000000
 40
0.1119753870450845
 40
0.2036719015573084
 40
0.2635003531511607
 40
0.3152730211172433
 40
0.3152730211172433
 40
0.3152730211172433
 40
0.3152730211172433
 10
149.7273392150232
 20
118.9265021048646
 30
0.000000000000000
 10
149.7282883063755
 20
118.9638151653340
 30
0.000000000000000
 10
149.7240322687036
 20
119.0318494290312
 30
0.000000000000000
 10
149.7080048986098
 20
119.1185117955100
 30
0.000000000000000
 10
149.6828720632785
 20
119.1821142806393
 30
0.000000000000000
 10
149.6601360552897
 20
119.2121027029803
 30
0.000000000000000
 10
149.6483918434651
 20
119.2247477307510
 30
0.000000000000000
  0
SPLINE
  5
FC
100
AcDbEntity
  8
A1
  6
CONTINUOUS
 62
7
100
AcDbSpline
210
0.000000000000000
220
0.000000000000000
230
1.000000000000000
 70
     8
 71
     3
 72
    10
 73
     6
 74
     0
 42
1.000000000000000e-07
 43
1.000000000000000e-07
 12
0.6803325013834183
 22
0.7329036004539375
 32
0.000000000000000
 13
-0.05084663255820487
 23
0.9987064733732041
 33
0.000000000000000
 40
0.000000000000000
 40
0.000000000000000
 40
0.000000000000000
 40
0.000000000000000
 40
0.07937486588472180
 40
0.1699523348117905
 40
0.3461740736015226
 40
0.3461740736015226
 40
0.3461740736015226
 40
0.3461740736015226
 10
149.6308479831188
 20
118.6019406884590
 30
0.000000000000000
 10
149.6488484168035
 20
118.6213320634565
 30
0.000000000000000
 10
149.6831347766558
 20
118.6676055862767
 30
0.000000000000000
 10
149.7197525419349
 20
118.7780673626707
 30
0.000000000000000
 10
149.7303259756902
 20
118.8678375077718
 30
0.000000000000000
 10
149.7273392150232
 20
118.9265021048646
 30
0.000000000000000
  0
SPLINE
  5
FD
100
AcDbEntity
  8
A1
  6
CONTINUOUS
 62
7
100
AcDbSpline
210
0.000000000000000
220
0.000000000000000
230
1.000000000000000
 70
     8
 71
     3
 72
     9
 73
     5
 74
     0
 42
1.000000000000000e-07
 43
1.000000000000000e-07
 12
0.9993587537437634
 22
-0.03580616310591722
 32
0.000000000000000
 13
0.7302510822419208
 23
0.6831788615627374
 33
0.000000000000000
 40
0.000000000000000
 40
0.000000000000000
 40
0.000000000000000
 40
0.000000000000000
 40
0.1059053873555095
 40
0.1813104524086885
 40
0.1813104524086885
 40
0.1813104524086885
 40
0.1813104524086885
 10
149.4641813098294
 20
118.5405371772471
 30
0.000000000000000
 10
149.4994604684701
 20
118.5392731553893
 30
0.000000000000000
 10
149.5618163509228
 20
118.5495613828761
 30
0.000000000000000
 10
149.6124931063316
 20
118.5847689729593
 30
0.000000000000000
 10
149.6308479831188
 20
118.6019406884590
 30
0.000000000000000
  0
SPLINE
  5
FE
100
AcDbEntity
  8
A1
  6
CONTINUOUS
 62
7
100
AcDbSpline
210
0.000000000000000
220
0.000000000000000
230
1.000000000000000
 70
     8
 71
     3
 72
     9
 73
     5
 74
     0
 42
1.000000000000000e-07
 43
1.000000000000000e-07
 12
0.7191196571202454
 22
-0.6948862631707016
 32
0.000000000000000
 13
0.9999134565614440
 23
0.01315596391668805
 33
0.000000000000000
 40
0.000000000000000
 40
0.000000000000000
 40
0.000000000000000
 40
0.000000000000000
 40
0.07948039031020770
 40
0.1446605647614110
 40
0.1446605647614110
 40
0.1446605647614110
 40
0.1446605647614110
 10
149.3326023572325
 20
118.5931687582858
 30
0.000000000000000
 10
149.3516543275750
 20
118.5747588144798
 30
0.000000000000000
 10
149.3935394520034
 20
118.5472612157255
 30
0.000000000000000
 10
149.4424564653178
 20
118.5402513412394
 30
0.000000000000000
 10
149.4641813098294
 20
118.5405371772471
 30
0.000000000000000
  0
SPLINE
  5
FF
100
AcDbEntity
  8
A1
  6
CONTINUOUS
 62
7
100
AcDbSpline
210
0.000000000000000
220
0.000000000000000
230
1.000000000000000
 70
     8
 71
     3
 72
     9
 73
     5
 74
     0
 42
1.000000000000000e-07
 43
1.000000000000000e-07
 12
0.02654195563764006
 22
-0.9996477002387110
 32
0.000000000000000
 13
0.6382685884818784
 23
-0.7698137495276569
 33
0.000000000000000
 40
0.000000000000000
 40
0.000000000000000
 40
0.000000000000000
 40
0.000000000000000
 40
0.1605309493920336
 40
0.2560754219384008
 40
0.2560754219384008
 40
0.2560754219384008
 40
0.2560754219384008
 10
149.2448830555012
 20
118.8300108729603
 30
0.000000000000000
 10
149.2463033239469
 20
118.7765194081680
 30
0.000000000000000
 10
149.2651337882256
 20
118.6899543104310
 30
0.000000000000000
 10
149.3122746786893
 20
118.6176859078383
 30
0.000000000000000
 10
149.3326023572325
 20
118.5931687582858
 30
0.000000000000000
  0
SPLINE
  5
100
100
AcDbEntity
  8
A1
  6
CONTINUOUS
 62
7
100
AcDbSpline
210
0.000000000000000
220
0.000000000000000
230
1.000000000000000
 70
     8
 71
     3
 72
    10
 73
     6
 74
     0
 42
1.000000000000000e-07
 43
1.000000000000000e-07
 12
-0.6938499044672426
 22
0.7201196498285753
 32
0.000000000000000
 13
-0.08085402616552528
 23
0.9967259535364974
 33
0.000000000000000
 40
0.000000000000000
 40
0.000000000000000
 40
0.000000000000000
 40
0.000000000000000
 40
0.09244834158269180
 40
0.1929057025786472
 40
0.3759855638951231
 40
0.3759855638951231
 40
0.3759855638951231
 40
0.3759855638951231
 10
149.1834795442894
 20
118.4879055962083
 30
0.000000000000000
 10
149.1620977866309
 20
118.5100968853309
 30
0.000000000000000
 10
149.1216702230619
 20
118.5609834483911
 30
0.000000000000000
 10
149.0696007984783
 20
118.6757336749244
 30
0.000000000000000
 10
149.0480629094850
 20
118.7691840565123
 30
0.000000000000000
 10
149.0431286615193
 20
118.8300108729603
 30
0.000000000000000
  0
LINE
  5
101
100
AcDbEntity
  8
A1
  6
CONTINUOUS
 62
7
100
AcDbLine
 10
149.3150584968863
 20
119.7247477506191
 30
0.000000000000000
 11
149.3150584968863
 21
119.6984319600998
 31
0.000000000000000
  0
LINE
  5
102
100
AcDbEntity
  8
A1
  6
CONTINUOUS
 62
7
100
AcDbLine
 10
149.9027778184857
 20
119.7247477506191
 30
0.000000000000000
 11
149.3150584968863
 21
119.7247477506191
 31
0.000000000000000
  0
LINE
  5
103
100
AcDbEntity
  8
A1
  6
CONTINUOUS
 62
7
100
AcDbLine
 10
149.9027778184857
 20
119.8914144239086
 30
0.000000000000000
 11
149.9027778184857
 21
119.7247477506191
 31
0.000000000000000
  0
LINE
  5
104
100
AcDbEntity
  8
A1
  6
CONTINUOUS
 62
7
100
AcDbLine
 10
149.1483918235968
 20
119.8914144239086
 30
0.000000000000000
 11
149.9027778184857
 21
119.8914144239086
 31
0.000000000000000
  0
LINE
  5
105
100
AcDbEntity
  8
A1
  6
CONTINUOUS
 62
7
100
AcDbLine
 10
149.1483918235968
 20
119.8563267032161
 30
0.000000000000000
 11
149.1483918235968
 21
119.8914144239086
 31
0.000000000000000
  0
LINE
  5
106
100
AcDbEntity
  8
A1
  6
CONTINUOUS
 62
7
100
AcDbLine
 10
149.1045321727312
 20
119.1808880798854
 30
0.000000000000000
 11
149.1483918235968
 21
119.8563267032162
 31
0.000000000000000
  0
LINE
  5
107
100
AcDbEntity
  8
A1
  6
CONTINUOUS
 62
7
100
AcDbLine
 10
149.2711988460206
 20
119.1194845686734
 30
0.000000000000000
 11
149.0957602425581
 21
119.1194845686734
 31
0.000000000000000
  0
LINE
  5
108
100
AcDbEntity
  8
A1
  6
CONTINUOUS
 62
7
100
AcDbLine
 10
149.0431286615193
 20
118.8300108729603
 30
0.000000000000000
 11
149.2448830555012
 21
118.8300108729603
 31
0.000000000000000
  0
ENDSEC
  0
SECTION
  2
OBJECTS
  0
DICTIONARY
  5
136
100
AcDbDictionary
  3
ACAD_GROUP
350
137
  3
ACAD_LAYOUT
350
138
  3
ACAD_MLINESTYLE
350
139
  0
DICTIONARY
  5
137
102
{ACAD_REACTORS
330
136
102
}
330
136
100
AcDbDictionary
  0
DICTIONARY
  5
138
102
{ACAD_REACTORS
330
136
102
}
330
136
100
AcDbDictionary
  3
Model
350
13A
  3
ﾚｲｱｳﾄ1
350
13B
  3
ﾚｲｱｳﾄ2
350
13C
  0
DICTIONARY
  5
139
102
{ACAD_REACTORS
330
136
102
}
330
136
100
AcDbDictionary
  3
STANDARD
350
13D
  0
LAYOUT
  5
13A
102
{ACAD_REACTORS
330
138
102
}
330
138
100
AcDbPlotSettings
 70
11952
  4
A3
 44
297.000000
 45
420.000000
 73
  1
 72
  1
100
AcDbLayout
  1
Model
 71
0
330
12D
  0
LAYOUT
  5
13B
102
{ACAD_REACTORS
330
138
102
}
330
138
100
AcDbPlotSettings
100
AcDbLayout
  1
ﾚｲｱｳﾄ1
 71
1
330
12E
  0
LAYOUT
  5
13C
102
{ACAD_REACTORS
330
138
102
}
330
138
100
AcDbPlotSettings
100
AcDbLayout
  1
ﾚｲｱｳﾄ2
 71
2
330
12F
  0
MLINESTYLE
  5
13D
102
{ACAD_REACTORS
330
139
102
}
330
139
100
AcDbMlineStyle
  2
STANDARD
 70
     0
  3

 62
   256
 51
90.00
 52
90.00
 71
     2
 49
0.50
 62
   256
  6
BYLAYER
 49
-0.50
 62
   256
  6
BYLAYER
  0
ENDSEC
  0
EOF
