  0
SECTION
  2
HEADER
  9
$ACADVER
  1
AC1024
  9
$DWGCODEPAGE
  3
ANSI_932
  9
$LTSCALE
 40
20.0
  9
$FILLMODE
 70
     1
  9
$CLAYER
  8
0
  9
$PDMODE
 70
     0
  9
$SPLFRAME
 70
     0
  9
$SPLINETYPE
 70
     6
  9
$SPLINESEGS
 70
     8
  9
$DIMASZ
 40
2.000000
  9
$DIMEXE
 40
1.500000
  9
$DIMEXO
 40
0.800000
  9
$DIMTAD
 70
     1
  9
$DIMTIH
 70
     0
  9
$DIMTOH
 70
     0
  9
$DIMTVP
 40
0.500000
  9
$DIMTXT
 40
3.100000
  9
$EXTMIN
 10
0.000000
 20
0.000000
 30
0.000000
  9
$EXTMAX
 10
297.000000
 20
420.000000
 30
0.000000
  9
$MEASUREMENT
 70
  1
  9
$LIMMIN
 10
0.000000
 20
0.000000
  9
$LIMMAX
 10
297.000000
 20
420.000000
  9
$HANDSEED
  5
165
  9
$LWDISPLAY
290
     0
  9
$DIMBLK
  1
_OPEN
  9
$DIMDEC
 70
     2
  9
$DIMADEC
 70
     2
  9
$DIMAUNIT
 70
     0
  9
$DIMZIN
 70
     8
  9
$DIMAZIN
 70
     2
  9
$DIMTOFL
 70
     1
  0
ENDSEC
  0
SECTION
  2
CLASSES
  0
ENDSEC
  0
SECTION
  2
TABLES
  0
TABLE
  2
VPORT
  5
130
100
AcDbSymbolTable
 70
     1
  0
VPORT
  5
131
100
AcDbSymbolTableRecord
100
AcDbViewportTableRecord
  2
*ACTIVE
 70
     0
 12
118.308111
 22
116.535519
 40
197.071036
 41
1.099178
  0
ENDTAB
  0
TABLE
  2
LTYPE
  5
132
100
AcDbSymbolTable
 70
     2
  0
LTYPE
  5
133
100
AcDbSymbolTableRecord
100
AcDbLinetypeTableRecord
  2
BYBLOCK
 70
     0
  3

 72
    65
 73
     0
 40
0.0
  0
LTYPE
  5
134
100
AcDbSymbolTableRecord
100
AcDbLinetypeTableRecord
  2
BYLAYER
 70
     0
  3

 72
    65
 73
     0
 40
0.0
  0
LTYPE
  5
135
100
AcDbSymbolTableRecord
100
AcDbLinetypeTableRecord
  2
CONTINUOUS
 70
     0
  3
Solid line (NEC CAE2D for Win R18.0 : 2024.03.25)
 72
    65
 73
     0
 40
0.0
  0
LTYPE
  5
136
100
AcDbSymbolTableRecord
100
AcDbLinetypeTableRecord
  2
CENTER
 70
     0
  3
____ _ ____ _ ____ _ ____ _ ____ _ ____
 72
    65
 73
     4
 40
2.0
 49
1.25
 74
     0
 49
-0.25
 74
     0
 49
0.25
 74
     0
 49
-0.25
 74
     0
  0
ENDTAB
  0
TABLE
  2
LAYER
  5
137
100
AcDbSymbolTable
 70
    15
  0
LAYER
  5
138
100
AcDbSymbolTableRecord
100
AcDbLayerTableRecord
  2
0
 70
     0
 62
     7
  6
CONTINUOUS
370
    -3
390

  0
LAYER
  5
139
100
AcDbSymbolTableRecord
100
AcDbLayerTableRecord
  2
A0
 70
     0
 62
     9
  6
CONTINUOUS
370
    -3
390

  0
LAYER
  5
13A
100
AcDbSymbolTableRecord
100
AcDbLayerTableRecord
  2
A1
 70
     0
 62
    12
  6
CONTINUOUS
370
    -3
390

  0
LAYER
  5
13B
100
AcDbSymbolTableRecord
100
AcDbLayerTableRecord
  2
A2
 70
     0
 62
     9
  6
CONTINUOUS
370
    -3
390

  0
LAYER
  5
13C
100
AcDbSymbolTableRecord
100
AcDbLayerTableRecord
  2
A4
 70
     0
 62
    12
  6
CONTINUOUS
370
    -3
390

  0
LAYER
  5
13D
100
AcDbSymbolTableRecord
100
AcDbLayerTableRecord
  2
A5
 70
     0
 62
     8
  6
CONTINUOUS
370
    -3
390

  0
LAYER
  5
13E
100
AcDbSymbolTableRecord
100
AcDbLayerTableRecord
  2
A6
 70
     0
 62
    12
  6
CONTINUOUS
370
    -3
390

  0
LAYER
  5
13F
100
AcDbSymbolTableRecord
100
AcDbLayerTableRecord
  2
A8
 70
     0
 62
    10
  6
CONTINUOUS
370
    -3
390

  0
LAYER
  5
140
100
AcDbSymbolTableRecord
100
AcDbLayerTableRecord
  2
A9
 70
     0
 62
     9
  6
CONTINUOUS
370
    -3
390

  0
LAYER
  5
141
100
AcDbSymbolTableRecord
100
AcDbLayerTableRecord
  2
A10
 70
     0
 62
     6
  6
CONTINUOUS
370
    -3
390

  0
LAYER
  5
142
100
AcDbSymbolTableRecord
100
AcDbLayerTableRecord
  2
A20
 70
     0
 62
     1
  6
CONTINUOUS
370
    -3
390

  0
LAYER
  5
143
100
AcDbSymbolTableRecord
100
AcDbLayerTableRecord
  2
A30
 70
     0
 62
     1
  6
CONTINUOUS
370
    -3
390

  0
LAYER
  5
144
100
AcDbSymbolTableRecord
100
AcDbLayerTableRecord
  2
A40
 70
     0
 62
     9
  6
CONTINUOUS
370
    -3
390

  0
LAYER
  5
145
100
AcDbSymbolTableRecord
100
AcDbLayerTableRecord
  2
A50
 70
     0
 62
    12
  6
CONTINUOUS
370
    -3
390

  0
LAYER
  5
146
100
AcDbSymbolTableRecord
100
AcDbLayerTableRecord
  2
A1023
 70
     0
 62
    16
  6
CONTINUOUS
370
    -3
390

  0
ENDTAB
  0
TABLE
  2
STYLE
  5
147
100
AcDbSymbolTable
 70
     4
  0
STYLE
  5
148
100
AcDbSymbolTableRecord
100
AcDbTextStyleTableRecord
  2
STANDARD
 70
    64
 40
0.0
 41
1.0
 50
0.0
 71
     0
 42
3.000000000000000
  3
TXT
  4

  0
STYLE
  5
149
100
AcDbSymbolTableRecord
100
AcDbTextStyleTableRecord
  2
ANKTATE
 70
    68
 40
0.0
 41
1.0
 50
0.0
 71
     0
 42
3.000000000000000
  3
TXT
  4

  0
STYLE
  5
14A
100
AcDbSymbolTableRecord
100
AcDbTextStyleTableRecord
  2
KNJYOKO
 70
    64
 40
0.0
 41
1.0
 50
0.0
 71
     0
 42
3.000000000000000
  3
TXT
  4
BIGFONT
  0
STYLE
  5
14B
100
AcDbSymbolTableRecord
100
AcDbTextStyleTableRecord
  2
KNJTATE
 70
    68
 40
0.0
 41
1.0
 50
0.0
 71
     0
 42
3.000000000000000
  3
TXT
  4
BIGFONT
  0
ENDTAB
  0
TABLE
  2
VIEW
  5
14C
100
AcDbSymbolTable
 70
     0
  0
ENDTAB
  0
TABLE
  2
UCS
  5
14D
100
AcDbSymbolTable
 70
     0
  0
ENDTAB
  0
TABLE
  2
APPID
  5
14E
100
AcDbSymbolTable
 70
     1
  0
APPID
  5
14F
100
AcDbSymbolTableRecord
100
AcDbRegAppTableRecord
  2
ACAD
 70
     0
  0
ENDTAB
  0
TABLE
  2
DIMSTYLE
  5
150
100
AcDbSymbolTable
 70
     2
100
AcDbDimStyleTable
  0
DIMSTYLE
105
151
100
AcDbSymbolTableRecord
100
AcDbDimStyleTableRecord
  2
STANDARD
 70
     0
 41
2.000000
 44
1.500000
 42
0.800000
145
0.661290
140
3.100000
144
1.000000
146
0.645161
340
148
  0
DIMSTYLE
105
152
100
AcDbSymbolTableRecord
100
AcDbDimStyleTableRecord
  2
A001
 70
     0
 41
2.000000
 44
1.500000
 42
0.800000
145
0.661290
140
3.100000
144
1.000000
146
0.645161
 77
     1
 73
     0
 74
     0
271
     2
179
     2
275
     0
 78
     8
 79
     2
172
     1
340
148
  0
ENDTAB
  0
TABLE
  2
BLOCK_RECORD
  5
153
100
AcDbSymbolTable
 70
    12
  0
BLOCK_RECORD
  5
154
100
AcDbSymbolTableRecord
100
AcDbBlockTableRecord
  2
*MODEL_SPACE
  0
BLOCK_RECORD
  5
155
100
AcDbSymbolTableRecord
100
AcDbBlockTableRecord
  2
*PAPER_SPACE
  0
BLOCK_RECORD
  5
156
100
AcDbSymbolTableRecord
100
AcDbBlockTableRecord
  2
*PAPER_SPACE0
  0
BLOCK_RECORD
  5
1
100
AcDbSymbolTableRecord
100
AcDbBlockTableRecord
  2
_NONE
  0
BLOCK_RECORD
  5
4
100
AcDbSymbolTableRecord
100
AcDbBlockTableRecord
  2
_CLOSED
  0
BLOCK_RECORD
  5
B
100
AcDbSymbolTableRecord
100
AcDbBlockTableRecord
  2
_DOT
  0
BLOCK_RECORD
  5
13
100
AcDbSymbolTableRecord
100
AcDbBlockTableRecord
  2
_OPEN
  0
BLOCK_RECORD
  5
19
100
AcDbSymbolTableRecord
100
AcDbBlockTableRecord
  2
_ORIGIN
  0
BLOCK_RECORD
  5
1E
100
AcDbSymbolTableRecord
100
AcDbBlockTableRecord
  2
_OPEN30
  0
BLOCK_RECORD
  5
24
100
AcDbSymbolTableRecord
100
AcDbBlockTableRecord
  2
_BOXFILLED
  0
BLOCK_RECORD
  5
29
100
AcDbSymbolTableRecord
100
AcDbBlockTableRecord
  2
_BOXBLANK
  0
BLOCK_RECORD
  5
31
100
AcDbSymbolTableRecord
100
AcDbBlockTableRecord
  2
_OBLIQUE
  0
BLOCK_RECORD
  5
35
100
AcDbSymbolTableRecord
100
AcDbBlockTableRecord
  2
_OPEN90
  0
BLOCK_RECORD
  5
3B
100
AcDbSymbolTableRecord
100
AcDbBlockTableRecord
  2
_CLOSEDBLANK
  0
BLOCK_RECORD
  5
41
100
AcDbSymbolTableRecord
100
AcDbBlockTableRecord
  2
_DOTBLANK
  0
ENDTAB
  0
ENDSEC
  0
SECTION
  2
BLOCKS
  0
BLOCK
  5
157
100
AcDbEntity
  8
0
100
AcDbBlockBegin
  2
*MODEL_SPACE
 70
     0
 10
0.0
 20
0.0
 30
0.0
  3
*MODEL_SPACE
  1

  0
ENDBLK
  5
158
100
AcDbEntity
  8
0
100
AcDbBlockEnd
  0
BLOCK
  5
159
100
AcDbEntity
  8
0
100
AcDbBlockBegin
  2
*PAPER_SPACE
 70
     0
 10
0.0
 20
0.0
 30
0.0
  3
*PAPER_SPACE
  1

  0
ENDBLK
  5
15A
100
AcDbEntity
  8
0
100
AcDbBlockEnd
  0
BLOCK
  5
15B
100
AcDbEntity
  8
0
100
AcDbBlockBegin
  2
*PAPER_SPACE0
 70
     0
 10
0.0
 20
0.0
 30
0.0
  3
*PAPER_SPACE0
  1

  0
ENDBLK
  5
15C
100
AcDbEntity
  8
0
100
AcDbBlockEnd
  0
BLOCK
  5
2
330
1
100
AcDbEntity
  8
0
100
AcDbBlockBegin
  2
_NONE
 70
     0
 10
0.0
 20
0.0
 30
0.0
  3
_NONE
  1

  0
ENDBLK
  5
3
330
1
100
AcDbEntity
  8
0
100
AcDbBlockEnd
  0
BLOCK
  5
5
330
4
100
AcDbEntity
  8
0
100
AcDbBlockBegin
  2
_CLOSED
 70
     0
 10
0.0
 20
0.0
 30
0.0
  3
_CLOSED
  1

  0
LINE
  5
6
330
4
100
AcDbEntity
  8
0
  6
BYBLOCK
 62
     0
370
    -2
100
AcDbLine
 10
-1.0
 20
0.166667
 30
0.0
 11
0.0
 21
0.0
 31
0.0
  0
LINE
  5
7
330
4
100
AcDbEntity
  8
0
  6
BYBLOCK
 62
     0
370
    -2
100
AcDbLine
 10
0.0
 20
0.0
 30
0.0
 11
-1.0
 21
-0.166667
 31
0.0
  0
LINE
  5
8
330
4
100
AcDbEntity
  8
0
  6
BYBLOCK
 62
     0
370
    -2
100
AcDbLine
 10
-1.0
 20
0.166667
 30
0.0
 11
-1.0
 21
-0.166667
 31
0.0
  0
LINE
  5
9
330
4
100
AcDbEntity
  8
0
  6
BYBLOCK
 62
     0
370
    -2
100
AcDbLine
 10
0.0
 20
0.0
 30
0.0
 11
-1.0
 21
0.0
 31
0.0
  0
ENDBLK
  5
A
330
4
100
AcDbEntity
  8
0
100
AcDbBlockEnd
  0
BLOCK
  5
C
330
B
100
AcDbEntity
  8
0
100
AcDbBlockBegin
  2
_DOT
 70
     0
 10
0.0
 20
0.0
 30
0.0
  3
_DOT
  1

  0
POLYLINE
  5
D
330
B
100
AcDbEntity
  8
0
  6
BYBLOCK
 62
     0
370
    -2
100
AcDb2dPolyline
 66
     1
 10
0.0
 20
0.0
 30
0.0
 70
     1
 40
0.5
 41
0.5
  0
VERTEX
  5
E
330
B
100
AcDbEntity
  8
0
  6
BYBLOCK
 62
     0
370
    -2
100
AcDbVertex
100
AcDb2dVertex
 10
-0.25
 20
0.0
 30
0.0
 42
1.0
  0
VERTEX
  5
F
330
B
100
AcDbEntity
  8
0
  6
BYBLOCK
 62
     0
370
    -2
100
AcDbVertex
100
AcDb2dVertex
 10
0.25
 20
0.0
 30
0.0
 42
1.0
  0
SEQEND
  5
10
330
B
100
AcDbEntity
  8
0
  6
BYBLOCK
 62
     0
370
    -2
  0
LINE
  5
11
330
B
100
AcDbEntity
  8
0
  6
BYBLOCK
 62
     0
370
    -2
100
AcDbLine
 10
-0.5
 20
0.0
 30
0.0
 11
-1.0
 21
0.0
 31
0.0
  0
ENDBLK
  5
12
330
B
100
AcDbEntity
  8
0
100
AcDbBlockEnd
  0
BLOCK
  5
14
330
13
100
AcDbEntity
  8
0
100
AcDbBlockBegin
  2
_OPEN
 70
     0
 10
0.0
 20
0.0
 30
0.0
  3
_OPEN
  1

  0
LINE
  5
15
330
13
100
AcDbEntity
  8
0
  6
BYBLOCK
 62
     0
370
    -2
100
AcDbLine
 10
-1.0
 20
0.166667
 30
0.0
 11
0.0
 21
0.0
 31
0.0
  0
LINE
  5
16
330
13
100
AcDbEntity
  8
0
  6
BYBLOCK
 62
     0
370
    -2
100
AcDbLine
 10
0.0
 20
0.0
 30
0.0
 11
-1.0
 21
-0.166667
 31
0.0
  0
LINE
  5
17
330
13
100
AcDbEntity
  8
0
  6
BYBLOCK
 62
     0
370
    -2
100
AcDbLine
 10
0.0
 20
0.0
 30
0.0
 11
-1.0
 21
0.0
 31
0.0
  0
ENDBLK
  5
18
330
13
100
AcDbEntity
  8
0
100
AcDbBlockEnd
  0
BLOCK
  5
1A
330
19
100
AcDbEntity
  8
0
100
AcDbBlockBegin
  2
_ORIGIN
 70
     0
 10
0.0
 20
0.0
 30
0.0
  3
_ORIGIN
  1

  0
CIRCLE
  5
1B
330
19
100
AcDbEntity
  8
0
  6
BYBLOCK
 62
     0
370
    -2
100
AcDbCircle
 10
0.0
 20
0.0
 30
0.0
 40
0.5
  0
LINE
  5
1C
330
19
100
AcDbEntity
  8
0
  6
BYBLOCK
 62
     0
370
    -2
100
AcDbLine
 10
0.0
 20
0.0
 30
0.0
 11
-1.0
 21
0.0
 31
0.0
  0
ENDBLK
  5
1D
330
19
100
AcDbEntity
  8
0
100
AcDbBlockEnd
  0
BLOCK
  5
1F
330
1E
100
AcDbEntity
  8
0
100
AcDbBlockBegin
  2
_OPEN30
 70
     0
 10
0.0
 20
0.0
 30
0.0
  3
_OPEN30
  1

  0
LINE
  5
20
330
1E
100
AcDbEntity
  8
0
  6
BYBLOCK
 62
     0
370
    -2
100
AcDbLine
 10
-1.0
 20
0.267949
 30
0.0
 11
0.0
 21
0.0
 31
0.0
  0
LINE
  5
21
330
1E
100
AcDbEntity
  8
0
  6
BYBLOCK
 62
     0
370
    -2
100
AcDbLine
 10
0.0
 20
0.0
 30
0.0
 11
-1.0
 21
-0.267949
 31
0.0
  0
LINE
  5
22
330
1E
100
AcDbEntity
  8
0
  6
BYBLOCK
 62
     0
370
    -2
100
AcDbLine
 10
0.0
 20
0.0
 30
0.0
 11
-1.0
 21
0.0
 31
0.0
  0
ENDBLK
  5
23
330
1E
100
AcDbEntity
  8
0
100
AcDbBlockEnd
  0
BLOCK
  5
25
330
24
100
AcDbEntity
  8
0
100
AcDbBlockBegin
  2
_BOXFILLED
 70
     0
 10
0.0
 20
0.0
 30
0.0
  3
_BOXFILLED
  1

  0
SOLID
  5
26
330
24
100
AcDbEntity
  8
0
  6
BYBLOCK
 62
     0
370
    -2
100
AcDbTrace
 10
-0.5
 20
0.5
 30
0.0
 11
0.5
 21
0.5
 31
0.0
 12
-0.5
 22
-0.5
 32
0.0
 13
0.5
 23
-0.5
 33
0.0
  0
LINE
  5
27
330
24
100
AcDbEntity
  8
0
  6
BYBLOCK
 62
     0
370
    -2
100
AcDbLine
 10
-0.5
 20
0.0
 30
0.0
 11
-1.0
 21
0.0
 31
0.0
  0
ENDBLK
  5
28
330
24
100
AcDbEntity
  8
0
100
AcDbBlockEnd
  0
BLOCK
  5
2A
330
29
100
AcDbEntity
  8
0
100
AcDbBlockBegin
  2
_BOXBLANK
 70
     0
 10
0.0
 20
0.0
 30
0.0
  3
_BOXBLANK
  1

  0
LINE
  5
2B
330
29
100
AcDbEntity
  8
0
  6
BYBLOCK
 62
     0
370
    -2
100
AcDbLine
 10
-0.5
 20
-0.5
 30
0.0
 11
0.5
 21
-0.5
 31
0.0
  0
LINE
  5
2C
330
29
100
AcDbEntity
  8
0
  6
BYBLOCK
 62
     0
370
    -2
100
AcDbLine
 10
0.5
 20
-0.5
 30
0.0
 11
0.5
 21
0.5
 31
0.0
  0
LINE
  5
2D
330
29
100
AcDbEntity
  8
0
  6
BYBLOCK
 62
     0
370
    -2
100
AcDbLine
 10
0.5
 20
0.5
 30
0.0
 11
-0.5
 21
0.5
 31
0.0
  0
LINE
  5
2E
330
29
100
AcDbEntity
  8
0
  6
BYBLOCK
 62
     0
370
    -2
100
AcDbLine
 10
-0.5
 20
0.5
 30
0.0
 11
-0.5
 21
-0.5
 31
0.0
  0
LINE
  5
2F
330
29
100
AcDbEntity
  8
0
  6
BYBLOCK
 62
     0
370
    -2
100
AcDbLine
 10
-0.5
 20
0.0
 30
0.0
 11
-1.0
 21
0.0
 31
0.0
  0
ENDBLK
  5
30
330
29
100
AcDbEntity
  8
0
100
AcDbBlockEnd
  0
BLOCK
  5
32
330
31
100
AcDbEntity
  8
0
100
AcDbBlockBegin
  2
_OBLIQUE
 70
     0
 10
0.0
 20
0.0
 30
0.0
  3
_OBLIQUE
  1

  0
LINE
  5
33
330
31
100
AcDbEntity
  8
0
  6
BYBLOCK
 62
     0
370
    -2
100
AcDbLine
 10
-0.5
 20
-0.5
 30
0.0
 11
0.5
 21
0.5
 31
0.0
  0
ENDBLK
  5
34
330
31
100
AcDbEntity
  8
0
100
AcDbBlockEnd
  0
BLOCK
  5
36
330
35
100
AcDbEntity
  8
0
100
AcDbBlockBegin
  2
_OPEN90
 70
     0
 10
0.0
 20
0.0
 30
0.0
  3
_OPEN90
  1

  0
LINE
  5
37
330
35
100
AcDbEntity
  8
0
  6
BYBLOCK
 62
     0
370
    -2
100
AcDbLine
 10
-0.5
 20
0.5
 30
0.0
 11
0.0
 21
0.0
 31
0.0
  0
LINE
  5
38
330
35
100
AcDbEntity
  8
0
  6
BYBLOCK
 62
     0
370
    -2
100
AcDbLine
 10
0.0
 20
0.0
 30
0.0
 11
-0.5
 21
-0.5
 31
0.0
  0
LINE
  5
39
330
35
100
AcDbEntity
  8
0
  6
BYBLOCK
 62
     0
370
    -2
100
AcDbLine
 10
0.0
 20
0.0
 30
0.0
 11
-1.0
 21
0.0
 31
0.0
  0
ENDBLK
  5
3A
330
35
100
AcDbEntity
  8
0
100
AcDbBlockEnd
  0
BLOCK
  5
3C
330
3B
100
AcDbEntity
  8
0
100
AcDbBlockBegin
  2
_CLOSEDBLANK
 70
     0
 10
0.0
 20
0.0
 30
0.0
  3
_CLOSEDBLANK
  1

  0
LINE
  5
3D
330
3B
100
AcDbEntity
  8
0
  6
BYBLOCK
 62
     0
370
    -2
100
AcDbLine
 10
-1.0
 20
0.1666666666666666
 30
0.0
 11
0.0
 21
0.0
 31
0.0
  0
LINE
  5
3E
330
3B
100
AcDbEntity
  8
0
  6
BYBLOCK
 62
     0
370
    -2
100
AcDbLine
 10
0.0
 20
0.0
 30
0.0
 11
-1.0
 21
-0.1666666666666666
 31
0.0
  0
LINE
  5
3F
330
3B
100
AcDbEntity
  8
0
  6
BYBLOCK
 62
     0
370
    -2
100
AcDbLine
 10
-1.0
 20
0.1666666666666666
 30
0.0
 11
-1.0
 21
-0.1666666666666666
 31
0.0
  0
ENDBLK
  5
40
330
3B
100
AcDbEntity
  8
0
100
AcDbBlockEnd
  0
BLOCK
  5
42
330
41
100
AcDbEntity
  8
0
100
AcDbBlockBegin
  2
_DOTBLANK
 70
     0
 10
0.0
 20
0.0
 30
0.0
  3
_DOTBLANK
  1

  0
CIRCLE
  5
43
330
41
100
AcDbEntity
  8
0
  6
BYBLOCK
 62
     0
370
    -2
100
AcDbCircle
 10
0.0
 20
0.0
 30
0.0
 40
0.5
  0
LINE
  5
44
330
41
100
AcDbEntity
  8
0
  6
BYBLOCK
 62
     0
370
    -2
100
AcDbLine
 10
-0.5
 20
0.0
 30
0.0
 11
-1.0
 21
0.0
 31
0.0
  0
ENDBLK
  5
45
330
41
100
AcDbEntity
  8
0
100
AcDbBlockEnd
  0
ENDSEC
  0
SECTION
  2
ENTITIES
  0
MTEXT
  5
46
100
AcDbEntity
  8
A8
  6
CONTINUOUS
 62
3
100
AcDbMText
 10
9.999997526638502
 20
18.00000076076889
 30
0.000000000000000
 40
3.000000000000000
 41
0.000000000000000
 44
0.6739999771118164
 71
     7
 72
     1
  1
{\H0.94x;{TYPE No.TH-122-5A}}
 11
1.000000000000000
 21
0.000000000000000
 31
0.000000000000000
  7
STANDARD
  0
POINT
  5
47
100
AcDbEntity
  8
A0
  6
CONTINUOUS
 62
3
100
AcDbPoint
 10
9.999997526638502
 20
18.00000076076889
 30
0.000000000000000
  0
POINT
  5
48
100
AcDbEntity
  8
A10
  6
CONTINUOUS
 62
3
100
AcDbPoint
 10
50.00000000000000
 20
50.00000000000000
 30
0.000000000000000
  0
LINE
  5
49
100
AcDbEntity
  8
A1
  6
CONTINUOUS
 62
7
100
AcDbLine
 10
141.1230222234160
 20
154.6484291115401
 30
0.000000000000000
 11
159.1230222234160
 21
154.6484291115401
 31
0.000000000000000
  0
LINE
  5
4A
100
AcDbEntity
  8
A1
  6
CONTINUOUS
 62
7
100
AcDbLine
 10
159.1230222234160
 20
141.6484291115402
 30
0.000000000000000
 11
159.1230222234160
 21
154.6484291115401
 31
0.000000000000000
  0
LINE
  5
4B
100
AcDbEntity
  8
A1
  6
CONTINUOUS
 62
7
100
AcDbLine
 10
141.1230222234160
 20
141.6484291115402
 30
0.000000000000000
 11
141.1230222234160
 21
154.6484291115401
 31
0.000000000000000
  0
LINE
  5
4C
100
AcDbEntity
  8
A4
  6
CENTER
 62
1
100
AcDbLine
 10
221.6162239855949
 20
159.6484291115402
 30
0.000000000000000
 11
221.6162239855949
 21
138.6484291115402
 31
0.000000000000000
  0
LINE
  5
4D
100
AcDbEntity
  8
A1
  6
CONTINUOUS
 62
7
100
AcDbLine
 10
143.1230222234160
 20
139.6484291115402
 30
0.000000000000000
 11
157.1230222234160
 21
139.6484291115402
 31
0.000000000000000
  0
LINE
  5
4E
100
AcDbEntity
  8
A1
  6
CONTINUOUS
 62
7
100
AcDbLine
 10
220.1162239855949
 20
139.6484291115402
 30
0.000000000000000
 11
223.1162239855949
 21
139.6484291115402
 31
0.000000000000000
  0
LINE
  5
4F
100
AcDbEntity
  8
A4
  6
CENTER
 62
1
100
AcDbLine
 10
224.6162239855949
 20
143.1484291115401
 30
0.000000000000000
 11
218.6162239855950
 21
143.1484291115401
 31
0.000000000000000
  0
LINE
  5
50
100
AcDbEntity
  8
A1
  6
CONTINUOUS
 62
7
100
AcDbLine
 10
142.1230222234160
 20
146.9403291115402
 30
0.000000000000000
 11
149.6230222234160
 21
146.9403291115402
 31
0.000000000000000
  0
LINE
  5
51
100
AcDbEntity
  8
A1
  6
CONTINUOUS
 62
7
100
AcDbLine
 10
150.6230222234160
 20
146.9403291115402
 30
0.000000000000000
 11
158.1230222234160
 21
146.9403291115402
 31
0.000000000000000
  0
LINE
  5
52
100
AcDbEntity
  8
A1
  6
CONTINUOUS
 62
7
100
AcDbLine
 10
54.49412111010888
 20
139.6484291115402
 30
0.000000000000000
 11
51.49412111010888
 21
139.6484291115402
 31
0.000000000000000
  0
LINE
  5
53
100
AcDbEntity
  8
A4
  6
CENTER
 62
1
100
AcDbLine
 10
49.99412111010888
 20
143.1484291115401
 30
0.000000000000000
 11
55.99412111010888
 21
143.1484291115401
 31
0.000000000000000
  0
LINE
  5
54
100
AcDbEntity
  8
A1
  6
CONTINUOUS
 62
7
100
AcDbLine
 10
223.1162239855949
 20
146.9403291115402
 30
0.000000000000000
 11
223.1162239855949
 21
139.6484291115402
 31
0.000000000000000
  0
LINE
  5
55
100
AcDbEntity
  8
A1
  6
CONTINUOUS
 62
7
100
AcDbLine
 10
220.1162239855949
 20
146.9403291115402
 30
0.000000000000000
 11
220.1162239855949
 21
139.6484291115402
 31
0.000000000000000
  0
LINE
  5
56
100
AcDbEntity
  8
A1
  6
CONTINUOUS
 62
7
100
AcDbLine
 10
51.49412111010888
 20
146.9403291115402
 30
0.000000000000000
 11
51.49412111010888
 21
139.6484291115402
 31
0.000000000000000
  0
LINE
  5
57
100
AcDbEntity
  8
A1
  6
CONTINUOUS
 62
7
100
AcDbLine
 10
54.49412111010888
 20
146.9403291115402
 30
0.000000000000000
 11
54.49412111010888
 21
139.6484291115402
 31
0.000000000000000
  0
LINE
  5
58
100
AcDbEntity
  8
A1
  6
CONTINUOUS
 62
7
100
AcDbLine
 10
159.1230222234160
 20
215.0710367141777
 30
0.000000000000000
 11
159.1230222234160
 21
207.0710367141777
 31
0.000000000000000
  0
LINE
  5
59
100
AcDbEntity
  8
A1
  6
CONTINUOUS
 62
7
100
AcDbLine
 10
141.1230222234160
 20
215.0710367141777
 30
0.000000000000000
 11
141.1230222234160
 21
207.0710367141777
 31
0.000000000000000
  0
LINE
  5
5A
100
AcDbEntity
  8
A4
  6
CENTER
 62
1
100
AcDbLine
 10
162.4339352234158
 20
211.0710367141777
 30
0.000000000000000
 11
110.1230222234160
 21
211.0710367141777
 31
0.000000000000000
  0
LINE
  5
5B
100
AcDbEntity
  8
A1
  6
CONTINUOUS
 62
7
100
AcDbLine
 10
159.1230222234160
 20
207.0710367141777
 30
0.000000000000000
 11
141.1230222234160
 21
207.0710367141777
 31
0.000000000000000
  0
LINE
  5
5C
100
AcDbEntity
  8
A4
  6
CENTER
 62
1
100
AcDbLine
 10
57.99412111010888
 20
150.6484291115402
 30
0.000000000000000
 11
47.99412111010888
 21
150.6484291115402
 31
0.000000000000000
  0
LINE
  5
5D
100
AcDbEntity
  8
A4
  6
CENTER
 62
1
100
AcDbLine
 10
145.1230222234160
 20
145.6484291115402
 30
0.000000000000000
 11
145.1230222234160
 21
140.6484291115402
 31
0.000000000000000
  0
LINE
  5
5E
100
AcDbEntity
  8
A4
  6
CENTER
 62
1
100
AcDbLine
 10
147.6230222234160
 20
143.1484291115401
 30
0.000000000000000
 11
142.6230222234160
 21
143.1484291115401
 31
0.000000000000000
  0
LINE
  5
5F
100
AcDbEntity
  8
A4
  6
CENTER
 62
1
100
AcDbLine
 10
157.6230222234160
 20
143.1484291115401
 30
0.000000000000000
 11
152.6230222234160
 21
143.1484291115401
 31
0.000000000000000
  0
LINE
  5
60
100
AcDbEntity
  8
A4
  6
CENTER
 62
1
100
AcDbLine
 10
155.1230222234160
 20
145.6484291115402
 30
0.000000000000000
 11
155.1230222234160
 21
140.6484291115402
 31
0.000000000000000
  0
LINE
  5
61
100
AcDbEntity
  8
A4
  6
CENTER
 62
1
100
AcDbLine
 10
226.6162239855949
 20
150.6484291115402
 30
0.000000000000000
 11
216.6162239855950
 21
150.6484291115402
 31
0.000000000000000
  0
LINE
  5
62
100
AcDbEntity
  8
A1
  6
CONTINUOUS
 62
7
100
AcDbLine
 10
224.1162239855949
 20
149.2050541115402
 30
0.000000000000000
 11
224.1162239855949
 21
152.0918031115402
 31
0.000000000000000
  0
LINE
  5
63
100
AcDbEntity
  8
A1
  6
CONTINUOUS
 62
7
100
AcDbLine
 10
219.1162239855949
 20
149.2050541115402
 30
0.000000000000000
 11
219.1162239855949
 21
152.0918031115402
 31
0.000000000000000
  0
LINE
  5
64
100
AcDbEntity
  8
A1
  6
CONTINUOUS
 62
7
100
AcDbLine
 10
221.6162399855951
 20
147.7616801115403
 30
0.000000000000000
 11
224.1162239855950
 21
149.2050541115402
 31
0.000000000000000
  0
LINE
  5
65
100
AcDbEntity
  8
A1
  6
CONTINUOUS
 62
7
100
AcDbLine
 10
219.1162399855948
 20
152.0918031115402
 30
0.000000000000000
 11
221.6162239855949
 21
153.5351781115402
 31
0.000000000000000
  0
LINE
  5
66
100
AcDbEntity
  8
A1
  6
CONTINUOUS
 62
7
100
AcDbLine
 10
221.6162239855949
 20
147.7616801115403
 30
0.000000000000000
 11
219.1162399855948
 21
149.2050541115402
 31
0.000000000000000
  0
LINE
  5
67
100
AcDbEntity
  8
A1
  6
CONTINUOUS
 62
7
100
AcDbLine
 10
224.1162239855950
 20
152.0918031115403
 30
0.000000000000000
 11
221.6162399855950
 21
153.5351781115403
 31
0.000000000000000
  0
LINE
  5
68
100
AcDbEntity
  8
A1
  6
CONTINUOUS
 62
7
100
AcDbLine
 10
159.1230222234160
 20
71.73544646587359
 30
0.000000000000000
 11
141.1230222234160
 21
71.73544646587359
 31
0.000000000000000
  0
LINE
  5
69
100
AcDbEntity
  8
A1
  6
CONTINUOUS
 62
7
100
AcDbLine
 10
159.1230222234160
 20
63.73544646587359
 30
0.000000000000000
 11
141.1230222234160
 21
63.73544646587359
 31
0.000000000000000
  0
LINE
  5
6A
100
AcDbEntity
  8
A4
  6
CENTER
 62
1
100
AcDbLine
 10
162.4339352234158
 20
67.73544646587359
 30
0.000000000000000
 11
110.1230222234160
 21
67.73544646587359
 31
0.000000000000000
  0
LINE
  5
6B
100
AcDbEntity
  8
A1
  6
CONTINUOUS
 62
7
100
AcDbLine
 10
141.1230222234160
 20
63.73544646587359
 30
0.000000000000000
 11
141.1230222234160
 21
71.73544646587359
 31
0.000000000000000
  0
LINE
  5
6C
100
AcDbEntity
  8
A1
  6
CONTINUOUS
 62
7
100
AcDbLine
 10
159.1230222234160
 20
63.73544646587359
 30
0.000000000000000
 11
159.1230222234160
 21
71.73544646587359
 31
0.000000000000000
  0
LINE
  5
6D
100
AcDbEntity
  8
A1
  6
CONTINUOUS
 62
7
100
AcDbLine
 10
159.1230222234160
 20
69.23544646587359
 30
0.000000000000000
 11
141.1230222234160
 21
69.23544646587359
 31
0.000000000000000
  0
LINE
  5
6E
100
AcDbEntity
  8
A1
  6
CONTINUOUS
 62
7
100
AcDbLine
 10
159.1230222234160
 20
66.23544646587359
 30
0.000000000000000
 11
141.1230222234160
 21
66.23544646587359
 31
0.000000000000000
  0
LINE
  5
6F
100
AcDbEntity
  8
A4
  6
CENTER
 62
1
100
AcDbLine
 10
145.1230222234160
 20
70.23544646587359
 30
0.000000000000000
 11
145.1230222234160
 21
65.23544646587359
 31
0.000000000000000
  0
LINE
  5
70
100
AcDbEntity
  8
A4
  6
CENTER
 62
1
100
AcDbLine
 10
155.1230222234160
 20
70.23544646587359
 30
0.000000000000000
 11
155.1230222234160
 21
65.23544646587359
 31
0.000000000000000
  0
LINE
  5
71
100
AcDbEntity
  8
A1
  6
CONTINUOUS
 62
7
100
AcDbLine
 10
159.1230222234160
 20
215.0710367141777
 30
0.000000000000000
 11
141.1230222234160
 21
215.0710367141777
 31
0.000000000000000
  0
LINE
  5
72
100
AcDbEntity
  8
A1
  6
CONTINUOUS
 62
7
100
AcDbLine
 10
139.6230222234160
 20
209.5710367141776
 30
0.000000000000000
 11
134.6230222234160
 21
209.5710367141776
 31
0.000000000000000
  0
LINE
  5
73
100
AcDbEntity
  8
A1
  6
CONTINUOUS
 62
7
100
AcDbLine
 10
139.6230222234160
 20
212.5710367141778
 30
0.000000000000000
 11
134.6230222234160
 21
212.5710367141778
 31
0.000000000000000
  0
LINE
  5
74
100
AcDbEntity
  8
A1
  6
CONTINUOUS
 62
7
100
AcDbLine
 10
139.6230222234160
 20
69.23544646587359
 30
0.000000000000000
 11
134.6230222234160
 21
69.23544646587359
 31
0.000000000000000
  0
LINE
  5
75
100
AcDbEntity
  8
A1
  6
CONTINUOUS
 62
7
100
AcDbLine
 10
139.6230222234160
 20
66.23544646587359
 30
0.000000000000000
 11
134.6230222234160
 21
66.23544646587359
 31
0.000000000000000
  0
LINE
  5
76
100
AcDbEntity
  8
A1
  6
CONTINUOUS
 62
7
100
AcDbLine
 10
134.6230222234160
 20
152.1484291115402
 30
0.000000000000000
 11
139.6230222234160
 21
152.1484291115402
 31
0.000000000000000
  0
LINE
  5
77
100
AcDbEntity
  8
A1
  6
CONTINUOUS
 62
7
100
AcDbLine
 10
134.6230222234160
 20
149.1484291115402
 30
0.000000000000000
 11
139.6230222234160
 21
149.1484291115402
 31
0.000000000000000
  0
LINE
  5
78
100
AcDbEntity
  8
A1
  6
CONTINUOUS
 62
7
100
AcDbLine
 10
134.6230222234160
 20
71.73544646587359
 30
0.000000000000000
 11
134.6230222234160
 21
63.73544646587359
 31
0.000000000000000
  0
LINE
  5
79
100
AcDbEntity
  8
A1
  6
CONTINUOUS
 62
7
100
AcDbLine
 10
112.1230222234160
 20
69.73544646587359
 30
0.000000000000000
 11
112.1230222234160
 21
65.73544646587359
 31
0.000000000000000
  0
LINE
  5
7A
100
AcDbEntity
  8
A1
  6
CONTINUOUS
 62
7
100
AcDbLine
 10
134.6230222234160
 20
71.73544646587359
 30
0.000000000000000
 11
114.1230222234160
 21
71.73544646587359
 31
0.000000000000000
  0
LINE
  5
7B
100
AcDbEntity
  8
A1
  6
CONTINUOUS
 62
7
100
AcDbLine
 10
134.6230222234160
 20
63.73544646587359
 30
0.000000000000000
 11
114.1230222234160
 21
63.73544646587359
 31
0.000000000000000
  0
LINE
  5
7C
100
AcDbEntity
  8
A1
  6
CONTINUOUS
 62
7
100
AcDbLine
 10
132.6230222234160
 20
71.73544646587359
 30
0.000000000000000
 11
132.6230222234160
 21
63.73544646587359
 31
0.000000000000000
  0
LINE
  5
7D
100
AcDbEntity
  8
A4
  6
CENTER
 62
1
100
AcDbLine
 10
126.1230222234160
 20
71.23544646587359
 30
0.000000000000000
 11
126.1230222234160
 21
64.23544646587359
 31
0.000000000000000
  0
LINE
  5
7E
100
AcDbEntity
  8
A4
  6
CENTER
 62
1
100
AcDbLine
 10
116.1230222234160
 20
71.23544646587359
 30
0.000000000000000
 11
116.1230222234160
 21
64.23544646587359
 31
0.000000000000000
  0
LINE
  5
7F
100
AcDbEntity
  8
A1
  6
CONTINUOUS
 62
7
100
AcDbLine
 10
56.99412111010888
 20
158.6484291115401
 30
0.000000000000000
 11
48.99412111010888
 21
158.6484291115401
 31
0.000000000000000
  0
LINE
  5
80
100
AcDbEntity
  8
A1
  6
CONTINUOUS
 62
7
100
AcDbLine
 10
56.99412111010888
 20
150.6484291115402
 30
0.000000000000000
 11
56.99412111010888
 21
158.6484291115401
 31
0.000000000000000
  0
LINE
  5
81
100
AcDbEntity
  8
A1
  6
CONTINUOUS
 62
7
100
AcDbLine
 10
48.99412111010888
 20
150.6484291115402
 30
0.000000000000000
 11
48.99412111010888
 21
158.6484291115401
 31
0.000000000000000
  0
LINE
  5
82
100
AcDbEntity
  8
A1
  6
CONTINUOUS
 62
7
100
AcDbLine
 10
56.99412111010888
 20
156.6484291115402
 30
0.000000000000000
 11
48.99412111010888
 21
156.6484291115402
 31
0.000000000000000
  0
LINE
  5
83
100
AcDbEntity
  8
A4
  6
CENTER
 62
1
100
AcDbLine
 10
52.99412111010888
 20
138.6484291115402
 30
0.000000000000000
 11
52.99412111010888
 21
160.6484291115402
 31
0.000000000000000
  0
LINE
  5
84
100
AcDbEntity
  8
A1
  6
CONTINUOUS
 62
7
100
AcDbLine
 10
132.6230222234160
 20
158.6484291115401
 30
0.000000000000000
 11
112.1230222234160
 21
158.6484291115401
 31
0.000000000000000
  0
LINE
  5
85
100
AcDbEntity
  8
A1
  6
CONTINUOUS
 62
7
100
AcDbLine
 10
132.6230222234160
 20
156.6484291115402
 30
0.000000000000000
 11
112.1230222234160
 21
156.6484291115402
 31
0.000000000000000
  0
LINE
  5
86
100
AcDbEntity
  8
A1
  6
CONTINUOUS
 62
7
100
AcDbLine
 10
134.6230222234160
 20
146.6484291115403
 30
0.000000000000000
 11
132.6230222234160
 21
146.6484291115403
 31
0.000000000000000
  0
LINE
  5
87
100
AcDbEntity
  8
A1
  6
CONTINUOUS
 62
7
100
AcDbLine
 10
134.6230222234160
 20
146.6484291115403
 30
0.000000000000000
 11
134.6230222234160
 21
156.6484291115402
 31
0.000000000000000
  0
LINE
  5
88
100
AcDbEntity
  8
A1
  6
CONTINUOUS
 62
7
100
AcDbLine
 10
132.6230222234160
 20
146.6484291115403
 30
0.000000000000000
 11
132.6230222234160
 21
156.6484291115402
 31
0.000000000000000
  0
LINE
  5
89
100
AcDbEntity
  8
A1
  6
CONTINUOUS
 62
7
100
AcDbLine
 10
112.1230222234160
 20
156.6484291115402
 30
0.000000000000000
 11
112.1230222234160
 21
158.6484291115401
 31
0.000000000000000
  0
LINE
  5
8A
100
AcDbEntity
  8
A4
  6
CENTER
 62
1
100
AcDbLine
 10
126.1230222234160
 20
154.6484291115401
 30
0.000000000000000
 11
126.1230222234160
 21
160.6484291115402
 31
0.000000000000000
  0
LINE
  5
8B
100
AcDbEntity
  8
A4
  6
CENTER
 62
1
100
AcDbLine
 10
116.1230222234160
 20
154.6484291115401
 30
0.000000000000000
 11
116.1230222234160
 21
160.6484291115402
 31
0.000000000000000
  0
LINE
  5
8C
100
AcDbEntity
  8
A4
  6
CENTER
 62
1
100
AcDbLine
 10
116.1230222234160
 20
207.5710367141776
 30
0.000000000000000
 11
116.1230222234160
 21
214.5710367141777
 31
0.000000000000000
  0
LINE
  5
8D
100
AcDbEntity
  8
A4
  6
CENTER
 62
1
100
AcDbLine
 10
126.1230222234160
 20
207.5710367141776
 30
0.000000000000000
 11
126.1230222234160
 21
214.5710367141777
 31
0.000000000000000
  0
LINE
  5
8E
100
AcDbEntity
  8
A1
  6
CONTINUOUS
 62
7
100
AcDbLine
 10
134.6230222234160
 20
215.0710367141777
 30
0.000000000000000
 11
114.1230222234160
 21
215.0710367141777
 31
0.000000000000000
  0
LINE
  5
8F
100
AcDbEntity
  8
A1
  6
CONTINUOUS
 62
7
100
AcDbLine
 10
134.6230222234160
 20
207.0710367141777
 30
0.000000000000000
 11
114.1230222234160
 21
207.0710367141777
 31
0.000000000000000
  0
LINE
  5
90
100
AcDbEntity
  8
A1
  6
CONTINUOUS
 62
7
100
AcDbLine
 10
112.1230222234160
 20
209.0710367141777
 30
0.000000000000000
 11
112.1230222234160
 21
213.0710367141777
 31
0.000000000000000
  0
LINE
  5
91
100
AcDbEntity
  8
A1
  6
CONTINUOUS
 62
7
100
AcDbLine
 10
134.6230222234160
 20
207.0710367141777
 30
0.000000000000000
 11
134.6230222234160
 21
215.0710367141777
 31
0.000000000000000
  0
LINE
  5
92
100
AcDbEntity
  8
A1
  6
CONTINUOUS
 62
7
100
AcDbLine
 10
225.6162239855949
 20
150.6484291115402
 30
0.000000000000000
 11
225.6162239855949
 21
158.6484291115401
 31
0.000000000000000
  0
LINE
  5
93
100
AcDbEntity
  8
A1
  6
CONTINUOUS
 62
7
100
AcDbLine
 10
217.6162239855949
 20
150.6484291115402
 30
0.000000000000000
 11
217.6162239855949
 21
158.6484291115401
 31
0.000000000000000
  0
LINE
  5
94
100
AcDbEntity
  8
A1
  6
CONTINUOUS
 62
7
100
AcDbLine
 10
217.6162239855949
 20
158.6484291115401
 30
0.000000000000000
 11
225.6162239855949
 21
158.6484291115401
 31
0.000000000000000
  0
LINE
  5
95
100
AcDbEntity
  8
A1
  6
CONTINUOUS
 62
7
100
AcDbLine
 10
54.74412111010888
 20
149.3255221115403
 30
0.000000000000000
 11
54.74412111010888
 21
151.9713201115402
 31
0.000000000000000
  0
LINE
  5
96
100
AcDbEntity
  8
A1
  6
CONTINUOUS
 62
7
100
AcDbLine
 10
51.24412111010888
 20
149.3255221115403
 30
0.000000000000000
 11
51.24412111010888
 21
151.9713201115402
 31
0.000000000000000
  0
LINE
  5
97
100
AcDbEntity
  8
A1
  6
CONTINUOUS
 62
7
100
AcDbLine
 10
139.6230222234160
 20
207.2438307141777
 30
0.000000000000000
 11
139.6230222234160
 21
214.8982417141778
 31
0.000000000000000
  0
ARC
  5
98
100
AcDbEntity
  8
A1
  6
CONTINUOUS
 62
7
100
AcDbCircle
 10
143.1230222234160
 20
141.6484291115402
 30
0.000000000000000
 40
2.000000000000000
100
AcDbArc
 50
179.9999909999999
 51
270.0000010000000
  0
ARC
  5
99
100
AcDbEntity
  8
A1
  6
CONTINUOUS
 62
7
100
AcDbCircle
 10
157.1230222234160
 20
141.6484291115402
 30
0.000000000000000
 40
2.000000000000000
100
AcDbArc
 50
269.9999969999999
 51
360.0000000000000
  0
CIRCLE
  5
9A
100
AcDbEntity
  8
A1
  6
CONTINUOUS
 62
7
100
AcDbCircle
 10
221.6162239855949
 20
150.6484291115402
 30
0.000000000000000
 40
4.000000000000000
  0
ARC
  5
9B
100
AcDbEntity
  8
A1
  6
CONTINUOUS
 62
7
100
AcDbCircle
 10
52.99412111010888
 20
150.6484291115402
 30
0.000000000000000
 40
4.000000000000000
100
AcDbArc
 50
179.9999909999999
 51
360.0000100000000
  0
CIRCLE
  5
9C
100
AcDbEntity
  8
A1
  6
CONTINUOUS
 62
7
100
AcDbCircle
 10
145.1230222234160
 20
143.1484291115401
 30
0.000000000000000
 40
1.600000000000000
  0
CIRCLE
  5
9D
100
AcDbEntity
  8
A1
  6
CONTINUOUS
 62
7
100
AcDbCircle
 10
155.1230222234160
 20
143.1484291115401
 30
0.000000000000000
 40
1.600000000000000
  0
CIRCLE
  5
9E
100
AcDbEntity
  8
A1
  6
CONTINUOUS
 62
7
100
AcDbCircle
 10
221.6162239855949
 20
150.6484291115402
 30
0.000000000000000
 40
2.500000000000000
  0
ARC
  5
9F
100
AcDbEntity
  8
A1
  6
CONTINUOUS
 62
7
100
AcDbCircle
 10
114.1230222234160
 20
69.73544646587359
 30
0.000000000000000
 40
2.000000000000000
100
AcDbArc
 50
90.00000300000002
 51
180.0000050000000
  0
ARC
  5
A0
100
AcDbEntity
  8
A1
  6
CONTINUOUS
 62
7
100
AcDbCircle
 10
114.1230222234160
 20
65.73544646587359
 30
0.000000000000000
 40
2.000000000000000
100
AcDbArc
 50
179.9999909999999
 51
270.0000010000000
  0
ARC
  5
A1
100
AcDbEntity
  8
A1
  6
CONTINUOUS
 62
7
100
AcDbCircle
 10
132.6230222234160
 20
156.6484291115402
 30
0.000000000000000
 40
2.000000000000000
100
AcDbArc
 50
0.000000000000000
 51
90.00000300000002
  0
ARC
  5
A2
100
AcDbEntity
  8
A1
  6
CONTINUOUS
 62
7
100
AcDbCircle
 10
114.1230222234160
 20
209.0710367141777
 30
0.000000000000000
 40
2.000000000000000
100
AcDbArc
 50
179.9999909999999
 51
270.0000010000000
  0
ARC
  5
A3
100
AcDbEntity
  8
A1
  6
CONTINUOUS
 62
7
100
AcDbCircle
 10
114.1230222234160
 20
213.0710367141777
 30
0.000000000000000
 40
2.000000000000000
100
AcDbArc
 50
90.00000300000002
 51
180.0000050000000
  0
ARC
  5
A4
100
AcDbEntity
  8
A1
  6
CONTINUOUS
 62
7
100
AcDbCircle
 10
52.99412111010888
 20
153.6484291115401
 30
0.000000000000000
 40
5.000000000000000
100
AcDbArc
 50
253.8723770000000
 51
286.1276179999999
  0
ARC
  5
A5
100
AcDbEntity
  8
A1
  6
CONTINUOUS
 62
7
100
AcDbCircle
 10
52.99412111010888
 20
147.6484291115403
 30
0.000000000000000
 40
5.000000000000000
100
AcDbArc
 50
73.87238200000000
 51
106.1276230000000
  0
ARC
  5
A6
100
AcDbEntity
  8
A1
  6
CONTINUOUS
 62
7
100
AcDbCircle
 10
54.24412111010888
 20
149.3255221115403
 30
0.000000000000000
 40
0.5000000000000000
100
AcDbArc
 50
286.1276179999999
 51
360.0000000000000
  0
ARC
  5
A7
100
AcDbEntity
  8
A1
  6
CONTINUOUS
 62
7
100
AcDbCircle
 10
51.74412111010888
 20
149.3255221115403
 30
0.000000000000000
 40
0.5000000000000000
100
AcDbArc
 50
179.9999909999999
 51
253.8723669999999
  0
ARC
  5
A8
100
AcDbEntity
  8
A1
  6
CONTINUOUS
 62
7
100
AcDbCircle
 10
51.74412111010888
 20
151.9713201115402
 30
0.000000000000000
 40
0.5000000000000000
100
AcDbArc
 50
106.1276230000000
 51
180.0000050000000
  0
ARC
  5
A9
100
AcDbEntity
  8
A1
  6
CONTINUOUS
 62
7
100
AcDbCircle
 10
54.24412111010888
 20
151.9713201115402
 30
0.000000000000000
 40
0.5000000000000000
100
AcDbArc
 50
0.000000000000000
 51
73.87238200000000
  0
ARC
  5
AA
100
AcDbEntity
  8
A1
  6
CONTINUOUS
 62
7
100
AcDbCircle
 10
134.1230222234160
 20
150.6484291115402
 30
0.000000000000000
 40
2.500000000000000
100
AcDbArc
 50
126.8699030000000
 51
233.1300929999999
  0
ARC
  5
AB
100
AcDbEntity
  8
A1
  6
CONTINUOUS
 62
7
100
AcDbCircle
 10
133.6542722234160
 20
67.73544646587359
 30
0.000000000000000
 40
2.031250000000000
100
AcDbArc
 50
120.5102320000000
 51
239.4897639999999
  0
ARC
  5
AC
100
AcDbEntity
  8
A1
  6
CONTINUOUS
 62
7
100
AcDbCircle
 10
140.3730222234160
 20
211.0710367141777
 30
0.000000000000000
 40
3.900000000000000
100
AcDbArc
 50
78.91251099999998
 51
101.0874889999999
  0
ARC
  5
AD
100
AcDbEntity
  8
A1
  6
CONTINUOUS
 62
7
100
AcDbCircle
 10
140.3730222234160
 20
211.0710367141777
 30
0.000000000000000
 40
3.900000000000000
100
AcDbArc
 50
258.9125109999998
 51
281.0874890000000
  0
ARC
  5
AE
100
AcDbEntity
  8
A1
  6
CONTINUOUS
 62
7
100
AcDbCircle
 10
140.3730222234160
 20
150.6484291115402
 30
0.000000000000000
 40
3.900000000000000
100
AcDbArc
 50
78.91251099999998
 51
101.0874889999999
  0
LINE
  5
AF
100
AcDbEntity
  8
A1
  6
CONTINUOUS
 62
7
100
AcDbLine
 10
139.6230222234160
 20
146.8212241115402
 30
0.000000000000000
 11
139.6230222234160
 21
154.4756341115403
 31
0.000000000000000
  0
ARC
  5
B0
100
AcDbEntity
  8
A1
  6
CONTINUOUS
 62
7
100
AcDbCircle
 10
140.3730222234160
 20
150.6484291115402
 30
0.000000000000000
 40
3.900000000000000
100
AcDbArc
 50
258.9125109999998
 51
281.0874890000000
  0
LINE
  5
B1
100
AcDbEntity
  8
A1
  6
CONTINUOUS
 62
7
100
AcDbLine
 10
139.6230222234160
 20
63.90824146587359
 30
0.000000000000000
 11
139.6230222234160
 21
71.56265146587359
 31
0.000000000000000
  0
ARC
  5
B2
100
AcDbEntity
  8
A1
  6
CONTINUOUS
 62
7
100
AcDbCircle
 10
140.3730222234160
 20
67.73544646587359
 30
0.000000000000000
 40
3.900000000000000
100
AcDbArc
 50
78.91251099999998
 51
101.0874889999999
  0
ARC
  5
B3
100
AcDbEntity
  8
A1
  6
CONTINUOUS
 62
7
100
AcDbCircle
 10
140.3730222234160
 20
67.73544646587359
 30
0.000000000000000
 40
3.900000000000000
100
AcDbArc
 50
258.9125109999998
 51
281.0874890000000
  0
CIRCLE
  5
B4
100
AcDbEntity
  8
A2
  6
CONTINUOUS
 62
4
100
AcDbCircle
 10
221.6162239855949
 20
150.6484291115402
 30
0.000000000000000
 40
1.229500000000000
  0
CIRCLE
  5
B5
100
AcDbEntity
  8
A1
  6
CONTINUOUS
 62
7
100
AcDbCircle
 10
221.6162239855949
 20
150.6484291115402
 30
0.000000000000000
 40
1.500000000000000
  0
CIRCLE
  5
B6
100
AcDbEntity
  8
A1
  6
CONTINUOUS
 62
7
100
AcDbCircle
 10
221.6162239855949
 20
150.6484291115402
 30
0.000000000000000
 40
3.450000000000000
  0
LINE
  5
B7
100
AcDbEntity
  8
A1
  6
CONTINUOUS
 62
7
100
AcDbLine
 10
116.6230222234160
 20
212.6710367141777
 30
0.000000000000000
 11
115.6230222234160
 21
212.6710367141777
 31
0.000000000000000
  0
LINE
  5
B8
100
AcDbEntity
  8
A1
  6
CONTINUOUS
 62
7
100
AcDbLine
 10
116.6230222234160
 20
209.4710367141777
 30
0.000000000000000
 11
115.6230222234160
 21
209.4710367141777
 31
0.000000000000000
  0
ARC
  5
B9
100
AcDbEntity
  8
A1
  6
CONTINUOUS
 62
7
100
AcDbCircle
 10
115.6230222234160
 20
211.0710367141777
 30
0.000000000000000
 40
1.600000000000000
100
AcDbArc
 50
90.00000000000000
 51
270.0000000000000
  0
ARC
  5
BA
100
AcDbEntity
  8
A1
  6
CONTINUOUS
 62
7
100
AcDbCircle
 10
116.6230222234160
 20
211.0710367141777
 30
0.000000000000000
 40
1.600000000000000
100
AcDbArc
 50
270.0000000000000
 51
450.0000000000000
  0
ARC
  5
BB
100
AcDbEntity
  8
A1
  6
CONTINUOUS
 62
7
100
AcDbCircle
 10
126.6230222234160
 20
211.0710367141777
 30
0.000000000000000
 40
1.600000000000000
100
AcDbArc
 50
270.0000000000000
 51
450.0000000000000
  0
ARC
  5
BC
100
AcDbEntity
  8
A1
  6
CONTINUOUS
 62
7
100
AcDbCircle
 10
125.6230222234160
 20
211.0710367141777
 30
0.000000000000000
 40
1.600000000000000
100
AcDbArc
 50
90.00000000000000
 51
270.0000000000000
  0
LINE
  5
BD
100
AcDbEntity
  8
A1
  6
CONTINUOUS
 62
7
100
AcDbLine
 10
126.6230222234160
 20
209.4710367141777
 30
0.000000000000000
 11
125.6230222234160
 21
209.4710367141777
 31
0.000000000000000
  0
LINE
  5
BE
100
AcDbEntity
  8
A1
  6
CONTINUOUS
 62
7
100
AcDbLine
 10
126.6230222234160
 20
212.6710367141777
 30
0.000000000000000
 11
125.6230222234160
 21
212.6710367141777
 31
0.000000000000000
  0
ARC
  5
BF
100
AcDbEntity
  8
A1
  6
CONTINUOUS
 62
7
100
AcDbCircle
 10
115.6230222234160
 20
67.73544646587359
 30
0.000000000000000
 40
1.600000000000000
100
AcDbArc
 50
90.00000000000000
 51
270.0000000000000
  0
ARC
  5
C0
100
AcDbEntity
  8
A1
  6
CONTINUOUS
 62
7
100
AcDbCircle
 10
116.6230222234160
 20
67.73544646587359
 30
0.000000000000000
 40
1.600000000000000
100
AcDbArc
 50
270.0000000000000
 51
450.0000000000000
  0
LINE
  5
C1
100
AcDbEntity
  8
A1
  6
CONTINUOUS
 62
7
100
AcDbLine
 10
116.6230222234160
 20
66.13544646587357
 30
0.000000000000000
 11
115.6230222234160
 21
66.13544646587357
 31
0.000000000000000
  0
LINE
  5
C2
100
AcDbEntity
  8
A1
  6
CONTINUOUS
 62
7
100
AcDbLine
 10
116.6230222234160
 20
69.33544646587359
 30
0.000000000000000
 11
115.6230222234160
 21
69.33544646587359
 31
0.000000000000000
  0
ARC
  5
C3
100
AcDbEntity
  8
A1
  6
CONTINUOUS
 62
7
100
AcDbCircle
 10
126.6230222234160
 20
67.73544646587359
 30
0.000000000000000
 40
1.600000000000000
100
AcDbArc
 50
270.0000000000000
 51
450.0000000000000
  0
ARC
  5
C4
100
AcDbEntity
  8
A1
  6
CONTINUOUS
 62
7
100
AcDbCircle
 10
125.6230222234160
 20
67.73544646587359
 30
0.000000000000000
 40
1.600000000000000
100
AcDbArc
 50
90.00000000000000
 51
270.0000000000000
  0
LINE
  5
C5
100
AcDbEntity
  8
A1
  6
CONTINUOUS
 62
7
100
AcDbLine
 10
126.6230222234160
 20
66.13544646587357
 30
0.000000000000000
 11
125.6230222234160
 21
66.13544646587357
 31
0.000000000000000
  0
LINE
  5
C6
100
AcDbEntity
  8
A1
  6
CONTINUOUS
 62
7
100
AcDbLine
 10
126.6230222234160
 20
69.33544646587359
 30
0.000000000000000
 11
125.6230222234160
 21
69.33544646587359
 31
0.000000000000000
  0
LINE
  5
C7
100
AcDbEntity
  8
A1
  6
CONTINUOUS
 62
7
100
AcDbLine
 10
146.6361801683462
 20
151.2054467313870
 30
0.000000000000000
 11
146.1361801484780
 21
151.2054467313870
 31
0.000000000000000
  0
LINE
  5
C8
100
AcDbEntity
  8
A1
  6
CONTINUOUS
 62
7
100
AcDbLine
 10
146.6361801683462
 20
151.3721134046764
 30
0.000000000000000
 11
146.6361801683462
 21
151.2054467313870
 31
0.000000000000000
  0
LINE
  5
C9
100
AcDbEntity
  8
A1
  6
CONTINUOUS
 62
7
100
AcDbLine
 10
145.4344257346279
 20
151.3721134046764
 30
0.000000000000000
 11
146.6361801683462
 21
151.3721134046764
 31
0.000000000000000
  0
LINE
  5
CA
100
AcDbEntity
  8
A1
  6
CONTINUOUS
 62
7
100
AcDbLine
 10
145.4344257346279
 20
151.2054467313870
 30
0.000000000000000
 11
145.4344257346279
 21
151.3721134046764
 31
0.000000000000000
  0
LINE
  5
CB
100
AcDbEntity
  8
A1
  6
CONTINUOUS
 62
7
100
AcDbLine
 10
145.9344257544961
 20
151.2054467313870
 30
0.000000000000000
 11
145.4344257346279
 21
151.2054467313870
 31
0.000000000000000
  0
LINE
  5
CC
100
AcDbEntity
  8
A1
  6
CONTINUOUS
 62
7
100
AcDbLine
 10
145.9344257544961
 20
149.8721133450717
 30
0.000000000000000
 11
145.9344257544961
 21
151.2054467313870
 31
0.000000000000000
  0
LINE
  5
CD
100
AcDbEntity
  8
A1
  6
CONTINUOUS
 62
7
100
AcDbLine
 10
146.1361801484780
 20
149.8721133450717
 30
0.000000000000000
 11
145.9344257544961
 21
149.8721133450717
 31
0.000000000000000
  0
LINE
  5
CE
100
AcDbEntity
  8
A1
  6
CONTINUOUS
 62
7
100
AcDbLine
 10
146.1361801484780
 20
151.2054467313870
 30
0.000000000000000
 11
146.1361801484780
 21
149.8721133450717
 31
0.000000000000000
  0
LINE
  5
CF
100
AcDbEntity
  8
A1
  6
CONTINUOUS
 62
7
100
AcDbLine
 10
147.7765310908526
 20
151.3721134046764
 30
0.000000000000000
 11
147.9782854848346
 21
151.3721134046764
 31
0.000000000000000
  0
LINE
  5
D0
100
AcDbEntity
  8
A1
  6
CONTINUOUS
 62
7
100
AcDbLine
 10
147.7765310908527
 20
150.7405344322113
 30
0.000000000000000
 11
147.7765310908527
 21
151.3721134046764
 31
0.000000000000000
  0
LINE
  5
D1
100
AcDbEntity
  8
A1
  6
CONTINUOUS
 62
7
100
AcDbLine
 10
147.0572328166563
 20
150.7405344322113
 30
0.000000000000000
 11
147.7765310908527
 21
150.7405344322113
 31
0.000000000000000
  0
LINE
  5
D2
100
AcDbEntity
  8
A1
  6
CONTINUOUS
 62
7
100
AcDbLine
 10
147.0572328166563
 20
151.3721134046764
 30
0.000000000000000
 11
147.0572328166563
 21
150.7405344322113
 31
0.000000000000000
  0
LINE
  5
D3
100
AcDbEntity
  8
A1
  6
CONTINUOUS
 62
7
100
AcDbLine
 10
146.8554784226744
 20
151.3721134046764
 30
0.000000000000000
 11
147.0572328166563
 21
151.3721134046764
 31
0.000000000000000
  0
LINE
  5
D4
100
AcDbEntity
  8
A1
  6
CONTINUOUS
 62
7
100
AcDbLine
 10
146.8554784226744
 20
149.8721133450717
 30
0.000000000000000
 11
146.8554784226744
 21
151.3721134046764
 31
0.000000000000000
  0
LINE
  5
D5
100
AcDbEntity
  8
A1
  6
CONTINUOUS
 62
7
100
AcDbLine
 10
147.0572328166563
 20
149.8721133450717
 30
0.000000000000000
 11
146.8554784226744
 21
149.8721133450717
 31
0.000000000000000
  0
LINE
  5
D6
100
AcDbEntity
  8
A1
  6
CONTINUOUS
 62
7
100
AcDbLine
 10
147.0572328166563
 20
150.5738677589219
 30
0.000000000000000
 11
147.0572328166563
 21
149.8721133450717
 31
0.000000000000000
  0
LINE
  5
D7
100
AcDbEntity
  8
A1
  6
CONTINUOUS
 62
7
100
AcDbLine
 10
147.7765310908527
 20
150.5738677589219
 30
0.000000000000000
 11
147.0572328166563
 21
150.5738677589219
 31
0.000000000000000
  0
LINE
  5
D8
100
AcDbEntity
  8
A1
  6
CONTINUOUS
 62
7
100
AcDbLine
 10
147.7765310908527
 20
149.8721133450717
 30
0.000000000000000
 11
147.7765310908527
 21
150.5738677589219
 31
0.000000000000000
  0
LINE
  5
D9
100
AcDbEntity
  8
A1
  6
CONTINUOUS
 62
7
100
AcDbLine
 10
147.9782854848346
 20
149.8721133450717
 30
0.000000000000000
 11
147.7765310908527
 21
149.8721133450717
 31
0.000000000000000
  0
LINE
  5
DA
100
AcDbEntity
  8
A1
  6
CONTINUOUS
 62
7
100
AcDbLine
 10
147.9782854848346
 20
151.3721134046764
 30
0.000000000000000
 11
147.9782854848346
 21
149.8721133450717
 31
0.000000000000000
  0
LINE
  5
DB
100
AcDbEntity
  8
A1
  6
CONTINUOUS
 62
7
100
AcDbLine
 10
148.1975837391627
 20
150.7142186416919
 30
0.000000000000000
 11
149.1975837788991
 21
150.7142186416919
 31
0.000000000000000
  0
LINE
  5
DC
100
AcDbEntity
  8
A1
  6
CONTINUOUS
 62
7
100
AcDbLine
 10
148.1975837391627
 20
150.5738677589219
 30
0.000000000000000
 11
148.1975837391627
 21
150.7142186416919
 31
0.000000000000000
  0
LINE
  5
DD
100
AcDbEntity
  8
A1
  6
CONTINUOUS
 62
7
100
AcDbLine
 10
149.1975837788991
 20
150.5738677589219
 30
0.000000000000000
 11
148.1975837391627
 21
150.5738677589219
 31
0.000000000000000
  0
LINE
  5
DE
100
AcDbEntity
  8
A1
  6
CONTINUOUS
 62
7
100
AcDbLine
 10
149.1975837788991
 20
150.7142186416919
 30
0.000000000000000
 11
149.1975837788991
 21
150.5738677589219
 31
0.000000000000000
  0
LINE
  5
DF
100
AcDbEntity
  8
A1
  6
CONTINUOUS
 62
7
100
AcDbLine
 10
149.9607417039612
 20
149.8808852752448
 30
0.000000000000000
 11
149.7589873099793
 21
149.8808852752448
 31
0.000000000000000
  0
LINE
  5
E0
100
AcDbEntity
  8
A1
  6
CONTINUOUS
 62
7
100
AcDbLine
 10
149.9607417039612
 20
151.3984291951957
 30
0.000000000000000
 11
149.9607417039612
 21
149.8808852752448
 31
0.000000000000000
  0
LINE
  5
E1
100
AcDbEntity
  8
A1
  6
CONTINUOUS
 62
7
100
AcDbLine
 10
149.8554785418837
 20
151.3984291951957
 30
0.000000000000000
 11
149.9607417039612
 21
151.3984291951957
 31
0.000000000000000
  0
SPLINE
  5
E2
100
AcDbEntity
  8
A1
  6
CONTINUOUS
 62
7
100
AcDbSpline
210
0.000000000000000
220
0.000000000000000
230
1.000000000000000
 70
     8
 71
     3
 72
     8
 73
     4
 74
     0
 42
1.000000000000000e-07
 43
1.000000000000000e-07
 12
1.134965072852992
 22
1.134965072853902
 32
0.000000000000000
 13
0.1132487449499422
 23
1.361462562751512
 33
0.000000000000000
 40
0.000000000000000
 40
0.000000000000000
 40
0.000000000000000
 40
0.000000000000000
 40
0.2086778882798361
 40
0.2086778882798361
 40
0.2086778882798361
 40
0.2086778882798361
 10
149.7677592401524
 20
151.2229905917332
 30
0.000000000000000
 10
149.8467066117105
 20
151.3019379632914
 30
0.000000000000000
 10
149.8476010389015
 20
151.3037268176734
 30
0.000000000000000
 10
149.8554785418837
 20
151.3984291951957
 30
0.000000000000000
  0
SPLINE
  5
E3
100
AcDbEntity
  8
A1
  6
CONTINUOUS
 62
7
100
AcDbSpline
210
0.000000000000000
220
0.000000000000000
230
1.000000000000000
 70
     8
 71
     3
 72
     8
 73
     4
 74
     0
 42
1.000000000000000e-07
 43
1.000000000000000e-07
 12
1.657751828350911
 22
0.000000000000000
 32
0.000000000000000
 13
0.9219145248762288
 23
0.9380604920822861
 33
0.000000000000000
 40
0.000000000000000
 40
0.000000000000000
 40
0.000000000000000
 40
0.000000000000000
 40
0.2222413879873369
 40
0.2222413879873369
 40
0.2222413879873369
 40
0.2222413879873369
 10
149.5747767763436
 20
151.1528151503482
 30
0.000000000000000
 10
149.6975837987674
 20
151.1528151503482
 30
0.000000000000000
 10
149.6994633856143
 20
151.1534986364744
 30
0.000000000000000
 10
149.7677592401524
 20
151.2229905917332
 30
0.000000000000000
  0
LINE
  5
E4
100
AcDbEntity
  8
A1
  6
CONTINUOUS
 62
7
100
AcDbLine
 10
149.4958294047854
 20
151.1528151503482
 30
0.000000000000000
 11
149.5747767763436
 21
151.1528151503482
 31
0.000000000000000
  0
LINE
  5
E5
100
AcDbEntity
  8
A1
  6
CONTINUOUS
 62
7
100
AcDbLine
 10
149.4958294047854
 20
151.0475519882707
 30
0.000000000000000
 11
149.4958294047854
 21
151.1528151503482
 31
0.000000000000000
  0
LINE
  5
E6
100
AcDbEntity
  8
A1
  6
CONTINUOUS
 62
7
100
AcDbLine
 10
149.7589873099793
 20
151.0475519882707
 30
0.000000000000000
 11
149.4958294047854
 21
151.0475519882707
 31
0.000000000000000
  0
LINE
  5
E7
100
AcDbEntity
  8
A1
  6
CONTINUOUS
 62
7
100
AcDbLine
 10
149.7589873099793
 20
149.8808852752448
 30
0.000000000000000
 11
149.7589873099793
 21
151.0475519882707
 31
0.000000000000000
  0
LINE
  5
E8
100
AcDbEntity
  8
A1
  6
CONTINUOUS
 62
7
100
AcDbLine
 10
150.7326715591963
 20
150.0387800183611
 30
0.000000000000000
 11
151.3905663221808
 21
150.0387800183611
 31
0.000000000000000
  0
SPLINE
  5
E9
100
AcDbEntity
  8
A1
  6
CONTINUOUS
 62
7
100
AcDbSpline
210
0.000000000000000
220
0.000000000000000
230
1.000000000000000
 70
     8
 71
     3
 72
     8
 73
     4
 74
     0
 42
1.000000000000000e-07
 43
1.000000000000000e-07
 12
-1.046600197739281
 22
-1.196114511702490
 32
0.000000000000000
 13
-0.7271180124771490
 23
-1.168843101918355
 33
0.000000000000000
 40
0.000000000000000
 40
0.000000000000000
 40
0.000000000000000
 40
0.000000000000000
 40
0.1760085026101962
 40
0.1760085026101962
 40
0.1760085026101962
 40
0.1760085026101962
 10
150.8379347212738
 20
150.1791309011312
 30
0.000000000000000
 10
150.7765312100620
 20
150.1089554597461
 30
0.000000000000000
 10
150.7753312100619
 20
150.1073554597461
 30
0.000000000000000
 10
150.7326715591963
 20
150.0387800183611
 30
0.000000000000000
  0
SPLINE
  5
EA
100
AcDbEntity
  8
A1
  6
CONTINUOUS
 62
7
100
AcDbSpline
210
0.000000000000000
220
0.000000000000000
230
1.000000000000000
 70
     8
 71
     3
 72
     8
 73
     4
 74
     0
 42
1.000000000000000e-07
 43
1.000000000000000e-07
 12
-0.9965457582447925
 22
-1.121113978025278
 32
0.000000000000000
 13
-0.9776767934772579
 23
-1.099886392661119
 33
0.000000000000000
 40
0.000000000000000
 40
0.000000000000000
 40
0.000000000000000
 40
0.000000000000000
 40
0.2112560536365145
 40
0.2112560536365145
 40
0.2112560536365145
 40
0.2112560536365145
 10
150.9782856040439
 20
150.3370256442474
 30
0.000000000000000
 10
150.9081101626589
 20
150.2580782726893
 30
0.000000000000000
 10
150.9067814349812
 20
150.2565834540519
 30
0.000000000000000
 10
150.8379347212738
 20
150.1791309011312
 30
0.000000000000000
  0
SPLINE
  5
EB
100
AcDbEntity
  8
A1
  6
CONTINUOUS
 62
7
100
AcDbSpline
210
0.000000000000000
220
0.000000000000000
230
1.000000000000000
 70
     8
 71
     3
 72
     8
 73
     4
 74
     0
 42
1.000000000000000e-07
 43
1.000000000000000e-07
 12
-0.9555325407861801
 22
-1.160289513811449
 32
0.000000000000000
 13
-1.013512472297862
 23
-1.080347914869662
 33
0.000000000000000
 40
0.000000000000000
 40
0.000000000000000
 40
0.000000000000000
 40
0.000000000000000
 40
0.3855662173139732
 40
0.3855662173139732
 40
0.3855662173139732
 40
0.3855662173139732
 10
151.2326715790645
 20
150.6264993399606
 30
0.000000000000000
 10
151.1098645566408
 20
150.4773765270175
 30
0.000000000000000
 10
151.1085443274253
 20
150.4758741972205
 30
0.000000000000000
 10
150.9782856040439
 20
150.3370256442474
 30
0.000000000000000
  0
SPLINE
  5
EC
100
AcDbEntity
  8
A1
  6
CONTINUOUS
 62
7
100
AcDbSpline
210
0.000000000000000
220
0.000000000000000
230
1.000000000000000
 70
     8
 71
     3
 72
     8
 73
     4
 74
     0
 42
1.000000000000000e-07
 43
1.000000000000000e-07
 12
0.000000000000000
 22
-1.517551774165895
 32
0.000000000000000
 13
-0.9436209840346237
 23
-1.124586981130733
 33
0.000000000000000
 40
0.000000000000000
 40
0.000000000000000
 40
0.000000000000000
 40
0.000000000000000
 40
0.4161828170985594
 40
0.4161828170985594
 40
0.4161828170985594
 40
0.4161828170985594
 10
151.3642505316614
 20
150.9949204072319
 30
0.000000000000000
 10
151.3642505316614
 20
150.7843940830769
 30
0.000000000000000
 10
151.3635778588674
 20
150.7825105992537
 30
0.000000000000000
 10
151.2326715790645
 20
150.6264993399606
 30
0.000000000000000
  0
SPLINE
  5
ED
100
AcDbEntity
  8
A1
  6
CONTINUOUS
 62
7
100
AcDbSpline
210
0.000000000000000
220
0.000000000000000
230
1.000000000000000
 70
     8
 71
     3
 72
     8
 73
     4
 74
     0
 42
1.000000000000000e-07
 43
1.000000000000000e-07
 12
1.042732295104088
 22
-1.042732295103860
 32
0.000000000000000
 13
-0.006883153145963661
 23
-1.507050208176906
 33
0.000000000000000
 40
0.000000000000000
 40
0.000000000000000
 40
0.000000000000000
 40
0.000000000000000
 40
0.3280854332010915
 40
0.3280854332010915
 40
0.3280854332010915
 40
0.3280854332010915
 10
151.2502154394108
 20
151.2756221727720
 30
0.000000000000000
 10
151.3642505316614
 20
151.1615870805213
 30
0.000000000000000
 10
151.3650032857553
 20
151.1597341473671
 30
0.000000000000000
 10
151.3642505316614
 20
150.9949204072319
 30
0.000000000000000
  0
SPLINE
  5
EE
100
AcDbEntity
  8
A1
  6
CONTINUOUS
 62
7
100
AcDbSpline
210
0.000000000000000
220
0.000000000000000
230
1.000000000000000
 70
     8
 71
     3
 72
     8
 73
     4
 74
     0
 42
1.000000000000000e-07
 43
1.000000000000000e-07
 12
1.633430571720965
 22
0.000000000000000
 32
0.000000000000000
 13
0.9493399769044117
 23
-0.9593147752038931
 33
0.000000000000000
 40
0.000000000000000
 40
0.000000000000000
 40
0.000000000000000
 40
0.000000000000000
 40
0.3544364856697840
 40
0.3544364856697840
 40
0.3544364856697840
 40
0.3544364856697840
 10
150.9431978833514
 20
151.3896572650226
 30
0.000000000000000
 10
151.1361803471601
 20
151.3896572650226
 30
0.000000000000000
 10
151.1380551977041
 20
151.3889608919634
 30
0.000000000000000
 10
151.2502154394108
 20
151.2756221727720
 30
0.000000000000000
  0
SPLINE
  5
EF
100
AcDbEntity
  8
A1
  6
CONTINUOUS
 62
7
100
AcDbSpline
210
0.000000000000000
220
0.000000000000000
230
1.000000000000000
 70
     8
 71
     3
 72
     8
 73
     4
 74
     0
 42
1.000000000000000e-07
 43
1.000000000000000e-07
 12
1.071348087778688
 22
1.071348087778915
 32
0.000000000000000
 13
1.466077199862411
 23
-0.007266515542141860
 33
0.000000000000000
 40
0.000000000000000
 40
0.000000000000000
 40
0.000000000000000
 40
0.000000000000000
 40
0.3193222451736085
 40
0.3193222451736085
 40
0.3193222451736085
 40
0.3193222451736085
 10
150.6712680479844
 20
151.2756221727720
 30
0.000000000000000
 10
150.7853031402351
 20
151.3896572650226
 30
0.000000000000000
 10
150.7871475289987
 20
151.3904307183751
 30
0.000000000000000
 10
150.9431978833514
 20
151.3896572650226
 30
0.000000000000000
  0
SPLINE
  5
F0
100
AcDbEntity
  8
A1
  6
CONTINUOUS
 62
7
100
AcDbSpline
210
0.000000000000000
220
0.000000000000000
230
1.000000000000000
 70
     8
 71
     3
 72
     8
 73
     4
 74
     0
 42
1.000000000000000e-07
 43
1.000000000000000e-07
 12
0.000000000000000
 22
1.733423080659009
 32
0.000000000000000
 13
0.8905614209170380
 23
0.8826010932846202
 33
0.000000000000000
 40
0.000000000000000
 40
0.000000000000000
 40
0.000000000000000
 40
0.000000000000000
 40
0.4706234243693883
 40
0.4706234243693883
 40
0.4706234243693883
 40
0.4706234243693883
 10
150.5309171652144
 20
150.8633414546350
 30
0.000000000000000
 10
150.5309171652144
 20
151.1352712900020
 30
0.000000000000000
 10
150.5315616928100
 20
151.1371645898140
 30
0.000000000000000
 10
150.6712680479844
 20
151.2756221727720
 30
0.000000000000000
  0
LINE
  5
F1
100
AcDbEntity
  8
A1
  6
CONTINUOUS
 62
7
100
AcDbLine
 10
150.7326715591963
 20
150.8633414546350
 30
0.000000000000000
 11
150.5309171652144
 21
150.8633414546350
 31
0.000000000000000
  0
SPLINE
  5
F2
100
AcDbEntity
  8
A1
  6
CONTINUOUS
 62
7
100
AcDbSpline
210
0.000000000000000
220
0.000000000000000
230
1.000000000000000
 70
     8
 71
     3
 72
     8
 73
     4
 74
     0
 42
1.000000000000000e-07
 43
1.000000000000000e-07
 12
-0.8340296877652236
 22
-0.8340296877649962
 32
0.000000000000000
 13
0.005183150384027613
 23
-1.803209294810131
 33
0.000000000000000
 40
0.000000000000000
 40
0.000000000000000
 40
0.000000000000000
 40
0.000000000000000
 40
0.3470784073512275
 40
0.3470784073512275
 40
0.3470784073512275
 40
0.3470784073512275
 10
150.8291627911007
 20
151.1703590106945
 30
0.000000000000000
 10
150.7326715591963
 20
151.0738677787901
 30
0.000000000000000
 10
150.7320719060028
 20
151.0719597913562
 30
0.000000000000000
 10
150.7326715591963
 20
150.8633414546350
 30
0.000000000000000
  0
SPLINE
  5
F3
100
AcDbEntity
  8
A1
  6
CONTINUOUS
 62
7
100
AcDbSpline
210
0.000000000000000
220
0.000000000000000
230
1.000000000000000
 70
     8
 71
     3
 72
     8
 73
     4
 74
     0
 42
1.000000000000000e-07
 43
1.000000000000000e-07
 12
-1.454367228829597
 22
0.000000000000000
 32
0.000000000000000
 13
-1.052677352445698
 23
-1.074447677689022
 33
0.000000000000000
 40
0.000000000000000
 40
0.000000000000000
 40
0.000000000000000
 40
0.000000000000000
 40
0.1447545846618495
 40
0.1447545846618495
 40
0.1447545846618495
 40
0.1447545846618495
 10
150.9519698135245
 20
151.2229905917332
 30
0.000000000000000
 10
150.8817943721395
 20
151.2229905917332
 30
0.000000000000000
 10
150.8799560820794
 20
151.2222027531360
 30
0.000000000000000
 10
150.8291627911007
 20
151.1703590106945
 30
0.000000000000000
  0
SPLINE
  5
F4
100
AcDbEntity
  8
A1
  6
CONTINUOUS
 62
7
100
AcDbSpline
210
0.000000000000000
220
0.000000000000000
230
1.000000000000000
 70
     8
 71
     3
 72
     8
 73
     4
 74
     0
 42
1.000000000000000e-07
 43
1.000000000000000e-07
 12
-1.028454089675051
 22
1.028454089674597
 32
0.000000000000000
 13
-1.506395101257112
 23
-0.01451441330254966
 33
0.000000000000000
 40
0.000000000000000
 40
0.000000000000000
 40
0.000000000000000
 40
0.000000000000000
 40
0.1535262922297460
 40
0.1535262922297460
 40
0.1535262922297460
 40
0.1535262922297460
 10
151.0835487661214
 20
151.1703590106945
 30
0.000000000000000
 10
151.0309171850826
 20
151.2229905917332
 30
0.000000000000000
 10
151.0290602317008
 20
151.2237333730859
 30
0.000000000000000
 10
150.9519698135245
 20
151.2229905917332
 30
0.000000000000000
  0
SPLINE
  5
F5
100
AcDbEntity
  8
A1
  6
CONTINUOUS
 62
7
100
AcDbSpline
210
0.000000000000000
220
0.000000000000000
230
1.000000000000000
 70
     8
 71
     3
 72
     8
 73
     4
 74
     0
 42
1.000000000000000e-07
 43
1.000000000000000e-07
 12
0.000000000000000
 22
1.542911807455312
 32
0.000000000000000
 13
-1.017720433934755
 23
1.001389277381350
 33
0.000000000000000
 40
0.000000000000000
 40
0.000000000000000
 40
0.000000000000000
 40
0.000000000000000
 40
0.2046711190533659
 40
0.2046711190533659
 40
0.2046711190533659
 40
0.2046711190533659
 10
151.1537242075064
 20
150.9949204072319
 30
0.000000000000000
 10
151.1537242075064
 20
151.1001835693095
 30
0.000000000000000
 10
151.1529814261537
 20
151.1020405226912
 30
0.000000000000000
 10
151.0835487661214
 20
151.1703590106945
 30
0.000000000000000
  0
SPLINE
  5
F6
100
AcDbEntity
  8
A1
  6
CONTINUOUS
 62
7
100
AcDbSpline
210
0.000000000000000
220
0.000000000000000
230
1.000000000000000
 70
     8
 71
     3
 72
     8
 73
     4
 74
     0
 42
1.000000000000000e-07
 43
1.000000000000000e-07
 12
1.138928426876646
 22
1.205924216693347
 32
0.000000000000000
 13
-0.006237807686375163
 23
1.325972461498168
 33
0.000000000000000
 40
0.000000000000000
 40
0.000000000000000
 40
0.000000000000000
 40
0.000000000000000
 40
0.3927976756680009
 40
0.3927976756680009
 40
0.3927976756680009
 40
0.3927976756680009
 10
151.0046013945633
 20
150.6615870606531
 30
0.000000000000000
 10
151.1537242075064
 20
150.8194818037694
 30
0.000000000000000
 10
151.1545409396265
 20
150.8213074402732
 30
0.000000000000000
 10
151.1537242075064
 20
150.9949204072319
 30
0.000000000000000
  0
SPLINE
  5
F7
100
AcDbEntity
  8
A1
  6
CONTINUOUS
 62
7
100
AcDbSpline
210
0.000000000000000
220
0.000000000000000
230
1.000000000000000
 70
     8
 71
     3
 72
     8
 73
     4
 74
     0
 42
1.000000000000000e-07
 43
1.000000000000000e-07
 12
1.231932771847255
 22
1.330487393595263
 32
0.000000000000000
 13
0.7808701613751055
 23
0.8786865575021920
 33
0.000000000000000
 40
0.000000000000000
 40
0.000000000000000
 40
0.000000000000000
 40
0.000000000000000
 40
0.5340346308005155
 40
0.5340346308005155
 40
0.5340346308005155
 40
0.5340346308005155
 10
150.6449522574651
 20
150.2668502028624
 30
0.000000000000000
 10
150.8642505117932
 20
150.5036923175369
 30
0.000000000000000
 10
150.8655974917856
 20
150.5051707102114
 30
0.000000000000000
 10
151.0046013945633
 20
150.6615870606531
 30
0.000000000000000
  0
SPLINE
  5
F8
100
AcDbEntity
  8
A1
  6
CONTINUOUS
 62
7
100
AcDbSpline
210
0.000000000000000
220
0.000000000000000
230
1.000000000000000
 70
     8
 71
     3
 72
     8
 73
     4
 74
     0
 42
1.000000000000000e-07
 43
1.000000000000000e-07
 12
0.1784050137637223
 22
0.8920250688174747
 32
0.000000000000000
 13
1.327482537311425
 23
1.588260309423276
 33
0.000000000000000
 40
0.000000000000000
 40
0.000000000000000
 40
0.000000000000000
 40
0.000000000000000
 40
0.2950117820595730
 40
0.2950117820595730
 40
0.2950117820595730
 40
0.2950117820595730
 10
150.4958294445219
 20
150.0212361580149
 30
0.000000000000000
 10
150.5133733048682
 20
150.1089554597461
 30
0.000000000000000
 10
150.5144112611366
 20
150.1106650347766
 30
0.000000000000000
 10
150.6449522574651
 20
150.2668502028624
 30
0.000000000000000
  0
LINE
  5
F9
100
AcDbEntity
  8
A1
  6
CONTINUOUS
 62
7
100
AcDbLine
 10
150.4958294445219
 20
149.8721133450717
 30
0.000000000000000
 11
150.4958294445219
 21
150.0212361580149
 31
0.000000000000000
  0
LINE
  5
FA
100
AcDbEntity
  8
A1
  6
CONTINUOUS
 62
7
100
AcDbLine
 10
151.3905663221808
 20
149.8721133450717
 30
0.000000000000000
 11
150.4958294445219
 21
149.8721133450717
 31
0.000000000000000
  0
LINE
  5
FB
100
AcDbEntity
  8
A1
  6
CONTINUOUS
 62
7
100
AcDbLine
 10
151.3905663221808
 20
150.0387800183611
 30
0.000000000000000
 11
151.3905663221808
 21
149.8721133450717
 31
0.000000000000000
  0
LINE
  5
FC
100
AcDbEntity
  8
A1
  6
CONTINUOUS
 62
7
100
AcDbLine
 10
151.8554786213565
 20
150.0387800183611
 30
0.000000000000000
 11
152.5133733843410
 21
150.0387800183611
 31
0.000000000000000
  0
SPLINE
  5
FD
100
AcDbEntity
  8
A1
  6
CONTINUOUS
 62
7
100
AcDbSpline
210
0.000000000000000
220
0.000000000000000
230
1.000000000000000
 70
     8
 71
     3
 72
     8
 73
     4
 74
     0
 42
1.000000000000000e-07
 43
1.000000000000000e-07
 12
-1.046600197739735
 22
-1.196114511702490
 32
0.000000000000000
 13
-0.7271180124757848
 23
-1.168843101918355
 33
0.000000000000000
 40
0.000000000000000
 40
0.000000000000000
 40
0.000000000000000
 40
0.000000000000000
 40
0.1760085026101999
 40
0.1760085026101999
 40
0.1760085026101999
 40
0.1760085026101999
 10
151.9607417834340
 20
150.1791309011312
 30
0.000000000000000
 10
151.8993382722221
 20
150.1089554597461
 30
0.000000000000000
 10
151.8981382722221
 20
150.1073554597461
 30
0.000000000000000
 10
151.8554786213565
 20
150.0387800183611
 30
0.000000000000000
  0
SPLINE
  5
FE
100
AcDbEntity
  8
A1
  6
CONTINUOUS
 62
7
100
AcDbSpline
210
0.000000000000000
220
0.000000000000000
230
1.000000000000000
 70
     8
 71
     3
 72
     8
 73
     4
 74
     0
 42
1.000000000000000e-07
 43
1.000000000000000e-07
 12
-0.9965457582447925
 22
-1.121113978025278
 32
0.000000000000000
 13
-0.9776767934772579
 23
-1.099886392661574
 33
0.000000000000000
 40
0.000000000000000
 40
0.000000000000000
 40
0.000000000000000
 40
0.000000000000000
 40
0.2112560536365146
 40
0.2112560536365146
 40
0.2112560536365146
 40
0.2112560536365146
 10
152.1010926662040
 20
150.3370256442474
 30
0.000000000000000
 10
152.0309172248190
 20
150.2580782726893
 30
0.000000000000000
 10
152.0295884971414
 20
150.2565834540519
 30
0.000000000000000
 10
151.9607417834340
 20
150.1791309011312
 30
0.000000000000000
  0
SPLINE
  5
FF
100
AcDbEntity
  8
A1
  6
CONTINUOUS
 62
7
100
AcDbSpline
210
0.000000000000000
220
0.000000000000000
230
1.000000000000000
 70
     8
 71
     3
 72
     8
 73
     4
 74
     0
 42
1.000000000000000e-07
 43
1.000000000000000e-07
 12
-0.9555325407861801
 22
-1.160289513811449
 32
0.000000000000000
 13
-1.013512472298089
 23
-1.080347914869890
 33
0.000000000000000
 40
0.000000000000000
 40
0.000000000000000
 40
0.000000000000000
 40
0.000000000000000
 40
0.3855662173139635
 40
0.3855662173139635
 40
0.3855662173139635
 40
0.3855662173139635
 10
152.3554786412247
 20
150.6264993399606
 30
0.000000000000000
 10
152.2326716188009
 20
150.4773765270175
 30
0.000000000000000
 10
152.2313513895855
 20
150.4758741972205
 30
0.000000000000000
 10
152.1010926662040
 20
150.3370256442474
 30
0.000000000000000
  0
SPLINE
  5
100
100
AcDbEntity
  8
A1
  6
CONTINUOUS
 62
7
100
AcDbSpline
210
0.000000000000000
220
0.000000000000000
230
1.000000000000000
 70
     8
 71
     3
 72
     8
 73
     4
 74
     0
 42
1.000000000000000e-07
 43
1.000000000000000e-07
 12
0.000000000000000
 22
-1.517551774165895
 32
0.000000000000000
 13
-0.9436209840343963
 23
-1.124586981130733
 33
0.000000000000000
 40
0.000000000000000
 40
0.000000000000000
 40
0.000000000000000
 40
0.000000000000000
 40
0.4161828170985594
 40
0.4161828170985594
 40
0.4161828170985594
 40
0.4161828170985594
 10
152.4870575938216
 20
150.9949204072319
 30
0.000000000000000
 10
152.4870575938216
 20
150.7843940830769
 30
0.000000000000000
 10
152.4863849210276
 20
150.7825105992537
 30
0.000000000000000
 10
152.3554786412247
 20
150.6264993399606
 30
0.000000000000000
  0
SPLINE
  5
101
100
AcDbEntity
  8
A1
  6
CONTINUOUS
 62
7
100
AcDbSpline
210
0.000000000000000
220
0.000000000000000
230
1.000000000000000
 70
     8
 71
     3
 72
     8
 73
     4
 74
     0
 42
1.000000000000000e-07
 43
1.000000000000000e-07
 12
1.042732295103406
 22
-1.042732295103860
 32
0.000000000000000
 13
-0.006883153146191034
 23
-1.507050208176906
 33
0.000000000000000
 40
0.000000000000000
 40
0.000000000000000
 40
0.000000000000000
 40
0.000000000000000
 40
0.3280854332010814
 40
0.3280854332010814
 40
0.3280854332010814
 40
0.3280854332010814
 10
152.3730225015710
 20
151.2756221727720
 30
0.000000000000000
 10
152.4870575938216
 20
151.1615870805213
 30
0.000000000000000
 10
152.4878103479155
 20
151.1597341473671
 30
0.000000000000000
 10
152.4870575938216
 20
150.9949204072319
 30
0.000000000000000
  0
SPLINE
  5
102
100
AcDbEntity
  8
A1
  6
CONTINUOUS
 62
7
100
AcDbSpline
210
0.000000000000000
220
0.000000000000000
230
1.000000000000000
 70
     8
 71
     3
 72
     8
 73
     4
 74
     0
 42
1.000000000000000e-07
 43
1.000000000000000e-07
 12
1.633430571720965
 22
0.000000000000000
 32
0.000000000000000
 13
0.9493399769046391
 23
-0.9593147752038931
 33
0.000000000000000
 40
0.000000000000000
 40
0.000000000000000
 40
0.000000000000000
 40
0.000000000000000
 40
0.3544364856697840
 40
0.3544364856697840
 40
0.3544364856697840
 40
0.3544364856697840
 10
152.0660049455115
 20
151.3896572650226
 30
0.000000000000000
 10
152.2589874093203
 20
151.3896572650226
 30
0.000000000000000
 10
152.2608622598644
 20
151.3889608919634
 30
0.000000000000000
 10
152.3730225015710
 20
151.2756221727720
 30
0.000000000000000
  0
SPLINE
  5
103
100
AcDbEntity
  8
A1
  6
CONTINUOUS
 62
7
100
AcDbSpline
210
0.000000000000000
220
0.000000000000000
230
1.000000000000000
 70
     8
 71
     3
 72
     8
 73
     4
 74
     0
 42
1.000000000000000e-07
 43
1.000000000000000e-07
 12
1.071348087778233
 22
1.071348087778915
 32
0.000000000000000
 13
1.466077199861957
 23
-0.007266515542369234
 33
0.000000000000000
 40
0.000000000000000
 40
0.000000000000000
 40
0.000000000000000
 40
0.000000000000000
 40
0.3193222451736126
 40
0.3193222451736126
 40
0.3193222451736126
 40
0.3193222451736126
 10
151.7940751101446
 20
151.2756221727720
 30
0.000000000000000
 10
151.9081102023952
 20
151.3896572650226
 30
0.000000000000000
 10
151.9099545911589
 20
151.3904307183751
 30
0.000000000000000
 10
152.0660049455115
 20
151.3896572650226
 30
0.000000000000000
  0
SPLINE
  5
104
100
AcDbEntity
  8
A1
  6
CONTINUOUS
 62
7
100
AcDbSpline
210
0.000000000000000
220
0.000000000000000
230
1.000000000000000
 70
     8
 71
     3
 72
     8
 73
     4
 74
     0
 42
1.000000000000000e-07
 43
1.000000000000000e-07
 12
0.000000000000000
 22
1.733423080659122
 32
0.000000000000000
 13
0.8905614209170380
 23
0.8826010932847339
 33
0.000000000000000
 40
0.000000000000000
 40
0.000000000000000
 40
0.000000000000000
 40
0.000000000000000
 40
0.4706234243693782
 40
0.4706234243693782
 40
0.4706234243693782
 40
0.4706234243693782
 10
151.6537242273746
 20
150.8633414546350
 30
0.000000000000000
 10
151.6537242273746
 20
151.1352712900020
 30
0.000000000000000
 10
151.6543687549702
 20
151.1371645898140
 30
0.000000000000000
 10
151.7940751101446
 20
151.2756221727720
 30
0.000000000000000
  0
LINE
  5
105
100
AcDbEntity
  8
A1
  6
CONTINUOUS
 62
7
100
AcDbLine
 10
151.8554786213565
 20
150.8633414546350
 30
0.000000000000000
 11
151.6537242273746
 21
150.8633414546350
 31
0.000000000000000
  0
SPLINE
  5
106
100
AcDbEntity
  8
A1
  6
CONTINUOUS
 62
7
100
AcDbSpline
210
0.000000000000000
220
0.000000000000000
230
1.000000000000000
 70
     8
 71
     3
 72
     8
 73
     4
 74
     0
 42
1.000000000000000e-07
 43
1.000000000000000e-07
 12
-0.8340296877649962
 22
-0.8340296877649962
 32
0.000000000000000
 13
0.005183150384482360
 23
-1.803209294810131
 33
0.000000000000000
 40
0.000000000000000
 40
0.000000000000000
 40
0.000000000000000
 40
0.000000000000000
 40
0.3470784073512275
 40
0.3470784073512275
 40
0.3470784073512275
 40
0.3470784073512275
 10
151.9519698532609
 20
151.1703590106945
 30
0.000000000000000
 10
151.8554786213565
 20
151.0738677787901
 30
0.000000000000000
 10
151.8548789681630
 20
151.0719597913562
 30
0.000000000000000
 10
151.8554786213565
 20
150.8633414546350
 30
0.000000000000000
  0
SPLINE
  5
107
100
AcDbEntity
  8
A1
  6
CONTINUOUS
 62
7
100
AcDbSpline
210
0.000000000000000
220
0.000000000000000
230
1.000000000000000
 70
     8
 71
     3
 72
     8
 73
     4
 74
     0
 42
1.000000000000000e-07
 43
1.000000000000000e-07
 12
-1.454367228829597
 22
0.000000000000000
 32
0.000000000000000
 13
-1.052677352444789
 23
-1.074447677689477
 33
0.000000000000000
 40
0.000000000000000
 40
0.000000000000000
 40
0.000000000000000
 40
0.000000000000000
 40
0.1447545846618538
 40
0.1447545846618538
 40
0.1447545846618538
 40
0.1447545846618538
 10
152.0747768756847
 20
151.2229905917332
 30
0.000000000000000
 10
152.0046014342996
 20
151.2229905917332
 30
0.000000000000000
 10
152.0027631442396
 20
151.2222027531360
 30
0.000000000000000
 10
151.9519698532609
 20
151.1703590106945
 30
0.000000000000000
  0
SPLINE
  5
108
100
AcDbEntity
  8
A1
  6
CONTINUOUS
 62
7
100
AcDbSpline
210
0.000000000000000
220
0.000000000000000
230
1.000000000000000
 70
     8
 71
     3
 72
     8
 73
     4
 74
     0
 42
1.000000000000000e-07
 43
1.000000000000000e-07
 12
-1.028454089674597
 22
1.028454089674597
 32
0.000000000000000
 13
-1.506395101257567
 23
-0.01451441330254966
 33
0.000000000000000
 40
0.000000000000000
 40
0.000000000000000
 40
0.000000000000000
 40
0.000000000000000
 40
0.1535262922297360
 40
0.1535262922297360
 40
0.1535262922297360
 40
0.1535262922297360
 10
152.2063558282816
 20
151.1703590106945
 30
0.000000000000000
 10
152.1537242472428
 20
151.2229905917332
 30
0.000000000000000
 10
152.1518672938610
 20
151.2237333730859
 30
0.000000000000000
 10
152.0747768756847
 20
151.2229905917332
 30
0.000000000000000
  0
SPLINE
  5
109
100
AcDbEntity
  8
A1
  6
CONTINUOUS
 62
7
100
AcDbSpline
210
0.000000000000000
220
0.000000000000000
230
1.000000000000000
 70
     8
 71
     3
 72
     8
 73
     4
 74
     0
 42
1.000000000000000e-07
 43
1.000000000000000e-07
 12
0.000000000000000
 22
1.542911807454857
 32
0.000000000000000
 13
-1.017720433935210
 23
1.001389277381350
 33
0.000000000000000
 40
0.000000000000000
 40
0.000000000000000
 40
0.000000000000000
 40
0.000000000000000
 40
0.2046711190533760
 40
0.2046711190533760
 40
0.2046711190533760
 40
0.2046711190533760
 10
152.2765312696666
 20
150.9949204072319
 30
0.000000000000000
 10
152.2765312696666
 20
151.1001835693095
 30
0.000000000000000
 10
152.2757884883139
 20
151.1020405226912
 30
0.000000000000000
 10
152.2063558282816
 20
151.1703590106945
 30
0.000000000000000
  0
SPLINE
  5
10A
100
AcDbEntity
  8
A1
  6
CONTINUOUS
 62
7
100
AcDbSpline
210
0.000000000000000
220
0.000000000000000
230
1.000000000000000
 70
     8
 71
     3
 72
     8
 73
     4
 74
     0
 42
1.000000000000000e-07
 43
1.000000000000000e-07
 12
1.138928426876873
 22
1.205924216693347
 32
0.000000000000000
 13
-0.006237807685920416
 23
1.325972461498168
 33
0.000000000000000
 40
0.000000000000000
 40
0.000000000000000
 40
0.000000000000000
 40
0.000000000000000
 40
0.3927976756680107
 40
0.3927976756680107
 40
0.3927976756680107
 40
0.3927976756680107
 10
152.1274084567234
 20
150.6615870606531
 30
0.000000000000000
 10
152.2765312696666
 20
150.8194818037694
 30
0.000000000000000
 10
152.2773480017867
 20
150.8213074402732
 30
0.000000000000000
 10
152.2765312696666
 20
150.9949204072319
 30
0.000000000000000
  0
SPLINE
  5
10B
100
AcDbEntity
  8
A1
  6
CONTINUOUS
 62
7
100
AcDbSpline
210
0.000000000000000
220
0.000000000000000
230
1.000000000000000
 70
     8
 71
     3
 72
     8
 73
     4
 74
     0
 42
1.000000000000000e-07
 43
1.000000000000000e-07
 12
1.231932771847369
 22
1.330487393595263
 32
0.000000000000000
 13
0.7808701613748781
 23
0.8786865575021920
 33
0.000000000000000
 40
0.000000000000000
 40
0.000000000000000
 40
0.000000000000000
 40
0.000000000000000
 40
0.5340346308005155
 40
0.5340346308005155
 40
0.5340346308005155
 40
0.5340346308005155
 10
151.7677593196252
 20
150.2668502028624
 30
0.000000000000000
 10
151.9870575739534
 20
150.5036923175369
 30
0.000000000000000
 10
151.9884045539458
 20
150.5051707102114
 30
0.000000000000000
 10
152.1274084567234
 20
150.6615870606531
 30
0.000000000000000
  0
SPLINE
  5
10C
100
AcDbEntity
  8
A1
  6
CONTINUOUS
 62
7
100
AcDbSpline
210
0.000000000000000
220
0.000000000000000
230
1.000000000000000
 70
     8
 71
     3
 72
     8
 73
     4
 74
     0
 42
1.000000000000000e-07
 43
1.000000000000000e-07
 12
0.1784050137634949
 22
0.8920250688177020
 32
0.000000000000000
 13
1.327482537311425
 23
1.588260309423276
 33
0.000000000000000
 40
0.000000000000000
 40
0.000000000000000
 40
0.000000000000000
 40
0.000000000000000
 40
0.2950117820595674
 40
0.2950117820595674
 40
0.2950117820595674
 40
0.2950117820595674
 10
151.6186365066821
 20
150.0212361580149
 30
0.000000000000000
 10
151.6361803670283
 20
150.1089554597461
 30
0.000000000000000
 10
151.6372183232968
 20
150.1106650347766
 30
0.000000000000000
 10
151.7677593196252
 20
150.2668502028624
 30
0.000000000000000
  0
LINE
  5
10D
100
AcDbEntity
  8
A1
  6
CONTINUOUS
 62
7
100
AcDbLine
 10
151.6186365066821
 20
149.8721133450717
 30
0.000000000000000
 11
151.6186365066821
 21
150.0212361580149
 31
0.000000000000000
  0
LINE
  5
10E
100
AcDbEntity
  8
A1
  6
CONTINUOUS
 62
7
100
AcDbLine
 10
152.5133733843410
 20
149.8721133450717
 30
0.000000000000000
 11
151.6186365066821
 21
149.8721133450717
 31
0.000000000000000
  0
LINE
  5
10F
100
AcDbEntity
  8
A1
  6
CONTINUOUS
 62
7
100
AcDbLine
 10
152.5133733843410
 20
150.0387800183611
 30
0.000000000000000
 11
152.5133733843410
 21
149.8721133450717
 31
0.000000000000000
  0
LINE
  5
110
100
AcDbEntity
  8
A1
  6
CONTINUOUS
 62
7
100
AcDbLine
 10
152.6888119878035
 20
150.7142186416919
 30
0.000000000000000
 11
153.6888120275400
 21
150.7142186416919
 31
0.000000000000000
  0
LINE
  5
111
100
AcDbEntity
  8
A1
  6
CONTINUOUS
 62
7
100
AcDbLine
 10
152.6888119878035
 20
150.5738677589219
 30
0.000000000000000
 11
152.6888119878035
 21
150.7142186416919
 31
0.000000000000000
  0
LINE
  5
112
100
AcDbEntity
  8
A1
  6
CONTINUOUS
 62
7
100
AcDbLine
 10
153.6888120275400
 20
150.5738677589219
 30
0.000000000000000
 11
152.6888119878035
 21
150.5738677589219
 31
0.000000000000000
  0
LINE
  5
113
100
AcDbEntity
  8
A1
  6
CONTINUOUS
 62
7
100
AcDbLine
 10
153.6888120275400
 20
150.7142186416919
 30
0.000000000000000
 11
153.6888120275400
 21
150.5738677589219
 31
0.000000000000000
  0
LINE
  5
114
100
AcDbEntity
  8
A4
  6
CENTER
 62
1
100
AcDbLine
 10
155.5528471595270
 20
150.6484291115401
 30
0.000000000000000
 11
159.8730222234160
 21
150.6484291115401
 31
0.000000000000000
  0
SPLINE
  5
115
100
AcDbEntity
  8
A1
  6
CONTINUOUS
 62
7
100
AcDbSpline
210
0.000000000000000
220
0.000000000000000
230
1.000000000000000
 70
     8
 71
     3
 72
    10
 73
     6
 74
     0
 42
1.000000000000000e-07
 43
1.000000000000000e-07
 12
-0.9999195633663476
 22
-0.01268332746803935
 32
0.000000000000000
 13
-0.7095677802626597
 23
0.7046371869346331
 33
0.000000000000000
 40
0.000000000000000
 40
0.000000000000000
 40
0.000000000000000
 40
0.000000000000000
 40
0.09385841019801200
 40
0.1818492559881962
 40
0.3186854271325223
 40
0.3186854271325223
 40
0.3186854271325223
 40
0.3186854271325223
 10
154.2940752094856
 20
149.8545694847255
 30
0.000000000000000
 10
154.2627915893045
 20
149.8541726724081
 30
0.000000000000000
 10
154.2019220457261
 20
149.8600751310447
 30
0.000000000000000
 10
154.0997604762051
 20
149.8917679470615
 30
0.000000000000000
 10
154.0369663598454
 20
149.9364646254074
 30
0.000000000000000
 10
154.0046015137726
 20
149.9686045769760
 30
0.000000000000000
  0
SPLINE
  5
116
100
AcDbEntity
  8
A1
  6
CONTINUOUS
 62
7
100
AcDbSpline
210
0.000000000000000
220
0.000000000000000
230
1.000000000000000
 70
     8
 71
     3
 72
    10
 73
     6
 74
     0
 42
1.000000000000000e-07
 43
1.000000000000000e-07
 12
-0.7036194503716615
 22
-0.7105769972786220
 32
0.000000000000000
 13
-0.9998906824071128
 23
0.01478591347677138
 33
0.000000000000000
 40
0.000000000000000
 40
0.000000000000000
 40
0.000000000000000
 40
0.000000000000000
 40
0.09440778704447660
 40
0.1866879650775902
 40
0.3387750658433254
 40
0.3387750658433254
 40
0.3387750658433254
 40
0.3387750658433254
 10
154.6010927655452
 20
149.9773765071492
 30
0.000000000000000
 10
154.5789503804682
 20
149.9550151732032
 30
0.000000000000000
 10
154.5300050556451
 20
149.9154870921431
 30
0.000000000000000
 10
154.4274141685191
 20
149.8664427722817
 30
0.000000000000000
 10
154.3447653678089
 20
149.8538199024879
 30
0.000000000000000
 10
154.2940752094856
 20
149.8545694847255
 30
0.000000000000000
  0
SPLINE
  5
117
100
AcDbEntity
  8
A1
  6
CONTINUOUS
 62
7
100
AcDbSpline
210
0.000000000000000
220
0.000000000000000
230
1.000000000000000
 70
     8
 71
     3
 72
    11
 73
     7
 74
     0
 42
1.000000000000000e-07
 43
1.000000000000000e-07
 12
0.02013837974800481
 22
-0.9997972022670183
 32
0.000000000000000
 13
-0.7028158666262243
 23
-0.7113718139044067
 33
0.000000000000000
 40
0.000000000000000
 40
0.000000000000000
 40
0.000000000000000
 40
0.000000000000000
 40
0.1565053251555209
 40
0.2955629283151175
 40
0.3967563145458496
 40
0.4949377314689297
 40
0.4949377314689297
 40
0.4949377314689297
 40
0.4949377314689297
 10
154.7589875086614
 20
150.4335168761517
 30
0.000000000000000
 10
154.7600380965516
 20
150.3813590140749
 30
0.000000000000000
 10
154.7518247883037
 20
150.2825345210013
 30
0.000000000000000
 10
154.7181487514076
 20
150.1537106280456
 30
0.000000000000000
 10
154.6664482900055
 20
150.0525649034675
 30
0.000000000000000
 10
154.6240939180856
 20
150.0006576713652
 30
0.000000000000000
 10
154.6010927655452
 20
149.9773765071492
 30
0.000000000000000
  0
SPLINE
  5
118
100
AcDbEntity
  8
A1
  6
CONTINUOUS
 62
7
100
AcDbSpline
210
0.000000000000000
220
0.000000000000000
230
1.000000000000000
 70
     8
 71
     3
 72
    10
 73
     6
 74
     0
 42
1.000000000000000e-07
 43
1.000000000000000e-07
 12
0.6965593450986489
 22
-0.7174991838001006
 32
0.000000000000000
 13
-0.03863734754486359
 23
-0.9992532989067513
 33
0.000000000000000
 40
0.000000000000000
 40
0.000000000000000
 40
0.000000000000000
 40
0.000000000000000
 40
0.09765784204611330
 40
0.2012386647525582
 40
0.3890940986286079
 40
0.3890940986286079
 40
0.3890940986286079
 40
0.3890940986286079
 10
154.6361804862377
 20
150.7931660132500
 30
0.000000000000000
 10
154.6588553137375
 20
150.7698095392634
 30
0.000000000000000
 10
154.7005104553620
 20
150.7160013399237
 30
0.000000000000000
 10
154.7485294212980
 20
150.5944661724094
 30
0.000000000000000
 10
154.7614069205570
 20
150.4960885968245
 30
0.000000000000000
 10
154.7589875086614
 20
150.4335168761517
 30
0.000000000000000
  0
SPLINE
  5
119
100
AcDbEntity
  8
A1
  6
CONTINUOUS
 62
7
100
AcDbSpline
210
0.000000000000000
220
0.000000000000000
230
1.000000000000000
 70
     8
 71
     3
 72
    10
 73
     6
 74
     0
 42
1.000000000000000e-07
 43
1.000000000000000e-07
 12
0.9999195633672571
 22
0.01268332746712986
 32
0.000000000000000
 13
0.7095677802631144
 23
-0.7046371869350878
 33
0.000000000000000
 40
0.000000000000000
 40
0.000000000000000
 40
0.000000000000000
 40
0.000000000000000
 40
0.09385841019802610
 40
0.1818492559882307
 40
0.3186854271326092
 40
0.3186854271326092
 40
0.3186854271326092
 40
0.3186854271326092
 10
154.3467067905245
 20
150.9072011055007
 30
0.000000000000000
 10
154.3779904107056
 20
150.9075979178180
 30
0.000000000000000
 10
154.4388599542841
 20
150.9016954591814
 30
0.000000000000000
 10
154.5410215238051
 20
150.8700026431644
 30
0.000000000000000
 10
154.6038156401648
 20
150.8253059648187
 30
0.000000000000000
 10
154.6361804862377
 20
150.7931660132500
 30
0.000000000000000
  0
SPLINE
  5
11A
100
AcDbEntity
  8
A1
  6
CONTINUOUS
 62
7
100
AcDbSpline
210
0.000000000000000
220
0.000000000000000
230
1.000000000000000
 70
     8
 71
     3
 72
     9
 73
     5
 74
     0
 42
1.000000000000000e-07
 43
1.000000000000000e-07
 12
0.7146099874576066
 22
0.6995230988504773
 32
0.000000000000000
 13
0.9996455546565812
 23
0.02662264179298290
 33
0.000000000000000
 40
0.000000000000000
 40
0.000000000000000
 40
0.000000000000000
 40
0.000000000000000
 40
0.1579654714331533
 40
0.2721909605146683
 40
0.2721909605146683
 40
0.2721909605146683
 40
0.2721909605146683
 10
154.1010927456769
 20
150.8019379434230
 30
0.000000000000000
 10
154.1387206468634
 20
150.8387714421192
 30
0.000000000000000
 10
154.2174788923553
 20
150.8908026341171
 30
0.000000000000000
 10
154.3086451230615
 20
150.9061874440742
 30
0.000000000000000
 10
154.3467067905245
 20
150.9072011055007
 30
0.000000000000000
  0
SPLINE
  5
11B
100
AcDbEntity
  8
A1
  6
CONTINUOUS
 62
7
100
AcDbSpline
210
0.000000000000000
220
0.000000000000000
230
1.000000000000000
 70
     8
 71
     3
 72
     9
 73
     5
 74
     0
 42
1.000000000000000e-07
 43
1.000000000000000e-07
 12
-0.3203887547533668
 22
-0.9472861478116101
 32
0.000000000000000
 13
-0.003601854852604447
 23
-0.9999935133018880
 33
0.000000000000000
 40
0.000000000000000
 40
0.000000000000000
 40
0.000000000000000
 40
0.000000000000000
 40
0.03031031927161160
 40
0.05353056811196980
 40
0.05353056811196980
 40
0.05353056811196980
 40
0.05353056811196980
 10
154.1098646758501
 20
150.8545695244619
 30
0.000000000000000
 10
154.1066276473675
 20
150.8449986759346
 30
0.000000000000000
 10
154.1024136160013
 20
150.8275351872958
 30
0.000000000000000
 10
154.1011206243322
 20
150.8096779761622
 30
0.000000000000000
 10
154.1010927456769
 20
150.8019379434230
 30
0.000000000000000
  0
SPLINE
  5
11C
100
AcDbEntity
  8
A1
  6
CONTINUOUS
 62
7
100
AcDbSpline
210
0.000000000000000
220
0.000000000000000
230
1.000000000000000
 70
     8
 71
     3
 72
     9
 73
     5
 74
     0
 42
1.000000000000000e-07
 43
1.000000000000000e-07
 12
-0.05177285504487372
 22
-0.9986588864471742
 32
0.000000000000000
 13
-0.1097936531723462
 23
-0.9939544022363407
 33
0.000000000000000
 40
0.000000000000000
 40
0.000000000000000
 40
0.000000000000000
 40
0.000000000000000
 40
0.1843443840583428
 40
0.3256604153347230
 40
0.3256604153347230
 40
0.3256604153347230
 40
0.3256604153347230
 10
154.1361804663695
 20
151.1791309408676
 30
0.000000000000000
 10
154.1329991213447
 20
151.1177652217654
 30
0.000000000000000
 10
154.1255920706426
 20
151.0094408741481
 30
0.000000000000000
 10
154.1150365436253
 20
150.9013900882598
 30
0.000000000000000
 10
154.1098646758501
 20
150.8545695244619
 30
0.000000000000000
  0
SPLINE
  5
11D
100
AcDbEntity
  8
A1
  6
CONTINUOUS
 62
7
100
AcDbSpline
210
0.000000000000000
220
0.000000000000000
230
1.000000000000000
 70
     8
 71
     3
 72
     9
 73
     5
 74
     0
 42
1.000000000000000e-07
 43
1.000000000000000e-07
 12
0.2611403247210546
 22
0.9653008498935378
 32
0.000000000000000
 13
0.01922543107502861
 23
0.9998151743238850
 33
0.000000000000000
 40
0.000000000000000
 40
0.000000000000000
 40
0.000000000000000
 40
0.000000000000000
 40
0.03722511462654990
 40
0.06213960552560460
 40
0.06213960552560460
 40
0.06213960552560460
 40
0.06213960552560460
 10
153.9168822120413
 20
150.6001835494411
 30
0.000000000000000
 10
153.9201225382151
 20
150.6121613610366
 30
0.000000000000000
 10
153.9240873482084
 20
150.6325863963743
 30
0.000000000000000
 10
153.9254944782718
 20
150.6532837652993
 30
0.000000000000000
 10
153.9256541422143
 20
150.6615870606531
 30
0.000000000000000
  0
SPLINE
  5
11E
100
AcDbEntity
  8
A1
  6
CONTINUOUS
 62
7
100
AcDbSpline
210
0.000000000000000
220
0.000000000000000
230
1.000000000000000
 70
     8
 71
     3
 72
     9
 73
     5
 74
     0
 42
1.000000000000000e-07
 43
1.000000000000000e-07
 12
-0.7291930389328627
 22
-0.6843080534172259
 32
0.000000000000000
 13
-0.5939055313938297
 23
-0.8045347846982622
 33
0.000000000000000
 40
0.000000000000000
 40
0.000000000000000
 40
0.000000000000000
 40
0.000000000000000
 40
0.06977436276516980
 40
0.1057258034722860
 40
0.1057258034722860
 40
0.1057258034722860
 40
0.1057258034722860
 10
154.1624962568887
 20
150.6791309209994
 30
0.000000000000000
 10
154.1455365970140
 20
150.6632152015453
 30
0.000000000000000
 10
154.1212391554403
 20
150.6375367835975
 30
0.000000000000000
 10
154.0994380686696
 20
150.6098249443108
 30
0.000000000000000
 10
154.0923208155037
 20
150.6001835494411
 30
0.000000000000000
  0
SPLINE
  5
11F
100
AcDbEntity
  8
A1
  6
CONTINUOUS
 62
7
100
AcDbSpline
210
0.000000000000000
220
0.000000000000000
230
1.000000000000000
 70
     8
 71
     3
 72
     9
 73
     5
 74
     0
 42
1.000000000000000e-07
 43
1.000000000000000e-07
 12
-0.9998531748760797
 22
-0.01713559719382829
 32
0.000000000000000
 13
-0.6977429144362759
 23
-0.7163482570304041
 33
0.000000000000000
 40
0.000000000000000
 40
0.000000000000000
 40
0.000000000000000
 40
0.000000000000000
 40
0.1124023510790455
 40
0.2045810995353388
 40
0.2045810995353388
 40
0.2045810995353388
 40
0.2045810995353388
 10
154.3467067905245
 20
150.7580782925575
 30
0.000000000000000
 10
154.3092448413278
 20
150.7574362654202
 30
0.000000000000000
 10
154.2398617898573
 20
150.7430494819760
 30
0.000000000000000
 10
154.1839352797544
 20
150.7011416162634
 30
0.000000000000000
 10
154.1624962568887
 20
150.6791309209994
 30
0.000000000000000
  0
SPLINE
  5
120
100
AcDbEntity
  8
A1
  6
CONTINUOUS
 62
7
100
AcDbSpline
210
0.000000000000000
220
0.000000000000000
230
1.000000000000000
 70
     8
 71
     3
 72
     9
 73
     5
 74
     0
 42
1.000000000000000e-07
 43
1.000000000000000e-07
 12
-0.7007892532992628
 22
0.7133683637930517
 32
0.000000000000000
 13
-0.9999720980513302
 23
0.007470148523680109
 33
0.000000000000000
 40
0.000000000000000
 40
0.000000000000000
 40
0.000000000000000
 40
0.000000000000000
 40
0.07716851900349980
 40
0.1364091606320975
 40
0.1364091606320975
 40
0.1364091606320975
 40
0.1364091606320975
 10
154.4695138129483
 20
150.7054467115188
 30
0.000000000000000
 10
154.4514875233447
 20
150.7237965715647
 30
0.000000000000000
 10
154.4123934109911
 20
150.7505939628283
 30
0.000000000000000
 10
154.3664531200909
 20
150.7579307804270
 30
0.000000000000000
 10
154.3467067905245
 20
150.7580782925575
 30
0.000000000000000
  0
SPLINE
  5
121
100
AcDbEntity
  8
A1
  6
CONTINUOUS
 62
7
100
AcDbSpline
210
0.000000000000000
220
0.000000000000000
230
1.000000000000000
 70
     8
 71
     3
 72
    11
 73
     7
 74
     0
 42
1.000000000000000e-07
 43
1.000000000000000e-07
 12
0.02542767774320964
 22
0.9996766643289448
 32
0.000000000000000
 13
-0.6805257843188883
 23
0.7327241342263733
 33
0.000000000000000
 40
0.000000000000000
 40
0.000000000000000
 40
0.000000000000000
 40
0.000000000000000
 40
0.1119753870450845
 40
0.2036719015573084
 40
0.2635003531511607
 40
0.3152730211172433
 40
0.3152730211172433
 40
0.3152730211172433
 40
0.3152730211172433
 10
154.5484611845064
 20
150.4072010856324
 30
0.000000000000000
 10
154.5494102758587
 20
150.4445141461017
 30
0.000000000000000
 10
154.5451542381867
 20
150.5125484097989
 30
0.000000000000000
 10
154.5291268680930
 20
150.5992107762778
 30
0.000000000000000
 10
154.5039940327617
 20
150.6628132614071
 30
0.000000000000000
 10
154.4812580247729
 20
150.6928016837481
 30
0.000000000000000
 10
154.4695138129483
 20
150.7054467115188
 30
0.000000000000000
  0
SPLINE
  5
122
100
AcDbEntity
  8
A1
  6
CONTINUOUS
 62
7
100
AcDbSpline
210
0.000000000000000
220
0.000000000000000
230
1.000000000000000
 70
     8
 71
     3
 72
    10
 73
     6
 74
     0
 42
1.000000000000000e-07
 43
1.000000000000000e-07
 12
0.6803325013834183
 22
0.7329036004530280
 32
0.000000000000000
 13
-0.05084663255865962
 23
0.9987064733732041
 33
0.000000000000000
 40
0.000000000000000
 40
0.000000000000000
 40
0.000000000000000
 40
0.000000000000000
 40
0.07937486588472180
 40
0.1699523348117905
 40
0.3461740736015226
 40
0.3461740736015226
 40
0.3461740736015226
 40
0.3461740736015226
 10
154.4519699526020
 20
150.0826396692268
 30
0.000000000000000
 10
154.4699703862867
 20
150.1020310442243
 30
0.000000000000000
 10
154.5042567461390
 20
150.1483045670444
 30
0.000000000000000
 10
154.5408745114181
 20
150.2587663434385
 30
0.000000000000000
 10
154.5514479451734
 20
150.3485364885396
 30
0.000000000000000
 10
154.5484611845064
 20
150.4072010856324
 30
0.000000000000000
  0
SPLINE
  5
123
100
AcDbEntity
  8
A1
  6
CONTINUOUS
 62
7
100
AcDbSpline
210
0.000000000000000
220
0.000000000000000
230
1.000000000000000
 70
     8
 71
     3
 72
     9
 73
     5
 74
     0
 42
1.000000000000000e-07
 43
1.000000000000000e-07
 12
0.9993587537428539
 22
-0.03580616310591722
 32
0.000000000000000
 13
0.7302510822410113
 23
0.6831788615645564
 33
0.000000000000000
 40
0.000000000000000
 40
0.000000000000000
 40
0.000000000000000
 40
0.000000000000000
 40
0.1059053873555095
 40
0.1813104524086885
 40
0.1813104524086885
 40
0.1813104524086885
 40
0.1813104524086885
 10
154.2853032793126
 20
150.0212361580149
 30
0.000000000000000
 10
154.3205824379533
 20
150.0199721361571
 30
0.000000000000000
 10
154.3829383204060
 20
150.0302603636439
 30
0.000000000000000
 10
154.4336150758148
 20
150.0654679537271
 30
0.000000000000000
 10
154.4519699526020
 20
150.0826396692268
 30
0.000000000000000
  0
SPLINE
  5
124
100
AcDbEntity
  8
A1
  6
CONTINUOUS
 62
7
100
AcDbSpline
210
0.000000000000000
220
0.000000000000000
230
1.000000000000000
 70
     8
 71
     3
 72
     9
 73
     5
 74
     0
 42
1.000000000000000e-07
 43
1.000000000000000e-07
 12
0.7191196571193359
 22
-0.6948862631697921
 32
0.000000000000000
 13
0.9999134565614440
 23
0.01315596391668805
 33
0.000000000000000
 40
0.000000000000000
 40
0.000000000000000
 40
0.000000000000000
 40
0.000000000000000
 40
0.07948039031020770
 40
0.1446605647614110
 40
0.1446605647614110
 40
0.1446605647614110
 40
0.1446605647614110
 10
154.1537243267157
 20
150.0738677390536
 30
0.000000000000000
 10
154.1727762970582
 20
150.0554577952476
 30
0.000000000000000
 10
154.2146614214866
 20
150.0279601964932
 30
0.000000000000000
 10
154.2635784348010
 20
150.0209503220072
 30
0.000000000000000
 10
154.2853032793126
 20
150.0212361580149
 30
0.000000000000000
  0
SPLINE
  5
125
100
AcDbEntity
  8
A1
  6
CONTINUOUS
 62
7
100
AcDbSpline
210
0.000000000000000
220
0.000000000000000
230
1.000000000000000
 70
     8
 71
     3
 72
     9
 73
     5
 74
     0
 42
1.000000000000000e-07
 43
1.000000000000000e-07
 12
0.02654195563764006
 22
-0.9996477002391657
 32
0.000000000000000
 13
0.6382685884827879
 23
-0.7698137495272022
 33
0.000000000000000
 40
0.000000000000000
 40
0.000000000000000
 40
0.000000000000000
 40
0.000000000000000
 40
0.1605309493920336
 40
0.2560754219384008
 40
0.2560754219384008
 40
0.2560754219384008
 40
0.2560754219384008
 10
154.0660050249843
 20
150.3107098537281
 30
0.000000000000000
 10
154.0674252934301
 20
150.2572183889357
 30
0.000000000000000
 10
154.0862557577088
 20
150.1706532911988
 30
0.000000000000000
 10
154.1333966481725
 20
150.0983848886061
 30
0.000000000000000
 10
154.1537243267157
 20
150.0738677390536
 30
0.000000000000000
  0
SPLINE
  5
126
100
AcDbEntity
  8
A1
  6
CONTINUOUS
 62
7
100
AcDbSpline
210
0.000000000000000
220
0.000000000000000
230
1.000000000000000
 70
     8
 71
     3
 72
    10
 73
     6
 74
     0
 42
1.000000000000000e-07
 43
1.000000000000000e-07
 12
-0.6938499044672426
 22
0.7201196498281206
 32
0.000000000000000
 13
-0.08085402616507054
 23
0.9967259535364974
 33
0.000000000000000
 40
0.000000000000000
 40
0.000000000000000
 40
0.000000000000000
 40
0.000000000000000
 40
0.09244834158269180
 40
0.1929057025786472
 40
0.3759855638951231
 40
0.3759855638951231
 40
0.3759855638951231
 40
0.3759855638951231
 10
154.0046015137726
 20
149.9686045769760
 30
0.000000000000000
 10
153.9832197561141
 20
149.9907958660986
 30
0.000000000000000
 10
153.9427921925451
 20
150.0416824291588
 30
0.000000000000000
 10
153.8907227679615
 20
150.1564326556922
 30
0.000000000000000
 10
153.8691848789682
 20
150.2498830372801
 30
0.000000000000000
 10
153.8642506310024
 20
150.3107098537281
 30
0.000000000000000
  0
LINE
  5
127
100
AcDbEntity
  8
A1
  6
CONTINUOUS
 62
7
100
AcDbLine
 10
154.1361804663695
 20
151.2054467313868
 30
0.000000000000000
 11
154.1361804663695
 21
151.1791309408675
 31
0.000000000000000
  0
LINE
  5
128
100
AcDbEntity
  8
A1
  6
CONTINUOUS
 62
7
100
AcDbLine
 10
154.7238997879689
 20
151.2054467313868
 30
0.000000000000000
 11
154.1361804663695
 21
151.2054467313868
 31
0.000000000000000
  0
LINE
  5
129
100
AcDbEntity
  8
A1
  6
CONTINUOUS
 62
7
100
AcDbLine
 10
154.7238997879689
 20
151.3721134046764
 30
0.000000000000000
 11
154.7238997879689
 21
151.2054467313868
 31
0.000000000000000
  0
LINE
  5
12A
100
AcDbEntity
  8
A1
  6
CONTINUOUS
 62
7
100
AcDbLine
 10
153.9695137930800
 20
151.3721134046764
 30
0.000000000000000
 11
154.7238997879689
 21
151.3721134046764
 31
0.000000000000000
  0
LINE
  5
12B
100
AcDbEntity
  8
A1
  6
CONTINUOUS
 62
7
100
AcDbLine
 10
153.9695137930800
 20
151.3370256839839
 30
0.000000000000000
 11
153.9695137930800
 21
151.3721134046764
 31
0.000000000000000
  0
LINE
  5
12C
100
AcDbEntity
  8
A1
  6
CONTINUOUS
 62
7
100
AcDbLine
 10
153.9256541422144
 20
150.6615870606531
 30
0.000000000000000
 11
153.9695137930800
 21
151.3370256839839
 31
0.000000000000000
  0
LINE
  5
12D
100
AcDbEntity
  8
A1
  6
CONTINUOUS
 62
7
100
AcDbLine
 10
154.0923208155038
 20
150.6001835494411
 30
0.000000000000000
 11
153.9168822120413
 21
150.6001835494411
 31
0.000000000000000
  0
LINE
  5
12E
100
AcDbEntity
  8
A1
  6
CONTINUOUS
 62
7
100
AcDbLine
 10
153.8642506310025
 20
150.3107098537280
 30
0.000000000000000
 11
154.0660050249844
 21
150.3107098537280
 31
0.000000000000000
  0
LINE
  5
12F
100
AcDbEntity
  8
A4
  6
CENTER
 62
1
100
AcDbLine
 10
130.1230222234159
 20
150.6484291115402
 30
0.000000000000000
 11
144.6844257346278
 21
150.6484291115401
 31
0.000000000000000
  0
ENDSEC
  0
SECTION
  2
OBJECTS
  0
DICTIONARY
  5
15D
100
AcDbDictionary
  3
ACAD_GROUP
350
15E
  3
ACAD_LAYOUT
350
15F
  3
ACAD_MLINESTYLE
350
160
  0
DICTIONARY
  5
15E
102
{ACAD_REACTORS
330
15D
102
}
330
15D
100
AcDbDictionary
  0
DICTIONARY
  5
15F
102
{ACAD_REACTORS
330
15D
102
}
330
15D
100
AcDbDictionary
  3
Model
350
161
  3
ﾚｲｱｳﾄ1
350
162
  3
ﾚｲｱｳﾄ2
350
163
  0
DICTIONARY
  5
160
102
{ACAD_REACTORS
330
15D
102
}
330
15D
100
AcDbDictionary
  3
STANDARD
350
164
  0
LAYOUT
  5
161
102
{ACAD_REACTORS
330
15F
102
}
330
15F
100
AcDbPlotSettings
 70
11952
  4
A3
 44
297.000000
 45
420.000000
 73
  1
 72
  1
100
AcDbLayout
  1
Model
 71
0
330
154
  0
LAYOUT
  5
162
102
{ACAD_REACTORS
330
15F
102
}
330
15F
100
AcDbPlotSettings
100
AcDbLayout
  1
ﾚｲｱｳﾄ1
 71
1
330
155
  0
LAYOUT
  5
163
102
{ACAD_REACTORS
330
15F
102
}
330
15F
100
AcDbPlotSettings
100
AcDbLayout
  1
ﾚｲｱｳﾄ2
 71
2
330
156
  0
MLINESTYLE
  5
164
102
{ACAD_REACTORS
330
160
102
}
330
160
100
AcDbMlineStyle
  2
STANDARD
 70
     0
  3

 62
   256
 51
90.00
 52
90.00
 71
     2
 49
0.50
 62
   256
  6
BYLAYER
 49
-0.50
 62
   256
  6
BYLAYER
  0
ENDSEC
  0
EOF
