  0
SECTION
  2
HEADER
  9
$ACADVER
  1
AC1015
  9
$ACADMAINTVER
 70
    20
  9
$DWGCODEPAGE
  3
ANSI_932
  9
$INSBASE
 10
0.0
 20
0.0
 30
0.0
  9
$EXTMIN
 10
10.00000307521611
 20
9.999999613693489
 30
0.0
  9
$EXTMAX
 10
258.6379014949667
 20
195.6234311398594
 30
0.0
  9
$LIMMIN
 10
0.0000015376081137
 20
-0.0000001931532552
  9
$LIMMAX
 10
396.0000015376081
 20
272.9999998068465
  9
$ORTHOMODE
 70
     0
  9
$REGENMODE
 70
     1
  9
$FILLMODE
 70
     1
  9
$QTEXTMODE
 70
     0
  9
$MIRRTEXT
 70
     1
  9
$LTSCALE
 40
1.0
  9
$ATTMODE
 70
     1
  9
$TEXTSIZE
 40
2.5
  9
$TRACEWID
 40
1.0
  9
$TEXTSTYLE
  7
STANDARD
  9
$CLAYER
  8
0
  9
$CELTYPE
  6
ByLayer
  9
$CECOLOR
 62
   256
  9
$CELTSCALE
 40
1.0
  9
$DISPSILH
 70
     0
  9
$DIMSCALE
 40
1.0
  9
$DIMASZ
 40
3.0
  9
$DIMEXO
 40
1.0
  9
$DIMDLI
 40
10.0
  9
$DIMRND
 40
0.0
  9
$DIMDLE
 40
0.0
  9
$DIMEXE
 40
1.0
  9
$DIMTP
 40
0.0
  9
$DIMTM
 40
0.0
  9
$DIMTXT
 40
3.2
  9
$DIMCEN
 40
0.0
  9
$DIMTSZ
 40
0.0
  9
$DIMTOL
 70
     0
  9
$DIMLIM
 70
     0
  9
$DIMTIH
 70
     0
  9
$DIMTOH
 70
     0
  9
$DIMSE1
 70
     0
  9
$DIMSE2
 70
     0
  9
$DIMTAD
 70
     3
  9
$DIMZIN
 70
     8
  9
$DIMBLK
  1

  9
$DIMASO
 70
     1
  9
$DIMSHO
 70
     1
  9
$DIMPOST
  1

  9
$DIMAPOST
  1

  9
$DIMALT
 70
     0
  9
$DIMALTD
 70
     2
  9
$DIMALTF
 40
25.4
  9
$DIMLFAC
 40
1.0
  9
$DIMTOFL
 70
     1
  9
$DIMTVP
 40
0.0
  9
$DIMTIX
 70
     0
  9
$DIMSOXD
 70
     0
  9
$DIMSAH
 70
     1
  9
$DIMBLK1
  1
OPEN
  9
$DIMBLK2
  1
OPEN
  9
$DIMSTYLE
  2
STANDARD
  9
$DIMCLRD
 70
     0
  9
$DIMCLRE
 70
     0
  9
$DIMCLRT
 70
     0
  9
$DIMTFAC
 40
1.0
  9
$DIMGAP
 40
1.0
  9
$DIMJUST
 70
     0
  9
$DIMSD1
 70
     0
  9
$DIMSD2
 70
     0
  9
$DIMTOLJ
 70
     1
  9
$DIMTZIN
 70
     0
  9
$DIMALTZ
 70
     0
  9
$DIMALTTZ
 70
     0
  9
$DIMUPT
 70
     0
  9
$DIMDEC
 70
     4
  9
$DIMTDEC
 70
     4
  9
$DIMALTU
 70
     2
  9
$DIMALTTD
 70
     2
  9
$DIMTXSTY
  7
STANDARD
  9
$DIMAUNIT
 70
     0
  9
$DIMADEC
 70
     0
  9
$DIMALTRND
 40
0.0
  9
$DIMAZIN
 70
     0
  9
$DIMDSEP
 70
    46
  9
$DIMATFIT
 70
     3
  9
$DIMFRAC
 70
     0
  9
$DIMLDRBLK
  1
OPEN
  9
$DIMLUNIT
 70
     2
  9
$DIMLWD
 70
    -2
  9
$DIMLWE
 70
    -2
  9
$DIMTMOVE
 70
     0
  9
$LUNITS
 70
     2
  9
$LUPREC
 70
     4
  9
$SKETCHINC
 40
1.0
  9
$FILLETRAD
 40
10.0
  9
$AUNITS
 70
     0
  9
$AUPREC
 70
     0
  9
$MENU
  1
.
  9
$ELEVATION
 40
0.0
  9
$PELEVATION
 40
0.0
  9
$THICKNESS
 40
0.0
  9
$LIMCHECK
 70
     0
  9
$CHAMFERA
 40
10.0
  9
$CHAMFERB
 40
10.0
  9
$CHAMFERC
 40
0.0
  9
$CHAMFERD
 40
0.0
  9
$SKPOLY
 70
     0
  9
$TDCREATE
 40
2456276.614581644
  9
$TDUCREATE
 40
2456276.239581644
  9
$TDUPDATE
 40
2457192.616080972
  9
$TDUUPDATE
 40
2457192.241080973
  9
$TDINDWG
 40
0.0865054745
  9
$TDUSRTIMER
 40
0.0865054514
  9
$USRTIMER
 70
     1
  9
$ANGBASE
 50
0.0
  9
$ANGDIR
 70
     0
  9
$PDMODE
 70
     0
  9
$PDSIZE
 40
0.0
  9
$PLINEWID
 40
0.0
  9
$SPLFRAME
 70
     0
  9
$SPLINETYPE
 70
     6
  9
$SPLINESEGS
 70
     8
  9
$HANDSEED
  5
5AA
  9
$SURFTAB1
 70
     6
  9
$SURFTAB2
 70
     6
  9
$SURFTYPE
 70
     6
  9
$SURFU
 70
     6
  9
$SURFV
 70
     6
  9
$UCSBASE
  2

  9
$UCSNAME
  2

  9
$UCSORG
 10
0.0
 20
0.0
 30
0.0
  9
$UCSXDIR
 10
1.0
 20
0.0
 30
0.0
  9
$UCSYDIR
 10
0.0
 20
1.0
 30
0.0
  9
$UCSORTHOREF
  2

  9
$UCSORTHOVIEW
 70
     0
  9
$UCSORGTOP
 10
0.0
 20
0.0
 30
0.0
  9
$UCSORGBOTTOM
 10
0.0
 20
0.0
 30
0.0
  9
$UCSORGLEFT
 10
0.0
 20
0.0
 30
0.0
  9
$UCSORGRIGHT
 10
0.0
 20
0.0
 30
0.0
  9
$UCSORGFRONT
 10
0.0
 20
0.0
 30
0.0
  9
$UCSORGBACK
 10
0.0
 20
0.0
 30
0.0
  9
$PUCSBASE
  2

  9
$PUCSNAME
  2

  9
$PUCSORG
 10
0.0
 20
0.0
 30
0.0
  9
$PUCSXDIR
 10
1.0
 20
0.0
 30
0.0
  9
$PUCSYDIR
 10
0.0
 20
1.0
 30
0.0
  9
$PUCSORTHOREF
  2

  9
$PUCSORTHOVIEW
 70
     0
  9
$PUCSORGTOP
 10
0.0
 20
0.0
 30
0.0
  9
$PUCSORGBOTTOM
 10
0.0
 20
0.0
 30
0.0
  9
$PUCSORGLEFT
 10
0.0
 20
0.0
 30
0.0
  9
$PUCSORGRIGHT
 10
0.0
 20
0.0
 30
0.0
  9
$PUCSORGFRONT
 10
0.0
 20
0.0
 30
0.0
  9
$PUCSORGBACK
 10
0.0
 20
0.0
 30
0.0
  9
$USERI1
 70
     0
  9
$USERI2
 70
     0
  9
$USERI3
 70
     0
  9
$USERI4
 70
     0
  9
$USERI5
 70
     0
  9
$USERR1
 40
0.0
  9
$USERR2
 40
0.0
  9
$USERR3
 40
0.0
  9
$USERR4
 40
0.0
  9
$USERR5
 40
0.0
  9
$WORLDVIEW
 70
     1
  9
$SHADEDGE
 70
     3
  9
$SHADEDIF
 70
    70
  9
$TILEMODE
 70
     1
  9
$MAXACTVP
 70
    48
  9
$PINSBASE
 10
0.0
 20
0.0
 30
0.0
  9
$PLIMCHECK
 70
     0
  9
$PEXTMIN
 10
1.000000000000000E+20
 20
1.000000000000000E+20
 30
1.000000000000000E+20
  9
$PEXTMAX
 10
-1.000000000000000E+20
 20
-1.000000000000000E+20
 30
-1.000000000000000E+20
  9
$PLIMMIN
 10
0.0
 20
0.0
  9
$PLIMMAX
 10
420.0
 20
297.0
  9
$UNITMODE
 70
     0
  9
$VISRETAIN
 70
     1
  9
$PLINEGEN
 70
     0
  9
$PSLTSCALE
 70
     1
  9
$TREEDEPTH
 70
  3020
  9
$CMLSTYLE
  2
Standard
  9
$CMLJUST
 70
     0
  9
$CMLSCALE
 40
1.0
  9
$PROXYGRAPHICS
 70
     1
  9
$MEASUREMENT
 70
     0
  9
$CELWEIGHT
370
    -1
  9
$ENDCAPS
280
     0
  9
$JOINSTYLE
280
     0
  9
$LWDISPLAY
290
     0
  9
$INSUNITS
 70
     0
  9
$HYPERLINKBASE
  1

  9
$STYLESHEET
  1

  9
$XEDIT
290
     1
  9
$CEPSNTYPE
380
     0
  9
$PSTYLEMODE
290
     1
  9
$FINGERPRINTGUID
  2
{D1F069C2-ED64-4A37-B667-569888C32071}
  9
$VERSIONGUID
  2
{10A35B28-6491-4A3B-BB1D-14B9A479E406}
  9
$EXTNAMES
290
     1
  9
$PSVPSCALE
 40
0.0
  9
$OLESTARTUP
290
     0
  0
ENDSEC
  0
SECTION
  2
CLASSES
  0
CLASS
  1
ACDBDICTIONARYWDFLT
  2
AcDbDictionaryWithDefault
  3
ObjectDBX Classes
 90
        0
280
     0
281
     0
  0
CLASS
  1
MATERIAL
  2
AcDbMaterial
  3
ObjectDBX Classes
 90
     1153
280
     0
281
     0
  0
CLASS
  1
VISUALSTYLE
  2
AcDbVisualStyle
  3
ObjectDBX Classes
 90
     4095
280
     0
281
     0
  0
CLASS
  1
SCALE
  2
AcDbScale
  3
ObjectDBX Classes
 90
     1153
280
     0
281
     0
  0
CLASS
  1
TABLESTYLE
  2
AcDbTableStyle
  3
ObjectDBX Classes
 90
     4095
280
     0
281
     0
  0
CLASS
  1
MLEADERSTYLE
  2
AcDbMLeaderStyle
  3
ACDB_MLEADERSTYLE_CLASS
 90
     4095
280
     0
281
     0
  0
CLASS
  1
ACDBSECTIONVIEWSTYLE
  2
AcDbSectionViewStyle
  3
ObjectDBX Classes
 90
     1025
280
     0
281
     0
  0
CLASS
  1
ACDBDETAILVIEWSTYLE
  2
AcDbDetailViewStyle
  3
ObjectDBX Classes
 90
     1025
280
     0
281
     0
  0
CLASS
  1
DICTIONARYVAR
  2
AcDbDictionaryVar
  3
ObjectDBX Classes
 90
        0
280
     0
281
     0
  0
CLASS
  1
CELLSTYLEMAP
  2
AcDbCellStyleMap
  3
ObjectDBX Classes
 90
     1152
280
     0
281
     0
  0
CLASS
  1
ACDBPLACEHOLDER
  2
AcDbPlaceHolder
  3
ObjectDBX Classes
 90
        0
280
     0
281
     0
  0
CLASS
  1
LAYOUT
  2
AcDbLayout
  3
ObjectDBX Classes
 90
        0
280
     0
281
     0
  0
ENDSEC
  0
SECTION
  2
TABLES
  0
TABLE
  2
VPORT
  5
4CD
330
0
100
AcDbSymbolTable
 70
     1
  0
VPORT
  5
538
330
4CD
100
AcDbSymbolTableRecord
100
AcDbViewportTableRecord
  2
*ACTIVE
 70
     0
 10
0.0
 20
0.0
 11
1.0
 21
1.0
 12
211.2202882592314
 22
102.8103107670238
 13
0.0
 23
0.0
 14
10.0
 24
10.0
 15
10.0
 25
10.0
 16
0.0
 26
0.0
 36
1.0
 17
0.0
 27
0.0
 37
0.0
 40
187.0788132018603
 41
1.899603698811096
 42
50.0
 43
0.0
 44
0.0
 50
0.0
 51
0.0
 71
     0
 72
   100
 73
     1
 74
     0
 75
     0
 76
     0
 77
     0
 78
     0
281
     0
 65
     1
110
0.0
120
0.0
130
0.0
111
1.0
121
0.0
131
0.0
112
0.0
122
1.0
132
0.0
 79
     0
146
0.0
1001
ACAD_NAV_VCDISPLAY
1070
     3
  0
ENDTAB
  0
TABLE
  2
LTYPE
  5
4CA
330
0
100
AcDbSymbolTable
 70
     4
  0
LTYPE
  5
51F
330
4CA
100
AcDbSymbolTableRecord
100
AcDbLinetypeTableRecord
  2
ByBlock
 70
     0
  3

 72
    65
 73
     0
 40
0.0
  0
LTYPE
  5
520
330
4CA
100
AcDbSymbolTableRecord
100
AcDbLinetypeTableRecord
  2
ByLayer
 70
     0
  3

 72
    65
 73
     0
 40
0.0
  0
LTYPE
  5
521
330
4CA
100
AcDbSymbolTableRecord
100
AcDbLinetypeTableRecord
  2
CONTINUOUS
 70
     0
  3
Solid line
 72
    65
 73
     0
 40
0.0
  0
LTYPE
  5
539
330
4CA
100
AcDbSymbolTableRecord
100
AcDbLinetypeTableRecord
  2
DASHED
 70
     0
  3
Dashed __ __ __ __ __ __ __ __ __ __ __ __ __ _
 72
    65
 73
     2
 40
19.04999999999999
 49
12.7
 74
     0
 49
-6.349999999999998
 74
     0
  0
LTYPE
  5
53A
330
4CA
100
AcDbSymbolTableRecord
100
AcDbLinetypeTableRecord
  2
CENTER
 70
     0
  3
Center ____ _ ____ _ ____ _ ____ _ ____ _ ____
 72
    65
 73
     4
 40
50.8
 49
31.75
 74
     0
 49
-6.349999999999998
 74
     0
 49
6.349999999999998
 74
     0
 49
-6.349999999999998
 74
     0
  0
LTYPE
  5
53B
330
4CA
100
AcDbSymbolTableRecord
100
AcDbLinetypeTableRecord
  2
PHANTOM
 70
     0
  3
Phantom ______  __  __  ______  __  __  ______
 72
    65
 73
     6
 40
63.5
 49
31.75
 74
     0
 49
-6.349999999999998
 74
     0
 49
6.349999999999998
 74
     0
 49
-6.349999999999998
 74
     0
 49
6.349999999999998
 74
     0
 49
-6.349999999999998
 74
     0
  0
ENDTAB
  0
TABLE
  2
LAYER
  5
4C7
330
0
100
AcDbSymbolTable
 70
     8
  0
LAYER
  5
519
102
{ACAD_XDICTIONARY
360
54E
102
}
330
4C7
100
AcDbSymbolTableRecord
100
AcDbLayerTableRecord
  2
0
 70
     0
 62
     7
  6
CONTINUOUS
370
    -3
390
4D4
  0
LAYER
  5
53C
102
{ACAD_XDICTIONARY
360
550
102
}
330
4C7
100
AcDbSymbolTableRecord
100
AcDbLayerTableRecord
  2
4
 70
     0
 62
     1
  6
CENTER
370
    -3
390
4D4
  0
LAYER
  5
53D
102
{ACAD_XDICTIONARY
360
552
102
}
330
4C7
100
AcDbSymbolTableRecord
100
AcDbLayerTableRecord
  2
5
 70
     0
 62
     6
  6
PHANTOM
370
    -3
390
4D4
  0
LAYER
  5
53E
102
{ACAD_XDICTIONARY
360
554
102
}
330
4C7
100
AcDbSymbolTableRecord
100
AcDbLayerTableRecord
  2
1
 70
     0
 62
     7
  6
CONTINUOUS
370
    -3
390
4D4
  0
LAYER
  5
53F
102
{ACAD_XDICTIONARY
360
556
102
}
330
4C7
100
AcDbSymbolTableRecord
100
AcDbLayerTableRecord
  2
2
 70
     0
 62
     4
  6
CONTINUOUS
370
    -3
390
4D4
  0
LAYER
  5
540
102
{ACAD_XDICTIONARY
360
558
102
}
330
4C7
100
AcDbSymbolTableRecord
100
AcDbLayerTableRecord
  2
3
 70
     0
 62
     2
  6
DASHED
370
    -3
390
4D4
  0
LAYER
  5
541
102
{ACAD_XDICTIONARY
360
55A
102
}
330
4C7
100
AcDbSymbolTableRecord
100
AcDbLayerTableRecord
  2
6
 70
     0
 62
     5
  6
CONTINUOUS
370
    -3
390
4D4
  0
LAYER
  5
542
102
{ACAD_XDICTIONARY
360
55C
102
}
330
4C7
100
AcDbSymbolTableRecord
100
AcDbLayerTableRecord
  2
7
 70
     0
 62
     3
  6
CONTINUOUS
370
    -3
390
4D4
  0
ENDTAB
  0
TABLE
  2
STYLE
  5
4C8
330
0
100
AcDbSymbolTable
 70
     2
  0
STYLE
  5
51A
330
4C8
100
AcDbSymbolTableRecord
100
AcDbTextStyleTableRecord
  2
STANDARD
 70
     0
 40
0.0
 41
1.0
 50
0.0
 71
     0
 42
2.5
  3
simplex.shx
  4

  0
STYLE
  5
51E
330
4C8
100
AcDbSymbolTableRecord
100
AcDbTextStyleTableRecord
  2
Annotative
 70
     0
 40
0.0
 41
1.0
 50
0.0
 71
     0
 42
0.2
  3
txt
  4

1001
AcadAnnotative
1000
AnnotativeData
1002
{
1070
     1
1070
     1
1002
}
  0
ENDTAB
  0
TABLE
  2
VIEW
  5
4CB
330
0
100
AcDbSymbolTable
 70
     0
  0
ENDTAB
  0
TABLE
  2
UCS
  5
4CC
330
0
100
AcDbSymbolTable
 70
     0
  0
ENDTAB
  0
TABLE
  2
APPID
  5
4CE
330
0
100
AcDbSymbolTable
 70
     6
  0
APPID
  5
51B
330
4CE
100
AcDbSymbolTableRecord
100
AcDbRegAppTableRecord
  2
ACAD
 70
     0
  0
APPID
  5
522
330
4CE
100
AcDbSymbolTableRecord
100
AcDbRegAppTableRecord
  2
AcadAnnotative
 70
     0
  0
APPID
  5
543
330
4CE
100
AcDbSymbolTableRecord
100
AcDbRegAppTableRecord
  2
CONTENTTABDATA
 70
     0
  0
APPID
  5
544
330
4CE
100
AcDbSymbolTableRecord
100
AcDbRegAppTableRecord
  2
CONTENTCURRENTTAB
 70
     0
  0
APPID
  5
568
330
4CE
100
AcDbSymbolTableRecord
100
AcDbRegAppTableRecord
  2
ACAD_NAV_VCDISPLAY
 70
     0
  0
APPID
  5
5A1
330
4CE
100
AcDbSymbolTableRecord
100
AcDbRegAppTableRecord
  2
ACAD_MLEADERVER
 70
     0
  0
ENDTAB
  0
TABLE
  2
DIMSTYLE
  5
4CF
330
0
100
AcDbSymbolTable
 70
     2
100
AcDbDimStyleTable
 71
     0
  0
DIMSTYLE
105
51C
330
4CF
100
AcDbSymbolTableRecord
100
AcDbDimStyleTableRecord
  2
STANDARD
 70
     0
 41
3.0
 42
1.0
 43
10.0
 44
1.0
 73
     0
 74
     0
 77
     3
 78
     8
140
3.2
141
0.0
147
1.0
172
     1
173
     1
279
     2
284
     8
285
     8
286
     8
340
51A
  0
DIMSTYLE
105
51D
330
4CF
100
AcDbSymbolTableRecord
100
AcDbDimStyleTableRecord
  2
Annotative
 70
     0
340
51A
1001
AcadAnnotative
1000
AnnotativeData
1002
{
1070
     1
1070
     1
1002
}
  0
ENDTAB
  0
TABLE
  2
BLOCK_RECORD
  5
4C6
330
0
100
AcDbSymbolTable
 70
     3
  0
BLOCK_RECORD
  5
534
330
4C6
100
AcDbSymbolTableRecord
100
AcDbBlockTableRecord
  2
*Model_Space
340
537
  0
BLOCK_RECORD
  5
530
330
4C6
100
AcDbSymbolTableRecord
100
AcDbBlockTableRecord
  2
*Paper_Space
340
533
  0
BLOCK_RECORD
  5
547
330
4C6
100
AcDbSymbolTableRecord
100
AcDbBlockTableRecord
  2
$MODEL_SPACE
340
0
  0
BLOCK_RECORD
  5
549
330
4C6
100
AcDbSymbolTableRecord
100
AcDbBlockTableRecord
  2
$PAPER_SPACE
340
0
  0
BLOCK_RECORD
  5
54B
330
4C6
100
AcDbSymbolTableRecord
100
AcDbBlockTableRecord
  2
_OPEN
340
0
  0
ENDTAB
  0
ENDSEC
  0
SECTION
  2
BLOCKS
  0
BLOCK
  5
535
330
534
100
AcDbEntity
  8
0
100
AcDbBlockBegin
  2
*Model_Space
 70
     0
 10
0.0
 20
0.0
 30
0.0
  3
*Model_Space
  1

  0
ENDBLK
  5
536
330
534
100
AcDbEntity
  8
0
100
AcDbBlockEnd
  0
BLOCK
  5
531
330
530
100
AcDbEntity
 67
     1
  8
0
100
AcDbBlockBegin
  2
*Paper_Space
 70
     0
 10
0.0
 20
0.0
 30
0.0
  3
*Paper_Space
  1

  0
ENDBLK
  5
532
330
530
100
AcDbEntity
 67
     1
  8
0
100
AcDbBlockEnd
  0
BLOCK
  5
548
330
547
100
AcDbEntity
  8
0
100
AcDbBlockBegin
  2
$MODEL_SPACE
 70
     0
 10
0.0
 20
0.0
 30
0.0
  3
$MODEL_SPACE
  1

  0
ENDBLK
  5
1A
330
547
100
AcDbEntity
  8
0
100
AcDbBlockEnd
  0
BLOCK
  5
54A
330
549
100
AcDbEntity
  8
0
100
AcDbBlockBegin
  2
$PAPER_SPACE
 70
     0
 10
0.0
 20
0.0
 30
0.0
  3
$PAPER_SPACE
  1

  0
ENDBLK
  5
17
330
549
100
AcDbEntity
  8
0
100
AcDbBlockEnd
  0
BLOCK
  5
54C
330
54B
100
AcDbEntity
  8
0
100
AcDbBlockBegin
  2
_OPEN
 70
     0
 10
0.0
 20
0.0
 30
0.0
  3
_OPEN
  1

  0
LINE
  5
30
330
54B
100
AcDbEntity
  8
0
  6
ByBlock
 62
     0
100
AcDbLine
 10
-1.0
 20
0.1666666666666666
 30
0.0
 11
0.0
 21
0.0
 31
0.0
  0
LINE
  5
31
330
54B
100
AcDbEntity
  8
0
  6
ByBlock
 62
     0
100
AcDbLine
 10
0.0
 20
0.0
 30
0.0
 11
-1.0
 21
-0.1666666666666666
 31
0.0
  0
LINE
  5
32
330
54B
100
AcDbEntity
  8
0
  6
ByBlock
 62
     0
100
AcDbLine
 10
0.0
 20
0.0
 30
0.0
 11
-1.0
 21
0.0
 31
0.0
  0
ENDBLK
  5
33
330
54B
100
AcDbEntity
  8
0
100
AcDbBlockEnd
  0
ENDSEC
  0
SECTION
  2
ENTITIES
  0
CIRCLE
  5
21C
330
534
100
AcDbEntity
  8
1
  6
Continuous
100
AcDbCircle
 10
101.1731774949667
 20
129.0780031398594
 30
0.0
 40
2.149999999999999
  0
CIRCLE
  5
21D
330
534
100
AcDbEntity
  8
1
  6
Continuous
100
AcDbCircle
 10
76.17317749496681
 20
129.0780031398594
 30
0.0
 40
2.149999999999999
  0
LINE
  5
21E
330
534
100
AcDbEntity
  8
1
  6
Continuous
100
AcDbLine
 10
85.57317749496691
 20
134.0780031398594
 30
0.0
 11
85.57317749496691
 21
120.0780031398593
 31
0.0
  0
LINE
  5
21F
330
534
100
AcDbEntity
  8
1
  6
Continuous
100
AcDbLine
 10
106.1731774949667
 20
132.0780031398594
 30
0.0
 11
106.1731774949667
 21
96.07800313985935
 31
0.0
  0
LINE
  5
220
330
534
100
AcDbEntity
  8
1
  6
Continuous
100
AcDbLine
 10
71.17317749496681
 20
132.0780031398594
 30
0.0
 11
71.17317749496681
 21
96.07800313985935
 31
0.0
  0
LINE
  5
221
330
534
100
AcDbEntity
  8
1
  6
Continuous
100
AcDbLine
 10
93.37317749496682
 20
134.0780031398594
 30
0.0
 11
93.37317749496682
 21
122.4780031398594
 31
0.0
  0
LINE
  5
222
330
534
100
AcDbEntity
  8
4
  6
CENTER
100
AcDbLine
 10
101.1731774949667
 20
133.2280031398593
 30
0.0
 11
101.1731774949667
 21
124.9280031398594
 31
0.0
  0
LINE
  5
223
330
534
100
AcDbEntity
  8
1
  6
Continuous
100
AcDbLine
 10
12.44081549496684
 20
94.07800313985935
 30
0.0
 11
12.44081549496684
 21
134.0780031398594
 31
0.0
  0
LINE
  5
224
330
534
100
AcDbEntity
  8
1
  6
Continuous
100
AcDbLine
 10
13.64081549496688
 20
94.07800313985935
 30
0.0
 11
13.64081549496688
 21
134.0780031398594
 31
0.0
  0
LINE
  5
225
330
534
100
AcDbEntity
  8
4
  6
CENTER
100
AcDbLine
 10
17.44081549496684
 20
92.79581013985952
 30
0.0
 11
17.44081549496684
 21
136.6391111398594
 31
0.0
  0
LINE
  5
226
330
534
100
AcDbEntity
  8
1
  6
Continuous
100
AcDbLine
 10
20.64081549496688
 20
122.4780031398594
 30
0.0
 11
20.64081549496688
 21
134.0780031398594
 31
0.0
  0
LINE
  5
227
330
534
100
AcDbEntity
  8
4
  6
CENTER
100
AcDbLine
 10
91.17317749496672
 20
136.9913531398593
 30
0.0
 11
91.17317749496672
 21
90.85690113985949
 31
0.0
  0
LINE
  5
228
330
534
100
AcDbEntity
  8
1
  6
Continuous
100
AcDbLine
 10
97.17317749496686
 20
132.8245611398594
 30
0.0
 11
97.17317749496686
 21
95.38315513985942
 31
0.0
  0
LINE
  5
229
330
534
100
AcDbEntity
  8
1
  6
Continuous
100
AcDbLine
 10
87.97317749496674
 20
134.0780031398594
 30
0.0
 11
87.97317749496674
 21
122.4780031398594
 31
0.0
  0
LINE
  5
22A
330
534
100
AcDbEntity
  8
4
  6
CENTER
100
AcDbLine
 10
76.17317749496681
 20
133.2280031398593
 30
0.0
 11
76.17317749496681
 21
124.9280031398594
 31
0.0
  0
LINE
  5
22B
330
534
100
AcDbEntity
  8
1
  6
Continuous
100
AcDbLine
 10
168.7055394949666
 20
94.07800313985935
 30
0.0
 11
168.7055394949666
 21
134.0780031398594
 31
0.0
  0
LINE
  5
22C
330
534
100
AcDbEntity
  8
1
  6
Continuous
100
AcDbLine
 10
169.9055394949667
 20
94.07800313985935
 30
0.0
 11
169.9055394949667
 21
134.0780031398594
 31
0.0
  0
LINE
  5
22D
330
534
100
AcDbEntity
  8
4
  6
CENTER
100
AcDbLine
 10
164.9055394949667
 20
92.79581013985952
 30
0.0
 11
164.9055394949667
 21
136.6391111398594
 31
0.0
  0
LINE
  5
22E
330
534
100
AcDbEntity
  8
1
  6
Continuous
100
AcDbLine
 10
161.7055394949668
 20
122.4780031398594
 30
0.0
 11
161.7055394949668
 21
134.0780031398594
 31
0.0
  0
LINE
  5
22F
330
534
100
AcDbEntity
  8
1
  6
Continuous
100
AcDbLine
 10
14.24081549496679
 20
122.4780031398594
 30
0.0
 11
14.24081549496679
 21
134.0780031398594
 31
0.0
  0
LINE
  5
230
330
534
100
AcDbEntity
  8
1
  6
Continuous
100
AcDbLine
 10
166.6375904949665
 20
133.0780031398594
 30
0.0
 11
166.6375904949665
 21
123.4780031398594
 31
0.0
  0
LINE
  5
231
330
534
100
AcDbEntity
  8
1
  6
Continuous
100
AcDbLine
 10
166.9055394949667
 20
134.0780031398594
 30
0.0
 11
166.9055394949667
 21
122.4780031398594
 31
0.0
  0
TEXT
  5
232
330
534
100
AcDbEntity
  8
7
  6
Continuous
100
AcDbText
 10
10.00000307521611
 20
17.99999961369348
 30
0.0
 40
3.0
  1
TYPE No.TH-125-4
100
AcDbText
  0
TEXT
  5
233
330
534
100
AcDbEntity
  8
7
  6
Continuous
100
AcDbText
 10
10.00000307521611
 20
25.99999961369348
 30
0.0
 40
3.0
  1
CODE No.2634
100
AcDbText
  0
TEXT
  5
234
330
534
100
AcDbEntity
  8
1
  6
Continuous
100
AcDbText
 10
10.00000307521611
 20
9.999999613693489
 30
0.0
 40
1.399999999999999
  1
LAYER
100
AcDbText
  0
TEXT
  5
235
330
534
100
AcDbEntity
  8
2
  6
Continuous
100
AcDbText
 10
19.97951407521611
 20
10.04873661369346
 30
0.0
 40
1.399999999999999
  1
2
100
AcDbText
  0
TEXT
  5
236
330
534
100
AcDbEntity
  8
1
  6
Continuous
100
AcDbText
 10
17.97951407521611
 20
10.04873661369346
 30
0.0
 40
1.399999999999999
  1
1
100
AcDbText
  0
TEXT
  5
237
330
534
100
AcDbEntity
  8
3
  6
DASHED
100
AcDbText
 10
21.97951407521611
 20
10.04873661369346
 30
0.0
 40
1.399999999999999
  1
3
100
AcDbText
  0
TEXT
  5
238
330
534
100
AcDbEntity
  8
4
  6
CENTER
100
AcDbText
 10
23.97951407521611
 20
10.04873661369346
 30
0.0
 40
1.399999999999999
  1
4
100
AcDbText
  0
TEXT
  5
239
330
534
100
AcDbEntity
  8
5
  6
PHANTOM
100
AcDbText
 10
25.97951407521611
 20
10.04873661369346
 30
0.0
 40
1.399999999999999
  1
5
100
AcDbText
  0
TEXT
  5
23A
330
534
100
AcDbEntity
  8
7
  6
Continuous
100
AcDbText
 10
29.97951407521611
 20
10.04873661369346
 30
0.0
 40
1.399999999999999
  1
7
100
AcDbText
  0
TEXT
  5
23B
330
534
100
AcDbEntity
  8
6
  6
Continuous
100
AcDbText
 10
27.97951407521611
 20
10.04873661369346
 30
0.0
 40
1.399999999999999
  1
6
100
AcDbText
  0
LINE
  5
23C
330
534
100
AcDbEntity
  8
1
  6
Continuous
100
AcDbLine
 10
21.04081549496686
 20
105.8780031398594
 30
0.0
 11
21.04081549496686
 21
122.2780031398594
 31
0.0
  0
LINE
  5
23D
330
534
100
AcDbEntity
  8
1
  6
Continuous
100
AcDbLine
 10
19.14081549496688
 20
108.0780031398594
 30
0.0
 11
19.14081549496688
 21
120.0780031398593
 31
0.0
  0
LINE
  5
23E
330
534
100
AcDbEntity
  8
1
  6
Continuous
100
AcDbLine
 10
18.14081549496688
 20
108.0780031398594
 30
0.0
 11
18.14081549496688
 21
120.0780031398593
 31
0.0
  0
LINE
  5
23F
330
534
100
AcDbEntity
  8
1
  6
Continuous
100
AcDbLine
 10
16.64081549496688
 20
108.0780031398594
 30
0.0
 11
16.64081549496688
 21
120.0780031398593
 31
0.0
  0
LINE
  5
240
330
534
100
AcDbEntity
  8
1
  6
Continuous
100
AcDbLine
 10
14.64081549496688
 20
108.0780031398594
 30
0.0
 11
14.64081549496688
 21
120.0780031398593
 31
0.0
  0
LINE
  5
241
330
534
100
AcDbEntity
  8
1
  6
Continuous
100
AcDbLine
 10
15.64081549496688
 20
108.0780031398594
 30
0.0
 11
15.64081549496688
 21
120.0780031398593
 31
0.0
  0
LINE
  5
242
330
534
100
AcDbEntity
  8
1
  6
Continuous
100
AcDbLine
 10
16.62468549496679
 20
111.2892881398592
 30
0.0
 11
16.04081549496686
 21
108.0780031398594
 31
0.0
  0
LINE
  5
243
330
534
100
AcDbEntity
  8
1
  6
Continuous
100
AcDbLine
 10
16.24081549496679
 20
111.3780031398594
 30
0.0
 11
15.64081549496688
 21
108.0780031398594
 31
0.0
  0
LINE
  5
244
330
534
100
AcDbEntity
  8
1
  6
Continuous
100
AcDbLine
 10
20.64081549496688
 20
94.07800313985935
 30
0.0
 11
12.44081549496684
 21
94.07800313985935
 31
0.0
  0
LINE
  5
245
330
534
100
AcDbEntity
  8
4
  6
CENTER
100
AcDbLine
 10
16.30117049496687
 20
99.07800313985944
 30
0.0
 11
10.97801149496683
 21
99.07800313985944
 31
0.0
  0
LINE
  5
246
330
534
100
AcDbEntity
  8
1
  6
Continuous
100
AcDbLine
 10
21.04081549496686
 20
106.8780031398593
 30
0.0
 11
13.64081549496688
 21
106.8780031398593
 31
0.0
  0
LINE
  5
247
330
534
100
AcDbEntity
  8
1
  6
Continuous
100
AcDbLine
 10
21.04081549496686
 20
108.0780031398594
 30
0.0
 11
13.64081549496688
 21
108.0780031398594
 31
0.0
  0
LINE
  5
248
330
534
100
AcDbEntity
  8
1
  6
Continuous
100
AcDbLine
 10
20.64081549496688
 20
105.6780031398594
 30
0.0
 11
13.64081549496688
 21
105.6780031398594
 31
0.0
  0
LINE
  5
249
330
534
100
AcDbEntity
  8
1
  6
Continuous
100
AcDbLine
 10
21.04081549496686
 20
105.8780031398594
 30
0.0
 11
13.84081549496682
 21
105.8780031398594
 31
0.0
  0
LINE
  5
24A
330
534
100
AcDbEntity
  8
1
  6
Continuous
100
AcDbLine
 10
14.24081549496679
 20
105.6780031398594
 30
0.0
 11
14.24081549496679
 21
94.07800313985935
 31
0.0
  0
LINE
  5
24B
330
534
100
AcDbEntity
  8
1
  6
Continuous
100
AcDbLine
 10
13.84081549496682
 20
105.8780031398594
 30
0.0
 11
13.84081549496682
 21
106.8780031398593
 31
0.0
  0
LINE
  5
24C
330
534
100
AcDbEntity
  8
1
  6
Continuous
100
AcDbLine
 10
20.64081549496688
 20
94.07800313985935
 30
0.0
 11
20.64081549496688
 21
105.6780031398594
 31
0.0
  0
LINE
  5
24D
330
534
100
AcDbEntity
  8
1
  6
Continuous
100
AcDbLine
 10
15.84081549496682
 20
105.6780031398594
 30
0.0
 11
15.84081549496682
 21
105.8780031398594
 31
0.0
  0
LINE
  5
24E
330
534
100
AcDbEntity
  8
1
  6
Continuous
100
AcDbLine
 10
18.84081549496681
 20
105.6780031398594
 30
0.0
 11
18.84081549496681
 21
105.8780031398594
 31
0.0
  0
LINE
  5
24F
330
534
100
AcDbEntity
  8
4
  6
CENTER
100
AcDbLine
 10
22.42768849496679
 20
114.0780031398593
 30
0.0
 11
10.97801149496683
 21
114.0780031398593
 31
0.0
  0
LINE
  5
250
330
534
100
AcDbEntity
  8
4
  6
CENTER
100
AcDbLine
 10
16.17593349496689
 20
129.0780031398594
 30
0.0
 11
10.97801149496683
 21
129.0780031398594
 31
0.0
  0
LINE
  5
251
330
534
100
AcDbEntity
  8
1
  6
Continuous
100
AcDbLine
 10
21.04081549496686
 20
120.0780031398593
 30
0.0
 11
13.64081549496688
 21
120.0780031398593
 31
0.0
  0
LINE
  5
252
330
534
100
AcDbEntity
  8
1
  6
Continuous
100
AcDbLine
 10
21.04081549496686
 20
121.2780031398594
 30
0.0
 11
13.64081549496688
 21
121.2780031398594
 31
0.0
  0
LINE
  5
253
330
534
100
AcDbEntity
  8
1
  6
Continuous
100
AcDbLine
 10
20.64081549496688
 20
122.4780031398594
 30
0.0
 11
13.64081549496688
 21
122.4780031398594
 31
0.0
  0
LINE
  5
254
330
534
100
AcDbEntity
  8
1
  6
Continuous
100
AcDbLine
 10
21.04081549496686
 20
122.2780031398594
 30
0.0
 11
13.84081549496682
 21
122.2780031398594
 31
0.0
  0
LINE
  5
255
330
534
100
AcDbEntity
  8
1
  6
Continuous
100
AcDbLine
 10
13.84081549496682
 20
121.2780031398594
 30
0.0
 11
13.84081549496682
 21
122.2780031398594
 31
0.0
  0
LINE
  5
256
330
534
100
AcDbEntity
  8
1
  6
Continuous
100
AcDbLine
 10
16.62468549496679
 20
116.8667191398593
 30
0.0
 11
16.04081549496686
 21
120.0780031398593
 31
0.0
  0
LINE
  5
257
330
534
100
AcDbEntity
  8
1
  6
Continuous
100
AcDbLine
 10
16.24081549496679
 20
116.7780031398594
 30
0.0
 11
15.64081549496688
 21
120.0780031398593
 31
0.0
  0
LINE
  5
258
330
534
100
AcDbEntity
  8
1
  6
Continuous
100
AcDbLine
 10
16.24081549496679
 20
111.3780031398594
 30
0.0
 11
16.24081549496679
 21
116.7780031398594
 31
0.0
  0
LINE
  5
259
330
534
100
AcDbEntity
  8
1
  6
Continuous
100
AcDbLine
 10
20.14081549496688
 20
111.0780031398593
 30
0.0
 11
20.14081549496688
 21
117.0780031398593
 31
0.0
  0
LINE
  5
25A
330
534
100
AcDbEntity
  8
1
  6
Continuous
100
AcDbLine
 10
20.44081549496684
 20
112.4780031398594
 30
0.0
 11
20.44081549496684
 21
115.6780031398593
 31
0.0
  0
LINE
  5
25B
330
534
100
AcDbEntity
  8
1
  6
Continuous
100
AcDbLine
 10
20.14081549496688
 20
111.0780031398593
 30
0.0
 11
19.14081549496688
 21
111.0780031398593
 31
0.0
  0
ARC
  5
25C
330
534
100
AcDbEntity
  8
1
  6
Continuous
100
AcDbCircle
 10
15.64081549496688
 20
111.4681731398594
 30
0.0
 40
1.0
100
AcDbArc
 50
349.6951540000001
 51
0.0
  0
LINE
  5
25D
330
534
100
AcDbEntity
  8
1
  6
Continuous
100
AcDbLine
 10
16.24081549496679
 20
112.5780031398594
 30
0.0
 11
15.64081549496688
 21
112.5780031398594
 31
0.0
  0
ARC
  5
25E
330
534
100
AcDbEntity
  8
1
  6
Continuous
100
AcDbCircle
 10
20.29081549496686
 20
112.4780031398594
 30
0.0
 40
0.15
100
AcDbArc
 50
180.0
 51
0.0
  0
LINE
  5
25F
330
534
100
AcDbEntity
  8
1
  6
Continuous
100
AcDbLine
 10
20.14081549496688
 20
117.0780031398593
 30
0.0
 11
19.14081549496688
 21
117.0780031398593
 31
0.0
  0
ARC
  5
260
330
534
100
AcDbEntity
  8
1
  6
Continuous
100
AcDbCircle
 10
15.64081549496688
 20
116.6878331398594
 30
0.0
 40
1.0
100
AcDbArc
 50
0.0
 51
10.30484599999971
  0
LINE
  5
261
330
534
100
AcDbEntity
  8
1
  6
Continuous
100
AcDbLine
 10
16.24081549496679
 20
115.5780031398594
 30
0.0
 11
15.64081549496688
 21
115.5780031398594
 31
0.0
  0
ARC
  5
262
330
534
100
AcDbEntity
  8
1
  6
Continuous
100
AcDbCircle
 10
20.29081549496686
 20
115.6780031398593
 30
0.0
 40
0.15
100
AcDbArc
 50
0.0
 51
180.0
  0
LINE
  5
263
330
534
100
AcDbEntity
  8
1
  6
Continuous
100
AcDbLine
 10
15.84081549496682
 20
122.2780031398594
 30
0.0
 11
15.84081549496682
 21
122.4780031398594
 31
0.0
  0
LINE
  5
264
330
534
100
AcDbEntity
  8
1
  6
Continuous
100
AcDbLine
 10
18.84081549496681
 20
122.2780031398594
 30
0.0
 11
18.84081549496681
 21
122.4780031398594
 31
0.0
  0
LINE
  5
265
330
534
100
AcDbEntity
  8
4
  6
CENTER
100
AcDbLine
 10
91.17317749496672
 20
45.24600513985947
 30
0.0
 11
91.17317749496672
 21
32.5325751398595
 31
0.0
  0
LINE
  5
266
330
534
100
AcDbEntity
  8
4
  6
CENTER
100
AcDbLine
 10
106.1731774949667
 20
41.2887751398595
 30
0.0
 11
106.1731774949667
 21
45.3852831398595
 31
0.0
  0
LINE
  5
267
330
534
100
AcDbEntity
  8
4
  6
CENTER
100
AcDbLine
 10
95.64147149496672
 20
38.95892913985949
 30
0.0
 11
86.71573649496691
 21
38.95892913985949
 31
0.0
  0
ARC
  5
268
330
534
100
AcDbEntity
  8
1
  6
Continuous
100
AcDbCircle
 10
91.17317749496672
 20
38.95892913985949
 30
0.0
 40
2.0
100
AcDbArc
 50
60.0
 51
300.0
  0
LINE
  5
269
330
534
100
AcDbEntity
  8
1
  6
Continuous
100
AcDbLine
 10
93.37317749496682
 20
37.22687813985947
 30
0.0
 11
92.17317749496672
 21
37.22687813985947
 31
0.0
  0
ARC
  5
26A
330
534
100
AcDbEntity
  8
1
  6
Continuous
100
AcDbCircle
 10
91.17317749496672
 20
38.95892913985949
 30
0.0
 40
3.2
100
AcDbArc
 50
60.0
 51
270.0
  0
ARC
  5
26B
330
534
100
AcDbEntity
  8
1
  6
Continuous
100
AcDbCircle
 10
91.17317749496672
 20
38.95892913985949
 30
0.0
 40
3.6
100
AcDbArc
 50
325.2080250000013
 51
297.2660440000009
  0
LINE
  5
26C
330
534
100
AcDbEntity
  8
1
  6
Continuous
100
AcDbLine
 10
93.17317749496671
 20
33.95892913985949
 30
0.0
 11
71.17317749496681
 21
33.95892913985949
 31
0.0
  0
LINE
  5
26D
330
534
100
AcDbEntity
  8
1
  6
Continuous
100
AcDbLine
 10
91.17317749496672
 20
36.95892913985949
 30
0.0
 11
93.77317749496674
 21
36.95892913985949
 31
0.0
  0
LINE
  5
26E
330
534
100
AcDbEntity
  8
1
  6
Continuous
100
AcDbLine
 10
91.17317749496672
 20
35.75892913985949
 30
0.0
 11
93.77317749496674
 21
35.75892913985949
 31
0.0
  0
LINE
  5
26F
330
534
100
AcDbEntity
  8
5
  6
PHANTOM
100
AcDbLine
 10
89.17317749496673
 20
43.95892913985949
 30
0.0
 11
111.1731774949667
 21
43.95892913985949
 31
0.0
  0
LINE
  5
270
330
534
100
AcDbEntity
  8
1
  6
Continuous
100
AcDbLine
 10
87.57317749496674
 20
35.1589291398595
 30
0.0
 11
71.17317749496681
 21
35.1589291398595
 31
0.0
  0
LINE
  5
271
330
534
100
AcDbEntity
  8
4
  6
CENTER
100
AcDbLine
 10
76.17317749496681
 20
36.62908313985945
 30
0.0
 11
76.17317749496681
 21
32.5325751398595
 31
0.0
  0
LINE
  5
272
330
534
100
AcDbEntity
  8
1
  6
Continuous
100
AcDbLine
 10
71.17317749496681
 20
35.1589291398595
 30
0.0
 11
71.17317749496681
 21
33.95892913985949
 31
0.0
  0
LINE
  5
273
330
534
100
AcDbEntity
  8
4
  6
CENTER
100
AcDbLine
 10
83.37317749496682
 20
43.62312513985947
 30
0.0
 11
83.37317749496682
 21
32.5325751398595
 31
0.0
  0
LINE
  5
274
330
534
100
AcDbEntity
  8
1
  6
Continuous
100
AcDbLine
 10
87.52352049496684
 20
40.6589291398595
 30
0.0
 11
80.17317749496678
 21
40.6589291398595
 31
0.0
  0
LINE
  5
275
330
534
100
AcDbEntity
  8
1
  6
Continuous
100
AcDbLine
 10
87.64188949496682
 20
39.65892913985948
 30
0.0
 11
80.17317749496678
 21
39.65892913985948
 31
0.0
  0
LINE
  5
276
330
534
100
AcDbEntity
  8
1
  6
Continuous
100
AcDbLine
 10
87.57317749496674
 20
36.15892913985947
 30
0.0
 11
80.17317749496678
 21
36.15892913985947
 31
0.0
  0
LINE
  5
277
330
534
100
AcDbEntity
  8
1
  6
Continuous
100
AcDbLine
 10
87.57317749496674
 20
37.15892913985948
 30
0.0
 11
80.17317749496678
 21
37.15892913985948
 31
0.0
  0
LINE
  5
278
330
534
100
AcDbEntity
  8
1
  6
Continuous
100
AcDbLine
 10
87.57317749496674
 20
38.15892913985951
 30
0.0
 11
80.17317749496678
 21
38.15892913985951
 31
0.0
  0
LINE
  5
279
330
534
100
AcDbEntity
  8
1
  6
Continuous
100
AcDbLine
 10
87.57317749496674
 20
37.55892913985947
 30
0.0
 11
80.17317749496678
 21
37.55892913985947
 31
0.0
  0
LINE
  5
27A
330
534
100
AcDbEntity
  8
1
  6
Continuous
100
AcDbLine
 10
86.37317749496686
 20
41.65892913985947
 30
0.0
 11
80.37317749496684
 21
41.65892913985947
 31
0.0
  0
LINE
  5
27B
330
534
100
AcDbEntity
  8
1
  6
Continuous
100
AcDbLine
 10
84.97317749496689
 20
41.95892913985949
 30
0.0
 11
81.77317749496683
 21
41.95892913985949
 31
0.0
  0
LINE
  5
27C
330
534
100
AcDbEntity
  8
1
  6
Continuous
100
AcDbLine
 10
80.17317749496678
 20
40.6589291398595
 30
0.0
 11
80.17317749496678
 21
35.1589291398595
 31
0.0
  0
LINE
  5
27D
330
534
100
AcDbEntity
  8
1
  6
Continuous
100
AcDbLine
 10
80.37317749496684
 20
41.65892913985947
 30
0.0
 11
80.37317749496684
 21
40.6589291398595
 31
0.0
  0
ARC
  5
27E
330
534
100
AcDbEntity
  8
1
  6
Continuous
100
AcDbCircle
 10
81.77317749496683
 20
41.8089291398595
 30
0.0
 40
0.15
100
AcDbArc
 50
90.0
 51
270.0
  0
LINE
  5
27F
330
534
100
AcDbEntity
  8
1
  6
Continuous
100
AcDbLine
 10
87.57317749496674
 20
38.85892913985946
 30
0.0
 11
87.57317749496674
 21
33.95892913985949
 31
0.0
  0
LINE
  5
280
330
534
100
AcDbEntity
  8
1
  6
Continuous
100
AcDbLine
 10
92.17317749496672
 20
40.69098013985949
 30
0.0
 11
92.17317749496672
 21
37.22687813985947
 31
0.0
  0
LINE
  5
281
330
534
100
AcDbEntity
  8
1
  6
Continuous
100
AcDbLine
 10
85.57317749496691
 20
35.1589291398595
 30
0.0
 11
85.57317749496691
 21
33.95892913985949
 31
0.0
  0
ARC
  5
282
330
534
100
AcDbEntity
  8
1
  6
Continuous
100
AcDbCircle
 10
87.52352049496684
 20
41.65892913985947
 30
0.0
 40
1.0
100
AcDbArc
 50
270.0
 51
305.8096509999978
  0
LINE
  5
283
330
534
100
AcDbEntity
  8
1
  6
Continuous
100
AcDbLine
 10
86.37317749496686
 20
41.65892913985947
 30
0.0
 11
86.37317749496686
 21
40.6589291398595
 31
0.0
  0
ARC
  5
284
330
534
100
AcDbEntity
  8
1
  6
Continuous
100
AcDbCircle
 10
84.97317749496689
 20
41.8089291398595
 30
0.0
 40
0.15
100
AcDbArc
 50
270.0
 51
90.0
  0
LINE
  5
285
330
534
100
AcDbEntity
  8
5
  6
PHANTOM
100
AcDbLine
 10
89.17317749496673
 20
41.95225513985951
 30
0.0
 11
89.17317749496673
 21
43.95892913985949
 31
0.0
  0
LINE
  5
286
330
534
100
AcDbEntity
  8
5
  6
PHANTOM
100
AcDbLine
 10
94.77317749496673
 20
42.75892913985948
 30
0.0
 11
111.1731774949667
 21
42.75892913985948
 31
0.0
  0
LINE
  5
287
330
534
100
AcDbEntity
  8
4
  6
CENTER
100
AcDbLine
 10
101.1731774949667
 20
36.62908313985945
 30
0.0
 11
101.1731774949667
 21
32.5325751398595
 31
0.0
  0
LINE
  5
288
330
534
100
AcDbEntity
  8
1
  6
Continuous
100
AcDbLine
 10
106.1731774949667
 20
33.95892913985949
 30
0.0
 11
96.97317749496685
 21
33.95892913985949
 31
0.0
  0
LINE
  5
289
330
534
100
AcDbEntity
  8
1
  6
Continuous
100
AcDbLine
 10
106.1731774949667
 20
35.1589291398595
 30
0.0
 11
96.97317749496685
 21
35.1589291398595
 31
0.0
  0
LINE
  5
28A
330
534
100
AcDbEntity
  8
1
  6
Continuous
100
AcDbLine
 10
93.37317749496682
 20
40.69098013985949
 30
0.0
 11
93.37317749496682
 21
37.22687813985947
 31
0.0
  0
LINE
  5
28B
330
534
100
AcDbEntity
  8
1
  6
Continuous
100
AcDbLine
 10
96.97317749496685
 20
35.1589291398595
 30
0.0
 11
94.41347149496682
 21
36.77383013985947
 31
0.0
  0
ARC
  5
28C
330
534
100
AcDbEntity
  8
1
  6
Continuous
100
AcDbCircle
 10
96.97317749496685
 20
35.1589291398595
 30
0.0
 40
1.199999999999999
100
AcDbArc
 50
237.7524560000026
 51
270.0
  0
LINE
  5
28D
330
534
100
AcDbEntity
  8
1
  6
Continuous
100
AcDbLine
 10
93.17317749496671
 20
35.75892913985949
 30
0.0
 11
93.17317749496671
 21
33.95892913985949
 31
0.0
  0
ARC
  5
28E
330
534
100
AcDbEntity
  8
1
  6
Continuous
100
AcDbCircle
 10
93.77317749496674
 20
35.75892913985949
 30
0.0
 40
1.199999999999999
100
AcDbArc
 50
57.75245600000272
 51
90.0
  0
LINE
  5
28F
330
534
100
AcDbEntity
  8
1
  6
Continuous
100
AcDbLine
 10
96.33288349496666
 20
34.1440281398595
 30
0.0
 11
93.77317749496674
 21
35.75892913985949
 31
0.0
  0
ARC
  5
290
330
534
100
AcDbEntity
  8
1
  6
Continuous
100
AcDbCircle
 10
92.17317749496672
 20
40.69098013985949
 30
0.0
 40
1.199999999999999
100
AcDbArc
 50
0.0
 51
60.0
  0
LINE
  5
291
330
534
100
AcDbEntity
  8
5
  6
PHANTOM
100
AcDbLine
 10
94.77317749496673
 20
39.05892913985948
 30
0.0
 11
94.77317749496673
 21
43.95892913985949
 31
0.0
  0
LINE
  5
292
330
534
100
AcDbEntity
  8
5
  6
PHANTOM
100
AcDbLine
 10
96.77317749496685
 20
42.75892913985948
 30
0.0
 11
96.77317749496685
 21
43.95892913985949
 31
0.0
  0
LINE
  5
293
330
534
100
AcDbEntity
  8
1
  6
Continuous
100
AcDbLine
 10
106.1731774949667
 20
35.1589291398595
 30
0.0
 11
106.1731774949667
 21
33.95892913985949
 31
0.0
  0
LINE
  5
294
330
534
100
AcDbEntity
  8
5
  6
PHANTOM
100
AcDbLine
 10
111.1731774949667
 20
42.75892913985948
 30
0.0
 11
111.1731774949667
 21
43.95892913985949
 31
0.0
  0
LINE
  5
295
330
534
100
AcDbEntity
  8
1
  6
Continuous
100
AcDbLine
 10
104.1731774949667
 20
94.07800313985935
 30
0.0
 11
87.97317749496674
 21
94.07800313985935
 31
0.0
  0
LINE
  5
296
330
534
100
AcDbEntity
  8
1
  6
Continuous
100
AcDbLine
 10
94.77317749496673
 20
108.0780031398594
 30
0.0
 11
81.17317749496677
 21
108.0780031398594
 31
0.0
  0
LINE
  5
297
330
534
100
AcDbEntity
  8
1
  6
Continuous
100
AcDbLine
 10
94.77317749496673
 20
120.0780031398593
 30
0.0
 11
81.17317749496677
 21
120.0780031398593
 31
0.0
  0
LINE
  5
298
330
534
100
AcDbEntity
  8
1
  6
Continuous
100
AcDbLine
 10
94.77317749496673
 20
106.8780031398593
 30
0.0
 11
87.57317749496674
 21
106.8780031398593
 31
0.0
  0
LINE
  5
299
330
534
100
AcDbEntity
  8
1
  6
Continuous
100
AcDbLine
 10
94.77317749496673
 20
121.2780031398594
 30
0.0
 11
87.57317749496674
 21
121.2780031398594
 31
0.0
  0
LINE
  5
29A
330
534
100
AcDbEntity
  8
1
  6
Continuous
100
AcDbLine
 10
96.17317749496685
 20
105.6780031398594
 30
0.0
 11
87.97317749496674
 21
105.6780031398594
 31
0.0
  0
LINE
  5
29B
330
534
100
AcDbEntity
  8
1
  6
Continuous
100
AcDbLine
 10
96.17317749496685
 20
122.4780031398594
 30
0.0
 11
87.97317749496674
 21
122.4780031398594
 31
0.0
  0
LINE
  5
29C
330
534
100
AcDbEntity
  8
1
  6
Continuous
100
AcDbLine
 10
94.77317749496673
 20
105.8780031398594
 30
0.0
 11
87.57317749496674
 21
105.8780031398594
 31
0.0
  0
LINE
  5
29D
330
534
100
AcDbEntity
  8
1
  6
Continuous
100
AcDbLine
 10
94.77317749496673
 20
122.2780031398594
 30
0.0
 11
87.57317749496674
 21
122.2780031398594
 31
0.0
  0
LINE
  5
29E
330
534
100
AcDbEntity
  8
1
  6
Continuous
100
AcDbLine
 10
81.17317749496677
 20
108.0780031398594
 30
0.0
 11
80.17317749496678
 21
109.0780031398594
 31
0.0
  0
CIRCLE
  5
29F
330
534
100
AcDbEntity
  8
1
  6
Continuous
100
AcDbCircle
 10
76.17317749496681
 20
99.07800313985944
 30
0.0
 40
2.149999999999999
  0
LINE
  5
2A0
330
534
100
AcDbEntity
  8
1
  6
Continuous
100
AcDbLine
 10
85.57317749496691
 20
94.07800313985935
 30
0.0
 11
73.17317749496678
 21
94.07800313985935
 31
0.0
  0
LINE
  5
2A1
330
534
100
AcDbEntity
  8
4
  6
CENTER
100
AcDbLine
 10
80.32317749496691
 20
99.07800313985944
 30
0.0
 11
72.02317749496683
 21
99.07800313985944
 31
0.0
  0
LINE
  5
2A2
330
534
100
AcDbEntity
  8
4
  6
CENTER
100
AcDbLine
 10
76.17317749496681
 20
103.2280031398594
 30
0.0
 11
76.17317749496681
 21
94.92800313985936
 31
0.0
  0
ARC
  5
2A3
330
534
100
AcDbEntity
  8
1
  6
Continuous
100
AcDbCircle
 10
73.17317749496678
 20
96.07800313985935
 30
0.0
 40
2.0
100
AcDbArc
 50
180.0
 51
270.0
  0
LINE
  5
2A4
330
534
100
AcDbEntity
  8
1
  6
Continuous
100
AcDbLine
 10
85.57317749496691
 20
108.0780031398594
 30
0.0
 11
85.57317749496691
 21
94.07800313985935
 31
0.0
  0
LINE
  5
2A5
330
534
100
AcDbEntity
  8
1
  6
Continuous
100
AcDbLine
 10
87.97317749496674
 20
105.6780031398594
 30
0.0
 11
87.97317749496674
 21
94.07800313985935
 31
0.0
  0
LINE
  5
2A6
330
534
100
AcDbEntity
  8
1
  6
Continuous
100
AcDbLine
 10
87.57317749496674
 20
108.0780031398594
 30
0.0
 11
87.57317749496674
 21
106.8780031398593
 31
0.0
  0
LINE
  5
2A7
330
534
100
AcDbEntity
  8
1
  6
Continuous
100
AcDbLine
 10
87.57317749496674
 20
106.8780031398593
 30
0.0
 11
87.57317749496674
 21
105.8780031398594
 31
0.0
  0
LINE
  5
2A8
330
534
100
AcDbEntity
  8
1
  6
Continuous
100
AcDbLine
 10
92.17317749496672
 20
105.8780031398594
 30
0.0
 11
92.17317749496672
 21
105.6780031398594
 31
0.0
  0
LINE
  5
2A9
330
534
100
AcDbEntity
  8
1
  6
Continuous
100
AcDbLine
 10
89.17317749496673
 20
105.8780031398594
 30
0.0
 11
89.17317749496673
 21
105.6780031398594
 31
0.0
  0
CIRCLE
  5
2AA
330
534
100
AcDbEntity
  8
1
  6
Continuous
100
AcDbCircle
 10
76.17317749496681
 20
114.0780031398593
 30
0.0
 40
2.149999999999999
  0
LINE
  5
2AB
330
534
100
AcDbEntity
  8
4
  6
CENTER
100
AcDbLine
 10
88.05317549496674
 20
114.0780031398593
 30
0.0
 11
72.02317749496683
 21
114.0780031398593
 31
0.0
  0
LINE
  5
2AC
330
534
100
AcDbEntity
  8
4
  6
CENTER
100
AcDbLine
 10
80.32317749496691
 20
129.0780031398594
 30
0.0
 11
72.02317749496683
 21
129.0780031398594
 31
0.0
  0
LINE
  5
2AD
330
534
100
AcDbEntity
  8
4
  6
CENTER
100
AcDbLine
 10
76.17317749496681
 20
118.2280031398594
 30
0.0
 11
76.17317749496681
 21
109.9280031398593
 31
0.0
  0
LINE
  5
2AE
330
534
100
AcDbEntity
  8
1
  6
Continuous
100
AcDbLine
 10
87.17317749496677
 20
119.0780031398593
 30
0.0
 11
87.17317749496677
 21
108.9902711398594
 31
0.0
  0
LINE
  5
2AF
330
534
100
AcDbEntity
  8
1
  6
Continuous
100
AcDbLine
 10
80.17317749496678
 20
119.0780031398593
 30
0.0
 11
80.17317749496678
 21
109.0780031398594
 31
0.0
  0
CIRCLE
  5
2B0
330
534
100
AcDbEntity
  8
1
  6
Continuous
100
AcDbCircle
 10
83.37317749496682
 20
114.0780031398593
 30
0.0
 40
3.0
  0
CIRCLE
  5
2B1
330
534
100
AcDbEntity
  8
1
  6
Continuous
100
AcDbCircle
 10
83.37317749496682
 20
114.0780031398593
 30
0.0
 40
1.75
  0
LINE
  5
2B2
330
534
100
AcDbEntity
  8
4
  6
CENTER
100
AcDbLine
 10
83.37317749496682
 20
118.7580011398594
 30
0.0
 11
83.37317749496682
 21
109.3980051398594
 31
0.0
  0
LINE
  5
2B3
330
534
100
AcDbEntity
  8
1
  6
Continuous
100
AcDbLine
 10
81.17317749496677
 20
120.0780031398593
 30
0.0
 11
80.17317749496678
 21
119.0780031398593
 31
0.0
  0
LINE
  5
2B4
330
534
100
AcDbEntity
  8
1
  6
Continuous
100
AcDbLine
 10
87.57317749496674
 20
121.2780031398594
 30
0.0
 11
87.57317749496674
 21
120.0780031398593
 31
0.0
  0
LINE
  5
2B5
330
534
100
AcDbEntity
  8
1
  6
Continuous
100
AcDbLine
 10
87.57317749496674
 20
122.2780031398594
 30
0.0
 11
87.57317749496674
 21
121.2780031398594
 31
0.0
  0
LINE
  5
2B6
330
534
100
AcDbEntity
  8
1
  6
Continuous
100
AcDbLine
 10
92.17317749496672
 20
122.4780031398594
 30
0.0
 11
92.17317749496672
 21
122.2780031398594
 31
0.0
  0
LINE
  5
2B7
330
534
100
AcDbEntity
  8
1
  6
Continuous
100
AcDbLine
 10
89.17317749496673
 20
122.4780031398594
 30
0.0
 11
89.17317749496673
 21
122.2780031398594
 31
0.0
  0
LINE
  5
2B8
330
534
100
AcDbEntity
  8
1
  6
Continuous
100
AcDbLine
 10
94.77317749496673
 20
122.2780031398594
 30
0.0
 11
94.77317749496673
 21
105.8780031398594
 31
0.0
  0
LINE
  5
2B9
330
534
100
AcDbEntity
  8
1
  6
Continuous
100
AcDbLine
 10
101.9231774949667
 20
107.5780031398593
 30
0.0
 11
101.9231774949667
 21
109.5467211398594
 31
0.0
  0
CIRCLE
  5
2BA
330
534
100
AcDbEntity
  8
1
  6
Continuous
100
AcDbCircle
 10
101.1731774949667
 20
99.07800313985944
 30
0.0
 40
2.149999999999999
  0
LINE
  5
2BB
330
534
100
AcDbEntity
  8
1
  6
Continuous
100
AcDbLine
 10
93.37317749496676
 20
105.6780031398594
 30
0.0
 11
93.37317749496682
 21
94.07800313985935
 31
0.0
  0
LINE
  5
2BC
330
534
100
AcDbEntity
  8
4
  6
CENTER
100
AcDbLine
 10
101.1731774949667
 20
103.2280031398594
 30
0.0
 11
101.1731774949667
 21
94.92800313985936
 31
0.0
  0
ARC
  5
2BD
330
534
100
AcDbEntity
  8
1
  6
Continuous
100
AcDbCircle
 10
104.1731774949667
 20
96.07800313985935
 30
0.0
 40
2.0
100
AcDbArc
 50
270.0
 51
0.0
  0
LINE
  5
2BE
330
534
100
AcDbEntity
  8
4
  6
CENTER
100
AcDbLine
 10
105.3231774949668
 20
99.07800313985944
 30
0.0
 11
97.02317749496673
 21
99.07800313985944
 31
0.0
  0
ARC
  5
2BF
330
534
100
AcDbEntity
  8
1
  6
Continuous
100
AcDbCircle
 10
96.17317749496685
 20
106.6780031398594
 30
0.0
 40
1.0
100
AcDbArc
 50
270.0
 51
0.0
  0
LINE
  5
2C0
330
534
100
AcDbEntity
  8
1
  6
Continuous
100
AcDbLine
 10
102.9231774949667
 20
118.2650091398593
 30
0.0
 11
102.9231774949667
 21
118.8915591398594
 31
0.0
  0
LINE
  5
2C1
330
534
100
AcDbEntity
  8
1
  6
Continuous
100
AcDbLine
 10
98.51032649496673
 20
114.2451391398594
 30
0.0
 11
100.8360164949668
 21
114.2451391398594
 31
0.0
  0
LINE
  5
2C2
330
534
100
AcDbEntity
  8
1
  6
Continuous
100
AcDbLine
 10
98.57596249496673
 20
114.5780571398594
 30
0.0
 11
100.7703804949666
 21
114.5780571398594
 31
0.0
  0
LINE
  5
2C3
330
534
100
AcDbEntity
  8
1
  6
Continuous
100
AcDbLine
 10
100.6140704949668
 20
114.9116521398593
 30
0.0
 11
99.67283349496685
 21
114.9116521398593
 31
0.0
  0
LINE
  5
2C4
330
534
100
AcDbEntity
  8
1
  6
Continuous
100
AcDbLine
 10
98.80738149496671
 20
112.9114371398593
 30
0.0
 11
100.5389614949668
 21
112.9114371398593
 31
0.0
  0
LINE
  5
2C5
330
534
100
AcDbEntity
  8
1
  6
Continuous
100
AcDbLine
 10
100.7094804949667
 20
113.2450311398594
 30
0.0
 11
100.0727404949667
 21
113.2450311398594
 31
0.0
  0
LINE
  5
2C6
330
534
100
AcDbEntity
  8
1
  6
Continuous
100
AcDbLine
 10
98.53806949496686
 20
113.5786261398594
 30
0.0
 11
100.8082734949668
 21
113.5786261398594
 31
0.0
  0
LINE
  5
2C7
330
534
100
AcDbEntity
  8
1
  6
Continuous
100
AcDbLine
 10
98.51032649496673
 20
113.9115441398594
 30
0.0
 11
100.8360164949668
 21
113.9115441398594
 31
0.0
  0
LINE
  5
2C8
330
534
100
AcDbEntity
  8
1
  6
Continuous
100
AcDbLine
 10
98.57731649496672
 20
115.2445701398594
 30
0.0
 11
100.6641434949668
 21
115.2445701398594
 31
0.0
  0
LINE
  5
2C9
330
534
100
AcDbEntity
  8
1
  6
Continuous
100
AcDbLine
 10
99.67283349496685
 20
115.7446241398593
 30
0.0
 11
100.4726484949668
 21
115.7446241398593
 31
0.0
  0
ARC
  5
2CA
330
534
100
AcDbEntity
  8
1
  6
Continuous
100
AcDbCircle
 10
99.67283349496685
 20
116.0782181398593
 30
0.0
 40
0.85899
100
AcDbArc
 50
35.53799999999881
 51
45.69900000000171
  0
LINE
  5
2CB
330
534
100
AcDbEntity
  8
1
  6
Continuous
100
AcDbLine
 10
98.85068749496667
 20
112.5785191398593
 30
0.0
 11
100.4949784949667
 21
112.5785191398593
 31
0.0
  0
ARC
  5
2CC
330
534
100
AcDbEntity
  8
1
  6
Continuous
100
AcDbCircle
 10
99.67283349496685
 20
112.0784651398594
 30
0.0
 40
0.85899
100
AcDbArc
 50
270.0
 51
324.462000000001
  0
ARC
  5
2CD
330
534
100
AcDbEntity
  8
1
  6
Continuous
100
AcDbCircle
 10
100.2879194949667
 20
112.4120601398594
 30
0.0
 40
0.166696
100
AcDbArc
 50
270.0
 51
333.9859999999997
  0
ARC
  5
2CE
330
534
100
AcDbEntity
  8
1
  6
Continuous
100
AcDbCircle
 10
102.4728634949667
 20
114.0780031398593
 30
0.0
 40
4.299698
100
AcDbArc
 50
144.462000000001
 51
215.5377000000013
  0
LINE
  5
2CF
330
534
100
AcDbEntity
  8
1
  6
Continuous
100
AcDbLine
 10
99.27292549496685
 20
113.2450311398594
 30
0.0
 11
98.63686249496666
 21
113.2450311398594
 31
0.0
  0
ARC
  5
2D0
330
534
100
AcDbEntity
  8
1
  6
Continuous
100
AcDbCircle
 10
98.63686249496666
 20
113.2118751398594
 30
0.0
 40
0.033339
100
AcDbArc
 50
90.0
 51
192.7288999999998
  0
ARC
  5
2D1
330
534
100
AcDbEntity
  8
1
  6
Continuous
100
AcDbCircle
 10
102.4728634949667
 20
114.0780031398593
 30
0.0
 40
3.966394
100
AcDbArc
 50
192.7288999999998
 51
193.2680999999999
  0
ARC
  5
2D2
330
534
100
AcDbEntity
  8
1
  6
Continuous
100
AcDbCircle
 10
102.4728634949667
 20
114.0780031398593
 30
0.0
 40
3.966394
100
AcDbArc
 50
193.2680999999999
 51
195.2575000000005
  0
ARC
  5
2D3
330
534
100
AcDbEntity
  8
1
  6
Continuous
100
AcDbCircle
 10
98.80738149496671
 20
113.0785721398593
 30
0.0
 40
0.166696
100
AcDbArc
 50
195.2575000000005
 51
270.0
  0
LINE
  5
2D4
330
534
100
AcDbEntity
  8
1
  6
Continuous
100
AcDbLine
 10
98.75866149496685
 20
111.9120061398593
 30
0.0
 11
100.1958934949667
 21
111.9120061398593
 31
0.0
  0
LINE
  5
2D5
330
534
100
AcDbEntity
  8
1
  6
Continuous
100
AcDbLine
 10
100.2879194949667
 20
112.2449241398594
 30
0.0
 11
99.05842349496685
 21
112.2449241398594
 31
0.0
  0
ARC
  5
2D6
330
534
100
AcDbEntity
  8
1
  6
Continuous
100
AcDbCircle
 10
99.67283349496685
 20
112.0784651398594
 30
0.0
 40
0.85899
100
AcDbArc
 50
215.5377000000013
 51
256.5374000000025
  0
ARC
  5
2D7
330
534
100
AcDbEntity
  8
1
  6
Continuous
100
AcDbCircle
 10
99.05842349496685
 20
112.4120601398594
 30
0.0
 40
0.166696
100
AcDbArc
 50
206.0143999999999
 51
270.0
  0
ARC
  5
2D8
330
534
100
AcDbEntity
  8
1
  6
Continuous
100
AcDbCircle
 10
102.4728634949667
 20
114.0780031398593
 30
0.0
 40
3.966394
100
AcDbArc
 50
202.9439999999989
 51
206.0143999999999
  0
ARC
  5
2D9
330
534
100
AcDbEntity
  8
1
  6
Continuous
100
AcDbCircle
 10
98.85068749496667
 20
112.5453621398594
 30
0.0
 40
0.033339
100
AcDbArc
 50
90.0
 51
202.9439999999989
  0
LINE
  5
2DA
330
534
100
AcDbEntity
  8
1
  6
Continuous
100
AcDbLine
 10
99.27292549496685
 20
114.9116521398593
 30
0.0
 11
98.73227149496685
 21
114.9116521398593
 31
0.0
  0
LINE
  5
2DB
330
534
100
AcDbEntity
  8
1
  6
Continuous
100
AcDbLine
 10
99.67283349496685
 20
114.9116521398593
 30
0.0
 11
99.67283349496685
 21
114.7451931398592
 31
0.0
  0
ARC
  5
2DC
330
534
100
AcDbEntity
  8
1
  6
Continuous
100
AcDbCircle
 10
98.73227149496685
 20
114.7451931398592
 30
0.0
 40
0.166696
100
AcDbArc
 50
90.0
 51
169.896
  0
ARC
  5
2DD
330
534
100
AcDbEntity
  8
1
  6
Continuous
100
AcDbCircle
 10
102.4728634949667
 20
114.0780031398593
 30
0.0
 40
3.966394
100
AcDbArc
 50
169.896
 51
172.2069999999995
  0
ARC
  5
2DE
330
534
100
AcDbEntity
  8
1
  6
Continuous
100
AcDbCircle
 10
98.57596249496673
 20
114.6118901398594
 30
0.0
 40
0.033339
100
AcDbArc
 50
172.2069999999995
 51
270.0
  0
LINE
  5
2DF
330
534
100
AcDbEntity
  8
1
  6
Continuous
100
AcDbLine
 10
99.67283349496685
 20
113.9115441398594
 30
0.0
 11
99.67283349496685
 21
113.5786261398594
 31
0.0
  0
LINE
  5
2E0
330
534
100
AcDbEntity
  8
1
  6
Continuous
100
AcDbLine
 10
98.73430149496686
 20
115.5781651398594
 30
0.0
 11
99.50637449496673
 21
115.5781651398594
 31
0.0
  0
LINE
  5
2E1
330
534
100
AcDbEntity
  8
1
  6
Continuous
100
AcDbLine
 10
99.50637449496673
 20
115.9117591398594
 30
0.0
 11
98.79452449496668
 21
115.9117591398594
 31
0.0
  0
LINE
  5
2E2
330
534
100
AcDbEntity
  8
1
  6
Continuous
100
AcDbLine
 10
100.2967164949668
 20
116.0809251398594
 30
0.0
 11
98.89196449496665
 21
116.4578261398594
 31
0.0
  0
LINE
  5
2E3
330
534
100
AcDbEntity
  8
1
  6
Continuous
100
AcDbLine
 10
99.67283349496685
 20
116.9369031398594
 30
0.0
 11
99.67283349496685
 21
116.2480611398594
 31
0.0
  0
ARC
  5
2E4
330
534
100
AcDbEntity
  8
1
  6
Continuous
100
AcDbCircle
 10
99.50637449496673
 20
115.7446241398593
 30
0.0
 40
0.166696
100
AcDbArc
 50
270.0
 51
90.0
  0
ARC
  5
2E5
330
534
100
AcDbEntity
  8
1
  6
Continuous
100
AcDbCircle
 10
99.67283349496685
 20
116.0782181398593
 30
0.0
 40
0.85899
100
AcDbArc
 50
62.25000000000253
 51
144.462000000001
  0
ARC
  5
2E6
330
534
100
AcDbEntity
  8
1
  6
Continuous
100
AcDbCircle
 10
96.87347949496674
 20
114.0780031398593
 30
0.0
 40
4.299698
100
AcDbArc
 50
324.462000000001
 51
35.53799999999881
  0
ARC
  5
2E7
330
534
100
AcDbEntity
  8
1
  6
Continuous
100
AcDbCircle
 10
100.5389614949668
 20
113.0785721398593
 30
0.0
 40
0.166696
100
AcDbArc
 50
270.0
 51
344.7419999999994
  0
ARC
  5
2E8
330
534
100
AcDbEntity
  8
1
  6
Continuous
100
AcDbCircle
 10
96.87347949496674
 20
114.0780031398593
 30
0.0
 40
3.966394
100
AcDbArc
 50
344.7419999999994
 51
344.7940000000004
  0
ARC
  5
2E9
330
534
100
AcDbEntity
  8
1
  6
Continuous
100
AcDbCircle
 10
96.87347949496674
 20
114.0780031398593
 30
0.0
 40
3.966394
100
AcDbArc
 50
344.7940000000004
 51
347.2709999999998
  0
ARC
  5
2EA
330
534
100
AcDbEntity
  8
1
  6
Continuous
100
AcDbCircle
 10
100.7094804949667
 20
113.2118751398594
 30
0.0
 40
0.033339
100
AcDbArc
 50
347.2709999999998
 51
90.0
  0
LINE
  5
2EB
330
534
100
AcDbEntity
  8
1
  6
Continuous
100
AcDbLine
 10
101.9231774949667
 20
113.2473401398594
 30
0.0
 11
103.9231774949667
 21
113.2473401398594
 31
0.0
  0
LINE
  5
2EC
330
534
100
AcDbEntity
  8
1
  6
Continuous
100
AcDbLine
 10
101.9231824949667
 20
113.2473401398594
 30
0.0
 11
102.1370274949668
 21
113.0266401398594
 31
0.0
  0
ARC
  5
2ED
330
534
100
AcDbEntity
  8
1
  6
Continuous
100
AcDbCircle
 10
96.87347949496674
 20
114.0780031398593
 30
0.0
 40
3.966394
100
AcDbArc
 50
333.9859999999997
 51
337.0560000000009
  0
LINE
  5
2EE
330
534
100
AcDbEntity
  8
1
  6
Continuous
100
AcDbLine
 10
101.9231774949667
 20
108.5580091398594
 30
0.0
 11
103.9231774949667
 21
108.5580091398594
 31
0.0
  0
LINE
  5
2EF
330
534
100
AcDbEntity
  8
1
  6
Continuous
100
AcDbLine
 10
101.9082224949666
 20
109.8659481398594
 30
0.0
 11
103.9082274949667
 21
109.8659481398594
 31
0.0
  0
ARC
  5
2F0
330
534
100
AcDbEntity
  8
1
  6
Continuous
100
AcDbCircle
 10
100.4949784949667
 20
112.5453621398594
 30
0.0
 40
0.033339
100
AcDbArc
 50
337.0560000000009
 51
90.0
  0
LINE
  5
2F1
330
534
100
AcDbEntity
  8
1
  6
Continuous
100
AcDbLine
 10
102.9231774949667
 20
111.8020881398594
 30
0.0
 11
102.9231774949667
 21
112.4286381398594
 31
0.0
  0
LINE
  5
2F2
330
534
100
AcDbEntity
  8
1
  6
Continuous
100
AcDbLine
 10
101.9082224949666
 20
111.1189281398594
 30
0.0
 11
103.9082274949667
 21
111.1189281398594
 31
0.0
  0
LINE
  5
2F3
330
534
100
AcDbEntity
  8
1
  6
Continuous
100
AcDbLine
 10
102.9231774949667
 20
109.8659481398594
 30
0.0
 11
102.9231774949667
 21
111.1189281398594
 31
0.0
  0
ARC
  5
2F4
330
534
100
AcDbEntity
  8
1
  6
Continuous
100
AcDbCircle
 10
100.6140704949668
 20
114.7451931398592
 30
0.0
 40
0.166696
100
AcDbArc
 50
10.10399999999993
 51
90.0
  0
ARC
  5
2F5
330
534
100
AcDbEntity
  8
1
  6
Continuous
100
AcDbCircle
 10
100.7703804949666
 20
114.6118901398594
 30
0.0
 40
0.033339
100
AcDbArc
 50
270.0
 51
7.793000000000218
  0
ARC
  5
2F6
330
534
100
AcDbEntity
  8
1
  6
Continuous
100
AcDbCircle
 10
96.87347949496674
 20
114.0780031398593
 30
0.0
 40
3.966394
100
AcDbArc
 50
7.793000000000218
 51
10.10399999999993
  0
LINE
  5
2F7
330
534
100
AcDbEntity
  8
1
  6
Continuous
100
AcDbLine
 10
101.9231774949667
 20
116.5731361398593
 30
0.0
 11
102.9955774949667
 21
116.5731361398593
 31
0.0
  0
LINE
  5
2F8
330
534
100
AcDbEntity
  8
1
  6
Continuous
100
AcDbLine
 10
101.9231774949667
 20
116.5731361398593
 30
0.0
 11
101.9231774949667
 21
117.8744491398594
 31
0.0
  0
LINE
  5
2F9
330
534
100
AcDbEntity
  8
1
  6
Continuous
100
AcDbLine
 10
103.9231774949667
 20
114.4706271398593
 30
0.0
 11
102.8300574949667
 21
115.5161421398593
 31
0.0
  0
LINE
  5
2FA
330
534
100
AcDbEntity
  8
1
  6
Continuous
100
AcDbLine
 10
103.9231774949667
 20
114.4706271398593
 30
0.0
 11
103.9231774949667
 21
115.6577771398593
 31
0.0
  0
ARC
  5
2FB
330
534
100
AcDbEntity
  8
1
  6
Continuous
100
AcDbCircle
 10
103.3042774949668
 20
117.2770361398594
 30
0.0
 40
0.715165
100
AcDbArc
 50
279.3070000000009
 51
310.0559999999978
  0
ARC
  5
2FC
330
534
100
AcDbEntity
  8
1
  6
Continuous
100
AcDbCircle
 10
103.3042774949668
 20
116.9026861398593
 30
0.0
 40
0.715165
100
AcDbArc
 50
49.94400000000212
 51
130.0559
  0
ARC
  5
2FD
330
534
100
AcDbEntity
  8
1
  6
Continuous
100
AcDbCircle
 10
103.4616274949667
 20
117.0898861398594
 30
0.0
 40
0.4706380000000002
100
AcDbArc
 50
310.0559999999978
 51
49.94400000000212
  0
ARC
  5
2FE
330
534
100
AcDbEntity
  8
1
  6
Continuous
100
AcDbCircle
 10
103.1468774949667
 20
117.0898861398594
 30
0.0
 40
0.4706380000000002
100
AcDbArc
 50
130.0559
 51
180.101
  0
ARC
  5
2FF
330
534
100
AcDbEntity
  8
1
  6
Continuous
100
AcDbCircle
 10
103.4352774949668
 20
117.0890361398594
 30
0.0
 40
0.759715
100
AcDbArc
 50
180.0
 51
211.8450000000013
  0
ARC
  5
300
330
534
100
AcDbEntity
  8
1
  6
Continuous
100
AcDbCircle
 10
102.9955774949667
 20
116.8159361398594
 30
0.0
 40
0.242085
100
AcDbArc
 50
211.8450000000013
 51
270.0
  0
ARC
  5
301
330
534
100
AcDbEntity
  8
1
  6
Continuous
100
AcDbCircle
 10
102.5485524949668
 20
115.0642021398594
 30
0.0
 40
0.6253750000000001
100
AcDbArc
 50
137.1303999999983
 51
222.8700000000004
  0
ARC
  5
302
330
534
100
AcDbEntity
  8
1
  6
Continuous
100
AcDbCircle
 10
102.4731774949667
 20
115.1341721398594
 30
0.0
 40
0.5225300000000001
100
AcDbArc
 50
42.87000000000053
 51
137.1303999999983
  0
ARC
  5
303
330
534
100
AcDbEntity
  8
1
  6
Continuous
100
AcDbCircle
 10
102.4731774949667
 20
114.9942321398594
 30
0.0
 40
0.5225300000000001
100
AcDbArc
 50
222.8700000000004
 51
294.276999999999
  0
LINE
  5
304
330
534
100
AcDbEntity
  8
4
  6
CENTER
100
AcDbLine
 10
105.3231774949668
 20
129.0780031398594
 30
0.0
 11
97.02317749496673
 21
129.0780031398594
 31
0.0
  0
ARC
  5
305
330
534
100
AcDbEntity
  8
1
  6
Continuous
100
AcDbCircle
 10
96.17317749496685
 20
121.4780031398592
 30
0.0
 40
1.0
100
AcDbArc
 50
0.0
 51
90.0
  0
LINE
  5
306
330
534
100
AcDbEntity
  8
1
  6
Continuous
100
AcDbLine
 10
103.4647204949667
 20
119.2770031398593
 30
0.0
 11
103.4647204949667
 21
120.5780031398594
 31
0.0
  0
LINE
  5
307
330
534
100
AcDbEntity
  8
1
  6
Continuous
100
AcDbLine
 10
101.9231774949667
 20
120.3756031398594
 30
0.0
 11
103.9231774949667
 21
120.3756031398594
 31
0.0
  0
LINE
  5
308
330
534
100
AcDbEntity
  8
1
  6
Continuous
100
AcDbLine
 10
101.9231774949667
 20
120.3756031398594
 30
0.0
 11
103.4647204949667
 21
119.2770031398593
 31
0.0
  0
LINE
  5
309
330
534
100
AcDbEntity
  8
1
  6
Continuous
100
AcDbLine
 10
161.3055394949665
 20
105.8780031398594
 30
0.0
 11
161.3055394949665
 21
122.2780031398594
 31
0.0
  0
LINE
  5
30A
330
534
100
AcDbEntity
  8
4
  6
CENTER
100
AcDbLine
 10
166.0451844949667
 20
99.07800313985944
 30
0.0
 11
171.3683434949667
 21
99.07800313985944
 31
0.0
  0
LINE
  5
30B
330
534
100
AcDbEntity
  8
1
  6
Continuous
100
AcDbLine
 10
161.7055394949668
 20
94.07800313985935
 30
0.0
 11
161.7055394949668
 21
105.6780031398594
 31
0.0
  0
LINE
  5
30C
330
534
100
AcDbEntity
  8
1
  6
Continuous
100
AcDbLine
 10
166.9055394949667
 20
94.07800313985935
 30
0.0
 11
166.9055394949667
 21
105.6780031398594
 31
0.0
  0
LINE
  5
30D
330
534
100
AcDbEntity
  8
1
  6
Continuous
100
AcDbLine
 10
166.6375904949665
 20
95.07800313985935
 30
0.0
 11
166.6375904949665
 21
104.6780031398594
 31
0.0
  0
LINE
  5
30E
330
534
100
AcDbEntity
  8
1
  6
Continuous
100
AcDbLine
 10
161.7055394949668
 20
94.07800313985935
 30
0.0
 11
169.9055394949667
 21
94.07800313985935
 31
0.0
  0
ARC
  5
30F
330
534
100
AcDbEntity
  8
1
  6
Continuous
100
AcDbCircle
 10
165.6375904949665
 20
95.07800313985935
 30
0.0
 40
1.0
100
AcDbArc
 50
270.0
 51
0.0
  0
LINE
  5
310
330
534
100
AcDbEntity
  8
1
  6
Continuous
100
AcDbLine
 10
161.7055394949668
 20
105.6780031398594
 30
0.0
 11
168.7055394949666
 21
105.6780031398594
 31
0.0
  0
LINE
  5
311
330
534
100
AcDbEntity
  8
1
  6
Continuous
100
AcDbLine
 10
161.3055394949665
 20
106.8780031398593
 30
0.0
 11
168.7055394949666
 21
106.8780031398593
 31
0.0
  0
LINE
  5
312
330
534
100
AcDbEntity
  8
1
  6
Continuous
100
AcDbLine
 10
161.3055394949665
 20
108.0780031398594
 30
0.0
 11
168.7055394949666
 21
108.0780031398594
 31
0.0
  0
LINE
  5
313
330
534
100
AcDbEntity
  8
1
  6
Continuous
100
AcDbLine
 10
161.3055394949665
 20
105.8780031398594
 30
0.0
 11
168.5055394949668
 21
105.8780031398594
 31
0.0
  0
ARC
  5
314
330
534
100
AcDbEntity
  8
1
  6
Continuous
100
AcDbCircle
 10
165.6375904949665
 20
104.6780031398594
 30
0.0
 40
1.0
100
AcDbArc
 50
0.0
 51
90.0
  0
LINE
  5
315
330
534
100
AcDbEntity
  8
1
  6
Continuous
100
AcDbLine
 10
163.5055394949668
 20
105.6780031398594
 30
0.0
 11
163.5055394949668
 21
105.8780031398594
 31
0.0
  0
LINE
  5
316
330
534
100
AcDbEntity
  8
1
  6
Continuous
100
AcDbLine
 10
168.5055394949668
 20
105.8780031398594
 30
0.0
 11
168.5055394949668
 21
106.8780031398593
 31
0.0
  0
LINE
  5
317
330
534
100
AcDbEntity
  8
1
  6
Continuous
100
AcDbLine
 10
166.5055394949668
 20
105.6780031398594
 30
0.0
 11
166.5055394949668
 21
105.8780031398594
 31
0.0
  0
LINE
  5
318
330
534
100
AcDbEntity
  8
4
  6
CENTER
100
AcDbLine
 10
166.1704214949666
 20
129.0780031398594
 30
0.0
 11
171.3683434949667
 21
129.0780031398594
 31
0.0
  0
LINE
  5
319
330
534
100
AcDbEntity
  8
4
  6
CENTER
100
AcDbLine
 10
159.9186664949666
 20
114.0780031398593
 30
0.0
 11
171.3683434949667
 21
114.0780031398593
 31
0.0
  0
LINE
  5
31A
330
534
100
AcDbEntity
  8
1
  6
Continuous
100
AcDbLine
 10
161.3055394949665
 20
122.2780031398594
 30
0.0
 11
168.5055394949668
 21
122.2780031398594
 31
0.0
  0
LINE
  5
31B
330
534
100
AcDbEntity
  8
1
  6
Continuous
100
AcDbLine
 10
161.3055394949665
 20
121.2780031398594
 30
0.0
 11
168.7055394949666
 21
121.2780031398594
 31
0.0
  0
LINE
  5
31C
330
534
100
AcDbEntity
  8
1
  6
Continuous
100
AcDbLine
 10
161.3055394949665
 20
120.0780031398593
 30
0.0
 11
168.7055394949666
 21
120.0780031398593
 31
0.0
  0
LINE
  5
31D
330
534
100
AcDbEntity
  8
1
  6
Continuous
100
AcDbLine
 10
161.7055394949668
 20
122.4780031398594
 30
0.0
 11
168.7055394949666
 21
122.4780031398594
 31
0.0
  0
ARC
  5
31E
330
534
100
AcDbEntity
  8
1
  6
Continuous
100
AcDbCircle
 10
165.6375904949665
 20
123.4780031398594
 30
0.0
 40
1.0
100
AcDbArc
 50
270.0
 51
0.0
  0
LINE
  5
31F
330
534
100
AcDbEntity
  8
1
  6
Continuous
100
AcDbLine
 10
163.5055394949668
 20
122.2780031398594
 30
0.0
 11
163.5055394949668
 21
122.4780031398594
 31
0.0
  0
LINE
  5
320
330
534
100
AcDbEntity
  8
1
  6
Continuous
100
AcDbLine
 10
168.5055394949668
 20
121.2780031398594
 30
0.0
 11
168.5055394949668
 21
122.2780031398594
 31
0.0
  0
LINE
  5
321
330
534
100
AcDbEntity
  8
1
  6
Continuous
100
AcDbLine
 10
166.5055394949668
 20
122.2780031398594
 30
0.0
 11
166.5055394949668
 21
122.4780031398594
 31
0.0
  0
LINE
  5
322
330
534
100
AcDbEntity
  8
1
  6
Continuous
100
AcDbLine
 10
20.64081549496688
 20
134.0780031398594
 30
0.0
 11
12.44081549496684
 21
134.0780031398594
 31
0.0
  0
LINE
  5
323
330
534
100
AcDbEntity
  8
1
  6
Continuous
100
AcDbLine
 10
104.1731774949667
 20
134.0780031398594
 30
0.0
 11
87.97317749496674
 21
134.0780031398594
 31
0.0
  0
LINE
  5
324
330
534
100
AcDbEntity
  8
1
  6
Continuous
100
AcDbLine
 10
85.57317749496691
 20
134.0780031398594
 30
0.0
 11
73.17317749496678
 21
134.0780031398594
 31
0.0
  0
ARC
  5
325
330
534
100
AcDbEntity
  8
1
  6
Continuous
100
AcDbCircle
 10
73.17317749496678
 20
132.0780031398594
 30
0.0
 40
2.0
100
AcDbArc
 50
90.0
 51
180.0
  0
ARC
  5
326
330
534
100
AcDbEntity
  8
1
  6
Continuous
100
AcDbCircle
 10
104.1731774949667
 20
132.0780031398594
 30
0.0
 40
2.0
100
AcDbArc
 50
0.0
 51
90.0
  0
ARC
  5
327
330
534
100
AcDbEntity
  8
1
  6
Continuous
100
AcDbCircle
 10
91.17317749496672
 20
189.1970771398593
 30
0.0
 40
3.6
100
AcDbArc
 50
62.73395599999886
 51
34.79197499999855
  0
ARC
  5
328
330
534
100
AcDbEntity
  8
1
  6
Continuous
100
AcDbCircle
 10
91.17317749496672
 20
189.1970771398593
 30
0.0
 40
3.2
100
AcDbArc
 50
90.0
 51
300.0
  0
ARC
  5
329
330
534
100
AcDbEntity
  8
1
  6
Continuous
100
AcDbCircle
 10
91.17317749496672
 20
189.1970771398593
 30
0.0
 40
2.0
100
AcDbArc
 50
60.0
 51
300.0
  0
LINE
  5
32A
330
534
100
AcDbEntity
  8
1
  6
Continuous
100
AcDbLine
 10
93.17317749496671
 20
194.1970771398594
 30
0.0
 11
71.17317749496681
 21
194.1970771398594
 31
0.0
  0
LINE
  5
32B
330
534
100
AcDbEntity
  8
1
  6
Continuous
100
AcDbLine
 10
91.17317749496672
 20
192.3970771398592
 30
0.0
 11
93.77317749496674
 21
192.3970771398592
 31
0.0
  0
LINE
  5
32C
330
534
100
AcDbEntity
  8
1
  6
Continuous
100
AcDbLine
 10
91.17317749496672
 20
191.1970771398593
 30
0.0
 11
93.77317749496674
 21
191.1970771398593
 31
0.0
  0
LINE
  5
32D
330
534
100
AcDbEntity
  8
5
  6
PHANTOM
100
AcDbLine
 10
89.17317749496673
 20
184.1970771398594
 30
0.0
 11
111.1731774949667
 21
184.1970771398594
 31
0.0
  0
LINE
  5
32E
330
534
100
AcDbEntity
  8
1
  6
Continuous
100
AcDbLine
 10
93.37317749496682
 20
190.9291281398594
 30
0.0
 11
92.17317749496672
 21
190.9291281398594
 31
0.0
  0
LINE
  5
32F
330
534
100
AcDbEntity
  8
4
  6
CENTER
100
AcDbLine
 10
95.64147149496672
 20
189.1970771398593
 30
0.0
 11
86.71573649496691
 21
189.1970771398593
 31
0.0
  0
LINE
  5
330
330
534
100
AcDbEntity
  8
4
  6
CENTER
100
AcDbLine
 10
91.17317749496672
 20
182.8030661398594
 30
0.0
 11
91.17317749496672
 21
195.6234311398594
 31
0.0
  0
LINE
  5
331
330
534
100
AcDbEntity
  8
4
  6
CENTER
100
AcDbLine
 10
83.37317749496682
 20
184.5328811398593
 30
0.0
 11
83.37317749496682
 21
195.6234311398594
 31
0.0
  0
LINE
  5
332
330
534
100
AcDbEntity
  8
1
  6
Continuous
100
AcDbLine
 10
87.57317749496674
 20
189.2970771398593
 30
0.0
 11
87.57317749496674
 21
194.1970771398594
 31
0.0
  0
LINE
  5
333
330
534
100
AcDbEntity
  8
4
  6
CENTER
100
AcDbLine
 10
76.17317749496681
 20
191.5269231398592
 30
0.0
 11
76.17317749496681
 21
195.6234311398594
 31
0.0
  0
LINE
  5
334
330
534
100
AcDbEntity
  8
1
  6
Continuous
100
AcDbLine
 10
71.17317749496681
 20
192.9970771398594
 30
0.0
 11
71.17317749496681
 21
194.1970771398594
 31
0.0
  0
LINE
  5
335
330
534
100
AcDbEntity
  8
1
  6
Continuous
100
AcDbLine
 10
85.57317749496691
 20
192.9970771398594
 30
0.0
 11
85.57317749496691
 21
194.1970771398594
 31
0.0
  0
LINE
  5
336
330
534
100
AcDbEntity
  8
1
  6
Continuous
100
AcDbLine
 10
87.57317749496674
 20
192.9970771398594
 30
0.0
 11
71.17317749496681
 21
192.9970771398594
 31
0.0
  0
LINE
  5
337
330
534
100
AcDbEntity
  8
1
  6
Continuous
100
AcDbLine
 10
87.57317749496674
 20
191.9970771398594
 30
0.0
 11
80.17317749496678
 21
191.9970771398594
 31
0.0
  0
LINE
  5
338
330
534
100
AcDbEntity
  8
1
  6
Continuous
100
AcDbLine
 10
84.97317749496689
 20
186.1970771398594
 30
0.0
 11
81.77317749496683
 21
186.1970771398594
 31
0.0
  0
LINE
  5
339
330
534
100
AcDbEntity
  8
1
  6
Continuous
100
AcDbLine
 10
86.37317749496686
 20
186.4970771398594
 30
0.0
 11
80.37317749496684
 21
186.4970771398594
 31
0.0
  0
LINE
  5
33A
330
534
100
AcDbEntity
  8
1
  6
Continuous
100
AcDbLine
 10
87.57317749496674
 20
190.5970771398594
 30
0.0
 11
80.17317749496678
 21
190.5970771398594
 31
0.0
  0
LINE
  5
33B
330
534
100
AcDbEntity
  8
1
  6
Continuous
100
AcDbLine
 10
87.57317749496674
 20
189.9970771398594
 30
0.0
 11
80.17317749496678
 21
189.9970771398594
 31
0.0
  0
LINE
  5
33C
330
534
100
AcDbEntity
  8
1
  6
Continuous
100
AcDbLine
 10
87.57317749496674
 20
190.9970771398594
 30
0.0
 11
80.17317749496678
 21
190.9970771398594
 31
0.0
  0
LINE
  5
33D
330
534
100
AcDbEntity
  8
1
  6
Continuous
100
AcDbLine
 10
87.64188949496682
 20
188.4970771398592
 30
0.0
 11
80.17317749496678
 21
188.4970771398592
 31
0.0
  0
LINE
  5
33E
330
534
100
AcDbEntity
  8
1
  6
Continuous
100
AcDbLine
 10
87.52352049496684
 20
187.4970771398594
 30
0.0
 11
80.17317749496678
 21
187.4970771398594
 31
0.0
  0
LINE
  5
33F
330
534
100
AcDbEntity
  8
1
  6
Continuous
100
AcDbLine
 10
80.17317749496678
 20
187.4970771398594
 30
0.0
 11
80.17317749496678
 21
192.9970771398594
 31
0.0
  0
LINE
  5
340
330
534
100
AcDbEntity
  8
1
  6
Continuous
100
AcDbLine
 10
80.37317749496684
 20
186.4970771398594
 30
0.0
 11
80.37317749496684
 21
187.4970771398594
 31
0.0
  0
ARC
  5
341
330
534
100
AcDbEntity
  8
1
  6
Continuous
100
AcDbCircle
 10
81.77317749496683
 20
186.3470771398594
 30
0.0
 40
0.15
100
AcDbArc
 50
90.0
 51
270.0
  0
LINE
  5
342
330
534
100
AcDbEntity
  8
1
  6
Continuous
100
AcDbLine
 10
92.17317749496672
 20
187.4650261398594
 30
0.0
 11
92.17317749496672
 21
190.9291281398594
 31
0.0
  0
ARC
  5
343
330
534
100
AcDbEntity
  8
1
  6
Continuous
100
AcDbCircle
 10
84.97317749496689
 20
186.3470771398594
 30
0.0
 40
0.15
100
AcDbArc
 50
270.0
 51
90.0
  0
LINE
  5
344
330
534
100
AcDbEntity
  8
1
  6
Continuous
100
AcDbLine
 10
86.37317749496686
 20
186.4970771398594
 30
0.0
 11
86.37317749496686
 21
187.4970771398594
 31
0.0
  0
ARC
  5
345
330
534
100
AcDbEntity
  8
1
  6
Continuous
100
AcDbCircle
 10
87.52352049496684
 20
186.4970771398594
 30
0.0
 40
1.0
100
AcDbArc
 50
54.19034900000212
 51
90.0
  0
LINE
  5
346
330
534
100
AcDbEntity
  8
5
  6
PHANTOM
100
AcDbLine
 10
89.17317749496673
 20
186.2037511398592
 30
0.0
 11
89.17317749496673
 21
184.1970771398594
 31
0.0
  0
LINE
  5
347
330
534
100
AcDbEntity
  8
1
  6
Continuous
100
AcDbLine
 10
96.33288349496666
 20
194.0119781398593
 30
0.0
 11
93.77317749496674
 21
192.3970771398592
 31
0.0
  0
LINE
  5
348
330
534
100
AcDbEntity
  8
1
  6
Continuous
100
AcDbLine
 10
93.17317749496671
 20
192.3970771398592
 30
0.0
 11
93.17317749496671
 21
194.1970771398594
 31
0.0
  0
LINE
  5
349
330
534
100
AcDbEntity
  8
4
  6
CENTER
100
AcDbLine
 10
101.1731774949667
 20
191.5269231398592
 30
0.0
 11
101.1731774949667
 21
195.6234311398594
 31
0.0
  0
LINE
  5
34A
330
534
100
AcDbEntity
  8
1
  6
Continuous
100
AcDbLine
 10
106.1731774949667
 20
192.9970771398594
 30
0.0
 11
106.1731774949667
 21
194.1970771398594
 31
0.0
  0
LINE
  5
34B
330
534
100
AcDbEntity
  8
5
  6
PHANTOM
100
AcDbLine
 10
94.77317749496673
 20
185.3970771398593
 30
0.0
 11
111.1731774949667
 21
185.3970771398593
 31
0.0
  0
LINE
  5
34C
330
534
100
AcDbEntity
  8
4
  6
CENTER
100
AcDbLine
 10
106.1731774949667
 20
186.8672311398593
 30
0.0
 11
106.1731774949667
 21
182.7707231398593
 31
0.0
  0
LINE
  5
34D
330
534
100
AcDbEntity
  8
1
  6
Continuous
100
AcDbLine
 10
106.1731774949667
 20
192.9970771398594
 30
0.0
 11
96.97317749496685
 21
192.9970771398594
 31
0.0
  0
LINE
  5
34E
330
534
100
AcDbEntity
  8
5
  6
PHANTOM
100
AcDbLine
 10
94.77317749496673
 20
189.0970771398594
 30
0.0
 11
94.77317749496673
 21
184.1970771398594
 31
0.0
  0
LINE
  5
34F
330
534
100
AcDbEntity
  8
1
  6
Continuous
100
AcDbLine
 10
93.37317749496682
 20
187.4650261398594
 30
0.0
 11
93.37317749496682
 21
190.9291281398594
 31
0.0
  0
ARC
  5
350
330
534
100
AcDbEntity
  8
1
  6
Continuous
100
AcDbCircle
 10
92.17317749496672
 20
187.4650261398594
 30
0.0
 40
1.199999999999999
100
AcDbArc
 50
300.0
 51
0.0
  0
LINE
  5
351
330
534
100
AcDbEntity
  8
5
  6
PHANTOM
100
AcDbLine
 10
96.77317749496685
 20
185.3970771398593
 30
0.0
 11
96.77317749496685
 21
184.1970771398594
 31
0.0
  0
LINE
  5
352
330
534
100
AcDbEntity
  8
1
  6
Continuous
100
AcDbLine
 10
96.97317749496685
 20
192.9970771398594
 30
0.0
 11
94.41347149496682
 21
191.3821761398594
 31
0.0
  0
ARC
  5
353
330
534
100
AcDbEntity
  8
1
  6
Continuous
100
AcDbCircle
 10
93.77317749496674
 20
192.3970771398592
 30
0.0
 40
1.199999999999999
100
AcDbArc
 50
270.0
 51
302.2475439999972
  0
LINE
  5
354
330
534
100
AcDbEntity
  8
5
  6
PHANTOM
100
AcDbLine
 10
111.1731774949667
 20
185.3970771398593
 30
0.0
 11
111.1731774949667
 21
184.1970771398594
 31
0.0
  0
LINE
  5
355
330
534
100
AcDbEntity
  8
1
  6
Continuous
100
AcDbLine
 10
106.1731774949667
 20
194.1970771398594
 30
0.0
 11
96.97317749496685
 21
194.1970771398594
 31
0.0
  0
ARC
  5
356
330
534
100
AcDbEntity
  8
1
  6
Continuous
100
AcDbCircle
 10
96.97317749496685
 20
192.9970771398594
 30
0.0
 40
1.199999999999999
100
AcDbArc
 50
90.0
 51
122.2475439999971
  0
LINE
  5
357
330
534
100
AcDbEntity
  8
1
  6
Continuous
100
AcDbLine
 10
161.7055394949668
 20
134.0780031398594
 30
0.0
 11
169.9055394949667
 21
134.0780031398594
 31
0.0
  0
ARC
  5
358
330
534
100
AcDbEntity
  8
1
  6
Continuous
100
AcDbCircle
 10
165.6375904949665
 20
133.0780031398594
 30
0.0
 40
1.0
100
AcDbArc
 50
0.0
 51
90.0
  0
LINE
  5
359
330
534
100
AcDbEntity
  8
1
  6
Continuous
100
AcDbLine
 10
258.6379014949667
 20
132.0780031398594
 30
0.0
 11
258.6379014949667
 21
96.07800313985935
 31
0.0
  0
LINE
  5
35A
330
534
100
AcDbEntity
  8
4
  6
CENTER
100
AcDbLine
 10
253.6379014949666
 20
133.2280031398593
 30
0.0
 11
253.6379014949666
 21
124.9280031398594
 31
0.0
  0
CIRCLE
  5
35B
330
534
100
AcDbEntity
  8
1
  6
Continuous
100
AcDbCircle
 10
253.6379014949666
 20
129.0780031398594
 30
0.0
 40
2.149999999999999
  0
LINE
  5
35C
330
534
100
AcDbEntity
  8
4
  6
CENTER
100
AcDbLine
 10
238.6379014949666
 20
136.9913531398593
 30
0.0
 11
238.6379014949666
 21
90.85690113985949
 31
0.0
  0
LINE
  5
35D
330
534
100
AcDbEntity
  8
1
  6
Continuous
100
AcDbLine
 10
223.6379014949668
 20
132.0780031398594
 30
0.0
 11
223.6379014949668
 21
96.07800313985935
 31
0.0
  0
LINE
  5
35E
330
534
100
AcDbEntity
  8
1
  6
Continuous
100
AcDbLine
 10
244.2379014949665
 20
134.0780031398594
 30
0.0
 11
244.2379014949665
 21
120.0780031398593
 31
0.0
  0
LINE
  5
35F
330
534
100
AcDbEntity
  8
1
  6
Continuous
100
AcDbLine
 10
241.8379014949667
 20
134.0780031398594
 30
0.0
 11
241.8379014949667
 21
122.4780031398594
 31
0.0
  0
LINE
  5
360
330
534
100
AcDbEntity
  8
4
  6
CENTER
100
AcDbLine
 10
228.6379014949666
 20
133.2280031398593
 30
0.0
 11
228.6379014949666
 21
124.9280031398594
 31
0.0
  0
CIRCLE
  5
361
330
534
100
AcDbEntity
  8
1
  6
Continuous
100
AcDbCircle
 10
228.6379014949666
 20
129.0780031398594
 30
0.0
 40
2.149999999999999
  0
LINE
  5
362
330
534
100
AcDbEntity
  8
1
  6
Continuous
100
AcDbLine
 10
236.0379014949668
 20
122.4780031398594
 30
0.0
 11
236.0379014949668
 21
134.0780031398594
 31
0.0
  0
LINE
  5
363
330
534
100
AcDbEntity
  8
4
  6
CENTER
100
AcDbLine
 10
241.7579034949668
 20
114.0780031398593
 30
0.0
 11
257.7879014949667
 21
114.0780031398593
 31
0.0
  0
LINE
  5
364
330
534
100
AcDbEntity
  8
1
  6
Continuous
100
AcDbLine
 10
244.2379014949665
 20
94.07800313985935
 30
0.0
 11
256.6379014949667
 21
94.07800313985935
 31
0.0
  0
CIRCLE
  5
365
330
534
100
AcDbEntity
  8
1
  6
Continuous
100
AcDbCircle
 10
246.4379014949666
 20
114.0780031398593
 30
0.0
 40
3.0
  0
LINE
  5
366
330
534
100
AcDbEntity
  8
1
  6
Continuous
100
AcDbLine
 10
232.6379014949665
 20
121.4780031398592
 30
0.0
 11
232.6379014949665
 21
106.6780031398594
 31
0.0
  0
LINE
  5
367
330
534
100
AcDbEntity
  8
1
  6
Continuous
100
AcDbLine
 10
235.0379014949667
 20
105.8780031398594
 30
0.0
 11
235.0379014949667
 21
122.2780031398594
 31
0.0
  0
LINE
  5
368
330
534
100
AcDbEntity
  8
1
  6
Continuous
100
AcDbLine
 10
236.6379014949666
 20
121.2780031398594
 30
0.0
 11
236.6379014949666
 21
106.8780031398593
 31
0.0
  0
LINE
  5
369
330
534
100
AcDbEntity
  8
1
  6
Continuous
100
AcDbLine
 10
225.6379014949668
 20
94.07800313985935
 30
0.0
 11
241.8379014949667
 21
94.07800313985935
 31
0.0
  0
LINE
  5
36A
330
534
100
AcDbEntity
  8
4
  6
CENTER
100
AcDbLine
 10
224.4879014949665
 20
99.07800313985944
 30
0.0
 11
232.7879014949667
 21
99.07800313985944
 31
0.0
  0
LINE
  5
36B
330
534
100
AcDbEntity
  8
4
  6
CENTER
100
AcDbLine
 10
228.6379014949666
 20
103.2280031398594
 30
0.0
 11
228.6379014949666
 21
94.92800313985936
 31
0.0
  0
CIRCLE
  5
36C
330
534
100
AcDbEntity
  8
1
  6
Continuous
100
AcDbCircle
 10
228.6379014949666
 20
99.07800313985944
 30
0.0
 40
2.149999999999999
  0
ARC
  5
36D
330
534
100
AcDbEntity
  8
1
  6
Continuous
100
AcDbCircle
 10
225.6379014949668
 20
96.07800313985935
 30
0.0
 40
2.0
100
AcDbArc
 50
180.0
 51
270.0
  0
LINE
  5
36E
330
534
100
AcDbEntity
  8
1
  6
Continuous
100
AcDbLine
 10
241.8379014949667
 20
105.6780031398594
 30
0.0
 11
241.8379014949667
 21
94.07800313985935
 31
0.0
  0
LINE
  5
36F
330
534
100
AcDbEntity
  8
1
  6
Continuous
100
AcDbLine
 10
244.2379014949665
 20
108.0780031398594
 30
0.0
 11
244.2379014949665
 21
94.07800313985935
 31
0.0
  0
LINE
  5
370
330
534
100
AcDbEntity
  8
1
  6
Continuous
100
AcDbLine
 10
236.0379014949668
 20
94.07800313985935
 30
0.0
 11
236.0379014949668
 21
105.6780031398594
 31
0.0
  0
LINE
  5
371
330
534
100
AcDbEntity
  8
1
  6
Continuous
100
AcDbLine
 10
233.6379014949665
 20
105.6780031398594
 30
0.0
 11
241.8379014949667
 21
105.6780031398594
 31
0.0
  0
LINE
  5
372
330
534
100
AcDbEntity
  8
1
  6
Continuous
100
AcDbLine
 10
235.0379014949667
 20
105.8780031398594
 30
0.0
 11
242.2379014949665
 21
105.8780031398594
 31
0.0
  0
LINE
  5
373
330
534
100
AcDbEntity
  8
1
  6
Continuous
100
AcDbLine
 10
235.0379014949667
 20
106.8780031398593
 30
0.0
 11
242.2379014949665
 21
106.8780031398593
 31
0.0
  0
LINE
  5
374
330
534
100
AcDbEntity
  8
1
  6
Continuous
100
AcDbLine
 10
235.0379014949667
 20
108.0780031398594
 30
0.0
 11
236.6379014949666
 21
108.0780031398594
 31
0.0
  0
ARC
  5
375
330
534
100
AcDbEntity
  8
1
  6
Continuous
100
AcDbCircle
 10
233.6379014949665
 20
106.6780031398594
 30
0.0
 40
1.0
100
AcDbArc
 50
180.0
 51
270.0
  0
LINE
  5
376
330
534
100
AcDbEntity
  8
1
  6
Continuous
100
AcDbLine
 10
237.6379014949667
 20
105.8780031398594
 30
0.0
 11
237.6379014949667
 21
105.6780031398594
 31
0.0
  0
LINE
  5
377
330
534
100
AcDbEntity
  8
1
  6
Continuous
100
AcDbLine
 10
242.2379014949665
 20
108.0780031398594
 30
0.0
 11
244.2379014949665
 21
108.0780031398594
 31
0.0
  0
LINE
  5
378
330
534
100
AcDbEntity
  8
1
  6
Continuous
100
AcDbLine
 10
240.6379014949667
 20
105.8780031398594
 30
0.0
 11
240.6379014949667
 21
105.6780031398594
 31
0.0
  0
LINE
  5
379
330
534
100
AcDbEntity
  8
1
  6
Continuous
100
AcDbLine
 10
242.2379014949665
 20
108.0780031398594
 30
0.0
 11
242.2379014949665
 21
105.8780031398594
 31
0.0
  0
LINE
  5
37A
330
534
100
AcDbEntity
  8
4
  6
CENTER
100
AcDbLine
 10
224.4879014949665
 20
129.0780031398594
 30
0.0
 11
232.7879014949667
 21
129.0780031398594
 31
0.0
  0
LINE
  5
37B
330
534
100
AcDbEntity
  8
4
  6
CENTER
100
AcDbLine
 10
246.4379014949666
 20
118.7580011398594
 30
0.0
 11
246.4379014949666
 21
109.3980051398594
 31
0.0
  0
LINE
  5
37C
330
534
100
AcDbEntity
  8
1
  6
Continuous
100
AcDbLine
 10
233.6379014949665
 20
122.4780031398594
 30
0.0
 11
241.8379014949667
 21
122.4780031398594
 31
0.0
  0
LINE
  5
37D
330
534
100
AcDbEntity
  8
1
  6
Continuous
100
AcDbLine
 10
235.0379014949667
 20
122.2780031398594
 30
0.0
 11
242.2379014949665
 21
122.2780031398594
 31
0.0
  0
LINE
  5
37E
330
534
100
AcDbEntity
  8
1
  6
Continuous
100
AcDbLine
 10
235.0379014949667
 20
121.2780031398594
 30
0.0
 11
242.2379014949665
 21
121.2780031398594
 31
0.0
  0
LINE
  5
37F
330
534
100
AcDbEntity
  8
1
  6
Continuous
100
AcDbLine
 10
235.0379014949667
 20
120.0780031398593
 30
0.0
 11
236.6379014949666
 21
120.0780031398593
 31
0.0
  0
ARC
  5
380
330
534
100
AcDbEntity
  8
1
  6
Continuous
100
AcDbCircle
 10
233.6379014949665
 20
121.4780031398592
 30
0.0
 40
1.0
100
AcDbArc
 50
90.0
 51
180.0
  0
LINE
  5
381
330
534
100
AcDbEntity
  8
1
  6
Continuous
100
AcDbLine
 10
237.6379014949667
 20
122.4780031398594
 30
0.0
 11
237.6379014949667
 21
122.2780031398594
 31
0.0
  0
LINE
  5
382
330
534
100
AcDbEntity
  8
1
  6
Continuous
100
AcDbLine
 10
242.2379014949665
 20
120.0780031398593
 30
0.0
 11
244.2379014949665
 21
120.0780031398593
 31
0.0
  0
LINE
  5
383
330
534
100
AcDbEntity
  8
1
  6
Continuous
100
AcDbLine
 10
242.2379014949665
 20
122.2780031398594
 30
0.0
 11
242.2379014949665
 21
120.0780031398593
 31
0.0
  0
LINE
  5
384
330
534
100
AcDbEntity
  8
1
  6
Continuous
100
AcDbLine
 10
240.6379014949667
 20
122.4780031398594
 30
0.0
 11
240.6379014949667
 21
122.2780031398594
 31
0.0
  0
LINE
  5
385
330
534
100
AcDbEntity
  8
4
  6
CENTER
100
AcDbLine
 10
253.6379014949666
 20
103.2280031398594
 30
0.0
 11
253.6379014949666
 21
94.92800313985936
 31
0.0
  0
CIRCLE
  5
386
330
534
100
AcDbEntity
  8
1
  6
Continuous
100
AcDbCircle
 10
253.6379014949666
 20
99.07800313985944
 30
0.0
 40
2.149999999999999
  0
ARC
  5
387
330
534
100
AcDbEntity
  8
1
  6
Continuous
100
AcDbCircle
 10
256.6379014949667
 20
96.07800313985935
 30
0.0
 40
2.0
100
AcDbArc
 50
270.0
 51
0.0
  0
LINE
  5
388
330
534
100
AcDbEntity
  8
4
  6
CENTER
100
AcDbLine
 10
249.4879014949665
 20
99.07800313985944
 30
0.0
 11
257.7879014949667
 21
99.07800313985944
 31
0.0
  0
CIRCLE
  5
389
330
534
100
AcDbEntity
  8
1
  6
Continuous
100
AcDbCircle
 10
253.6379014949666
 20
114.0780031398593
 30
0.0
 40
2.149999999999999
  0
LINE
  5
38A
330
534
100
AcDbEntity
  8
4
  6
CENTER
100
AcDbLine
 10
253.6379014949666
 20
118.2280031398594
 30
0.0
 11
253.6379014949666
 21
109.9280031398593
 31
0.0
  0
LINE
  5
38B
330
534
100
AcDbEntity
  8
4
  6
CENTER
100
AcDbLine
 10
249.4879014949665
 20
129.0780031398594
 30
0.0
 11
257.7879014949667
 21
129.0780031398594
 31
0.0
  0
LINE
  5
38C
330
534
100
AcDbEntity
  8
1
  6
Continuous
100
AcDbLine
 10
244.2379014949665
 20
134.0780031398594
 30
0.0
 11
256.6379014949667
 21
134.0780031398594
 31
0.0
  0
LINE
  5
38D
330
534
100
AcDbEntity
  8
1
  6
Continuous
100
AcDbLine
 10
225.6379014949668
 20
134.0780031398594
 30
0.0
 11
241.8379014949667
 21
134.0780031398594
 31
0.0
  0
ARC
  5
38E
330
534
100
AcDbEntity
  8
1
  6
Continuous
100
AcDbCircle
 10
225.6379014949668
 20
132.0780031398594
 30
0.0
 40
2.0
100
AcDbArc
 50
90.0
 51
180.0
  0
ARC
  5
38F
330
534
100
AcDbEntity
  8
1
  6
Continuous
100
AcDbCircle
 10
256.6379014949667
 20
132.0780031398594
 30
0.0
 40
2.0
100
AcDbArc
 50
0.0
 51
90.0
  0
ENDSEC
  0
SECTION
  2
OBJECTS
  0
DICTIONARY
  5
4D1
330
0
100
AcDbDictionary
281
     1
  3
ACAD_CIP_PREVIOUS_PRODUCT_INFO
350
54D
  3
ACAD_COLOR
350
527
  3
ACAD_DETAILVIEWSTYLE
350
52E
  3
ACAD_GROUP
350
4D2
  3
ACAD_LAYOUT
350
526
  3
ACAD_MATERIAL
350
4D5
  3
ACAD_MLEADERSTYLE
350
52A
  3
ACAD_MLINESTYLE
350
523
  3
ACAD_PLOTSETTINGS
350
525
  3
ACAD_PLOTSTYLENAME
350
4D3
  3
ACAD_SCALELIST
350
507
  3
ACAD_SECTIONVIEWSTYLE
350
52C
  3
ACAD_TABLESTYLE
350
528
  3
ACAD_VISUALSTYLE
350
4EE
  3
ACDB_RECOMPOSE_DATA
350
56B
  3
AcDbVariableDictionary
350
55E
  3
DWGPROPS
350
56C
  0
DICTIONARY
  5
54E
330
519
100
AcDbDictionary
280
     1
281
     1
  3
ADSK_XREC_LAYER_RECONCILED
360
54F
  0
DICTIONARY
  5
550
330
53C
100
AcDbDictionary
280
     1
281
     1
  3
ADSK_XREC_LAYER_RECONCILED
360
551
  0
DICTIONARY
  5
552
330
53D
100
AcDbDictionary
280
     1
281
     1
  3
ADSK_XREC_LAYER_RECONCILED
360
553
  0
DICTIONARY
  5
554
330
53E
100
AcDbDictionary
280
     1
281
     1
  3
ADSK_XREC_LAYER_RECONCILED
360
555
  0
DICTIONARY
  5
556
330
53F
100
AcDbDictionary
280
     1
281
     1
  3
ADSK_XREC_LAYER_RECONCILED
360
557
  0
DICTIONARY
  5
558
330
540
100
AcDbDictionary
280
     1
281
     1
  3
ADSK_XREC_LAYER_RECONCILED
360
559
  0
DICTIONARY
  5
55A
330
541
100
AcDbDictionary
280
     1
281
     1
  3
ADSK_XREC_LAYER_RECONCILED
360
55B
  0
DICTIONARY
  5
55C
330
542
100
AcDbDictionary
280
     1
281
     1
  3
ADSK_XREC_LAYER_RECONCILED
360
55D
  0
XRECORD
  5
54D
102
{ACAD_REACTORS
330
4D1
102
}
330
4D1
100
AcDbXrecord
280
     1
300
ACDLT
300
2014
300
ACDLT_F_S
  0
DICTIONARY
  5
527
102
{ACAD_REACTORS
330
4D1
102
}
330
4D1
100
AcDbDictionary
281
     1
  0
DICTIONARY
  5
52E
102
{ACAD_REACTORS
330
4D1
102
}
330
4D1
100
AcDbDictionary
281
     1
  3
Imperial24
350
52F
  0
DICTIONARY
  5
4D2
102
{ACAD_REACTORS
330
4D1
102
}
330
4D1
100
AcDbDictionary
281
     1
  0
DICTIONARY
  5
526
102
{ACAD_REACTORS
330
4D1
102
}
330
4D1
100
AcDbDictionary
281
     1
  3
Model
350
537
  3
レイアウト1
350
533
  0
DICTIONARY
  5
4D5
102
{ACAD_REACTORS
330
4D1
102
}
330
4D1
100
AcDbDictionary
281
     1
  3
ByBlock
350
4DE
  3
ByLayer
350
4D6
  3
Global
350
4E6
  0
DICTIONARY
  5
52A
102
{ACAD_REACTORS
330
4D1
102
}
330
4D1
100
AcDbDictionary
281
     1
  3
Standard
350
52B
  0
DICTIONARY
  5
523
102
{ACAD_REACTORS
330
4D1
102
}
330
4D1
100
AcDbDictionary
281
     1
  3
Standard
350
524
  0
DICTIONARY
  5
525
102
{ACAD_REACTORS
330
4D1
102
}
330
4D1
100
AcDbDictionary
281
     1
  0
ACDBDICTIONARYWDFLT
  5
4D3
102
{ACAD_REACTORS
330
4D1
102
}
330
4D1
100
AcDbDictionary
281
     1
  3
Normal
350
4D4
100
AcDbDictionaryWithDefault
340
4D4
  0
DICTIONARY
  5
507
102
{ACAD_REACTORS
330
4D1
102
}
330
4D1
100
AcDbDictionary
281
     1
  3
A0
350
508
  3
A1
350
509
  3
A2
350
50A
  3
A3
350
50B
  3
A4
350
50C
  3
A5
350
50D
  3
A6
350
50E
  3
A7
350
50F
  3
A8
350
510
  3
A9
350
511
  3
B0
350
512
  3
B1
350
513
  3
B2
350
514
  3
B3
350
515
  3
B4
350
516
  3
B5
350
517
  3
B6
350
518
  0
DICTIONARY
  5
52C
102
{ACAD_REACTORS
330
4D1
102
}
330
4D1
100
AcDbDictionary
281
     1
  3
Imperial24
350
52D
  0
DICTIONARY
  5
528
102
{ACAD_REACTORS
330
4D1
102
}
330
4D1
100
AcDbDictionary
281
     1
  3
Standard
350
529
  0
DICTIONARY
  5
4EE
102
{ACAD_REACTORS
330
4D1
102
}
330
4D1
100
AcDbDictionary
281
     1
  3
2dWireframe
350
4F4
  3
Basic
350
4F3
  3
Brighten
350
4FA
  3
ColorChange
350
4FE
  3
Conceptual
350
4F7
  3
Dim
350
4F9
  3
EdgeColorOff
350
506
  3
Facepattern
350
4FD
  3
Flat
350
4EF
  3
FlatWithEdges
350
4F0
  3
Gouraud
350
4F1
  3
GouraudWithEdges
350
4F2
  3
Hidden
350
4F6
  3
JitterOff
350
504
  3
Linepattern
350
4FC
  3
OverhangOff
350
505
  3
Realistic
350
4F8
  3
Shaded
350
503
  3
Shaded with edges
350
502
  3
Shades of Gray
350
4FF
  3
Sketchy
350
500
  3
Thicken
350
4FB
  3
Wireframe
350
4F5
  3
X-Ray
350
501
  0
XRECORD
  5
56B
102
{ACAD_REACTORS
330
4D1
102
}
330
4D1
100
AcDbXrecord
280
     1
 90
        1
330
529
  0
DICTIONARY
  5
55E
102
{ACAD_REACTORS
330
4D1
102
}
330
4D1
100
AcDbDictionary
281
     1
  3
CANNOSCALE
350
563
  3
CMLEADERSTYLE
350
560
  3
CTABLESTYLE
350
55F
  3
CVIEWDETAILSTYLE
350
561
  3
CVIEWSECTIONSTYLE
350
562
  3
DIMASSOC
350
566
  3
INDEXCTL
350
565
  3
SORTENTS
350
564
  3
XCLIPFRAME
350
567
  0
XRECORD
  5
56C
102
{ACAD_REACTORS
330
4D1
102
}
330
4D1
100
AcDbXrecord
280
     1
  1
DWGPROPS COOKIE
  2

  3

  4

  6

  7

  8
Yoshitsune
  9

300
=
301
=
302
=
303
=
304
=
305
=
306
=
307
=
308
=
309
=
 40
0.0865047453703704
 41
2456276.614581644
 42
2457192.616080972
  1

 90
        0
  0
XRECORD
  5
54F
102
{ACAD_REACTORS
330
54E
102
}
330
54E
100
AcDbXrecord
280
     1
290
     1
  0
XRECORD
  5
551
102
{ACAD_REACTORS
330
550
102
}
330
550
100
AcDbXrecord
280
     1
290
     1
  0
XRECORD
  5
553
102
{ACAD_REACTORS
330
552
102
}
330
552
100
AcDbXrecord
280
     1
290
     1
  0
XRECORD
  5
555
102
{ACAD_REACTORS
330
554
102
}
330
554
100
AcDbXrecord
280
     1
290
     1
  0
XRECORD
  5
557
102
{ACAD_REACTORS
330
556
102
}
330
556
100
AcDbXrecord
280
     1
290
     1
  0
XRECORD
  5
559
102
{ACAD_REACTORS
330
558
102
}
330
558
100
AcDbXrecord
280
     1
290
     1
  0
XRECORD
  5
55B
102
{ACAD_REACTORS
330
55A
102
}
330
55A
100
AcDbXrecord
280
     1
290
     1
  0
XRECORD
  5
55D
102
{ACAD_REACTORS
330
55C
102
}
330
55C
100
AcDbXrecord
280
     1
290
     1
  0
ACDBDETAILVIEWSTYLE
  5
52F
102
{ACAD_XDICTIONARY
360
5A4
102
}
102
{ACAD_REACTORS
330
52E
102
}
330
52E
100
AcDbModelDocViewStyle
 70
     0
  3
Imperial24
290
     0
100
AcDbDetailViewStyle
 70
     0
 71
     0
 90
        3
 71
     1
340
51A
 40
0.24
340
0
 40
0.24
300

 40
0.36
280
     3
 71
     2
340
521
 90
       25
 71
     3
340
51A
 40
0.24
 90
        1
 40
0.75
 90
        1
300
%<\AcVar ViewType \f "%tc1">% %<\AcVar ViewDetailId>%\PSCALE %<\AcVar ViewScale \f "%sn">%
 71
     4
340
521
 90
       25
340
521
 90
       25
280
     0
  0
LAYOUT
  5
537
102
{ACAD_XDICTIONARY
360
5A8
102
}
102
{ACAD_REACTORS
330
526
102
}
330
526
100
AcDbPlotSettings
  1

  2
Canon LBP9100C
  4

  6

 40
0.0
 41
0.0
 42
0.0
 43
0.0
 44
0.0
 45
0.0
 46
0.0
 47
0.0
 48
0.0
 49
0.0
140
0.0
141
0.0
142
1.0
143
1.0
 70
  1712
 72
     0
 73
     0
 74
     0
  7

 75
     0
147
1.0
148
0.0
149
0.0
100
AcDbLayout
  1
Model
 70
     1
 71
     0
 10
0.0
 20
0.0
 11
12.0
 21
9.0
 12
0.0
 22
0.0
 32
0.0
 14
0.0
 24
0.0
 34
0.0
 15
0.0
 25
0.0
 35
0.0
146
0.0
 13
0.0
 23
0.0
 33
0.0
 16
1.0
 26
0.0
 36
0.0
 17
0.0
 27
1.0
 37
0.0
 76
     0
330
534
331
538
  0
LAYOUT
  5
533
102
{ACAD_XDICTIONARY
360
5A6
102
}
102
{ACAD_REACTORS
330
526
102
}
330
526
100
AcDbPlotSettings
  1

  2
Canon LBP9100C
  4

  6

 40
0.0
 41
0.0
 42
0.0
 43
0.0
 44
0.0
 45
0.0
 46
0.0
 47
0.0
 48
0.0
 49
0.0
140
0.0
141
0.0
142
1.0
143
1.0
 70
   688
 72
     0
 73
     0
 74
     5
  7

 75
    16
147
1.0
148
0.0
149
0.0
100
AcDbLayout
  1
レイアウト1
 70
     1
 71
     1
 10
0.0
 20
0.0
 11
420.0
 21
297.0
 12
0.0
 22
0.0
 32
0.0
 14
1.000000000000000E+20
 24
1.000000000000000E+20
 34
1.000000000000000E+20
 15
-1.000000000000000E+20
 25
-1.000000000000000E+20
 35
-1.000000000000000E+20
146
0.0
 13
0.0
 23
0.0
 33
0.0
 16
1.0
 26
0.0
 36
0.0
 17
0.0
 27
1.0
 37
0.0
 76
     0
330
530
  0
MATERIAL
  5
4DE
102
{ACAD_XDICTIONARY
360
4DF
102
}
102
{ACAD_REACTORS
330
4D5
102
}
330
4D5
100
AcDbMaterial
  1
ByBlock
 72
     0
 43
0.0208333333333333
 43
0.0
 43
0.0
 43
0.0
 43
0.0
 43
0.0208333333333333
 43
0.0
 43
0.0
 43
0.0
 43
0.0
 43
1.0
 43
0.0
 43
0.0
 43
0.0
 43
0.0
 43
1.0
 77
     0
 47
0.0208333333333333
 47
0.0
 47
0.0
 47
0.0
 47
0.0
 47
0.0208333333333333
 47
0.0
 47
0.0
 47
0.0
 47
0.0
 47
1.0
 47
0.0
 47
0.0
 47
0.0
 47
0.0
 47
1.0
171
     0
 49
0.0208333333333333
 49
0.0
 49
0.0
 49
0.0
 49
0.0
 49
0.0208333333333333
 49
0.0
 49
0.0
 49
0.0
 49
0.0
 49
1.0
 49
0.0
 49
0.0
 49
0.0
 49
0.0
 49
1.0
175
     0
142
0.0208333333333333
142
0.0
142
0.0
142
0.0
142
0.0
142
0.0208333333333333
142
0.0
142
0.0
142
0.0
142
0.0
142
1.0
142
0.0
142
0.0
142
0.0
142
0.0
142
1.0
179
     0
144
0.0208333333333333
144
0.0
144
0.0
144
0.0
144
0.0
144
0.0208333333333333
144
0.0
144
0.0
144
0.0
144
0.0
144
1.0
144
0.0
144
0.0
144
0.0
144
0.0
144
1.0
147
0.0208333333333333
147
0.0
147
0.0
147
0.0
147
0.0
147
0.0208333333333333
147
0.0
147
0.0
147
0.0
147
0.0
147
1.0
147
0.0
147
0.0
147
0.0
147
0.0
147
1.0
  0
MATERIAL
  5
4D6
102
{ACAD_XDICTIONARY
360
4D7
102
}
102
{ACAD_REACTORS
330
4D5
102
}
330
4D5
100
AcDbMaterial
  1
ByLayer
 72
     0
 43
0.0208333333333333
 43
0.0
 43
0.0
 43
0.0
 43
0.0
 43
0.0208333333333333
 43
0.0
 43
0.0
 43
0.0
 43
0.0
 43
1.0
 43
0.0
 43
0.0
 43
0.0
 43
0.0
 43
1.0
 77
     0
 47
0.0208333333333333
 47
0.0
 47
0.0
 47
0.0
 47
0.0
 47
0.0208333333333333
 47
0.0
 47
0.0
 47
0.0
 47
0.0
 47
1.0
 47
0.0
 47
0.0
 47
0.0
 47
0.0
 47
1.0
171
     0
 49
0.0208333333333333
 49
0.0
 49
0.0
 49
0.0
 49
0.0
 49
0.0208333333333333
 49
0.0
 49
0.0
 49
0.0
 49
0.0
 49
1.0
 49
0.0
 49
0.0
 49
0.0
 49
0.0
 49
1.0
175
     0
142
0.0208333333333333
142
0.0
142
0.0
142
0.0
142
0.0
142
0.0208333333333333
142
0.0
142
0.0
142
0.0
142
0.0
142
1.0
142
0.0
142
0.0
142
0.0
142
0.0
142
1.0
179
     0
144
0.0208333333333333
144
0.0
144
0.0
144
0.0
144
0.0
144
0.0208333333333333
144
0.0
144
0.0
144
0.0
144
0.0
144
1.0
144
0.0
144
0.0
144
0.0
144
0.0
144
1.0
147
0.0208333333333333
147
0.0
147
0.0
147
0.0
147
0.0
147
0.0208333333333333
147
0.0
147
0.0
147
0.0
147
0.0
147
1.0
147
0.0
147
0.0
147
0.0
147
0.0
147
1.0
  0
MATERIAL
  5
4E6
102
{ACAD_XDICTIONARY
360
4E7
102
}
102
{ACAD_REACTORS
330
4D5
102
}
330
4D5
100
AcDbMaterial
  1
Global
 72
     0
 43
0.0208333333333333
 43
0.0
 43
0.0
 43
0.0
 43
0.0
 43
0.0208333333333333
 43
0.0
 43
0.0
 43
0.0
 43
0.0
 43
1.0
 43
0.0
 43
0.0
 43
0.0
 43
0.0
 43
1.0
 77
     0
 47
0.0208333333333333
 47
0.0
 47
0.0
 47
0.0
 47
0.0
 47
0.0208333333333333
 47
0.0
 47
0.0
 47
0.0
 47
0.0
 47
1.0
 47
0.0
 47
0.0
 47
0.0
 47
0.0
 47
1.0
171
     0
 49
0.0208333333333333
 49
0.0
 49
0.0
 49
0.0
 49
0.0
 49
0.0208333333333333
 49
0.0
 49
0.0
 49
0.0
 49
0.0
 49
1.0
 49
0.0
 49
0.0
 49
0.0
 49
0.0
 49
1.0
175
     0
142
0.0208333333333333
142
0.0
142
0.0
142
0.0
142
0.0
142
0.0208333333333333
142
0.0
142
0.0
142
0.0
142
0.0
142
1.0
142
0.0
142
0.0
142
0.0
142
0.0
142
1.0
179
     0
144
0.0208333333333333
144
0.0
144
0.0
144
0.0
144
0.0
144
0.0208333333333333
144
0.0
144
0.0
144
0.0
144
0.0
144
1.0
144
0.0
144
0.0
144
0.0
144
0.0
144
1.0
147
0.0208333333333333
147
0.0
147
0.0
147
0.0
147
0.0
147
0.0208333333333333
147
0.0
147
0.0
147
0.0
147
0.0
147
1.0
147
0.0
147
0.0
147
0.0
147
0.0
147
1.0
  0
MLEADERSTYLE
  5
52B
102
{ACAD_REACTORS
330
52A
102
}
330
52A
100
AcDbMLeaderStyle
170
     2
171
     1
172
     0
 90
        2
 40
0.0
 41
0.0
173
     1
 91
-1056964608
340
51F
 92
       -2
290
     1
 42
0.09
291
     1
 43
0.36
  3
Standard
 44
0.18
300

342
51A
174
     1
178
     6
175
     1
176
     0
 93
-1056964608
 45
0.18
292
     0
297
     0
 46
0.18
 94
-1056964608
 47
1.0
 49
1.0
140
1.0
293
     1
141
0.0
294
     1
177
     0
142
1.0
295
     0
296
     0
143
0.125
1001
ACAD_MLEADERVER
1070
     2
  0
MLINESTYLE
  5
524
102
{ACAD_REACTORS
330
523
102
}
330
523
100
AcDbMlineStyle
  2
STANDARD
 70
     0
  3

 62
   256
 51
90.0
 52
90.0
 71
     2
 49
0.5
 62
   256
  6
BYLAYER
 49
-0.5
 62
   256
  6
BYLAYER
  0
ACDBPLACEHOLDER
  5
4D4
102
{ACAD_REACTORS
330
4D3
102
}
330
4D3
  0
SCALE
  5
508
102
{ACAD_REACTORS
330
507
102
}
330
507
100
AcDbScale
 70
     0
300
1:1
140
1.0
141
1.0
290
     1
  0
SCALE
  5
509
102
{ACAD_REACTORS
330
507
102
}
330
507
100
AcDbScale
 70
     0
300
1/128" = 1'-0"
140
0.0078125
141
12.0
290
     0
  0
SCALE
  5
50A
102
{ACAD_REACTORS
330
507
102
}
330
507
100
AcDbScale
 70
     0
300
1/64" = 1'-0"
140
0.015625
141
12.0
290
     0
  0
SCALE
  5
50B
102
{ACAD_REACTORS
330
507
102
}
330
507
100
AcDbScale
 70
     0
300
1/32" = 1'-0"
140
0.03125
141
12.0
290
     0
  0
SCALE
  5
50C
102
{ACAD_REACTORS
330
507
102
}
330
507
100
AcDbScale
 70
     0
300
1/16" = 1'-0"
140
0.0625
141
12.0
290
     0
  0
SCALE
  5
50D
102
{ACAD_REACTORS
330
507
102
}
330
507
100
AcDbScale
 70
     0
300
3/32" = 1'-0"
140
0.09375
141
12.0
290
     0
  0
SCALE
  5
50E
102
{ACAD_REACTORS
330
507
102
}
330
507
100
AcDbScale
 70
     0
300
1/8" = 1'-0"
140
0.125
141
12.0
290
     0
  0
SCALE
  5
50F
102
{ACAD_REACTORS
330
507
102
}
330
507
100
AcDbScale
 70
     0
300
3/16" = 1'-0"
140
0.1875
141
12.0
290
     0
  0
SCALE
  5
510
102
{ACAD_REACTORS
330
507
102
}
330
507
100
AcDbScale
 70
     0
300
1/4" = 1'-0"
140
0.25
141
12.0
290
     0
  0
SCALE
  5
511
102
{ACAD_REACTORS
330
507
102
}
330
507
100
AcDbScale
 70
     0
300
3/8" = 1'-0"
140
0.375
141
12.0
290
     0
  0
SCALE
  5
512
102
{ACAD_REACTORS
330
507
102
}
330
507
100
AcDbScale
 70
     0
300
1/2" = 1'-0"
140
0.5
141
12.0
290
     0
  0
SCALE
  5
513
102
{ACAD_REACTORS
330
507
102
}
330
507
100
AcDbScale
 70
     0
300
3/4" = 1'-0"
140
0.75
141
12.0
290
     0
  0
SCALE
  5
514
102
{ACAD_REACTORS
330
507
102
}
330
507
100
AcDbScale
 70
     0
300
1" = 1'-0"
140
1.0
141
12.0
290
     0
  0
SCALE
  5
515
102
{ACAD_REACTORS
330
507
102
}
330
507
100
AcDbScale
 70
     0
300
1-1/2" = 1'-0"
140
1.5
141
12.0
290
     0
  0
SCALE
  5
516
102
{ACAD_REACTORS
330
507
102
}
330
507
100
AcDbScale
 70
     0
300
3" = 1'-0"
140
3.0
141
12.0
290
     0
  0
SCALE
  5
517
102
{ACAD_REACTORS
330
507
102
}
330
507
100
AcDbScale
 70
     0
300
6" = 1'-0"
140
6.0
141
12.0
290
     0
  0
SCALE
  5
518
102
{ACAD_REACTORS
330
507
102
}
330
507
100
AcDbScale
 70
     0
300
1'-0" = 1'-0"
140
12.0
141
12.0
290
     0
  0
ACDBSECTIONVIEWSTYLE
  5
52D
102
{ACAD_XDICTIONARY
360
5A2
102
}
102
{ACAD_REACTORS
330
52C
102
}
330
52C
100
AcDbModelDocViewStyle
 70
     0
  3
Imperial24
290
     0
100
AcDbSectionViewStyle
 70
     0
 71
     0
 90
       78
 71
     1
340
51A
 40
0.24
340
0
340
0
 40
0.24
300
I, O, Q, S, X, Z
 40
0.48
 90
        3
 40
0.18
 90
        1
 71
     2
340
521
 90
       25
340
521
 90
       50
 40
0.24
 40
0.0
 40
0.24
 71
     3
340
51A
 40
0.24
 90
        1
 40
0.75
 90
        1
300
%<\AcVar ViewType \f "%tc1">% %<\AcVar ViewSectionStartId>%-%<\AcVar ViewSectionEndId>%\PSCALE %<\AcVar ViewScale \f "%sn">%
 71
     4
300
ANSI31
 40
1.0
 90
        0
290
     0
290
     0
 90
        6
 40
0.0
 40
1.570796326794896
 40
0.2617993877991494
 40
1.308996938995747
 40
-0.2617993877991494
 40
1.832595714594046
  0
TABLESTYLE
  5
529
102
{ACAD_XDICTIONARY
360
569
102
}
102
{ACAD_REACTORS
330
528
102
}
330
528
100
AcDbTableStyle
  3
Standard
 70
     0
 71
     0
 40
0.06
 41
0.06
280
     0
281
     0
  7
STANDARD
140
0.18
170
     2
 62
     0
 63
     7
283
     0
274
    -2
284
     1
 64
     0
275
    -2
285
     1
 65
     0
276
    -2
286
     1
 66
     0
277
    -2
287
     1
 67
     0
278
    -2
288
     1
 68
     0
279
    -2
289
     1
 69
     0
  7
STANDARD
140
0.25
170
     5
 62
     0
 63
     7
283
     0
274
    -2
284
     1
 64
     0
275
    -2
285
     1
 65
     0
276
    -2
286
     1
 66
     0
277
    -2
287
     1
 67
     0
278
    -2
288
     1
 68
     0
279
    -2
289
     1
 69
     0
  7
STANDARD
140
0.18
170
     5
 62
     0
 63
     7
283
     0
274
    -2
284
     1
 64
     0
275
    -2
285
     1
 65
     0
276
    -2
286
     1
 66
     0
277
    -2
287
     1
 67
     0
278
    -2
288
     1
 68
     0
279
    -2
289
     1
 69
     0
  0
VISUALSTYLE
  5
4F4
102
{ACAD_XDICTIONARY
360
57A
102
}
102
{ACAD_REACTORS
330
4EE
102
}
330
4EE
100
AcDbVisualStyle
  2
2dWireframe
 70
     4
 71
     0
 72
     2
 73
     0
 90
        0
 40
-0.6
 41
-30.0
 62
     5
 63
     7
 74
     1
 91
        4
 64
     7
 65
   257
 75
     1
175
     1
 42
1.0
 92
        0
 66
   257
 43
1.0
 76
     1
 77
     6
 78
     2
 67
     7
 79
     5
170
     0
171
     0
290
     0
174
     0
 93
        1
 44
0.0
173
     0
291
     0
 45
0.0
1001
ACAD
1000
AcDbSavedByObjectVersion
1070
     0
  0
VISUALSTYLE
  5
4F3
102
{ACAD_XDICTIONARY
360
578
102
}
102
{ACAD_REACTORS
330
4EE
102
}
330
4EE
100
AcDbVisualStyle
  2
Basic
 70
     7
 71
     1
 72
     0
 73
     1
 90
        0
 40
-0.6
 41
-30.0
 62
     5
 63
     7
 74
     0
 91
        4
 64
     7
 65
   257
 75
     1
175
     1
 42
1.0
 92
        8
 66
     7
 43
1.0
 76
     1
 77
     6
 78
     2
 67
     7
 79
     5
170
     0
171
     0
290
     0
174
     0
 93
        1
 44
0.0
173
     0
291
     1
 45
0.0
1001
ACAD
1000
AcDbSavedByObjectVersion
1070
     0
  0
VISUALSTYLE
  5
4FA
102
{ACAD_XDICTIONARY
360
586
102
}
102
{ACAD_REACTORS
330
4EE
102
}
330
4EE
100
AcDbVisualStyle
  2
Brighten
 70
    12
 71
     2
 72
     2
 73
     0
 90
        0
 40
-0.6
 41
-30.0
 62
     5
 63
     7
 74
     1
 91
        4
 64
     7
 65
   257
 75
     1
175
     1
 42
1.0
 92
        8
 66
     7
 43
1.0
 76
     1
 77
     6
 78
     2
 67
     7
 79
     5
170
     0
171
     0
290
     0
174
     0
 93
        1
 44
50.0
173
     0
291
     1
 45
0.0
1001
ACAD
1000
AcDbSavedByObjectVersion
1070
     0
  0
VISUALSTYLE
  5
4FE
102
{ACAD_XDICTIONARY
360
58E
102
}
102
{ACAD_REACTORS
330
4EE
102
}
330
4EE
100
AcDbVisualStyle
  2
ColorChange
 70
    16
 71
     2
 72
     2
 73
     3
 90
        0
 40
-0.6
 41
-30.0
 62
     5
 63
     8
 74
     1
 91
        4
 64
     7
 65
   257
 75
     1
175
     1
 42
1.0
 92
        8
 66
     8
 43
1.0
 76
     1
 77
     6
 78
     2
 67
     7
 79
     5
170
     0
171
     0
290
     0
174
     0
 93
        1
 44
0.0
173
     0
291
     1
 45
0.0
1001
ACAD
1000
AcDbSavedByObjectVersion
1070
     0
  0
VISUALSTYLE
  5
4F7
102
{ACAD_XDICTIONARY
360
580
102
}
102
{ACAD_REACTORS
330
4EE
102
}
330
4EE
100
AcDbVisualStyle
  2
Conceptual
 70
     9
 71
     3
 72
     2
 73
     0
 90
        0
 40
-0.6
 41
-30.0
 62
     5
 63
     7
 74
     2
 91
        2
 64
     7
 65
   257
 75
     1
175
     1
 42
179.0
 92
        8
 66
     7
 43
1.0
 76
     1
 77
     6
 78
     2
 67
     7
 79
     3
170
     0
171
     0
290
     0
174
     0
 93
        1
 44
0.0
173
     0
291
     0
 45
0.0
1001
ACAD
1000
AcDbSavedByObjectVersion
1070
     0
  0
VISUALSTYLE
  5
4F9
102
{ACAD_XDICTIONARY
360
584
102
}
102
{ACAD_REACTORS
330
4EE
102
}
330
4EE
100
AcDbVisualStyle
  2
Dim
 70
    11
 71
     2
 72
     2
 73
     0
 90
        0
 40
-0.6
 41
-30.0
 62
     5
 63
     7
 74
     1
 91
        4
 64
     7
 65
   257
 75
     1
175
     1
 42
1.0
 92
        8
 66
     7
 43
1.0
 76
     1
 77
     6
 78
     2
 67
     7
 79
     5
170
     0
171
     0
290
     0
174
     0
 93
        1
 44
-50.0
173
     0
291
     1
 45
0.0
1001
ACAD
1000
AcDbSavedByObjectVersion
1070
     0
  0
VISUALSTYLE
  5
506
102
{ACAD_XDICTIONARY
360
59E
102
}
102
{ACAD_REACTORS
330
4EE
102
}
330
4EE
100
AcDbVisualStyle
  2
EdgeColorOff
 70
    22
 71
     2
 72
     2
 73
     0
 90
        0
 40
-0.6
 41
-30.0
 62
     5
 63
     7
 74
     1
 91
        4
 64
     7
 65
   257
 75
     1
175
     1
 42
1.0
 92
        8
 66
     7
 43
1.0
 76
     1
 77
     6
 78
     2
 67
     7
 79
     5
170
     0
171
     0
290
     0
174
     0
 93
        1
 44
0.0
173
     0
291
     1
 45
0.0
1001
ACAD
1000
AcDbSavedByObjectVersion
1070
     0
  0
VISUALSTYLE
  5
4FD
102
{ACAD_XDICTIONARY
360
58C
102
}
102
{ACAD_REACTORS
330
4EE
102
}
330
4EE
100
AcDbVisualStyle
  2
Facepattern
 70
    15
 71
     2
 72
     2
 73
     0
 90
        0
 40
-0.6
 41
-30.0
 62
     5
 63
     7
 74
     1
 91
        4
 64
     7
 65
   257
 75
     1
175
     1
 42
1.0
 92
        8
 66
     7
 43
1.0
 76
     1
 77
     6
 78
     2
 67
     7
 79
     5
170
     0
171
     0
290
     0
174
     0
 93
        1
 44
0.0
173
     0
291
     1
 45
0.0
1001
ACAD
1000
AcDbSavedByObjectVersion
1070
     0
  0
VISUALSTYLE
  5
4EF
102
{ACAD_XDICTIONARY
360
570
102
}
102
{ACAD_REACTORS
330
4EE
102
}
330
4EE
100
AcDbVisualStyle
  2
Flat
 70
     0
 71
     2
 72
     1
 73
     1
 90
        2
 40
-0.6
 41
30.0
 62
     5
 63
     7
 74
     0
 91
        0
 64
     7
 65
   257
 75
     1
175
     1
 42
1.0
 92
        8
 66
     7
 43
1.0
 76
     1
 77
     6
 78
     2
 67
     7
 79
     5
170
     0
171
     0
290
     0
174
     0
 93
       13
 44
0.0
173
     0
291
     1
 45
0.0
1001
ACAD
1000
AcDbSavedByObjectVersion
1070
     0
  0
VISUALSTYLE
  5
4F0
102
{ACAD_XDICTIONARY
360
572
102
}
102
{ACAD_REACTORS
330
4EE
102
}
330
4EE
100
AcDbVisualStyle
  2
FlatWithEdges
 70
     1
 71
     2
 72
     1
 73
     1
 90
        2
 40
-0.6
 41
30.0
 62
     5
 63
     7
 74
     1
 91
        0
 64
     7
 65
   257
 75
     1
175
     1
 42
1.0
 92
        0
 66
   257
 43
1.0
 76
     1
 77
     6
 78
     2
 67
     7
 79
     5
170
     0
171
     0
290
     0
174
     0
 93
       13
 44
0.0
173
     0
291
     1
 45
0.0
1001
ACAD
1000
AcDbSavedByObjectVersion
1070
     0
  0
VISUALSTYLE
  5
4F1
102
{ACAD_XDICTIONARY
360
574
102
}
102
{ACAD_REACTORS
330
4EE
102
}
330
4EE
100
AcDbVisualStyle
  2
Gouraud
 70
     2
 71
     2
 72
     2
 73
     1
 90
        2
 40
-0.6
 41
30.0
 62
     5
 63
     7
 74
     0
 91
        0
 64
     7
 65
   257
 75
     1
175
     1
 42
1.0
 92
        0
 66
     7
 43
1.0
 76
     1
 77
     6
 78
     2
 67
     7
 79
     5
170
     0
171
     0
290
     0
174
     0
 93
       13
 44
0.0
173
     0
291
     1
 45
0.0
1001
ACAD
1000
AcDbSavedByObjectVersion
1070
     0
  0
VISUALSTYLE
  5
4F2
102
{ACAD_XDICTIONARY
360
576
102
}
102
{ACAD_REACTORS
330
4EE
102
}
330
4EE
100
AcDbVisualStyle
  2
GouraudWithEdges
 70
     3
 71
     2
 72
     2
 73
     1
 90
        2
 40
-0.6
 41
30.0
 62
     5
 63
     7
 74
     1
 91
        0
 64
     7
 65
   257
 75
     1
175
     1
 42
1.0
 92
        0
 66
   257
 43
1.0
 76
     1
 77
     6
 78
     2
 67
     7
 79
     5
170
     0
171
     0
290
     0
174
     0
 93
       13
 44
0.0
173
     0
291
     1
 45
0.0
1001
ACAD
1000
AcDbSavedByObjectVersion
1070
     0
  0
VISUALSTYLE
  5
4F6
102
{ACAD_XDICTIONARY
360
57E
102
}
102
{ACAD_REACTORS
330
4EE
102
}
330
4EE
100
AcDbVisualStyle
  2
Hidden
 70
     6
 71
     1
 72
     2
 73
     2
 90
        0
 40
-0.6
 41
-30.0
 62
     5
 63
     7
 74
     2
 91
        2
 64
     7
 65
   257
 75
     2
175
     1
 42
40.0
 92
        0
 66
   257
 43
1.0
 76
     1
 77
     6
 78
     2
 67
     7
 79
     3
170
     0
171
     0
290
     0
174
     0
 93
        1
 44
0.0
173
     0
291
     0
 45
0.0
1001
ACAD
1000
AcDbSavedByObjectVersion
1070
     0
  0
VISUALSTYLE
  5
504
102
{ACAD_XDICTIONARY
360
59A
102
}
102
{ACAD_REACTORS
330
4EE
102
}
330
4EE
100
AcDbVisualStyle
  2
JitterOff
 70
    20
 71
     2
 72
     2
 73
     0
 90
        0
 40
-0.6
 41
-30.0
 62
     5
 63
     7
 74
     1
 91
        4
 64
     7
 65
   257
 75
     1
175
     1
 42
1.0
 92
       10
 66
     7
 43
1.0
 76
     1
 77
     6
 78
     2
 67
     7
 79
     5
170
     0
171
     0
290
     0
174
     0
 93
        1
 44
0.0
173
     0
291
     1
 45
0.0
1001
ACAD
1000
AcDbSavedByObjectVersion
1070
     0
  0
VISUALSTYLE
  5
4FC
102
{ACAD_XDICTIONARY
360
58A
102
}
102
{ACAD_REACTORS
330
4EE
102
}
330
4EE
100
AcDbVisualStyle
  2
Linepattern
 70
    14
 71
     2
 72
     2
 73
     0
 90
        0
 40
-0.6
 41
-30.0
 62
     5
 63
     7
 74
     1
 91
        4
 64
     7
 65
   257
 75
     7
175
     7
 42
1.0
 92
        8
 66
     7
 43
1.0
 76
     1
 77
     6
 78
     2
 67
     7
 79
     5
170
     0
171
     0
290
     0
174
     0
 93
        1
 44
0.0
173
     0
291
     1
 45
0.0
1001
ACAD
1000
AcDbSavedByObjectVersion
1070
     0
  0
VISUALSTYLE
  5
505
102
{ACAD_XDICTIONARY
360
59C
102
}
102
{ACAD_REACTORS
330
4EE
102
}
330
4EE
100
AcDbVisualStyle
  2
OverhangOff
 70
    21
 71
     2
 72
     2
 73
     0
 90
        0
 40
-0.6
 41
-30.0
 62
     5
 63
     7
 74
     1
 91
        4
 64
     7
 65
   257
 75
     1
175
     1
 42
1.0
 92
        9
 66
     7
 43
1.0
 76
     1
 77
     6
 78
     2
 67
     7
 79
     5
170
     0
171
     0
290
     0
174
     0
 93
        1
 44
0.0
173
     0
291
     1
 45
0.0
1001
ACAD
1000
AcDbSavedByObjectVersion
1070
     0
  0
VISUALSTYLE
  5
4F8
102
{ACAD_XDICTIONARY
360
582
102
}
102
{ACAD_REACTORS
330
4EE
102
}
330
4EE
100
AcDbVisualStyle
  2
Realistic
 70
     8
 71
     2
 72
     3
 73
     0
 90
        2
 40
-0.6
 41
30.0
 62
     5
 63
     7
 74
     0
 91
        0
 64
     7
 65
   257
 75
     1
175
     1
 42
1.0
 92
        8
 66
   257
 43
1.0
 76
     1
 77
     6
 78
     2
 67
     7
 79
     3
170
     0
171
     0
290
     0
174
     0
 93
       13
 44
0.0
173
     0
291
     0
 45
0.0
1001
ACAD
1000
AcDbSavedByObjectVersion
1070
     0
  0
VISUALSTYLE
  5
503
102
{ACAD_XDICTIONARY
360
598
102
}
102
{ACAD_REACTORS
330
4EE
102
}
330
4EE
100
AcDbVisualStyle
  2
Shaded
 70
    27
 71
     2
 72
     2
 73
     1
 90
        2
 40
-0.6
 41
30.0
 62
     5
 63
     7
 74
     0
 91
        4
 64
     7
 65
   257
 75
     1
175
     1
 42
1.0
 92
        8
 66
   257
 43
1.0
 76
     1
 77
     6
 78
     2
 67
     8
 79
     3
170
     0
171
     0
290
     0
174
     0
 93
        5
 44
0.0
173
     0
291
     0
 45
0.0
1001
ACAD
1000
AcDbSavedByObjectVersion
1070
     0
  0
VISUALSTYLE
  5
502
102
{ACAD_XDICTIONARY
360
596
102
}
102
{ACAD_REACTORS
330
4EE
102
}
330
4EE
100
AcDbVisualStyle
  2
Shaded with edges
 70
    26
 71
     2
 72
     2
 73
     1
 90
        2
 40
-0.6
 41
30.0
 62
     5
 63
     7
 74
     1
 91
       10
 64
     7
 65
   257
 75
     2
175
     1
 42
1.0
 92
        8
 66
   257
 43
1.0
 76
     1
 77
     6
 78
     2
 67
     7
 79
     3
170
     0
171
     0
290
     0
174
     0
 93
        5
 44
0.0
173
     0
291
     0
 45
0.0
1001
ACAD
1000
AcDbSavedByObjectVersion
1070
     0
  0
VISUALSTYLE
  5
4FF
102
{ACAD_XDICTIONARY
360
590
102
}
102
{ACAD_REACTORS
330
4EE
102
}
330
4EE
100
AcDbVisualStyle
  2
Shades of Gray
 70
    23
 71
     2
 72
     2
 73
     3
 90
        0
 40
-0.6
 41
-30.0
 62
     5
 63
     7
 74
     2
 91
        2
 64
     7
 65
     7
 75
     1
175
     1
 42
40.0
 92
        8
 66
     7
 43
1.0
 76
     1
 77
     6
 78
     2
 67
     7
 79
     3
170
     0
171
     0
290
     0
174
     0
 93
        1
 44
0.0
173
     0
291
     0
 45
0.0
1001
ACAD
1000
AcDbSavedByObjectVersion
1070
     0
  0
VISUALSTYLE
  5
500
102
{ACAD_XDICTIONARY
360
592
102
}
102
{ACAD_REACTORS
330
4EE
102
}
330
4EE
100
AcDbVisualStyle
  2
Sketchy
 70
    24
 71
     1
 72
     2
 73
     2
 90
        0
 40
-0.6
 41
-30.0
 62
     5
 63
     7
 74
     2
 91
        2
 64
     7
 65
     7
 75
     1
175
     1
 42
40.0
 92
       11
 66
     7
 43
1.0
 76
     1
 77
     6
 78
     2
 67
     7
 79
     6
170
     0
171
     0
290
     0
174
     0
 93
        1
 44
0.0
173
     0
291
     0
 45
0.0
1001
ACAD
1000
AcDbSavedByObjectVersion
1070
     0
  0
VISUALSTYLE
  5
4FB
102
{ACAD_XDICTIONARY
360
588
102
}
102
{ACAD_REACTORS
330
4EE
102
}
330
4EE
100
AcDbVisualStyle
  2
Thicken
 70
    13
 71
     2
 72
     2
 73
     0
 90
        0
 40
-0.6
 41
-30.0
 62
     5
 63
     7
 74
     1
 91
        4
 64
     7
 65
   257
 75
     1
175
     1
 42
1.0
 92
       12
 66
     7
 43
1.0
 76
     1
 77
     6
 78
     2
 67
     7
 79
     5
170
     0
171
     0
290
     0
174
     0
 93
        1
 44
0.0
173
     0
291
     1
 45
0.0
1001
ACAD
1000
AcDbSavedByObjectVersion
1070
     0
  0
VISUALSTYLE
  5
4F5
102
{ACAD_XDICTIONARY
360
57C
102
}
102
{ACAD_REACTORS
330
4EE
102
}
330
4EE
100
AcDbVisualStyle
  2
Wireframe
 70
     5
 71
     0
 72
     2
 73
     0
 90
        0
 40
-0.6
 41
-30.0
 62
     5
 63
     7
 74
     1
 91
        4
 64
     7
 65
   257
 75
     1
175
     1
 42
1.0
 92
        0
 66
   257
 43
1.0
 76
     1
 77
     6
 78
     2
 67
     7
 79
     3
170
     0
171
     0
290
     0
174
     0
 93
        1
 44
0.0
173
     0
291
     0
 45
0.0
1001
ACAD
1000
AcDbSavedByObjectVersion
1070
     0
  0
VISUALSTYLE
  5
501
102
{ACAD_XDICTIONARY
360
594
102
}
102
{ACAD_REACTORS
330
4EE
102
}
330
4EE
100
AcDbVisualStyle
  2
X-Ray
 70
    25
 71
     2
 72
     2
 73
     1
 90
        1
 40
0.5
 41
-30.0
 62
     5
 63
     7
 74
     1
 91
        0
 64
     7
 65
   257
 75
     1
175
     1
 42
1.0
 92
        8
 66
     7
 43
1.0
 76
     1
 77
     6
 78
     2
 67
     7
 79
     3
170
     0
171
     0
290
     0
174
     0
 93
       13
 44
0.0
173
     0
291
     0
 45
0.0
1001
ACAD
1000
AcDbSavedByObjectVersion
1070
     0
  0
DICTIONARYVAR
  5
563
102
{ACAD_REACTORS
330
55E
102
}
330
55E
100
DictionaryVariables
280
     0
  1
1:1
  0
DICTIONARYVAR
  5
560
102
{ACAD_REACTORS
330
55E
102
}
330
55E
100
DictionaryVariables
280
     0
  1
STANDARD
  0
DICTIONARYVAR
  5
55F
102
{ACAD_REACTORS
330
55E
102
}
330
55E
100
DictionaryVariables
280
     0
  1
STANDARD
  0
DICTIONARYVAR
  5
561
102
{ACAD_REACTORS
330
55E
102
}
330
55E
100
DictionaryVariables
280
     0
  1
Imperial24
  0
DICTIONARYVAR
  5
562
102
{ACAD_REACTORS
330
55E
102
}
330
55E
100
DictionaryVariables
280
     0
  1
Imperial24
  0
DICTIONARYVAR
  5
566
102
{ACAD_REACTORS
330
55E
102
}
330
55E
100
DictionaryVariables
280
     0
  1
1
  0
DICTIONARYVAR
  5
565
102
{ACAD_REACTORS
330
55E
102
}
330
55E
100
DictionaryVariables
280
     0
  1
0
  0
DICTIONARYVAR
  5
564
102
{ACAD_REACTORS
330
55E
102
}
330
55E
100
DictionaryVariables
280
     0
  1
127
  0
DICTIONARYVAR
  5
567
102
{ACAD_REACTORS
330
55E
102
}
330
55E
100
DictionaryVariables
280
     0
  1
2
  0
DICTIONARY
  5
5A4
330
52F
100
AcDbDictionary
280
     1
281
     1
  3
ACAD_XREC_ROUNDTRIP
360
5A5
  0
DICTIONARY
  5
5A8
330
537
100
AcDbDictionary
280
     1
281
     1
  3
ACAD_XREC_ROUNDTRIP
360
5A9
  0
DICTIONARY
  5
5A6
330
533
100
AcDbDictionary
280
     1
281
     1
  3
ACAD_XREC_ROUNDTRIP
360
5A7
  0
DICTIONARY
  5
4DF
330
4DE
100
AcDbDictionary
280
     1
281
     1
  3
ACAD_XREC_ROUNDTRIP
360
56E
  3
BUMPTILE
360
4E1
  3
DIFFUSETILE
360
4E0
  3
OPACITYTILE
360
4E4
  3
REFLECTIONTILE
360
4E3
  3
REFRACTIONTILE
360
4E5
  3
SPECULARTILE
360
4E2
  0
DICTIONARY
  5
4D7
330
4D6
100
AcDbDictionary
280
     1
281
     1
  3
ACAD_XREC_ROUNDTRIP
360
56D
  3
BUMPTILE
360
4D9
  3
DIFFUSETILE
360
4D8
  3
OPACITYTILE
360
4DC
  3
REFLECTIONTILE
360
4DB
  3
REFRACTIONTILE
360
4DD
  3
SPECULARTILE
360
4DA
  0
DICTIONARY
  5
4E7
330
4E6
100
AcDbDictionary
280
     1
281
     1
  3
ACAD_XREC_ROUNDTRIP
360
56F
  3
BUMPTILE
360
4E9
  3
DIFFUSETILE
360
4E8
  3
OPACITYTILE
360
4EC
  3
REFLECTIONTILE
360
4EB
  3
REFRACTIONTILE
360
4ED
  3
SPECULARTILE
360
4EA
  0
DICTIONARY
  5
5A2
330
52D
100
AcDbDictionary
280
     1
281
     1
  3
ACAD_XREC_ROUNDTRIP
360
5A3
  0
DICTIONARY
  5
569
330
529
100
AcDbDictionary
280
     1
281
     1
  3
ACAD_ROUNDTRIP_2008_TABLESTYLE_CELLSTYLEMAP
360
56A
  3
ACAD_XREC_ROUNDTRIP
360
5A0
  0
DICTIONARY
  5
57A
330
4F4
100
AcDbDictionary
280
     1
281
     1
  3
ACAD_XREC_ROUNDTRIP
360
57B
  0
DICTIONARY
  5
578
330
4F3
100
AcDbDictionary
280
     1
281
     1
  3
ACAD_XREC_ROUNDTRIP
360
579
  0
DICTIONARY
  5
586
330
4FA
100
AcDbDictionary
280
     1
281
     1
  3
ACAD_XREC_ROUNDTRIP
360
587
  0
DICTIONARY
  5
58E
330
4FE
100
AcDbDictionary
280
     1
281
     1
  3
ACAD_XREC_ROUNDTRIP
360
58F
  0
DICTIONARY
  5
580
330
4F7
100
AcDbDictionary
280
     1
281
     1
  3
ACAD_XREC_ROUNDTRIP
360
581
  0
DICTIONARY
  5
584
330
4F9
100
AcDbDictionary
280
     1
281
     1
  3
ACAD_XREC_ROUNDTRIP
360
585
  0
DICTIONARY
  5
59E
330
506
100
AcDbDictionary
280
     1
281
     1
  3
ACAD_XREC_ROUNDTRIP
360
59F
  0
DICTIONARY
  5
58C
330
4FD
100
AcDbDictionary
280
     1
281
     1
  3
ACAD_XREC_ROUNDTRIP
360
58D
  0
DICTIONARY
  5
570
330
4EF
100
AcDbDictionary
280
     1
281
     1
  3
ACAD_XREC_ROUNDTRIP
360
571
  0
DICTIONARY
  5
572
330
4F0
100
AcDbDictionary
280
     1
281
     1
  3
ACAD_XREC_ROUNDTRIP
360
573
  0
DICTIONARY
  5
574
330
4F1
100
AcDbDictionary
280
     1
281
     1
  3
ACAD_XREC_ROUNDTRIP
360
575
  0
DICTIONARY
  5
576
330
4F2
100
AcDbDictionary
280
     1
281
     1
  3
ACAD_XREC_ROUNDTRIP
360
577
  0
DICTIONARY
  5
57E
330
4F6
100
AcDbDictionary
280
     1
281
     1
  3
ACAD_XREC_ROUNDTRIP
360
57F
  0
DICTIONARY
  5
59A
330
504
100
AcDbDictionary
280
     1
281
     1
  3
ACAD_XREC_ROUNDTRIP
360
59B
  0
DICTIONARY
  5
58A
330
4FC
100
AcDbDictionary
280
     1
281
     1
  3
ACAD_XREC_ROUNDTRIP
360
58B
  0
DICTIONARY
  5
59C
330
505
100
AcDbDictionary
280
     1
281
     1
  3
ACAD_XREC_ROUNDTRIP
360
59D
  0
DICTIONARY
  5
582
330
4F8
100
AcDbDictionary
280
     1
281
     1
  3
ACAD_XREC_ROUNDTRIP
360
583
  0
DICTIONARY
  5
598
330
503
100
AcDbDictionary
280
     1
281
     1
  3
ACAD_XREC_ROUNDTRIP
360
599
  0
DICTIONARY
  5
596
330
502
100
AcDbDictionary
280
     1
281
     1
  3
ACAD_XREC_ROUNDTRIP
360
597
  0
DICTIONARY
  5
590
330
4FF
100
AcDbDictionary
280
     1
281
     1
  3
ACAD_XREC_ROUNDTRIP
360
591
  0
DICTIONARY
  5
592
330
500
100
AcDbDictionary
280
     1
281
     1
  3
ACAD_XREC_ROUNDTRIP
360
593
  0
DICTIONARY
  5
588
330
4FB
100
AcDbDictionary
280
     1
281
     1
  3
ACAD_XREC_ROUNDTRIP
360
589
  0
DICTIONARY
  5
57C
330
4F5
100
AcDbDictionary
280
     1
281
     1
  3
ACAD_XREC_ROUNDTRIP
360
57D
  0
DICTIONARY
  5
594
330
501
100
AcDbDictionary
280
     1
281
     1
  3
ACAD_XREC_ROUNDTRIP
360
595
  0
XRECORD
  5
5A5
102
{ACAD_REACTORS
330
5A4
102
}
330
5A4
100
AcDbXrecord
280
     1
102
DISPLAYNAME
  1
Imperial24
102
FLAGS
 90
        0
  0
XRECORD
  5
5A9
102
{ACAD_REACTORS
330
5A8
102
}
330
5A8
100
AcDbXrecord
280
     1
102
SHADEPLOT
 70
     0
102
SHADEPLOTRESLEVEL
 70
     2
102
SHADEPLOTCUSTOMDPI
 70
   300
  0
XRECORD
  5
5A7
102
{ACAD_REACTORS
330
5A6
102
}
330
5A6
100
AcDbXrecord
280
     1
102
SHADEPLOT
 70
     0
102
SHADEPLOTRESLEVEL
 70
     2
102
SHADEPLOTCUSTOMDPI
 70
   300
  0
XRECORD
  5
56E
102
{ACAD_REACTORS
330
4DF
102
}
330
4DF
100
AcDbXrecord
280
     1
102
MATERIAL
148
0.0
149
0.0
149
0.0
 93
        0
 94
      127
282
     0
 72
     0
 77
     0
171
     0
175
     0
179
     0
273
     0
  0
XRECORD
  5
4E1
102
{ACAD_REACTORS
330
4DF
102
}
330
4DF
100
AcDbXrecord
280
     1
270
     1
271
     1
  0
XRECORD
  5
4E0
102
{ACAD_REACTORS
330
4DF
102
}
330
4DF
100
AcDbXrecord
280
     1
270
     1
271
     1
  0
XRECORD
  5
4E4
102
{ACAD_REACTORS
330
4DF
102
}
330
4DF
100
AcDbXrecord
280
     1
270
     1
271
     1
  0
XRECORD
  5
4E3
102
{ACAD_REACTORS
330
4DF
102
}
330
4DF
100
AcDbXrecord
280
     1
270
     1
271
     1
  0
XRECORD
  5
4E5
102
{ACAD_REACTORS
330
4DF
102
}
330
4DF
100
AcDbXrecord
280
     1
270
     1
271
     1
  0
XRECORD
  5
4E2
102
{ACAD_REACTORS
330
4DF
102
}
330
4DF
100
AcDbXrecord
280
     1
270
     1
271
     1
  0
XRECORD
  5
56D
102
{ACAD_REACTORS
330
4D7
102
}
330
4D7
100
AcDbXrecord
280
     1
102
MATERIAL
148
0.0
149
0.0
149
0.0
 93
        0
 94
      127
282
     0
 72
     0
 77
     0
171
     0
175
     0
179
     0
273
     0
  0
XRECORD
  5
4D9
102
{ACAD_REACTORS
330
4D7
102
}
330
4D7
100
AcDbXrecord
280
     1
270
     1
271
     1
  0
XRECORD
  5
4D8
102
{ACAD_REACTORS
330
4D7
102
}
330
4D7
100
AcDbXrecord
280
     1
270
     1
271
     1
  0
XRECORD
  5
4DC
102
{ACAD_REACTORS
330
4D7
102
}
330
4D7
100
AcDbXrecord
280
     1
270
     1
271
     1
  0
XRECORD
  5
4DB
102
{ACAD_REACTORS
330
4D7
102
}
330
4D7
100
AcDbXrecord
280
     1
270
     1
271
     1
  0
XRECORD
  5
4DD
102
{ACAD_REACTORS
330
4D7
102
}
330
4D7
100
AcDbXrecord
280
     1
270
     1
271
     1
  0
XRECORD
  5
4DA
102
{ACAD_REACTORS
330
4D7
102
}
330
4D7
100
AcDbXrecord
280
     1
270
     1
271
     1
  0
XRECORD
  5
56F
102
{ACAD_REACTORS
330
4E7
102
}
330
4E7
100
AcDbXrecord
280
     1
102
MATERIAL
148
0.0
149
0.0
149
0.0
 93
        0
 94
      127
282
     0
 72
     0
 77
     0
171
     0
175
     0
179
     0
273
     0
  0
XRECORD
  5
4E9
102
{ACAD_REACTORS
330
4E7
102
}
330
4E7
100
AcDbXrecord
280
     1
270
     1
271
     1
  0
XRECORD
  5
4E8
102
{ACAD_REACTORS
330
4E7
102
}
330
4E7
100
AcDbXrecord
280
     1
270
     1
271
     1
  0
XRECORD
  5
4EC
102
{ACAD_REACTORS
330
4E7
102
}
330
4E7
100
AcDbXrecord
280
     1
270
     1
271
     1
  0
XRECORD
  5
4EB
102
{ACAD_REACTORS
330
4E7
102
}
330
4E7
100
AcDbXrecord
280
     1
270
     1
271
     1
  0
XRECORD
  5
4ED
102
{ACAD_REACTORS
330
4E7
102
}
330
4E7
100
AcDbXrecord
280
     1
270
     1
271
     1
  0
XRECORD
  5
4EA
102
{ACAD_REACTORS
330
4E7
102
}
330
4E7
100
AcDbXrecord
280
     1
270
     1
271
     1
  0
XRECORD
  5
5A3
102
{ACAD_REACTORS
330
5A2
102
}
330
5A2
100
AcDbXrecord
280
     1
102
DISPLAYNAME
  1
Imperial24
102
FLAGS
 90
        0
  0
CELLSTYLEMAP
  5
56A
102
{ACAD_REACTORS
330
569
102
}
330
569
100
AcDbCellStyleMap
 90
        3
300
CELLSTYLE
  1
TABLEFORMAT_BEGIN
 90
        5
170
     1
 91
        0
 92
    32768
 62
   257
 93
        1
300
CONTENTFORMAT
  1
CONTENTFORMAT_BEGIN
 90
        0
 91
        0
 92
      512
 93
        0
300

 40
0.0
140
1.0
 94
        5
 62
     0
340
51A
144
0.25
309
CONTENTFORMAT_END
171
     0
 94
        0
309
TABLEFORMAT_END
  1
CELLSTYLE_BEGIN
 90
        1
 91
        1
300
_TITLE
309
CELLSTYLE_END
300
CELLSTYLE
  1
TABLEFORMAT_BEGIN
 90
        5
170
     1
 91
        0
 92
        0
 62
   257
 93
        1
300
CONTENTFORMAT
  1
CONTENTFORMAT_BEGIN
 90
        0
 91
        0
 92
      512
 93
        0
300

 40
0.0
140
1.0
 94
        5
 62
     0
340
51A
144
0.18
309
CONTENTFORMAT_END
171
     0
 94
        0
309
TABLEFORMAT_END
  1
CELLSTYLE_BEGIN
 90
        2
 91
        1
300
_HEADER
309
CELLSTYLE_END
300
CELLSTYLE
  1
TABLEFORMAT_BEGIN
 90
        5
170
     1
 91
        0
 92
        0
 62
   257
 93
        1
300
CONTENTFORMAT
  1
CONTENTFORMAT_BEGIN
 90
        0
 91
        0
 92
      512
 93
        0
300

 40
0.0
140
1.0
 94
        2
 62
     0
340
51A
144
0.18
309
CONTENTFORMAT_END
171
     0
 94
        0
309
TABLEFORMAT_END
  1
CELLSTYLE_BEGIN
 90
        3
 91
        2
300
_DATA
309
CELLSTYLE_END
  0
XRECORD
  5
5A0
102
{ACAD_REACTORS
330
569
102
}
330
569
100
AcDbXrecord
280
     1
102
ACAD_ROUNDTRIP_PRE2007_TABLESTYLE
 90
      512
 91
        0
  1

 92
      512
 93
        0
  2

 94
      512
 95
        0
  3

  0
XRECORD
  5
57B
102
{ACAD_REACTORS
330
57A
102
}
330
57A
100
AcDbXrecord
280
     1
102
RTVSPost2010Prop28
280
     1
102
RTVSPost2010PropOp28
 70
     1
102
RTVSPost2010Prop29
280
     1
102
RTVSPost2010PropOp29
 70
     1
102
RTVSPost2010Prop30
280
     0
102
RTVSPost2010PropOp30
 70
     1
102
RTVSPost2010Prop31
280
     0
102
RTVSPost2010PropOp31
 70
     1
102
RTVSPost2010Prop32
280
     0
102
RTVSPost2010PropOp32
 70
     1
102
RTVSPost2010Prop33
280
     0
102
RTVSPost2010PropOp33
 70
     1
102
RTVSPost2010Prop34
280
     0
102
RTVSPost2010PropOp34
 70
     1
102
RTVSPost2010Prop35
280
     0
102
RTVSPost2010PropOp35
 70
     1
102
RTVSPost2010Prop36
280
     0
102
RTVSPost2010PropOp36
 70
     1
102
RTVSPost2010Prop37
 90
       50
102
RTVSPost2010PropOp37
 70
     1
102
RTVSPost2010Prop38
140
0.0
102
RTVSPost2010PropOp38
 70
     1
102
RTVSPost2010Prop39
140
1.0
102
RTVSPost2010PropOp39
 70
     1
102
RTVSPost2010Prop40
 90
        0
102
RTVSPost2010PropOp40
 70
     1
102
RTVSPost2010Prop41ColorIndex
 90
       18
102
RTVSPost2010Prop41ColorRGB
 90
        0
102
RTVSPost2010PropOp41
 70
     1
102
RTVSPost2010Prop42
 90
       50
102
RTVSPost2010PropOp42
 70
     1
102
RTVSPost2010Prop43
 90
        3
102
RTVSPost2010PropOp43
 70
     1
102
RTVSPost2010Prop44ColorIndex
 90
        5
102
RTVSPost2010Prop44ColorRGB
 90
      255
102
RTVSPost2010PropOp44
 70
     1
102
RTVSPost2010Prop45
280
     0
102
RTVSPost2010PropOp45
 70
     1
102
RTVSPost2010Prop46
 90
       50
102
RTVSPost2010PropOp46
 70
     1
102
RTVSPost2010Prop47
 90
       50
102
RTVSPost2010PropOp47
 70
     1
102
RTVSPost2010Prop48
 90
       50
102
RTVSPost2010PropOp48
 70
     1
102
RTVSPost2010Prop49
280
     0
102
RTVSPost2010PropOp49
 70
     1
102
RTVSPost2010Prop50
 90
       50
102
RTVSPost2010PropOp50
 70
     1
102
RTVSPost2010Prop51ColorIndex
 90
      256
102
RTVSPost2010Prop51ColorRGB
 90
-16777216
102
RTVSPost2010PropOp51
 70
     0
102
RTVSPost2010Prop52
140
1.0
102
RTVSPost2010PropOp52
 70
     0
102
RTVSPost2010Prop53
 90
        2
102
RTVSPost2010PropOp53
 70
     1
102
RTVSPost2010Prop54
  1
strokes_ogs.tif
102
RTVSPost2010PropOp54
 70
     1
102
RTVSPost2010Prop55
280
     0
102
RTVSPost2010PropOp55
 70
     1
102
RTVSPost2010Prop56
140
1.0
102
RTVSPost2010PropOp56
 70
     1
102
RTVSPost2010Prop57
140
1.0
102
RTVSPost2010PropOp57
 70
     1
102
RTVSPropertyOp0
 70
     1
102
RTVSPropertyOp1
 70
     1
102
RTVSPropertyOp2
 70
     1
102
RTVSPropertyOp3
 70
     1
102
RTVSPropertyOp4
 70
     1
102
RTVSPropertyOp5
 70
     1
102
RTVSPropertyOp6
 70
     1
102
RTVSPropertyOp7
 70
     1
102
RTVSPropertyOp8
 70
     1
102
RTVSPropertyOp9
 70
     1
102
RTVSPropertyOp10
 70
     1
102
RTVSPropertyOp11
 70
     1
102
RTVSPropertyOp12
 70
     1
102
RTVSPropertyOp13
 70
     1
102
RTVSPropertyOp14
 70
     1
102
RTVSPropertyOp15
 70
     1
102
RTVSPropertyOp16
 70
     1
102
RTVSPropertyOp17
 70
     1
102
RTVSPropertyOp18
 70
     1
102
RTVSPropertyOp19
 70
     1
102
RTVSPropertyOp20
 70
     1
102
RTVSPropertyOp21
 70
     1
102
RTVSPropertyOp22
 70
     1
102
RTVSPropertyOp23
 70
     1
102
RTVSPropertyOp24
 70
     1
102
RTVSPropertyOp25
 70
     1
102
RTVSPropertyOp26
 70
     1
102
RTVSPropertyOp27
 70
     1
102
RTVSPropertyOp28
 70
     1
102
RTVSPropertyOp29
 70
     1
102
RTVSPropertyOp30
 70
     1
102
RTVSPropertyOp31
 70
     1
102
RTVSPropertyOp32
 70
     1
102
RTVSPropertyOp33
 70
     1
102
RTVSPropertyOp34
 70
     1
102
RTVSPropertyOp35
 70
     1
102
RTVSPropertyOp36
 70
     1
102
RTVSPropertyOp37
 70
     1
102
RTVSPropertyOp38
 70
     1
102
RTVSPropertyOp39
 70
     1
102
RTVSPropertyOp40
 70
     1
102
RTVSPropertyOp41
 70
     1
102
RTVSPropertyOp42
 70
     1
102
RTVSPropertyOp43
 70
     1
102
RTVSPropertyOp44
 70
     1
102
RTVSPropertyOp45
 70
     1
102
RTVSPropertyOp46
 70
     1
102
RTVSPropertyOp47
 70
     1
102
RTVSPropertyOp48
 70
     1
102
RTVSPropertyOp49
 70
     1
102
RTVSPropertyOp50
 70
     1
102
RTVSPropertyOp51
 70
     0
102
RTVSPropertyOp52
 70
     0
102
RTVSPropertyOp53
 70
     1
102
RTVSPropertyOp54
 70
     1
102
RTVSPropertyOp55
 70
     1
102
RTVSPropertyOp56
 70
     1
102
RTVSPropertyOp57
 70
     1
102
RTVSPropertyOp58
 70
     1
102
RTVSPropertyOp59
 70
     1
102
RTVSPropertyOp60
 70
     1
102
RTVSPropertyOp61
 70
     1
102
RTVSPropertyOp62
 70
     1
  0
XRECORD
  5
579
102
{ACAD_REACTORS
330
578
102
}
330
578
100
AcDbXrecord
280
     1
102
RTVSPost2010Prop28
280
     0
102
RTVSPost2010PropOp28
 70
     1
102
RTVSPost2010Prop29
280
     1
102
RTVSPost2010PropOp29
 70
     1
102
RTVSPost2010Prop30
280
     1
102
RTVSPost2010PropOp30
 70
     1
102
RTVSPost2010Prop31
280
     0
102
RTVSPost2010PropOp31
 70
     1
102
RTVSPost2010Prop32
280
     0
102
RTVSPost2010PropOp32
 70
     1
102
RTVSPost2010Prop33
280
     0
102
RTVSPost2010PropOp33
 70
     1
102
RTVSPost2010Prop34
280
     0
102
RTVSPost2010PropOp34
 70
     1
102
RTVSPost2010Prop35
280
     0
102
RTVSPost2010PropOp35
 70
     1
102
RTVSPost2010Prop36
280
     0
102
RTVSPost2010PropOp36
 70
     1
102
RTVSPost2010Prop37
 90
       50
102
RTVSPost2010PropOp37
 70
     1
102
RTVSPost2010Prop38
140
0.0
102
RTVSPost2010PropOp38
 70
     1
102
RTVSPost2010Prop39
140
1.0
102
RTVSPost2010PropOp39
 70
     1
102
RTVSPost2010Prop40
 90
        0
102
RTVSPost2010PropOp40
 70
     1
102
RTVSPost2010Prop41ColorIndex
 90
       18
102
RTVSPost2010Prop41ColorRGB
 90
        0
102
RTVSPost2010PropOp41
 70
     1
102
RTVSPost2010Prop42
 90
       50
102
RTVSPost2010PropOp42
 70
     1
102
RTVSPost2010Prop43
 90
        3
102
RTVSPost2010PropOp43
 70
     1
102
RTVSPost2010Prop44ColorIndex
 90
        5
102
RTVSPost2010Prop44ColorRGB
 90
      255
102
RTVSPost2010PropOp44
 70
     1
102
RTVSPost2010Prop45
280
     0
102
RTVSPost2010PropOp45
 70
     1
102
RTVSPost2010Prop46
 90
       50
102
RTVSPost2010PropOp46
 70
     1
102
RTVSPost2010Prop47
 90
       50
102
RTVSPost2010PropOp47
 70
     1
102
RTVSPost2010Prop48
 90
       50
102
RTVSPost2010PropOp48
 70
     1
102
RTVSPost2010Prop49
280
     0
102
RTVSPost2010PropOp49
 70
     1
102
RTVSPost2010Prop50
 90
       50
102
RTVSPost2010PropOp50
 70
     1
102
RTVSPost2010Prop51ColorIndex
 90
      256
102
RTVSPost2010Prop51ColorRGB
 90
-16777216
102
RTVSPost2010PropOp51
 70
     0
102
RTVSPost2010Prop52
140
1.0
102
RTVSPost2010PropOp52
 70
     0
102
RTVSPost2010Prop53
 90
        2
102
RTVSPost2010PropOp53
 70
     1
102
RTVSPost2010Prop54
  1
strokes_ogs.tif
102
RTVSPost2010PropOp54
 70
     1
102
RTVSPost2010Prop55
280
     0
102
RTVSPost2010PropOp55
 70
     1
102
RTVSPost2010Prop56
140
1.0
102
RTVSPost2010PropOp56
 70
     1
102
RTVSPost2010Prop57
140
1.0
102
RTVSPost2010PropOp57
 70
     1
102
RTVSPropertyOp0
 70
     1
102
RTVSPropertyOp1
 70
     1
102
RTVSPropertyOp2
 70
     1
102
RTVSPropertyOp3
 70
     1
102
RTVSPropertyOp4
 70
     1
102
RTVSPropertyOp5
 70
     1
102
RTVSPropertyOp6
 70
     1
102
RTVSPropertyOp7
 70
     1
102
RTVSPropertyOp8
 70
     1
102
RTVSPropertyOp9
 70
     1
102
RTVSPropertyOp10
 70
     1
102
RTVSPropertyOp11
 70
     1
102
RTVSPropertyOp12
 70
     1
102
RTVSPropertyOp13
 70
     1
102
RTVSPropertyOp14
 70
     1
102
RTVSPropertyOp15
 70
     1
102
RTVSPropertyOp16
 70
     1
102
RTVSPropertyOp17
 70
     1
102
RTVSPropertyOp18
 70
     1
102
RTVSPropertyOp19
 70
     1
102
RTVSPropertyOp20
 70
     1
102
RTVSPropertyOp21
 70
     1
102
RTVSPropertyOp22
 70
     1
102
RTVSPropertyOp23
 70
     1
102
RTVSPropertyOp24
 70
     1
102
RTVSPropertyOp25
 70
     1
102
RTVSPropertyOp26
 70
     1
102
RTVSPropertyOp27
 70
     1
102
RTVSPropertyOp28
 70
     1
102
RTVSPropertyOp29
 70
     1
102
RTVSPropertyOp30
 70
     1
102
RTVSPropertyOp31
 70
     1
102
RTVSPropertyOp32
 70
     1
102
RTVSPropertyOp33
 70
     1
102
RTVSPropertyOp34
 70
     1
102
RTVSPropertyOp35
 70
     1
102
RTVSPropertyOp36
 70
     1
102
RTVSPropertyOp37
 70
     1
102
RTVSPropertyOp38
 70
     1
102
RTVSPropertyOp39
 70
     1
102
RTVSPropertyOp40
 70
     1
102
RTVSPropertyOp41
 70
     1
102
RTVSPropertyOp42
 70
     1
102
RTVSPropertyOp43
 70
     1
102
RTVSPropertyOp44
 70
     1
102
RTVSPropertyOp45
 70
     1
102
RTVSPropertyOp46
 70
     1
102
RTVSPropertyOp47
 70
     1
102
RTVSPropertyOp48
 70
     1
102
RTVSPropertyOp49
 70
     1
102
RTVSPropertyOp50
 70
     1
102
RTVSPropertyOp51
 70
     0
102
RTVSPropertyOp52
 70
     0
102
RTVSPropertyOp53
 70
     1
102
RTVSPropertyOp54
 70
     1
102
RTVSPropertyOp55
 70
     1
102
RTVSPropertyOp56
 70
     1
102
RTVSPropertyOp57
 70
     1
102
RTVSPropertyOp58
 70
     1
102
RTVSPropertyOp59
 70
     1
102
RTVSPropertyOp60
 70
     1
102
RTVSPropertyOp61
 70
     1
102
RTVSPropertyOp62
 70
     1
  0
XRECORD
  5
587
102
{ACAD_REACTORS
330
586
102
}
330
586
100
AcDbXrecord
280
     1
102
RTVSPost2010Prop28
280
     0
102
RTVSPost2010PropOp28
 70
     1
102
RTVSPost2010Prop29
280
     1
102
RTVSPost2010PropOp29
 70
     1
102
RTVSPost2010Prop30
280
     1
102
RTVSPost2010PropOp30
 70
     1
102
RTVSPost2010Prop31
280
     0
102
RTVSPost2010PropOp31
 70
     1
102
RTVSPost2010Prop32
280
     0
102
RTVSPost2010PropOp32
 70
     1
102
RTVSPost2010Prop33
280
     0
102
RTVSPost2010PropOp33
 70
     1
102
RTVSPost2010Prop34
280
     0
102
RTVSPost2010PropOp34
 70
     1
102
RTVSPost2010Prop35
280
     0
102
RTVSPost2010PropOp35
 70
     1
102
RTVSPost2010Prop36
280
     0
102
RTVSPost2010PropOp36
 70
     1
102
RTVSPost2010Prop37
 90
       50
102
RTVSPost2010PropOp37
 70
     1
102
RTVSPost2010Prop38
140
0.0
102
RTVSPost2010PropOp38
 70
     1
102
RTVSPost2010Prop39
140
1.0
102
RTVSPost2010PropOp39
 70
     1
102
RTVSPost2010Prop40
 90
        0
102
RTVSPost2010PropOp40
 70
     1
102
RTVSPost2010Prop41ColorIndex
 90
       18
102
RTVSPost2010Prop41ColorRGB
 90
        0
102
RTVSPost2010PropOp41
 70
     1
102
RTVSPost2010Prop42
 90
       50
102
RTVSPost2010PropOp42
 70
     1
102
RTVSPost2010Prop43
 90
        3
102
RTVSPost2010PropOp43
 70
     1
102
RTVSPost2010Prop44ColorIndex
 90
        5
102
RTVSPost2010Prop44ColorRGB
 90
      255
102
RTVSPost2010PropOp44
 70
     1
102
RTVSPost2010Prop45
280
     0
102
RTVSPost2010PropOp45
 70
     1
102
RTVSPost2010Prop46
 90
       50
102
RTVSPost2010PropOp46
 70
     1
102
RTVSPost2010Prop47
 90
       50
102
RTVSPost2010PropOp47
 70
     1
102
RTVSPost2010Prop48
 90
       50
102
RTVSPost2010PropOp48
 70
     1
102
RTVSPost2010Prop49
280
     0
102
RTVSPost2010PropOp49
 70
     1
102
RTVSPost2010Prop50
 90
       50
102
RTVSPost2010PropOp50
 70
     1
102
RTVSPost2010Prop51ColorIndex
 90
      256
102
RTVSPost2010Prop51ColorRGB
 90
-16777216
102
RTVSPost2010PropOp51
 70
     0
102
RTVSPost2010Prop52
140
1.0
102
RTVSPost2010PropOp52
 70
     0
102
RTVSPost2010Prop53
 90
        2
102
RTVSPost2010PropOp53
 70
     1
102
RTVSPost2010Prop54
  1
strokes_ogs.tif
102
RTVSPost2010PropOp54
 70
     1
102
RTVSPost2010Prop55
280
     0
102
RTVSPost2010PropOp55
 70
     1
102
RTVSPost2010Prop56
140
1.0
102
RTVSPost2010PropOp56
 70
     1
102
RTVSPost2010Prop57
140
1.0
102
RTVSPost2010PropOp57
 70
     1
102
RTVSPropertyOp0
 70
     1
102
RTVSPropertyOp1
 70
     1
102
RTVSPropertyOp2
 70
     1
102
RTVSPropertyOp3
 70
     1
102
RTVSPropertyOp4
 70
     1
102
RTVSPropertyOp5
 70
     1
102
RTVSPropertyOp6
 70
     1
102
RTVSPropertyOp7
 70
     1
102
RTVSPropertyOp8
 70
     1
102
RTVSPropertyOp9
 70
     1
102
RTVSPropertyOp10
 70
     1
102
RTVSPropertyOp11
 70
     1
102
RTVSPropertyOp12
 70
     1
102
RTVSPropertyOp13
 70
     1
102
RTVSPropertyOp14
 70
     1
102
RTVSPropertyOp15
 70
     1
102
RTVSPropertyOp16
 70
     1
102
RTVSPropertyOp17
 70
     1
102
RTVSPropertyOp18
 70
     1
102
RTVSPropertyOp19
 70
     1
102
RTVSPropertyOp20
 70
     1
102
RTVSPropertyOp21
 70
     1
102
RTVSPropertyOp22
 70
     1
102
RTVSPropertyOp23
 70
     1
102
RTVSPropertyOp24
 70
     1
102
RTVSPropertyOp25
 70
     1
102
RTVSPropertyOp26
 70
     1
102
RTVSPropertyOp27
 70
     1
102
RTVSPropertyOp28
 70
     1
102
RTVSPropertyOp29
 70
     1
102
RTVSPropertyOp30
 70
     1
102
RTVSPropertyOp31
 70
     1
102
RTVSPropertyOp32
 70
     1
102
RTVSPropertyOp33
 70
     1
102
RTVSPropertyOp34
 70
     1
102
RTVSPropertyOp35
 70
     1
102
RTVSPropertyOp36
 70
     1
102
RTVSPropertyOp37
 70
     1
102
RTVSPropertyOp38
 70
     1
102
RTVSPropertyOp39
 70
     1
102
RTVSPropertyOp40
 70
     1
102
RTVSPropertyOp41
 70
     1
102
RTVSPropertyOp42
 70
     1
102
RTVSPropertyOp43
 70
     1
102
RTVSPropertyOp44
 70
     1
102
RTVSPropertyOp45
 70
     1
102
RTVSPropertyOp46
 70
     1
102
RTVSPropertyOp47
 70
     1
102
RTVSPropertyOp48
 70
     1
102
RTVSPropertyOp49
 70
     1
102
RTVSPropertyOp50
 70
     1
102
RTVSPropertyOp51
 70
     0
102
RTVSPropertyOp52
 70
     0
102
RTVSPropertyOp53
 70
     1
102
RTVSPropertyOp54
 70
     1
102
RTVSPropertyOp55
 70
     1
102
RTVSPropertyOp56
 70
     1
102
RTVSPropertyOp57
 70
     1
102
RTVSPropertyOp58
 70
     1
102
RTVSPropertyOp59
 70
     1
102
RTVSPropertyOp60
 70
     1
102
RTVSPropertyOp61
 70
     1
102
RTVSPropertyOp62
 70
     1
  0
XRECORD
  5
58F
102
{ACAD_REACTORS
330
58E
102
}
330
58E
100
AcDbXrecord
280
     1
102
RTVSPost2010Prop28
280
     0
102
RTVSPost2010PropOp28
 70
     1
102
RTVSPost2010Prop29
280
     1
102
RTVSPost2010PropOp29
 70
     1
102
RTVSPost2010Prop30
280
     1
102
RTVSPost2010PropOp30
 70
     1
102
RTVSPost2010Prop31
280
     0
102
RTVSPost2010PropOp31
 70
     1
102
RTVSPost2010Prop32
280
     0
102
RTVSPost2010PropOp32
 70
     1
102
RTVSPost2010Prop33
280
     0
102
RTVSPost2010PropOp33
 70
     1
102
RTVSPost2010Prop34
280
     0
102
RTVSPost2010PropOp34
 70
     1
102
RTVSPost2010Prop35
280
     0
102
RTVSPost2010PropOp35
 70
     1
102
RTVSPost2010Prop36
280
     0
102
RTVSPost2010PropOp36
 70
     1
102
RTVSPost2010Prop37
 90
       50
102
RTVSPost2010PropOp37
 70
     1
102
RTVSPost2010Prop38
140
0.0
102
RTVSPost2010PropOp38
 70
     1
102
RTVSPost2010Prop39
140
1.0
102
RTVSPost2010PropOp39
 70
     1
102
RTVSPost2010Prop40
 90
        0
102
RTVSPost2010PropOp40
 70
     1
102
RTVSPost2010Prop41ColorIndex
 90
       18
102
RTVSPost2010Prop41ColorRGB
 90
        0
102
RTVSPost2010PropOp41
 70
     1
102
RTVSPost2010Prop42
 90
       50
102
RTVSPost2010PropOp42
 70
     1
102
RTVSPost2010Prop43
 90
        3
102
RTVSPost2010PropOp43
 70
     1
102
RTVSPost2010Prop44ColorIndex
 90
        5
102
RTVSPost2010Prop44ColorRGB
 90
      255
102
RTVSPost2010PropOp44
 70
     1
102
RTVSPost2010Prop45
280
     0
102
RTVSPost2010PropOp45
 70
     1
102
RTVSPost2010Prop46
 90
       50
102
RTVSPost2010PropOp46
 70
     1
102
RTVSPost2010Prop47
 90
       50
102
RTVSPost2010PropOp47
 70
     1
102
RTVSPost2010Prop48
 90
       50
102
RTVSPost2010PropOp48
 70
     1
102
RTVSPost2010Prop49
280
     0
102
RTVSPost2010PropOp49
 70
     1
102
RTVSPost2010Prop50
 90
       50
102
RTVSPost2010PropOp50
 70
     1
102
RTVSPost2010Prop51ColorIndex
 90
      256
102
RTVSPost2010Prop51ColorRGB
 90
-16777216
102
RTVSPost2010PropOp51
 70
     0
102
RTVSPost2010Prop52
140
1.0
102
RTVSPost2010PropOp52
 70
     0
102
RTVSPost2010Prop53
 90
        2
102
RTVSPost2010PropOp53
 70
     1
102
RTVSPost2010Prop54
  1
strokes_ogs.tif
102
RTVSPost2010PropOp54
 70
     1
102
RTVSPost2010Prop55
280
     0
102
RTVSPost2010PropOp55
 70
     1
102
RTVSPost2010Prop56
140
1.0
102
RTVSPost2010PropOp56
 70
     1
102
RTVSPost2010Prop57
140
1.0
102
RTVSPost2010PropOp57
 70
     1
102
RTVSPropertyOp0
 70
     1
102
RTVSPropertyOp1
 70
     1
102
RTVSPropertyOp2
 70
     1
102
RTVSPropertyOp3
 70
     1
102
RTVSPropertyOp4
 70
     1
102
RTVSPropertyOp5
 70
     1
102
RTVSPropertyOp6
 70
     1
102
RTVSPropertyOp7
 70
     1
102
RTVSPropertyOp8
 70
     1
102
RTVSPropertyOp9
 70
     1
102
RTVSPropertyOp10
 70
     1
102
RTVSPropertyOp11
 70
     1
102
RTVSPropertyOp12
 70
     1
102
RTVSPropertyOp13
 70
     1
102
RTVSPropertyOp14
 70
     1
102
RTVSPropertyOp15
 70
     1
102
RTVSPropertyOp16
 70
     1
102
RTVSPropertyOp17
 70
     1
102
RTVSPropertyOp18
 70
     1
102
RTVSPropertyOp19
 70
     1
102
RTVSPropertyOp20
 70
     1
102
RTVSPropertyOp21
 70
     1
102
RTVSPropertyOp22
 70
     1
102
RTVSPropertyOp23
 70
     1
102
RTVSPropertyOp24
 70
     1
102
RTVSPropertyOp25
 70
     1
102
RTVSPropertyOp26
 70
     1
102
RTVSPropertyOp27
 70
     1
102
RTVSPropertyOp28
 70
     1
102
RTVSPropertyOp29
 70
     1
102
RTVSPropertyOp30
 70
     1
102
RTVSPropertyOp31
 70
     1
102
RTVSPropertyOp32
 70
     1
102
RTVSPropertyOp33
 70
     1
102
RTVSPropertyOp34
 70
     1
102
RTVSPropertyOp35
 70
     1
102
RTVSPropertyOp36
 70
     1
102
RTVSPropertyOp37
 70
     1
102
RTVSPropertyOp38
 70
     1
102
RTVSPropertyOp39
 70
     1
102
RTVSPropertyOp40
 70
     1
102
RTVSPropertyOp41
 70
     1
102
RTVSPropertyOp42
 70
     1
102
RTVSPropertyOp43
 70
     1
102
RTVSPropertyOp44
 70
     1
102
RTVSPropertyOp45
 70
     1
102
RTVSPropertyOp46
 70
     1
102
RTVSPropertyOp47
 70
     1
102
RTVSPropertyOp48
 70
     1
102
RTVSPropertyOp49
 70
     1
102
RTVSPropertyOp50
 70
     1
102
RTVSPropertyOp51
 70
     0
102
RTVSPropertyOp52
 70
     0
102
RTVSPropertyOp53
 70
     1
102
RTVSPropertyOp54
 70
     1
102
RTVSPropertyOp55
 70
     1
102
RTVSPropertyOp56
 70
     1
102
RTVSPropertyOp57
 70
     1
102
RTVSPropertyOp58
 70
     1
102
RTVSPropertyOp59
 70
     1
102
RTVSPropertyOp60
 70
     1
102
RTVSPropertyOp61
 70
     1
102
RTVSPropertyOp62
 70
     1
  0
XRECORD
  5
581
102
{ACAD_REACTORS
330
580
102
}
330
580
100
AcDbXrecord
280
     1
102
RTVSPost2010Prop28
280
     0
102
RTVSPost2010PropOp28
 70
     1
102
RTVSPost2010Prop29
280
     1
102
RTVSPost2010PropOp29
 70
     1
102
RTVSPost2010Prop30
280
     1
102
RTVSPost2010PropOp30
 70
     1
102
RTVSPost2010Prop31
280
     0
102
RTVSPost2010PropOp31
 70
     1
102
RTVSPost2010Prop32
280
     0
102
RTVSPost2010PropOp32
 70
     1
102
RTVSPost2010Prop33
280
     0
102
RTVSPost2010PropOp33
 70
     1
102
RTVSPost2010Prop34
280
     0
102
RTVSPost2010PropOp34
 70
     1
102
RTVSPost2010Prop35
280
     0
102
RTVSPost2010PropOp35
 70
     1
102
RTVSPost2010Prop36
280
     0
102
RTVSPost2010PropOp36
 70
     1
102
RTVSPost2010Prop37
 90
       50
102
RTVSPost2010PropOp37
 70
     1
102
RTVSPost2010Prop38
140
0.0
102
RTVSPost2010PropOp38
 70
     1
102
RTVSPost2010Prop39
140
1.0
102
RTVSPost2010PropOp39
 70
     1
102
RTVSPost2010Prop40
 90
        0
102
RTVSPost2010PropOp40
 70
     1
102
RTVSPost2010Prop41ColorIndex
 90
       18
102
RTVSPost2010Prop41ColorRGB
 90
        0
102
RTVSPost2010PropOp41
 70
     1
102
RTVSPost2010Prop42
 90
       50
102
RTVSPost2010PropOp42
 70
     1
102
RTVSPost2010Prop43
 90
        3
102
RTVSPost2010PropOp43
 70
     1
102
RTVSPost2010Prop44ColorIndex
 90
        5
102
RTVSPost2010Prop44ColorRGB
 90
      255
102
RTVSPost2010PropOp44
 70
     1
102
RTVSPost2010Prop45
280
     0
102
RTVSPost2010PropOp45
 70
     1
102
RTVSPost2010Prop46
 90
       50
102
RTVSPost2010PropOp46
 70
     1
102
RTVSPost2010Prop47
 90
       50
102
RTVSPost2010PropOp47
 70
     1
102
RTVSPost2010Prop48
 90
       50
102
RTVSPost2010PropOp48
 70
     1
102
RTVSPost2010Prop49
280
     0
102
RTVSPost2010PropOp49
 70
     1
102
RTVSPost2010Prop50
 90
       50
102
RTVSPost2010PropOp50
 70
     1
102
RTVSPost2010Prop51ColorIndex
 90
      256
102
RTVSPost2010Prop51ColorRGB
 90
-16777216
102
RTVSPost2010PropOp51
 70
     0
102
RTVSPost2010Prop52
140
1.0
102
RTVSPost2010PropOp52
 70
     0
102
RTVSPost2010Prop53
 90
        2
102
RTVSPost2010PropOp53
 70
     1
102
RTVSPost2010Prop54
  1
strokes_ogs.tif
102
RTVSPost2010PropOp54
 70
     1
102
RTVSPost2010Prop55
280
     0
102
RTVSPost2010PropOp55
 70
     1
102
RTVSPost2010Prop56
140
1.0
102
RTVSPost2010PropOp56
 70
     1
102
RTVSPost2010Prop57
140
1.0
102
RTVSPost2010PropOp57
 70
     1
102
RTVSPropertyOp0
 70
     1
102
RTVSPropertyOp1
 70
     1
102
RTVSPropertyOp2
 70
     1
102
RTVSPropertyOp3
 70
     1
102
RTVSPropertyOp4
 70
     1
102
RTVSPropertyOp5
 70
     1
102
RTVSPropertyOp6
 70
     1
102
RTVSPropertyOp7
 70
     1
102
RTVSPropertyOp8
 70
     1
102
RTVSPropertyOp9
 70
     1
102
RTVSPropertyOp10
 70
     1
102
RTVSPropertyOp11
 70
     1
102
RTVSPropertyOp12
 70
     1
102
RTVSPropertyOp13
 70
     1
102
RTVSPropertyOp14
 70
     1
102
RTVSPropertyOp15
 70
     1
102
RTVSPropertyOp16
 70
     1
102
RTVSPropertyOp17
 70
     1
102
RTVSPropertyOp18
 70
     1
102
RTVSPropertyOp19
 70
     1
102
RTVSPropertyOp20
 70
     1
102
RTVSPropertyOp21
 70
     1
102
RTVSPropertyOp22
 70
     1
102
RTVSPropertyOp23
 70
     1
102
RTVSPropertyOp24
 70
     1
102
RTVSPropertyOp25
 70
     1
102
RTVSPropertyOp26
 70
     1
102
RTVSPropertyOp27
 70
     1
102
RTVSPropertyOp28
 70
     1
102
RTVSPropertyOp29
 70
     1
102
RTVSPropertyOp30
 70
     1
102
RTVSPropertyOp31
 70
     1
102
RTVSPropertyOp32
 70
     1
102
RTVSPropertyOp33
 70
     1
102
RTVSPropertyOp34
 70
     1
102
RTVSPropertyOp35
 70
     1
102
RTVSPropertyOp36
 70
     1
102
RTVSPropertyOp37
 70
     1
102
RTVSPropertyOp38
 70
     1
102
RTVSPropertyOp39
 70
     1
102
RTVSPropertyOp40
 70
     1
102
RTVSPropertyOp41
 70
     1
102
RTVSPropertyOp42
 70
     1
102
RTVSPropertyOp43
 70
     1
102
RTVSPropertyOp44
 70
     1
102
RTVSPropertyOp45
 70
     1
102
RTVSPropertyOp46
 70
     1
102
RTVSPropertyOp47
 70
     1
102
RTVSPropertyOp48
 70
     1
102
RTVSPropertyOp49
 70
     1
102
RTVSPropertyOp50
 70
     1
102
RTVSPropertyOp51
 70
     0
102
RTVSPropertyOp52
 70
     0
102
RTVSPropertyOp53
 70
     1
102
RTVSPropertyOp54
 70
     1
102
RTVSPropertyOp55
 70
     1
102
RTVSPropertyOp56
 70
     1
102
RTVSPropertyOp57
 70
     1
102
RTVSPropertyOp58
 70
     1
102
RTVSPropertyOp59
 70
     1
102
RTVSPropertyOp60
 70
     1
102
RTVSPropertyOp61
 70
     1
102
RTVSPropertyOp62
 70
     1
  0
XRECORD
  5
585
102
{ACAD_REACTORS
330
584
102
}
330
584
100
AcDbXrecord
280
     1
102
RTVSPost2010Prop28
280
     0
102
RTVSPost2010PropOp28
 70
     1
102
RTVSPost2010Prop29
280
     1
102
RTVSPost2010PropOp29
 70
     1
102
RTVSPost2010Prop30
280
     1
102
RTVSPost2010PropOp30
 70
     1
102
RTVSPost2010Prop31
280
     0
102
RTVSPost2010PropOp31
 70
     1
102
RTVSPost2010Prop32
280
     0
102
RTVSPost2010PropOp32
 70
     1
102
RTVSPost2010Prop33
280
     0
102
RTVSPost2010PropOp33
 70
     1
102
RTVSPost2010Prop34
280
     0
102
RTVSPost2010PropOp34
 70
     1
102
RTVSPost2010Prop35
280
     0
102
RTVSPost2010PropOp35
 70
     1
102
RTVSPost2010Prop36
280
     0
102
RTVSPost2010PropOp36
 70
     1
102
RTVSPost2010Prop37
 90
       50
102
RTVSPost2010PropOp37
 70
     1
102
RTVSPost2010Prop38
140
0.0
102
RTVSPost2010PropOp38
 70
     1
102
RTVSPost2010Prop39
140
1.0
102
RTVSPost2010PropOp39
 70
     1
102
RTVSPost2010Prop40
 90
        0
102
RTVSPost2010PropOp40
 70
     1
102
RTVSPost2010Prop41ColorIndex
 90
       18
102
RTVSPost2010Prop41ColorRGB
 90
        0
102
RTVSPost2010PropOp41
 70
     1
102
RTVSPost2010Prop42
 90
       50
102
RTVSPost2010PropOp42
 70
     1
102
RTVSPost2010Prop43
 90
        3
102
RTVSPost2010PropOp43
 70
     1
102
RTVSPost2010Prop44ColorIndex
 90
        5
102
RTVSPost2010Prop44ColorRGB
 90
      255
102
RTVSPost2010PropOp44
 70
     1
102
RTVSPost2010Prop45
280
     0
102
RTVSPost2010PropOp45
 70
     1
102
RTVSPost2010Prop46
 90
       50
102
RTVSPost2010PropOp46
 70
     1
102
RTVSPost2010Prop47
 90
       50
102
RTVSPost2010PropOp47
 70
     1
102
RTVSPost2010Prop48
 90
       50
102
RTVSPost2010PropOp48
 70
     1
102
RTVSPost2010Prop49
280
     0
102
RTVSPost2010PropOp49
 70
     1
102
RTVSPost2010Prop50
 90
       50
102
RTVSPost2010PropOp50
 70
     1
102
RTVSPost2010Prop51ColorIndex
 90
      256
102
RTVSPost2010Prop51ColorRGB
 90
-16777216
102
RTVSPost2010PropOp51
 70
     0
102
RTVSPost2010Prop52
140
1.0
102
RTVSPost2010PropOp52
 70
     0
102
RTVSPost2010Prop53
 90
        2
102
RTVSPost2010PropOp53
 70
     1
102
RTVSPost2010Prop54
  1
strokes_ogs.tif
102
RTVSPost2010PropOp54
 70
     1
102
RTVSPost2010Prop55
280
     0
102
RTVSPost2010PropOp55
 70
     1
102
RTVSPost2010Prop56
140
1.0
102
RTVSPost2010PropOp56
 70
     1
102
RTVSPost2010Prop57
140
1.0
102
RTVSPost2010PropOp57
 70
     1
102
RTVSPropertyOp0
 70
     1
102
RTVSPropertyOp1
 70
     1
102
RTVSPropertyOp2
 70
     1
102
RTVSPropertyOp3
 70
     1
102
RTVSPropertyOp4
 70
     1
102
RTVSPropertyOp5
 70
     1
102
RTVSPropertyOp6
 70
     1
102
RTVSPropertyOp7
 70
     1
102
RTVSPropertyOp8
 70
     1
102
RTVSPropertyOp9
 70
     1
102
RTVSPropertyOp10
 70
     1
102
RTVSPropertyOp11
 70
     1
102
RTVSPropertyOp12
 70
     1
102
RTVSPropertyOp13
 70
     1
102
RTVSPropertyOp14
 70
     1
102
RTVSPropertyOp15
 70
     1
102
RTVSPropertyOp16
 70
     1
102
RTVSPropertyOp17
 70
     1
102
RTVSPropertyOp18
 70
     1
102
RTVSPropertyOp19
 70
     1
102
RTVSPropertyOp20
 70
     1
102
RTVSPropertyOp21
 70
     1
102
RTVSPropertyOp22
 70
     1
102
RTVSPropertyOp23
 70
     1
102
RTVSPropertyOp24
 70
     1
102
RTVSPropertyOp25
 70
     1
102
RTVSPropertyOp26
 70
     1
102
RTVSPropertyOp27
 70
     1
102
RTVSPropertyOp28
 70
     1
102
RTVSPropertyOp29
 70
     1
102
RTVSPropertyOp30
 70
     1
102
RTVSPropertyOp31
 70
     1
102
RTVSPropertyOp32
 70
     1
102
RTVSPropertyOp33
 70
     1
102
RTVSPropertyOp34
 70
     1
102
RTVSPropertyOp35
 70
     1
102
RTVSPropertyOp36
 70
     1
102
RTVSPropertyOp37
 70
     1
102
RTVSPropertyOp38
 70
     1
102
RTVSPropertyOp39
 70
     1
102
RTVSPropertyOp40
 70
     1
102
RTVSPropertyOp41
 70
     1
102
RTVSPropertyOp42
 70
     1
102
RTVSPropertyOp43
 70
     1
102
RTVSPropertyOp44
 70
     1
102
RTVSPropertyOp45
 70
     1
102
RTVSPropertyOp46
 70
     1
102
RTVSPropertyOp47
 70
     1
102
RTVSPropertyOp48
 70
     1
102
RTVSPropertyOp49
 70
     1
102
RTVSPropertyOp50
 70
     1
102
RTVSPropertyOp51
 70
     0
102
RTVSPropertyOp52
 70
     0
102
RTVSPropertyOp53
 70
     1
102
RTVSPropertyOp54
 70
     1
102
RTVSPropertyOp55
 70
     1
102
RTVSPropertyOp56
 70
     1
102
RTVSPropertyOp57
 70
     1
102
RTVSPropertyOp58
 70
     1
102
RTVSPropertyOp59
 70
     1
102
RTVSPropertyOp60
 70
     1
102
RTVSPropertyOp61
 70
     1
102
RTVSPropertyOp62
 70
     1
  0
XRECORD
  5
59F
102
{ACAD_REACTORS
330
59E
102
}
330
59E
100
AcDbXrecord
280
     1
102
RTVSPost2010Prop28
280
     0
102
RTVSPost2010PropOp28
 70
     1
102
RTVSPost2010Prop29
280
     1
102
RTVSPost2010PropOp29
 70
     1
102
RTVSPost2010Prop30
280
     1
102
RTVSPost2010PropOp30
 70
     1
102
RTVSPost2010Prop31
280
     0
102
RTVSPost2010PropOp31
 70
     1
102
RTVSPost2010Prop32
280
     0
102
RTVSPost2010PropOp32
 70
     1
102
RTVSPost2010Prop33
280
     0
102
RTVSPost2010PropOp33
 70
     1
102
RTVSPost2010Prop34
280
     0
102
RTVSPost2010PropOp34
 70
     1
102
RTVSPost2010Prop35
280
     0
102
RTVSPost2010PropOp35
 70
     1
102
RTVSPost2010Prop36
280
     0
102
RTVSPost2010PropOp36
 70
     1
102
RTVSPost2010Prop37
 90
       50
102
RTVSPost2010PropOp37
 70
     0
102
RTVSPost2010Prop38
140
0.0
102
RTVSPost2010PropOp38
 70
     0
102
RTVSPost2010Prop39
140
1.0
102
RTVSPost2010PropOp39
 70
     0
102
RTVSPost2010Prop40
 90
        0
102
RTVSPost2010PropOp40
 70
     0
102
RTVSPost2010Prop41ColorIndex
 90
       18
102
RTVSPost2010Prop41ColorRGB
 90
        0
102
RTVSPost2010PropOp41
 70
     0
102
RTVSPost2010Prop42
 90
       50
102
RTVSPost2010PropOp42
 70
     0
102
RTVSPost2010Prop43
 90
        3
102
RTVSPost2010PropOp43
 70
     0
102
RTVSPost2010Prop44ColorIndex
 90
        5
102
RTVSPost2010Prop44ColorRGB
 90
      255
102
RTVSPost2010PropOp44
 70
     0
102
RTVSPost2010Prop45
280
     0
102
RTVSPost2010PropOp45
 70
     1
102
RTVSPost2010Prop46
 90
       50
102
RTVSPost2010PropOp46
 70
     0
102
RTVSPost2010Prop47
 90
       50
102
RTVSPost2010PropOp47
 70
     0
102
RTVSPost2010Prop48
 90
       50
102
RTVSPost2010PropOp48
 70
     0
102
RTVSPost2010Prop49
280
     0
102
RTVSPost2010PropOp49
 70
     1
102
RTVSPost2010Prop50
 90
       50
102
RTVSPost2010PropOp50
 70
     0
102
RTVSPost2010Prop51ColorIndex
 90
      256
102
RTVSPost2010Prop51ColorRGB
 90
-16777216
102
RTVSPost2010PropOp51
 70
     0
102
RTVSPost2010Prop52
140
1.0
102
RTVSPost2010PropOp52
 70
     0
102
RTVSPost2010Prop53
 90
        2
102
RTVSPost2010PropOp53
 70
     0
102
RTVSPost2010Prop54
  1
strokes_ogs.tif
102
RTVSPost2010PropOp54
 70
     0
102
RTVSPost2010Prop55
280
     0
102
RTVSPost2010PropOp55
 70
     1
102
RTVSPost2010Prop56
140
1.0
102
RTVSPost2010PropOp56
 70
     0
102
RTVSPost2010Prop57
140
1.0
102
RTVSPost2010PropOp57
 70
     0
102
RTVSPropertyOp0
 70
     0
102
RTVSPropertyOp1
 70
     0
102
RTVSPropertyOp2
 70
     0
102
RTVSPropertyOp3
 70
     0
102
RTVSPropertyOp4
 70
     0
102
RTVSPropertyOp5
 70
     0
102
RTVSPropertyOp6
 70
     0
102
RTVSPropertyOp7
 70
     0
102
RTVSPropertyOp8
 70
     0
102
RTVSPropertyOp9
 70
     0
102
RTVSPropertyOp10
 70
     0
102
RTVSPropertyOp11
 70
     0
102
RTVSPropertyOp12
 70
     0
102
RTVSPropertyOp13
 70
     0
102
RTVSPropertyOp14
 70
     2
102
RTVSPropertyOp15
 70
     0
102
RTVSPropertyOp16
 70
     0
102
RTVSPropertyOp17
 70
     0
102
RTVSPropertyOp18
 70
     0
102
RTVSPropertyOp19
 70
     0
102
RTVSPropertyOp20
 70
     0
102
RTVSPropertyOp21
 70
     0
102
RTVSPropertyOp22
 70
     0
102
RTVSPropertyOp23
 70
     0
102
RTVSPropertyOp24
 70
     0
102
RTVSPropertyOp25
 70
     0
102
RTVSPropertyOp26
 70
     0
102
RTVSPropertyOp27
 70
     0
102
RTVSPropertyOp28
 70
     1
102
RTVSPropertyOp29
 70
     1
102
RTVSPropertyOp30
 70
     1
102
RTVSPropertyOp31
 70
     1
102
RTVSPropertyOp32
 70
     1
102
RTVSPropertyOp33
 70
     1
102
RTVSPropertyOp34
 70
     1
102
RTVSPropertyOp35
 70
     1
102
RTVSPropertyOp36
 70
     1
102
RTVSPropertyOp37
 70
     0
102
RTVSPropertyOp38
 70
     0
102
RTVSPropertyOp39
 70
     0
102
RTVSPropertyOp40
 70
     0
102
RTVSPropertyOp41
 70
     0
102
RTVSPropertyOp42
 70
     0
102
RTVSPropertyOp43
 70
     0
102
RTVSPropertyOp44
 70
     0
102
RTVSPropertyOp45
 70
     1
102
RTVSPropertyOp46
 70
     0
102
RTVSPropertyOp47
 70
     0
102
RTVSPropertyOp48
 70
     0
102
RTVSPropertyOp49
 70
     1
102
RTVSPropertyOp50
 70
     0
102
RTVSPropertyOp51
 70
     0
102
RTVSPropertyOp52
 70
     0
102
RTVSPropertyOp53
 70
     0
102
RTVSPropertyOp54
 70
     0
102
RTVSPropertyOp55
 70
     1
102
RTVSPropertyOp56
 70
     0
102
RTVSPropertyOp57
 70
     0
102
RTVSPropertyOp58
 70
     0
102
RTVSPropertyOp59
 70
     0
102
RTVSPropertyOp60
 70
     0
102
RTVSPropertyOp61
 70
     0
102
RTVSPropertyOp62
 70
     0
  0
XRECORD
  5
58D
102
{ACAD_REACTORS
330
58C
102
}
330
58C
100
AcDbXrecord
280
     1
102
RTVSPost2010Prop28
280
     0
102
RTVSPost2010PropOp28
 70
     1
102
RTVSPost2010Prop29
280
     1
102
RTVSPost2010PropOp29
 70
     1
102
RTVSPost2010Prop30
280
     1
102
RTVSPost2010PropOp30
 70
     1
102
RTVSPost2010Prop31
280
     0
102
RTVSPost2010PropOp31
 70
     1
102
RTVSPost2010Prop32
280
     0
102
RTVSPost2010PropOp32
 70
     1
102
RTVSPost2010Prop33
280
     0
102
RTVSPost2010PropOp33
 70
     1
102
RTVSPost2010Prop34
280
     0
102
RTVSPost2010PropOp34
 70
     1
102
RTVSPost2010Prop35
280
     0
102
RTVSPost2010PropOp35
 70
     1
102
RTVSPost2010Prop36
280
     0
102
RTVSPost2010PropOp36
 70
     1
102
RTVSPost2010Prop37
 90
       50
102
RTVSPost2010PropOp37
 70
     1
102
RTVSPost2010Prop38
140
0.0
102
RTVSPost2010PropOp38
 70
     1
102
RTVSPost2010Prop39
140
1.0
102
RTVSPost2010PropOp39
 70
     1
102
RTVSPost2010Prop40
 90
        0
102
RTVSPost2010PropOp40
 70
     1
102
RTVSPost2010Prop41ColorIndex
 90
       18
102
RTVSPost2010Prop41ColorRGB
 90
        0
102
RTVSPost2010PropOp41
 70
     1
102
RTVSPost2010Prop42
 90
       50
102
RTVSPost2010PropOp42
 70
     1
102
RTVSPost2010Prop43
 90
        3
102
RTVSPost2010PropOp43
 70
     1
102
RTVSPost2010Prop44ColorIndex
 90
        5
102
RTVSPost2010Prop44ColorRGB
 90
      255
102
RTVSPost2010PropOp44
 70
     1
102
RTVSPost2010Prop45
280
     0
102
RTVSPost2010PropOp45
 70
     1
102
RTVSPost2010Prop46
 90
       50
102
RTVSPost2010PropOp46
 70
     1
102
RTVSPost2010Prop47
 90
       50
102
RTVSPost2010PropOp47
 70
     1
102
RTVSPost2010Prop48
 90
       50
102
RTVSPost2010PropOp48
 70
     1
102
RTVSPost2010Prop49
280
     0
102
RTVSPost2010PropOp49
 70
     1
102
RTVSPost2010Prop50
 90
       50
102
RTVSPost2010PropOp50
 70
     1
102
RTVSPost2010Prop51ColorIndex
 90
      256
102
RTVSPost2010Prop51ColorRGB
 90
-16777216
102
RTVSPost2010PropOp51
 70
     0
102
RTVSPost2010Prop52
140
1.0
102
RTVSPost2010PropOp52
 70
     0
102
RTVSPost2010Prop53
 90
        2
102
RTVSPost2010PropOp53
 70
     1
102
RTVSPost2010Prop54
  1
strokes_ogs.tif
102
RTVSPost2010PropOp54
 70
     1
102
RTVSPost2010Prop55
280
     0
102
RTVSPost2010PropOp55
 70
     1
102
RTVSPost2010Prop56
140
1.0
102
RTVSPost2010PropOp56
 70
     1
102
RTVSPost2010Prop57
140
1.0
102
RTVSPost2010PropOp57
 70
     1
102
RTVSPropertyOp0
 70
     1
102
RTVSPropertyOp1
 70
     1
102
RTVSPropertyOp2
 70
     1
102
RTVSPropertyOp3
 70
     1
102
RTVSPropertyOp4
 70
     1
102
RTVSPropertyOp5
 70
     1
102
RTVSPropertyOp6
 70
     1
102
RTVSPropertyOp7
 70
     1
102
RTVSPropertyOp8
 70
     1
102
RTVSPropertyOp9
 70
     1
102
RTVSPropertyOp10
 70
     1
102
RTVSPropertyOp11
 70
     1
102
RTVSPropertyOp12
 70
     1
102
RTVSPropertyOp13
 70
     1
102
RTVSPropertyOp14
 70
     1
102
RTVSPropertyOp15
 70
     1
102
RTVSPropertyOp16
 70
     1
102
RTVSPropertyOp17
 70
     1
102
RTVSPropertyOp18
 70
     1
102
RTVSPropertyOp19
 70
     1
102
RTVSPropertyOp20
 70
     1
102
RTVSPropertyOp21
 70
     1
102
RTVSPropertyOp22
 70
     1
102
RTVSPropertyOp23
 70
     1
102
RTVSPropertyOp24
 70
     1
102
RTVSPropertyOp25
 70
     1
102
RTVSPropertyOp26
 70
     1
102
RTVSPropertyOp27
 70
     1
102
RTVSPropertyOp28
 70
     1
102
RTVSPropertyOp29
 70
     1
102
RTVSPropertyOp30
 70
     1
102
RTVSPropertyOp31
 70
     1
102
RTVSPropertyOp32
 70
     1
102
RTVSPropertyOp33
 70
     1
102
RTVSPropertyOp34
 70
     1
102
RTVSPropertyOp35
 70
     1
102
RTVSPropertyOp36
 70
     1
102
RTVSPropertyOp37
 70
     1
102
RTVSPropertyOp38
 70
     1
102
RTVSPropertyOp39
 70
     1
102
RTVSPropertyOp40
 70
     1
102
RTVSPropertyOp41
 70
     1
102
RTVSPropertyOp42
 70
     1
102
RTVSPropertyOp43
 70
     1
102
RTVSPropertyOp44
 70
     1
102
RTVSPropertyOp45
 70
     1
102
RTVSPropertyOp46
 70
     1
102
RTVSPropertyOp47
 70
     1
102
RTVSPropertyOp48
 70
     1
102
RTVSPropertyOp49
 70
     1
102
RTVSPropertyOp50
 70
     1
102
RTVSPropertyOp51
 70
     0
102
RTVSPropertyOp52
 70
     0
102
RTVSPropertyOp53
 70
     1
102
RTVSPropertyOp54
 70
     1
102
RTVSPropertyOp55
 70
     1
102
RTVSPropertyOp56
 70
     1
102
RTVSPropertyOp57
 70
     1
102
RTVSPropertyOp58
 70
     1
102
RTVSPropertyOp59
 70
     1
102
RTVSPropertyOp60
 70
     1
102
RTVSPropertyOp61
 70
     1
102
RTVSPropertyOp62
 70
     1
  0
XRECORD
  5
571
102
{ACAD_REACTORS
330
570
102
}
330
570
100
AcDbXrecord
280
     1
102
RTVSPost2010Prop28
280
     0
102
RTVSPost2010PropOp28
 70
     1
102
RTVSPost2010Prop29
280
     1
102
RTVSPost2010PropOp29
 70
     1
102
RTVSPost2010Prop30
280
     1
102
RTVSPost2010PropOp30
 70
     1
102
RTVSPost2010Prop31
280
     0
102
RTVSPost2010PropOp31
 70
     1
102
RTVSPost2010Prop32
280
     0
102
RTVSPost2010PropOp32
 70
     1
102
RTVSPost2010Prop33
280
     0
102
RTVSPost2010PropOp33
 70
     1
102
RTVSPost2010Prop34
280
     0
102
RTVSPost2010PropOp34
 70
     1
102
RTVSPost2010Prop35
280
     0
102
RTVSPost2010PropOp35
 70
     1
102
RTVSPost2010Prop36
280
     0
102
RTVSPost2010PropOp36
 70
     1
102
RTVSPost2010Prop37
 90
       50
102
RTVSPost2010PropOp37
 70
     1
102
RTVSPost2010Prop38
140
0.0
102
RTVSPost2010PropOp38
 70
     1
102
RTVSPost2010Prop39
140
1.0
102
RTVSPost2010PropOp39
 70
     1
102
RTVSPost2010Prop40
 90
        0
102
RTVSPost2010PropOp40
 70
     1
102
RTVSPost2010Prop41ColorIndex
 90
       18
102
RTVSPost2010Prop41ColorRGB
 90
        0
102
RTVSPost2010PropOp41
 70
     1
102
RTVSPost2010Prop42
 90
       50
102
RTVSPost2010PropOp42
 70
     1
102
RTVSPost2010Prop43
 90
        3
102
RTVSPost2010PropOp43
 70
     1
102
RTVSPost2010Prop44ColorIndex
 90
        5
102
RTVSPost2010Prop44ColorRGB
 90
      255
102
RTVSPost2010PropOp44
 70
     1
102
RTVSPost2010Prop45
280
     0
102
RTVSPost2010PropOp45
 70
     1
102
RTVSPost2010Prop46
 90
       50
102
RTVSPost2010PropOp46
 70
     1
102
RTVSPost2010Prop47
 90
       50
102
RTVSPost2010PropOp47
 70
     1
102
RTVSPost2010Prop48
 90
       50
102
RTVSPost2010PropOp48
 70
     1
102
RTVSPost2010Prop49
280
     0
102
RTVSPost2010PropOp49
 70
     1
102
RTVSPost2010Prop50
 90
       50
102
RTVSPost2010PropOp50
 70
     1
102
RTVSPost2010Prop51ColorIndex
 90
      256
102
RTVSPost2010Prop51ColorRGB
 90
-16777216
102
RTVSPost2010PropOp51
 70
     0
102
RTVSPost2010Prop52
140
1.0
102
RTVSPost2010PropOp52
 70
     0
102
RTVSPost2010Prop53
 90
        2
102
RTVSPost2010PropOp53
 70
     1
102
RTVSPost2010Prop54
  1
strokes_ogs.tif
102
RTVSPost2010PropOp54
 70
     1
102
RTVSPost2010Prop55
280
     0
102
RTVSPost2010PropOp55
 70
     1
102
RTVSPost2010Prop56
140
1.0
102
RTVSPost2010PropOp56
 70
     1
102
RTVSPost2010Prop57
140
1.0
102
RTVSPost2010PropOp57
 70
     1
102
RTVSPropertyOp0
 70
     1
102
RTVSPropertyOp1
 70
     1
102
RTVSPropertyOp2
 70
     1
102
RTVSPropertyOp3
 70
     1
102
RTVSPropertyOp4
 70
     1
102
RTVSPropertyOp5
 70
     1
102
RTVSPropertyOp6
 70
     1
102
RTVSPropertyOp7
 70
     1
102
RTVSPropertyOp8
 70
     1
102
RTVSPropertyOp9
 70
     1
102
RTVSPropertyOp10
 70
     1
102
RTVSPropertyOp11
 70
     1
102
RTVSPropertyOp12
 70
     1
102
RTVSPropertyOp13
 70
     1
102
RTVSPropertyOp14
 70
     1
102
RTVSPropertyOp15
 70
     1
102
RTVSPropertyOp16
 70
     1
102
RTVSPropertyOp17
 70
     1
102
RTVSPropertyOp18
 70
     1
102
RTVSPropertyOp19
 70
     1
102
RTVSPropertyOp20
 70
     1
102
RTVSPropertyOp21
 70
     1
102
RTVSPropertyOp22
 70
     1
102
RTVSPropertyOp23
 70
     1
102
RTVSPropertyOp24
 70
     1
102
RTVSPropertyOp25
 70
     1
102
RTVSPropertyOp26
 70
     1
102
RTVSPropertyOp27
 70
     1
102
RTVSPropertyOp28
 70
     1
102
RTVSPropertyOp29
 70
     1
102
RTVSPropertyOp30
 70
     1
102
RTVSPropertyOp31
 70
     1
102
RTVSPropertyOp32
 70
     1
102
RTVSPropertyOp33
 70
     1
102
RTVSPropertyOp34
 70
     1
102
RTVSPropertyOp35
 70
     1
102
RTVSPropertyOp36
 70
     1
102
RTVSPropertyOp37
 70
     1
102
RTVSPropertyOp38
 70
     1
102
RTVSPropertyOp39
 70
     1
102
RTVSPropertyOp40
 70
     1
102
RTVSPropertyOp41
 70
     1
102
RTVSPropertyOp42
 70
     1
102
RTVSPropertyOp43
 70
     1
102
RTVSPropertyOp44
 70
     1
102
RTVSPropertyOp45
 70
     1
102
RTVSPropertyOp46
 70
     1
102
RTVSPropertyOp47
 70
     1
102
RTVSPropertyOp48
 70
     1
102
RTVSPropertyOp49
 70
     1
102
RTVSPropertyOp50
 70
     1
102
RTVSPropertyOp51
 70
     0
102
RTVSPropertyOp52
 70
     0
102
RTVSPropertyOp53
 70
     1
102
RTVSPropertyOp54
 70
     1
102
RTVSPropertyOp55
 70
     1
102
RTVSPropertyOp56
 70
     1
102
RTVSPropertyOp57
 70
     1
102
RTVSPropertyOp58
 70
     1
102
RTVSPropertyOp59
 70
     1
102
RTVSPropertyOp60
 70
     1
102
RTVSPropertyOp61
 70
     1
102
RTVSPropertyOp62
 70
     1
  0
XRECORD
  5
573
102
{ACAD_REACTORS
330
572
102
}
330
572
100
AcDbXrecord
280
     1
102
RTVSPost2010Prop28
280
     0
102
RTVSPost2010PropOp28
 70
     1
102
RTVSPost2010Prop29
280
     1
102
RTVSPost2010PropOp29
 70
     1
102
RTVSPost2010Prop30
280
     1
102
RTVSPost2010PropOp30
 70
     1
102
RTVSPost2010Prop31
280
     0
102
RTVSPost2010PropOp31
 70
     1
102
RTVSPost2010Prop32
280
     0
102
RTVSPost2010PropOp32
 70
     1
102
RTVSPost2010Prop33
280
     0
102
RTVSPost2010PropOp33
 70
     1
102
RTVSPost2010Prop34
280
     0
102
RTVSPost2010PropOp34
 70
     1
102
RTVSPost2010Prop35
280
     0
102
RTVSPost2010PropOp35
 70
     1
102
RTVSPost2010Prop36
280
     0
102
RTVSPost2010PropOp36
 70
     1
102
RTVSPost2010Prop37
 90
       50
102
RTVSPost2010PropOp37
 70
     1
102
RTVSPost2010Prop38
140
0.0
102
RTVSPost2010PropOp38
 70
     1
102
RTVSPost2010Prop39
140
1.0
102
RTVSPost2010PropOp39
 70
     1
102
RTVSPost2010Prop40
 90
        0
102
RTVSPost2010PropOp40
 70
     1
102
RTVSPost2010Prop41ColorIndex
 90
       18
102
RTVSPost2010Prop41ColorRGB
 90
        0
102
RTVSPost2010PropOp41
 70
     1
102
RTVSPost2010Prop42
 90
       50
102
RTVSPost2010PropOp42
 70
     1
102
RTVSPost2010Prop43
 90
        3
102
RTVSPost2010PropOp43
 70
     1
102
RTVSPost2010Prop44ColorIndex
 90
        5
102
RTVSPost2010Prop44ColorRGB
 90
      255
102
RTVSPost2010PropOp44
 70
     1
102
RTVSPost2010Prop45
280
     0
102
RTVSPost2010PropOp45
 70
     1
102
RTVSPost2010Prop46
 90
       50
102
RTVSPost2010PropOp46
 70
     1
102
RTVSPost2010Prop47
 90
       50
102
RTVSPost2010PropOp47
 70
     1
102
RTVSPost2010Prop48
 90
       50
102
RTVSPost2010PropOp48
 70
     1
102
RTVSPost2010Prop49
280
     0
102
RTVSPost2010PropOp49
 70
     1
102
RTVSPost2010Prop50
 90
       50
102
RTVSPost2010PropOp50
 70
     1
102
RTVSPost2010Prop51ColorIndex
 90
      256
102
RTVSPost2010Prop51ColorRGB
 90
-16777216
102
RTVSPost2010PropOp51
 70
     0
102
RTVSPost2010Prop52
140
1.0
102
RTVSPost2010PropOp52
 70
     0
102
RTVSPost2010Prop53
 90
        2
102
RTVSPost2010PropOp53
 70
     1
102
RTVSPost2010Prop54
  1
strokes_ogs.tif
102
RTVSPost2010PropOp54
 70
     1
102
RTVSPost2010Prop55
280
     0
102
RTVSPost2010PropOp55
 70
     1
102
RTVSPost2010Prop56
140
1.0
102
RTVSPost2010PropOp56
 70
     1
102
RTVSPost2010Prop57
140
1.0
102
RTVSPost2010PropOp57
 70
     1
102
RTVSPropertyOp0
 70
     1
102
RTVSPropertyOp1
 70
     1
102
RTVSPropertyOp2
 70
     1
102
RTVSPropertyOp3
 70
     1
102
RTVSPropertyOp4
 70
     1
102
RTVSPropertyOp5
 70
     1
102
RTVSPropertyOp6
 70
     1
102
RTVSPropertyOp7
 70
     1
102
RTVSPropertyOp8
 70
     1
102
RTVSPropertyOp9
 70
     1
102
RTVSPropertyOp10
 70
     1
102
RTVSPropertyOp11
 70
     1
102
RTVSPropertyOp12
 70
     1
102
RTVSPropertyOp13
 70
     1
102
RTVSPropertyOp14
 70
     1
102
RTVSPropertyOp15
 70
     1
102
RTVSPropertyOp16
 70
     1
102
RTVSPropertyOp17
 70
     1
102
RTVSPropertyOp18
 70
     1
102
RTVSPropertyOp19
 70
     1
102
RTVSPropertyOp20
 70
     1
102
RTVSPropertyOp21
 70
     1
102
RTVSPropertyOp22
 70
     1
102
RTVSPropertyOp23
 70
     1
102
RTVSPropertyOp24
 70
     1
102
RTVSPropertyOp25
 70
     1
102
RTVSPropertyOp26
 70
     1
102
RTVSPropertyOp27
 70
     1
102
RTVSPropertyOp28
 70
     1
102
RTVSPropertyOp29
 70
     1
102
RTVSPropertyOp30
 70
     1
102
RTVSPropertyOp31
 70
     1
102
RTVSPropertyOp32
 70
     1
102
RTVSPropertyOp33
 70
     1
102
RTVSPropertyOp34
 70
     1
102
RTVSPropertyOp35
 70
     1
102
RTVSPropertyOp36
 70
     1
102
RTVSPropertyOp37
 70
     1
102
RTVSPropertyOp38
 70
     1
102
RTVSPropertyOp39
 70
     1
102
RTVSPropertyOp40
 70
     1
102
RTVSPropertyOp41
 70
     1
102
RTVSPropertyOp42
 70
     1
102
RTVSPropertyOp43
 70
     1
102
RTVSPropertyOp44
 70
     1
102
RTVSPropertyOp45
 70
     1
102
RTVSPropertyOp46
 70
     1
102
RTVSPropertyOp47
 70
     1
102
RTVSPropertyOp48
 70
     1
102
RTVSPropertyOp49
 70
     1
102
RTVSPropertyOp50
 70
     1
102
RTVSPropertyOp51
 70
     0
102
RTVSPropertyOp52
 70
     0
102
RTVSPropertyOp53
 70
     1
102
RTVSPropertyOp54
 70
     1
102
RTVSPropertyOp55
 70
     1
102
RTVSPropertyOp56
 70
     1
102
RTVSPropertyOp57
 70
     1
102
RTVSPropertyOp58
 70
     1
102
RTVSPropertyOp59
 70
     1
102
RTVSPropertyOp60
 70
     1
102
RTVSPropertyOp61
 70
     1
102
RTVSPropertyOp62
 70
     1
  0
XRECORD
  5
575
102
{ACAD_REACTORS
330
574
102
}
330
574
100
AcDbXrecord
280
     1
102
RTVSPost2010Prop28
280
     0
102
RTVSPost2010PropOp28
 70
     1
102
RTVSPost2010Prop29
280
     1
102
RTVSPost2010PropOp29
 70
     1
102
RTVSPost2010Prop30
280
     1
102
RTVSPost2010PropOp30
 70
     1
102
RTVSPost2010Prop31
280
     0
102
RTVSPost2010PropOp31
 70
     1
102
RTVSPost2010Prop32
280
     0
102
RTVSPost2010PropOp32
 70
     1
102
RTVSPost2010Prop33
280
     0
102
RTVSPost2010PropOp33
 70
     1
102
RTVSPost2010Prop34
280
     0
102
RTVSPost2010PropOp34
 70
     1
102
RTVSPost2010Prop35
280
     0
102
RTVSPost2010PropOp35
 70
     1
102
RTVSPost2010Prop36
280
     0
102
RTVSPost2010PropOp36
 70
     1
102
RTVSPost2010Prop37
 90
       50
102
RTVSPost2010PropOp37
 70
     1
102
RTVSPost2010Prop38
140
0.0
102
RTVSPost2010PropOp38
 70
     1
102
RTVSPost2010Prop39
140
1.0
102
RTVSPost2010PropOp39
 70
     1
102
RTVSPost2010Prop40
 90
        0
102
RTVSPost2010PropOp40
 70
     1
102
RTVSPost2010Prop41ColorIndex
 90
       18
102
RTVSPost2010Prop41ColorRGB
 90
        0
102
RTVSPost2010PropOp41
 70
     1
102
RTVSPost2010Prop42
 90
       50
102
RTVSPost2010PropOp42
 70
     1
102
RTVSPost2010Prop43
 90
        3
102
RTVSPost2010PropOp43
 70
     1
102
RTVSPost2010Prop44ColorIndex
 90
        5
102
RTVSPost2010Prop44ColorRGB
 90
      255
102
RTVSPost2010PropOp44
 70
     1
102
RTVSPost2010Prop45
280
     0
102
RTVSPost2010PropOp45
 70
     1
102
RTVSPost2010Prop46
 90
       50
102
RTVSPost2010PropOp46
 70
     1
102
RTVSPost2010Prop47
 90
       50
102
RTVSPost2010PropOp47
 70
     1
102
RTVSPost2010Prop48
 90
       50
102
RTVSPost2010PropOp48
 70
     1
102
RTVSPost2010Prop49
280
     0
102
RTVSPost2010PropOp49
 70
     1
102
RTVSPost2010Prop50
 90
       50
102
RTVSPost2010PropOp50
 70
     1
102
RTVSPost2010Prop51ColorIndex
 90
      256
102
RTVSPost2010Prop51ColorRGB
 90
-16777216
102
RTVSPost2010PropOp51
 70
     0
102
RTVSPost2010Prop52
140
1.0
102
RTVSPost2010PropOp52
 70
     0
102
RTVSPost2010Prop53
 90
        2
102
RTVSPost2010PropOp53
 70
     1
102
RTVSPost2010Prop54
  1
strokes_ogs.tif
102
RTVSPost2010PropOp54
 70
     1
102
RTVSPost2010Prop55
280
     0
102
RTVSPost2010PropOp55
 70
     1
102
RTVSPost2010Prop56
140
1.0
102
RTVSPost2010PropOp56
 70
     1
102
RTVSPost2010Prop57
140
1.0
102
RTVSPost2010PropOp57
 70
     1
102
RTVSPropertyOp0
 70
     1
102
RTVSPropertyOp1
 70
     1
102
RTVSPropertyOp2
 70
     1
102
RTVSPropertyOp3
 70
     1
102
RTVSPropertyOp4
 70
     1
102
RTVSPropertyOp5
 70
     1
102
RTVSPropertyOp6
 70
     1
102
RTVSPropertyOp7
 70
     1
102
RTVSPropertyOp8
 70
     1
102
RTVSPropertyOp9
 70
     1
102
RTVSPropertyOp10
 70
     1
102
RTVSPropertyOp11
 70
     1
102
RTVSPropertyOp12
 70
     1
102
RTVSPropertyOp13
 70
     1
102
RTVSPropertyOp14
 70
     1
102
RTVSPropertyOp15
 70
     1
102
RTVSPropertyOp16
 70
     1
102
RTVSPropertyOp17
 70
     1
102
RTVSPropertyOp18
 70
     1
102
RTVSPropertyOp19
 70
     1
102
RTVSPropertyOp20
 70
     1
102
RTVSPropertyOp21
 70
     1
102
RTVSPropertyOp22
 70
     1
102
RTVSPropertyOp23
 70
     1
102
RTVSPropertyOp24
 70
     1
102
RTVSPropertyOp25
 70
     1
102
RTVSPropertyOp26
 70
     1
102
RTVSPropertyOp27
 70
     1
102
RTVSPropertyOp28
 70
     1
102
RTVSPropertyOp29
 70
     1
102
RTVSPropertyOp30
 70
     1
102
RTVSPropertyOp31
 70
     1
102
RTVSPropertyOp32
 70
     1
102
RTVSPropertyOp33
 70
     1
102
RTVSPropertyOp34
 70
     1
102
RTVSPropertyOp35
 70
     1
102
RTVSPropertyOp36
 70
     1
102
RTVSPropertyOp37
 70
     1
102
RTVSPropertyOp38
 70
     1
102
RTVSPropertyOp39
 70
     1
102
RTVSPropertyOp40
 70
     1
102
RTVSPropertyOp41
 70
     1
102
RTVSPropertyOp42
 70
     1
102
RTVSPropertyOp43
 70
     1
102
RTVSPropertyOp44
 70
     1
102
RTVSPropertyOp45
 70
     1
102
RTVSPropertyOp46
 70
     1
102
RTVSPropertyOp47
 70
     1
102
RTVSPropertyOp48
 70
     1
102
RTVSPropertyOp49
 70
     1
102
RTVSPropertyOp50
 70
     1
102
RTVSPropertyOp51
 70
     0
102
RTVSPropertyOp52
 70
     0
102
RTVSPropertyOp53
 70
     1
102
RTVSPropertyOp54
 70
     1
102
RTVSPropertyOp55
 70
     1
102
RTVSPropertyOp56
 70
     1
102
RTVSPropertyOp57
 70
     1
102
RTVSPropertyOp58
 70
     1
102
RTVSPropertyOp59
 70
     1
102
RTVSPropertyOp60
 70
     1
102
RTVSPropertyOp61
 70
     1
102
RTVSPropertyOp62
 70
     1
  0
XRECORD
  5
577
102
{ACAD_REACTORS
330
576
102
}
330
576
100
AcDbXrecord
280
     1
102
RTVSPost2010Prop28
280
     0
102
RTVSPost2010PropOp28
 70
     1
102
RTVSPost2010Prop29
280
     1
102
RTVSPost2010PropOp29
 70
     1
102
RTVSPost2010Prop30
280
     1
102
RTVSPost2010PropOp30
 70
     1
102
RTVSPost2010Prop31
280
     0
102
RTVSPost2010PropOp31
 70
     1
102
RTVSPost2010Prop32
280
     0
102
RTVSPost2010PropOp32
 70
     1
102
RTVSPost2010Prop33
280
     0
102
RTVSPost2010PropOp33
 70
     1
102
RTVSPost2010Prop34
280
     0
102
RTVSPost2010PropOp34
 70
     1
102
RTVSPost2010Prop35
280
     0
102
RTVSPost2010PropOp35
 70
     1
102
RTVSPost2010Prop36
280
     0
102
RTVSPost2010PropOp36
 70
     1
102
RTVSPost2010Prop37
 90
       50
102
RTVSPost2010PropOp37
 70
     1
102
RTVSPost2010Prop38
140
0.0
102
RTVSPost2010PropOp38
 70
     1
102
RTVSPost2010Prop39
140
1.0
102
RTVSPost2010PropOp39
 70
     1
102
RTVSPost2010Prop40
 90
        0
102
RTVSPost2010PropOp40
 70
     1
102
RTVSPost2010Prop41ColorIndex
 90
       18
102
RTVSPost2010Prop41ColorRGB
 90
        0
102
RTVSPost2010PropOp41
 70
     1
102
RTVSPost2010Prop42
 90
       50
102
RTVSPost2010PropOp42
 70
     1
102
RTVSPost2010Prop43
 90
        3
102
RTVSPost2010PropOp43
 70
     1
102
RTVSPost2010Prop44ColorIndex
 90
        5
102
RTVSPost2010Prop44ColorRGB
 90
      255
102
RTVSPost2010PropOp44
 70
     1
102
RTVSPost2010Prop45
280
     0
102
RTVSPost2010PropOp45
 70
     1
102
RTVSPost2010Prop46
 90
       50
102
RTVSPost2010PropOp46
 70
     1
102
RTVSPost2010Prop47
 90
       50
102
RTVSPost2010PropOp47
 70
     1
102
RTVSPost2010Prop48
 90
       50
102
RTVSPost2010PropOp48
 70
     1
102
RTVSPost2010Prop49
280
     0
102
RTVSPost2010PropOp49
 70
     1
102
RTVSPost2010Prop50
 90
       50
102
RTVSPost2010PropOp50
 70
     1
102
RTVSPost2010Prop51ColorIndex
 90
      256
102
RTVSPost2010Prop51ColorRGB
 90
-16777216
102
RTVSPost2010PropOp51
 70
     0
102
RTVSPost2010Prop52
140
1.0
102
RTVSPost2010PropOp52
 70
     0
102
RTVSPost2010Prop53
 90
        2
102
RTVSPost2010PropOp53
 70
     1
102
RTVSPost2010Prop54
  1
strokes_ogs.tif
102
RTVSPost2010PropOp54
 70
     1
102
RTVSPost2010Prop55
280
     0
102
RTVSPost2010PropOp55
 70
     1
102
RTVSPost2010Prop56
140
1.0
102
RTVSPost2010PropOp56
 70
     1
102
RTVSPost2010Prop57
140
1.0
102
RTVSPost2010PropOp57
 70
     1
102
RTVSPropertyOp0
 70
     1
102
RTVSPropertyOp1
 70
     1
102
RTVSPropertyOp2
 70
     1
102
RTVSPropertyOp3
 70
     1
102
RTVSPropertyOp4
 70
     1
102
RTVSPropertyOp5
 70
     1
102
RTVSPropertyOp6
 70
     1
102
RTVSPropertyOp7
 70
     1
102
RTVSPropertyOp8
 70
     1
102
RTVSPropertyOp9
 70
     1
102
RTVSPropertyOp10
 70
     1
102
RTVSPropertyOp11
 70
     1
102
RTVSPropertyOp12
 70
     1
102
RTVSPropertyOp13
 70
     1
102
RTVSPropertyOp14
 70
     1
102
RTVSPropertyOp15
 70
     1
102
RTVSPropertyOp16
 70
     1
102
RTVSPropertyOp17
 70
     1
102
RTVSPropertyOp18
 70
     1
102
RTVSPropertyOp19
 70
     1
102
RTVSPropertyOp20
 70
     1
102
RTVSPropertyOp21
 70
     1
102
RTVSPropertyOp22
 70
     1
102
RTVSPropertyOp23
 70
     1
102
RTVSPropertyOp24
 70
     1
102
RTVSPropertyOp25
 70
     1
102
RTVSPropertyOp26
 70
     1
102
RTVSPropertyOp27
 70
     1
102
RTVSPropertyOp28
 70
     1
102
RTVSPropertyOp29
 70
     1
102
RTVSPropertyOp30
 70
     1
102
RTVSPropertyOp31
 70
     1
102
RTVSPropertyOp32
 70
     1
102
RTVSPropertyOp33
 70
     1
102
RTVSPropertyOp34
 70
     1
102
RTVSPropertyOp35
 70
     1
102
RTVSPropertyOp36
 70
     1
102
RTVSPropertyOp37
 70
     1
102
RTVSPropertyOp38
 70
     1
102
RTVSPropertyOp39
 70
     1
102
RTVSPropertyOp40
 70
     1
102
RTVSPropertyOp41
 70
     1
102
RTVSPropertyOp42
 70
     1
102
RTVSPropertyOp43
 70
     1
102
RTVSPropertyOp44
 70
     1
102
RTVSPropertyOp45
 70
     1
102
RTVSPropertyOp46
 70
     1
102
RTVSPropertyOp47
 70
     1
102
RTVSPropertyOp48
 70
     1
102
RTVSPropertyOp49
 70
     1
102
RTVSPropertyOp50
 70
     1
102
RTVSPropertyOp51
 70
     0
102
RTVSPropertyOp52
 70
     0
102
RTVSPropertyOp53
 70
     1
102
RTVSPropertyOp54
 70
     1
102
RTVSPropertyOp55
 70
     1
102
RTVSPropertyOp56
 70
     1
102
RTVSPropertyOp57
 70
     1
102
RTVSPropertyOp58
 70
     1
102
RTVSPropertyOp59
 70
     1
102
RTVSPropertyOp60
 70
     1
102
RTVSPropertyOp61
 70
     1
102
RTVSPropertyOp62
 70
     1
  0
XRECORD
  5
57F
102
{ACAD_REACTORS
330
57E
102
}
330
57E
100
AcDbXrecord
280
     1
102
RTVSPost2010Prop28
280
     0
102
RTVSPost2010PropOp28
 70
     1
102
RTVSPost2010Prop29
280
     1
102
RTVSPost2010PropOp29
 70
     1
102
RTVSPost2010Prop30
280
     1
102
RTVSPost2010PropOp30
 70
     1
102
RTVSPost2010Prop31
280
     0
102
RTVSPost2010PropOp31
 70
     1
102
RTVSPost2010Prop32
280
     0
102
RTVSPost2010PropOp32
 70
     1
102
RTVSPost2010Prop33
280
     0
102
RTVSPost2010PropOp33
 70
     1
102
RTVSPost2010Prop34
280
     0
102
RTVSPost2010PropOp34
 70
     1
102
RTVSPost2010Prop35
280
     0
102
RTVSPost2010PropOp35
 70
     1
102
RTVSPost2010Prop36
280
     0
102
RTVSPost2010PropOp36
 70
     1
102
RTVSPost2010Prop37
 90
       50
102
RTVSPost2010PropOp37
 70
     1
102
RTVSPost2010Prop38
140
0.0
102
RTVSPost2010PropOp38
 70
     1
102
RTVSPost2010Prop39
140
1.0
102
RTVSPost2010PropOp39
 70
     1
102
RTVSPost2010Prop40
 90
        0
102
RTVSPost2010PropOp40
 70
     1
102
RTVSPost2010Prop41ColorIndex
 90
       18
102
RTVSPost2010Prop41ColorRGB
 90
        0
102
RTVSPost2010PropOp41
 70
     1
102
RTVSPost2010Prop42
 90
       50
102
RTVSPost2010PropOp42
 70
     1
102
RTVSPost2010Prop43
 90
        3
102
RTVSPost2010PropOp43
 70
     1
102
RTVSPost2010Prop44ColorIndex
 90
        5
102
RTVSPost2010Prop44ColorRGB
 90
      255
102
RTVSPost2010PropOp44
 70
     1
102
RTVSPost2010Prop45
280
     0
102
RTVSPost2010PropOp45
 70
     1
102
RTVSPost2010Prop46
 90
       50
102
RTVSPost2010PropOp46
 70
     1
102
RTVSPost2010Prop47
 90
       50
102
RTVSPost2010PropOp47
 70
     1
102
RTVSPost2010Prop48
 90
       50
102
RTVSPost2010PropOp48
 70
     1
102
RTVSPost2010Prop49
280
     0
102
RTVSPost2010PropOp49
 70
     1
102
RTVSPost2010Prop50
 90
       50
102
RTVSPost2010PropOp50
 70
     1
102
RTVSPost2010Prop51ColorIndex
 90
      256
102
RTVSPost2010Prop51ColorRGB
 90
-16777216
102
RTVSPost2010PropOp51
 70
     0
102
RTVSPost2010Prop52
140
1.0
102
RTVSPost2010PropOp52
 70
     0
102
RTVSPost2010Prop53
 90
        2
102
RTVSPost2010PropOp53
 70
     1
102
RTVSPost2010Prop54
  1
strokes_ogs.tif
102
RTVSPost2010PropOp54
 70
     1
102
RTVSPost2010Prop55
280
     0
102
RTVSPost2010PropOp55
 70
     1
102
RTVSPost2010Prop56
140
1.0
102
RTVSPost2010PropOp56
 70
     1
102
RTVSPost2010Prop57
140
1.0
102
RTVSPost2010PropOp57
 70
     1
102
RTVSPropertyOp0
 70
     1
102
RTVSPropertyOp1
 70
     1
102
RTVSPropertyOp2
 70
     1
102
RTVSPropertyOp3
 70
     1
102
RTVSPropertyOp4
 70
     1
102
RTVSPropertyOp5
 70
     1
102
RTVSPropertyOp6
 70
     1
102
RTVSPropertyOp7
 70
     1
102
RTVSPropertyOp8
 70
     1
102
RTVSPropertyOp9
 70
     1
102
RTVSPropertyOp10
 70
     1
102
RTVSPropertyOp11
 70
     1
102
RTVSPropertyOp12
 70
     1
102
RTVSPropertyOp13
 70
     1
102
RTVSPropertyOp14
 70
     1
102
RTVSPropertyOp15
 70
     1
102
RTVSPropertyOp16
 70
     1
102
RTVSPropertyOp17
 70
     1
102
RTVSPropertyOp18
 70
     1
102
RTVSPropertyOp19
 70
     1
102
RTVSPropertyOp20
 70
     1
102
RTVSPropertyOp21
 70
     1
102
RTVSPropertyOp22
 70
     1
102
RTVSPropertyOp23
 70
     1
102
RTVSPropertyOp24
 70
     1
102
RTVSPropertyOp25
 70
     1
102
RTVSPropertyOp26
 70
     1
102
RTVSPropertyOp27
 70
     1
102
RTVSPropertyOp28
 70
     1
102
RTVSPropertyOp29
 70
     1
102
RTVSPropertyOp30
 70
     1
102
RTVSPropertyOp31
 70
     1
102
RTVSPropertyOp32
 70
     1
102
RTVSPropertyOp33
 70
     1
102
RTVSPropertyOp34
 70
     1
102
RTVSPropertyOp35
 70
     1
102
RTVSPropertyOp36
 70
     1
102
RTVSPropertyOp37
 70
     1
102
RTVSPropertyOp38
 70
     1
102
RTVSPropertyOp39
 70
     1
102
RTVSPropertyOp40
 70
     1
102
RTVSPropertyOp41
 70
     1
102
RTVSPropertyOp42
 70
     1
102
RTVSPropertyOp43
 70
     1
102
RTVSPropertyOp44
 70
     1
102
RTVSPropertyOp45
 70
     1
102
RTVSPropertyOp46
 70
     1
102
RTVSPropertyOp47
 70
     1
102
RTVSPropertyOp48
 70
     1
102
RTVSPropertyOp49
 70
     1
102
RTVSPropertyOp50
 70
     1
102
RTVSPropertyOp51
 70
     0
102
RTVSPropertyOp52
 70
     0
102
RTVSPropertyOp53
 70
     1
102
RTVSPropertyOp54
 70
     1
102
RTVSPropertyOp55
 70
     1
102
RTVSPropertyOp56
 70
     1
102
RTVSPropertyOp57
 70
     1
102
RTVSPropertyOp58
 70
     1
102
RTVSPropertyOp59
 70
     1
102
RTVSPropertyOp60
 70
     1
102
RTVSPropertyOp61
 70
     1
102
RTVSPropertyOp62
 70
     1
  0
XRECORD
  5
59B
102
{ACAD_REACTORS
330
59A
102
}
330
59A
100
AcDbXrecord
280
     1
102
RTVSPost2010Prop28
280
     0
102
RTVSPost2010PropOp28
 70
     1
102
RTVSPost2010Prop29
280
     1
102
RTVSPost2010PropOp29
 70
     1
102
RTVSPost2010Prop30
280
     1
102
RTVSPost2010PropOp30
 70
     1
102
RTVSPost2010Prop31
280
     0
102
RTVSPost2010PropOp31
 70
     1
102
RTVSPost2010Prop32
280
     0
102
RTVSPost2010PropOp32
 70
     1
102
RTVSPost2010Prop33
280
     0
102
RTVSPost2010PropOp33
 70
     1
102
RTVSPost2010Prop34
280
     0
102
RTVSPost2010PropOp34
 70
     1
102
RTVSPost2010Prop35
280
     0
102
RTVSPost2010PropOp35
 70
     1
102
RTVSPost2010Prop36
280
     0
102
RTVSPost2010PropOp36
 70
     1
102
RTVSPost2010Prop37
 90
       50
102
RTVSPost2010PropOp37
 70
     0
102
RTVSPost2010Prop38
140
0.0
102
RTVSPost2010PropOp38
 70
     0
102
RTVSPost2010Prop39
140
1.0
102
RTVSPost2010PropOp39
 70
     0
102
RTVSPost2010Prop40
 90
        0
102
RTVSPost2010PropOp40
 70
     0
102
RTVSPost2010Prop41ColorIndex
 90
       18
102
RTVSPost2010Prop41ColorRGB
 90
        0
102
RTVSPost2010PropOp41
 70
     0
102
RTVSPost2010Prop42
 90
       50
102
RTVSPost2010PropOp42
 70
     0
102
RTVSPost2010Prop43
 90
        3
102
RTVSPost2010PropOp43
 70
     0
102
RTVSPost2010Prop44ColorIndex
 90
        5
102
RTVSPost2010Prop44ColorRGB
 90
      255
102
RTVSPost2010PropOp44
 70
     0
102
RTVSPost2010Prop45
280
     0
102
RTVSPost2010PropOp45
 70
     1
102
RTVSPost2010Prop46
 90
       50
102
RTVSPost2010PropOp46
 70
     0
102
RTVSPost2010Prop47
 90
       50
102
RTVSPost2010PropOp47
 70
     0
102
RTVSPost2010Prop48
 90
       50
102
RTVSPost2010PropOp48
 70
     0
102
RTVSPost2010Prop49
280
     0
102
RTVSPost2010PropOp49
 70
     1
102
RTVSPost2010Prop50
 90
       50
102
RTVSPost2010PropOp50
 70
     0
102
RTVSPost2010Prop51ColorIndex
 90
      256
102
RTVSPost2010Prop51ColorRGB
 90
-16777216
102
RTVSPost2010PropOp51
 70
     0
102
RTVSPost2010Prop52
140
1.0
102
RTVSPost2010PropOp52
 70
     0
102
RTVSPost2010Prop53
 90
        2
102
RTVSPost2010PropOp53
 70
     0
102
RTVSPost2010Prop54
  1
strokes_ogs.tif
102
RTVSPost2010PropOp54
 70
     0
102
RTVSPost2010Prop55
280
     0
102
RTVSPost2010PropOp55
 70
     1
102
RTVSPost2010Prop56
140
1.0
102
RTVSPost2010PropOp56
 70
     0
102
RTVSPost2010Prop57
140
1.0
102
RTVSPost2010PropOp57
 70
     0
102
RTVSPropertyOp0
 70
     0
102
RTVSPropertyOp1
 70
     0
102
RTVSPropertyOp2
 70
     0
102
RTVSPropertyOp3
 70
     0
102
RTVSPropertyOp4
 70
     0
102
RTVSPropertyOp5
 70
     0
102
RTVSPropertyOp6
 70
     0
102
RTVSPropertyOp7
 70
     0
102
RTVSPropertyOp8
 70
     0
102
RTVSPropertyOp9
 70
     0
102
RTVSPropertyOp10
 70
     0
102
RTVSPropertyOp11
 70
     0
102
RTVSPropertyOp12
 70
     0
102
RTVSPropertyOp13
 70
     0
102
RTVSPropertyOp14
 70
     2
102
RTVSPropertyOp15
 70
     0
102
RTVSPropertyOp16
 70
     0
102
RTVSPropertyOp17
 70
     0
102
RTVSPropertyOp18
 70
     0
102
RTVSPropertyOp19
 70
     0
102
RTVSPropertyOp20
 70
     0
102
RTVSPropertyOp21
 70
     0
102
RTVSPropertyOp22
 70
     0
102
RTVSPropertyOp23
 70
     0
102
RTVSPropertyOp24
 70
     0
102
RTVSPropertyOp25
 70
     0
102
RTVSPropertyOp26
 70
     0
102
RTVSPropertyOp27
 70
     0
102
RTVSPropertyOp28
 70
     1
102
RTVSPropertyOp29
 70
     1
102
RTVSPropertyOp30
 70
     1
102
RTVSPropertyOp31
 70
     1
102
RTVSPropertyOp32
 70
     1
102
RTVSPropertyOp33
 70
     1
102
RTVSPropertyOp34
 70
     1
102
RTVSPropertyOp35
 70
     1
102
RTVSPropertyOp36
 70
     1
102
RTVSPropertyOp37
 70
     0
102
RTVSPropertyOp38
 70
     0
102
RTVSPropertyOp39
 70
     0
102
RTVSPropertyOp40
 70
     0
102
RTVSPropertyOp41
 70
     0
102
RTVSPropertyOp42
 70
     0
102
RTVSPropertyOp43
 70
     0
102
RTVSPropertyOp44
 70
     0
102
RTVSPropertyOp45
 70
     1
102
RTVSPropertyOp46
 70
     0
102
RTVSPropertyOp47
 70
     0
102
RTVSPropertyOp48
 70
     0
102
RTVSPropertyOp49
 70
     1
102
RTVSPropertyOp50
 70
     0
102
RTVSPropertyOp51
 70
     0
102
RTVSPropertyOp52
 70
     0
102
RTVSPropertyOp53
 70
     0
102
RTVSPropertyOp54
 70
     0
102
RTVSPropertyOp55
 70
     1
102
RTVSPropertyOp56
 70
     0
102
RTVSPropertyOp57
 70
     0
102
RTVSPropertyOp58
 70
     0
102
RTVSPropertyOp59
 70
     0
102
RTVSPropertyOp60
 70
     0
102
RTVSPropertyOp61
 70
     0
102
RTVSPropertyOp62
 70
     0
  0
XRECORD
  5
58B
102
{ACAD_REACTORS
330
58A
102
}
330
58A
100
AcDbXrecord
280
     1
102
RTVSPost2010Prop28
280
     0
102
RTVSPost2010PropOp28
 70
     1
102
RTVSPost2010Prop29
280
     1
102
RTVSPost2010PropOp29
 70
     1
102
RTVSPost2010Prop30
280
     1
102
RTVSPost2010PropOp30
 70
     1
102
RTVSPost2010Prop31
280
     0
102
RTVSPost2010PropOp31
 70
     1
102
RTVSPost2010Prop32
280
     0
102
RTVSPost2010PropOp32
 70
     1
102
RTVSPost2010Prop33
280
     0
102
RTVSPost2010PropOp33
 70
     1
102
RTVSPost2010Prop34
280
     0
102
RTVSPost2010PropOp34
 70
     1
102
RTVSPost2010Prop35
280
     0
102
RTVSPost2010PropOp35
 70
     1
102
RTVSPost2010Prop36
280
     0
102
RTVSPost2010PropOp36
 70
     1
102
RTVSPost2010Prop37
 90
       50
102
RTVSPost2010PropOp37
 70
     1
102
RTVSPost2010Prop38
140
0.0
102
RTVSPost2010PropOp38
 70
     1
102
RTVSPost2010Prop39
140
1.0
102
RTVSPost2010PropOp39
 70
     1
102
RTVSPost2010Prop40
 90
        0
102
RTVSPost2010PropOp40
 70
     1
102
RTVSPost2010Prop41ColorIndex
 90
       18
102
RTVSPost2010Prop41ColorRGB
 90
        0
102
RTVSPost2010PropOp41
 70
     1
102
RTVSPost2010Prop42
 90
       50
102
RTVSPost2010PropOp42
 70
     1
102
RTVSPost2010Prop43
 90
        3
102
RTVSPost2010PropOp43
 70
     1
102
RTVSPost2010Prop44ColorIndex
 90
        5
102
RTVSPost2010Prop44ColorRGB
 90
      255
102
RTVSPost2010PropOp44
 70
     1
102
RTVSPost2010Prop45
280
     0
102
RTVSPost2010PropOp45
 70
     1
102
RTVSPost2010Prop46
 90
       50
102
RTVSPost2010PropOp46
 70
     1
102
RTVSPost2010Prop47
 90
       50
102
RTVSPost2010PropOp47
 70
     1
102
RTVSPost2010Prop48
 90
       50
102
RTVSPost2010PropOp48
 70
     1
102
RTVSPost2010Prop49
280
     0
102
RTVSPost2010PropOp49
 70
     1
102
RTVSPost2010Prop50
 90
       50
102
RTVSPost2010PropOp50
 70
     1
102
RTVSPost2010Prop51ColorIndex
 90
      256
102
RTVSPost2010Prop51ColorRGB
 90
-16777216
102
RTVSPost2010PropOp51
 70
     0
102
RTVSPost2010Prop52
140
1.0
102
RTVSPost2010PropOp52
 70
     0
102
RTVSPost2010Prop53
 90
        2
102
RTVSPost2010PropOp53
 70
     1
102
RTVSPost2010Prop54
  1
strokes_ogs.tif
102
RTVSPost2010PropOp54
 70
     1
102
RTVSPost2010Prop55
280
     0
102
RTVSPost2010PropOp55
 70
     1
102
RTVSPost2010Prop56
140
1.0
102
RTVSPost2010PropOp56
 70
     1
102
RTVSPost2010Prop57
140
1.0
102
RTVSPost2010PropOp57
 70
     1
102
RTVSPropertyOp0
 70
     1
102
RTVSPropertyOp1
 70
     1
102
RTVSPropertyOp2
 70
     1
102
RTVSPropertyOp3
 70
     1
102
RTVSPropertyOp4
 70
     1
102
RTVSPropertyOp5
 70
     1
102
RTVSPropertyOp6
 70
     1
102
RTVSPropertyOp7
 70
     1
102
RTVSPropertyOp8
 70
     1
102
RTVSPropertyOp9
 70
     1
102
RTVSPropertyOp10
 70
     1
102
RTVSPropertyOp11
 70
     1
102
RTVSPropertyOp12
 70
     1
102
RTVSPropertyOp13
 70
     1
102
RTVSPropertyOp14
 70
     1
102
RTVSPropertyOp15
 70
     1
102
RTVSPropertyOp16
 70
     1
102
RTVSPropertyOp17
 70
     1
102
RTVSPropertyOp18
 70
     1
102
RTVSPropertyOp19
 70
     1
102
RTVSPropertyOp20
 70
     1
102
RTVSPropertyOp21
 70
     1
102
RTVSPropertyOp22
 70
     1
102
RTVSPropertyOp23
 70
     1
102
RTVSPropertyOp24
 70
     1
102
RTVSPropertyOp25
 70
     1
102
RTVSPropertyOp26
 70
     1
102
RTVSPropertyOp27
 70
     1
102
RTVSPropertyOp28
 70
     1
102
RTVSPropertyOp29
 70
     1
102
RTVSPropertyOp30
 70
     1
102
RTVSPropertyOp31
 70
     1
102
RTVSPropertyOp32
 70
     1
102
RTVSPropertyOp33
 70
     1
102
RTVSPropertyOp34
 70
     1
102
RTVSPropertyOp35
 70
     1
102
RTVSPropertyOp36
 70
     1
102
RTVSPropertyOp37
 70
     1
102
RTVSPropertyOp38
 70
     1
102
RTVSPropertyOp39
 70
     1
102
RTVSPropertyOp40
 70
     1
102
RTVSPropertyOp41
 70
     1
102
RTVSPropertyOp42
 70
     1
102
RTVSPropertyOp43
 70
     1
102
RTVSPropertyOp44
 70
     1
102
RTVSPropertyOp45
 70
     1
102
RTVSPropertyOp46
 70
     1
102
RTVSPropertyOp47
 70
     1
102
RTVSPropertyOp48
 70
     1
102
RTVSPropertyOp49
 70
     1
102
RTVSPropertyOp50
 70
     1
102
RTVSPropertyOp51
 70
     0
102
RTVSPropertyOp52
 70
     0
102
RTVSPropertyOp53
 70
     1
102
RTVSPropertyOp54
 70
     1
102
RTVSPropertyOp55
 70
     1
102
RTVSPropertyOp56
 70
     1
102
RTVSPropertyOp57
 70
     1
102
RTVSPropertyOp58
 70
     1
102
RTVSPropertyOp59
 70
     1
102
RTVSPropertyOp60
 70
     1
102
RTVSPropertyOp61
 70
     1
102
RTVSPropertyOp62
 70
     1
  0
XRECORD
  5
59D
102
{ACAD_REACTORS
330
59C
102
}
330
59C
100
AcDbXrecord
280
     1
102
RTVSPost2010Prop28
280
     0
102
RTVSPost2010PropOp28
 70
     1
102
RTVSPost2010Prop29
280
     1
102
RTVSPost2010PropOp29
 70
     1
102
RTVSPost2010Prop30
280
     1
102
RTVSPost2010PropOp30
 70
     1
102
RTVSPost2010Prop31
280
     0
102
RTVSPost2010PropOp31
 70
     1
102
RTVSPost2010Prop32
280
     0
102
RTVSPost2010PropOp32
 70
     1
102
RTVSPost2010Prop33
280
     0
102
RTVSPost2010PropOp33
 70
     1
102
RTVSPost2010Prop34
280
     0
102
RTVSPost2010PropOp34
 70
     1
102
RTVSPost2010Prop35
280
     0
102
RTVSPost2010PropOp35
 70
     1
102
RTVSPost2010Prop36
280
     0
102
RTVSPost2010PropOp36
 70
     1
102
RTVSPost2010Prop37
 90
       50
102
RTVSPost2010PropOp37
 70
     0
102
RTVSPost2010Prop38
140
0.0
102
RTVSPost2010PropOp38
 70
     0
102
RTVSPost2010Prop39
140
1.0
102
RTVSPost2010PropOp39
 70
     0
102
RTVSPost2010Prop40
 90
        0
102
RTVSPost2010PropOp40
 70
     0
102
RTVSPost2010Prop41ColorIndex
 90
       18
102
RTVSPost2010Prop41ColorRGB
 90
        0
102
RTVSPost2010PropOp41
 70
     0
102
RTVSPost2010Prop42
 90
       50
102
RTVSPost2010PropOp42
 70
     0
102
RTVSPost2010Prop43
 90
        3
102
RTVSPost2010PropOp43
 70
     0
102
RTVSPost2010Prop44ColorIndex
 90
        5
102
RTVSPost2010Prop44ColorRGB
 90
      255
102
RTVSPost2010PropOp44
 70
     0
102
RTVSPost2010Prop45
280
     0
102
RTVSPost2010PropOp45
 70
     1
102
RTVSPost2010Prop46
 90
       50
102
RTVSPost2010PropOp46
 70
     0
102
RTVSPost2010Prop47
 90
       50
102
RTVSPost2010PropOp47
 70
     0
102
RTVSPost2010Prop48
 90
       50
102
RTVSPost2010PropOp48
 70
     0
102
RTVSPost2010Prop49
280
     0
102
RTVSPost2010PropOp49
 70
     1
102
RTVSPost2010Prop50
 90
       50
102
RTVSPost2010PropOp50
 70
     0
102
RTVSPost2010Prop51ColorIndex
 90
      256
102
RTVSPost2010Prop51ColorRGB
 90
-16777216
102
RTVSPost2010PropOp51
 70
     0
102
RTVSPost2010Prop52
140
1.0
102
RTVSPost2010PropOp52
 70
     0
102
RTVSPost2010Prop53
 90
        2
102
RTVSPost2010PropOp53
 70
     0
102
RTVSPost2010Prop54
  1
strokes_ogs.tif
102
RTVSPost2010PropOp54
 70
     0
102
RTVSPost2010Prop55
280
     0
102
RTVSPost2010PropOp55
 70
     1
102
RTVSPost2010Prop56
140
1.0
102
RTVSPost2010PropOp56
 70
     0
102
RTVSPost2010Prop57
140
1.0
102
RTVSPost2010PropOp57
 70
     0
102
RTVSPropertyOp0
 70
     0
102
RTVSPropertyOp1
 70
     0
102
RTVSPropertyOp2
 70
     0
102
RTVSPropertyOp3
 70
     0
102
RTVSPropertyOp4
 70
     0
102
RTVSPropertyOp5
 70
     0
102
RTVSPropertyOp6
 70
     0
102
RTVSPropertyOp7
 70
     0
102
RTVSPropertyOp8
 70
     0
102
RTVSPropertyOp9
 70
     0
102
RTVSPropertyOp10
 70
     0
102
RTVSPropertyOp11
 70
     0
102
RTVSPropertyOp12
 70
     0
102
RTVSPropertyOp13
 70
     0
102
RTVSPropertyOp14
 70
     2
102
RTVSPropertyOp15
 70
     0
102
RTVSPropertyOp16
 70
     0
102
RTVSPropertyOp17
 70
     0
102
RTVSPropertyOp18
 70
     0
102
RTVSPropertyOp19
 70
     0
102
RTVSPropertyOp20
 70
     0
102
RTVSPropertyOp21
 70
     0
102
RTVSPropertyOp22
 70
     0
102
RTVSPropertyOp23
 70
     0
102
RTVSPropertyOp24
 70
     0
102
RTVSPropertyOp25
 70
     0
102
RTVSPropertyOp26
 70
     0
102
RTVSPropertyOp27
 70
     0
102
RTVSPropertyOp28
 70
     1
102
RTVSPropertyOp29
 70
     1
102
RTVSPropertyOp30
 70
     1
102
RTVSPropertyOp31
 70
     1
102
RTVSPropertyOp32
 70
     1
102
RTVSPropertyOp33
 70
     1
102
RTVSPropertyOp34
 70
     1
102
RTVSPropertyOp35
 70
     1
102
RTVSPropertyOp36
 70
     1
102
RTVSPropertyOp37
 70
     0
102
RTVSPropertyOp38
 70
     0
102
RTVSPropertyOp39
 70
     0
102
RTVSPropertyOp40
 70
     0
102
RTVSPropertyOp41
 70
     0
102
RTVSPropertyOp42
 70
     0
102
RTVSPropertyOp43
 70
     0
102
RTVSPropertyOp44
 70
     0
102
RTVSPropertyOp45
 70
     1
102
RTVSPropertyOp46
 70
     0
102
RTVSPropertyOp47
 70
     0
102
RTVSPropertyOp48
 70
     0
102
RTVSPropertyOp49
 70
     1
102
RTVSPropertyOp50
 70
     0
102
RTVSPropertyOp51
 70
     0
102
RTVSPropertyOp52
 70
     0
102
RTVSPropertyOp53
 70
     0
102
RTVSPropertyOp54
 70
     0
102
RTVSPropertyOp55
 70
     1
102
RTVSPropertyOp56
 70
     0
102
RTVSPropertyOp57
 70
     0
102
RTVSPropertyOp58
 70
     0
102
RTVSPropertyOp59
 70
     0
102
RTVSPropertyOp60
 70
     0
102
RTVSPropertyOp61
 70
     0
102
RTVSPropertyOp62
 70
     0
  0
XRECORD
  5
583
102
{ACAD_REACTORS
330
582
102
}
330
582
100
AcDbXrecord
280
     1
102
RTVSPost2010Prop28
280
     0
102
RTVSPost2010PropOp28
 70
     1
102
RTVSPost2010Prop29
280
     1
102
RTVSPost2010PropOp29
 70
     1
102
RTVSPost2010Prop30
280
     1
102
RTVSPost2010PropOp30
 70
     1
102
RTVSPost2010Prop31
280
     0
102
RTVSPost2010PropOp31
 70
     1
102
RTVSPost2010Prop32
280
     0
102
RTVSPost2010PropOp32
 70
     1
102
RTVSPost2010Prop33
280
     0
102
RTVSPost2010PropOp33
 70
     1
102
RTVSPost2010Prop34
280
     0
102
RTVSPost2010PropOp34
 70
     1
102
RTVSPost2010Prop35
280
     0
102
RTVSPost2010PropOp35
 70
     1
102
RTVSPost2010Prop36
280
     0
102
RTVSPost2010PropOp36
 70
     1
102
RTVSPost2010Prop37
 90
       50
102
RTVSPost2010PropOp37
 70
     1
102
RTVSPost2010Prop38
140
0.0
102
RTVSPost2010PropOp38
 70
     1
102
RTVSPost2010Prop39
140
1.0
102
RTVSPost2010PropOp39
 70
     1
102
RTVSPost2010Prop40
 90
        0
102
RTVSPost2010PropOp40
 70
     1
102
RTVSPost2010Prop41ColorIndex
 90
       18
102
RTVSPost2010Prop41ColorRGB
 90
        0
102
RTVSPost2010PropOp41
 70
     1
102
RTVSPost2010Prop42
 90
       50
102
RTVSPost2010PropOp42
 70
     1
102
RTVSPost2010Prop43
 90
        3
102
RTVSPost2010PropOp43
 70
     1
102
RTVSPost2010Prop44ColorIndex
 90
        5
102
RTVSPost2010Prop44ColorRGB
 90
      255
102
RTVSPost2010PropOp44
 70
     1
102
RTVSPost2010Prop45
280
     0
102
RTVSPost2010PropOp45
 70
     1
102
RTVSPost2010Prop46
 90
       50
102
RTVSPost2010PropOp46
 70
     1
102
RTVSPost2010Prop47
 90
       50
102
RTVSPost2010PropOp47
 70
     1
102
RTVSPost2010Prop48
 90
       50
102
RTVSPost2010PropOp48
 70
     1
102
RTVSPost2010Prop49
280
     0
102
RTVSPost2010PropOp49
 70
     1
102
RTVSPost2010Prop50
 90
       50
102
RTVSPost2010PropOp50
 70
     1
102
RTVSPost2010Prop51ColorIndex
 90
      256
102
RTVSPost2010Prop51ColorRGB
 90
-16777216
102
RTVSPost2010PropOp51
 70
     0
102
RTVSPost2010Prop52
140
1.0
102
RTVSPost2010PropOp52
 70
     0
102
RTVSPost2010Prop53
 90
        2
102
RTVSPost2010PropOp53
 70
     1
102
RTVSPost2010Prop54
  1
strokes_ogs.tif
102
RTVSPost2010PropOp54
 70
     1
102
RTVSPost2010Prop55
280
     0
102
RTVSPost2010PropOp55
 70
     1
102
RTVSPost2010Prop56
140
1.0
102
RTVSPost2010PropOp56
 70
     1
102
RTVSPost2010Prop57
140
1.0
102
RTVSPost2010PropOp57
 70
     1
102
RTVSPropertyOp0
 70
     1
102
RTVSPropertyOp1
 70
     1
102
RTVSPropertyOp2
 70
     1
102
RTVSPropertyOp3
 70
     1
102
RTVSPropertyOp4
 70
     1
102
RTVSPropertyOp5
 70
     1
102
RTVSPropertyOp6
 70
     1
102
RTVSPropertyOp7
 70
     1
102
RTVSPropertyOp8
 70
     1
102
RTVSPropertyOp9
 70
     1
102
RTVSPropertyOp10
 70
     1
102
RTVSPropertyOp11
 70
     1
102
RTVSPropertyOp12
 70
     1
102
RTVSPropertyOp13
 70
     1
102
RTVSPropertyOp14
 70
     1
102
RTVSPropertyOp15
 70
     1
102
RTVSPropertyOp16
 70
     1
102
RTVSPropertyOp17
 70
     1
102
RTVSPropertyOp18
 70
     1
102
RTVSPropertyOp19
 70
     1
102
RTVSPropertyOp20
 70
     1
102
RTVSPropertyOp21
 70
     1
102
RTVSPropertyOp22
 70
     1
102
RTVSPropertyOp23
 70
     1
102
RTVSPropertyOp24
 70
     1
102
RTVSPropertyOp25
 70
     1
102
RTVSPropertyOp26
 70
     1
102
RTVSPropertyOp27
 70
     1
102
RTVSPropertyOp28
 70
     1
102
RTVSPropertyOp29
 70
     1
102
RTVSPropertyOp30
 70
     1
102
RTVSPropertyOp31
 70
     1
102
RTVSPropertyOp32
 70
     1
102
RTVSPropertyOp33
 70
     1
102
RTVSPropertyOp34
 70
     1
102
RTVSPropertyOp35
 70
     1
102
RTVSPropertyOp36
 70
     1
102
RTVSPropertyOp37
 70
     1
102
RTVSPropertyOp38
 70
     1
102
RTVSPropertyOp39
 70
     1
102
RTVSPropertyOp40
 70
     1
102
RTVSPropertyOp41
 70
     1
102
RTVSPropertyOp42
 70
     1
102
RTVSPropertyOp43
 70
     1
102
RTVSPropertyOp44
 70
     1
102
RTVSPropertyOp45
 70
     1
102
RTVSPropertyOp46
 70
     1
102
RTVSPropertyOp47
 70
     1
102
RTVSPropertyOp48
 70
     1
102
RTVSPropertyOp49
 70
     1
102
RTVSPropertyOp50
 70
     1
102
RTVSPropertyOp51
 70
     0
102
RTVSPropertyOp52
 70
     0
102
RTVSPropertyOp53
 70
     1
102
RTVSPropertyOp54
 70
     1
102
RTVSPropertyOp55
 70
     1
102
RTVSPropertyOp56
 70
     1
102
RTVSPropertyOp57
 70
     1
102
RTVSPropertyOp58
 70
     1
102
RTVSPropertyOp59
 70
     1
102
RTVSPropertyOp60
 70
     1
102
RTVSPropertyOp61
 70
     1
102
RTVSPropertyOp62
 70
     1
  0
XRECORD
  5
599
102
{ACAD_REACTORS
330
598
102
}
330
598
100
AcDbXrecord
280
     1
102
RTVSPost2010Prop28
280
     0
102
RTVSPost2010PropOp28
 70
     1
102
RTVSPost2010Prop29
280
     1
102
RTVSPost2010PropOp29
 70
     1
102
RTVSPost2010Prop30
280
     1
102
RTVSPost2010PropOp30
 70
     1
102
RTVSPost2010Prop31
280
     0
102
RTVSPost2010PropOp31
 70
     1
102
RTVSPost2010Prop32
280
     0
102
RTVSPost2010PropOp32
 70
     1
102
RTVSPost2010Prop33
280
     0
102
RTVSPost2010PropOp33
 70
     1
102
RTVSPost2010Prop34
280
     0
102
RTVSPost2010PropOp34
 70
     1
102
RTVSPost2010Prop35
280
     0
102
RTVSPost2010PropOp35
 70
     1
102
RTVSPost2010Prop36
280
     0
102
RTVSPost2010PropOp36
 70
     1
102
RTVSPost2010Prop37
 90
       50
102
RTVSPost2010PropOp37
 70
     1
102
RTVSPost2010Prop38
140
0.0
102
RTVSPost2010PropOp38
 70
     1
102
RTVSPost2010Prop39
140
1.0
102
RTVSPost2010PropOp39
 70
     1
102
RTVSPost2010Prop40
 90
        0
102
RTVSPost2010PropOp40
 70
     1
102
RTVSPost2010Prop41ColorIndex
 90
       18
102
RTVSPost2010Prop41ColorRGB
 90
        0
102
RTVSPost2010PropOp41
 70
     1
102
RTVSPost2010Prop42
 90
       50
102
RTVSPost2010PropOp42
 70
     1
102
RTVSPost2010Prop43
 90
        3
102
RTVSPost2010PropOp43
 70
     1
102
RTVSPost2010Prop44ColorIndex
 90
        5
102
RTVSPost2010Prop44ColorRGB
 90
      255
102
RTVSPost2010PropOp44
 70
     1
102
RTVSPost2010Prop45
280
     0
102
RTVSPost2010PropOp45
 70
     1
102
RTVSPost2010Prop46
 90
       50
102
RTVSPost2010PropOp46
 70
     1
102
RTVSPost2010Prop47
 90
       50
102
RTVSPost2010PropOp47
 70
     1
102
RTVSPost2010Prop48
 90
       50
102
RTVSPost2010PropOp48
 70
     1
102
RTVSPost2010Prop49
280
     0
102
RTVSPost2010PropOp49
 70
     1
102
RTVSPost2010Prop50
 90
       50
102
RTVSPost2010PropOp50
 70
     1
102
RTVSPost2010Prop51ColorIndex
 90
      256
102
RTVSPost2010Prop51ColorRGB
 90
-16777216
102
RTVSPost2010PropOp51
 70
     0
102
RTVSPost2010Prop52
140
1.0
102
RTVSPost2010PropOp52
 70
     0
102
RTVSPost2010Prop53
 90
        2
102
RTVSPost2010PropOp53
 70
     1
102
RTVSPost2010Prop54
  1
strokes_ogs.tif
102
RTVSPost2010PropOp54
 70
     1
102
RTVSPost2010Prop55
280
     0
102
RTVSPost2010PropOp55
 70
     1
102
RTVSPost2010Prop56
140
1.0
102
RTVSPost2010PropOp56
 70
     1
102
RTVSPost2010Prop57
140
1.0
102
RTVSPost2010PropOp57
 70
     1
102
RTVSPropertyOp0
 70
     1
102
RTVSPropertyOp1
 70
     1
102
RTVSPropertyOp2
 70
     1
102
RTVSPropertyOp3
 70
     1
102
RTVSPropertyOp4
 70
     1
102
RTVSPropertyOp5
 70
     1
102
RTVSPropertyOp6
 70
     1
102
RTVSPropertyOp7
 70
     1
102
RTVSPropertyOp8
 70
     1
102
RTVSPropertyOp9
 70
     1
102
RTVSPropertyOp10
 70
     1
102
RTVSPropertyOp11
 70
     1
102
RTVSPropertyOp12
 70
     1
102
RTVSPropertyOp13
 70
     1
102
RTVSPropertyOp14
 70
     1
102
RTVSPropertyOp15
 70
     1
102
RTVSPropertyOp16
 70
     1
102
RTVSPropertyOp17
 70
     1
102
RTVSPropertyOp18
 70
     1
102
RTVSPropertyOp19
 70
     1
102
RTVSPropertyOp20
 70
     1
102
RTVSPropertyOp21
 70
     1
102
RTVSPropertyOp22
 70
     1
102
RTVSPropertyOp23
 70
     1
102
RTVSPropertyOp24
 70
     1
102
RTVSPropertyOp25
 70
     1
102
RTVSPropertyOp26
 70
     1
102
RTVSPropertyOp27
 70
     1
102
RTVSPropertyOp28
 70
     1
102
RTVSPropertyOp29
 70
     1
102
RTVSPropertyOp30
 70
     1
102
RTVSPropertyOp31
 70
     1
102
RTVSPropertyOp32
 70
     1
102
RTVSPropertyOp33
 70
     1
102
RTVSPropertyOp34
 70
     1
102
RTVSPropertyOp35
 70
     1
102
RTVSPropertyOp36
 70
     1
102
RTVSPropertyOp37
 70
     1
102
RTVSPropertyOp38
 70
     1
102
RTVSPropertyOp39
 70
     1
102
RTVSPropertyOp40
 70
     1
102
RTVSPropertyOp41
 70
     1
102
RTVSPropertyOp42
 70
     1
102
RTVSPropertyOp43
 70
     1
102
RTVSPropertyOp44
 70
     1
102
RTVSPropertyOp45
 70
     1
102
RTVSPropertyOp46
 70
     1
102
RTVSPropertyOp47
 70
     1
102
RTVSPropertyOp48
 70
     1
102
RTVSPropertyOp49
 70
     1
102
RTVSPropertyOp50
 70
     1
102
RTVSPropertyOp51
 70
     0
102
RTVSPropertyOp52
 70
     0
102
RTVSPropertyOp53
 70
     1
102
RTVSPropertyOp54
 70
     1
102
RTVSPropertyOp55
 70
     1
102
RTVSPropertyOp56
 70
     1
102
RTVSPropertyOp57
 70
     1
102
RTVSPropertyOp58
 70
     1
102
RTVSPropertyOp59
 70
     1
102
RTVSPropertyOp60
 70
     1
102
RTVSPropertyOp61
 70
     1
102
RTVSPropertyOp62
 70
     1
  0
XRECORD
  5
597
102
{ACAD_REACTORS
330
596
102
}
330
596
100
AcDbXrecord
280
     1
102
RTVSPost2010Prop28
280
     0
102
RTVSPost2010PropOp28
 70
     1
102
RTVSPost2010Prop29
280
     1
102
RTVSPost2010PropOp29
 70
     1
102
RTVSPost2010Prop30
280
     1
102
RTVSPost2010PropOp30
 70
     1
102
RTVSPost2010Prop31
280
     0
102
RTVSPost2010PropOp31
 70
     1
102
RTVSPost2010Prop32
280
     0
102
RTVSPost2010PropOp32
 70
     1
102
RTVSPost2010Prop33
280
     0
102
RTVSPost2010PropOp33
 70
     1
102
RTVSPost2010Prop34
280
     0
102
RTVSPost2010PropOp34
 70
     1
102
RTVSPost2010Prop35
280
     0
102
RTVSPost2010PropOp35
 70
     1
102
RTVSPost2010Prop36
280
     0
102
RTVSPost2010PropOp36
 70
     1
102
RTVSPost2010Prop37
 90
       50
102
RTVSPost2010PropOp37
 70
     1
102
RTVSPost2010Prop38
140
0.0
102
RTVSPost2010PropOp38
 70
     1
102
RTVSPost2010Prop39
140
1.0
102
RTVSPost2010PropOp39
 70
     1
102
RTVSPost2010Prop40
 90
        0
102
RTVSPost2010PropOp40
 70
     1
102
RTVSPost2010Prop41ColorIndex
 90
       18
102
RTVSPost2010Prop41ColorRGB
 90
        0
102
RTVSPost2010PropOp41
 70
     1
102
RTVSPost2010Prop42
 90
       50
102
RTVSPost2010PropOp42
 70
     1
102
RTVSPost2010Prop43
 90
        3
102
RTVSPost2010PropOp43
 70
     1
102
RTVSPost2010Prop44ColorIndex
 90
        5
102
RTVSPost2010Prop44ColorRGB
 90
      255
102
RTVSPost2010PropOp44
 70
     1
102
RTVSPost2010Prop45
280
     0
102
RTVSPost2010PropOp45
 70
     1
102
RTVSPost2010Prop46
 90
       50
102
RTVSPost2010PropOp46
 70
     1
102
RTVSPost2010Prop47
 90
       50
102
RTVSPost2010PropOp47
 70
     1
102
RTVSPost2010Prop48
 90
       50
102
RTVSPost2010PropOp48
 70
     1
102
RTVSPost2010Prop49
280
     0
102
RTVSPost2010PropOp49
 70
     1
102
RTVSPost2010Prop50
 90
       50
102
RTVSPost2010PropOp50
 70
     1
102
RTVSPost2010Prop51ColorIndex
 90
      256
102
RTVSPost2010Prop51ColorRGB
 90
-16777216
102
RTVSPost2010PropOp51
 70
     0
102
RTVSPost2010Prop52
140
1.0
102
RTVSPost2010PropOp52
 70
     0
102
RTVSPost2010Prop53
 90
        2
102
RTVSPost2010PropOp53
 70
     1
102
RTVSPost2010Prop54
  1
strokes_ogs.tif
102
RTVSPost2010PropOp54
 70
     1
102
RTVSPost2010Prop55
280
     0
102
RTVSPost2010PropOp55
 70
     1
102
RTVSPost2010Prop56
140
1.0
102
RTVSPost2010PropOp56
 70
     1
102
RTVSPost2010Prop57
140
1.0
102
RTVSPost2010PropOp57
 70
     1
102
RTVSPropertyOp0
 70
     1
102
RTVSPropertyOp1
 70
     1
102
RTVSPropertyOp2
 70
     1
102
RTVSPropertyOp3
 70
     1
102
RTVSPropertyOp4
 70
     1
102
RTVSPropertyOp5
 70
     1
102
RTVSPropertyOp6
 70
     1
102
RTVSPropertyOp7
 70
     1
102
RTVSPropertyOp8
 70
     1
102
RTVSPropertyOp9
 70
     1
102
RTVSPropertyOp10
 70
     1
102
RTVSPropertyOp11
 70
     1
102
RTVSPropertyOp12
 70
     1
102
RTVSPropertyOp13
 70
     1
102
RTVSPropertyOp14
 70
     1
102
RTVSPropertyOp15
 70
     1
102
RTVSPropertyOp16
 70
     1
102
RTVSPropertyOp17
 70
     1
102
RTVSPropertyOp18
 70
     1
102
RTVSPropertyOp19
 70
     1
102
RTVSPropertyOp20
 70
     1
102
RTVSPropertyOp21
 70
     1
102
RTVSPropertyOp22
 70
     1
102
RTVSPropertyOp23
 70
     1
102
RTVSPropertyOp24
 70
     1
102
RTVSPropertyOp25
 70
     1
102
RTVSPropertyOp26
 70
     1
102
RTVSPropertyOp27
 70
     1
102
RTVSPropertyOp28
 70
     1
102
RTVSPropertyOp29
 70
     1
102
RTVSPropertyOp30
 70
     1
102
RTVSPropertyOp31
 70
     1
102
RTVSPropertyOp32
 70
     1
102
RTVSPropertyOp33
 70
     1
102
RTVSPropertyOp34
 70
     1
102
RTVSPropertyOp35
 70
     1
102
RTVSPropertyOp36
 70
     1
102
RTVSPropertyOp37
 70
     1
102
RTVSPropertyOp38
 70
     1
102
RTVSPropertyOp39
 70
     1
102
RTVSPropertyOp40
 70
     1
102
RTVSPropertyOp41
 70
     1
102
RTVSPropertyOp42
 70
     1
102
RTVSPropertyOp43
 70
     1
102
RTVSPropertyOp44
 70
     1
102
RTVSPropertyOp45
 70
     1
102
RTVSPropertyOp46
 70
     1
102
RTVSPropertyOp47
 70
     1
102
RTVSPropertyOp48
 70
     1
102
RTVSPropertyOp49
 70
     1
102
RTVSPropertyOp50
 70
     1
102
RTVSPropertyOp51
 70
     0
102
RTVSPropertyOp52
 70
     0
102
RTVSPropertyOp53
 70
     1
102
RTVSPropertyOp54
 70
     1
102
RTVSPropertyOp55
 70
     1
102
RTVSPropertyOp56
 70
     1
102
RTVSPropertyOp57
 70
     1
102
RTVSPropertyOp58
 70
     1
102
RTVSPropertyOp59
 70
     1
102
RTVSPropertyOp60
 70
     1
102
RTVSPropertyOp61
 70
     1
102
RTVSPropertyOp62
 70
     1
  0
XRECORD
  5
591
102
{ACAD_REACTORS
330
590
102
}
330
590
100
AcDbXrecord
280
     1
102
RTVSPost2010Prop28
280
     0
102
RTVSPost2010PropOp28
 70
     1
102
RTVSPost2010Prop29
280
     1
102
RTVSPost2010PropOp29
 70
     1
102
RTVSPost2010Prop30
280
     1
102
RTVSPost2010PropOp30
 70
     1
102
RTVSPost2010Prop31
280
     0
102
RTVSPost2010PropOp31
 70
     1
102
RTVSPost2010Prop32
280
     0
102
RTVSPost2010PropOp32
 70
     1
102
RTVSPost2010Prop33
280
     0
102
RTVSPost2010PropOp33
 70
     1
102
RTVSPost2010Prop34
280
     0
102
RTVSPost2010PropOp34
 70
     1
102
RTVSPost2010Prop35
280
     0
102
RTVSPost2010PropOp35
 70
     1
102
RTVSPost2010Prop36
280
     0
102
RTVSPost2010PropOp36
 70
     1
102
RTVSPost2010Prop37
 90
       50
102
RTVSPost2010PropOp37
 70
     1
102
RTVSPost2010Prop38
140
0.0
102
RTVSPost2010PropOp38
 70
     1
102
RTVSPost2010Prop39
140
1.0
102
RTVSPost2010PropOp39
 70
     1
102
RTVSPost2010Prop40
 90
        0
102
RTVSPost2010PropOp40
 70
     1
102
RTVSPost2010Prop41ColorIndex
 90
       18
102
RTVSPost2010Prop41ColorRGB
 90
        0
102
RTVSPost2010PropOp41
 70
     1
102
RTVSPost2010Prop42
 90
       50
102
RTVSPost2010PropOp42
 70
     1
102
RTVSPost2010Prop43
 90
        3
102
RTVSPost2010PropOp43
 70
     1
102
RTVSPost2010Prop44ColorIndex
 90
        5
102
RTVSPost2010Prop44ColorRGB
 90
      255
102
RTVSPost2010PropOp44
 70
     1
102
RTVSPost2010Prop45
280
     0
102
RTVSPost2010PropOp45
 70
     1
102
RTVSPost2010Prop46
 90
       50
102
RTVSPost2010PropOp46
 70
     1
102
RTVSPost2010Prop47
 90
       50
102
RTVSPost2010PropOp47
 70
     1
102
RTVSPost2010Prop48
 90
       50
102
RTVSPost2010PropOp48
 70
     1
102
RTVSPost2010Prop49
280
     0
102
RTVSPost2010PropOp49
 70
     1
102
RTVSPost2010Prop50
 90
       50
102
RTVSPost2010PropOp50
 70
     1
102
RTVSPost2010Prop51ColorIndex
 90
      256
102
RTVSPost2010Prop51ColorRGB
 90
-16777216
102
RTVSPost2010PropOp51
 70
     0
102
RTVSPost2010Prop52
140
1.0
102
RTVSPost2010PropOp52
 70
     0
102
RTVSPost2010Prop53
 90
        2
102
RTVSPost2010PropOp53
 70
     1
102
RTVSPost2010Prop54
  1
strokes_ogs.tif
102
RTVSPost2010PropOp54
 70
     1
102
RTVSPost2010Prop55
280
     0
102
RTVSPost2010PropOp55
 70
     1
102
RTVSPost2010Prop56
140
1.0
102
RTVSPost2010PropOp56
 70
     1
102
RTVSPost2010Prop57
140
1.0
102
RTVSPost2010PropOp57
 70
     1
102
RTVSPropertyOp0
 70
     1
102
RTVSPropertyOp1
 70
     1
102
RTVSPropertyOp2
 70
     1
102
RTVSPropertyOp3
 70
     1
102
RTVSPropertyOp4
 70
     1
102
RTVSPropertyOp5
 70
     1
102
RTVSPropertyOp6
 70
     1
102
RTVSPropertyOp7
 70
     1
102
RTVSPropertyOp8
 70
     1
102
RTVSPropertyOp9
 70
     1
102
RTVSPropertyOp10
 70
     1
102
RTVSPropertyOp11
 70
     1
102
RTVSPropertyOp12
 70
     1
102
RTVSPropertyOp13
 70
     1
102
RTVSPropertyOp14
 70
     1
102
RTVSPropertyOp15
 70
     1
102
RTVSPropertyOp16
 70
     1
102
RTVSPropertyOp17
 70
     1
102
RTVSPropertyOp18
 70
     1
102
RTVSPropertyOp19
 70
     1
102
RTVSPropertyOp20
 70
     1
102
RTVSPropertyOp21
 70
     1
102
RTVSPropertyOp22
 70
     1
102
RTVSPropertyOp23
 70
     1
102
RTVSPropertyOp24
 70
     1
102
RTVSPropertyOp25
 70
     1
102
RTVSPropertyOp26
 70
     1
102
RTVSPropertyOp27
 70
     1
102
RTVSPropertyOp28
 70
     1
102
RTVSPropertyOp29
 70
     1
102
RTVSPropertyOp30
 70
     1
102
RTVSPropertyOp31
 70
     1
102
RTVSPropertyOp32
 70
     1
102
RTVSPropertyOp33
 70
     1
102
RTVSPropertyOp34
 70
     1
102
RTVSPropertyOp35
 70
     1
102
RTVSPropertyOp36
 70
     1
102
RTVSPropertyOp37
 70
     1
102
RTVSPropertyOp38
 70
     1
102
RTVSPropertyOp39
 70
     1
102
RTVSPropertyOp40
 70
     1
102
RTVSPropertyOp41
 70
     1
102
RTVSPropertyOp42
 70
     1
102
RTVSPropertyOp43
 70
     1
102
RTVSPropertyOp44
 70
     1
102
RTVSPropertyOp45
 70
     1
102
RTVSPropertyOp46
 70
     1
102
RTVSPropertyOp47
 70
     1
102
RTVSPropertyOp48
 70
     1
102
RTVSPropertyOp49
 70
     1
102
RTVSPropertyOp50
 70
     1
102
RTVSPropertyOp51
 70
     0
102
RTVSPropertyOp52
 70
     0
102
RTVSPropertyOp53
 70
     1
102
RTVSPropertyOp54
 70
     1
102
RTVSPropertyOp55
 70
     1
102
RTVSPropertyOp56
 70
     1
102
RTVSPropertyOp57
 70
     1
102
RTVSPropertyOp58
 70
     1
102
RTVSPropertyOp59
 70
     1
102
RTVSPropertyOp60
 70
     1
102
RTVSPropertyOp61
 70
     1
102
RTVSPropertyOp62
 70
     1
  0
XRECORD
  5
593
102
{ACAD_REACTORS
330
592
102
}
330
592
100
AcDbXrecord
280
     1
102
RTVSPost2010Prop28
280
     0
102
RTVSPost2010PropOp28
 70
     1
102
RTVSPost2010Prop29
280
     1
102
RTVSPost2010PropOp29
 70
     1
102
RTVSPost2010Prop30
280
     1
102
RTVSPost2010PropOp30
 70
     1
102
RTVSPost2010Prop31
280
     0
102
RTVSPost2010PropOp31
 70
     1
102
RTVSPost2010Prop32
280
     0
102
RTVSPost2010PropOp32
 70
     1
102
RTVSPost2010Prop33
280
     0
102
RTVSPost2010PropOp33
 70
     1
102
RTVSPost2010Prop34
280
     0
102
RTVSPost2010PropOp34
 70
     1
102
RTVSPost2010Prop35
280
     0
102
RTVSPost2010PropOp35
 70
     1
102
RTVSPost2010Prop36
280
     0
102
RTVSPost2010PropOp36
 70
     1
102
RTVSPost2010Prop37
 90
       50
102
RTVSPost2010PropOp37
 70
     1
102
RTVSPost2010Prop38
140
0.0
102
RTVSPost2010PropOp38
 70
     1
102
RTVSPost2010Prop39
140
1.0
102
RTVSPost2010PropOp39
 70
     1
102
RTVSPost2010Prop40
 90
        0
102
RTVSPost2010PropOp40
 70
     1
102
RTVSPost2010Prop41ColorIndex
 90
       18
102
RTVSPost2010Prop41ColorRGB
 90
        0
102
RTVSPost2010PropOp41
 70
     1
102
RTVSPost2010Prop42
 90
       50
102
RTVSPost2010PropOp42
 70
     1
102
RTVSPost2010Prop43
 90
        3
102
RTVSPost2010PropOp43
 70
     1
102
RTVSPost2010Prop44ColorIndex
 90
        5
102
RTVSPost2010Prop44ColorRGB
 90
      255
102
RTVSPost2010PropOp44
 70
     1
102
RTVSPost2010Prop45
280
     0
102
RTVSPost2010PropOp45
 70
     1
102
RTVSPost2010Prop46
 90
       50
102
RTVSPost2010PropOp46
 70
     1
102
RTVSPost2010Prop47
 90
       50
102
RTVSPost2010PropOp47
 70
     1
102
RTVSPost2010Prop48
 90
       50
102
RTVSPost2010PropOp48
 70
     1
102
RTVSPost2010Prop49
280
     0
102
RTVSPost2010PropOp49
 70
     1
102
RTVSPost2010Prop50
 90
       50
102
RTVSPost2010PropOp50
 70
     1
102
RTVSPost2010Prop51ColorIndex
 90
      256
102
RTVSPost2010Prop51ColorRGB
 90
-16777216
102
RTVSPost2010PropOp51
 70
     0
102
RTVSPost2010Prop52
140
1.0
102
RTVSPost2010PropOp52
 70
     0
102
RTVSPost2010Prop53
 90
        2
102
RTVSPost2010PropOp53
 70
     1
102
RTVSPost2010Prop54
  1
strokes_ogs.tif
102
RTVSPost2010PropOp54
 70
     1
102
RTVSPost2010Prop55
280
     0
102
RTVSPost2010PropOp55
 70
     1
102
RTVSPost2010Prop56
140
1.0
102
RTVSPost2010PropOp56
 70
     1
102
RTVSPost2010Prop57
140
1.0
102
RTVSPost2010PropOp57
 70
     1
102
RTVSPropertyOp0
 70
     1
102
RTVSPropertyOp1
 70
     1
102
RTVSPropertyOp2
 70
     1
102
RTVSPropertyOp3
 70
     1
102
RTVSPropertyOp4
 70
     1
102
RTVSPropertyOp5
 70
     1
102
RTVSPropertyOp6
 70
     1
102
RTVSPropertyOp7
 70
     1
102
RTVSPropertyOp8
 70
     1
102
RTVSPropertyOp9
 70
     1
102
RTVSPropertyOp10
 70
     1
102
RTVSPropertyOp11
 70
     1
102
RTVSPropertyOp12
 70
     1
102
RTVSPropertyOp13
 70
     1
102
RTVSPropertyOp14
 70
     1
102
RTVSPropertyOp15
 70
     1
102
RTVSPropertyOp16
 70
     1
102
RTVSPropertyOp17
 70
     1
102
RTVSPropertyOp18
 70
     1
102
RTVSPropertyOp19
 70
     1
102
RTVSPropertyOp20
 70
     1
102
RTVSPropertyOp21
 70
     1
102
RTVSPropertyOp22
 70
     1
102
RTVSPropertyOp23
 70
     1
102
RTVSPropertyOp24
 70
     1
102
RTVSPropertyOp25
 70
     1
102
RTVSPropertyOp26
 70
     1
102
RTVSPropertyOp27
 70
     1
102
RTVSPropertyOp28
 70
     1
102
RTVSPropertyOp29
 70
     1
102
RTVSPropertyOp30
 70
     1
102
RTVSPropertyOp31
 70
     1
102
RTVSPropertyOp32
 70
     1
102
RTVSPropertyOp33
 70
     1
102
RTVSPropertyOp34
 70
     1
102
RTVSPropertyOp35
 70
     1
102
RTVSPropertyOp36
 70
     1
102
RTVSPropertyOp37
 70
     1
102
RTVSPropertyOp38
 70
     1
102
RTVSPropertyOp39
 70
     1
102
RTVSPropertyOp40
 70
     1
102
RTVSPropertyOp41
 70
     1
102
RTVSPropertyOp42
 70
     1
102
RTVSPropertyOp43
 70
     1
102
RTVSPropertyOp44
 70
     1
102
RTVSPropertyOp45
 70
     1
102
RTVSPropertyOp46
 70
     1
102
RTVSPropertyOp47
 70
     1
102
RTVSPropertyOp48
 70
     1
102
RTVSPropertyOp49
 70
     1
102
RTVSPropertyOp50
 70
     1
102
RTVSPropertyOp51
 70
     0
102
RTVSPropertyOp52
 70
     0
102
RTVSPropertyOp53
 70
     1
102
RTVSPropertyOp54
 70
     1
102
RTVSPropertyOp55
 70
     1
102
RTVSPropertyOp56
 70
     1
102
RTVSPropertyOp57
 70
     1
102
RTVSPropertyOp58
 70
     1
102
RTVSPropertyOp59
 70
     1
102
RTVSPropertyOp60
 70
     1
102
RTVSPropertyOp61
 70
     1
102
RTVSPropertyOp62
 70
     1
  0
XRECORD
  5
589
102
{ACAD_REACTORS
330
588
102
}
330
588
100
AcDbXrecord
280
     1
102
RTVSPost2010Prop28
280
     0
102
RTVSPost2010PropOp28
 70
     1
102
RTVSPost2010Prop29
280
     1
102
RTVSPost2010PropOp29
 70
     1
102
RTVSPost2010Prop30
280
     1
102
RTVSPost2010PropOp30
 70
     1
102
RTVSPost2010Prop31
280
     0
102
RTVSPost2010PropOp31
 70
     1
102
RTVSPost2010Prop32
280
     0
102
RTVSPost2010PropOp32
 70
     1
102
RTVSPost2010Prop33
280
     0
102
RTVSPost2010PropOp33
 70
     1
102
RTVSPost2010Prop34
280
     0
102
RTVSPost2010PropOp34
 70
     1
102
RTVSPost2010Prop35
280
     0
102
RTVSPost2010PropOp35
 70
     1
102
RTVSPost2010Prop36
280
     0
102
RTVSPost2010PropOp36
 70
     1
102
RTVSPost2010Prop37
 90
       50
102
RTVSPost2010PropOp37
 70
     1
102
RTVSPost2010Prop38
140
0.0
102
RTVSPost2010PropOp38
 70
     1
102
RTVSPost2010Prop39
140
1.0
102
RTVSPost2010PropOp39
 70
     1
102
RTVSPost2010Prop40
 90
        0
102
RTVSPost2010PropOp40
 70
     1
102
RTVSPost2010Prop41ColorIndex
 90
       18
102
RTVSPost2010Prop41ColorRGB
 90
        0
102
RTVSPost2010PropOp41
 70
     1
102
RTVSPost2010Prop42
 90
       50
102
RTVSPost2010PropOp42
 70
     1
102
RTVSPost2010Prop43
 90
        3
102
RTVSPost2010PropOp43
 70
     1
102
RTVSPost2010Prop44ColorIndex
 90
        5
102
RTVSPost2010Prop44ColorRGB
 90
      255
102
RTVSPost2010PropOp44
 70
     1
102
RTVSPost2010Prop45
280
     0
102
RTVSPost2010PropOp45
 70
     1
102
RTVSPost2010Prop46
 90
       50
102
RTVSPost2010PropOp46
 70
     1
102
RTVSPost2010Prop47
 90
       50
102
RTVSPost2010PropOp47
 70
     1
102
RTVSPost2010Prop48
 90
       50
102
RTVSPost2010PropOp48
 70
     1
102
RTVSPost2010Prop49
280
     0
102
RTVSPost2010PropOp49
 70
     1
102
RTVSPost2010Prop50
 90
       50
102
RTVSPost2010PropOp50
 70
     1
102
RTVSPost2010Prop51ColorIndex
 90
      256
102
RTVSPost2010Prop51ColorRGB
 90
-16777216
102
RTVSPost2010PropOp51
 70
     0
102
RTVSPost2010Prop52
140
1.0
102
RTVSPost2010PropOp52
 70
     0
102
RTVSPost2010Prop53
 90
        2
102
RTVSPost2010PropOp53
 70
     1
102
RTVSPost2010Prop54
  1
strokes_ogs.tif
102
RTVSPost2010PropOp54
 70
     1
102
RTVSPost2010Prop55
280
     0
102
RTVSPost2010PropOp55
 70
     1
102
RTVSPost2010Prop56
140
1.0
102
RTVSPost2010PropOp56
 70
     1
102
RTVSPost2010Prop57
140
1.0
102
RTVSPost2010PropOp57
 70
     1
102
RTVSPropertyOp0
 70
     1
102
RTVSPropertyOp1
 70
     1
102
RTVSPropertyOp2
 70
     1
102
RTVSPropertyOp3
 70
     1
102
RTVSPropertyOp4
 70
     1
102
RTVSPropertyOp5
 70
     1
102
RTVSPropertyOp6
 70
     1
102
RTVSPropertyOp7
 70
     1
102
RTVSPropertyOp8
 70
     1
102
RTVSPropertyOp9
 70
     1
102
RTVSPropertyOp10
 70
     1
102
RTVSPropertyOp11
 70
     1
102
RTVSPropertyOp12
 70
     1
102
RTVSPropertyOp13
 70
     1
102
RTVSPropertyOp14
 70
     1
102
RTVSPropertyOp15
 70
     1
102
RTVSPropertyOp16
 70
     1
102
RTVSPropertyOp17
 70
     1
102
RTVSPropertyOp18
 70
     1
102
RTVSPropertyOp19
 70
     1
102
RTVSPropertyOp20
 70
     1
102
RTVSPropertyOp21
 70
     1
102
RTVSPropertyOp22
 70
     1
102
RTVSPropertyOp23
 70
     1
102
RTVSPropertyOp24
 70
     1
102
RTVSPropertyOp25
 70
     1
102
RTVSPropertyOp26
 70
     1
102
RTVSPropertyOp27
 70
     1
102
RTVSPropertyOp28
 70
     1
102
RTVSPropertyOp29
 70
     1
102
RTVSPropertyOp30
 70
     1
102
RTVSPropertyOp31
 70
     1
102
RTVSPropertyOp32
 70
     1
102
RTVSPropertyOp33
 70
     1
102
RTVSPropertyOp34
 70
     1
102
RTVSPropertyOp35
 70
     1
102
RTVSPropertyOp36
 70
     1
102
RTVSPropertyOp37
 70
     1
102
RTVSPropertyOp38
 70
     1
102
RTVSPropertyOp39
 70
     1
102
RTVSPropertyOp40
 70
     1
102
RTVSPropertyOp41
 70
     1
102
RTVSPropertyOp42
 70
     1
102
RTVSPropertyOp43
 70
     1
102
RTVSPropertyOp44
 70
     1
102
RTVSPropertyOp45
 70
     1
102
RTVSPropertyOp46
 70
     1
102
RTVSPropertyOp47
 70
     1
102
RTVSPropertyOp48
 70
     1
102
RTVSPropertyOp49
 70
     1
102
RTVSPropertyOp50
 70
     1
102
RTVSPropertyOp51
 70
     0
102
RTVSPropertyOp52
 70
     0
102
RTVSPropertyOp53
 70
     1
102
RTVSPropertyOp54
 70
     1
102
RTVSPropertyOp55
 70
     1
102
RTVSPropertyOp56
 70
     1
102
RTVSPropertyOp57
 70
     1
102
RTVSPropertyOp58
 70
     1
102
RTVSPropertyOp59
 70
     1
102
RTVSPropertyOp60
 70
     1
102
RTVSPropertyOp61
 70
     1
102
RTVSPropertyOp62
 70
     1
  0
XRECORD
  5
57D
102
{ACAD_REACTORS
330
57C
102
}
330
57C
100
AcDbXrecord
280
     1
102
RTVSPost2010Prop28
280
     0
102
RTVSPost2010PropOp28
 70
     1
102
RTVSPost2010Prop29
280
     1
102
RTVSPost2010PropOp29
 70
     1
102
RTVSPost2010Prop30
280
     1
102
RTVSPost2010PropOp30
 70
     1
102
RTVSPost2010Prop31
280
     0
102
RTVSPost2010PropOp31
 70
     1
102
RTVSPost2010Prop32
280
     0
102
RTVSPost2010PropOp32
 70
     1
102
RTVSPost2010Prop33
280
     0
102
RTVSPost2010PropOp33
 70
     1
102
RTVSPost2010Prop34
280
     0
102
RTVSPost2010PropOp34
 70
     1
102
RTVSPost2010Prop35
280
     0
102
RTVSPost2010PropOp35
 70
     1
102
RTVSPost2010Prop36
280
     0
102
RTVSPost2010PropOp36
 70
     1
102
RTVSPost2010Prop37
 90
       50
102
RTVSPost2010PropOp37
 70
     1
102
RTVSPost2010Prop38
140
0.0
102
RTVSPost2010PropOp38
 70
     1
102
RTVSPost2010Prop39
140
1.0
102
RTVSPost2010PropOp39
 70
     1
102
RTVSPost2010Prop40
 90
        0
102
RTVSPost2010PropOp40
 70
     1
102
RTVSPost2010Prop41ColorIndex
 90
       18
102
RTVSPost2010Prop41ColorRGB
 90
        0
102
RTVSPost2010PropOp41
 70
     1
102
RTVSPost2010Prop42
 90
       50
102
RTVSPost2010PropOp42
 70
     1
102
RTVSPost2010Prop43
 90
        3
102
RTVSPost2010PropOp43
 70
     1
102
RTVSPost2010Prop44ColorIndex
 90
        5
102
RTVSPost2010Prop44ColorRGB
 90
      255
102
RTVSPost2010PropOp44
 70
     1
102
RTVSPost2010Prop45
280
     0
102
RTVSPost2010PropOp45
 70
     1
102
RTVSPost2010Prop46
 90
       50
102
RTVSPost2010PropOp46
 70
     1
102
RTVSPost2010Prop47
 90
       50
102
RTVSPost2010PropOp47
 70
     1
102
RTVSPost2010Prop48
 90
       50
102
RTVSPost2010PropOp48
 70
     1
102
RTVSPost2010Prop49
280
     0
102
RTVSPost2010PropOp49
 70
     1
102
RTVSPost2010Prop50
 90
       50
102
RTVSPost2010PropOp50
 70
     1
102
RTVSPost2010Prop51ColorIndex
 90
      256
102
RTVSPost2010Prop51ColorRGB
 90
-16777216
102
RTVSPost2010PropOp51
 70
     0
102
RTVSPost2010Prop52
140
1.0
102
RTVSPost2010PropOp52
 70
     0
102
RTVSPost2010Prop53
 90
        2
102
RTVSPost2010PropOp53
 70
     1
102
RTVSPost2010Prop54
  1
strokes_ogs.tif
102
RTVSPost2010PropOp54
 70
     1
102
RTVSPost2010Prop55
280
     0
102
RTVSPost2010PropOp55
 70
     1
102
RTVSPost2010Prop56
140
1.0
102
RTVSPost2010PropOp56
 70
     1
102
RTVSPost2010Prop57
140
1.0
102
RTVSPost2010PropOp57
 70
     1
102
RTVSPropertyOp0
 70
     1
102
RTVSPropertyOp1
 70
     1
102
RTVSPropertyOp2
 70
     1
102
RTVSPropertyOp3
 70
     1
102
RTVSPropertyOp4
 70
     1
102
RTVSPropertyOp5
 70
     1
102
RTVSPropertyOp6
 70
     1
102
RTVSPropertyOp7
 70
     1
102
RTVSPropertyOp8
 70
     1
102
RTVSPropertyOp9
 70
     1
102
RTVSPropertyOp10
 70
     1
102
RTVSPropertyOp11
 70
     1
102
RTVSPropertyOp12
 70
     1
102
RTVSPropertyOp13
 70
     1
102
RTVSPropertyOp14
 70
     1
102
RTVSPropertyOp15
 70
     1
102
RTVSPropertyOp16
 70
     1
102
RTVSPropertyOp17
 70
     1
102
RTVSPropertyOp18
 70
     1
102
RTVSPropertyOp19
 70
     1
102
RTVSPropertyOp20
 70
     1
102
RTVSPropertyOp21
 70
     1
102
RTVSPropertyOp22
 70
     1
102
RTVSPropertyOp23
 70
     1
102
RTVSPropertyOp24
 70
     1
102
RTVSPropertyOp25
 70
     1
102
RTVSPropertyOp26
 70
     1
102
RTVSPropertyOp27
 70
     1
102
RTVSPropertyOp28
 70
     1
102
RTVSPropertyOp29
 70
     1
102
RTVSPropertyOp30
 70
     1
102
RTVSPropertyOp31
 70
     1
102
RTVSPropertyOp32
 70
     1
102
RTVSPropertyOp33
 70
     1
102
RTVSPropertyOp34
 70
     1
102
RTVSPropertyOp35
 70
     1
102
RTVSPropertyOp36
 70
     1
102
RTVSPropertyOp37
 70
     1
102
RTVSPropertyOp38
 70
     1
102
RTVSPropertyOp39
 70
     1
102
RTVSPropertyOp40
 70
     1
102
RTVSPropertyOp41
 70
     1
102
RTVSPropertyOp42
 70
     1
102
RTVSPropertyOp43
 70
     1
102
RTVSPropertyOp44
 70
     1
102
RTVSPropertyOp45
 70
     1
102
RTVSPropertyOp46
 70
     1
102
RTVSPropertyOp47
 70
     1
102
RTVSPropertyOp48
 70
     1
102
RTVSPropertyOp49
 70
     1
102
RTVSPropertyOp50
 70
     1
102
RTVSPropertyOp51
 70
     0
102
RTVSPropertyOp52
 70
     0
102
RTVSPropertyOp53
 70
     1
102
RTVSPropertyOp54
 70
     1
102
RTVSPropertyOp55
 70
     1
102
RTVSPropertyOp56
 70
     1
102
RTVSPropertyOp57
 70
     1
102
RTVSPropertyOp58
 70
     1
102
RTVSPropertyOp59
 70
     1
102
RTVSPropertyOp60
 70
     1
102
RTVSPropertyOp61
 70
     1
102
RTVSPropertyOp62
 70
     1
  0
XRECORD
  5
595
102
{ACAD_REACTORS
330
594
102
}
330
594
100
AcDbXrecord
280
     1
102
RTVSPost2010Prop28
280
     0
102
RTVSPost2010PropOp28
 70
     1
102
RTVSPost2010Prop29
280
     1
102
RTVSPost2010PropOp29
 70
     1
102
RTVSPost2010Prop30
280
     1
102
RTVSPost2010PropOp30
 70
     1
102
RTVSPost2010Prop31
280
     0
102
RTVSPost2010PropOp31
 70
     1
102
RTVSPost2010Prop32
280
     0
102
RTVSPost2010PropOp32
 70
     1
102
RTVSPost2010Prop33
280
     0
102
RTVSPost2010PropOp33
 70
     1
102
RTVSPost2010Prop34
280
     0
102
RTVSPost2010PropOp34
 70
     1
102
RTVSPost2010Prop35
280
     0
102
RTVSPost2010PropOp35
 70
     1
102
RTVSPost2010Prop36
280
     0
102
RTVSPost2010PropOp36
 70
     1
102
RTVSPost2010Prop37
 90
       50
102
RTVSPost2010PropOp37
 70
     1
102
RTVSPost2010Prop38
140
0.0
102
RTVSPost2010PropOp38
 70
     1
102
RTVSPost2010Prop39
140
1.0
102
RTVSPost2010PropOp39
 70
     1
102
RTVSPost2010Prop40
 90
        0
102
RTVSPost2010PropOp40
 70
     1
102
RTVSPost2010Prop41ColorIndex
 90
       18
102
RTVSPost2010Prop41ColorRGB
 90
        0
102
RTVSPost2010PropOp41
 70
     1
102
RTVSPost2010Prop42
 90
       50
102
RTVSPost2010PropOp42
 70
     1
102
RTVSPost2010Prop43
 90
        3
102
RTVSPost2010PropOp43
 70
     1
102
RTVSPost2010Prop44ColorIndex
 90
        5
102
RTVSPost2010Prop44ColorRGB
 90
      255
102
RTVSPost2010PropOp44
 70
     1
102
RTVSPost2010Prop45
280
     0
102
RTVSPost2010PropOp45
 70
     1
102
RTVSPost2010Prop46
 90
       50
102
RTVSPost2010PropOp46
 70
     1
102
RTVSPost2010Prop47
 90
       50
102
RTVSPost2010PropOp47
 70
     1
102
RTVSPost2010Prop48
 90
       50
102
RTVSPost2010PropOp48
 70
     1
102
RTVSPost2010Prop49
280
     0
102
RTVSPost2010PropOp49
 70
     1
102
RTVSPost2010Prop50
 90
       50
102
RTVSPost2010PropOp50
 70
     1
102
RTVSPost2010Prop51ColorIndex
 90
      256
102
RTVSPost2010Prop51ColorRGB
 90
-16777216
102
RTVSPost2010PropOp51
 70
     0
102
RTVSPost2010Prop52
140
1.0
102
RTVSPost2010PropOp52
 70
     0
102
RTVSPost2010Prop53
 90
        2
102
RTVSPost2010PropOp53
 70
     1
102
RTVSPost2010Prop54
  1
strokes_ogs.tif
102
RTVSPost2010PropOp54
 70
     1
102
RTVSPost2010Prop55
280
     0
102
RTVSPost2010PropOp55
 70
     1
102
RTVSPost2010Prop56
140
1.0
102
RTVSPost2010PropOp56
 70
     1
102
RTVSPost2010Prop57
140
1.0
102
RTVSPost2010PropOp57
 70
     1
102
RTVSPropertyOp0
 70
     1
102
RTVSPropertyOp1
 70
     1
102
RTVSPropertyOp2
 70
     1
102
RTVSPropertyOp3
 70
     1
102
RTVSPropertyOp4
 70
     1
102
RTVSPropertyOp5
 70
     1
102
RTVSPropertyOp6
 70
     1
102
RTVSPropertyOp7
 70
     1
102
RTVSPropertyOp8
 70
     1
102
RTVSPropertyOp9
 70
     1
102
RTVSPropertyOp10
 70
     1
102
RTVSPropertyOp11
 70
     1
102
RTVSPropertyOp12
 70
     1
102
RTVSPropertyOp13
 70
     1
102
RTVSPropertyOp14
 70
     1
102
RTVSPropertyOp15
 70
     1
102
RTVSPropertyOp16
 70
     1
102
RTVSPropertyOp17
 70
     1
102
RTVSPropertyOp18
 70
     1
102
RTVSPropertyOp19
 70
     1
102
RTVSPropertyOp20
 70
     1
102
RTVSPropertyOp21
 70
     1
102
RTVSPropertyOp22
 70
     1
102
RTVSPropertyOp23
 70
     1
102
RTVSPropertyOp24
 70
     1
102
RTVSPropertyOp25
 70
     1
102
RTVSPropertyOp26
 70
     1
102
RTVSPropertyOp27
 70
     1
102
RTVSPropertyOp28
 70
     1
102
RTVSPropertyOp29
 70
     1
102
RTVSPropertyOp30
 70
     1
102
RTVSPropertyOp31
 70
     1
102
RTVSPropertyOp32
 70
     1
102
RTVSPropertyOp33
 70
     1
102
RTVSPropertyOp34
 70
     1
102
RTVSPropertyOp35
 70
     1
102
RTVSPropertyOp36
 70
     1
102
RTVSPropertyOp37
 70
     1
102
RTVSPropertyOp38
 70
     1
102
RTVSPropertyOp39
 70
     1
102
RTVSPropertyOp40
 70
     1
102
RTVSPropertyOp41
 70
     1
102
RTVSPropertyOp42
 70
     1
102
RTVSPropertyOp43
 70
     1
102
RTVSPropertyOp44
 70
     1
102
RTVSPropertyOp45
 70
     1
102
RTVSPropertyOp46
 70
     1
102
RTVSPropertyOp47
 70
     1
102
RTVSPropertyOp48
 70
     1
102
RTVSPropertyOp49
 70
     1
102
RTVSPropertyOp50
 70
     1
102
RTVSPropertyOp51
 70
     0
102
RTVSPropertyOp52
 70
     0
102
RTVSPropertyOp53
 70
     1
102
RTVSPropertyOp54
 70
     1
102
RTVSPropertyOp55
 70
     1
102
RTVSPropertyOp56
 70
     1
102
RTVSPropertyOp57
 70
     1
102
RTVSPropertyOp58
 70
     1
102
RTVSPropertyOp59
 70
     1
102
RTVSPropertyOp60
 70
     1
102
RTVSPropertyOp61
 70
     1
102
RTVSPropertyOp62
 70
     1
  0
ENDSEC
  0
EOF
