  0
SECTION
  2
HEADER
  9
$ACADVER
  1
AC1024
  9
$DWGCODEPAGE
  3
ANSI_932
  9
$LTSCALE
 40
20.0
  9
$FILLMODE
 70
     1
  9
$CLAYER
  8
0
  9
$PDMODE
 70
     0
  9
$SPLFRAME
 70
     0
  9
$SPLINETYPE
 70
     6
  9
$SPLINESEGS
 70
     8
  9
$DIMASZ
 40
2.000000
  9
$DIMEXE
 40
1.500000
  9
$DIMEXO
 40
0.800000
  9
$DIMTAD
 70
     1
  9
$DIMTIH
 70
     0
  9
$DIMTOH
 70
     0
  9
$DIMTVP
 40
0.500000
  9
$DIMTXT
 40
3.100000
  9
$EXTMIN
 10
0.000000
 20
0.000000
 30
0.000000
  9
$EXTMAX
 10
297.000000
 20
420.000000
 30
0.000000
  9
$MEASUREMENT
 70
  1
  9
$LIMMIN
 10
0.000000
 20
0.000000
  9
$LIMMAX
 10
297.000000
 20
420.000000
  9
$HANDSEED
  5
1C9
  9
$LWDISPLAY
290
     0
  9
$DIMBLK
  1
_OPEN
  9
$DIMDEC
 70
     2
  9
$DIMADEC
 70
     2
  9
$DIMAUNIT
 70
     0
  9
$DIMZIN
 70
     8
  9
$DIMAZIN
 70
     2
  9
$DIMTOFL
 70
     1
  0
ENDSEC
  0
SECTION
  2
CLASSES
  0
ENDSEC
  0
SECTION
  2
TABLES
  0
TABLE
  2
VPORT
  5
193
100
AcDbSymbolTable
 70
     1
  0
VPORT
  5
194
100
AcDbSymbolTableRecord
100
AcDbViewportTableRecord
  2
*ACTIVE
 70
     0
 12
128.416512
 22
112.484650
 40
188.969299
 41
1.253288
  0
ENDTAB
  0
TABLE
  2
LTYPE
  5
195
100
AcDbSymbolTable
 70
     3
  0
LTYPE
  5
196
100
AcDbSymbolTableRecord
100
AcDbLinetypeTableRecord
  2
BYBLOCK
 70
     0
  3

 72
    65
 73
     0
 40
0.0
  0
LTYPE
  5
197
100
AcDbSymbolTableRecord
100
AcDbLinetypeTableRecord
  2
BYLAYER
 70
     0
  3

 72
    65
 73
     0
 40
0.0
  0
LTYPE
  5
198
100
AcDbSymbolTableRecord
100
AcDbLinetypeTableRecord
  2
CONTINUOUS
 70
     0
  3
Solid line (NEC CAE2D for Win R18.0 : 2024.10.18)
 72
    65
 73
     0
 40
0.0
  0
LTYPE
  5
199
100
AcDbSymbolTableRecord
100
AcDbLinetypeTableRecord
  2
CENTER
 70
     0
  3
____ _ ____ _ ____ _ ____ _ ____ _ ____
 72
    65
 73
     4
 40
2.0
 49
1.25
 74
     0
 49
-0.25
 74
     0
 49
0.25
 74
     0
 49
-0.25
 74
     0
  0
LTYPE
  5
19A
100
AcDbSymbolTableRecord
100
AcDbLinetypeTableRecord
  2
PHANTOM
 70
     0
  3
______  __  __  ______  __  __  ______ 
 72
    65
 73
     6
 40
2.5
 49
1.25
 74
     0
 49
-0.25
 74
     0
 49
0.25
 74
     0
 49
-0.25
 74
     0
 49
0.25
 74
     0
 49
-0.25
 74
     0
  0
ENDTAB
  0
TABLE
  2
LAYER
  5
19B
100
AcDbSymbolTable
 70
    15
  0
LAYER
  5
19C
100
AcDbSymbolTableRecord
100
AcDbLayerTableRecord
  2
0
 70
     0
 62
     7
  6
CONTINUOUS
370
    -3
390

  0
LAYER
  5
19D
100
AcDbSymbolTableRecord
100
AcDbLayerTableRecord
  2
A0
 70
     0
 62
     9
  6
CONTINUOUS
370
    -3
390

  0
LAYER
  5
19E
100
AcDbSymbolTableRecord
100
AcDbLayerTableRecord
  2
A2
 70
     0
 62
     9
  6
CONTINUOUS
370
    -3
390

  0
LAYER
  5
19F
100
AcDbSymbolTableRecord
100
AcDbLayerTableRecord
  2
A3
 70
     0
 62
    12
  6
CONTINUOUS
370
    -3
390

  0
LAYER
  5
1A0
100
AcDbSymbolTableRecord
100
AcDbLayerTableRecord
  2
A4
 70
     0
 62
     9
  6
CONTINUOUS
370
    -3
390

  0
LAYER
  5
1A1
100
AcDbSymbolTableRecord
100
AcDbLayerTableRecord
  2
A5
 70
     0
 62
     8
  6
CONTINUOUS
370
    -3
390

  0
LAYER
  5
1A2
100
AcDbSymbolTableRecord
100
AcDbLayerTableRecord
  2
A6
 70
     0
 62
    12
  6
CONTINUOUS
370
    -3
390

  0
LAYER
  5
1A3
100
AcDbSymbolTableRecord
100
AcDbLayerTableRecord
  2
A8
 70
     0
 62
    10
  6
CONTINUOUS
370
    -3
390

  0
LAYER
  5
1A4
100
AcDbSymbolTableRecord
100
AcDbLayerTableRecord
  2
A9
 70
     0
 62
     9
  6
CONTINUOUS
370
    -3
390

  0
LAYER
  5
1A5
100
AcDbSymbolTableRecord
100
AcDbLayerTableRecord
  2
A10
 70
     0
 62
     6
  6
CONTINUOUS
370
    -3
390

  0
LAYER
  5
1A6
100
AcDbSymbolTableRecord
100
AcDbLayerTableRecord
  2
A20
 70
     0
 62
     1
  6
CONTINUOUS
370
    -3
390

  0
LAYER
  5
1A7
100
AcDbSymbolTableRecord
100
AcDbLayerTableRecord
  2
A30
 70
     0
 62
     1
  6
CONTINUOUS
370
    -3
390

  0
LAYER
  5
1A8
100
AcDbSymbolTableRecord
100
AcDbLayerTableRecord
  2
A40
 70
     0
 62
     9
  6
CONTINUOUS
370
    -3
390

  0
LAYER
  5
1A9
100
AcDbSymbolTableRecord
100
AcDbLayerTableRecord
  2
A50
 70
     0
 62
    12
  6
CONTINUOUS
370
    -3
390

  0
LAYER
  5
1AA
100
AcDbSymbolTableRecord
100
AcDbLayerTableRecord
  2
A1023
 70
     0
 62
    16
  6
CONTINUOUS
370
    -3
390

  0
ENDTAB
  0
TABLE
  2
STYLE
  5
1AB
100
AcDbSymbolTable
 70
     4
  0
STYLE
  5
1AC
100
AcDbSymbolTableRecord
100
AcDbTextStyleTableRecord
  2
STANDARD
 70
    64
 40
0.0
 41
1.0
 50
0.0
 71
     0
 42
2.000000000000000
  3
TXT
  4

  0
STYLE
  5
1AD
100
AcDbSymbolTableRecord
100
AcDbTextStyleTableRecord
  2
ANKTATE
 70
    68
 40
0.0
 41
1.0
 50
0.0
 71
     0
 42
2.000000000000000
  3
TXT
  4

  0
STYLE
  5
1AE
100
AcDbSymbolTableRecord
100
AcDbTextStyleTableRecord
  2
KNJYOKO
 70
    64
 40
0.0
 41
1.0
 50
0.0
 71
     0
 42
2.000000000000000
  3
TXT
  4
BIGFONT
  0
STYLE
  5
1AF
100
AcDbSymbolTableRecord
100
AcDbTextStyleTableRecord
  2
KNJTATE
 70
    68
 40
0.0
 41
1.0
 50
0.0
 71
     0
 42
2.000000000000000
  3
TXT
  4
BIGFONT
  0
ENDTAB
  0
TABLE
  2
VIEW
  5
1B0
100
AcDbSymbolTable
 70
     0
  0
ENDTAB
  0
TABLE
  2
UCS
  5
1B1
100
AcDbSymbolTable
 70
     0
  0
ENDTAB
  0
TABLE
  2
APPID
  5
1B2
100
AcDbSymbolTable
 70
     1
  0
APPID
  5
1B3
100
AcDbSymbolTableRecord
100
AcDbRegAppTableRecord
  2
ACAD
 70
     0
  0
ENDTAB
  0
TABLE
  2
DIMSTYLE
  5
1B4
100
AcDbSymbolTable
 70
     2
100
AcDbDimStyleTable
  0
DIMSTYLE
105
1B5
100
AcDbSymbolTableRecord
100
AcDbDimStyleTableRecord
  2
STANDARD
 70
     0
 41
2.000000
 44
1.500000
 42
0.800000
145
0.661290
140
3.100000
144
1.000000
146
0.645161
340
1AC
  0
DIMSTYLE
105
1B6
100
AcDbSymbolTableRecord
100
AcDbDimStyleTableRecord
  2
A001
 70
     0
 41
2.000000
 44
1.500000
 42
0.800000
145
0.661290
140
3.100000
144
1.000000
146
0.645161
 77
     1
 73
     0
 74
     0
271
     2
179
     2
275
     0
 78
     8
 79
     2
172
     1
340
1AC
  0
ENDTAB
  0
TABLE
  2
BLOCK_RECORD
  5
1B7
100
AcDbSymbolTable
 70
    12
  0
BLOCK_RECORD
  5
1B8
100
AcDbSymbolTableRecord
100
AcDbBlockTableRecord
  2
*MODEL_SPACE
  0
BLOCK_RECORD
  5
1B9
100
AcDbSymbolTableRecord
100
AcDbBlockTableRecord
  2
*PAPER_SPACE
  0
BLOCK_RECORD
  5
1BA
100
AcDbSymbolTableRecord
100
AcDbBlockTableRecord
  2
*PAPER_SPACE0
  0
BLOCK_RECORD
  5
1
100
AcDbSymbolTableRecord
100
AcDbBlockTableRecord
  2
_NONE
  0
BLOCK_RECORD
  5
4
100
AcDbSymbolTableRecord
100
AcDbBlockTableRecord
  2
_CLOSED
  0
BLOCK_RECORD
  5
B
100
AcDbSymbolTableRecord
100
AcDbBlockTableRecord
  2
_DOT
  0
BLOCK_RECORD
  5
13
100
AcDbSymbolTableRecord
100
AcDbBlockTableRecord
  2
_OPEN
  0
BLOCK_RECORD
  5
19
100
AcDbSymbolTableRecord
100
AcDbBlockTableRecord
  2
_ORIGIN
  0
BLOCK_RECORD
  5
1E
100
AcDbSymbolTableRecord
100
AcDbBlockTableRecord
  2
_OPEN30
  0
BLOCK_RECORD
  5
24
100
AcDbSymbolTableRecord
100
AcDbBlockTableRecord
  2
_BOXFILLED
  0
BLOCK_RECORD
  5
29
100
AcDbSymbolTableRecord
100
AcDbBlockTableRecord
  2
_BOXBLANK
  0
BLOCK_RECORD
  5
31
100
AcDbSymbolTableRecord
100
AcDbBlockTableRecord
  2
_OBLIQUE
  0
BLOCK_RECORD
  5
35
100
AcDbSymbolTableRecord
100
AcDbBlockTableRecord
  2
_OPEN90
  0
BLOCK_RECORD
  5
3B
100
AcDbSymbolTableRecord
100
AcDbBlockTableRecord
  2
_CLOSEDBLANK
  0
BLOCK_RECORD
  5
41
100
AcDbSymbolTableRecord
100
AcDbBlockTableRecord
  2
_DOTBLANK
  0
ENDTAB
  0
ENDSEC
  0
SECTION
  2
BLOCKS
  0
BLOCK
  5
1BB
100
AcDbEntity
  8
0
100
AcDbBlockBegin
  2
*MODEL_SPACE
 70
     0
 10
0.0
 20
0.0
 30
0.0
  3
*MODEL_SPACE
  1

  0
ENDBLK
  5
1BC
100
AcDbEntity
  8
0
100
AcDbBlockEnd
  0
BLOCK
  5
1BD
100
AcDbEntity
  8
0
100
AcDbBlockBegin
  2
*PAPER_SPACE
 70
     0
 10
0.0
 20
0.0
 30
0.0
  3
*PAPER_SPACE
  1

  0
ENDBLK
  5
1BE
100
AcDbEntity
  8
0
100
AcDbBlockEnd
  0
BLOCK
  5
1BF
100
AcDbEntity
  8
0
100
AcDbBlockBegin
  2
*PAPER_SPACE0
 70
     0
 10
0.0
 20
0.0
 30
0.0
  3
*PAPER_SPACE0
  1

  0
ENDBLK
  5
1C0
100
AcDbEntity
  8
0
100
AcDbBlockEnd
  0
BLOCK
  5
2
330
1
100
AcDbEntity
  8
0
100
AcDbBlockBegin
  2
_NONE
 70
     0
 10
0.0
 20
0.0
 30
0.0
  3
_NONE
  1

  0
ENDBLK
  5
3
330
1
100
AcDbEntity
  8
0
100
AcDbBlockEnd
  0
BLOCK
  5
5
330
4
100
AcDbEntity
  8
0
100
AcDbBlockBegin
  2
_CLOSED
 70
     0
 10
0.0
 20
0.0
 30
0.0
  3
_CLOSED
  1

  0
LINE
  5
6
330
4
100
AcDbEntity
  8
0
  6
BYBLOCK
 62
     0
370
    -2
100
AcDbLine
 10
-1.0
 20
0.166667
 30
0.0
 11
0.0
 21
0.0
 31
0.0
  0
LINE
  5
7
330
4
100
AcDbEntity
  8
0
  6
BYBLOCK
 62
     0
370
    -2
100
AcDbLine
 10
0.0
 20
0.0
 30
0.0
 11
-1.0
 21
-0.166667
 31
0.0
  0
LINE
  5
8
330
4
100
AcDbEntity
  8
0
  6
BYBLOCK
 62
     0
370
    -2
100
AcDbLine
 10
-1.0
 20
0.166667
 30
0.0
 11
-1.0
 21
-0.166667
 31
0.0
  0
LINE
  5
9
330
4
100
AcDbEntity
  8
0
  6
BYBLOCK
 62
     0
370
    -2
100
AcDbLine
 10
0.0
 20
0.0
 30
0.0
 11
-1.0
 21
0.0
 31
0.0
  0
ENDBLK
  5
A
330
4
100
AcDbEntity
  8
0
100
AcDbBlockEnd
  0
BLOCK
  5
C
330
B
100
AcDbEntity
  8
0
100
AcDbBlockBegin
  2
_DOT
 70
     0
 10
0.0
 20
0.0
 30
0.0
  3
_DOT
  1

  0
POLYLINE
  5
D
330
B
100
AcDbEntity
  8
0
  6
BYBLOCK
 62
     0
370
    -2
100
AcDb2dPolyline
 66
     1
 10
0.0
 20
0.0
 30
0.0
 70
     1
 40
0.5
 41
0.5
  0
VERTEX
  5
E
330
B
100
AcDbEntity
  8
0
  6
BYBLOCK
 62
     0
370
    -2
100
AcDbVertex
100
AcDb2dVertex
 10
-0.25
 20
0.0
 30
0.0
 42
1.0
  0
VERTEX
  5
F
330
B
100
AcDbEntity
  8
0
  6
BYBLOCK
 62
     0
370
    -2
100
AcDbVertex
100
AcDb2dVertex
 10
0.25
 20
0.0
 30
0.0
 42
1.0
  0
SEQEND
  5
10
330
B
100
AcDbEntity
  8
0
  6
BYBLOCK
 62
     0
370
    -2
  0
LINE
  5
11
330
B
100
AcDbEntity
  8
0
  6
BYBLOCK
 62
     0
370
    -2
100
AcDbLine
 10
-0.5
 20
0.0
 30
0.0
 11
-1.0
 21
0.0
 31
0.0
  0
ENDBLK
  5
12
330
B
100
AcDbEntity
  8
0
100
AcDbBlockEnd
  0
BLOCK
  5
14
330
13
100
AcDbEntity
  8
0
100
AcDbBlockBegin
  2
_OPEN
 70
     0
 10
0.0
 20
0.0
 30
0.0
  3
_OPEN
  1

  0
LINE
  5
15
330
13
100
AcDbEntity
  8
0
  6
BYBLOCK
 62
     0
370
    -2
100
AcDbLine
 10
-1.0
 20
0.166667
 30
0.0
 11
0.0
 21
0.0
 31
0.0
  0
LINE
  5
16
330
13
100
AcDbEntity
  8
0
  6
BYBLOCK
 62
     0
370
    -2
100
AcDbLine
 10
0.0
 20
0.0
 30
0.0
 11
-1.0
 21
-0.166667
 31
0.0
  0
LINE
  5
17
330
13
100
AcDbEntity
  8
0
  6
BYBLOCK
 62
     0
370
    -2
100
AcDbLine
 10
0.0
 20
0.0
 30
0.0
 11
-1.0
 21
0.0
 31
0.0
  0
ENDBLK
  5
18
330
13
100
AcDbEntity
  8
0
100
AcDbBlockEnd
  0
BLOCK
  5
1A
330
19
100
AcDbEntity
  8
0
100
AcDbBlockBegin
  2
_ORIGIN
 70
     0
 10
0.0
 20
0.0
 30
0.0
  3
_ORIGIN
  1

  0
CIRCLE
  5
1B
330
19
100
AcDbEntity
  8
0
  6
BYBLOCK
 62
     0
370
    -2
100
AcDbCircle
 10
0.0
 20
0.0
 30
0.0
 40
0.5
  0
LINE
  5
1C
330
19
100
AcDbEntity
  8
0
  6
BYBLOCK
 62
     0
370
    -2
100
AcDbLine
 10
0.0
 20
0.0
 30
0.0
 11
-1.0
 21
0.0
 31
0.0
  0
ENDBLK
  5
1D
330
19
100
AcDbEntity
  8
0
100
AcDbBlockEnd
  0
BLOCK
  5
1F
330
1E
100
AcDbEntity
  8
0
100
AcDbBlockBegin
  2
_OPEN30
 70
     0
 10
0.0
 20
0.0
 30
0.0
  3
_OPEN30
  1

  0
LINE
  5
20
330
1E
100
AcDbEntity
  8
0
  6
BYBLOCK
 62
     0
370
    -2
100
AcDbLine
 10
-1.0
 20
0.267949
 30
0.0
 11
0.0
 21
0.0
 31
0.0
  0
LINE
  5
21
330
1E
100
AcDbEntity
  8
0
  6
BYBLOCK
 62
     0
370
    -2
100
AcDbLine
 10
0.0
 20
0.0
 30
0.0
 11
-1.0
 21
-0.267949
 31
0.0
  0
LINE
  5
22
330
1E
100
AcDbEntity
  8
0
  6
BYBLOCK
 62
     0
370
    -2
100
AcDbLine
 10
0.0
 20
0.0
 30
0.0
 11
-1.0
 21
0.0
 31
0.0
  0
ENDBLK
  5
23
330
1E
100
AcDbEntity
  8
0
100
AcDbBlockEnd
  0
BLOCK
  5
25
330
24
100
AcDbEntity
  8
0
100
AcDbBlockBegin
  2
_BOXFILLED
 70
     0
 10
0.0
 20
0.0
 30
0.0
  3
_BOXFILLED
  1

  0
SOLID
  5
26
330
24
100
AcDbEntity
  8
0
  6
BYBLOCK
 62
     0
370
    -2
100
AcDbTrace
 10
-0.5
 20
0.5
 30
0.0
 11
0.5
 21
0.5
 31
0.0
 12
-0.5
 22
-0.5
 32
0.0
 13
0.5
 23
-0.5
 33
0.0
  0
LINE
  5
27
330
24
100
AcDbEntity
  8
0
  6
BYBLOCK
 62
     0
370
    -2
100
AcDbLine
 10
-0.5
 20
0.0
 30
0.0
 11
-1.0
 21
0.0
 31
0.0
  0
ENDBLK
  5
28
330
24
100
AcDbEntity
  8
0
100
AcDbBlockEnd
  0
BLOCK
  5
2A
330
29
100
AcDbEntity
  8
0
100
AcDbBlockBegin
  2
_BOXBLANK
 70
     0
 10
0.0
 20
0.0
 30
0.0
  3
_BOXBLANK
  1

  0
LINE
  5
2B
330
29
100
AcDbEntity
  8
0
  6
BYBLOCK
 62
     0
370
    -2
100
AcDbLine
 10
-0.5
 20
-0.5
 30
0.0
 11
0.5
 21
-0.5
 31
0.0
  0
LINE
  5
2C
330
29
100
AcDbEntity
  8
0
  6
BYBLOCK
 62
     0
370
    -2
100
AcDbLine
 10
0.5
 20
-0.5
 30
0.0
 11
0.5
 21
0.5
 31
0.0
  0
LINE
  5
2D
330
29
100
AcDbEntity
  8
0
  6
BYBLOCK
 62
     0
370
    -2
100
AcDbLine
 10
0.5
 20
0.5
 30
0.0
 11
-0.5
 21
0.5
 31
0.0
  0
LINE
  5
2E
330
29
100
AcDbEntity
  8
0
  6
BYBLOCK
 62
     0
370
    -2
100
AcDbLine
 10
-0.5
 20
0.5
 30
0.0
 11
-0.5
 21
-0.5
 31
0.0
  0
LINE
  5
2F
330
29
100
AcDbEntity
  8
0
  6
BYBLOCK
 62
     0
370
    -2
100
AcDbLine
 10
-0.5
 20
0.0
 30
0.0
 11
-1.0
 21
0.0
 31
0.0
  0
ENDBLK
  5
30
330
29
100
AcDbEntity
  8
0
100
AcDbBlockEnd
  0
BLOCK
  5
32
330
31
100
AcDbEntity
  8
0
100
AcDbBlockBegin
  2
_OBLIQUE
 70
     0
 10
0.0
 20
0.0
 30
0.0
  3
_OBLIQUE
  1

  0
LINE
  5
33
330
31
100
AcDbEntity
  8
0
  6
BYBLOCK
 62
     0
370
    -2
100
AcDbLine
 10
-0.5
 20
-0.5
 30
0.0
 11
0.5
 21
0.5
 31
0.0
  0
ENDBLK
  5
34
330
31
100
AcDbEntity
  8
0
100
AcDbBlockEnd
  0
BLOCK
  5
36
330
35
100
AcDbEntity
  8
0
100
AcDbBlockBegin
  2
_OPEN90
 70
     0
 10
0.0
 20
0.0
 30
0.0
  3
_OPEN90
  1

  0
LINE
  5
37
330
35
100
AcDbEntity
  8
0
  6
BYBLOCK
 62
     0
370
    -2
100
AcDbLine
 10
-0.5
 20
0.5
 30
0.0
 11
0.0
 21
0.0
 31
0.0
  0
LINE
  5
38
330
35
100
AcDbEntity
  8
0
  6
BYBLOCK
 62
     0
370
    -2
100
AcDbLine
 10
0.0
 20
0.0
 30
0.0
 11
-0.5
 21
-0.5
 31
0.0
  0
LINE
  5
39
330
35
100
AcDbEntity
  8
0
  6
BYBLOCK
 62
     0
370
    -2
100
AcDbLine
 10
0.0
 20
0.0
 30
0.0
 11
-1.0
 21
0.0
 31
0.0
  0
ENDBLK
  5
3A
330
35
100
AcDbEntity
  8
0
100
AcDbBlockEnd
  0
BLOCK
  5
3C
330
3B
100
AcDbEntity
  8
0
100
AcDbBlockBegin
  2
_CLOSEDBLANK
 70
     0
 10
0.0
 20
0.0
 30
0.0
  3
_CLOSEDBLANK
  1

  0
LINE
  5
3D
330
3B
100
AcDbEntity
  8
0
  6
BYBLOCK
 62
     0
370
    -2
100
AcDbLine
 10
-1.0
 20
0.1666666666666666
 30
0.0
 11
0.0
 21
0.0
 31
0.0
  0
LINE
  5
3E
330
3B
100
AcDbEntity
  8
0
  6
BYBLOCK
 62
     0
370
    -2
100
AcDbLine
 10
0.0
 20
0.0
 30
0.0
 11
-1.0
 21
-0.1666666666666666
 31
0.0
  0
LINE
  5
3F
330
3B
100
AcDbEntity
  8
0
  6
BYBLOCK
 62
     0
370
    -2
100
AcDbLine
 10
-1.0
 20
0.1666666666666666
 30
0.0
 11
-1.0
 21
-0.1666666666666666
 31
0.0
  0
ENDBLK
  5
40
330
3B
100
AcDbEntity
  8
0
100
AcDbBlockEnd
  0
BLOCK
  5
42
330
41
100
AcDbEntity
  8
0
100
AcDbBlockBegin
  2
_DOTBLANK
 70
     0
 10
0.0
 20
0.0
 30
0.0
  3
_DOTBLANK
  1

  0
CIRCLE
  5
43
330
41
100
AcDbEntity
  8
0
  6
BYBLOCK
 62
     0
370
    -2
100
AcDbCircle
 10
0.0
 20
0.0
 30
0.0
 40
0.5
  0
LINE
  5
44
330
41
100
AcDbEntity
  8
0
  6
BYBLOCK
 62
     0
370
    -2
100
AcDbLine
 10
-0.5
 20
0.0
 30
0.0
 11
-1.0
 21
0.0
 31
0.0
  0
ENDBLK
  5
45
330
41
100
AcDbEntity
  8
0
100
AcDbBlockEnd
  0
ENDSEC
  0
SECTION
  2
ENTITIES
  0
MTEXT
  5
46
100
AcDbEntity
  8
A8
  6
CONTINUOUS
 62
3
100
AcDbMText
 10
9.999997526638502
 20
18.00000076076889
 30
0.000000000000000
 40
3.000000000000000
 41
0.000000000000000
 44
0.6739999771118164
 71
     7
 72
     1
  1
{\H0.93x;{TYPE No.TH-125-6}}
 11
1.000000000000000
 21
0.000000000000000
 31
0.000000000000000
  7
STANDARD
  0
POINT
  5
47
100
AcDbEntity
  8
A0
  6
CONTINUOUS
 62
3
100
AcDbPoint
 10
9.999997526638502
 20
18.00000076076889
 30
0.000000000000000
  0
POINT
  5
48
100
AcDbEntity
  8
A10
  6
CONTINUOUS
 62
3
100
AcDbPoint
 10
50.00000000000000
 20
50.00000000000000
 30
0.000000000000000
  0
LINE
  5
49
100
AcDbEntity
  8
A4
  6
CONTINUOUS
 62
7
100
AcDbLine
 10
110.8505985915060
 20
109.3418137297851
 30
0.000000000000000
 11
95.65059859150595
 21
109.3418137297851
 31
0.000000000000000
  0
LINE
  5
4A
100
AcDbEntity
  8
A4
  6
CONTINUOUS
 62
7
100
AcDbLine
 10
110.8505985915060
 20
137.3418137297851
 30
0.000000000000000
 11
95.65059859150595
 21
137.3418137297851
 31
0.000000000000000
  0
LINE
  5
4B
100
AcDbEntity
  8
A4
  6
CONTINUOUS
 62
7
100
AcDbLine
 10
93.45059859150597
 20
137.3418137297851
 30
0.000000000000000
 11
93.45059859150597
 21
128.3418137297851
 31
0.000000000000000
  0
LINE
  5
4C
100
AcDbEntity
  8
A4
  6
CONTINUOUS
 62
7
100
AcDbLine
 10
95.45059859150597
 20
129.5418137297851
 30
0.000000000000000
 11
95.45059859150597
 21
128.3418137297851
 31
0.000000000000000
  0
ARC
  5
4D
100
AcDbEntity
  8
A4
  6
CONTINUOUS
 62
7
100
AcDbCircle
 10
80.85059859150594
 20
111.3418137297851
 30
0.000000000000000
 40
2.000000000000000
100
AcDbArc
 50
180.0000000000000
 51
270.0000000000000
  0
ARC
  5
4E
100
AcDbEntity
  8
A4
  6
CONTINUOUS
 62
7
100
AcDbCircle
 10
80.85059859150594
 20
135.3418137297851
 30
0.000000000000000
 40
2.000000000000000
100
AcDbArc
 50
90.00000000000000
 51
180.0000000000000
  0
ARC
  5
4F
100
AcDbEntity
  8
A4
  6
CONTINUOUS
 62
7
100
AcDbCircle
 10
110.8505985915060
 20
135.3418137297851
 30
0.000000000000000
 40
2.000000000000000
100
AcDbArc
 50
0.000000000000000
 51
90.00000000000000
  0
LINE
  5
50
100
AcDbEntity
  8
A4
  6
CONTINUOUS
 62
7
100
AcDbLine
 10
99.25059859150598
 20
130.4418137297851
 30
0.000000000000000
 11
99.25059859150598
 21
130.0418137297852
 31
0.000000000000000
  0
LINE
  5
51
100
AcDbEntity
  8
A4
  6
CONTINUOUS
 62
7
100
AcDbLine
 10
100.4505985915060
 20
116.2418137297852
 30
0.000000000000000
 11
100.4505985915060
 21
109.3418137297851
 31
0.000000000000000
  0
LINE
  5
52
100
AcDbEntity
  8
A4
  6
CONTINUOUS
 62
7
100
AcDbLine
 10
100.4505985915060
 20
137.3418137297851
 30
0.000000000000000
 11
100.4505985915060
 21
130.4418137297851
 31
0.000000000000000
  0
LINE
  5
53
100
AcDbEntity
  8
A4
  6
CONTINUOUS
 62
7
100
AcDbLine
 10
78.85059859150594
 20
44.15806472978515
 30
0.000000000000000
 11
78.85059859150594
 21
42.95806472978515
 31
0.000000000000000
  0
LINE
  5
54
100
AcDbEntity
  8
A4
  6
CONTINUOUS
 62
7
100
AcDbLine
 10
78.85059859150594
 20
135.3418137297851
 30
0.000000000000000
 11
78.85059859150594
 21
111.3418137297851
 31
0.000000000000000
  0
LINE
  5
55
100
AcDbEntity
  8
A4
  6
CONTINUOUS
 62
7
100
AcDbLine
 10
112.8505985915060
 20
44.15806472978515
 30
0.000000000000000
 11
112.8505985915060
 21
42.95806472978515
 31
0.000000000000000
  0
LINE
  5
56
100
AcDbEntity
  8
A4
  6
CONTINUOUS
 62
7
100
AcDbLine
 10
112.8505985915060
 20
135.3418137297851
 30
0.000000000000000
 11
112.8505985915060
 21
111.3418137297851
 31
0.000000000000000
  0
LINE
  5
57
100
AcDbEntity
  8
A4
  6
CONTINUOUS
 62
7
100
AcDbLine
 10
95.45059859150597
 20
47.15806472978515
 30
0.000000000000000
 11
95.45059859150597
 21
42.95806472978515
 31
0.000000000000000
  0
LINE
  5
58
100
AcDbEntity
  8
A4
  6
CONTINUOUS
 62
7
100
AcDbLine
 10
95.45059859150597
 20
118.3418137297850
 30
0.000000000000000
 11
95.45059859150597
 21
117.1418137297852
 31
0.000000000000000
  0
LINE
  5
59
100
AcDbEntity
  8
A4
  6
CONTINUOUS
 62
7
100
AcDbLine
 10
93.45059859150597
 20
118.3418137297850
 30
0.000000000000000
 11
93.45059859150597
 21
109.3418137297851
 31
0.000000000000000
  0
LINE
  5
5A
100
AcDbEntity
  8
A2
  6
CENTER
 62
1
100
AcDbLine
 10
107.8505985915060
 20
46.37251572978515
 30
0.000000000000000
 11
107.8505985915060
 21
40.47075772978515
 31
0.000000000000000
  0
LINE
  5
5B
100
AcDbEntity
  8
A2
  6
CENTER
 62
1
100
AcDbLine
 10
85.35059859150596
 20
46.37251572978515
 30
0.000000000000000
 11
85.35059859150596
 21
40.47075772978515
 31
0.000000000000000
  0
LINE
  5
5C
100
AcDbEntity
  8
A4
  6
CONTINUOUS
 62
7
100
AcDbLine
 10
99.25059859150598
 20
48.93391572978515
 30
0.000000000000000
 11
99.25059859150598
 21
46.05806472978515
 31
0.000000000000000
  0
LINE
  5
5D
100
AcDbEntity
  8
A4
  6
CONTINUOUS
 62
7
100
AcDbLine
 10
99.25059859150598
 20
116.6418137297852
 30
0.000000000000000
 11
99.25059859150598
 21
116.2418137297852
 31
0.000000000000000
  0
LINE
  5
5E
100
AcDbEntity
  8
A2
  6
CENTER
 62
1
100
AcDbLine
 10
98.35059859150596
 20
139.5958787297851
 30
0.000000000000000
 11
98.35059859150596
 21
106.1565777297852
 31
0.000000000000000
  0
ARC
  5
5F
100
AcDbEntity
  8
A4
  6
CONTINUOUS
 62
7
100
AcDbCircle
 10
98.35059859150596
 20
47.25806472978515
 30
0.000000000000000
 40
1.500000000000000
100
AcDbArc
 50
53.13010200000000
 51
306.8698979999999
  0
LINE
  5
60
100
AcDbEntity
  8
A4
  6
CONTINUOUS
 62
7
100
AcDbLine
 10
112.8505985915060
 20
42.95806472978515
 30
0.000000000000000
 11
103.3505985915060
 21
42.95806472978515
 31
0.000000000000000
  0
LINE
  5
61
100
AcDbEntity
  8
A4
  6
CONTINUOUS
 62
7
100
AcDbLine
 10
100.4505985915060
 20
44.55806472978515
 30
0.000000000000000
 11
100.4505985915060
 21
42.95806472978515
 31
0.000000000000000
  0
ARC
  5
62
100
AcDbEntity
  8
A4
  6
CONTINUOUS
 62
7
100
AcDbCircle
 10
103.3505985915060
 20
44.15806472978515
 30
0.000000000000000
 40
1.199999999999999
100
AcDbArc
 50
222.5748289999999
 51
270.0000000000000
  0
ARC
  5
63
100
AcDbEntity
  8
A4
  6
CONTINUOUS
 62
7
100
AcDbCircle
 10
101.3535415915059
 20
44.55806472978515
 30
0.000000000000000
 40
1.199999999999999
100
AcDbArc
 50
42.57482900000000
 51
90.00000000000000
  0
LINE
  5
64
100
AcDbEntity
  8
A4
  6
CONTINUOUS
 62
7
100
AcDbLine
 10
78.85059859150594
 20
42.95806472978515
 30
0.000000000000000
 11
100.4505985915060
 21
42.95806472978515
 31
0.000000000000000
  0
LINE
  5
65
100
AcDbEntity
  8
A4
  6
CONTINUOUS
 62
7
100
AcDbLine
 10
101.3535415915059
 20
45.75806472978514
 30
0.000000000000000
 11
98.35059859150596
 21
45.75806472978514
 31
0.000000000000000
  0
LINE
  5
66
100
AcDbEntity
  8
A4
  6
CONTINUOUS
 62
7
100
AcDbLine
 10
101.3535415915059
 20
44.55806472978515
 30
0.000000000000000
 11
98.35059859150596
 21
44.55806472978515
 31
0.000000000000000
  0
ARC
  5
67
100
AcDbEntity
  8
A4
  6
CONTINUOUS
 62
7
100
AcDbCircle
 10
98.35059859150596
 20
47.25806472978515
 30
0.000000000000000
 40
2.700000000000000
100
AcDbArc
 50
180.0000000000000
 51
270.0000000000000
  0
LINE
  5
68
100
AcDbEntity
  8
A4
  6
CONTINUOUS
 62
7
100
AcDbLine
 10
100.4505985915060
 20
48.93391572978515
 30
0.000000000000000
 11
100.4505985915060
 21
46.05806472978515
 31
0.000000000000000
  0
LINE
  5
69
100
AcDbEntity
  8
A4
  6
CONTINUOUS
 62
7
100
AcDbLine
 10
100.4505985915060
 20
46.05806472978515
 30
0.000000000000000
 11
99.25059859150598
 21
46.05806472978515
 31
0.000000000000000
  0
LINE
  5
6A
100
AcDbEntity
  8
A4
  6
CONTINUOUS
 62
7
100
AcDbLine
 10
112.8505985915060
 20
44.15806472978515
 30
0.000000000000000
 11
103.3505985915060
 21
44.15806472978515
 31
0.000000000000000
  0
LINE
  5
6B
100
AcDbEntity
  8
A4
  6
CONTINUOUS
 62
7
100
AcDbLine
 10
78.85059859150594
 20
44.15806472978515
 30
0.000000000000000
 11
95.45059859150597
 21
44.15806472978515
 31
0.000000000000000
  0
LINE
  5
6C
100
AcDbEntity
  8
A4
  6
CONTINUOUS
 62
7
100
AcDbLine
 10
87.95059859150597
 20
47.95806472978515
 30
0.000000000000000
 11
95.56312659150596
 21
47.95806472978515
 31
0.000000000000000
  0
LINE
  5
6D
100
AcDbEntity
  8
A4
  6
CONTINUOUS
 62
7
100
AcDbLine
 10
87.95059859150597
 20
47.95806472978515
 30
0.000000000000000
 11
87.95059859150597
 21
44.15806472978515
 31
0.000000000000000
  0
LINE
  5
6E
100
AcDbEntity
  8
A4
  6
CONTINUOUS
 62
7
100
AcDbLine
 10
87.95059859150597
 20
127.3418137297850
 30
0.000000000000000
 11
87.95059859150597
 21
119.3418137297850
 31
0.000000000000000
  0
LINE
  5
6F
100
AcDbEntity
  8
A4
  6
CONTINUOUS
 62
7
100
AcDbLine
 10
87.95059859150597
 20
44.95806472978515
 30
0.000000000000000
 11
95.45059859150597
 21
44.95806472978515
 31
0.000000000000000
  0
LINE
  5
70
100
AcDbEntity
  8
A4
  6
CONTINUOUS
 62
7
100
AcDbLine
 10
87.95059859150597
 20
45.95806472978515
 30
0.000000000000000
 11
95.45059859150597
 21
45.95806472978515
 31
0.000000000000000
  0
LINE
  5
71
100
AcDbEntity
  8
A4
  6
CONTINUOUS
 62
7
100
AcDbLine
 10
87.95059859150597
 20
47.15806472978515
 30
0.000000000000000
 11
95.45059859150597
 21
47.15806472978515
 31
0.000000000000000
  0
LINE
  5
72
100
AcDbEntity
  8
A4
  6
CONTINUOUS
 62
7
100
AcDbLine
 10
94.95059859150597
 20
119.2888417297851
 30
0.000000000000000
 11
94.95059859150597
 21
127.5932877297851
 31
0.000000000000000
  0
LINE
  5
73
100
AcDbEntity
  8
A2
  6
CENTER
 62
1
100
AcDbLine
 10
91.45059859150597
 20
50.23657072978515
 30
0.000000000000000
 11
91.45059859150597
 21
39.71432772978513
 31
0.000000000000000
  0
LINE
  5
74
100
AcDbEntity
  8
A2
  6
CENTER
 62
1
100
AcDbLine
 10
91.45059859150597
 20
128.0409177297851
 30
0.000000000000000
 11
91.45059859150597
 21
118.6427097297851
 31
0.000000000000000
  0
LINE
  5
75
100
AcDbEntity
  8
A4
  6
CONTINUOUS
 62
7
100
AcDbLine
 10
25.05938459150596
 20
109.3418137297851
 30
0.000000000000000
 11
25.05938459150596
 21
137.3418137297851
 31
0.000000000000000
  0
LINE
  5
76
100
AcDbEntity
  8
A4
  6
CONTINUOUS
 62
7
100
AcDbLine
 10
26.25938459150596
 20
109.3418137297851
 30
0.000000000000000
 11
26.25938459150596
 21
137.3418137297851
 31
0.000000000000000
  0
LINE
  5
77
100
AcDbEntity
  8
A4
  6
CONTINUOUS
 62
7
100
AcDbLine
 10
93.45059859150597
 20
109.3418137297851
 30
0.000000000000000
 11
80.85059859150594
 21
109.3418137297851
 31
0.000000000000000
  0
LINE
  5
78
100
AcDbEntity
  8
A4
  6
CONTINUOUS
 62
7
100
AcDbLine
 10
93.45059859150597
 20
137.3418137297851
 30
0.000000000000000
 11
80.85059859150594
 21
137.3418137297851
 31
0.000000000000000
  0
LINE
  5
79
100
AcDbEntity
  8
A4
  6
CONTINUOUS
 62
7
100
AcDbLine
 10
32.25938459150597
 20
117.1418137297852
 30
0.000000000000000
 11
26.25938459150596
 21
117.1418137297852
 31
0.000000000000000
  0
LINE
  5
7A
100
AcDbEntity
  8
A4
  6
CONTINUOUS
 62
7
100
AcDbLine
 10
101.2505985915059
 20
118.3418137297850
 30
0.000000000000000
 11
88.95059859150597
 21
118.3418137297850
 31
0.000000000000000
  0
LINE
  5
7B
100
AcDbEntity
  8
A4
  6
CONTINUOUS
 62
7
100
AcDbLine
 10
32.25938459150597
 20
118.3418137297850
 30
0.000000000000000
 11
26.25938459150596
 21
118.3418137297850
 31
0.000000000000000
  0
LINE
  5
7C
100
AcDbEntity
  8
A4
  6
CONTINUOUS
 62
7
100
AcDbLine
 10
101.2505985915059
 20
128.3418137297851
 30
0.000000000000000
 11
88.95059859150597
 21
128.3418137297851
 31
0.000000000000000
  0
LINE
  5
7D
100
AcDbEntity
  8
A4
  6
CONTINUOUS
 62
7
100
AcDbLine
 10
32.25938459150597
 20
128.3418137297851
 30
0.000000000000000
 11
26.25938459150596
 21
128.3418137297851
 31
0.000000000000000
  0
LINE
  5
7E
100
AcDbEntity
  8
A4
  6
CONTINUOUS
 62
7
100
AcDbLine
 10
32.25938459150597
 20
129.5418137297851
 30
0.000000000000000
 11
26.25938459150596
 21
129.5418137297851
 31
0.000000000000000
  0
LINE
  5
7F
100
AcDbEntity
  8
A4
  6
CONTINUOUS
 62
7
100
AcDbLine
 10
32.65938459150596
 20
109.3418137297851
 30
0.000000000000000
 11
25.05938459150596
 21
109.3418137297851
 31
0.000000000000000
  0
LINE
  5
80
100
AcDbEntity
  8
A4
  6
CONTINUOUS
 62
7
100
AcDbLine
 10
32.65938459150596
 20
137.3418137297851
 30
0.000000000000000
 11
25.05938459150596
 21
137.3418137297851
 31
0.000000000000000
  0
LINE
  5
81
100
AcDbEntity
  8
A4
  6
CONTINUOUS
 62
7
100
AcDbLine
 10
32.65938459150596
 20
109.3418137297851
 30
0.000000000000000
 11
32.65938459150596
 21
116.2418137297852
 31
0.000000000000000
  0
LINE
  5
82
100
AcDbEntity
  8
A4
  6
CONTINUOUS
 62
7
100
AcDbLine
 10
32.65938459150596
 20
130.4418137297851
 30
0.000000000000000
 11
32.65938459150596
 21
137.3418137297851
 31
0.000000000000000
  0
LINE
  5
83
100
AcDbEntity
  8
A2
  6
CENTER
 62
1
100
AcDbLine
 10
27.55938459150596
 20
113.3418137297850
 30
0.000000000000000
 11
24.01111659150595
 21
113.3418137297850
 31
0.000000000000000
  0
LINE
  5
84
100
AcDbEntity
  8
A2
  6
CENTER
 62
1
100
AcDbLine
 10
27.55938459150596
 20
133.3418137297851
 30
0.000000000000000
 11
24.01111659150595
 21
133.3418137297851
 31
0.000000000000000
  0
LINE
  5
85
100
AcDbEntity
  8
A4
  6
CONTINUOUS
 62
7
100
AcDbLine
 10
30.05938459150596
 20
118.3418137297850
 30
0.000000000000000
 11
30.05938459150596
 21
128.3418137297851
 31
0.000000000000000
  0
LINE
  5
86
100
AcDbEntity
  8
A4
  6
CONTINUOUS
 62
7
100
AcDbLine
 10
27.05938459150596
 20
118.3418137297850
 30
0.000000000000000
 11
27.05938459150596
 21
128.3418137297851
 31
0.000000000000000
  0
LINE
  5
87
100
AcDbEntity
  8
A4
  6
CONTINUOUS
 62
7
100
AcDbLine
 10
29.25938459150595
 20
118.3418137297850
 30
0.000000000000000
 11
29.25938459150595
 21
128.3418137297851
 31
0.000000000000000
  0
LINE
  5
88
100
AcDbEntity
  8
A4
  6
CONTINUOUS
 62
7
100
AcDbLine
 10
28.05938459150596
 20
118.3418137297850
 30
0.000000000000000
 11
28.05938459150596
 21
128.3418137297851
 31
0.000000000000000
  0
LINE
  5
89
100
AcDbEntity
  8
A2
  6
CENTER
 62
1
100
AcDbLine
 10
34.17699959150596
 20
123.3418137297850
 30
0.000000000000000
 11
24.01111659150595
 21
123.3418137297850
 31
0.000000000000000
  0
LINE
  5
8A
100
AcDbEntity
  8
A4
  6
CONTINUOUS
 62
7
100
AcDbLine
 10
88.95059859150598
 20
128.3418137297852
 30
0.000000000000000
 11
87.95059859150598
 21
127.3418137297851
 31
0.000000000000000
  0
LINE
  5
8B
100
AcDbEntity
  8
A4
  6
CONTINUOUS
 62
7
100
AcDbLine
 10
88.95059859150595
 20
118.3418137297850
 30
0.000000000000000
 11
87.95059859150597
 21
119.3418137297850
 31
0.000000000000000
  0
LINE
  5
8C
100
AcDbEntity
  8
A4
  6
CONTINUOUS
 62
7
100
AcDbLine
 10
93.45059859150597
 20
44.15806472978515
 30
0.000000000000000
 11
93.45059859150597
 21
42.95806472978515
 31
0.000000000000000
  0
LINE
  5
8D
100
AcDbEntity
  8
A2
  6
CENTER
 62
1
100
AcDbLine
 10
96.14970259150599
 20
123.3418137297850
 30
0.000000000000000
 11
86.75149459150596
 21
123.3418137297850
 31
0.000000000000000
  0
LINE
  5
8E
100
AcDbEntity
  8
A4
  6
CONTINUOUS
 62
7
100
AcDbLine
 10
101.2505985915059
 20
129.5418137297851
 30
0.000000000000000
 11
95.45059859150597
 21
129.5418137297851
 31
0.000000000000000
  0
LINE
  5
8F
100
AcDbEntity
  8
A4
  6
CONTINUOUS
 62
7
100
AcDbLine
 10
101.2505985915059
 20
117.1418137297852
 30
0.000000000000000
 11
95.45059859150597
 21
117.1418137297852
 31
0.000000000000000
  0
LINE
  5
90
100
AcDbEntity
  8
A4
  6
CONTINUOUS
 62
7
100
AcDbLine
 10
96.85059859150596
 20
116.6418137297852
 30
0.000000000000000
 11
96.85059859150596
 21
116.2418137297852
 31
0.000000000000000
  0
LINE
  5
91
100
AcDbEntity
  8
A4
  6
CONTINUOUS
 62
7
100
AcDbLine
 10
96.85059859150596
 20
130.4418137297851
 30
0.000000000000000
 11
96.85059859150596
 21
130.0418137297852
 31
0.000000000000000
  0
LINE
  5
92
100
AcDbEntity
  8
A4
  6
CONTINUOUS
 62
7
100
AcDbLine
 10
27.75938459150596
 20
116.2418137297852
 30
0.000000000000000
 11
27.75938459150596
 21
116.6418137297852
 31
0.000000000000000
  0
LINE
  5
93
100
AcDbEntity
  8
A4
  6
CONTINUOUS
 62
7
100
AcDbLine
 10
27.75938459150596
 20
130.0418137297852
 30
0.000000000000000
 11
27.75938459150596
 21
130.4418137297851
 31
0.000000000000000
  0
LINE
  5
94
100
AcDbEntity
  8
A4
  6
CONTINUOUS
 62
7
100
AcDbLine
 10
30.75938459150596
 20
116.2418137297852
 30
0.000000000000000
 11
30.75938459150596
 21
116.6418137297852
 31
0.000000000000000
  0
LINE
  5
95
100
AcDbEntity
  8
A4
  6
CONTINUOUS
 62
7
100
AcDbLine
 10
30.75938459150596
 20
130.0418137297852
 30
0.000000000000000
 11
30.75938459150596
 21
130.4418137297851
 31
0.000000000000000
  0
ARC
  5
96
100
AcDbEntity
  8
A4
  6
CONTINUOUS
 62
7
100
AcDbCircle
 10
110.8505985915060
 20
111.3418137297851
 30
0.000000000000000
 40
2.000000000000000
100
AcDbArc
 50
270.0000000000000
 51
360.0000000000000
  0
LINE
  5
97
100
AcDbEntity
  8
A4
  6
CONTINUOUS
 62
7
100
AcDbLine
 10
95.65059859150595
 20
116.2418137297852
 30
0.000000000000000
 11
95.65059859150595
 21
109.3418137297851
 31
0.000000000000000
  0
LINE
  5
98
100
AcDbEntity
  8
A4
  6
CONTINUOUS
 62
7
100
AcDbLine
 10
95.65059859150595
 20
137.3418137297851
 30
0.000000000000000
 11
95.65059859150595
 21
130.4418137297851
 31
0.000000000000000
  0
LINE
  5
99
100
AcDbEntity
  8
A4
  6
CONTINUOUS
 62
7
100
AcDbLine
 10
101.2505985915059
 20
116.6418137297852
 30
0.000000000000000
 11
95.45059859150597
 21
116.6418137297852
 31
0.000000000000000
  0
LINE
  5
9A
100
AcDbEntity
  8
A4
  6
CONTINUOUS
 62
7
100
AcDbLine
 10
101.2505985915059
 20
130.0418137297852
 30
0.000000000000000
 11
95.45059859150597
 21
130.0418137297852
 31
0.000000000000000
  0
LINE
  5
9B
100
AcDbEntity
  8
A4
  6
CONTINUOUS
 62
7
100
AcDbLine
 10
101.2505985915059
 20
130.0418137297852
 30
0.000000000000000
 11
101.2505985915059
 21
116.6418137297852
 31
0.000000000000000
  0
LINE
  5
9C
100
AcDbEntity
  8
A4
  6
CONTINUOUS
 62
7
100
AcDbLine
 10
95.45059859150597
 20
117.1418137297852
 30
0.000000000000000
 11
95.45059859150597
 21
116.6418137297852
 31
0.000000000000000
  0
LINE
  5
9D
100
AcDbEntity
  8
A4
  6
CONTINUOUS
 62
7
100
AcDbLine
 10
95.45059859150597
 20
130.0418137297852
 30
0.000000000000000
 11
95.45059859150597
 21
129.5418137297851
 31
0.000000000000000
  0
LINE
  5
9E
100
AcDbEntity
  8
A4
  6
CONTINUOUS
 62
7
100
AcDbLine
 10
102.6005985915060
 20
116.2418137297852
 30
0.000000000000000
 11
95.65059859150595
 21
116.2418137297852
 31
0.000000000000000
  0
LINE
  5
9F
100
AcDbEntity
  8
A4
  6
CONTINUOUS
 62
7
100
AcDbLine
 10
102.6005985915060
 20
130.4418137297851
 30
0.000000000000000
 11
95.65059859150595
 21
130.4418137297851
 31
0.000000000000000
  0
ARC
  5
A0
100
AcDbEntity
  8
A4
  6
CONTINUOUS
 62
7
100
AcDbCircle
 10
102.6005985915060
 20
129.6918137297852
 30
0.000000000000000
 40
0.7500000000000000
100
AcDbArc
 50
0.000000000000000
 51
90.00000000000000
  0
ARC
  5
A1
100
AcDbEntity
  8
A4
  6
CONTINUOUS
 62
7
100
AcDbCircle
 10
102.6005985915060
 20
116.9918137297852
 30
0.000000000000000
 40
0.7500000000000000
100
AcDbArc
 50
270.0000000000000
 51
360.0000000000000
  0
LINE
  5
A2
100
AcDbEntity
  8
A4
  6
CONTINUOUS
 62
7
100
AcDbLine
 10
88.65059859150593
 20
48.95806472978515
 30
0.000000000000000
 11
94.25059859150595
 21
48.95806472978515
 31
0.000000000000000
  0
LINE
  5
A3
100
AcDbEntity
  8
A4
  6
CONTINUOUS
 62
7
100
AcDbLine
 10
94.25059859150595
 20
48.95806472978515
 30
0.000000000000000
 11
94.25059859150595
 21
47.95806472978515
 31
0.000000000000000
  0
LINE
  5
A4
100
AcDbEntity
  8
A4
  6
CONTINUOUS
 62
7
100
AcDbLine
 10
88.65059859150593
 20
48.95806472978515
 30
0.000000000000000
 11
88.65059859150593
 21
47.95806472978515
 31
0.000000000000000
  0
CIRCLE
  5
A5
100
AcDbEntity
  8
A4
  6
CONTINUOUS
 62
7
100
AcDbCircle
 10
91.45059859150597
 20
123.3418137297850
 30
0.000000000000000
 40
2.799999999999998
  0
CIRCLE
  5
A6
100
AcDbEntity
  8
A4
  6
CONTINUOUS
 62
7
100
AcDbCircle
 10
91.45059859150597
 20
123.3418137297850
 30
0.000000000000000
 40
1.500000000000000
  0
ARC
  5
A7
100
AcDbEntity
  8
A4
  6
CONTINUOUS
 62
7
100
AcDbCircle
 10
98.35059859150596
 20
47.25806472978515
 30
0.000000000000000
 40
2.900000000000000
100
AcDbArc
 50
328.8526100000000
 51
405.4441229999999
  0
LINE
  5
A8
100
AcDbEntity
  8
A4
  6
CONTINUOUS
 62
7
100
AcDbLine
 10
90.20059859150597
 20
49.45806472978515
 30
0.000000000000000
 11
92.70059859150597
 21
49.45806472978515
 31
0.000000000000000
  0
ARC
  5
A9
100
AcDbEntity
  8
A4
  6
CONTINUOUS
 62
7
100
AcDbCircle
 10
92.70059859150597
 20
49.20806472978515
 30
0.000000000000000
 40
0.2500000000000000
100
AcDbArc
 50
270.0000000000000
 51
450.0000000000000
  0
ARC
  5
AA
100
AcDbEntity
  8
A4
  6
CONTINUOUS
 62
7
100
AcDbCircle
 10
90.20059859150597
 20
49.20806472978515
 30
0.000000000000000
 40
0.2500000000000000
100
AcDbArc
 50
90.00000000000000
 51
270.0000000000000
  0
LINE
  5
AB
100
AcDbEntity
  8
A4
  6
CONTINUOUS
 62
7
100
AcDbLine
 10
32.25938459150597
 20
116.6418137297852
 30
0.000000000000000
 11
26.45938459150596
 21
116.6418137297852
 31
0.000000000000000
  0
LINE
  5
AC
100
AcDbEntity
  8
A4
  6
CONTINUOUS
 62
7
100
AcDbLine
 10
32.25938459150597
 20
130.0418137297852
 30
0.000000000000000
 11
26.45938459150596
 21
130.0418137297852
 31
0.000000000000000
  0
LINE
  5
AD
100
AcDbEntity
  8
A4
  6
CONTINUOUS
 62
7
100
AcDbLine
 10
32.65938459150596
 20
116.2418137297852
 30
0.000000000000000
 11
26.25938459150596
 21
116.2418137297852
 31
0.000000000000000
  0
LINE
  5
AE
100
AcDbEntity
  8
A4
  6
CONTINUOUS
 62
7
100
AcDbLine
 10
32.65938459150596
 20
130.4418137297851
 30
0.000000000000000
 11
26.25938459150596
 21
130.4418137297851
 31
0.000000000000000
  0
LINE
  5
AF
100
AcDbEntity
  8
A4
  6
CONTINUOUS
 62
7
100
AcDbLine
 10
26.45938459150596
 20
116.6418137297852
 30
0.000000000000000
 11
26.45938459150596
 21
117.1418137297852
 31
0.000000000000000
  0
LINE
  5
B0
100
AcDbEntity
  8
A4
  6
CONTINUOUS
 62
7
100
AcDbLine
 10
26.45938459150596
 20
129.5418137297851
 30
0.000000000000000
 11
26.45938459150596
 21
130.0418137297852
 31
0.000000000000000
  0
LINE
  5
B1
100
AcDbEntity
  8
A4
  6
CONTINUOUS
 62
7
100
AcDbLine
 10
32.25938459150597
 20
116.6418137297852
 30
0.000000000000000
 11
32.25938459150597
 21
130.0418137297852
 31
0.000000000000000
  0
LINE
  5
B2
100
AcDbEntity
  8
A4
  6
CONTINUOUS
 62
7
100
AcDbLine
 10
31.05938459150596
 20
120.5418137297850
 30
0.000000000000000
 11
31.05938459150596
 21
126.1418137297851
 31
0.000000000000000
  0
LINE
  5
B3
100
AcDbEntity
  8
A4
  6
CONTINUOUS
 62
7
100
AcDbLine
 10
31.05938459150596
 20
120.5418137297850
 30
0.000000000000000
 11
30.05938459150596
 21
120.5418137297850
 31
0.000000000000000
  0
LINE
  5
B4
100
AcDbEntity
  8
A4
  6
CONTINUOUS
 62
7
100
AcDbLine
 10
31.05938459150596
 20
126.1418137297851
 30
0.000000000000000
 11
30.05938459150596
 21
126.1418137297851
 31
0.000000000000000
  0
LINE
  5
B5
100
AcDbEntity
  8
A4
  6
CONTINUOUS
 62
7
100
AcDbLine
 10
31.55938459150596
 20
122.0918137297851
 30
0.000000000000000
 11
31.55938459150596
 21
124.5918137297850
 31
0.000000000000000
  0
ARC
  5
B6
100
AcDbEntity
  8
A4
  6
CONTINUOUS
 62
7
100
AcDbCircle
 10
31.30938459150596
 20
122.0918137297851
 30
0.000000000000000
 40
0.2500000000000000
100
AcDbArc
 50
168.6748050000000
 51
360.0000000000000
  0
ARC
  5
B7
100
AcDbEntity
  8
A4
  6
CONTINUOUS
 62
7
100
AcDbCircle
 10
31.30938459150596
 20
124.5918137297850
 30
0.000000000000000
 40
0.2500000000000000
100
AcDbArc
 50
0.000000000000000
 51
180.0000000000000
  0
LINE
  5
B8
100
AcDbEntity
  8
A4
  6
CONTINUOUS
 62
7
100
AcDbLine
 10
103.3505985915060
 20
109.3418137297851
 30
0.000000000000000
 11
103.3505985915060
 21
137.3418137297851
 31
0.000000000000000
  0
CIRCLE
  5
B9
100
AcDbEntity
  8
A4
  6
CONTINUOUS
 62
7
100
AcDbCircle
 10
107.8505985915060
 20
113.3418137297850
 30
0.000000000000000
 40
2.149999999999999
  0
CIRCLE
  5
BA
100
AcDbEntity
  8
A4
  6
CONTINUOUS
 62
7
100
AcDbCircle
 10
107.8505985915060
 20
133.3418137297851
 30
0.000000000000000
 40
2.149999999999999
  0
CIRCLE
  5
BB
100
AcDbEntity
  8
A4
  6
CONTINUOUS
 62
7
100
AcDbCircle
 10
85.35059859150596
 20
133.3418137297851
 30
0.000000000000000
 40
2.149999999999999
  0
CIRCLE
  5
BC
100
AcDbEntity
  8
A4
  6
CONTINUOUS
 62
7
100
AcDbCircle
 10
85.35059859150596
 20
113.3418137297850
 30
0.000000000000000
 40
2.149999999999999
  0
LINE
  5
BD
100
AcDbEntity
  8
A2
  6
CENTER
 62
1
100
AcDbLine
 10
104.2005985915060
 20
113.3418137297850
 30
0.000000000000000
 11
111.5005985915059
 21
113.3418137297850
 31
0.000000000000000
  0
LINE
  5
BE
100
AcDbEntity
  8
A2
  6
CENTER
 62
1
100
AcDbLine
 10
29.35938459150596
 20
107.4993727297852
 30
0.000000000000000
 11
29.35938459150596
 21
139.5958787297851
 31
0.000000000000000
  0
LINE
  5
BF
100
AcDbEntity
  8
A2
  6
CENTER
 62
1
100
AcDbLine
 10
93.95059859150597
 20
47.25806472978515
 30
0.000000000000000
 11
102.7505985915060
 21
47.25806472978515
 31
0.000000000000000
  0
LINE
  5
C0
100
AcDbEntity
  8
A2
  6
CENTER
 62
1
100
AcDbLine
 10
98.35059859150596
 20
52.42433972978515
 30
0.000000000000000
 11
98.35059859150596
 21
41.93528472978515
 31
0.000000000000000
  0
LINE
  5
C1
100
AcDbEntity
  8
A2
  6
CENTER
 62
1
100
AcDbLine
 10
107.8505985915060
 20
109.6918137297852
 30
0.000000000000000
 11
107.8505985915060
 21
116.9918137297852
 31
0.000000000000000
  0
LINE
  5
C2
100
AcDbEntity
  8
A4
  6
CONTINUOUS
 62
7
100
AcDbLine
 10
103.3505985915060
 20
44.15806472978515
 30
0.000000000000000
 11
102.2372155915060
 21
45.36992772978515
 31
0.000000000000000
  0
LINE
  5
C3
100
AcDbEntity
  8
A4
  6
CONTINUOUS
 62
7
100
AcDbLine
 10
101.3535415915059
 20
44.55806472978516
 30
0.000000000000000
 11
102.4669245915060
 21
43.34620172978516
 31
0.000000000000000
  0
ARC
  5
C4
100
AcDbEntity
  8
A4
  6
CONTINUOUS
 62
7
100
AcDbCircle
 10
103.5509005915060
 20
123.3418227297852
 30
0.000000000000000
 40
4.299698000000000
100
AcDbArc
 50
324.4619999999998
 51
395.5380000000000
  0
LINE
  5
C5
100
AcDbEntity
  8
A4
  6
CONTINUOUS
 62
7
100
AcDbLine
 10
105.2547375915060
 20
124.5083897297852
 30
0.000000000000000
 11
107.3415655915059
 21
124.5083897297852
 31
0.000000000000000
  0
ARC
  5
C6
100
AcDbEntity
  8
A4
  6
CONTINUOUS
 62
7
100
AcDbCircle
 10
106.3502545915059
 20
125.3420377297850
 30
0.000000000000000
 40
0.8589900000000000
100
AcDbArc
 50
35.53799999999999
 51
45.69899999999998
  0
ARC
  5
C7
100
AcDbEntity
  8
A4
  6
CONTINUOUS
 62
7
100
AcDbCircle
 10
106.3502545915059
 20
125.3420377297850
 30
0.000000000000000
 40
0.8589900000000000
100
AcDbArc
 50
62.25000000000000
 51
144.4620000000000
  0
ARC
  5
C8
100
AcDbEntity
  8
A4
  6
CONTINUOUS
 62
7
100
AcDbCircle
 10
106.1837955915060
 20
125.0084437297849
 30
0.000000000000000
 40
0.1666960000000000
100
AcDbArc
 50
270.0000000000000
 51
450.0000000000000
  0
LINE
  5
C9
100
AcDbEntity
  8
A4
  6
CONTINUOUS
 62
7
100
AcDbLine
 10
106.3502545915059
 20
126.2007227297852
 30
0.000000000000000
 11
106.3502545915059
 21
125.5118807297850
 31
0.000000000000000
  0
LINE
  5
CA
100
AcDbEntity
  8
A4
  6
CONTINUOUS
 62
7
100
AcDbLine
 10
106.9741375915060
 20
125.3447447297851
 30
0.000000000000000
 11
105.5693855915060
 21
125.7216457297852
 31
0.000000000000000
  0
LINE
  5
CB
100
AcDbEntity
  8
A4
  6
CONTINUOUS
 62
7
100
AcDbLine
 10
106.3502545915059
 20
125.0084437297849
 30
0.000000000000000
 11
107.1500695915059
 21
125.0084437297849
 31
0.000000000000000
  0
LINE
  5
CC
100
AcDbEntity
  8
A4
  6
CONTINUOUS
 62
7
100
AcDbLine
 10
106.1837955915060
 20
125.1755787297851
 30
0.000000000000000
 11
105.4719455915060
 21
125.1755787297851
 31
0.000000000000000
  0
LINE
  5
CD
100
AcDbEntity
  8
A4
  6
CONTINUOUS
 62
7
100
AcDbLine
 10
105.4117225915059
 20
124.8419847297851
 30
0.000000000000000
 11
106.1837955915060
 21
124.8419847297851
 31
0.000000000000000
  0
ARC
  5
CE
100
AcDbEntity
  8
A4
  6
CONTINUOUS
 62
7
100
AcDbCircle
 10
103.5509005915060
 20
123.3418227297852
 30
0.000000000000000
 40
3.966394000000000
100
AcDbArc
 50
333.9859999999998
 51
337.0559999999999
  0
ARC
  5
CF
100
AcDbEntity
  8
A4
  6
CONTINUOUS
 62
7
100
AcDbCircle
 10
107.1723995915059
 20
121.8091817297851
 30
0.000000000000000
 40
0.03333900000000000
100
AcDbArc
 50
337.0559999999999
 51
450.0000000000000
  0
LINE
  5
D0
100
AcDbEntity
  8
A4
  6
CONTINUOUS
 62
7
100
AcDbLine
 10
105.1877475915058
 20
123.1753637297851
 30
0.000000000000000
 11
107.5134375915059
 21
123.1753637297851
 31
0.000000000000000
  0
LINE
  5
D1
100
AcDbEntity
  8
A4
  6
CONTINUOUS
 62
7
100
AcDbLine
 10
105.2154905915060
 20
122.8424457297852
 30
0.000000000000000
 11
107.4856945915060
 21
122.8424457297852
 31
0.000000000000000
  0
LINE
  5
D2
100
AcDbEntity
  8
A4
  6
CONTINUOUS
 62
7
100
AcDbLine
 10
107.3869015915058
 20
122.5088507297852
 30
0.000000000000000
 11
106.7501615915060
 21
122.5088507297852
 31
0.000000000000000
  0
LINE
  5
D3
100
AcDbEntity
  8
A4
  6
CONTINUOUS
 62
7
100
AcDbLine
 10
105.4848025915060
 20
122.1752567297851
 30
0.000000000000000
 11
107.2163825915060
 21
122.1752567297851
 31
0.000000000000000
  0
ARC
  5
D4
100
AcDbEntity
  8
A4
  6
CONTINUOUS
 62
7
100
AcDbCircle
 10
107.3869015915058
 20
122.4756947297851
 30
0.000000000000000
 40
0.03333900000000000
100
AcDbArc
 50
347.2709999999998
 51
450.0000000000000
  0
ARC
  5
D5
100
AcDbEntity
  8
A4
  6
CONTINUOUS
 62
7
100
AcDbCircle
 10
103.5509005915060
 20
123.3418227297852
 30
0.000000000000000
 40
3.966394000000000
100
AcDbArc
 50
344.7940000000000
 51
347.2709999999998
  0
ARC
  5
D6
100
AcDbEntity
  8
A4
  6
CONTINUOUS
 62
7
100
AcDbCircle
 10
103.5509005915060
 20
123.3418227297852
 30
0.000000000000000
 40
3.966394000000000
100
AcDbArc
 50
344.7419999999998
 51
344.7940000000000
  0
ARC
  5
D7
100
AcDbEntity
  8
A4
  6
CONTINUOUS
 62
7
100
AcDbCircle
 10
107.2163825915060
 20
122.3423917297850
 30
0.000000000000000
 40
0.1666960000000000
100
AcDbArc
 50
270.0000000000000
 51
344.7419999999998
  0
ARC
  5
D8
100
AcDbEntity
  8
A4
  6
CONTINUOUS
 62
7
100
AcDbCircle
 10
105.4848025915060
 20
122.3423917297850
 30
0.000000000000000
 40
0.1666960000000000
100
AcDbArc
 50
195.2574999999999
 51
270.0000000000000
  0
ARC
  5
D9
100
AcDbEntity
  8
A4
  6
CONTINUOUS
 62
7
100
AcDbCircle
 10
109.1502845915060
 20
123.3418227297852
 30
0.000000000000000
 40
3.966394000000000
100
AcDbArc
 50
193.2680999999999
 51
195.2574999999999
  0
ARC
  5
DA
100
AcDbEntity
  8
A4
  6
CONTINUOUS
 62
7
100
AcDbCircle
 10
109.1502845915060
 20
123.3418227297852
 30
0.000000000000000
 40
3.966394000000000
100
AcDbArc
 50
192.7289000000000
 51
193.2680999999999
  0
ARC
  5
DB
100
AcDbEntity
  8
A4
  6
CONTINUOUS
 62
7
100
AcDbCircle
 10
105.3142835915060
 20
122.4756947297851
 30
0.000000000000000
 40
0.03333900000000000
100
AcDbArc
 50
90.00000000000000
 51
192.7289000000000
  0
ARC
  5
DC
100
AcDbEntity
  8
A4
  6
CONTINUOUS
 62
7
100
AcDbCircle
 10
106.9653405915060
 20
121.6758797297850
 30
0.000000000000000
 40
0.1666960000000000
100
AcDbArc
 50
270.0000000000000
 51
333.9859999999998
  0
ARC
  5
DD
100
AcDbEntity
  8
A4
  6
CONTINUOUS
 62
7
100
AcDbCircle
 10
105.5281085915060
 20
121.8091817297851
 30
0.000000000000000
 40
0.03333900000000000
100
AcDbArc
 50
90.00000000000000
 51
202.9440000000000
  0
ARC
  5
DE
100
AcDbEntity
  8
A4
  6
CONTINUOUS
 62
7
100
AcDbCircle
 10
109.1502845915060
 20
123.3418227297852
 30
0.000000000000000
 40
3.966394000000000
100
AcDbArc
 50
202.9440000000000
 51
206.0144000000000
  0
ARC
  5
DF
100
AcDbEntity
  8
A4
  6
CONTINUOUS
 62
7
100
AcDbCircle
 10
105.7358445915060
 20
121.6758797297850
 30
0.000000000000000
 40
0.1666960000000000
100
AcDbArc
 50
206.0144000000000
 51
270.0000000000000
  0
ARC
  5
E0
100
AcDbEntity
  8
A4
  6
CONTINUOUS
 62
7
100
AcDbCircle
 10
106.3502545915059
 20
121.3422847297850
 30
0.000000000000000
 40
0.8589900000000000
100
AcDbArc
 50
270.0000000000000
 51
324.4619999999998
  0
ARC
  5
E1
100
AcDbEntity
  8
A4
  6
CONTINUOUS
 62
7
100
AcDbCircle
 10
106.3502545915059
 20
121.3422847297850
 30
0.000000000000000
 40
0.8589900000000000
100
AcDbArc
 50
215.5377000000000
 51
256.5374000000000
  0
LINE
  5
E2
100
AcDbEntity
  8
A4
  6
CONTINUOUS
 62
7
100
AcDbLine
 10
106.3502545915059
 20
123.1753637297851
 30
0.000000000000000
 11
106.3502545915059
 21
122.8424457297852
 31
0.000000000000000
  0
LINE
  5
E3
100
AcDbEntity
  8
A4
  6
CONTINUOUS
 62
7
100
AcDbLine
 10
105.9503465915060
 20
122.5088507297852
 30
0.000000000000000
 11
105.3142835915060
 21
122.5088507297852
 31
0.000000000000000
  0
LINE
  5
E4
100
AcDbEntity
  8
A4
  6
CONTINUOUS
 62
7
100
AcDbLine
 10
105.5281085915060
 20
121.8423387297852
 30
0.000000000000000
 11
107.1723995915059
 21
121.8423387297852
 31
0.000000000000000
  0
LINE
  5
E5
100
AcDbEntity
  8
A4
  6
CONTINUOUS
 62
7
100
AcDbLine
 10
106.9653405915060
 20
121.5087437297852
 30
0.000000000000000
 11
105.7358445915060
 21
121.5087437297852
 31
0.000000000000000
  0
LINE
  5
E6
100
AcDbEntity
  8
A4
  6
CONTINUOUS
 62
7
100
AcDbLine
 10
105.4360825915060
 20
121.1758257297851
 30
0.000000000000000
 11
106.8733145915060
 21
121.1758257297851
 31
0.000000000000000
  0
LINE
  5
E7
100
AcDbEntity
  8
A4
  6
CONTINUOUS
 62
7
100
AcDbLine
 10
107.2914925915060
 20
124.1754717297850
 30
0.000000000000000
 11
106.3502545915059
 21
124.1754717297850
 31
0.000000000000000
  0
LINE
  5
E8
100
AcDbEntity
  8
A4
  6
CONTINUOUS
 62
7
100
AcDbLine
 10
105.2533835915060
 20
123.8418767297852
 30
0.000000000000000
 11
107.4478015915059
 21
123.8418767297852
 31
0.000000000000000
  0
LINE
  5
E9
100
AcDbEntity
  8
A4
  6
CONTINUOUS
 62
7
100
AcDbLine
 10
105.1877475915058
 20
123.5089587297851
 30
0.000000000000000
 11
107.5134375915059
 21
123.5089587297851
 31
0.000000000000000
  0
ARC
  5
EA
100
AcDbEntity
  8
A4
  6
CONTINUOUS
 62
7
100
AcDbCircle
 10
103.5509005915060
 20
123.3418227297852
 30
0.000000000000000
 40
3.966394000000000
100
AcDbArc
 50
7.792999999999998
 51
10.10399999999999
  0
ARC
  5
EB
100
AcDbEntity
  8
A4
  6
CONTINUOUS
 62
7
100
AcDbCircle
 10
107.4478015915059
 20
123.8757097297849
 30
0.000000000000000
 40
0.03333900000000000
100
AcDbArc
 50
270.0000000000000
 51
367.7930000000000
  0
ARC
  5
EC
100
AcDbEntity
  8
A4
  6
CONTINUOUS
 62
7
100
AcDbCircle
 10
107.2914925915060
 20
124.0090127297852
 30
0.000000000000000
 40
0.1666960000000000
100
AcDbArc
 50
10.10399999999999
 51
90.00000000000000
  0
ARC
  5
ED
100
AcDbEntity
  8
A4
  6
CONTINUOUS
 62
7
100
AcDbCircle
 10
105.2533835915060
 20
123.8757097297849
 30
0.000000000000000
 40
0.03333900000000000
100
AcDbArc
 50
172.2069999999999
 51
270.0000000000000
  0
ARC
  5
EE
100
AcDbEntity
  8
A4
  6
CONTINUOUS
 62
7
100
AcDbCircle
 10
109.1502845915060
 20
123.3418227297852
 30
0.000000000000000
 40
3.966394000000000
100
AcDbArc
 50
169.8960000000000
 51
172.2069999999999
  0
ARC
  5
EF
100
AcDbEntity
  8
A4
  6
CONTINUOUS
 62
7
100
AcDbCircle
 10
105.4096925915060
 20
124.0090127297852
 30
0.000000000000000
 40
0.1666960000000000
100
AcDbArc
 50
90.00000000000000
 51
169.8960000000000
  0
LINE
  5
F0
100
AcDbEntity
  8
A4
  6
CONTINUOUS
 62
7
100
AcDbLine
 10
106.3502545915059
 20
124.1754717297850
 30
0.000000000000000
 11
106.3502545915059
 21
124.0090127297852
 31
0.000000000000000
  0
LINE
  5
F1
100
AcDbEntity
  8
A4
  6
CONTINUOUS
 62
7
100
AcDbLine
 10
105.9503465915060
 20
124.1754717297850
 30
0.000000000000000
 11
105.4096925915060
 21
124.1754717297850
 31
0.000000000000000
  0
ARC
  5
F2
100
AcDbEntity
  8
A4
  6
CONTINUOUS
 62
7
100
AcDbCircle
 10
109.1502845915060
 20
123.3418227297852
 30
0.000000000000000
 40
4.299698000000000
100
AcDbArc
 50
144.4620000000000
 51
215.5377000000000
  0
LINE
  5
F3
100
AcDbEntity
  8
A2
  6
CENTER
 62
1
100
AcDbLine
 10
81.70059859150597
 20
113.3418137297850
 30
0.000000000000000
 11
89.00059859150598
 21
113.3418137297850
 31
0.000000000000000
  0
LINE
  5
F4
100
AcDbEntity
  8
A2
  6
CENTER
 62
1
100
AcDbLine
 10
85.35059859150596
 20
109.6918137297852
 30
0.000000000000000
 11
85.35059859150596
 21
116.9918137297852
 31
0.000000000000000
  0
LINE
  5
F5
100
AcDbEntity
  8
A2
  6
CENTER
 62
1
100
AcDbLine
 10
85.35059859150596
 20
129.6918137297852
 30
0.000000000000000
 11
85.35059859150596
 21
136.9918137297852
 31
0.000000000000000
  0
LINE
  5
F6
100
AcDbEntity
  8
A2
  6
CENTER
 62
1
100
AcDbLine
 10
81.70059859150597
 20
133.3418137297851
 30
0.000000000000000
 11
89.00059859150598
 21
133.3418137297851
 31
0.000000000000000
  0
LINE
  5
F7
100
AcDbEntity
  8
A2
  6
CENTER
 62
1
100
AcDbLine
 10
104.2005985915060
 20
133.3418137297851
 30
0.000000000000000
 11
111.5005985915059
 21
133.3418137297851
 31
0.000000000000000
  0
LINE
  5
F8
100
AcDbEntity
  8
A2
  6
CENTER
 62
1
100
AcDbLine
 10
107.8505985915060
 20
129.6918137297852
 30
0.000000000000000
 11
107.8505985915060
 21
136.9918137297852
 31
0.000000000000000
  0
ARC
  5
F9
100
AcDbEntity
  8
A4
  6
CONTINUOUS
 62
7
100
AcDbCircle
 10
98.35059859150596
 20
48.19113772978514
 30
0.000000000000000
 40
2.366927000000000
100
AcDbArc
 50
39.53315700000000
 51
140.7105929999999
  0
ARC
  5
FA
100
AcDbEntity
  8
A4
  6
CONTINUOUS
 62
7
100
AcDbCircle
 10
99.49102059150596
 20
47.25806472978515
 30
0.000000000000000
 40
3.840421999999998
100
AcDbArc
 50
140.7105929999999
 51
180.0000000000000
  0
ARC
  5
FB
100
AcDbEntity
  8
A4
  6
CONTINUOUS
 62
7
100
AcDbCircle
 10
98.35059859150596
 20
47.25806472978515
 30
0.000000000000000
 40
2.900000000000000
100
AcDbArc
 50
139.6150240000000
 51
291.4033500000000
  0
ARC
  5
FC
100
AcDbEntity
  8
A4
  6
CONTINUOUS
 62
7
100
AcDbCircle
 10
99.25059859150598
 20
48.93391572978515
 30
0.000000000000000
 40
1.199999999999999
100
AcDbArc
 50
0.000000000000000
 51
39.53315700000000
  0
ARC
  5
FD
100
AcDbEntity
  8
A4
  6
CONTINUOUS
 62
7
100
AcDbCircle
 10
98.35059859150596
 20
48.19113772978514
 30
0.000000000000000
 40
1.166927000000000
100
AcDbArc
 50
39.53315700000000
 51
140.7105929999999
  0
ARC
  5
FE
100
AcDbEntity
  8
A4
  6
CONTINUOUS
 62
7
100
AcDbCircle
 10
99.49102059150596
 20
47.25806472978515
 30
0.000000000000000
 40
2.640422000000000
100
AcDbArc
 50
140.7105929999999
 51
180.0000000000000
  0
LINE
  5
FF
100
AcDbEntity
  8
A4
  6
CONTINUOUS
 62
7
100
AcDbLine
 10
26.65938459150596
 20
109.3418137297851
 30
0.000000000000000
 11
26.65938459150596
 21
116.2418137297852
 31
0.000000000000000
  0
LINE
  5
100
100
AcDbEntity
  8
A4
  6
CONTINUOUS
 62
7
100
AcDbLine
 10
26.65938459150596
 20
137.3418137297851
 30
0.000000000000000
 11
26.65938459150596
 21
130.4418137297851
 31
0.000000000000000
  0
LINE
  5
101
100
AcDbEntity
  8
A4
  6
CONTINUOUS
 62
7
100
AcDbLine
 10
163.8418125915060
 20
137.3418137297851
 30
0.000000000000000
 11
163.8418125915060
 21
130.4418137297851
 31
0.000000000000000
  0
LINE
  5
102
100
AcDbEntity
  8
A2
  6
CENTER
 62
1
100
AcDbLine
 10
162.3418125915060
 20
107.4993727297852
 30
0.000000000000000
 11
162.3418125915060
 21
139.5958787297851
 31
0.000000000000000
  0
LINE
  5
103
100
AcDbEntity
  8
A4
  6
CONTINUOUS
 62
7
100
AcDbLine
 10
159.0418125915060
 20
130.4418137297851
 30
0.000000000000000
 11
159.0418125915060
 21
137.3418137297851
 31
0.000000000000000
  0
LINE
  5
104
100
AcDbEntity
  8
A4
  6
CONTINUOUS
 62
7
100
AcDbLine
 10
165.4418125915060
 20
109.3418137297851
 30
0.000000000000000
 11
165.4418125915060
 21
137.3418137297851
 31
0.000000000000000
  0
LINE
  5
105
100
AcDbEntity
  8
A4
  6
CONTINUOUS
 62
7
100
AcDbLine
 10
166.6418125915060
 20
109.3418137297851
 30
0.000000000000000
 11
166.6418125915060
 21
137.3418137297851
 31
0.000000000000000
  0
LINE
  5
106
100
AcDbEntity
  8
A4
  6
CONTINUOUS
 62
7
100
AcDbLine
 10
163.8418125915060
 20
109.3418137297851
 30
0.000000000000000
 11
163.8418125915060
 21
116.2418137297852
 31
0.000000000000000
  0
LINE
  5
107
100
AcDbEntity
  8
A4
  6
CONTINUOUS
 62
7
100
AcDbLine
 10
159.0418125915060
 20
109.3418137297851
 30
0.000000000000000
 11
159.0418125915060
 21
116.2418137297852
 31
0.000000000000000
  0
LINE
  5
108
100
AcDbEntity
  8
A2
  6
CENTER
 62
1
100
AcDbLine
 10
164.1418125915059
 20
113.3418137297850
 30
0.000000000000000
 11
167.6900805915058
 21
113.3418137297850
 31
0.000000000000000
  0
LINE
  5
109
100
AcDbEntity
  8
A4
  6
CONTINUOUS
 62
7
100
AcDbLine
 10
159.0418125915060
 20
109.3418137297851
 30
0.000000000000000
 11
166.6418125915060
 21
109.3418137297851
 31
0.000000000000000
  0
LINE
  5
10A
100
AcDbEntity
  8
A4
  6
CONTINUOUS
 62
7
100
AcDbLine
 10
159.4418125915058
 20
116.6418137297852
 30
0.000000000000000
 11
159.4418125915058
 21
130.0418137297852
 31
0.000000000000000
  0
LINE
  5
10B
100
AcDbEntity
  8
A4
  6
CONTINUOUS
 62
7
100
AcDbLine
 10
165.2418125915059
 20
129.5418137297851
 30
0.000000000000000
 11
165.2418125915059
 21
130.0418137297852
 31
0.000000000000000
  0
LINE
  5
10C
100
AcDbEntity
  8
A4
  6
CONTINUOUS
 62
7
100
AcDbLine
 10
165.2418125915059
 20
116.6418137297852
 30
0.000000000000000
 11
165.2418125915059
 21
117.1418137297852
 31
0.000000000000000
  0
LINE
  5
10D
100
AcDbEntity
  8
A4
  6
CONTINUOUS
 62
7
100
AcDbLine
 10
159.0418125915060
 20
130.4418137297851
 30
0.000000000000000
 11
165.4418125915060
 21
130.4418137297851
 31
0.000000000000000
  0
LINE
  5
10E
100
AcDbEntity
  8
A4
  6
CONTINUOUS
 62
7
100
AcDbLine
 10
159.0418125915060
 20
116.2418137297852
 30
0.000000000000000
 11
165.4418125915060
 21
116.2418137297852
 31
0.000000000000000
  0
LINE
  5
10F
100
AcDbEntity
  8
A4
  6
CONTINUOUS
 62
7
100
AcDbLine
 10
159.4418125915058
 20
130.0418137297852
 30
0.000000000000000
 11
165.2418125915059
 21
130.0418137297852
 31
0.000000000000000
  0
LINE
  5
110
100
AcDbEntity
  8
A4
  6
CONTINUOUS
 62
7
100
AcDbLine
 10
159.4418125915058
 20
116.6418137297852
 30
0.000000000000000
 11
165.2418125915059
 21
116.6418137297852
 31
0.000000000000000
  0
LINE
  5
111
100
AcDbEntity
  8
A4
  6
CONTINUOUS
 62
7
100
AcDbLine
 10
160.9418125915060
 20
130.0418137297852
 30
0.000000000000000
 11
160.9418125915060
 21
130.4418137297851
 31
0.000000000000000
  0
LINE
  5
112
100
AcDbEntity
  8
A4
  6
CONTINUOUS
 62
7
100
AcDbLine
 10
160.9418125915060
 20
116.2418137297852
 30
0.000000000000000
 11
160.9418125915060
 21
116.6418137297852
 31
0.000000000000000
  0
LINE
  5
113
100
AcDbEntity
  8
A4
  6
CONTINUOUS
 62
7
100
AcDbLine
 10
163.9418125915060
 20
130.0418137297852
 30
0.000000000000000
 11
163.9418125915060
 21
130.4418137297851
 31
0.000000000000000
  0
LINE
  5
114
100
AcDbEntity
  8
A4
  6
CONTINUOUS
 62
7
100
AcDbLine
 10
163.9418125915060
 20
116.2418137297852
 30
0.000000000000000
 11
163.9418125915060
 21
116.6418137297852
 31
0.000000000000000
  0
LINE
  5
115
100
AcDbEntity
  8
A2
  6
CENTER
 62
1
100
AcDbLine
 10
157.5241975915059
 20
123.3418137297850
 30
0.000000000000000
 11
167.6900805915058
 21
123.3418137297850
 31
0.000000000000000
  0
LINE
  5
116
100
AcDbEntity
  8
A2
  6
CENTER
 62
1
100
AcDbLine
 10
164.1418125915059
 20
133.3418137297851
 30
0.000000000000000
 11
167.6900805915058
 21
133.3418137297851
 31
0.000000000000000
  0
LINE
  5
117
100
AcDbEntity
  8
A4
  6
CONTINUOUS
 62
7
100
AcDbLine
 10
159.4418125915058
 20
129.5418137297851
 30
0.000000000000000
 11
165.4418125915060
 21
129.5418137297851
 31
0.000000000000000
  0
LINE
  5
118
100
AcDbEntity
  8
A4
  6
CONTINUOUS
 62
7
100
AcDbLine
 10
159.4418125915058
 20
128.3418137297851
 30
0.000000000000000
 11
165.4418125915060
 21
128.3418137297851
 31
0.000000000000000
  0
LINE
  5
119
100
AcDbEntity
  8
A4
  6
CONTINUOUS
 62
7
100
AcDbLine
 10
159.4418125915058
 20
118.3418137297850
 30
0.000000000000000
 11
165.4418125915060
 21
118.3418137297850
 31
0.000000000000000
  0
LINE
  5
11A
100
AcDbEntity
  8
A4
  6
CONTINUOUS
 62
7
100
AcDbLine
 10
159.4418125915058
 20
117.1418137297852
 30
0.000000000000000
 11
165.4418125915060
 21
117.1418137297852
 31
0.000000000000000
  0
LINE
  5
11B
100
AcDbEntity
  8
A4
  6
CONTINUOUS
 62
7
100
AcDbLine
 10
159.0418125915060
 20
137.3418137297851
 30
0.000000000000000
 11
166.6418125915060
 21
137.3418137297851
 31
0.000000000000000
  0
LINE
  5
11C
100
AcDbEntity
  8
A2
  6
CENTER
 62
1
100
AcDbLine
 10
243.9830265915058
 20
133.3418137297851
 30
0.000000000000000
 11
236.6830265915059
 21
133.3418137297851
 31
0.000000000000000
  0
LINE
  5
11D
100
AcDbEntity
  8
A2
  6
CENTER
 62
1
100
AcDbLine
 10
243.9830265915058
 20
113.3418137297850
 30
0.000000000000000
 11
236.6830265915059
 21
113.3418137297850
 31
0.000000000000000
  0
LINE
  5
11E
100
AcDbEntity
  8
A4
  6
CONTINUOUS
 62
7
100
AcDbLine
 10
232.2330265915060
 20
137.3418137297851
 30
0.000000000000000
 11
244.8330265915060
 21
137.3418137297851
 31
0.000000000000000
  0
LINE
  5
11F
100
AcDbEntity
  8
A4
  6
CONTINUOUS
 62
7
100
AcDbLine
 10
232.2330265915060
 20
109.3418137297851
 30
0.000000000000000
 11
244.8330265915060
 21
109.3418137297851
 31
0.000000000000000
  0
ARC
  5
120
100
AcDbEntity
  8
A4
  6
CONTINUOUS
 62
7
100
AcDbCircle
 10
244.8330265915060
 20
135.3418137297851
 30
0.000000000000000
 40
2.000000000000000
100
AcDbArc
 50
0.000000000000000
 51
90.00000000000000
  0
LINE
  5
121
100
AcDbEntity
  8
A4
  6
CONTINUOUS
 62
7
100
AcDbLine
 10
246.8330265915060
 20
135.3418137297851
 30
0.000000000000000
 11
246.8330265915060
 21
111.3418137297851
 31
0.000000000000000
  0
ARC
  5
122
100
AcDbEntity
  8
A4
  6
CONTINUOUS
 62
7
100
AcDbCircle
 10
244.8330265915060
 20
111.3418137297851
 30
0.000000000000000
 40
2.000000000000000
100
AcDbArc
 50
270.0000000000000
 51
360.0000000000000
  0
LINE
  5
123
100
AcDbEntity
  8
A2
  6
CENTER
 62
1
100
AcDbLine
 10
217.8330265915060
 20
129.6918137297852
 30
0.000000000000000
 11
217.8330265915060
 21
136.9918137297852
 31
0.000000000000000
  0
LINE
  5
124
100
AcDbEntity
  8
A2
  6
CENTER
 62
1
100
AcDbLine
 10
240.3330265915060
 20
129.6918137297852
 30
0.000000000000000
 11
240.3330265915060
 21
136.9918137297852
 31
0.000000000000000
  0
LINE
  5
125
100
AcDbEntity
  8
A4
  6
CONTINUOUS
 62
7
100
AcDbLine
 10
222.3330265915059
 20
116.9918137297852
 30
0.000000000000000
 11
222.3330265915059
 21
129.6918137297852
 31
0.000000000000000
  0
LINE
  5
126
100
AcDbEntity
  8
A4
  6
CONTINUOUS
 62
7
100
AcDbLine
 10
230.0330265915059
 20
137.3418137297851
 30
0.000000000000000
 11
230.0330265915059
 21
130.4418137297851
 31
0.000000000000000
  0
LINE
  5
127
100
AcDbEntity
  8
A2
  6
CENTER
 62
1
100
AcDbLine
 10
227.3330265915060
 20
139.5958787297851
 30
0.000000000000000
 11
227.3330265915060
 21
106.1565777297852
 31
0.000000000000000
  0
ARC
  5
128
100
AcDbEntity
  8
A4
  6
CONTINUOUS
 62
7
100
AcDbCircle
 10
214.8330265915060
 20
135.3418137297851
 30
0.000000000000000
 40
2.000000000000000
100
AcDbArc
 50
90.00000000000000
 51
180.0000000000000
  0
LINE
  5
129
100
AcDbEntity
  8
A4
  6
CONTINUOUS
 62
7
100
AcDbLine
 10
232.2330265915060
 20
137.3418137297851
 30
0.000000000000000
 11
232.2330265915060
 21
128.3418137297851
 31
0.000000000000000
  0
LINE
  5
12A
100
AcDbEntity
  8
A2
  6
CENTER
 62
1
100
AcDbLine
 10
240.3330265915060
 20
109.6918137297852
 30
0.000000000000000
 11
240.3330265915060
 21
116.9918137297852
 31
0.000000000000000
  0
LINE
  5
12B
100
AcDbEntity
  8
A2
  6
CENTER
 62
1
100
AcDbLine
 10
217.8330265915060
 20
109.6918137297852
 30
0.000000000000000
 11
217.8330265915060
 21
116.9918137297852
 31
0.000000000000000
  0
CIRCLE
  5
12C
100
AcDbEntity
  8
A4
  6
CONTINUOUS
 62
7
100
AcDbCircle
 10
240.3330265915060
 20
113.3418137297850
 30
0.000000000000000
 40
2.149999999999999
  0
CIRCLE
  5
12D
100
AcDbEntity
  8
A4
  6
CONTINUOUS
 62
7
100
AcDbCircle
 10
217.8330265915060
 20
113.3418137297850
 30
0.000000000000000
 40
2.149999999999999
  0
LINE
  5
12E
100
AcDbEntity
  8
A4
  6
CONTINUOUS
 62
7
100
AcDbLine
 10
230.0330265915059
 20
116.2418137297852
 30
0.000000000000000
 11
230.0330265915059
 21
109.3418137297851
 31
0.000000000000000
  0
LINE
  5
12F
100
AcDbEntity
  8
A4
  6
CONTINUOUS
 62
7
100
AcDbLine
 10
232.2330265915060
 20
118.3418137297850
 30
0.000000000000000
 11
232.2330265915060
 21
109.3418137297851
 31
0.000000000000000
  0
LINE
  5
130
100
AcDbEntity
  8
A4
  6
CONTINUOUS
 62
7
100
AcDbLine
 10
212.8330265915060
 20
135.3418137297851
 30
0.000000000000000
 11
212.8330265915060
 21
111.3418137297851
 31
0.000000000000000
  0
LINE
  5
131
100
AcDbEntity
  8
A4
  6
CONTINUOUS
 62
7
100
AcDbLine
 10
214.8330265915060
 20
109.3418137297851
 30
0.000000000000000
 11
230.0330265915059
 21
109.3418137297851
 31
0.000000000000000
  0
LINE
  5
132
100
AcDbEntity
  8
A2
  6
CENTER
 62
1
100
AcDbLine
 10
221.4830265915060
 20
113.3418137297850
 30
0.000000000000000
 11
214.1830265915059
 21
113.3418137297850
 31
0.000000000000000
  0
ARC
  5
133
100
AcDbEntity
  8
A4
  6
CONTINUOUS
 62
7
100
AcDbCircle
 10
214.8330265915060
 20
111.3418137297851
 30
0.000000000000000
 40
2.000000000000000
100
AcDbArc
 50
180.0000000000000
 51
270.0000000000000
  0
LINE
  5
134
100
AcDbEntity
  8
A4
  6
CONTINUOUS
 62
7
100
AcDbLine
 10
223.0830265915060
 20
130.4418137297851
 30
0.000000000000000
 11
230.0330265915059
 21
130.4418137297851
 31
0.000000000000000
  0
LINE
  5
135
100
AcDbEntity
  8
A4
  6
CONTINUOUS
 62
7
100
AcDbLine
 10
223.0830265915060
 20
116.2418137297852
 30
0.000000000000000
 11
230.0330265915059
 21
116.2418137297852
 31
0.000000000000000
  0
LINE
  5
136
100
AcDbEntity
  8
A4
  6
CONTINUOUS
 62
7
100
AcDbLine
 10
224.4330265915059
 20
130.0418137297852
 30
0.000000000000000
 11
230.2330265915060
 21
130.0418137297852
 31
0.000000000000000
  0
LINE
  5
137
100
AcDbEntity
  8
A4
  6
CONTINUOUS
 62
7
100
AcDbLine
 10
224.4330265915059
 20
116.6418137297852
 30
0.000000000000000
 11
230.2330265915060
 21
116.6418137297852
 31
0.000000000000000
  0
LINE
  5
138
100
AcDbEntity
  8
A4
  6
CONTINUOUS
 62
7
100
AcDbLine
 10
224.4330265915059
 20
117.1418137297852
 30
0.000000000000000
 11
230.2330265915060
 21
117.1418137297852
 31
0.000000000000000
  0
LINE
  5
139
100
AcDbEntity
  8
A4
  6
CONTINUOUS
 62
7
100
AcDbLine
 10
224.4330265915059
 20
129.5418137297851
 30
0.000000000000000
 11
230.2330265915060
 21
129.5418137297851
 31
0.000000000000000
  0
LINE
  5
13A
100
AcDbEntity
  8
A4
  6
CONTINUOUS
 62
7
100
AcDbLine
 10
224.4330265915059
 20
128.3418137297851
 30
0.000000000000000
 11
225.0330265915060
 21
128.3418137297851
 31
0.000000000000000
  0
LINE
  5
13B
100
AcDbEntity
  8
A4
  6
CONTINUOUS
 62
7
100
AcDbLine
 10
224.4330265915059
 20
118.3418137297850
 30
0.000000000000000
 11
225.0330265915060
 21
118.3418137297850
 31
0.000000000000000
  0
CIRCLE
  5
13C
100
AcDbEntity
  8
A4
  6
CONTINUOUS
 62
7
100
AcDbCircle
 10
240.3330265915060
 20
133.3418137297851
 30
0.000000000000000
 40
2.149999999999999
  0
LINE
  5
13D
100
AcDbEntity
  8
A4
  6
CONTINUOUS
 62
7
100
AcDbLine
 10
230.2330265915060
 20
130.0418137297852
 30
0.000000000000000
 11
230.2330265915060
 21
129.5418137297851
 31
0.000000000000000
  0
LINE
  5
13E
100
AcDbEntity
  8
A4
  6
CONTINUOUS
 62
7
100
AcDbLine
 10
230.2330265915060
 20
117.1418137297852
 30
0.000000000000000
 11
230.2330265915060
 21
116.6418137297852
 31
0.000000000000000
  0
LINE
  5
13F
100
AcDbEntity
  8
A4
  6
CONTINUOUS
 62
7
100
AcDbLine
 10
228.8330265915058
 20
130.4418137297851
 30
0.000000000000000
 11
228.8330265915058
 21
130.0418137297852
 31
0.000000000000000
  0
LINE
  5
140
100
AcDbEntity
  8
A4
  6
CONTINUOUS
 62
7
100
AcDbLine
 10
228.8330265915058
 20
116.6418137297852
 30
0.000000000000000
 11
228.8330265915058
 21
116.2418137297852
 31
0.000000000000000
  0
LINE
  5
141
100
AcDbEntity
  8
A2
  6
CENTER
 62
1
100
AcDbLine
 10
229.5339225915060
 20
123.3418137297850
 30
0.000000000000000
 11
238.9321305915060
 21
123.3418137297850
 31
0.000000000000000
  0
LINE
  5
142
100
AcDbEntity
  8
A2
  6
CENTER
 62
1
100
AcDbLine
 10
234.2330265915060
 20
128.0409177297851
 30
0.000000000000000
 11
234.2330265915060
 21
118.6427097297851
 31
0.000000000000000
  0
LINE
  5
143
100
AcDbEntity
  8
A4
  6
CONTINUOUS
 62
7
100
AcDbLine
 10
230.2330265915060
 20
118.3418137297850
 30
0.000000000000000
 11
230.2330265915060
 21
117.1418137297852
 31
0.000000000000000
  0
LINE
  5
144
100
AcDbEntity
  8
A4
  6
CONTINUOUS
 62
7
100
AcDbLine
 10
230.2330265915060
 20
129.5418137297851
 30
0.000000000000000
 11
230.2330265915060
 21
128.3418137297851
 31
0.000000000000000
  0
LINE
  5
145
100
AcDbEntity
  8
A2
  6
CENTER
 62
1
100
AcDbLine
 10
221.4830265915060
 20
133.3418137297851
 30
0.000000000000000
 11
214.1830265915059
 21
133.3418137297851
 31
0.000000000000000
  0
CIRCLE
  5
146
100
AcDbEntity
  8
A4
  6
CONTINUOUS
 62
7
100
AcDbCircle
 10
217.8330265915060
 20
133.3418137297851
 30
0.000000000000000
 40
2.149999999999999
  0
ARC
  5
147
100
AcDbEntity
  8
A4
  6
CONTINUOUS
 62
7
100
AcDbCircle
 10
223.0830265915060
 20
116.9918137297852
 30
0.000000000000000
 40
0.7500000000000000
100
AcDbArc
 50
180.0000000000000
 51
270.0000000000000
  0
ARC
  5
148
100
AcDbEntity
  8
A4
  6
CONTINUOUS
 62
7
100
AcDbCircle
 10
223.0830265915060
 20
129.6918137297852
 30
0.000000000000000
 40
0.7500000000000000
100
AcDbArc
 50
90.00000000000000
 51
180.0000000000000
  0
LINE
  5
149
100
AcDbEntity
  8
A4
  6
CONTINUOUS
 62
7
100
AcDbLine
 10
224.4330265915059
 20
130.0418137297852
 30
0.000000000000000
 11
224.4330265915059
 21
116.6418137297852
 31
0.000000000000000
  0
LINE
  5
14A
100
AcDbEntity
  8
A4
  6
CONTINUOUS
 62
7
100
AcDbLine
 10
226.4330265915059
 20
116.6418137297852
 30
0.000000000000000
 11
226.4330265915059
 21
116.2418137297852
 31
0.000000000000000
  0
LINE
  5
14B
100
AcDbEntity
  8
A4
  6
CONTINUOUS
 62
7
100
AcDbLine
 10
226.4330265915059
 20
130.4418137297851
 30
0.000000000000000
 11
226.4330265915059
 21
130.0418137297852
 31
0.000000000000000
  0
LINE
  5
14C
100
AcDbEntity
  8
A4
  6
CONTINUOUS
 62
7
100
AcDbLine
 10
225.0330265915060
 20
129.5418137297851
 30
0.000000000000000
 11
225.0330265915060
 21
117.1418137297852
 31
0.000000000000000
  0
LINE
  5
14D
100
AcDbEntity
  8
A4
  6
CONTINUOUS
 62
7
100
AcDbLine
 10
214.8330265915060
 20
137.3418137297851
 30
0.000000000000000
 11
230.0330265915059
 21
137.3418137297851
 31
0.000000000000000
  0
LINE
  5
14E
100
AcDbEntity
  8
A4
  6
CONTINUOUS
 62
7
100
AcDbLine
 10
163.5418125915060
 20
136.3418137297851
 30
0.000000000000000
 11
163.5418125915060
 21
131.4418137297851
 31
0.000000000000000
  0
LINE
  5
14F
100
AcDbEntity
  8
A4
  6
CONTINUOUS
 62
7
100
AcDbLine
 10
163.5418125915060
 20
110.3418137297851
 30
0.000000000000000
 11
163.5418125915060
 21
115.2418137297852
 31
0.000000000000000
  0
LINE
  5
150
100
AcDbEntity
  8
A4
  6
CONTINUOUS
 62
7
100
AcDbLine
 10
230.2330265915060
 20
118.3418137297850
 30
0.000000000000000
 11
232.2330265915060
 21
118.3418137297850
 31
0.000000000000000
  0
LINE
  5
151
100
AcDbEntity
  8
A4
  6
CONTINUOUS
 62
7
100
AcDbLine
 10
230.2330265915060
 20
128.3418137297851
 30
0.000000000000000
 11
232.2330265915060
 21
128.3418137297851
 31
0.000000000000000
  0
CIRCLE
  5
152
100
AcDbEntity
  8
A4
  6
CONTINUOUS
 62
7
100
AcDbCircle
 10
234.2330265915060
 20
123.3418137297850
 30
0.000000000000000
 40
2.500000000000000
  0
LINE
  5
153
100
AcDbEntity
  8
A3
  6
PHANTOM
 62
6
100
AcDbLine
 10
117.8505985915059
 20
50.35806472978514
 30
0.000000000000000
 11
101.2505985915059
 21
50.35806472978514
 31
0.000000000000000
  0
LINE
  5
154
100
AcDbEntity
  8
A3
  6
PHANTOM
 62
6
100
AcDbLine
 10
117.8505985915059
 20
50.35806472978514
 30
0.000000000000000
 11
117.8505985915059
 21
51.55806472978515
 31
0.000000000000000
  0
LINE
  5
155
100
AcDbEntity
  8
A3
  6
PHANTOM
 62
6
100
AcDbLine
 10
117.8505985915059
 20
51.55806472978515
 30
0.000000000000000
 11
96.25059859150596
 21
51.55806472978515
 31
0.000000000000000
  0
LINE
  5
156
100
AcDbEntity
  8
A3
  6
PHANTOM
 62
6
100
AcDbLine
 10
103.2505985915059
 20
50.35806472978514
 30
0.000000000000000
 11
103.2505985915059
 21
51.55806472978515
 31
0.000000000000000
  0
LINE
  5
157
100
AcDbEntity
  8
A3
  6
PHANTOM
 62
6
100
AcDbLine
 10
96.25059859150596
 20
49.31925572978513
 30
0.000000000000000
 11
96.25059859150596
 21
51.55806472978515
 31
0.000000000000000
  0
LINE
  5
158
100
AcDbEntity
  8
A3
  6
PHANTOM
 62
6
100
AcDbLine
 10
101.2505985915059
 20
47.35806472978515
 30
0.000000000000000
 11
101.2505985915059
 21
51.55806472978515
 31
0.000000000000000
  0
LINE
  5
159
100
AcDbEntity
  8
A2
  6
CENTER
 62
1
100
AcDbLine
 10
107.8505985915060
 20
200.3111117297852
 30
0.000000000000000
 11
107.8505985915060
 21
206.2128697297852
 31
0.000000000000000
  0
LINE
  5
15A
100
AcDbEntity
  8
A4
  6
CONTINUOUS
 62
7
100
AcDbLine
 10
95.45059859150597
 20
199.5255627297850
 30
0.000000000000000
 11
95.45059859150597
 21
203.7255627297851
 31
0.000000000000000
  0
LINE
  5
15B
100
AcDbEntity
  8
A2
  6
CENTER
 62
1
100
AcDbLine
 10
85.35059859150596
 20
200.3111117297852
 30
0.000000000000000
 11
85.35059859150596
 21
206.2128697297852
 31
0.000000000000000
  0
ARC
  5
15C
100
AcDbEntity
  8
A4
  6
CONTINUOUS
 62
7
100
AcDbCircle
 10
98.35059859150596
 20
199.4255627297850
 30
0.000000000000000
 40
2.700000000000000
100
AcDbArc
 50
90.00000000000000
 51
180.0000000000000
  0
LINE
  5
15D
100
AcDbEntity
  8
A4
  6
CONTINUOUS
 62
7
100
AcDbLine
 10
87.95059859150597
 20
198.7255627297851
 30
0.000000000000000
 11
87.95059859150597
 21
202.5255627297852
 31
0.000000000000000
  0
ARC
  5
15E
100
AcDbEntity
  8
A4
  6
CONTINUOUS
 62
7
100
AcDbCircle
 10
98.35059859150596
 20
199.4255627297850
 30
0.000000000000000
 40
1.500000000000000
100
AcDbArc
 50
53.13010200000000
 51
306.8698979999999
  0
LINE
  5
15F
100
AcDbEntity
  8
A2
  6
CENTER
 62
1
100
AcDbLine
 10
91.45059859150597
 20
196.4470567297851
 30
0.000000000000000
 11
91.45059859150597
 21
206.9692997297851
 31
0.000000000000000
  0
ARC
  5
160
100
AcDbEntity
  8
A4
  6
CONTINUOUS
 62
7
100
AcDbCircle
 10
98.35059859150596
 20
199.4255627297850
 30
0.000000000000000
 40
2.900000000000000
100
AcDbArc
 50
314.5558770000000
 51
391.1473899999999
  0
LINE
  5
161
100
AcDbEntity
  8
A2
  6
CENTER
 62
1
100
AcDbLine
 10
98.35059859150596
 20
194.3013777297851
 30
0.000000000000000
 11
98.35059859150596
 21
204.8812537297850
 31
0.000000000000000
  0
ARC
  5
162
100
AcDbEntity
  8
A4
  6
CONTINUOUS
 62
7
100
AcDbCircle
 10
98.35059859150596
 20
199.4255627297850
 30
0.000000000000000
 40
2.900000000000000
100
AcDbArc
 50
68.59665000000000
 51
220.3849759999999
  0
LINE
  5
163
100
AcDbEntity
  8
A4
  6
CONTINUOUS
 62
7
100
AcDbLine
 10
78.85059859150594
 20
203.7255627297851
 30
0.000000000000000
 11
100.4505985915060
 21
203.7255627297851
 31
0.000000000000000
  0
LINE
  5
164
100
AcDbEntity
  8
A4
  6
CONTINUOUS
 62
7
100
AcDbLine
 10
78.85059859150594
 20
202.5255627297852
 30
0.000000000000000
 11
95.45059859150597
 21
202.5255627297852
 31
0.000000000000000
  0
LINE
  5
165
100
AcDbEntity
  8
A4
  6
CONTINUOUS
 62
7
100
AcDbLine
 10
78.85059859150594
 20
202.5255627297852
 30
0.000000000000000
 11
78.85059859150594
 21
203.7255627297851
 31
0.000000000000000
  0
LINE
  5
166
100
AcDbEntity
  8
A4
  6
CONTINUOUS
 62
7
100
AcDbLine
 10
87.95059859150597
 20
201.7255627297851
 30
0.000000000000000
 11
95.45059859150597
 21
201.7255627297851
 31
0.000000000000000
  0
LINE
  5
167
100
AcDbEntity
  8
A4
  6
CONTINUOUS
 62
7
100
AcDbLine
 10
87.95059859150597
 20
200.7255627297851
 30
0.000000000000000
 11
95.45059859150597
 21
200.7255627297851
 31
0.000000000000000
  0
LINE
  5
168
100
AcDbEntity
  8
A4
  6
CONTINUOUS
 62
7
100
AcDbLine
 10
93.45059859150597
 20
202.5255627297852
 30
0.000000000000000
 11
93.45059859150597
 21
203.7255627297851
 31
0.000000000000000
  0
LINE
  5
169
100
AcDbEntity
  8
A4
  6
CONTINUOUS
 62
7
100
AcDbLine
 10
112.8505985915060
 20
203.7255627297851
 30
0.000000000000000
 11
103.3505985915060
 21
203.7255627297851
 31
0.000000000000000
  0
LINE
  5
16A
100
AcDbEntity
  8
A4
  6
CONTINUOUS
 62
7
100
AcDbLine
 10
112.8505985915060
 20
202.5255627297852
 30
0.000000000000000
 11
103.3505985915060
 21
202.5255627297852
 31
0.000000000000000
  0
LINE
  5
16B
100
AcDbEntity
  8
A4
  6
CONTINUOUS
 62
7
100
AcDbLine
 10
100.4505985915060
 20
202.1255627297851
 30
0.000000000000000
 11
100.4505985915060
 21
203.7255627297851
 31
0.000000000000000
  0
ARC
  5
16C
100
AcDbEntity
  8
A4
  6
CONTINUOUS
 62
7
100
AcDbCircle
 10
103.3505985915060
 20
202.5255627297852
 30
0.000000000000000
 40
1.199999999999999
100
AcDbArc
 50
90.00000000000000
 51
137.4251710000000
  0
ARC
  5
16D
100
AcDbEntity
  8
A4
  6
CONTINUOUS
 62
7
100
AcDbCircle
 10
101.3535415915059
 20
202.1255627297851
 30
0.000000000000000
 40
1.199999999999999
100
AcDbArc
 50
270.0000000000000
 51
317.4251710000000
  0
LINE
  5
16E
100
AcDbEntity
  8
A4
  6
CONTINUOUS
 62
7
100
AcDbLine
 10
103.3505985915059
 20
202.5255627297851
 30
0.000000000000000
 11
102.2372155915059
 21
201.3136997297851
 31
0.000000000000000
  0
LINE
  5
16F
100
AcDbEntity
  8
A4
  6
CONTINUOUS
 62
7
100
AcDbLine
 10
101.3535415915059
 20
202.1255627297850
 30
0.000000000000000
 11
102.4669245915060
 21
203.3374257297851
 31
0.000000000000000
  0
LINE
  5
170
100
AcDbEntity
  8
A4
  6
CONTINUOUS
 62
7
100
AcDbLine
 10
101.3535415915059
 20
200.9255627297852
 30
0.000000000000000
 11
98.35059859150596
 21
200.9255627297852
 31
0.000000000000000
  0
LINE
  5
171
100
AcDbEntity
  8
A4
  6
CONTINUOUS
 62
7
100
AcDbLine
 10
101.3535415915059
 20
202.1255627297851
 30
0.000000000000000
 11
98.35059859150596
 21
202.1255627297851
 31
0.000000000000000
  0
LINE
  5
172
100
AcDbEntity
  8
A4
  6
CONTINUOUS
 62
7
100
AcDbLine
 10
112.8505985915060
 20
202.5255627297852
 30
0.000000000000000
 11
112.8505985915060
 21
203.7255627297851
 31
0.000000000000000
  0
LINE
  5
173
100
AcDbEntity
  8
A2
  6
CENTER
 62
1
100
AcDbLine
 10
93.95059859150597
 20
199.4255627297850
 30
0.000000000000000
 11
102.7505985915060
 21
199.4255627297850
 31
0.000000000000000
  0
ARC
  5
174
100
AcDbEntity
  8
A4
  6
CONTINUOUS
 62
7
100
AcDbCircle
 10
99.49102059150596
 20
199.4255627297850
 30
0.000000000000000
 40
3.840421999999998
100
AcDbArc
 50
180.0000000000000
 51
219.2894069999999
  0
LINE
  5
175
100
AcDbEntity
  8
A4
  6
CONTINUOUS
 62
7
100
AcDbLine
 10
88.65059859150593
 20
197.7255627297851
 30
0.000000000000000
 11
94.25059859150595
 21
197.7255627297851
 31
0.000000000000000
  0
LINE
  5
176
100
AcDbEntity
  8
A4
  6
CONTINUOUS
 62
7
100
AcDbLine
 10
90.20059859150597
 20
197.2255627297851
 30
0.000000000000000
 11
92.70059859150597
 21
197.2255627297851
 31
0.000000000000000
  0
ARC
  5
177
100
AcDbEntity
  8
A4
  6
CONTINUOUS
 62
7
100
AcDbCircle
 10
92.70059859150597
 20
197.4755627297851
 30
0.000000000000000
 40
0.2500000000000000
100
AcDbArc
 50
270.0000000000000
 51
450.0000000000000
  0
ARC
  5
178
100
AcDbEntity
  8
A4
  6
CONTINUOUS
 62
7
100
AcDbCircle
 10
90.20059859150597
 20
197.4755627297851
 30
0.000000000000000
 40
0.2500000000000000
100
AcDbArc
 50
90.00000000000000
 51
270.0000000000000
  0
LINE
  5
179
100
AcDbEntity
  8
A4
  6
CONTINUOUS
 62
7
100
AcDbLine
 10
87.95059859150597
 20
198.7255627297851
 30
0.000000000000000
 11
95.56312659150596
 21
198.7255627297851
 31
0.000000000000000
  0
LINE
  5
17A
100
AcDbEntity
  8
A4
  6
CONTINUOUS
 62
7
100
AcDbLine
 10
87.95059859150597
 20
199.5255627297850
 30
0.000000000000000
 11
95.45059859150597
 21
199.5255627297850
 31
0.000000000000000
  0
LINE
  5
17B
100
AcDbEntity
  8
A4
  6
CONTINUOUS
 62
7
100
AcDbLine
 10
94.25059859150595
 20
197.7255627297851
 30
0.000000000000000
 11
94.25059859150595
 21
198.7255627297851
 31
0.000000000000000
  0
LINE
  5
17C
100
AcDbEntity
  8
A4
  6
CONTINUOUS
 62
7
100
AcDbLine
 10
88.65059859150593
 20
197.7255627297851
 30
0.000000000000000
 11
88.65059859150593
 21
198.7255627297851
 31
0.000000000000000
  0
LINE
  5
17D
100
AcDbEntity
  8
A3
  6
PHANTOM
 62
6
100
AcDbLine
 10
117.8505985915059
 20
196.3255627297852
 30
0.000000000000000
 11
101.2505985915059
 21
196.3255627297852
 31
0.000000000000000
  0
LINE
  5
17E
100
AcDbEntity
  8
A3
  6
PHANTOM
 62
6
100
AcDbLine
 10
117.8505985915059
 20
195.1255627297851
 30
0.000000000000000
 11
96.25059859150596
 21
195.1255627297851
 31
0.000000000000000
  0
LINE
  5
17F
100
AcDbEntity
  8
A3
  6
PHANTOM
 62
6
100
AcDbLine
 10
96.25059859150596
 20
197.3643717297851
 30
0.000000000000000
 11
96.25059859150596
 21
195.1255627297851
 31
0.000000000000000
  0
LINE
  5
180
100
AcDbEntity
  8
A3
  6
PHANTOM
 62
6
100
AcDbLine
 10
101.2505985915059
 20
199.3255627297852
 30
0.000000000000000
 11
101.2505985915059
 21
195.1255627297851
 31
0.000000000000000
  0
LINE
  5
181
100
AcDbEntity
  8
A3
  6
PHANTOM
 62
6
100
AcDbLine
 10
103.2505985915059
 20
196.3255627297852
 30
0.000000000000000
 11
103.2505985915059
 21
195.1255627297851
 31
0.000000000000000
  0
ARC
  5
182
100
AcDbEntity
  8
A4
  6
CONTINUOUS
 62
7
100
AcDbCircle
 10
99.25059859150598
 20
197.7497117297850
 30
0.000000000000000
 40
1.199999999999999
100
AcDbArc
 50
320.4668429999999
 51
360.0000000000000
  0
ARC
  5
183
100
AcDbEntity
  8
A4
  6
CONTINUOUS
 62
7
100
AcDbCircle
 10
98.35059859150596
 20
198.4924897297851
 30
0.000000000000000
 40
2.366927000000000
100
AcDbArc
 50
219.2894069999999
 51
320.4668429999999
  0
ARC
  5
184
100
AcDbEntity
  8
A4
  6
CONTINUOUS
 62
7
100
AcDbCircle
 10
98.35059859150596
 20
198.4924897297851
 30
0.000000000000000
 40
1.166927000000000
100
AcDbArc
 50
219.2894069999999
 51
320.4668429999999
  0
LINE
  5
185
100
AcDbEntity
  8
A4
  6
CONTINUOUS
 62
7
100
AcDbLine
 10
100.4505985915060
 20
200.6255627297851
 30
0.000000000000000
 11
99.25059859150598
 21
200.6255627297851
 31
0.000000000000000
  0
LINE
  5
186
100
AcDbEntity
  8
A4
  6
CONTINUOUS
 62
7
100
AcDbLine
 10
99.25059859150598
 20
197.7497117297850
 30
0.000000000000000
 11
99.25059859150598
 21
200.6255627297851
 31
0.000000000000000
  0
LINE
  5
187
100
AcDbEntity
  8
A4
  6
CONTINUOUS
 62
7
100
AcDbLine
 10
100.4505985915060
 20
197.7497117297850
 30
0.000000000000000
 11
100.4505985915060
 21
200.6255627297851
 31
0.000000000000000
  0
ARC
  5
188
100
AcDbEntity
  8
A4
  6
CONTINUOUS
 62
7
100
AcDbCircle
 10
99.49102059150596
 20
199.4255627297850
 30
0.000000000000000
 40
2.640422000000000
100
AcDbArc
 50
180.0000000000000
 51
219.2894069999999
  0
LINE
  5
189
100
AcDbEntity
  8
A3
  6
PHANTOM
 62
6
100
AcDbLine
 10
117.8505985915059
 20
196.3255627297852
 30
0.000000000000000
 11
117.8505985915059
 21
195.1255627297851
 31
0.000000000000000
  0
LINE
  5
18A
100
AcDbEntity
  8
A4
  6
CONTINUOUS
 62
7
100
AcDbLine
 10
224.3330265915059
 20
137.3418137297851
 30
0.000000000000000
 11
224.3330265915059
 21
130.4418137297851
 31
0.000000000000000
  0
LINE
  5
18B
100
AcDbEntity
  8
A4
  6
CONTINUOUS
 62
7
100
AcDbLine
 10
224.3330265915059
 20
116.2418137297852
 30
0.000000000000000
 11
224.3330265915059
 21
109.3418137297851
 31
0.000000000000000
  0
LINE
  5
18C
100
AcDbEntity
  8
A2
  6
CENTER
 62
1
100
AcDbLine
 10
111.3505985915059
 20
198.5400137297852
 30
0.000000000000000
 11
111.3505985915059
 21
192.6382557297850
 31
0.000000000000000
  0
LINE
  5
18D
100
AcDbEntity
  8
A2
  6
CENTER
 62
1
100
AcDbLine
 10
111.3505985915059
 20
48.14361372978515
 30
0.000000000000000
 11
111.3505985915059
 21
54.04537172978515
 31
0.000000000000000
  0
ARC
  5
18E
100
AcDbEntity
  8
A4
  6
CONTINUOUS
 62
7
100
AcDbCircle
 10
162.5418125915060
 20
136.3418137297851
 30
0.000000000000000
 40
1.000000000000000
100
AcDbArc
 50
0.000000000000000
 51
90.00000000000000
  0
ARC
  5
18F
100
AcDbEntity
  8
A4
  6
CONTINUOUS
 62
7
100
AcDbCircle
 10
162.5418125915060
 20
131.4418137297851
 30
0.000000000000000
 40
1.000000000000000
100
AcDbArc
 50
270.0000000000000
 51
360.0000000000000
  0
ARC
  5
190
100
AcDbEntity
  8
A4
  6
CONTINUOUS
 62
7
100
AcDbCircle
 10
162.5418125915060
 20
115.2418137297852
 30
0.000000000000000
 40
1.000000000000000
100
AcDbArc
 50
0.000000000000000
 51
90.00000000000000
  0
ARC
  5
191
100
AcDbEntity
  8
A4
  6
CONTINUOUS
 62
7
100
AcDbCircle
 10
162.5418125915060
 20
110.3418137297851
 30
0.000000000000000
 40
1.000000000000000
100
AcDbArc
 50
270.0000000000000
 51
360.0000000000000
  0
MTEXT
  5
192
100
AcDbEntity
  8
A20
  6
CONTINUOUS
 62
3
100
AcDbMText
 10
108.6005985915059
 20
116.9418137297851
 30
0.000000000000000
 40
2.000000000000000
 41
0.000000000000000
 44
0.3360000014305115
 71
     1
 72
     1
  1
{\H0.90x;{TH-125-6}}
 11
6.123233995736766e-17
 21
1.000000000000000
 31
0.000000000000000
  7
STANDARD
  0
ENDSEC
  0
SECTION
  2
OBJECTS
  0
DICTIONARY
  5
1C1
100
AcDbDictionary
  3
ACAD_GROUP
350
1C2
  3
ACAD_LAYOUT
350
1C3
  3
ACAD_MLINESTYLE
350
1C4
  0
DICTIONARY
  5
1C2
102
{ACAD_REACTORS
330
1C1
102
}
330
1C1
100
AcDbDictionary
  0
DICTIONARY
  5
1C3
102
{ACAD_REACTORS
330
1C1
102
}
330
1C1
100
AcDbDictionary
  3
Model
350
1C5
  3
ﾚｲｱｳﾄ1
350
1C6
  3
ﾚｲｱｳﾄ2
350
1C7
  0
DICTIONARY
  5
1C4
102
{ACAD_REACTORS
330
1C1
102
}
330
1C1
100
AcDbDictionary
  3
STANDARD
350
1C8
  0
LAYOUT
  5
1C5
102
{ACAD_REACTORS
330
1C3
102
}
330
1C3
100
AcDbPlotSettings
 70
11952
  4
A3
 44
297.000000
 45
420.000000
 73
  1
 72
  1
100
AcDbLayout
  1
Model
 71
0
330
1B8
  0
LAYOUT
  5
1C6
102
{ACAD_REACTORS
330
1C3
102
}
330
1C3
100
AcDbPlotSettings
100
AcDbLayout
  1
ﾚｲｱｳﾄ1
 71
1
330
1B9
  0
LAYOUT
  5
1C7
102
{ACAD_REACTORS
330
1C3
102
}
330
1C3
100
AcDbPlotSettings
100
AcDbLayout
  1
ﾚｲｱｳﾄ2
 71
2
330
1BA
  0
MLINESTYLE
  5
1C8
102
{ACAD_REACTORS
330
1C4
102
}
330
1C4
100
AcDbMlineStyle
  2
STANDARD
 70
     0
  3

 62
   256
 51
90.00
 52
90.00
 71
     2
 49
0.50
 62
   256
  6
BYLAYER
 49
-0.50
 62
   256
  6
BYLAYER
  0
ENDSEC
  0
EOF
