  0
SECTION
  2
HEADER
  9
$ACADVER
  1
AC1015
  9
$ACADMAINTVER
 70
    20
  9
$DWGCODEPAGE
  3
ANSI_932
  9
$INSBASE
 10
0.0
 20
0.0
 30
0.0
  9
$EXTMIN
 10
9.99995
 20
9.999999999999998
 30
0.0
  9
$EXTMAX
 10
441.6405329999998
 20
323.1176459999999
 30
0.0
  9
$LIMMIN
 10
0.0
 20
0.0
  9
$LIMMAX
 10
495.0
 20
341.25
  9
$ORTHOMODE
 70
     1
  9
$REGENMODE
 70
     1
  9
$FILLMODE
 70
     1
  9
$QTEXTMODE
 70
     0
  9
$MIRRTEXT
 70
     1
  9
$LTSCALE
 40
20.0
  9
$ATTMODE
 70
     1
  9
$TEXTSIZE
 40
5.0
  9
$TRACEWID
 40
1.0
  9
$TEXTSTYLE
  7
STANDARD
  9
$CLAYER
  8
0
  9
$CELTYPE
  6
BYLAYER
  9
$CECOLOR
 62
   256
  9
$CELTSCALE
 40
1.0
  9
$DISPSILH
 70
     0
  9
$DIMSCALE
 40
1.0
  9
$DIMASZ
 40
3.0
  9
$DIMEXO
 40
1.0
  9
$DIMDLI
 40
10.0
  9
$DIMRND
 40
0.0
  9
$DIMDLE
 40
0.0
  9
$DIMEXE
 40
1.0
  9
$DIMTP
 40
0.0
  9
$DIMTM
 40
0.0
  9
$DIMTXT
 40
3.2
  9
$DIMCEN
 40
0.0
  9
$DIMTSZ
 40
0.0
  9
$DIMTOL
 70
     0
  9
$DIMLIM
 70
     0
  9
$DIMTIH
 70
     0
  9
$DIMTOH
 70
     0
  9
$DIMSE1
 70
     0
  9
$DIMSE2
 70
     0
  9
$DIMTAD
 70
     3
  9
$DIMZIN
 70
     8
  9
$DIMBLK
  1

  9
$DIMASO
 70
     1
  9
$DIMSHO
 70
     1
  9
$DIMPOST
  1

  9
$DIMAPOST
  1

  9
$DIMALT
 70
     0
  9
$DIMALTD
 70
     2
  9
$DIMALTF
 40
25.4
  9
$DIMLFAC
 40
1.0
  9
$DIMTOFL
 70
     1
  9
$DIMTVP
 40
0.0
  9
$DIMTIX
 70
     0
  9
$DIMSOXD
 70
     0
  9
$DIMSAH
 70
     1
  9
$DIMBLK1
  1

  9
$DIMBLK2
  1

  9
$DIMSTYLE
  2
STANDARD
  9
$DIMCLRD
 70
     0
  9
$DIMCLRE
 70
     0
  9
$DIMCLRT
 70
     0
  9
$DIMTFAC
 40
1.0
  9
$DIMGAP
 40
1.0
  9
$DIMJUST
 70
     0
  9
$DIMSD1
 70
     0
  9
$DIMSD2
 70
     0
  9
$DIMTOLJ
 70
     1
  9
$DIMTZIN
 70
     0
  9
$DIMALTZ
 70
     0
  9
$DIMALTTZ
 70
     0
  9
$DIMUPT
 70
     0
  9
$DIMDEC
 70
     4
  9
$DIMTDEC
 70
     4
  9
$DIMALTU
 70
     2
  9
$DIMALTTD
 70
     2
  9
$DIMTXSTY
  7
STANDARD
  9
$DIMAUNIT
 70
     0
  9
$DIMADEC
 70
     0
  9
$DIMALTRND
 40
0.0
  9
$DIMAZIN
 70
     0
  9
$DIMDSEP
 70
    46
  9
$DIMATFIT
 70
     3
  9
$DIMFRAC
 70
     0
  9
$DIMLDRBLK
  1

  9
$DIMLUNIT
 70
     2
  9
$DIMLWD
 70
    -2
  9
$DIMLWE
 70
    -2
  9
$DIMTMOVE
 70
     0
  9
$LUNITS
 70
     2
  9
$LUPREC
 70
     4
  9
$SKETCHINC
 40
1.0
  9
$FILLETRAD
 40
0.0
  9
$AUNITS
 70
     0
  9
$AUPREC
 70
     2
  9
$MENU
  1
.
  9
$ELEVATION
 40
0.0
  9
$PELEVATION
 40
0.0
  9
$THICKNESS
 40
0.0
  9
$LIMCHECK
 70
     0
  9
$CHAMFERA
 40
10.0
  9
$CHAMFERB
 40
10.0
  9
$CHAMFERC
 40
0.0
  9
$CHAMFERD
 40
0.0
  9
$SKPOLY
 70
     0
  9
$TDCREATE
 40
2451059.384819098
  9
$TDUCREATE
 40
2451059.009819097
  9
$TDUPDATE
 40
2457192.616244572
  9
$TDUUPDATE
 40
2457192.241244572
  9
$TDINDWG
 40
0.0083036458
  9
$TDUSRTIMER
 40
0.0083033218
  9
$USRTIMER
 70
     1
  9
$ANGBASE
 50
0.0
  9
$ANGDIR
 70
     0
  9
$PDMODE
 70
     0
  9
$PDSIZE
 40
0.0
  9
$PLINEWID
 40
0.0
  9
$SPLFRAME
 70
     0
  9
$SPLINETYPE
 70
     6
  9
$SPLINESEGS
 70
     8
  9
$HANDSEED
  5
9B41
  9
$SURFTAB1
 70
     6
  9
$SURFTAB2
 70
     6
  9
$SURFTYPE
 70
     6
  9
$SURFU
 70
     6
  9
$SURFV
 70
     6
  9
$UCSBASE
  2

  9
$UCSNAME
  2

  9
$UCSORG
 10
0.0
 20
0.0
 30
0.0
  9
$UCSXDIR
 10
1.0
 20
0.0
 30
0.0
  9
$UCSYDIR
 10
0.0
 20
1.0
 30
0.0
  9
$UCSORTHOREF
  2

  9
$UCSORTHOVIEW
 70
     0
  9
$UCSORGTOP
 10
0.0
 20
0.0
 30
0.0
  9
$UCSORGBOTTOM
 10
0.0
 20
0.0
 30
0.0
  9
$UCSORGLEFT
 10
0.0
 20
0.0
 30
0.0
  9
$UCSORGRIGHT
 10
0.0
 20
0.0
 30
0.0
  9
$UCSORGFRONT
 10
0.0
 20
0.0
 30
0.0
  9
$UCSORGBACK
 10
0.0
 20
0.0
 30
0.0
  9
$PUCSBASE
  2

  9
$PUCSNAME
  2

  9
$PUCSORG
 10
0.0
 20
0.0
 30
0.0
  9
$PUCSXDIR
 10
1.0
 20
0.0
 30
0.0
  9
$PUCSYDIR
 10
0.0
 20
1.0
 30
0.0
  9
$PUCSORTHOREF
  2

  9
$PUCSORTHOVIEW
 70
     0
  9
$PUCSORGTOP
 10
0.0
 20
0.0
 30
0.0
  9
$PUCSORGBOTTOM
 10
0.0
 20
0.0
 30
0.0
  9
$PUCSORGLEFT
 10
0.0
 20
0.0
 30
0.0
  9
$PUCSORGRIGHT
 10
0.0
 20
0.0
 30
0.0
  9
$PUCSORGFRONT
 10
0.0
 20
0.0
 30
0.0
  9
$PUCSORGBACK
 10
0.0
 20
0.0
 30
0.0
  9
$USERI1
 70
     0
  9
$USERI2
 70
     0
  9
$USERI3
 70
     0
  9
$USERI4
 70
     0
  9
$USERI5
 70
     0
  9
$USERR1
 40
0.0
  9
$USERR2
 40
0.0
  9
$USERR3
 40
0.0
  9
$USERR4
 40
0.0
  9
$USERR5
 40
0.0
  9
$WORLDVIEW
 70
     1
  9
$SHADEDGE
 70
     3
  9
$SHADEDIF
 70
    70
  9
$TILEMODE
 70
     1
  9
$MAXACTVP
 70
    16
  9
$PINSBASE
 10
0.0
 20
0.0
 30
0.0
  9
$PLIMCHECK
 70
     0
  9
$PEXTMIN
 10
1.000000000000000E+20
 20
1.000000000000000E+20
 30
1.000000000000000E+20
  9
$PEXTMAX
 10
-1.000000000000000E+20
 20
-1.000000000000000E+20
 30
-1.000000000000000E+20
  9
$PLIMMIN
 10
0.0
 20
0.0
  9
$PLIMMAX
 10
420.0
 20
297.0
  9
$UNITMODE
 70
     0
  9
$VISRETAIN
 70
     0
  9
$PLINEGEN
 70
     0
  9
$PSLTSCALE
 70
     0
  9
$TREEDEPTH
 70
  3020
  9
$CMLSTYLE
  2
STANDARD
  9
$CMLJUST
 70
     0
  9
$CMLSCALE
 40
1.0
  9
$PROXYGRAPHICS
 70
     1
  9
$MEASUREMENT
 70
     0
  9
$CELWEIGHT
370
    -1
  9
$ENDCAPS
280
     0
  9
$JOINSTYLE
280
     0
  9
$LWDISPLAY
290
     0
  9
$INSUNITS
 70
     0
  9
$HYPERLINKBASE
  1

  9
$STYLESHEET
  1

  9
$XEDIT
290
     1
  9
$CEPSNTYPE
380
     0
  9
$PSTYLEMODE
290
     1
  9
$FINGERPRINTGUID
  2
{8FD5C54E-B4EA-461E-BE5C-59E563AA95B3}
  9
$VERSIONGUID
  2
{51C05EB0-8833-4295-8AF5-E0E62857A1FD}
  9
$EXTNAMES
290
     1
  9
$PSVPSCALE
 40
0.0
  9
$OLESTARTUP
290
     0
  0
ENDSEC
  0
SECTION
  2
CLASSES
  0
CLASS
  1
ACDBDICTIONARYWDFLT
  2
AcDbDictionaryWithDefault
  3
ObjectDBX Classes
 90
        0
280
     0
281
     0
  0
CLASS
  1
ACDBPLACEHOLDER
  2
AcDbPlaceHolder
  3
ObjectDBX Classes
 90
        0
280
     0
281
     0
  0
CLASS
  1
LAYOUT
  2
AcDbLayout
  3
ObjectDBX Classes
 90
        0
280
     0
281
     0
  0
CLASS
  1
DICTIONARYVAR
  2
AcDbDictionaryVar
  3
ObjectDBX Classes
 90
        0
280
     0
281
     0
  0
CLASS
  1
MATERIAL
  2
AcDbMaterial
  3
ObjectDBX Classes
 90
     1153
280
     0
281
     0
  0
CLASS
  1
VISUALSTYLE
  2
AcDbVisualStyle
  3
ObjectDBX Classes
 90
     4095
280
     0
281
     0
  0
CLASS
  1
TABLESTYLE
  2
AcDbTableStyle
  3
ObjectDBX Classes
 90
     4095
280
     0
281
     0
  0
CLASS
  1
SCALE
  2
AcDbScale
  3
ObjectDBX Classes
 90
     1153
280
     0
281
     0
  0
CLASS
  1
MLEADERSTYLE
  2
AcDbMLeaderStyle
  3
ACDB_MLEADERSTYLE_CLASS
 90
     4095
280
     0
281
     0
  0
CLASS
  1
ACDBSECTIONVIEWSTYLE
  2
AcDbSectionViewStyle
  3
ObjectDBX Classes
 90
     1025
280
     0
281
     0
  0
CLASS
  1
ACDBDETAILVIEWSTYLE
  2
AcDbDetailViewStyle
  3
ObjectDBX Classes
 90
     1025
280
     0
281
     0
  0
CLASS
  1
CELLSTYLEMAP
  2
AcDbCellStyleMap
  3
ObjectDBX Classes
 90
     1152
280
     0
281
     0
  0
ENDSEC
  0
SECTION
  2
TABLES
  0
TABLE
  2
VPORT
  5
986F
330
0
100
AcDbSymbolTable
 70
     1
  0
VPORT
  5
9A8A
330
986F
100
AcDbSymbolTableRecord
100
AcDbViewportTableRecord
  2
*ACTIVE
 70
     0
 10
0.0
 20
0.0
 11
1.0
 21
1.0
 12
320.6709030698314
 22
166.5634926110953
 13
0.0
 23
0.0
 14
10.0
 24
10.0
 15
10.0
 25
10.0
 16
0.0
 26
0.0
 36
1.0
 17
0.0
 27
0.0
 37
0.0
 40
316.6551252045443
 41
1.899603698811096
 42
50.0
 43
0.0
 44
0.0
 50
0.0
 51
0.0
 71
     0
 72
   100
 73
     1
 74
     0
 75
     0
 76
     0
 77
     0
 78
     0
281
     0
 65
     1
110
0.0
120
0.0
130
0.0
111
1.0
121
0.0
131
0.0
112
0.0
122
1.0
132
0.0
 79
     0
146
0.0
1001
ACAD_NAV_VCDISPLAY
1070
     3
  0
ENDTAB
  0
TABLE
  2
LTYPE
  5
986C
330
0
100
AcDbSymbolTable
 70
     4
  0
LTYPE
  5
987A
330
986C
100
AcDbSymbolTableRecord
100
AcDbLinetypeTableRecord
  2
BYBLOCK
 70
     0
  3

 72
    65
 73
     0
 40
0.0
  0
LTYPE
  5
987B
330
986C
100
AcDbSymbolTableRecord
100
AcDbLinetypeTableRecord
  2
BYLAYER
 70
     0
  3

 72
    65
 73
     0
 40
0.0
  0
LTYPE
  5
987C
330
986C
100
AcDbSymbolTableRecord
100
AcDbLinetypeTableRecord
  2
CONTINUOUS
 70
     0
  3
Solid line
 72
    65
 73
     0
 40
0.0
  0
LTYPE
  5
988A
330
986C
100
AcDbSymbolTableRecord
100
AcDbLinetypeTableRecord
  2
DASHED
 70
     0
  3
__ __ __ __ __ __ __ __ __ __ __ __ __ __ __ __
 72
    65
 73
     2
 40
0.75
 49
0.5
 74
     0
 49
-0.25
 74
     0
  0
LTYPE
  5
988B
330
986C
100
AcDbSymbolTableRecord
100
AcDbLinetypeTableRecord
  2
CENTER
 70
     0
  3
____ _ ____ _ ____ _ ____ _ ____ _ ____ _ ____ 
 72
    65
 73
     4
 40
2.0
 49
1.25
 74
     0
 49
-0.25
 74
     0
 49
0.25
 74
     0
 49
-0.25
 74
     0
  0
LTYPE
  5
988C
330
986C
100
AcDbSymbolTableRecord
100
AcDbLinetypeTableRecord
  2
PHANTOM
 70
     0
  3
______  __  __  ______  __  __  ______  __  __ 
 72
    65
 73
     6
 40
2.5
 49
1.25
 74
     0
 49
-0.25
 74
     0
 49
0.25
 74
     0
 49
-0.25
 74
     0
 49
0.25
 74
     0
 49
-0.25
 74
     0
  0
ENDTAB
  0
TABLE
  2
LAYER
  5
9869
330
0
100
AcDbSymbolTable
 70
     8
  0
LAYER
  5
9877
102
{ACAD_XDICTIONARY
360
9AE5
102
}
330
9869
100
AcDbSymbolTableRecord
100
AcDbLayerTableRecord
  2
0
 70
     0
 62
     7
  6
CONTINUOUS
370
    -3
390
9A93
  0
LAYER
  5
988D
102
{ACAD_XDICTIONARY
360
9AE7
102
}
330
9869
100
AcDbSymbolTableRecord
100
AcDbLayerTableRecord
  2
4
 70
     0
 62
     1
  6
CENTER
370
    -3
390
9A93
  0
LAYER
  5
988E
102
{ACAD_XDICTIONARY
360
9AE9
102
}
330
9869
100
AcDbSymbolTableRecord
100
AcDbLayerTableRecord
  2
5
 70
     0
 62
     6
  6
PHANTOM
370
    -3
390
9A93
  0
LAYER
  5
988F
102
{ACAD_XDICTIONARY
360
9AEB
102
}
330
9869
100
AcDbSymbolTableRecord
100
AcDbLayerTableRecord
  2
1
 70
     0
 62
     7
  6
CONTINUOUS
370
    -3
390
9A93
  0
LAYER
  5
9890
102
{ACAD_XDICTIONARY
360
9AED
102
}
330
9869
100
AcDbSymbolTableRecord
100
AcDbLayerTableRecord
  2
2
 70
     0
 62
     4
  6
CONTINUOUS
370
    -3
390
9A93
  0
LAYER
  5
9891
102
{ACAD_XDICTIONARY
360
9AEF
102
}
330
9869
100
AcDbSymbolTableRecord
100
AcDbLayerTableRecord
  2
3
 70
     0
 62
     2
  6
DASHED
370
    -3
390
9A93
  0
LAYER
  5
9892
102
{ACAD_XDICTIONARY
360
9AF1
102
}
330
9869
100
AcDbSymbolTableRecord
100
AcDbLayerTableRecord
  2
6
 70
     0
 62
     5
  6
CONTINUOUS
370
    -3
390
9A93
  0
LAYER
  5
9893
102
{ACAD_XDICTIONARY
360
9AF3
102
}
330
9869
100
AcDbSymbolTableRecord
100
AcDbLayerTableRecord
  2
7
 70
     0
 62
     3
  6
CONTINUOUS
370
    -3
390
9A93
  0
ENDTAB
  0
TABLE
  2
STYLE
  5
986A
330
0
100
AcDbSymbolTable
 70
     1
  0
STYLE
  5
9878
330
986A
100
AcDbSymbolTableRecord
100
AcDbTextStyleTableRecord
  2
STANDARD
 70
     0
 40
0.0
 41
1.0
 50
0.0
 71
     0
 42
5.0
  3
txt
  4

  0
ENDTAB
  0
TABLE
  2
VIEW
  5
986D
330
0
100
AcDbSymbolTable
 70
     0
  0
ENDTAB
  0
TABLE
  2
UCS
  5
986E
330
0
100
AcDbSymbolTable
 70
     0
  0
ENDTAB
  0
TABLE
  2
APPID
  5
9870
330
0
100
AcDbSymbolTable
 70
     3
  0
APPID
  5
9879
330
9870
100
AcDbSymbolTableRecord
100
AcDbRegAppTableRecord
  2
ACAD
 70
     0
  0
APPID
  5
9AFF
330
9870
100
AcDbSymbolTableRecord
100
AcDbRegAppTableRecord
  2
ACAD_NAV_VCDISPLAY
 70
     0
  0
APPID
  5
9B38
330
9870
100
AcDbSymbolTableRecord
100
AcDbRegAppTableRecord
  2
ACAD_MLEADERVER
 70
     0
  0
ENDTAB
  0
TABLE
  2
DIMSTYLE
  5
9871
330
0
100
AcDbSymbolTable
 70
     1
100
AcDbDimStyleTable
 71
     0
  0
DIMSTYLE
105
9894
330
9871
100
AcDbSymbolTableRecord
100
AcDbDimStyleTableRecord
  2
STANDARD
 70
     0
 41
3.0
 42
1.0
 43
10.0
 44
1.0
 73
     0
 74
     0
 77
     3
 78
     8
140
3.2
141
0.0
147
1.0
172
     1
173
     1
284
     8
285
     8
286
     8
340
9878
  0
ENDTAB
  0
TABLE
  2
BLOCK_RECORD
  5
9868
330
0
100
AcDbSymbolTable
 70
     0
  0
BLOCK_RECORD
  5
9885
102
{ACAD_XDICTIONARY
360
9A8D
102
}
330
9868
100
AcDbSymbolTableRecord
100
AcDbBlockTableRecord
  2
*MODEL_SPACE
340
9AE1
  0
BLOCK_RECORD
  5
9881
102
{ACAD_XDICTIONARY
360
9A8B
102
}
330
9868
100
AcDbSymbolTableRecord
100
AcDbBlockTableRecord
  2
*PAPER_SPACE
340
9AE2
  0
ENDTAB
  0
ENDSEC
  0
SECTION
  2
BLOCKS
  0
BLOCK
  5
9886
330
9885
100
AcDbEntity
  8
0
100
AcDbBlockBegin
  2
*MODEL_SPACE
 70
     0
 10
0.0
 20
0.0
 30
0.0
  3
*MODEL_SPACE
  1

  0
ENDBLK
  5
9887
330
9885
100
AcDbEntity
  8
0
100
AcDbBlockEnd
  0
BLOCK
  5
9882
330
9881
100
AcDbEntity
 67
     1
  8
0
100
AcDbBlockBegin
  2
*PAPER_SPACE
 70
     0
 10
0.0
 20
0.0
 30
0.0
  3
*PAPER_SPACE
  1

  0
ENDBLK
  5
9883
330
9881
100
AcDbEntity
 67
     1
  8
0
100
AcDbBlockEnd
  0
ENDSEC
  0
SECTION
  2
ENTITIES
  0
LINE
  5
989C
330
9885
100
AcDbEntity
  8
1
  6
Continuous
100
AcDbLine
 10
25.5
 20
212.058823
 30
0.0
 11
25.5
 21
149.058823
 31
0.0
  0
LINE
  5
989D
330
9885
100
AcDbEntity
  8
1
  6
Continuous
100
AcDbLine
 10
43.5
 20
210.5588229999999
 30
0.0
 11
43.5
 21
193.0588229999999
 31
0.0
  0
LINE
  5
989E
330
9885
100
AcDbEntity
  8
1
  6
Continuous
100
AcDbLine
 10
112.7450939999999
 20
204.5588229999999
 30
0.0
 11
112.7450939999999
 21
156.5588229999999
 31
0.0
  0
LINE
  5
989F
330
9885
100
AcDbEntity
  8
4
  6
CENTER
100
AcDbLine
 10
107.745094
 20
180.5588229999999
 30
0.0
 11
197.745102
 21
180.5588229999999
 31
0.0
  0
LINE
  5
98A0
330
9885
100
AcDbEntity
  8
1
  6
Continuous
100
AcDbLine
 10
192.745102
 20
207.0588229999999
 30
0.0
 11
192.745102
 21
154.058823
 31
0.0
  0
LINE
  5
98A1
330
9885
100
AcDbEntity
  8
1
  6
Continuous
100
AcDbLine
 10
25.5
 20
212.058823
 30
0.0
 11
43.0
 21
212.058823
 31
0.0
  0
LINE
  5
98A2
330
9885
100
AcDbEntity
  8
1
  6
Continuous
100
AcDbLine
 10
25.5
 20
149.058823
 30
0.0
 11
43.0
 21
149.058823
 31
0.0
  0
LINE
  5
98A3
330
9885
100
AcDbEntity
  8
1
  6
Continuous
100
AcDbLine
 10
122.7450939999999
 20
212.058823
 30
0.0
 11
187.745102
 21
212.058823
 31
0.0
  0
LINE
  5
98A4
330
9885
100
AcDbEntity
  8
4
  6
CENTER
100
AcDbLine
 10
152.7451019999998
 20
217.0588229999999
 30
0.0
 11
152.7451019999998
 21
144.0588229999999
 31
0.0
  0
LINE
  5
98A5
330
9885
100
AcDbEntity
  8
4
  6
CENTER
100
AcDbLine
 10
168.745102
 20
193.0588229999999
 30
0.0
 11
168.745102
 21
168.0588229999998
 31
0.0
  0
LINE
  5
98A6
330
9885
100
AcDbEntity
  8
4
  6
CENTER
100
AcDbLine
 10
136.745087
 20
185.8588259999999
 30
0.0
 11
136.745087
 21
175.2588199999999
 31
0.0
  0
LINE
  5
98A7
330
9885
100
AcDbEntity
  8
1
  6
Continuous
100
AcDbLine
 10
144.245087
 20
210.5588229999999
 30
0.0
 11
144.245087
 21
150.5588229999998
 31
0.0
  0
LINE
  5
98A8
330
9885
100
AcDbEntity
  8
1
  6
Continuous
100
AcDbLine
 10
436.640533
 20
204.5588229999999
 30
0.0
 11
436.640533
 21
156.5588229999999
 31
0.0
  0
LINE
  5
98A9
330
9885
100
AcDbEntity
  8
4
  6
CENTER
100
AcDbLine
 10
441.6405329999998
 20
180.5588229999999
 30
0.0
 11
351.6405329999997
 21
180.5588229999999
 31
0.0
  0
LINE
  5
98AA
330
9885
100
AcDbEntity
  8
1
  6
Continuous
100
AcDbLine
 10
356.640533
 20
207.0588229999999
 30
0.0
 11
356.640533
 21
154.058823
 31
0.0
  0
LINE
  5
98AB
330
9885
100
AcDbEntity
  8
4
  6
CENTER
100
AcDbLine
 10
396.640533
 20
217.0588229999999
 30
0.0
 11
396.640533
 21
144.0588229999999
 31
0.0
  0
LINE
  5
98AC
330
9885
100
AcDbEntity
  8
4
  6
CENTER
100
AcDbLine
 10
380.640533
 20
185.8588259999999
 30
0.0
 11
380.640533
 21
175.2588199999999
 31
0.0
  0
LINE
  5
98AD
330
9885
100
AcDbEntity
  8
4
  6
CENTER
100
AcDbLine
 10
412.6405329999998
 20
185.8588259999999
 30
0.0
 11
412.6405329999998
 21
175.2588199999999
 31
0.0
  0
LINE
  5
98AE
330
9885
100
AcDbEntity
  8
1
  6
Continuous
100
AcDbLine
 10
403.640533
 20
212.058823
 30
0.0
 11
403.640533
 21
149.058823
 31
0.0
  0
LINE
  5
98AF
330
9885
100
AcDbEntity
  8
1
  6
Continuous
100
AcDbLine
 10
402.640533
 20
210.5588229999999
 30
0.0
 11
402.640533
 21
150.5588229999998
 31
0.0
  0
LINE
  5
98B0
330
9885
100
AcDbEntity
  8
1
  6
Continuous
100
AcDbLine
 10
403.640533
 20
150.5588229999998
 30
0.0
 11
387.640533
 21
150.5588229999998
 31
0.0
  0
LINE
  5
98B1
330
9885
100
AcDbEntity
  8
1
  6
Continuous
100
AcDbLine
 10
403.640533
 20
210.5588229999999
 30
0.0
 11
387.640533
 21
210.5588229999999
 31
0.0
  0
LINE
  5
98B2
330
9885
100
AcDbEntity
  8
1
  6
Continuous
100
AcDbLine
 10
387.640533
 20
212.058823
 30
0.0
 11
387.640533
 21
210.5588229999999
 31
0.0
  0
LINE
  5
98B3
330
9885
100
AcDbEntity
  8
1
  6
Continuous
100
AcDbLine
 10
398.890533
 20
192.0588229999999
 30
0.0
 11
398.890533
 21
169.0588229999999
 31
0.0
  0
LINE
  5
98B4
330
9885
100
AcDbEntity
  8
1
  6
Continuous
100
AcDbLine
 10
394.390533
 20
192.0588229999999
 30
0.0
 11
394.390533
 21
169.0588229999999
 31
0.0
  0
LINE
  5
98B5
330
9885
100
AcDbEntity
  8
1
  6
Continuous
100
AcDbLine
 10
397.890533
 20
193.0588229999999
 30
0.0
 11
395.3905329999998
 21
193.0588229999999
 31
0.0
  0
LINE
  5
98B6
330
9885
100
AcDbEntity
  8
1
  6
Continuous
100
AcDbLine
 10
397.890533
 20
168.0588229999998
 30
0.0
 11
395.3905329999998
 21
168.0588229999998
 31
0.0
  0
LINE
  5
98B7
330
9885
100
AcDbEntity
  8
1
  6
Continuous
100
AcDbLine
 10
387.640533
 20
150.5588229999998
 30
0.0
 11
387.640533
 21
149.058823
 31
0.0
  0
LINE
  5
98B8
330
9885
100
AcDbEntity
  8
4
  6
CENTER
100
AcDbLine
 10
368.290527
 20
160.5588229999999
 30
0.0
 11
356.9905089999999
 21
160.5588229999999
 31
0.0
  0
LINE
  5
98B9
330
9885
100
AcDbEntity
  8
4
  6
CENTER
100
AcDbLine
 10
362.640533
 20
166.2088169999998
 30
0.0
 11
362.640533
 21
154.908829
 31
0.0
  0
LINE
  5
98BA
330
9885
100
AcDbEntity
  8
4
  6
CENTER
100
AcDbLine
 10
368.290527
 20
200.5588229999999
 30
0.0
 11
356.9905089999999
 21
200.5588229999999
 31
0.0
  0
LINE
  5
98BB
330
9885
100
AcDbEntity
  8
4
  6
CENTER
100
AcDbLine
 10
362.640533
 20
206.2088169999999
 30
0.0
 11
362.640533
 21
194.9088289999999
 31
0.0
  0
LINE
  5
98BC
330
9885
100
AcDbEntity
  8
4
  6
CENTER
100
AcDbLine
 10
436.2905269999997
 20
200.5588229999999
 30
0.0
 11
424.9905089999998
 21
200.5588229999999
 31
0.0
  0
LINE
  5
98BD
330
9885
100
AcDbEntity
  8
4
  6
CENTER
100
AcDbLine
 10
430.640533
 20
206.2088169999999
 30
0.0
 11
430.640533
 21
194.9088289999999
 31
0.0
  0
LINE
  5
98BE
330
9885
100
AcDbEntity
  8
4
  6
CENTER
100
AcDbLine
 10
436.2905269999997
 20
160.5588229999999
 30
0.0
 11
424.9905089999998
 21
160.5588229999999
 31
0.0
  0
LINE
  5
98BF
330
9885
100
AcDbEntity
  8
4
  6
CENTER
100
AcDbLine
 10
430.640533
 20
166.2088169999998
 30
0.0
 11
430.640533
 21
154.908829
 31
0.0
  0
LINE
  5
98C0
330
9885
100
AcDbEntity
  8
4
  6
CENTER
100
AcDbLine
 10
394.640533
 20
152.0588229999999
 30
0.0
 11
390.640533
 21
152.0588229999999
 31
0.0
  0
LINE
  5
98C1
330
9885
100
AcDbEntity
  8
4
  6
CENTER
100
AcDbLine
 10
392.640533
 20
154.058823
 30
0.0
 11
392.640533
 21
150.0588229999999
 31
0.0
  0
LINE
  5
98C2
330
9885
100
AcDbEntity
  8
4
  6
CENTER
100
AcDbLine
 10
394.640533
 20
209.0588229999999
 30
0.0
 11
390.640533
 21
209.0588229999999
 31
0.0
  0
LINE
  5
98C3
330
9885
100
AcDbEntity
  8
4
  6
CENTER
100
AcDbLine
 10
392.640533
 20
211.0588229999999
 30
0.0
 11
392.640533
 21
207.0588229999999
 31
0.0
  0
LINE
  5
98C4
330
9885
100
AcDbEntity
  8
1
  6
Continuous
100
AcDbLine
 10
161.745102
 20
206.058823
 30
0.0
 11
161.745102
 21
187.924286
 31
0.0
  0
LINE
  5
98C5
330
9885
100
AcDbEntity
  8
1
  6
Continuous
100
AcDbLine
 10
181.745102
 20
178.5588229999999
 30
0.0
 11
181.745102
 21
167.267029
 31
0.0
  0
LINE
  5
98C6
330
9885
100
AcDbEntity
  8
1
  6
Continuous
100
AcDbLine
 10
178.032181
 20
181.5588229999999
 30
0.0
 11
180.745102
 21
181.5588229999999
 31
0.0
  0
LINE
  5
98C7
330
9885
100
AcDbEntity
  8
1
  6
Continuous
100
AcDbLine
 10
178.032181
 20
179.5588229999999
 30
0.0
 11
180.745102
 21
179.5588229999999
 31
0.0
  0
LINE
  5
98C8
330
9885
100
AcDbEntity
  8
1
  6
Continuous
100
AcDbLine
 10
162.745102
 20
154.058823
 30
0.0
 11
179.621201
 21
154.058823
 31
0.0
  0
LINE
  5
98C9
330
9885
100
AcDbEntity
  8
1
  6
Continuous
100
AcDbLine
 10
162.745102
 20
207.0588229999999
 30
0.0
 11
179.621201
 21
207.0588229999999
 31
0.0
  0
LINE
  5
98CA
330
9885
100
AcDbEntity
  8
1
  6
Continuous
100
AcDbLine
 10
183.7451019999998
 20
195.362671
 30
0.0
 11
183.7451019999998
 21
165.754974
 31
0.0
  0
LINE
  5
98CB
330
9885
100
AcDbEntity
  8
1
  6
Continuous
100
AcDbLine
 10
183.7451019999998
 20
212.058823
 30
0.0
 11
183.7451019999998
 21
205.754974
 31
0.0
  0
LINE
  5
98CC
330
9885
100
AcDbEntity
  8
1
  6
Continuous
100
AcDbLine
 10
183.7451019999998
 20
155.362671
 30
0.0
 11
183.7451019999998
 21
149.058823
 31
0.0
  0
LINE
  5
98CD
330
9885
100
AcDbEntity
  8
1
  6
Continuous
100
AcDbLine
 10
161.745102
 20
173.1933589999999
 30
0.0
 11
161.745102
 21
155.0588229999999
 31
0.0
  0
LINE
  5
98CE
330
9885
100
AcDbEntity
  8
1
  6
Continuous
100
AcDbLine
 10
181.745102
 20
193.850616
 30
0.0
 11
181.745102
 21
182.5588229999999
 31
0.0
  0
LINE
  5
98CF
330
9885
100
AcDbEntity
  8
1
  6
Continuous
100
AcDbLine
 10
151.4951019999998
 20
193.0588229999999
 30
0.0
 11
153.995102
 21
193.0588229999999
 31
0.0
  0
LINE
  5
98D0
330
9885
100
AcDbEntity
  8
1
  6
Continuous
100
AcDbLine
 10
151.4951019999998
 20
168.0588229999998
 30
0.0
 11
153.995102
 21
168.0588229999998
 31
0.0
  0
LINE
  5
98D1
330
9885
100
AcDbEntity
  8
1
  6
Continuous
100
AcDbLine
 10
150.495102
 20
192.0588229999999
 30
0.0
 11
150.495102
 21
169.0588229999999
 31
0.0
  0
LINE
  5
98D2
330
9885
100
AcDbEntity
  8
1
  6
Continuous
100
AcDbLine
 10
154.9951019999998
 20
192.0588229999999
 30
0.0
 11
154.9951019999998
 21
169.0588229999999
 31
0.0
  0
LINE
  5
98D3
330
9885
100
AcDbEntity
  8
1
  6
Continuous
100
AcDbLine
 10
161.2451019999998
 20
212.058823
 30
0.0
 11
161.2451019999998
 21
210.5588229999999
 31
0.0
  0
LINE
  5
98D4
330
9885
100
AcDbEntity
  8
1
  6
Continuous
100
AcDbLine
 10
161.2451019999998
 20
150.5588229999998
 30
0.0
 11
161.2451019999998
 21
149.058823
 31
0.0
  0
LINE
  5
98D5
330
9885
100
AcDbEntity
  8
5
  6
PHANTOM
100
AcDbLine
 10
152.3049619999999
 20
91.19467900000001
 30
0.0
 11
150.335342
 21
91.541977
 31
0.0
  0
LINE
  5
98D6
330
9885
100
AcDbEntity
  8
1
  6
Continuous
100
AcDbLine
 10
192.745102
 20
44.099998
 30
0.0
 11
192.745102
 21
41.5
 31
0.0
  0
LINE
  5
98D7
330
9885
100
AcDbEntity
  8
5
  6
PHANTOM
100
AcDbLine
 10
154.683029
 20
80.621094
 30
0.0
 11
150.5684809999999
 21
81.346603
 31
0.0
  0
LINE
  5
98D8
330
9885
100
AcDbEntity
  8
5
  6
PHANTOM
100
AcDbLine
 10
152.3049619999999
 20
91.19467900000001
 30
0.0
 11
150.5684809999999
 21
81.346603
 31
0.0
  0
LINE
  5
98D9
330
9885
100
AcDbEntity
  8
5
  6
PHANTOM
100
AcDbLine
 10
154.683029
 20
80.621086
 30
0.0
 11
161.0379489999999
 21
52.36511199999998
 31
0.0
  0
LINE
  5
98DA
330
9885
100
AcDbEntity
  8
1
  6
Continuous
100
AcDbLine
 10
183.163681
 20
44.099998
 30
0.0
 11
192.745102
 21
44.099998
 31
0.0
  0
LINE
  5
98DB
330
9885
100
AcDbEntity
  8
1
  6
Continuous
100
AcDbLine
 10
146.745087
 20
43.5
 30
0.0
 11
146.745087
 21
41.5
 31
0.0
  0
LINE
  5
98DC
330
9885
100
AcDbEntity
  8
5
  6
PHANTOM
100
AcDbLine
 10
146.0821689999999
 20
58.782848
 30
0.0
 11
144.6049649999999
 21
59.04332
 31
0.0
  0
LINE
  5
98DD
330
9885
100
AcDbEntity
  8
5
  6
PHANTOM
100
AcDbLine
 10
146.893326
 20
57.62439
 30
0.0
 11
146.7411189999999
 21
56.761181
 31
0.0
  0
LINE
  5
98DE
330
9885
100
AcDbEntity
  8
1
  6
Continuous
100
AcDbLine
 10
152.6509859999999
 20
47.45144299999998
 30
0.0
 11
155.788513
 21
50.700447
 31
0.0
  0
LINE
  5
98DF
330
9885
100
AcDbEntity
  8
1
  6
Continuous
100
AcDbLine
 10
149.7016909999999
 20
50.299541
 30
0.0
 11
152.8392179999999
 21
53.54854599999999
 31
0.0
  0
LINE
  5
98E0
330
9885
100
AcDbEntity
  8
4
  6
CENTER
100
AcDbLine
 10
124.395096
 20
160.5588229999999
 30
0.0
 11
113.0951
 21
160.5588229999999
 31
0.0
  0
LINE
  5
98E1
330
9885
100
AcDbEntity
  8
4
  6
CENTER
100
AcDbLine
 10
118.7450939999999
 20
166.2088169999998
 30
0.0
 11
118.7450939999999
 21
154.908829
 31
0.0
  0
LINE
  5
98E2
330
9885
100
AcDbEntity
  8
4
  6
CENTER
100
AcDbLine
 10
124.395096
 20
200.5588229999999
 30
0.0
 11
113.0951
 21
200.5588229999999
 31
0.0
  0
LINE
  5
98E3
330
9885
100
AcDbEntity
  8
4
  6
CENTER
100
AcDbLine
 10
118.7450939999999
 20
206.2088169999999
 30
0.0
 11
118.7450939999999
 21
194.9088289999999
 31
0.0
  0
LINE
  5
98E4
330
9885
100
AcDbEntity
  8
4
  6
CENTER
100
AcDbLine
 10
192.3950959999999
 20
200.5588229999999
 30
0.0
 11
181.0950929999999
 21
200.5588229999999
 31
0.0
  0
LINE
  5
98E5
330
9885
100
AcDbEntity
  8
4
  6
CENTER
100
AcDbLine
 10
186.745102
 20
206.2088169999999
 30
0.0
 11
186.745102
 21
194.9088289999999
 31
0.0
  0
LINE
  5
98E6
330
9885
100
AcDbEntity
  8
4
  6
CENTER
100
AcDbLine
 10
192.3950959999999
 20
160.5588229999999
 30
0.0
 11
181.0950929999999
 21
160.5588229999999
 31
0.0
  0
LINE
  5
98E7
330
9885
100
AcDbEntity
  8
4
  6
CENTER
100
AcDbLine
 10
186.745102
 20
166.2088169999998
 30
0.0
 11
186.745102
 21
154.908829
 31
0.0
  0
LINE
  5
98E8
330
9885
100
AcDbEntity
  8
1
  6
Continuous
100
AcDbLine
 10
27.0
 20
210.058823
 30
0.0
 11
27.0
 21
151.0588229999999
 31
0.0
  0
LINE
  5
98E9
330
9885
100
AcDbEntity
  8
1
  6
Continuous
100
AcDbLine
 10
27.5
 20
210.5588229999999
 30
0.0
 11
43.5
 21
210.5588229999999
 31
0.0
  0
LINE
  5
98EA
330
9885
100
AcDbEntity
  8
1
  6
Continuous
100
AcDbLine
 10
27.5
 20
150.5588229999998
 30
0.0
 11
43.5
 21
150.5588229999998
 31
0.0
  0
LINE
  5
98EB
330
9885
100
AcDbEntity
  8
1
  6
Continuous
100
AcDbLine
 10
28.5
 20
210.5588229999999
 30
0.0
 11
28.5
 21
150.5588229999998
 31
0.0
  0
LINE
  5
98EC
330
9885
100
AcDbEntity
  8
1
  6
Continuous
100
AcDbLine
 10
122.7450939999999
 20
212.058823
 30
0.0
 11
122.7450939999999
 21
209.5588229999999
 31
0.0
  0
LINE
  5
98ED
330
9885
100
AcDbEntity
  8
1
  6
Continuous
100
AcDbLine
 10
117.7450939999999
 20
151.5588229999998
 30
0.0
 11
122.7450939999999
 21
151.5588229999998
 31
0.0
  0
LINE
  5
98EE
330
9885
100
AcDbEntity
  8
1
  6
Continuous
100
AcDbLine
 10
117.7450939999999
 20
209.5588229999999
 30
0.0
 11
122.7450939999999
 21
209.5588229999999
 31
0.0
  0
LINE
  5
98EF
330
9885
100
AcDbEntity
  8
1
  6
Continuous
100
AcDbLine
 10
122.7450939999999
 20
210.5588229999999
 30
0.0
 11
164.1921653662348
 21
210.5588229999999
 31
0.0
  0
LINE
  5
98F0
330
9885
100
AcDbEntity
  8
1
  6
Continuous
100
AcDbLine
 10
122.7450939999999
 20
149.058823
 30
0.0
 11
187.745102
 21
149.058823
 31
0.0
  0
LINE
  5
98F1
330
9885
100
AcDbEntity
  8
1
  6
Continuous
100
AcDbLine
 10
122.7450939999999
 20
150.5588229999998
 30
0.0
 11
164.1921653662348
 21
150.5588229999998
 31
0.0
  0
LINE
  5
98F2
330
9885
100
AcDbEntity
  8
1
  6
Continuous
100
AcDbLine
 10
426.640533
 20
212.058823
 30
0.0
 11
426.640533
 21
209.5588229999999
 31
0.0
  0
LINE
  5
98F3
330
9885
100
AcDbEntity
  8
1
  6
Continuous
100
AcDbLine
 10
122.7450939999999
 20
151.5588229999998
 30
0.0
 11
122.7450939999999
 21
149.058823
 31
0.0
  0
LINE
  5
98F4
330
9885
100
AcDbEntity
  8
1
  6
Continuous
100
AcDbLine
 10
431.640533
 20
209.5588229999999
 30
0.0
 11
426.640533
 21
209.5588229999999
 31
0.0
  0
LINE
  5
98F5
330
9885
100
AcDbEntity
  8
1
  6
Continuous
100
AcDbLine
 10
431.640533
 20
151.5588229999998
 30
0.0
 11
426.640533
 21
151.5588229999998
 31
0.0
  0
LINE
  5
98F6
330
9885
100
AcDbEntity
  8
1
  6
Continuous
100
AcDbLine
 10
426.640533
 20
151.5588229999998
 30
0.0
 11
426.640533
 21
149.058823
 31
0.0
  0
LINE
  5
98F7
330
9885
100
AcDbEntity
  8
1
  6
Continuous
100
AcDbLine
 10
43.5
 20
168.0588229999998
 30
0.0
 11
43.5
 21
150.5588229999998
 31
0.0
  0
LINE
  5
98F8
330
9885
100
AcDbEntity
  8
1
  6
Continuous
100
AcDbLine
 10
284.9901729999999
 20
212.058823
 30
0.0
 11
284.9901729999999
 21
149.058823
 31
0.0
  0
LINE
  5
98F9
330
9885
100
AcDbEntity
  8
1
  6
Continuous
100
AcDbLine
 10
266.9901729999998
 20
210.5588229999999
 30
0.0
 11
266.9901729999998
 21
193.0588229999999
 31
0.0
  0
LINE
  5
98FA
330
9885
100
AcDbEntity
  8
1
  6
Continuous
100
AcDbLine
 10
284.9901729999999
 20
212.058823
 30
0.0
 11
267.4901729999999
 21
212.058823
 31
0.0
  0
LINE
  5
98FB
330
9885
100
AcDbEntity
  8
1
  6
Continuous
100
AcDbLine
 10
284.9901729999999
 20
149.058823
 30
0.0
 11
267.4901729999999
 21
149.058823
 31
0.0
  0
LINE
  5
98FC
330
9885
100
AcDbEntity
  8
1
  6
Continuous
100
AcDbLine
 10
266.9901729999998
 20
168.0588229999998
 30
0.0
 11
266.9901729999998
 21
150.5588229999998
 31
0.0
  0
LINE
  5
98FD
330
9885
100
AcDbEntity
  8
1
  6
Continuous
100
AcDbLine
 10
282.390198
 20
212.058823
 30
0.0
 11
282.390198
 21
181.1466219999998
 31
0.0
  0
LINE
  5
98FE
330
9885
100
AcDbEntity
  8
4
  6
CENTER
100
AcDbLine
 10
20.0
 20
180.5588229999999
 30
0.0
 11
48.0
 21
180.5588229999999
 31
0.0
  0
LINE
  5
98FF
330
9885
100
AcDbEntity
  8
4
  6
CENTER
100
AcDbLine
 10
261.9901729999999
 20
180.5588229999999
 30
0.0
 11
289.9901729999999
 21
180.5588229999999
 31
0.0
  0
LINE
  5
9900
330
9885
100
AcDbEntity
  8
1
  6
Continuous
100
AcDbLine
 10
273.390198
 20
154.058823
 30
0.0
 11
282.390198
 21
154.058823
 31
0.0
  0
LINE
  5
9901
330
9885
100
AcDbEntity
  8
1
  6
Continuous
100
AcDbLine
 10
273.390198
 20
207.0588229999999
 30
0.0
 11
282.390198
 21
207.0588229999999
 31
0.0
  0
LINE
  5
9902
330
9885
100
AcDbEntity
  8
1
  6
Continuous
100
AcDbLine
 10
272.3901979999999
 20
206.058823
 30
0.0
 11
272.3901979999999
 21
185.038864
 31
0.0
  0
LINE
  5
9903
330
9885
100
AcDbEntity
  8
1
  6
Continuous
100
AcDbLine
 10
272.3901979999999
 20
176.078781
 30
0.0
 11
272.3901979999999
 21
155.0588229999999
 31
0.0
  0
LINE
  5
9904
330
9885
100
AcDbEntity
  8
1
  6
Continuous
100
AcDbLine
 10
282.390198
 20
179.971024
 30
0.0
 11
282.390198
 21
149.058823
 31
0.0
  0
LINE
  5
9905
330
9885
100
AcDbEntity
  8
1
  6
Continuous
100
AcDbLine
 10
277.8005979999999
 20
172.0588229999999
 30
0.0
 11
282.390198
 21
172.0588229999999
 31
0.0
  0
LINE
  5
9906
330
9885
100
AcDbEntity
  8
1
  6
Continuous
100
AcDbLine
 10
277.8005979999999
 20
189.0588229999999
 30
0.0
 11
282.390198
 21
189.0588229999999
 31
0.0
  0
LINE
  5
9907
330
9885
100
AcDbEntity
  8
4
  6
CENTER
100
AcDbLine
 10
23.22273099999997
 20
160.5588229999999
 30
0.0
 11
30.57185399999999
 21
160.5588229999999
 31
0.0
  0
LINE
  5
9908
330
9885
100
AcDbEntity
  8
4
  6
CENTER
100
AcDbLine
 10
23.22273099999997
 20
200.5588229999999
 30
0.0
 11
30.57185399999999
 21
200.5588229999999
 31
0.0
  0
LINE
  5
9909
330
9885
100
AcDbEntity
  8
4
  6
CENTER
100
AcDbLine
 10
280.217529
 20
160.5588229999999
 30
0.0
 11
287.0169369999999
 21
160.5588229999999
 31
0.0
  0
LINE
  5
990A
330
9885
100
AcDbEntity
  8
4
  6
CENTER
100
AcDbLine
 10
280.217529
 20
200.5588229999999
 30
0.0
 11
287.0169369999999
 21
200.5588229999999
 31
0.0
  0
LINE
  5
990B
330
9885
100
AcDbEntity
  8
1
  6
Continuous
100
AcDbLine
 10
276.6401979999999
 20
212.058823
 30
0.0
 11
276.6401979999999
 21
210.5588229999999
 31
0.0
  0
LINE
  5
990C
330
9885
100
AcDbEntity
  8
1
  6
Continuous
100
AcDbLine
 10
276.6401979999999
 20
210.5588229999999
 30
0.0
 11
266.9901729999998
 21
210.5588229999999
 31
0.0
  0
LINE
  5
990D
330
9885
100
AcDbEntity
  8
1
  6
Continuous
100
AcDbLine
 10
276.6401979999999
 20
150.5588229999998
 30
0.0
 11
266.9901729999998
 21
150.5588229999998
 31
0.0
  0
LINE
  5
990E
330
9885
100
AcDbEntity
  8
1
  6
Continuous
100
AcDbLine
 10
276.6401979999999
 20
150.5588229999998
 30
0.0
 11
276.6401979999999
 21
149.058823
 31
0.0
  0
LINE
  5
990F
330
9885
100
AcDbEntity
  8
1
  6
Continuous
100
AcDbLine
 10
25.5
 20
151.5588229999998
 30
0.0
 11
27.0
 21
151.5588229999998
 31
0.0
  0
LINE
  5
9910
330
9885
100
AcDbEntity
  8
1
  6
Continuous
100
AcDbLine
 10
25.5
 20
209.5588229999999
 30
0.0
 11
27.0
 21
209.5588229999999
 31
0.0
  0
LINE
  5
9911
330
9885
100
AcDbEntity
  8
1
  6
Continuous
100
AcDbLine
 10
31.177999
 20
212.058823
 30
0.0
 11
31.177999
 21
210.5588229999999
 31
0.0
  0
LINE
  5
9912
330
9885
100
AcDbEntity
  8
1
  6
Continuous
100
AcDbLine
 10
31.177999
 20
150.5588229999998
 30
0.0
 11
31.177999
 21
149.058823
 31
0.0
  0
LINE
  5
9913
330
9885
100
AcDbEntity
  8
1
  6
Continuous
100
AcDbLine
 10
426.640533
 20
149.058823
 30
0.0
 11
361.640533
 21
149.058823
 31
0.0
  0
LINE
  5
9914
330
9885
100
AcDbEntity
  8
1
  6
Continuous
100
AcDbLine
 10
426.640533
 20
212.058823
 30
0.0
 11
361.640533
 21
212.058823
 31
0.0
  0
LINE
  5
9915
330
9885
100
AcDbEntity
  8
4
  6
CENTER
100
AcDbLine
 10
275.9901729999999
 20
217.0588229999999
 30
0.0
 11
275.9901729999999
 21
144.0588229999999
 31
0.0
  0
LINE
  5
9916
330
9885
100
AcDbEntity
  8
5
  6
PHANTOM
100
AcDbLine
 10
150.335342
 20
91.541977
 30
0.0
 11
144.6049649999999
 21
59.04332
 31
0.0
  0
LINE
  5
9917
330
9885
100
AcDbEntity
  8
1
  6
Continuous
100
AcDbLine
 10
112.7450939999999
 20
43.0
 30
0.0
 11
112.7450939999999
 21
41.5
 31
0.0
  0
LINE
  5
9918
330
9885
100
AcDbEntity
  8
1
  6
Continuous
100
AcDbLine
 10
122.7450939999999
 20
47.178013
 30
0.0
 11
122.7450939999999
 21
41.5
 31
0.0
  0
LINE
  5
9919
330
9885
100
AcDbEntity
  8
1
  6
Continuous
100
AcDbLine
 10
112.7450939999999
 20
43.0
 30
0.0
 11
122.7450939999999
 21
43.0
 31
0.0
  0
LINE
  5
991A
330
9885
100
AcDbEntity
  8
1
  6
Continuous
100
AcDbLine
 10
122.7451019999999
 20
47.17801699999998
 30
0.0
 11
149.4682919999999
 21
58.342995
 31
0.0
  0
LINE
  5
991B
330
9885
100
AcDbEntity
  8
1
  6
Continuous
100
AcDbLine
 10
145.745087
 20
42.5
 30
0.0
 11
145.745087
 21
41.5
 31
0.0
  0
LINE
  5
991C
330
9885
100
AcDbEntity
  8
1
  6
Continuous
100
AcDbLine
 10
146.745087
 20
43.5
 30
0.0
 11
147.621613
 21
43.5
 31
0.0
  0
LINE
  5
991D
330
9885
100
AcDbEntity
  8
4
  6
CENTER
100
AcDbLine
 10
34.5
 20
217.0588229999999
 30
0.0
 11
34.5
 21
144.0588229999999
 31
0.0
  0
LINE
  5
991E
330
9885
100
AcDbEntity
  8
4
  6
CENTER
100
AcDbLine
 10
186.745102
 20
45.59999799999999
 30
0.0
 11
186.745102
 21
39.5
 31
0.0
  0
LINE
  5
991F
330
9885
100
AcDbEntity
  8
4
  6
CENTER
100
AcDbLine
 10
168.745102
 20
45.59999799999999
 30
0.0
 11
168.745102
 21
39.5
 31
0.0
  0
LINE
  5
9920
330
9885
100
AcDbEntity
  8
4
  6
CENTER
100
AcDbLine
 10
136.745087
 20
45.59999799999999
 30
0.0
 11
136.745087
 21
39.5
 31
0.0
  0
LINE
  5
9921
330
9885
100
AcDbEntity
  8
4
  6
CENTER
100
AcDbLine
 10
118.7450939999999
 20
44.5
 30
0.0
 11
118.7450939999999
 21
39.5
 31
0.0
  0
LINE
  5
9922
330
9885
100
AcDbEntity
  8
1
  6
Continuous
100
AcDbLine
 10
146.745087
 20
41.5
 30
0.0
 11
192.745102
 21
41.5
 31
0.0
  0
LINE
  5
9923
330
9885
100
AcDbEntity
  8
1
  6
Continuous
100
AcDbLine
 10
112.7450939999999
 20
41.5
 30
0.0
 11
145.745087
 21
41.5
 31
0.0
  0
LINE
  5
9924
330
9885
100
AcDbEntity
  8
4
  6
CENTER
100
AcDbLine
 10
165.2451019999998
 20
50.5
 30
0.0
 11
140.2451019999998
 21
50.5
 31
0.0
  0
LINE
  5
9925
330
9885
100
AcDbEntity
  8
4
  6
CENTER
100
AcDbLine
 10
152.7451019999998
 20
63.0
 30
0.0
 11
152.7451019999998
 21
38.0
 31
0.0
  0
LINE
  5
9926
330
9885
100
AcDbEntity
  8
1
  6
Continuous
100
AcDbLine
 10
267.9901729999999
 20
192.0588229999999
 30
0.0
 11
267.9901729999999
 21
169.0588229999999
 31
0.0
  0
LINE
  5
9927
330
9885
100
AcDbEntity
  8
1
  6
Continuous
100
AcDbLine
 10
42.5
 20
192.0588229999999
 30
0.0
 11
42.5
 21
169.0588229999999
 31
0.0
  0
LINE
  5
9928
330
9885
100
AcDbEntity
  8
1
  6
Continuous
100
AcDbLine
 10
129.245087
 20
174.3663479999999
 30
0.0
 11
129.245087
 21
175.6193239999998
 31
0.0
  0
LINE
  5
9929
330
9885
100
AcDbEntity
  8
1
  6
Continuous
100
AcDbLine
 10
129.245087
 20
177.279556
 30
0.0
 11
129.245087
 21
177.9061129999998
 31
0.0
  0
LINE
  5
992A
330
9885
100
AcDbEntity
  8
1
  6
Continuous
100
AcDbLine
 10
129.245087
 20
185.879547
 30
0.0
 11
129.245087
 21
186.5061189999999
 31
0.0
  0
LINE
  5
992B
330
9885
100
AcDbEntity
  8
1
  6
Continuous
100
AcDbLine
 10
128.2301479999999
 20
175.6193239999998
 30
0.0
 11
130.2301479999999
 21
175.6193239999998
 31
0.0
  0
LINE
  5
992C
330
9885
100
AcDbEntity
  8
1
  6
Continuous
100
AcDbLine
 10
128.245087
 20
172.2088169999999
 30
0.0
 11
128.245087
 21
173.7837979999999
 31
0.0
  0
LINE
  5
992D
330
9885
100
AcDbEntity
  8
1
  6
Continuous
100
AcDbLine
 10
128.245102
 20
172.992828
 30
0.0
 11
130.245102
 21
172.992828
 31
0.0
  0
LINE
  5
992E
330
9885
100
AcDbEntity
  8
1
  6
Continuous
100
AcDbLine
 10
128.2301479999999
 20
174.3663479999999
 30
0.0
 11
130.2301479999999
 21
174.3663479999999
 31
0.0
  0
LINE
  5
992F
330
9885
100
AcDbEntity
  8
1
  6
Continuous
100
AcDbLine
 10
125.8538669999998
 20
190.1414179999999
 30
0.0
 11
125.8538669999998
 21
191.777237
 31
0.0
  0
LINE
  5
9930
330
9885
100
AcDbEntity
  8
1
  6
Continuous
100
AcDbLine
 10
123.685333
 20
190.9729
 30
0.0
 11
126.756012
 21
192.1088259999999
 31
0.0
  0
LINE
  5
9931
330
9885
100
AcDbEntity
  8
1
  6
Continuous
100
AcDbLine
 10
125.190727
 20
178.487167
 30
0.0
 11
125.190727
 21
180.432693
 31
0.0
  0
LINE
  5
9932
330
9885
100
AcDbEntity
  8
1
  6
Continuous
100
AcDbLine
 10
123.7450939999999
 20
170.226257
 30
0.0
 11
126.745094
 21
170.226257
 31
0.0
  0
LINE
  5
9933
330
9885
100
AcDbEntity
  8
1
  6
Continuous
100
AcDbLine
 10
123.7450939999999
 20
169.0088199999999
 30
0.0
 11
123.7450939999999
 21
171.4544529999997
 31
0.0
  0
LINE
  5
9934
330
9885
100
AcDbEntity
  8
1
  6
Continuous
100
AcDbLine
 10
123.6146469999999
 20
178.487167
 30
0.0
 11
126.766808
 21
178.487167
 31
0.0
  0
LINE
  5
9935
330
9885
100
AcDbEntity
  8
1
  6
Continuous
100
AcDbLine
 10
125.3428879999999
 20
183.94368
 30
0.0
 11
125.3428879999999
 21
184.9980009999999
 31
0.0
  0
LINE
  5
9936
330
9885
100
AcDbEntity
  8
1
  6
Continuous
100
AcDbLine
 10
123.6146469999999
 20
180.432693
 30
0.0
 11
126.766808
 21
180.432693
 31
0.0
  0
LINE
  5
9937
330
9885
100
AcDbEntity
  8
1
  6
Continuous
100
AcDbLine
 10
123.6146469999999
 20
181.487167
 30
0.0
 11
126.766808
 21
181.487167
 31
0.0
  0
LINE
  5
9938
330
9885
100
AcDbEntity
  8
1
  6
Continuous
100
AcDbLine
 10
123.6907269999999
 20
190.972885
 30
0.0
 11
126.756012
 21
189.7827299999999
 31
0.0
  0
LINE
  5
9939
330
9885
100
AcDbEntity
  8
1
  6
Continuous
100
AcDbLine
 10
125.353821
 20
187.9653629999999
 30
0.0
 11
126.766808
 21
187.9653629999999
 31
0.0
  0
LINE
  5
993A
330
9885
100
AcDbEntity
  8
1
  6
Continuous
100
AcDbLine
 10
125.7900009999999
 20
184.9980009999999
 30
0.0
 11
126.745094
 21
184.9980009999999
 31
0.0
  0
LINE
  5
993B
330
9885
100
AcDbEntity
  8
1
  6
Continuous
100
AcDbLine
 10
123.6146469999999
 20
185.867523
 30
0.0
 11
126.766808
 21
185.867523
 31
0.0
  0
LINE
  5
993C
330
9885
100
AcDbEntity
  8
1
  6
Continuous
100
AcDbLine
 10
125.3538279999998
 20
187.9653629999999
 30
0.0
 11
123.5907969999999
 21
188.9833069999999
 31
0.0
  0
LINE
  5
993D
330
9885
100
AcDbEntity
  8
1
  6
Continuous
100
AcDbLine
 10
125.348412
 20
187.965347
 30
0.0
 11
123.5926899999999
 21
186.954834
 31
0.0
  0
LINE
  5
993E
330
9885
100
AcDbEntity
  8
1
  6
Continuous
100
AcDbLine
 10
128.245087
 20
179.592834
 30
0.0
 11
130.245087
 21
179.592834
 31
0.0
  0
LINE
  5
993F
330
9885
100
AcDbEntity
  8
1
  6
Continuous
100
AcDbLine
 10
128.245102
 20
179.592834
 30
0.0
 11
128.4589389999997
 21
179.372116
 31
0.0
  0
LINE
  5
9940
330
9885
100
AcDbEntity
  8
1
  6
Continuous
100
AcDbLine
 10
130.245102
 20
187.72168
 30
0.0
 11
129.151978
 21
188.767181
 31
0.0
  0
LINE
  5
9941
330
9885
100
AcDbEntity
  8
1
  6
Continuous
100
AcDbLine
 10
128.8589629999999
 20
183.2038269999999
 30
0.0
 11
129.6347499999999
 21
183.2038269999999
 31
0.0
  0
LINE
  5
9942
330
9885
100
AcDbEntity
  8
1
  6
Continuous
100
AcDbLine
 10
128.8589629999999
 20
184.388824
 30
0.0
 11
129.6347499999999
 21
184.388824
 31
0.0
  0
LINE
  5
9943
330
9885
100
AcDbEntity
  8
1
  6
Continuous
100
AcDbLine
 10
130.245087
 20
187.7216639999998
 30
0.0
 11
130.245087
 21
188.908829
 31
0.0
  0
LINE
  5
9944
330
9885
100
AcDbEntity
  8
1
  6
Continuous
100
AcDbLine
 10
129.246857
 20
181.720123
 30
0.0
 11
129.246857
 21
182.0128479999999
 31
0.0
  0
LINE
  5
9945
330
9885
100
AcDbEntity
  8
1
  6
Continuous
100
AcDbLine
 10
428.140533
 20
186.7512969999999
 30
0.0
 11
428.140533
 21
185.498322
 31
0.0
  0
LINE
  5
9946
330
9885
100
AcDbEntity
  8
1
  6
Continuous
100
AcDbLine
 10
428.140533
 20
183.838089
 30
0.0
 11
428.140533
 21
183.211533
 31
0.0
  0
LINE
  5
9947
330
9885
100
AcDbEntity
  8
1
  6
Continuous
100
AcDbLine
 10
428.140533
 20
175.238098
 30
0.0
 11
428.140533
 21
174.611526
 31
0.0
  0
LINE
  5
9948
330
9885
100
AcDbEntity
  8
1
  6
Continuous
100
AcDbLine
 10
429.1554869999997
 20
185.498322
 30
0.0
 11
427.155487
 21
185.498322
 31
0.0
  0
LINE
  5
9949
330
9885
100
AcDbEntity
  8
1
  6
Continuous
100
AcDbLine
 10
429.1405329999998
 20
188.908829
 30
0.0
 11
429.1405329999998
 21
187.333847
 31
0.0
  0
LINE
  5
994A
330
9885
100
AcDbEntity
  8
1
  6
Continuous
100
AcDbLine
 10
429.1405329999998
 20
188.1248169999999
 30
0.0
 11
427.140533
 21
188.1248169999999
 31
0.0
  0
LINE
  5
994B
330
9885
100
AcDbEntity
  8
1
  6
Continuous
100
AcDbLine
 10
429.1554869999997
 20
186.7512969999999
 30
0.0
 11
427.155487
 21
186.7512969999999
 31
0.0
  0
LINE
  5
994C
330
9885
100
AcDbEntity
  8
1
  6
Continuous
100
AcDbLine
 10
431.531769
 20
170.9762269999997
 30
0.0
 11
431.531769
 21
169.340408
 31
0.0
  0
LINE
  5
994D
330
9885
100
AcDbEntity
  8
1
  6
Continuous
100
AcDbLine
 10
433.700287
 20
170.144745
 30
0.0
 11
430.629608
 21
169.0088199999999
 31
0.0
  0
LINE
  5
994E
330
9885
100
AcDbEntity
  8
1
  6
Continuous
100
AcDbLine
 10
432.1948849999998
 20
182.630478
 30
0.0
 11
432.1948849999998
 21
180.684952
 31
0.0
  0
LINE
  5
994F
330
9885
100
AcDbEntity
  8
1
  6
Continuous
100
AcDbLine
 10
433.6405329999998
 20
190.8913879999998
 30
0.0
 11
430.640533
 21
190.8913879999998
 31
0.0
  0
LINE
  5
9950
330
9885
100
AcDbEntity
  8
1
  6
Continuous
100
AcDbLine
 10
433.6405329999998
 20
192.1088259999999
 30
0.0
 11
433.6405329999998
 21
189.663193
 31
0.0
  0
LINE
  5
9951
330
9885
100
AcDbEntity
  8
1
  6
Continuous
100
AcDbLine
 10
433.7709659999998
 20
182.630478
 30
0.0
 11
430.618805
 21
182.630478
 31
0.0
  0
LINE
  5
9952
330
9885
100
AcDbEntity
  8
1
  6
Continuous
100
AcDbLine
 10
432.042725
 20
177.1739649999999
 30
0.0
 11
432.042725
 21
176.1196439999999
 31
0.0
  0
LINE
  5
9953
330
9885
100
AcDbEntity
  8
1
  6
Continuous
100
AcDbLine
 10
433.7709659999998
 20
180.684952
 30
0.0
 11
430.618805
 21
180.684952
 31
0.0
  0
LINE
  5
9954
330
9885
100
AcDbEntity
  8
1
  6
Continuous
100
AcDbLine
 10
433.7709659999998
 20
179.630478
 30
0.0
 11
430.618805
 21
179.630478
 31
0.0
  0
LINE
  5
9955
330
9885
100
AcDbEntity
  8
1
  6
Continuous
100
AcDbLine
 10
433.6949159999998
 20
170.1447749999998
 30
0.0
 11
430.629608
 21
171.33493
 31
0.0
  0
LINE
  5
9956
330
9885
100
AcDbEntity
  8
1
  6
Continuous
100
AcDbLine
 10
432.0317989999998
 20
173.152283
 30
0.0
 11
430.618805
 21
173.152283
 31
0.0
  0
LINE
  5
9957
330
9885
100
AcDbEntity
  8
1
  6
Continuous
100
AcDbLine
 10
431.595642
 20
176.1196439999999
 30
0.0
 11
430.640533
 21
176.1196439999999
 31
0.0
  0
LINE
  5
9958
330
9885
100
AcDbEntity
  8
1
  6
Continuous
100
AcDbLine
 10
433.7709659999998
 20
175.250122
 30
0.0
 11
430.618805
 21
175.250122
 31
0.0
  0
LINE
  5
9959
330
9885
100
AcDbEntity
  8
1
  6
Continuous
100
AcDbLine
 10
432.0317989999998
 20
173.152283
 30
0.0
 11
433.7948299999998
 21
172.134323
 31
0.0
  0
LINE
  5
995A
330
9885
100
AcDbEntity
  8
1
  6
Continuous
100
AcDbLine
 10
432.0372009999998
 20
173.152283
 30
0.0
 11
433.792938
 21
174.162811
 31
0.0
  0
LINE
  5
995B
330
9885
100
AcDbEntity
  8
1
  6
Continuous
100
AcDbLine
 10
429.1405329999998
 20
181.5248109999997
 30
0.0
 11
427.140533
 21
181.5248109999997
 31
0.0
  0
LINE
  5
995C
330
9885
100
AcDbEntity
  8
1
  6
Continuous
100
AcDbLine
 10
429.1405029999999
 20
181.5248109999997
 30
0.0
 11
428.926666
 21
181.7455139999999
 31
0.0
  0
LINE
  5
995D
330
9885
100
AcDbEntity
  8
1
  6
Continuous
100
AcDbLine
 10
427.140533
 20
173.395966
 30
0.0
 11
428.2336429999999
 21
172.350449
 31
0.0
  0
LINE
  5
995E
330
9885
100
AcDbEntity
  8
1
  6
Continuous
100
AcDbLine
 10
428.526672
 20
177.9138179999999
 30
0.0
 11
427.750885
 21
177.9138179999999
 31
0.0
  0
LINE
  5
995F
330
9885
100
AcDbEntity
  8
1
  6
Continuous
100
AcDbLine
 10
428.526672
 20
176.7288209999999
 30
0.0
 11
427.750885
 21
176.7288209999999
 31
0.0
  0
LINE
  5
9960
330
9885
100
AcDbEntity
  8
1
  6
Continuous
100
AcDbLine
 10
427.140533
 20
173.3959809999998
 30
0.0
 11
427.140533
 21
172.2088169999999
 31
0.0
  0
LINE
  5
9961
330
9885
100
AcDbEntity
  8
1
  6
Continuous
100
AcDbLine
 10
428.138763
 20
179.397522
 30
0.0
 11
428.138763
 21
179.1047969999999
 31
0.0
  0
CIRCLE
  5
9962
330
9885
100
AcDbEntity
  8
1
  6
Continuous
100
AcDbCircle
 10
118.7450939999999
 20
200.5588229999999
 30
0.0
 40
2.649999999999999
  0
CIRCLE
  5
9963
330
9885
100
AcDbEntity
  8
1
  6
Continuous
100
AcDbCircle
 10
118.7450939999999
 20
160.5588229999999
 30
0.0
 40
2.649999999999999
  0
CIRCLE
  5
9964
330
9885
100
AcDbEntity
  8
1
  6
Continuous
100
AcDbCircle
 10
186.745102
 20
200.5588229999999
 30
0.0
 40
2.649999999999999
  0
CIRCLE
  5
9965
330
9885
100
AcDbEntity
  8
1
  6
Continuous
100
AcDbCircle
 10
186.745102
 20
160.5588229999999
 30
0.0
 40
2.649999999999999
  0
CIRCLE
  5
9966
330
9885
100
AcDbEntity
  8
1
  6
Continuous
100
AcDbCircle
 10
136.745087
 20
180.5588229999999
 30
0.0
 40
2.649999999999999
  0
CIRCLE
  5
9967
330
9885
100
AcDbEntity
  8
1
  6
Continuous
100
AcDbCircle
 10
168.745102
 20
180.5588229999999
 30
0.0
 40
2.649999999999999
  0
CIRCLE
  5
9968
330
9885
100
AcDbEntity
  8
1
  6
Continuous
100
AcDbCircle
 10
430.640533
 20
200.5588229999999
 30
0.0
 40
2.649999999999999
  0
CIRCLE
  5
9969
330
9885
100
AcDbEntity
  8
1
  6
Continuous
100
AcDbCircle
 10
430.640533
 20
160.5588229999999
 30
0.0
 40
2.649999999999999
  0
CIRCLE
  5
996A
330
9885
100
AcDbEntity
  8
1
  6
Continuous
100
AcDbCircle
 10
362.640533
 20
200.5588229999999
 30
0.0
 40
2.649999999999999
  0
CIRCLE
  5
996B
330
9885
100
AcDbEntity
  8
1
  6
Continuous
100
AcDbCircle
 10
362.640533
 20
160.5588229999999
 30
0.0
 40
2.649999999999999
  0
CIRCLE
  5
996C
330
9885
100
AcDbEntity
  8
1
  6
Continuous
100
AcDbCircle
 10
412.6405329999998
 20
180.5588229999999
 30
0.0
 40
2.649999999999999
  0
CIRCLE
  5
996D
330
9885
100
AcDbEntity
  8
1
  6
Continuous
100
AcDbCircle
 10
380.640533
 20
180.5588229999999
 30
0.0
 40
2.649999999999999
  0
ARC
  5
996E
330
9885
100
AcDbEntity
  8
1
  6
Continuous
100
AcDbCircle
 10
395.3905329999998
 20
169.0588229999999
 30
0.0
 40
1.0
100
AcDbArc
 50
179.9999909999999
 51
270.000001
  0
ARC
  5
996F
330
9885
100
AcDbEntity
  8
1
  6
Continuous
100
AcDbCircle
 10
397.890533
 20
169.0588229999999
 30
0.0
 40
1.0
100
AcDbArc
 50
269.9999969999999
 51
0.0
  0
ARC
  5
9970
330
9885
100
AcDbEntity
  8
1
  6
Continuous
100
AcDbCircle
 10
395.3905329999998
 20
192.0588229999999
 30
0.0
 40
1.0
100
AcDbArc
 50
90.00000300000001
 51
180.000005
  0
ARC
  5
9971
330
9885
100
AcDbEntity
  8
1
  6
Continuous
100
AcDbCircle
 10
397.890533
 20
192.0588229999999
 30
0.0
 40
1.0
100
AcDbArc
 50
0.0
 51
90.00000300000001
  0
ARC
  5
9972
330
9885
100
AcDbEntity
  8
1
  6
Continuous
100
AcDbCircle
 10
361.640533
 20
154.058823
 30
0.0
 40
5.0
100
AcDbArc
 50
179.9999909999999
 51
270.000001
  0
ARC
  5
9973
330
9885
100
AcDbEntity
  8
1
  6
Continuous
100
AcDbCircle
 10
361.640533
 20
207.0588229999999
 30
0.0
 40
5.0
100
AcDbArc
 50
90.00000300000001
 51
180.000005
  0
CIRCLE
  5
9974
330
9885
100
AcDbEntity
  8
1
  6
Continuous
100
AcDbCircle
 10
392.640533
 20
152.0588229999999
 30
0.0
 40
1.0
  0
CIRCLE
  5
9975
330
9885
100
AcDbEntity
  8
1
  6
Continuous
100
AcDbCircle
 10
392.640533
 20
152.0588229999999
 30
0.0
 40
0.6
  0
CIRCLE
  5
9976
330
9885
100
AcDbEntity
  8
1
  6
Continuous
100
AcDbCircle
 10
392.640533
 20
209.0588229999999
 30
0.0
 40
1.0
  0
CIRCLE
  5
9977
330
9885
100
AcDbEntity
  8
1
  6
Continuous
100
AcDbCircle
 10
392.640533
 20
209.0588229999999
 30
0.0
 40
0.6
  0
CIRCLE
  5
9978
330
9885
100
AcDbEntity
  8
1
  6
Continuous
100
AcDbCircle
 10
168.745102
 20
180.5588229999999
 30
0.0
 40
6.0
  0
ARC
  5
9979
330
9885
100
AcDbEntity
  8
1
  6
Continuous
100
AcDbCircle
 10
168.745102
 20
180.5588229999999
 30
0.0
 40
8.5
100
AcDbArc
 50
12.153197
 51
129.166705
  0
ARC
  5
997A
330
9885
100
AcDbEntity
  8
1
  6
Continuous
100
AcDbCircle
 10
186.745102
 20
160.5588229999999
 30
0.0
 40
8.0
100
AcDbArc
 50
131.8103159999997
 51
217.669892
  0
ARC
  5
997B
330
9885
100
AcDbEntity
  8
1
  6
Continuous
100
AcDbCircle
 10
186.745102
 20
200.5588229999999
 30
0.0
 40
8.0
100
AcDbArc
 50
142.3301179999999
 51
228.189681
  0
ARC
  5
997C
330
9885
100
AcDbEntity
  8
1
  6
Continuous
100
AcDbCircle
 10
186.745102
 20
160.5588229999999
 30
0.0
 40
6.0
100
AcDbArc
 50
120.0000029999997
 51
240.0000069999999
  0
ARC
  5
997D
330
9885
100
AcDbEntity
  8
1
  6
Continuous
100
AcDbCircle
 10
186.745102
 20
200.5588229999999
 30
0.0
 40
6.0
100
AcDbArc
 50
120.0000029999997
 51
240.0000069999999
  0
ARC
  5
997E
330
9885
100
AcDbEntity
  8
1
  6
Continuous
100
AcDbCircle
 10
168.745102
 20
180.5588229999999
 30
0.0
 40
8.5
100
AcDbArc
 50
230.833295
 51
347.846803
  0
ARC
  5
997F
330
9885
100
AcDbEntity
  8
1
  6
Continuous
100
AcDbCircle
 10
162.745102
 20
173.1933589999999
 30
0.0
 40
1.0
100
AcDbArc
 50
50.83328999999999
 51
180.000005
  0
ARC
  5
9980
330
9885
100
AcDbEntity
  8
1
  6
Continuous
100
AcDbCircle
 10
162.745102
 20
187.924286
 30
0.0
 40
1.0
100
AcDbArc
 50
179.9999909999999
 51
309.16671
  0
ARC
  5
9981
330
9885
100
AcDbEntity
  8
1
  6
Continuous
100
AcDbCircle
 10
179.621201
 20
206.058823
 30
0.0
 40
1.0
100
AcDbArc
 50
322.3301129999999
 51
90.00000300000001
  0
ARC
  5
9982
330
9885
100
AcDbEntity
  8
1
  6
Continuous
100
AcDbCircle
 10
179.621201
 20
155.0588229999999
 30
0.0
 40
1.0
100
AcDbArc
 50
269.9999969999999
 51
37.66988700000001
  0
ARC
  5
9983
330
9885
100
AcDbEntity
  8
1
  6
Continuous
100
AcDbCircle
 10
178.032181
 20
178.5588229999999
 30
0.0
 40
1.0
100
AcDbArc
 50
90.00000300000001
 51
167.846804
  0
ARC
  5
9984
330
9885
100
AcDbEntity
  8
1
  6
Continuous
100
AcDbCircle
 10
180.745102
 20
178.5588229999999
 30
0.0
 40
1.0
100
AcDbArc
 50
0.0
 51
90.00000300000001
  0
ARC
  5
9985
330
9885
100
AcDbEntity
  8
1
  6
Continuous
100
AcDbCircle
 10
180.745102
 20
182.5588229999999
 30
0.0
 40
1.0
100
AcDbArc
 50
269.9999969999999
 51
0.0
  0
ARC
  5
9986
330
9885
100
AcDbEntity
  8
1
  6
Continuous
100
AcDbCircle
 10
178.032181
 20
182.5588229999999
 30
0.0
 40
1.0
100
AcDbArc
 50
192.153196
 51
269.9999969999999
  0
ARC
  5
9987
330
9885
100
AcDbEntity
  8
1
  6
Continuous
100
AcDbCircle
 10
162.745102
 20
155.0588229999999
 30
0.0
 40
1.0
100
AcDbArc
 50
179.9999909999999
 51
270.000001
  0
ARC
  5
9988
330
9885
100
AcDbEntity
  8
1
  6
Continuous
100
AcDbCircle
 10
162.745102
 20
206.058823
 30
0.0
 40
1.0
100
AcDbArc
 50
90.00000300000001
 51
180.000005
  0
ARC
  5
9989
330
9885
100
AcDbEntity
  8
1
  6
Continuous
100
AcDbCircle
 10
151.4951019999998
 20
169.0588229999999
 30
0.0
 40
1.0
100
AcDbArc
 50
179.9999909999999
 51
270.000001
  0
ARC
  5
998A
330
9885
100
AcDbEntity
  8
1
  6
Continuous
100
AcDbCircle
 10
153.995102
 20
169.0588229999999
 30
0.0
 40
1.0
100
AcDbArc
 50
269.9999969999999
 51
0.0
  0
ARC
  5
998B
330
9885
100
AcDbEntity
  8
1
  6
Continuous
100
AcDbCircle
 10
151.4951019999998
 20
192.0588229999999
 30
0.0
 40
1.0
100
AcDbArc
 50
90.00000300000001
 51
180.000005
  0
ARC
  5
998C
330
9885
100
AcDbEntity
  8
1
  6
Continuous
100
AcDbCircle
 10
153.995102
 20
192.0588229999999
 30
0.0
 40
1.0
100
AcDbArc
 50
0.0
 51
90.00000300000001
  0
ARC
  5
998D
330
9885
100
AcDbEntity
  8
5
  6
PHANTOM
100
AcDbCircle
 10
152.7451019999998
 20
50.5
 30
0.0
 40
8.5
100
AcDbArc
 50
137.363109
 51
12.675229
  0
ARC
  5
998E
330
9885
100
AcDbEntity
  8
1
  6
Continuous
100
AcDbCircle
 10
152.7451019999998
 20
50.5
 30
0.0
 40
11.5
100
AcDbArc
 50
320.2081819999999
 51
354.500368304502
  0
ARC
  5
998F
330
9885
100
AcDbEntity
  8
5
  6
PHANTOM
100
AcDbCircle
 10
145.908524
 20
57.79803799999999
 30
0.0
 40
1.0
100
AcDbArc
 50
350.0000029999998
 51
80.000005
  0
ARC
  5
9990
330
9885
100
AcDbEntity
  8
5
  6
PHANTOM
100
AcDbCircle
 10
145.756317
 20
56.93483
 30
0.0
 40
1.0
100
AcDbArc
 50
317.363104
 51
350.0000029999998
  0
ARC
  5
9991
330
9885
100
AcDbEntity
  8
1
  6
Continuous
100
AcDbCircle
 10
152.7451019999998
 20
50.5
 30
0.0
 40
3.049999999999998
100
AcDbArc
 50
183.768238
 51
268.2317639999999
  0
ARC
  5
9992
330
9885
100
AcDbEntity
  8
1
  6
Continuous
100
AcDbCircle
 10
152.7451019999998
 20
50.5
 30
0.0
 40
3.049999999999998
100
AcDbArc
 50
3.768238
 51
88.231762
  0
ARC
  5
9993
330
9885
100
AcDbEntity
  8
1
  6
Continuous
100
AcDbCircle
 10
431.640533
 20
204.5588229999999
 30
0.0
 40
5.0
100
AcDbArc
 50
0.0
 51
90.00000300000001
  0
ARC
  5
9994
330
9885
100
AcDbEntity
  8
1
  6
Continuous
100
AcDbCircle
 10
431.640533
 20
156.5588229999999
 30
0.0
 40
5.0
100
AcDbArc
 50
269.9999969999999
 51
0.0
  0
ARC
  5
9995
330
9885
100
AcDbEntity
  8
1
  6
Continuous
100
AcDbCircle
 10
187.745102
 20
154.058823
 30
0.0
 40
5.0
100
AcDbArc
 50
269.9999969999999
 51
0.0
  0
ARC
  5
9996
330
9885
100
AcDbEntity
  8
1
  6
Continuous
100
AcDbCircle
 10
187.745102
 20
207.0588229999999
 30
0.0
 40
5.0
100
AcDbArc
 50
0.0
 51
90.00000300000001
  0
ARC
  5
9997
330
9885
100
AcDbEntity
  8
1
  6
Continuous
100
AcDbCircle
 10
117.7450939999999
 20
204.5588229999999
 30
0.0
 40
5.0
100
AcDbArc
 50
90.00000300000001
 51
180.000005
  0
ARC
  5
9998
330
9885
100
AcDbEntity
  8
1
  6
Continuous
100
AcDbCircle
 10
117.7450939999999
 20
156.5588229999999
 30
0.0
 40
5.0
100
AcDbArc
 50
179.9999909999999
 51
270.000001
  0
ARC
  5
9999
330
9885
100
AcDbEntity
  8
1
  6
Continuous
100
AcDbCircle
 10
27.5
 20
151.0588229999999
 30
0.0
 40
0.5
100
AcDbArc
 50
179.9999909999999
 51
270.000001
  0
ARC
  5
999A
330
9885
100
AcDbEntity
  8
1
  6
Continuous
100
AcDbCircle
 10
27.5
 20
210.058823
 30
0.0
 40
0.5
100
AcDbArc
 50
90.00000300000001
 51
180.000005
  0
ARC
  5
999B
330
9885
100
AcDbEntity
  8
1
  6
Continuous
100
AcDbCircle
 10
27.5
 20
210.058823
 30
0.0
 40
2.0
100
AcDbArc
 50
90.00000300000001
 51
180.000005
  0
ARC
  5
999C
330
9885
100
AcDbEntity
  8
1
  6
Continuous
100
AcDbCircle
 10
27.5
 20
151.0588229999999
 30
0.0
 40
2.0
100
AcDbArc
 50
179.9999909999999
 51
270.000001
  0
ARC
  5
999D
330
9885
100
AcDbEntity
  8
1
  6
Continuous
100
AcDbCircle
 10
180.745102
 20
193.850616
 30
0.0
 40
1.0
100
AcDbArc
 50
0.0
 51
48.189686
  0
ARC
  5
999E
330
9885
100
AcDbEntity
  8
1
  6
Continuous
100
AcDbCircle
 10
180.745102
 20
167.267029
 30
0.0
 40
1.0
100
AcDbArc
 50
311.810314
 51
0.0
  0
ARC
  5
999F
330
9885
100
AcDbEntity
  8
1
  6
Continuous
100
AcDbCircle
 10
152.7451019999998
 20
50.5
 30
0.0
 40
8.5
100
AcDbArc
 50
237.363107
 51
112.675227
  0
ARC
  5
99A0
330
9885
100
AcDbEntity
  8
1
  6
Continuous
100
AcDbCircle
 10
147.621613
 20
42.5
 30
0.0
 40
1.0
100
AcDbArc
 50
57.363105
 51
90.00000300000001
  0
ARC
  5
99A1
330
9885
100
AcDbEntity
  8
1
  6
Continuous
100
AcDbCircle
 10
146.745087
 20
42.5
 30
0.0
 40
1.0
100
AcDbArc
 50
90.00000300000001
 51
180.000005
  0
ARC
  5
99A2
330
9885
100
AcDbEntity
  8
1
  6
Continuous
100
AcDbCircle
 10
273.390198
 20
155.0588229999999
 30
0.0
 40
1.0
100
AcDbArc
 50
179.9999909999999
 51
270.000001
  0
ARC
  5
99A3
330
9885
100
AcDbEntity
  8
1
  6
Continuous
100
AcDbCircle
 10
273.390198
 20
206.058823
 30
0.0
 40
1.0
100
AcDbArc
 50
90.00000300000001
 51
180.000005
  0
ARC
  5
99A4
330
9885
100
AcDbEntity
  8
1
  6
Continuous
100
AcDbCircle
 10
266.9901729999998
 20
192.0588229999999
 30
0.0
 40
1.0
100
AcDbArc
 50
0.0
 51
90.00000300000001
  0
ARC
  5
99A5
330
9885
100
AcDbEntity
  8
1
  6
Continuous
100
AcDbCircle
 10
266.9901729999998
 20
169.0588229999999
 30
0.0
 40
1.0
100
AcDbArc
 50
269.9999969999999
 51
0.0
  0
ARC
  5
99A6
330
9885
100
AcDbEntity
  8
1
  6
Continuous
100
AcDbCircle
 10
43.5
 20
192.0588229999999
 30
0.0
 40
1.0
100
AcDbArc
 50
90.00000300000001
 51
180.000005
  0
ARC
  5
99A7
330
9885
100
AcDbEntity
  8
1
  6
Continuous
100
AcDbCircle
 10
43.5
 20
169.0588229999999
 30
0.0
 40
1.0
100
AcDbArc
 50
179.9999909999999
 51
270.000001
  0
ARC
  5
99A8
330
9885
100
AcDbEntity
  8
1
  6
Continuous
100
AcDbCircle
 10
277.8005979999999
 20
174.763306
 30
0.0
 40
2.704489999999998
100
AcDbArc
 50
205.201125
 51
334.7988529999998
  0
ARC
  5
99A9
330
9885
100
AcDbEntity
  8
1
  6
Continuous
100
AcDbCircle
 10
290.1160579999999
 20
180.5588229999999
 30
0.0
 40
16.315458
100
AcDbArc
 50
154.798875
 51
165.0052399999998
  0
ARC
  5
99AA
330
9885
100
AcDbEntity
  8
1
  6
Continuous
100
AcDbCircle
 10
265.485138
 20
180.5588229999999
 30
0.0
 40
16.315458
100
AcDbArc
 50
334.7988529999998
 51
357.972647
  0
ARC
  5
99AB
330
9885
100
AcDbEntity
  8
1
  6
Continuous
100
AcDbCircle
 10
277.8005979999999
 20
186.3543399999999
 30
0.0
 40
2.704489999999998
100
AcDbArc
 50
25.201124
 51
154.798875
  0
ARC
  5
99AC
330
9885
100
AcDbEntity
  8
1
  6
Continuous
100
AcDbCircle
 10
273.390198
 20
185.038864
 30
0.0
 40
1.0
100
AcDbArc
 50
179.9999909999999
 51
345.0052589999998
  0
ARC
  5
99AD
330
9885
100
AcDbEntity
  8
1
  6
Continuous
100
AcDbCircle
 10
273.390198
 20
176.078781
 30
0.0
 40
1.0
100
AcDbArc
 50
14.994753
 51
180.000005
  0
ARC
  5
99AE
330
9885
100
AcDbEntity
  8
1
  6
Continuous
100
AcDbCircle
 10
282.0902099999999
 20
181.1466219999998
 30
0.0
 40
0.3
100
AcDbArc
 50
182.0273589999999
 51
0.0
  0
ARC
  5
99AF
330
9885
100
AcDbEntity
  8
1
  6
Continuous
100
AcDbCircle
 10
282.0902099999999
 20
179.971024
 30
0.0
 40
0.3
100
AcDbArc
 50
0.0
 51
177.972655
  0
ARC
  5
99B0
330
9885
100
AcDbEntity
  8
1
  6
Continuous
100
AcDbCircle
 10
125.141052
 20
176.7010349999999
 30
0.0
 40
1.601290999999998
100
AcDbArc
 50
228.9320989999999
 51
311.0679
  0
ARC
  5
99B1
330
9885
100
AcDbEntity
  8
1
  6
Continuous
100
AcDbCircle
 10
125.438446
 20
176.3597409999999
 30
0.0
 40
1.148608999999998
100
AcDbArc
 50
311.0679
 51
19.19279599999999
  0
ARC
  5
99B2
330
9885
100
AcDbEntity
  8
1
  6
Continuous
100
AcDbCircle
 10
124.8436659999997
 20
176.3597409999999
 30
0.0
 40
1.148608999999998
100
AcDbArc
 50
160.8072009999999
 51
228.932095
  0
ARC
  5
99B3
330
9885
100
AcDbEntity
  8
1
  6
Continuous
100
AcDbCircle
 10
124.485832
 20
176.484299
 30
0.0
 40
0.7697149999999999
100
AcDbArc
 50
95.659238
 51
160.8072009999999
  0
ARC
  5
99B4
330
9885
100
AcDbEntity
  8
1
  6
Continuous
100
AcDbCircle
 10
125.79628
 20
176.484299
 30
0.0
 40
0.7697149999999999
100
AcDbArc
 50
19.192799
 51
84.34075400000002
  0
ARC
  5
99B5
330
9885
100
AcDbEntity
  8
1
  6
Continuous
100
AcDbCircle
 10
124.5402829999999
 20
184.0569459999999
 30
0.0
 40
0.7697149999999999
100
AcDbArc
 50
95.659238
 51
160.8072009999999
  0
ARC
  5
99B6
330
9885
100
AcDbEntity
  8
1
  6
Continuous
100
AcDbCircle
 10
124.8981169999999
 20
183.9323879999998
 30
0.0
 40
1.148608999999998
100
AcDbArc
 50
160.8072009999999
 51
228.932095
  0
ARC
  5
99B7
330
9885
100
AcDbEntity
  8
1
  6
Continuous
100
AcDbCircle
 10
125.195511
 20
184.273682
 30
0.0
 40
1.601290999999998
100
AcDbArc
 50
228.9320989999999
 51
311.0679
  0
ARC
  5
99B8
330
9885
100
AcDbEntity
  8
1
  6
Continuous
100
AcDbCircle
 10
125.4928969999999
 20
183.9323879999998
 30
0.0
 40
1.148608999999998
100
AcDbArc
 50
311.0679
 51
6.591396999999997
  0
ARC
  5
99B9
330
9885
100
AcDbEntity
  8
1
  6
Continuous
100
AcDbCircle
 10
125.5610499999999
 20
183.9402619999999
 30
0.0
 40
1.08
100
AcDbArc
 50
359.582189
 51
101.6541079999997
  0
ARC
  5
99BA
330
9885
100
AcDbEntity
  8
1
  6
Continuous
100
AcDbCircle
 10
125.15696
 20
173.553085
 30
0.0
 40
1.601290999999998
100
AcDbArc
 50
228.9320989999999
 51
311.0679
  0
ARC
  5
99BB
330
9885
100
AcDbEntity
  8
1
  6
Continuous
100
AcDbCircle
 10
125.15696
 20
172.8704989999999
 30
0.0
 40
1.601290999999998
100
AcDbArc
 50
48.93209999999999
 51
131.067901
  0
ARC
  5
99BC
330
9885
100
AcDbEntity
  8
1
  6
Continuous
100
AcDbCircle
 10
125.454346
 20
173.211792
 30
0.0
 40
1.148608999999998
100
AcDbArc
 50
311.0679
 51
48.932107
  0
ARC
  5
99BD
330
9885
100
AcDbEntity
  8
1
  6
Continuous
100
AcDbCircle
 10
124.8595659999997
 20
173.211792
 30
0.0
 40
1.148608999999998
100
AcDbArc
 50
131.067901
 51
228.932095
  0
ARC
  5
99BE
330
9885
100
AcDbEntity
  8
1
  6
Continuous
100
AcDbCircle
 10
128.7197109999999
 20
188.3152469999999
 30
0.0
 40
0.6253770000000002
100
AcDbArc
 50
42.869624
 51
46.275143
  0
ARC
  5
99BF
330
9885
100
AcDbEntity
  8
1
  6
Continuous
100
AcDbCircle
 10
128.8704679999999
 20
188.3152469999999
 30
0.0
 40
0.6253770000000002
100
AcDbArc
 50
137.130377
 51
222.8696189999999
  0
ARC
  5
99C0
330
9885
100
AcDbEntity
  8
1
  6
Continuous
100
AcDbCircle
 10
128.79509
 20
188.385223
 30
0.0
 40
0.5225300000000001
100
AcDbArc
 50
42.869624
 51
137.130377
  0
ARC
  5
99C1
330
9885
100
AcDbEntity
  8
1
  6
Continuous
100
AcDbCircle
 10
128.79509
 20
188.2452699999998
 30
0.0
 40
0.5225300000000001
100
AcDbArc
 50
222.8696229999999
 51
294.2768189999998
  0
ARC
  5
99C2
330
9885
100
AcDbEntity
  8
1
  6
Continuous
100
AcDbCircle
 10
128.721481
 20
181.6736149999999
 30
0.0
 40
0.6253770000000002
100
AcDbArc
 50
32.84969600000001
 51
42.869624
  0
ARC
  5
99C3
330
9885
100
AcDbEntity
  8
1
  6
Continuous
100
AcDbCircle
 10
128.8722379999997
 20
181.6736149999999
 30
0.0
 40
0.6253770000000002
100
AcDbArc
 50
137.130377
 51
222.8696189999999
  0
ARC
  5
99C4
330
9885
100
AcDbEntity
  8
1
  6
Continuous
100
AcDbCircle
 10
128.79686
 20
181.743591
 30
0.0
 40
0.5225300000000001
100
AcDbArc
 50
42.869624
 51
137.130377
  0
ARC
  5
99C5
330
9885
100
AcDbEntity
  8
1
  6
Continuous
100
AcDbCircle
 10
128.79686
 20
181.6036379999999
 30
0.0
 40
0.5225300000000001
100
AcDbArc
 50
222.8696229999999
 51
288.2076629999999
  0
ARC
  5
99C6
330
9885
100
AcDbEntity
  8
1
  6
Continuous
100
AcDbCircle
 10
129.621475
 20
181.6736149999999
 30
0.0
 40
0.6253770000000002
100
AcDbArc
 50
317.1303759999999
 51
42.869631
  0
ARC
  5
99C7
330
9885
100
AcDbEntity
  8
1
  6
Continuous
100
AcDbCircle
 10
129.772232
 20
181.6736149999999
 30
0.0
 40
0.6253770000000002
100
AcDbArc
 50
137.130377
 51
147.150306
  0
ARC
  5
99C8
330
9885
100
AcDbEntity
  8
1
  6
Continuous
100
AcDbCircle
 10
129.6968539999997
 20
181.743591
 30
0.0
 40
0.5225300000000001
100
AcDbArc
 50
42.869624
 51
137.130377
  0
ARC
  5
99C9
330
9885
100
AcDbEntity
  8
1
  6
Continuous
100
AcDbCircle
 10
129.6968539999997
 20
181.6036379999999
 30
0.0
 40
0.5225300000000001
100
AcDbArc
 50
283.0142259999997
 51
317.1303759999999
  0
ARC
  5
99CA
330
9885
100
AcDbEntity
  8
1
  6
Continuous
100
AcDbCircle
 10
128.8589629999999
 20
183.8301699999999
 30
0.0
 40
0.6263380000000001
100
AcDbArc
 50
225.9274979999999
 51
270.0000039999998
  0
ARC
  5
99CB
330
9885
100
AcDbEntity
  8
1
  6
Continuous
100
AcDbCircle
 10
128.8589629999999
 20
183.762497
 30
0.0
 40
0.6263380000000001
100
AcDbArc
 50
89.99999599999998
 51
134.0725019999998
  0
ARC
  5
99CC
330
9885
100
AcDbEntity
  8
1
  6
Continuous
100
AcDbCircle
 10
128.8262019999999
 20
183.796326
 30
0.0
 40
0.57924
100
AcDbArc
 50
134.0725019999998
 51
225.927495
  0
ARC
  5
99CD
330
9885
100
AcDbEntity
  8
1
  6
Continuous
100
AcDbCircle
 10
129.6347499999999
 20
183.8301699999999
 30
0.0
 40
0.6263380000000001
100
AcDbArc
 50
269.999991
 51
314.0724999999998
  0
ARC
  5
99CE
330
9885
100
AcDbEntity
  8
1
  6
Continuous
100
AcDbCircle
 10
129.6347499999999
 20
183.762497
 30
0.0
 40
0.6263380000000001
100
AcDbArc
 50
45.9275
 51
89.99999599999998
  0
ARC
  5
99CF
330
9885
100
AcDbEntity
  8
1
  6
Continuous
100
AcDbCircle
 10
129.667511
 20
183.796326
 30
0.0
 40
0.57924
100
AcDbArc
 50
314.0724999999998
 51
45.927493
  0
ARC
  5
99D0
330
9885
100
AcDbEntity
  8
1
  6
Continuous
100
AcDbCircle
 10
432.2445679999996
 20
184.4166109999999
 30
0.0
 40
1.601290999999998
100
AcDbArc
 50
48.93209999999999
 51
131.067901
  0
ARC
  5
99D1
330
9885
100
AcDbEntity
  8
1
  6
Continuous
100
AcDbCircle
 10
431.947174
 20
184.757904
 30
0.0
 40
1.148608999999998
100
AcDbArc
 50
131.067901
 51
199.1927959999999
  0
ARC
  5
99D2
330
9885
100
AcDbEntity
  8
1
  6
Continuous
100
AcDbCircle
 10
432.5419619999998
 20
184.757904
 30
0.0
 40
1.148608999999998
100
AcDbArc
 50
340.8071969999999
 51
48.93209999999999
  0
ARC
  5
99D3
330
9885
100
AcDbEntity
  8
1
  6
Continuous
100
AcDbCircle
 10
432.899811
 20
184.6333469999999
 30
0.0
 40
0.7697149999999999
100
AcDbArc
 50
275.65924
 51
340.8071969999999
  0
ARC
  5
99D4
330
9885
100
AcDbEntity
  8
1
  6
Continuous
100
AcDbCircle
 10
431.5893549999996
 20
184.6333469999999
 30
0.0
 40
0.7697149999999999
100
AcDbArc
 50
199.192799
 51
264.340755
  0
ARC
  5
99D5
330
9885
100
AcDbEntity
  8
1
  6
Continuous
100
AcDbCircle
 10
432.845337
 20
177.060699
 30
0.0
 40
0.7697149999999999
100
AcDbArc
 50
275.65924
 51
340.8071969999999
  0
ARC
  5
99D6
330
9885
100
AcDbEntity
  8
1
  6
Continuous
100
AcDbCircle
 10
432.4875179999998
 20
177.185257
 30
0.0
 40
1.148608999999998
100
AcDbArc
 50
340.8071969999999
 51
48.93209999999999
  0
ARC
  5
99D7
330
9885
100
AcDbEntity
  8
1
  6
Continuous
100
AcDbCircle
 10
432.190125
 20
176.8439639999997
 30
0.0
 40
1.601290999999998
100
AcDbArc
 50
48.93209999999999
 51
131.067901
  0
ARC
  5
99D8
330
9885
100
AcDbEntity
  8
1
  6
Continuous
100
AcDbCircle
 10
431.8927309999998
 20
177.185257
 30
0.0
 40
1.148608999999998
100
AcDbArc
 50
131.067901
 51
186.591397
  0
ARC
  5
99D9
330
9885
100
AcDbEntity
  8
1
  6
Continuous
100
AcDbCircle
 10
431.8245849999996
 20
177.1773829999999
 30
0.0
 40
1.08
100
AcDbArc
 50
179.582189
 51
281.6541069999999
  0
ARC
  5
99DA
330
9885
100
AcDbEntity
  8
1
  6
Continuous
100
AcDbCircle
 10
432.2286679999998
 20
187.56456
 30
0.0
 40
1.601290999999998
100
AcDbArc
 50
48.93209999999999
 51
131.067901
  0
ARC
  5
99DB
330
9885
100
AcDbEntity
  8
1
  6
Continuous
100
AcDbCircle
 10
432.2286679999998
 20
188.2471469999999
 30
0.0
 40
1.601290999999998
100
AcDbArc
 50
228.9320989999999
 51
311.067896
  0
ARC
  5
99DC
330
9885
100
AcDbEntity
  8
1
  6
Continuous
100
AcDbCircle
 10
431.9312739999999
 20
187.905853
 30
0.0
 40
1.148608999999998
100
AcDbArc
 50
131.067901
 51
228.932109
  0
ARC
  5
99DD
330
9885
100
AcDbEntity
  8
1
  6
Continuous
100
AcDbCircle
 10
432.526062
 20
187.905853
 30
0.0
 40
1.148608999999998
100
AcDbArc
 50
311.067896
 51
48.93209999999999
  0
ARC
  5
99DE
330
9885
100
AcDbEntity
  8
1
  6
Continuous
100
AcDbCircle
 10
428.665924
 20
172.802399
 30
0.0
 40
0.6253770000000002
100
AcDbArc
 50
222.8696229999999
 51
226.2751409999999
  0
ARC
  5
99DF
330
9885
100
AcDbEntity
  8
1
  6
Continuous
100
AcDbCircle
 10
428.515167
 20
172.802399
 30
0.0
 40
0.6253770000000002
100
AcDbArc
 50
317.130372
 51
42.869624
  0
ARC
  5
99E0
330
9885
100
AcDbEntity
  8
1
  6
Continuous
100
AcDbCircle
 10
428.590546
 20
172.7324219999999
 30
0.0
 40
0.5225300000000001
100
AcDbArc
 50
222.8696229999999
 51
317.130372
  0
ARC
  5
99E1
330
9885
100
AcDbEntity
  8
1
  6
Continuous
100
AcDbCircle
 10
428.590546
 20
172.872375
 30
0.0
 40
0.5225300000000001
100
AcDbArc
 50
42.869624
 51
114.2768169999998
  0
ARC
  5
99E2
330
9885
100
AcDbEntity
  8
1
  6
Continuous
100
AcDbCircle
 10
428.6641539999997
 20
179.4440309999997
 30
0.0
 40
0.6253770000000002
100
AcDbArc
 50
212.849694
 51
222.8696229999999
  0
ARC
  5
99E3
330
9885
100
AcDbEntity
  8
1
  6
Continuous
100
AcDbCircle
 10
428.513397
 20
179.4440309999997
 30
0.0
 40
0.6253770000000002
100
AcDbArc
 50
317.130372
 51
42.869624
  0
ARC
  5
99E4
330
9885
100
AcDbEntity
  8
1
  6
Continuous
100
AcDbCircle
 10
428.588776
 20
179.3740539999998
 30
0.0
 40
0.5225300000000001
100
AcDbArc
 50
222.8696229999999
 51
317.130372
  0
ARC
  5
99E5
330
9885
100
AcDbEntity
  8
1
  6
Continuous
100
AcDbCircle
 10
428.588776
 20
179.5140079999999
 30
0.0
 40
0.5225300000000001
100
AcDbArc
 50
42.869624
 51
108.207661
  0
ARC
  5
99E6
330
9885
100
AcDbEntity
  8
1
  6
Continuous
100
AcDbCircle
 10
427.7641599999998
 20
179.4440309999997
 30
0.0
 40
0.6253770000000002
100
AcDbArc
 50
137.130377
 51
222.869633
  0
ARC
  5
99E7
330
9885
100
AcDbEntity
  8
1
  6
Continuous
100
AcDbCircle
 10
427.613403
 20
179.4440309999997
 30
0.0
 40
0.6253770000000002
100
AcDbArc
 50
317.130372
 51
327.1503009999999
  0
ARC
  5
99E8
330
9885
100
AcDbEntity
  8
1
  6
Continuous
100
AcDbCircle
 10
427.6887819999998
 20
179.3740539999998
 30
0.0
 40
0.5225300000000001
100
AcDbArc
 50
222.8696229999999
 51
317.130372
  0
ARC
  5
99E9
330
9885
100
AcDbEntity
  8
1
  6
Continuous
100
AcDbCircle
 10
427.6887819999998
 20
179.5140079999999
 30
0.0
 40
0.5225300000000001
100
AcDbArc
 50
103.0142239999997
 51
137.130377
  0
ARC
  5
99EA
330
9885
100
AcDbEntity
  8
1
  6
Continuous
100
AcDbCircle
 10
428.526672
 20
177.287476
 30
0.0
 40
0.6263380000000001
100
AcDbArc
 50
45.9275
 51
90.00000300000001
  0
ARC
  5
99EB
330
9885
100
AcDbEntity
  8
1
  6
Continuous
100
AcDbCircle
 10
428.526672
 20
177.3551479999999
 30
0.0
 40
0.6263380000000001
100
AcDbArc
 50
269.9999969999999
 51
314.072503
  0
ARC
  5
99EC
330
9885
100
AcDbEntity
  8
1
  6
Continuous
100
AcDbCircle
 10
428.559418
 20
177.3213199999999
 30
0.0
 40
0.57924
100
AcDbArc
 50
314.072503
 51
45.9275
  0
ARC
  5
99ED
330
9885
100
AcDbEntity
  8
1
  6
Continuous
100
AcDbCircle
 10
427.750885
 20
177.287476
 30
0.0
 40
0.6263380000000001
100
AcDbArc
 50
89.99998900000001
 51
134.0725019999998
  0
ARC
  5
99EE
330
9885
100
AcDbEntity
  8
1
  6
Continuous
100
AcDbCircle
 10
427.750885
 20
177.3551479999999
 30
0.0
 40
0.6263380000000001
100
AcDbArc
 50
225.9274979999999
 51
269.9999969999999
  0
ARC
  5
99EF
330
9885
100
AcDbEntity
  8
1
  6
Continuous
100
AcDbCircle
 10
427.718109
 20
177.3213199999999
 30
0.0
 40
0.57924
100
AcDbArc
 50
134.0725019999998
 51
225.927495
  0
ARC
  5
99F0
330
9885
100
AcDbEntity
  8
1
  6
Continuous
100
AcDbCircle
 10
162.3497919999998
 20
42.5
 30
0.0
 40
1.0
100
AcDbArc
 50
140.2081839999999
 51
270.000001
  0
ARC
  5
99F1
330
9885
100
AcDbEntity
  8
1
  6
Continuous
100
AcDbCircle
 10
265.485138
 20
180.5588229999999
 30
0.0
 40
16.315458
100
AcDbArc
 50
2.027352999999996
 51
25.201124
  0
ARC
  5
99F2
330
9885
100
AcDbEntity
  8
1
  6
Continuous
100
AcDbCircle
 10
290.1160579999999
 20
180.5588229999999
 30
0.0
 40
16.315458
100
AcDbArc
 50
194.99476
 51
205.201125
  0
ARC
  5
99F3
330
9885
100
AcDbEntity
  8
1
  6
Continuous
100
AcDbCircle
 10
284.069794
 20
180.5588229999999
 30
0.0
 40
9.658767999999998
100
AcDbArc
 50
150.536604
 51
209.463392
  0
ARC
  5
99F4
330
9885
100
AcDbEntity
  8
1
  6
Continuous
100
AcDbCircle
 10
277.8005979999999
 20
177.017166
 30
0.0
 40
2.458349
100
AcDbArc
 50
209.4633959999999
 51
330.536606
  0
ARC
  5
99F5
330
9885
100
AcDbEntity
  8
1
  6
Continuous
100
AcDbCircle
 10
271.5314029999999
 20
180.5588229999999
 30
0.0
 40
9.658767999999998
100
AcDbArc
 50
330.536606
 51
29.46339400000001
  0
ARC
  5
99F6
330
9885
100
AcDbEntity
  8
1
  6
Continuous
100
AcDbCircle
 10
277.8005979999999
 20
184.100479
 30
0.0
 40
2.458349
100
AcDbArc
 50
29.46339400000001
 51
150.536604
  0
LWPOLYLINE
  5
99F7
330
9885
100
AcDbEntity
  8
1
  6
Continuous
100
AcDbPolyline
 90
       17
 70
     0
 43
0.0
 10
282.390481
 20
163.5542
 42
0.005527
 10
282.341137
 20
163.182007
 42
0.00504
 10
282.299605
 20
162.8083889999998
 42
0.004668
 10
282.265356
 20
162.434393
 42
0.004394
 10
282.2378819999999
 20
162.059832
 42
0.004193
 10
282.2168369999999
 20
161.684843
 42
0.004052
 10
282.201973
 20
161.309549
 42
0.003962
 10
282.193122
 20
160.9340639999998
 42
0.003915
 10
282.190186
 20
160.5588229999999
 42
0.003911
 10
282.1931159999999
 20
160.183976
 42
0.003956
 10
282.2019419999999
 20
159.809106
 42
0.004047
 10
282.216768
 20
159.4342509999999
 42
0.00419
 10
282.237776
 20
159.059456
 42
0.004394
 10
282.2652299999999
 20
158.6847799999999
 42
0.004673
 10
282.2994990000001
 20
158.3102979999999
 42
0.005047
 10
282.3410799999999
 20
157.93611
 42
0.00555
 10
282.390637
 20
157.562359
  0
LWPOLYLINE
  5
9A0A
330
9885
100
AcDbEntity
  8
1
  6
Continuous
100
AcDbPolyline
 90
       17
 70
     0
 43
0.0
 10
282.391025
 20
165.7185829999999
 42
0.008211
 10
282.287662
 20
165.07978
 42
0.006799
 10
282.203507
 20
164.4388659999999
 42
0.005891
 10
282.135487
 20
163.795103
 42
0.005277
 10
282.0817599999998
 20
163.1492039999999
 42
0.004849
 10
282.0411409999999
 20
162.5030409999999
 42
0.004568
 10
282.0126769999999
 20
161.8561949999999
 42
0.004395
 10
281.9957959999999
 20
161.2089259999999
 42
0.004312
 10
281.9901729999999
 20
160.5614689999999
 42
0.0043
 10
281.995676
 20
159.915658
 42
0.004385
 10
282.0123929999999
 20
159.269627
 42
0.004561
 10
282.040677
 20
158.6233409999999
 42
0.004847
 10
282.0811529999998
 20
157.9767949999999
 42
0.005278
 10
282.1347859999999
 20
157.330015
 42
0.005884
 10
282.202643
 20
156.6861209999999
 42
0.006798
 10
282.2867529999999
 20
156.0441179999999
 42
0.0082
 10
282.389988
 20
155.404853
  0
LWPOLYLINE
  5
9A1D
330
9885
100
AcDbEntity
  8
1
  6
Continuous
100
AcDbPolyline
 90
       17
 70
     0
 43
0.0
 10
282.39051
 20
203.554401
 42
0.005527
 10
282.3411619999999
 20
203.1822079999999
 42
0.005041
 10
282.299625
 20
202.808592
 42
0.004668
 10
282.265373
 20
202.434597
 42
0.004394
 10
282.237895
 20
202.0600359999999
 42
0.004193
 10
282.2168469999999
 20
201.685047
 42
0.004052
 10
282.2019799999998
 20
201.309752
 42
0.003962
 10
282.193125
 20
200.934267
 42
0.003917
 10
282.190186
 20
200.5588229999999
 42
0.003911
 10
282.1931159999999
 20
200.183976
 42
0.003956
 10
282.2019419999999
 20
199.809106
 42
0.004047
 10
282.216768
 20
199.4342509999999
 42
0.00419
 10
282.237776
 20
199.059456
 42
0.004394
 10
282.2652299999999
 20
198.6847799999999
 42
0.004673
 10
282.2994990000001
 20
198.3102979999999
 42
0.005047
 10
282.3410799999999
 20
197.93611
 42
0.00555
 10
282.390637
 20
197.5623589999999
  0
LWPOLYLINE
  5
9A30
330
9885
100
AcDbEntity
  8
1
  6
Continuous
100
AcDbPolyline
 90
       17
 70
     0
 43
0.0
 10
282.3904529999999
 20
205.715393
 42
0.008202
 10
282.287195
 20
205.0765699999999
 42
0.006793
 10
282.203127
 20
204.435636
 42
0.005888
 10
282.1351829999999
 20
203.791864
 42
0.005275
 10
282.081522
 20
203.1459319999999
 42
0.004847
 10
282.0409669999999
 20
202.499764
 42
0.004567
 10
282.012563
 20
201.8529149999999
 42
0.004394
 10
281.995739
 20
201.205645
 42
0.004307
 10
281.9901729999999
 20
200.5588229999999
 42
0.004301
 10
281.995722
 20
199.913024
 42
0.004385
 10
282.0124839999999
 20
199.2669919999999
 42
0.004562
 10
282.0408169999997
 20
198.6207049999999
 42
0.004849
 10
282.081345
 20
197.9741579999999
 42
0.00528
 10
282.135033
 20
197.327377
 42
0.005887
 10
282.202953
 20
196.6834899999998
 42
0.006803
 10
282.2871339999998
 20
196.0414959999999
 42
0.008207
 10
282.3904549999999
 20
195.4022439999999
  0
TEXT
  5
9A43
330
9885
100
AcDbEntity
  8
6
  6
Continuous
100
AcDbText
 10
27.97945
 20
10.0487
 30
0.0
 40
1.399999999999999
  1
6
 41
1.069393
100
AcDbText
  0
TEXT
  5
9A44
330
9885
100
AcDbEntity
  8
1
  6
Continuous
100
AcDbText
 10
17.97945
 20
10.0487
 30
0.0
 40
1.399999999999999
  1
1
 41
1.069393
100
AcDbText
  0
TEXT
  5
9A45
330
9885
100
AcDbEntity
  8
1
  6
Continuous
100
AcDbText
 10
9.99995
 20
10.0
 30
0.0
 40
1.399999999999999
  1
LAYER
 41
1.009912999999997
100
AcDbText
  0
TEXT
  5
9A46
330
9885
100
AcDbEntity
  8
2
  6
Continuous
100
AcDbText
 10
19.97944999999997
 20
10.0487
 30
0.0
 40
1.399999999999999
  1
2
 41
1.069393
100
AcDbText
  0
TEXT
  5
9A47
330
9885
100
AcDbEntity
  8
3
  6
DASHED
100
AcDbText
 10
21.97945
 20
10.0487
 30
0.0
 40
1.399999999999999
  1
3
 41
1.069393
100
AcDbText
  0
TEXT
  5
9A48
330
9885
100
AcDbEntity
  8
4
  6
CENTER
100
AcDbText
 10
23.97944999999999
 20
10.0487
 30
0.0
 40
1.399999999999999
  1
4
 41
1.069393
100
AcDbText
  0
TEXT
  5
9A49
330
9885
100
AcDbEntity
  8
5
  6
PHANTOM
100
AcDbText
 10
25.97945
 20
10.0487
 30
0.0
 40
1.399999999999999
  1
5
 41
1.069393
100
AcDbText
  0
TEXT
  5
9A4A
330
9885
100
AcDbEntity
  8
7
  6
Continuous
100
AcDbText
 10
10.00005
 20
26.0
 30
0.0
 40
3.0
  1
CODE No.2623
 41
1.003962999999999
100
AcDbText
  0
TEXT
  5
9A4B
330
9885
100
AcDbEntity
  8
7
  6
Continuous
100
AcDbText
 10
10.00005
 20
18.0
 30
0.0
 40
3.0
  1
TYPE No.TH-130B-2-24
 41
1.002350999999998
100
AcDbText
  0
TEXT
  5
9A4C
330
9885
100
AcDbEntity
  8
7
  6
Continuous
100
AcDbText
 10
29.97944999999999
 20
10.0487
 30
0.0
 40
1.399999999999999
  1
7
 41
1.069393
100
AcDbText
  0
LINE
  5
9A4D
330
9885
100
AcDbEntity
  8
1
  6
Continuous
100
AcDbLine
 10
267.4901729999999
 20
150.5588229999998
 30
0.0
 11
267.4901729999999
 21
149.058823
 31
0.0
  0
LINE
  5
9A4E
330
9885
100
AcDbEntity
  8
1
  6
Continuous
100
AcDbLine
 10
267.4901729999999
 20
212.058823
 30
0.0
 11
267.4901729999999
 21
210.5588229999999
 31
0.0
  0
ARC
  5
9A4F
330
9885
100
AcDbEntity
  8
1
  6
Continuous
100
AcDbCircle
 10
183.7992131652151
 20
74.09326555902021
 30
0.0
 40
30.0
100
AcDbArc
 50
217.2256417108181
 51
268.7861321683251
  0
ARC
  5
9A50
330
9885
100
AcDbEntity
  8
1
  6
Continuous
100
AcDbCircle
 10
152.7451019999998
 20
50.5
 30
0.0
 40
9.0
100
AcDbArc
 50
37.22564171081813
 51
131.8632999599627
  0
ARC
  5
9A51
330
9885
100
AcDbEntity
  8
1
  6
Continuous
100
AcDbCircle
 10
165.1875621806901
 20
49.30200807517685
 30
0.0
 40
1.0
100
AcDbArc
 50
53.10318018028746
 51
174.500368304502
  0
LINE
  5
9A52
330
9885
100
AcDbEntity
  8
1
  6
Continuous
100
AcDbLine
 10
43.0
 20
212.058823
 30
0.0
 11
43.0
 21
210.5588229999999
 31
0.0
  0
LINE
  5
9A53
330
9885
100
AcDbEntity
  8
1
  6
Continuous
100
AcDbLine
 10
43.0
 20
149.058823
 30
0.0
 11
43.0
 21
150.5588229999998
 31
0.0
  0
LINE
  5
9A54
330
9885
100
AcDbEntity
  8
5
  6
PHANTOM
100
AcDbLine
 10
150.335342
 20
269.575669
 30
0.0
 11
144.6049649999999
 21
302.0743259999999
 31
0.0
  0
LINE
  5
9A55
330
9885
100
AcDbEntity
  8
5
  6
PHANTOM
100
AcDbLine
 10
154.683029
 20
280.49656
 30
0.0
 11
161.0379489999999
 21
308.7525339999999
 31
0.0
  0
ARC
  5
9A56
330
9885
100
AcDbEntity
  8
1
  6
Continuous
100
AcDbCircle
 10
183.7992131652151
 20
287.0243804409797
 30
0.0
 40
30.0
100
AcDbArc
 50
91.21386783167469
 51
142.7743582891818
  0
LINE
  5
9A57
330
9885
100
AcDbEntity
  8
1
  6
Continuous
100
AcDbLine
 10
146.745087
 20
319.6176459999999
 30
0.0
 11
192.745102
 21
319.6176459999999
 31
0.0
  0
LINE
  5
9A58
330
9885
100
AcDbEntity
  8
1
  6
Continuous
100
AcDbLine
 10
112.7450939999999
 20
319.6176459999999
 30
0.0
 11
145.745087
 21
319.6176459999999
 31
0.0
  0
LINE
  5
9A59
330
9885
100
AcDbEntity
  8
1
  6
Continuous
100
AcDbLine
 10
122.7451019999999
 20
313.9396289999999
 30
0.0
 11
149.4682919999999
 21
302.774651
 31
0.0
  0
LINE
  5
9A5A
330
9885
100
AcDbEntity
  8
1
  6
Continuous
100
AcDbLine
 10
112.7450939999999
 20
318.1176459999999
 30
0.0
 11
122.7450939999999
 21
318.1176459999999
 31
0.0
  0
LINE
  5
9A5B
330
9885
100
AcDbEntity
  8
4
  6
CENTER
100
AcDbLine
 10
118.7450939999999
 20
316.6176459999999
 30
0.0
 11
118.7450939999999
 21
321.6176459999999
 31
0.0
  0
LINE
  5
9A5C
330
9885
100
AcDbEntity
  8
1
  6
Continuous
100
AcDbLine
 10
112.7450939999999
 20
318.1176459999999
 30
0.0
 11
112.7450939999999
 21
319.6176459999999
 31
0.0
  0
LINE
  5
9A5D
330
9885
100
AcDbEntity
  8
1
  6
Continuous
100
AcDbLine
 10
122.7450939999999
 20
313.9396329999997
 30
0.0
 11
122.7450939999999
 21
319.6176459999999
 31
0.0
  0
ARC
  5
9A5E
330
9885
100
AcDbEntity
  8
1
  6
Continuous
100
AcDbCircle
 10
152.7451019999998
 20
310.6176459999999
 30
0.0
 40
9.0
100
AcDbArc
 50
228.1367000400368
 51
322.7743582891818
  0
ARC
  5
9A5F
330
9885
100
AcDbEntity
  8
1
  6
Continuous
100
AcDbCircle
 10
152.7451019999998
 20
310.6176459999999
 30
0.0
 40
8.5
100
AcDbArc
 50
247.324773
 51
122.6368929999999
  0
ARC
  5
9A60
330
9885
100
AcDbEntity
  8
1
  6
Continuous
100
AcDbCircle
 10
152.7451019999998
 20
310.6176459999999
 30
0.0
 40
3.049999999999998
100
AcDbArc
 50
91.76823599999996
 51
176.2317619999999
  0
ARC
  5
9A61
330
9885
100
AcDbEntity
  8
5
  6
PHANTOM
100
AcDbCircle
 10
152.7451019999998
 20
310.6176459999999
 30
0.0
 40
8.5
100
AcDbArc
 50
347.3247709999998
 51
222.636891
  0
LINE
  5
9A62
330
9885
100
AcDbEntity
  8
4
  6
CENTER
100
AcDbLine
 10
165.2451019999998
 20
310.6176459999999
 30
0.0
 11
140.2451019999998
 21
310.6176459999999
 31
0.0
  0
LINE
  5
9A63
330
9885
100
AcDbEntity
  8
1
  6
Continuous
100
AcDbLine
 10
149.7016909999999
 20
310.818105
 30
0.0
 11
152.8392179999999
 21
307.5690999999999
 31
0.0
  0
LINE
  5
9A64
330
9885
100
AcDbEntity
  8
4
  6
CENTER
100
AcDbLine
 10
136.745087
 20
315.517648
 30
0.0
 11
136.745087
 21
321.6176459999999
 31
0.0
  0
ARC
  5
9A65
330
9885
100
AcDbEntity
  8
1
  6
Continuous
100
AcDbCircle
 10
146.745087
 20
318.6176459999999
 30
0.0
 40
1.0
100
AcDbArc
 50
179.9999949999999
 51
269.9999969999999
  0
LINE
  5
9A66
330
9885
100
AcDbEntity
  8
1
  6
Continuous
100
AcDbLine
 10
145.745087
 20
318.6176459999999
 30
0.0
 11
145.745087
 21
319.6176459999999
 31
0.0
  0
ARC
  5
9A67
330
9885
100
AcDbEntity
  8
1
  6
Continuous
100
AcDbCircle
 10
147.621613
 20
318.6176459999999
 30
0.0
 40
1.0
100
AcDbArc
 50
269.9999969999999
 51
302.6368949999999
  0
LINE
  5
9A68
330
9885
100
AcDbEntity
  8
1
  6
Continuous
100
AcDbLine
 10
146.745087
 20
317.6176459999999
 30
0.0
 11
147.621613
 21
317.6176459999999
 31
0.0
  0
LINE
  5
9A69
330
9885
100
AcDbEntity
  8
1
  6
Continuous
100
AcDbLine
 10
146.745087
 20
317.6176459999999
 30
0.0
 11
146.745087
 21
319.6176459999999
 31
0.0
  0
LINE
  5
9A6A
330
9885
100
AcDbEntity
  8
5
  6
PHANTOM
100
AcDbLine
 10
146.893326
 20
303.4932559999999
 30
0.0
 11
146.7411189999999
 21
304.3564649999999
 31
0.0
  0
ARC
  5
9A6B
330
9885
100
AcDbEntity
  8
5
  6
PHANTOM
100
AcDbCircle
 10
145.756317
 20
304.182816
 30
0.0
 40
1.0
100
AcDbArc
 50
9.999997000000012
 51
42.63689600000001
  0
LINE
  5
9A6C
330
9885
100
AcDbEntity
  8
5
  6
PHANTOM
100
AcDbLine
 10
146.0821689999999
 20
302.334798
 30
0.0
 11
144.6049649999999
 21
302.0743259999999
 31
0.0
  0
ARC
  5
9A6D
330
9885
100
AcDbEntity
  8
5
  6
PHANTOM
100
AcDbCircle
 10
145.908524
 20
303.3196079999999
 30
0.0
 40
1.0
100
AcDbArc
 50
279.999995
 51
9.999997000000012
  0
LINE
  5
9A6E
330
9885
100
AcDbEntity
  8
4
  6
CENTER
100
AcDbLine
 10
152.7451019999998
 20
298.117646
 30
0.0
 11
152.7451019999998
 21
323.1176459999999
 31
0.0
  0
LINE
  5
9A6F
330
9885
100
AcDbEntity
  8
1
  6
Continuous
100
AcDbLine
 10
152.6509859999999
 20
313.666203
 30
0.0
 11
155.788513
 21
310.4171989999999
 31
0.0
  0
ARC
  5
9A70
330
9885
100
AcDbEntity
  8
1
  6
Continuous
100
AcDbCircle
 10
152.7451019999998
 20
310.6176459999999
 30
0.0
 40
11.5
100
AcDbArc
 50
5.499631695497966
 51
39.79181800000002
  0
LINE
  5
9A71
330
9885
100
AcDbEntity
  8
4
  6
CENTER
100
AcDbLine
 10
168.745102
 20
315.517648
 30
0.0
 11
168.745102
 21
321.6176459999999
 31
0.0
  0
ARC
  5
9A72
330
9885
100
AcDbEntity
  8
1
  6
Continuous
100
AcDbCircle
 10
162.3497919999998
 20
318.6176459999999
 30
0.0
 40
1.0
100
AcDbArc
 50
89.99999900000004
 51
219.7918159999999
  0
ARC
  5
9A73
330
9885
100
AcDbEntity
  8
1
  6
Continuous
100
AcDbCircle
 10
165.1875621806901
 20
311.815637924823
 30
0.0
 40
1.0
100
AcDbArc
 50
185.499631695498
 51
306.8968198197125
  0
ARC
  5
9A74
330
9885
100
AcDbEntity
  8
1
  6
Continuous
100
AcDbCircle
 10
152.7451019999998
 20
310.6176459999999
 30
0.0
 40
3.049999999999998
100
AcDbArc
 50
271.7682379999998
 51
356.2317619999997
  0
LINE
  5
9A75
330
9885
100
AcDbEntity
  8
1
  6
Continuous
100
AcDbLine
 10
183.163681
 20
317.017648
 30
0.0
 11
192.745102
 21
317.017648
 31
0.0
  0
LINE
  5
9A76
330
9885
100
AcDbEntity
  8
4
  6
CENTER
100
AcDbLine
 10
186.745102
 20
315.517648
 30
0.0
 11
186.745102
 21
321.6176459999999
 31
0.0
  0
LINE
  5
9A77
330
9885
100
AcDbEntity
  8
1
  6
Continuous
100
AcDbLine
 10
192.745102
 20
317.017648
 30
0.0
 11
192.745102
 21
319.6176459999999
 31
0.0
  0
LINE
  5
9A78
330
9885
100
AcDbEntity
  8
5
  6
PHANTOM
100
AcDbLine
 10
152.3049619999999
 20
269.9229669999999
 30
0.0
 11
150.5684809999999
 21
279.7710429999999
 31
0.0
  0
LINE
  5
9A79
330
9885
100
AcDbEntity
  8
5
  6
PHANTOM
100
AcDbLine
 10
154.683029
 20
280.496552
 30
0.0
 11
150.5684809999999
 21
279.7710429999999
 31
0.0
  0
LINE
  5
9A7A
330
9885
100
AcDbEntity
  8
5
  6
PHANTOM
100
AcDbLine
 10
152.3049619999999
 20
269.9229669999999
 30
0.0
 11
150.335342
 21
269.575669
 31
0.0
  0
LINE
  5
9A7B
330
9885
100
AcDbEntity
  8
1
  6
Continuous
100
AcDbLine
 10
164.1921653662348
 20
149.058823
 30
0.0
 11
164.1921653662348
 21
150.5588229999998
 31
0.0
  0
LINE
  5
9A7C
330
9885
100
AcDbEntity
  8
1
  6
Continuous
100
AcDbLine
 10
164.1921653662348
 20
210.5588229999999
 30
0.0
 11
164.1921653662348
 21
212.058823
 31
0.0
  0
LINE
  5
9A7D
330
9885
100
AcDbEntity
  8
1
  6
Continuous
100
AcDbLine
 10
401.4830329999998
 20
150.5588229999998
 30
0.0
 11
401.4830329999998
 21
149.058823
 31
0.0
  0
LINE
  5
9A7E
330
9885
100
AcDbEntity
  8
1
  6
Continuous
100
AcDbLine
 10
401.4830329999998
 20
212.058823
 30
0.0
 11
401.4830329999998
 21
210.5588229999999
 31
0.0
  0
ENDSEC
  0
SECTION
  2
OBJECTS
  0
DICTIONARY
  5
9873
330
0
100
AcDbDictionary
281
     1
  3
ACAD_CIP_PREVIOUS_PRODUCT_INFO
350
9AE4
  3
ACAD_COLOR
350
9AC6
  3
ACAD_DETAILVIEWSTYLE
350
9ADF
  3
ACAD_GROUP
350
9874
  3
ACAD_LAYOUT
350
9880
  3
ACAD_MATERIAL
350
9A94
  3
ACAD_MLEADERSTYLE
350
9ADB
  3
ACAD_MLINESTYLE
350
987D
  3
ACAD_PLOTSETTINGS
350
987F
  3
ACAD_PLOTSTYLENAME
350
9A92
  3
ACAD_SCALELIST
350
9AC9
  3
ACAD_SECTIONVIEWSTYLE
350
9ADD
  3
ACAD_TABLESTYLE
350
9AC7
  3
ACAD_VISUALSTYLE
350
9AAD
  3
ACDB_RECOMPOSE_DATA
350
9B02
  3
AcDbVariableDictionary
350
9AF5
  3
DWGPROPS
350
9B03
  0
DICTIONARY
  5
9AE5
330
9877
100
AcDbDictionary
280
     1
281
     1
  3
ADSK_XREC_LAYER_RECONCILED
360
9AE6
  0
DICTIONARY
  5
9AE7
330
988D
100
AcDbDictionary
280
     1
281
     1
  3
ADSK_XREC_LAYER_RECONCILED
360
9AE8
  0
DICTIONARY
  5
9AE9
330
988E
100
AcDbDictionary
280
     1
281
     1
  3
ADSK_XREC_LAYER_RECONCILED
360
9AEA
  0
DICTIONARY
  5
9AEB
330
988F
100
AcDbDictionary
280
     1
281
     1
  3
ADSK_XREC_LAYER_RECONCILED
360
9AEC
  0
DICTIONARY
  5
9AED
330
9890
100
AcDbDictionary
280
     1
281
     1
  3
ADSK_XREC_LAYER_RECONCILED
360
9AEE
  0
DICTIONARY
  5
9AEF
330
9891
100
AcDbDictionary
280
     1
281
     1
  3
ADSK_XREC_LAYER_RECONCILED
360
9AF0
  0
DICTIONARY
  5
9AF1
330
9892
100
AcDbDictionary
280
     1
281
     1
  3
ADSK_XREC_LAYER_RECONCILED
360
9AF2
  0
DICTIONARY
  5
9AF3
330
9893
100
AcDbDictionary
280
     1
281
     1
  3
ADSK_XREC_LAYER_RECONCILED
360
9AF4
  0
DICTIONARY
  5
9A8D
330
9885
100
AcDbDictionary
281
     1
  3
ACAD_LAYOUTSELFREF
350
9A8E
  0
DICTIONARY
  5
9A8B
330
9881
100
AcDbDictionary
281
     1
  3
ACAD_LAYOUTSELFREF
350
9A8C
  0
XRECORD
  5
9AE4
102
{ACAD_REACTORS
330
9873
102
}
330
9873
100
AcDbXrecord
280
     1
300
ACDLT
300
2014
300
ACDLT_F_S
  0
DICTIONARY
  5
9AC6
102
{ACAD_REACTORS
330
9873
102
}
330
9873
100
AcDbDictionary
281
     1
  0
DICTIONARY
  5
9ADF
102
{ACAD_REACTORS
330
9873
102
}
330
9873
100
AcDbDictionary
281
     1
  3
Imperial24
350
9AE0
  0
DICTIONARY
  5
9874
102
{ACAD_REACTORS
330
9873
102
}
330
9873
100
AcDbDictionary
281
     1
  0
DICTIONARY
  5
9880
102
{ACAD_REACTORS
330
9873
102
}
330
9873
100
AcDbDictionary
281
     1
  3
Model
350
9AE1
  3
レイアウト1
350
9AE2
  0
DICTIONARY
  5
9A94
102
{ACAD_REACTORS
330
9873
102
}
330
9873
100
AcDbDictionary
281
     1
  3
ByBlock
350
9A9D
  3
ByLayer
350
9A95
  3
Global
350
9AA5
  0
DICTIONARY
  5
9ADB
102
{ACAD_REACTORS
330
9873
102
}
330
9873
100
AcDbDictionary
281
     1
  3
Standard
350
9ADC
  0
DICTIONARY
  5
987D
102
{ACAD_REACTORS
330
9873
102
}
330
9873
100
AcDbDictionary
281
     1
  3
STANDARD
350
987E
  0
DICTIONARY
  5
987F
102
{ACAD_REACTORS
330
9873
102
}
330
9873
100
AcDbDictionary
281
     1
  0
ACDBDICTIONARYWDFLT
  5
9A92
102
{ACAD_REACTORS
330
9873
102
}
330
9873
100
AcDbDictionary
281
     1
  3
Normal
350
9A93
100
AcDbDictionaryWithDefault
340
9A93
  0
DICTIONARY
  5
9AC9
102
{ACAD_REACTORS
330
9873
102
}
330
9873
100
AcDbDictionary
281
     1
  3
A0
350
9ACA
  3
A1
350
9ACB
  3
A2
350
9ACC
  3
A3
350
9ACD
  3
A4
350
9ACE
  3
A5
350
9ACF
  3
A6
350
9AD0
  3
A7
350
9AD1
  3
A8
350
9AD2
  3
A9
350
9AD3
  3
B0
350
9AD4
  3
B1
350
9AD5
  3
B2
350
9AD6
  3
B3
350
9AD7
  3
B4
350
9AD8
  3
B5
350
9AD9
  3
B6
350
9ADA
  0
DICTIONARY
  5
9ADD
102
{ACAD_REACTORS
330
9873
102
}
330
9873
100
AcDbDictionary
281
     1
  3
Imperial24
350
9ADE
  0
DICTIONARY
  5
9AC7
102
{ACAD_REACTORS
330
9873
102
}
330
9873
100
AcDbDictionary
281
     1
  3
Standard
350
9AC8
  0
DICTIONARY
  5
9AAD
102
{ACAD_REACTORS
330
9873
102
}
330
9873
100
AcDbDictionary
281
     1
  3
2dWireframe
350
9AB3
  3
Basic
350
9AB2
  3
Brighten
350
9AB9
  3
ColorChange
350
9ABD
  3
Conceptual
350
9AB6
  3
Dim
350
9AB8
  3
EdgeColorOff
350
9AC5
  3
Facepattern
350
9ABC
  3
Flat
350
9AAE
  3
FlatWithEdges
350
9AAF
  3
Gouraud
350
9AB0
  3
GouraudWithEdges
350
9AB1
  3
Hidden
350
9AB5
  3
JitterOff
350
9AC3
  3
Linepattern
350
9ABB
  3
OverhangOff
350
9AC4
  3
Realistic
350
9AB7
  3
Shaded
350
9AC2
  3
Shaded with edges
350
9AC1
  3
Shades of Gray
350
9ABE
  3
Sketchy
350
9ABF
  3
Thicken
350
9ABA
  3
Wireframe
350
9AB4
  3
X-Ray
350
9AC0
  0
XRECORD
  5
9B02
102
{ACAD_REACTORS
330
9873
102
}
330
9873
100
AcDbXrecord
280
     1
 90
        1
330
9AC8
  0
DICTIONARY
  5
9AF5
102
{ACAD_REACTORS
330
9873
102
}
330
9873
100
AcDbDictionary
281
     1
  3
CANNOSCALE
350
9AFA
  3
CMLEADERSTYLE
350
9AF7
  3
CTABLESTYLE
350
9AF6
  3
CVIEWDETAILSTYLE
350
9AF8
  3
CVIEWSECTIONSTYLE
350
9AF9
  3
DIMASSOC
350
9AFD
  3
INDEXCTL
350
9AFC
  3
SORTENTS
350
9AFB
  3
XCLIPFRAME
350
9AFE
  0
XRECORD
  5
9B03
102
{ACAD_REACTORS
330
9873
102
}
330
9873
100
AcDbXrecord
280
     1
  1
DWGPROPS COOKIE
  2

  3

  4

  6

  7

  8
Yoshitsune
  9

300
=
301
=
302
=
303
=
304
=
305
=
306
=
307
=
308
=
309
=
 40
0.008302962962963
 41
2451059.384819098
 42
2457192.616244572
  1

 90
        0
  0
XRECORD
  5
9AE6
102
{ACAD_REACTORS
330
9AE5
102
}
330
9AE5
100
AcDbXrecord
280
     1
290
     1
  0
XRECORD
  5
9AE8
102
{ACAD_REACTORS
330
9AE7
102
}
330
9AE7
100
AcDbXrecord
280
     1
290
     1
  0
XRECORD
  5
9AEA
102
{ACAD_REACTORS
330
9AE9
102
}
330
9AE9
100
AcDbXrecord
280
     1
290
     1
  0
XRECORD
  5
9AEC
102
{ACAD_REACTORS
330
9AEB
102
}
330
9AEB
100
AcDbXrecord
280
     1
290
     1
  0
XRECORD
  5
9AEE
102
{ACAD_REACTORS
330
9AED
102
}
330
9AED
100
AcDbXrecord
280
     1
290
     1
  0
XRECORD
  5
9AF0
102
{ACAD_REACTORS
330
9AEF
102
}
330
9AEF
100
AcDbXrecord
280
     1
290
     1
  0
XRECORD
  5
9AF2
102
{ACAD_REACTORS
330
9AF1
102
}
330
9AF1
100
AcDbXrecord
280
     1
290
     1
  0
XRECORD
  5
9AF4
102
{ACAD_REACTORS
330
9AF3
102
}
330
9AF3
100
AcDbXrecord
280
     1
290
     1
  0
XRECORD
  5
9A8E
102
{ACAD_REACTORS
330
9A8D
102
}
330
9A8D
100
AcDbXrecord
280
     1
340
9885
  0
XRECORD
  5
9A8C
102
{ACAD_REACTORS
330
9A8B
102
}
330
9A8B
100
AcDbXrecord
280
     1
340
9881
  0
ACDBDETAILVIEWSTYLE
  5
9AE0
102
{ACAD_XDICTIONARY
360
9B3B
102
}
102
{ACAD_REACTORS
330
9ADF
102
}
330
9ADF
100
AcDbModelDocViewStyle
 70
     0
  3
Imperial24
290
     0
100
AcDbDetailViewStyle
 70
     0
 71
     0
 90
        3
 71
     1
340
9878
 40
0.24
340
0
 40
0.24
300

 40
0.36
280
     3
 71
     2
340
987C
 90
       25
 71
     3
340
9878
 40
0.24
 90
        1
 40
0.75
 90
        1
300
%<\AcVar ViewType \f "%tc1">% %<\AcVar ViewDetailId>%\PSCALE %<\AcVar ViewScale \f "%sn">%
 71
     4
340
987C
 90
       25
340
987C
 90
       25
280
     0
  0
LAYOUT
  5
9AE1
102
{ACAD_XDICTIONARY
360
9B3D
102
}
102
{ACAD_REACTORS
330
9880
102
}
330
9880
100
AcDbPlotSettings
  1

  2
Canon LBP9100C
  4

  6

 40
0.0
 41
0.0
 42
0.0
 43
0.0
 44
0.0
 45
0.0
 46
0.0
 47
0.0
 48
0.0
 49
0.0
140
0.0
141
0.0
142
1.0
143
1.0
 70
  1712
 72
     0
 73
     0
 74
     0
  7

 75
     0
147
1.0
148
0.0
149
0.0
100
AcDbLayout
  1
Model
 70
     1
 71
     0
 10
0.0
 20
0.0
 11
12.0
 21
9.0
 12
0.0
 22
0.0
 32
0.0
 14
0.0
 24
0.0
 34
0.0
 15
0.0
 25
0.0
 35
0.0
146
0.0
 13
0.0
 23
0.0
 33
0.0
 16
1.0
 26
0.0
 36
0.0
 17
0.0
 27
1.0
 37
0.0
 76
     0
330
9885
331
9A8A
  0
LAYOUT
  5
9AE2
102
{ACAD_XDICTIONARY
360
9B3F
102
}
102
{ACAD_REACTORS
330
9880
102
}
330
9880
100
AcDbPlotSettings
  1

  2
Canon LBP9100C
  4

  6

 40
0.0
 41
0.0
 42
0.0
 43
0.0
 44
0.0
 45
0.0
 46
0.0
 47
0.0
 48
0.0
 49
0.0
140
0.0
141
0.0
142
1.0
143
1.0
 70
   688
 72
     0
 73
     0
 74
     5
  7

 75
    16
147
1.0
148
0.0
149
0.0
100
AcDbLayout
  1
レイアウト1
 70
     0
 71
     1
 10
0.0
 20
0.0
 11
420.0
 21
297.0
 12
0.0
 22
0.0
 32
0.0
 14
1.000000000000000E+20
 24
1.000000000000000E+20
 34
1.000000000000000E+20
 15
-1.000000000000000E+20
 25
-1.000000000000000E+20
 35
-1.000000000000000E+20
146
0.0
 13
0.0
 23
0.0
 33
0.0
 16
1.0
 26
0.0
 36
0.0
 17
0.0
 27
1.0
 37
0.0
 76
     0
330
9881
  0
MATERIAL
  5
9A9D
102
{ACAD_XDICTIONARY
360
9A9E
102
}
102
{ACAD_REACTORS
330
9A94
102
}
330
9A94
100
AcDbMaterial
  1
ByBlock
 72
     0
 43
0.0208333333333333
 43
0.0
 43
0.0
 43
0.0
 43
0.0
 43
0.0208333333333333
 43
0.0
 43
0.0
 43
0.0
 43
0.0
 43
1.0
 43
0.0
 43
0.0
 43
0.0
 43
0.0
 43
1.0
 77
     0
 47
0.0208333333333333
 47
0.0
 47
0.0
 47
0.0
 47
0.0
 47
0.0208333333333333
 47
0.0
 47
0.0
 47
0.0
 47
0.0
 47
1.0
 47
0.0
 47
0.0
 47
0.0
 47
0.0
 47
1.0
171
     0
 49
0.0208333333333333
 49
0.0
 49
0.0
 49
0.0
 49
0.0
 49
0.0208333333333333
 49
0.0
 49
0.0
 49
0.0
 49
0.0
 49
1.0
 49
0.0
 49
0.0
 49
0.0
 49
0.0
 49
1.0
175
     0
142
0.0208333333333333
142
0.0
142
0.0
142
0.0
142
0.0
142
0.0208333333333333
142
0.0
142
0.0
142
0.0
142
0.0
142
1.0
142
0.0
142
0.0
142
0.0
142
0.0
142
1.0
179
     0
144
0.0208333333333333
144
0.0
144
0.0
144
0.0
144
0.0
144
0.0208333333333333
144
0.0
144
0.0
144
0.0
144
0.0
144
1.0
144
0.0
144
0.0
144
0.0
144
0.0
144
1.0
147
0.0208333333333333
147
0.0
147
0.0
147
0.0
147
0.0
147
0.0208333333333333
147
0.0
147
0.0
147
0.0
147
0.0
147
1.0
147
0.0
147
0.0
147
0.0
147
0.0
147
1.0
  0
MATERIAL
  5
9A95
102
{ACAD_XDICTIONARY
360
9A96
102
}
102
{ACAD_REACTORS
330
9A94
102
}
330
9A94
100
AcDbMaterial
  1
ByLayer
 72
     0
 43
0.0208333333333333
 43
0.0
 43
0.0
 43
0.0
 43
0.0
 43
0.0208333333333333
 43
0.0
 43
0.0
 43
0.0
 43
0.0
 43
1.0
 43
0.0
 43
0.0
 43
0.0
 43
0.0
 43
1.0
 77
     0
 47
0.0208333333333333
 47
0.0
 47
0.0
 47
0.0
 47
0.0
 47
0.0208333333333333
 47
0.0
 47
0.0
 47
0.0
 47
0.0
 47
1.0
 47
0.0
 47
0.0
 47
0.0
 47
0.0
 47
1.0
171
     0
 49
0.0208333333333333
 49
0.0
 49
0.0
 49
0.0
 49
0.0
 49
0.0208333333333333
 49
0.0
 49
0.0
 49
0.0
 49
0.0
 49
1.0
 49
0.0
 49
0.0
 49
0.0
 49
0.0
 49
1.0
175
     0
142
0.0208333333333333
142
0.0
142
0.0
142
0.0
142
0.0
142
0.0208333333333333
142
0.0
142
0.0
142
0.0
142
0.0
142
1.0
142
0.0
142
0.0
142
0.0
142
0.0
142
1.0
179
     0
144
0.0208333333333333
144
0.0
144
0.0
144
0.0
144
0.0
144
0.0208333333333333
144
0.0
144
0.0
144
0.0
144
0.0
144
1.0
144
0.0
144
0.0
144
0.0
144
0.0
144
1.0
147
0.0208333333333333
147
0.0
147
0.0
147
0.0
147
0.0
147
0.0208333333333333
147
0.0
147
0.0
147
0.0
147
0.0
147
1.0
147
0.0
147
0.0
147
0.0
147
0.0
147
1.0
  0
MATERIAL
  5
9AA5
102
{ACAD_XDICTIONARY
360
9AA6
102
}
102
{ACAD_REACTORS
330
9A94
102
}
330
9A94
100
AcDbMaterial
  1
Global
 72
     0
 43
0.0208333333333333
 43
0.0
 43
0.0
 43
0.0
 43
0.0
 43
0.0208333333333333
 43
0.0
 43
0.0
 43
0.0
 43
0.0
 43
1.0
 43
0.0
 43
0.0
 43
0.0
 43
0.0
 43
1.0
 77
     0
 47
0.0208333333333333
 47
0.0
 47
0.0
 47
0.0
 47
0.0
 47
0.0208333333333333
 47
0.0
 47
0.0
 47
0.0
 47
0.0
 47
1.0
 47
0.0
 47
0.0
 47
0.0
 47
0.0
 47
1.0
171
     0
 49
0.0208333333333333
 49
0.0
 49
0.0
 49
0.0
 49
0.0
 49
0.0208333333333333
 49
0.0
 49
0.0
 49
0.0
 49
0.0
 49
1.0
 49
0.0
 49
0.0
 49
0.0
 49
0.0
 49
1.0
175
     0
142
0.0208333333333333
142
0.0
142
0.0
142
0.0
142
0.0
142
0.0208333333333333
142
0.0
142
0.0
142
0.0
142
0.0
142
1.0
142
0.0
142
0.0
142
0.0
142
0.0
142
1.0
179
     0
144
0.0208333333333333
144
0.0
144
0.0
144
0.0
144
0.0
144
0.0208333333333333
144
0.0
144
0.0
144
0.0
144
0.0
144
1.0
144
0.0
144
0.0
144
0.0
144
0.0
144
1.0
147
0.0208333333333333
147
0.0
147
0.0
147
0.0
147
0.0
147
0.0208333333333333
147
0.0
147
0.0
147
0.0
147
0.0
147
1.0
147
0.0
147
0.0
147
0.0
147
0.0
147
1.0
  0
MLEADERSTYLE
  5
9ADC
102
{ACAD_REACTORS
330
9ADB
102
}
330
9ADB
100
AcDbMLeaderStyle
170
     2
171
     1
172
     0
 90
        2
 40
0.0
 41
0.0
173
     1
 91
-1056964608
340
987A
 92
       -2
290
     1
 42
0.09
291
     1
 43
0.36
  3
Standard
 44
0.18
300

342
9878
174
     1
178
     6
175
     1
176
     0
 93
-1056964608
 45
0.18
292
     0
297
     0
 46
0.18
 94
-1056964608
 47
1.0
 49
1.0
140
1.0
293
     1
141
0.0
294
     1
177
     0
142
1.0
295
     0
296
     0
143
0.125
1001
ACAD_MLEADERVER
1070
     2
  0
MLINESTYLE
  5
987E
102
{ACAD_REACTORS
330
987D
102
}
330
987D
100
AcDbMlineStyle
  2
STANDARD
 70
     0
  3

 62
   256
 51
90.0
 52
90.0
 71
     2
 49
0.5
 62
   256
  6
BYLAYER
 49
-0.5
 62
   256
  6
BYLAYER
  0
ACDBPLACEHOLDER
  5
9A93
102
{ACAD_REACTORS
330
9A92
102
}
330
9A92
  0
SCALE
  5
9ACA
102
{ACAD_REACTORS
330
9AC9
102
}
330
9AC9
100
AcDbScale
 70
     0
300
1:1
140
1.0
141
1.0
290
     1
  0
SCALE
  5
9ACB
102
{ACAD_REACTORS
330
9AC9
102
}
330
9AC9
100
AcDbScale
 70
     0
300
1/128" = 1'-0"
140
0.0078125
141
12.0
290
     0
  0
SCALE
  5
9ACC
102
{ACAD_REACTORS
330
9AC9
102
}
330
9AC9
100
AcDbScale
 70
     0
300
1/64" = 1'-0"
140
0.015625
141
12.0
290
     0
  0
SCALE
  5
9ACD
102
{ACAD_REACTORS
330
9AC9
102
}
330
9AC9
100
AcDbScale
 70
     0
300
1/32" = 1'-0"
140
0.03125
141
12.0
290
     0
  0
SCALE
  5
9ACE
102
{ACAD_REACTORS
330
9AC9
102
}
330
9AC9
100
AcDbScale
 70
     0
300
1/16" = 1'-0"
140
0.0625
141
12.0
290
     0
  0
SCALE
  5
9ACF
102
{ACAD_REACTORS
330
9AC9
102
}
330
9AC9
100
AcDbScale
 70
     0
300
3/32" = 1'-0"
140
0.09375
141
12.0
290
     0
  0
SCALE
  5
9AD0
102
{ACAD_REACTORS
330
9AC9
102
}
330
9AC9
100
AcDbScale
 70
     0
300
1/8" = 1'-0"
140
0.125
141
12.0
290
     0
  0
SCALE
  5
9AD1
102
{ACAD_REACTORS
330
9AC9
102
}
330
9AC9
100
AcDbScale
 70
     0
300
3/16" = 1'-0"
140
0.1875
141
12.0
290
     0
  0
SCALE
  5
9AD2
102
{ACAD_REACTORS
330
9AC9
102
}
330
9AC9
100
AcDbScale
 70
     0
300
1/4" = 1'-0"
140
0.25
141
12.0
290
     0
  0
SCALE
  5
9AD3
102
{ACAD_REACTORS
330
9AC9
102
}
330
9AC9
100
AcDbScale
 70
     0
300
3/8" = 1'-0"
140
0.375
141
12.0
290
     0
  0
SCALE
  5
9AD4
102
{ACAD_REACTORS
330
9AC9
102
}
330
9AC9
100
AcDbScale
 70
     0
300
1/2" = 1'-0"
140
0.5
141
12.0
290
     0
  0
SCALE
  5
9AD5
102
{ACAD_REACTORS
330
9AC9
102
}
330
9AC9
100
AcDbScale
 70
     0
300
3/4" = 1'-0"
140
0.75
141
12.0
290
     0
  0
SCALE
  5
9AD6
102
{ACAD_REACTORS
330
9AC9
102
}
330
9AC9
100
AcDbScale
 70
     0
300
1" = 1'-0"
140
1.0
141
12.0
290
     0
  0
SCALE
  5
9AD7
102
{ACAD_REACTORS
330
9AC9
102
}
330
9AC9
100
AcDbScale
 70
     0
300
1-1/2" = 1'-0"
140
1.5
141
12.0
290
     0
  0
SCALE
  5
9AD8
102
{ACAD_REACTORS
330
9AC9
102
}
330
9AC9
100
AcDbScale
 70
     0
300
3" = 1'-0"
140
3.0
141
12.0
290
     0
  0
SCALE
  5
9AD9
102
{ACAD_REACTORS
330
9AC9
102
}
330
9AC9
100
AcDbScale
 70
     0
300
6" = 1'-0"
140
6.0
141
12.0
290
     0
  0
SCALE
  5
9ADA
102
{ACAD_REACTORS
330
9AC9
102
}
330
9AC9
100
AcDbScale
 70
     0
300
1'-0" = 1'-0"
140
12.0
141
12.0
290
     0
  0
ACDBSECTIONVIEWSTYLE
  5
9ADE
102
{ACAD_XDICTIONARY
360
9B39
102
}
102
{ACAD_REACTORS
330
9ADD
102
}
330
9ADD
100
AcDbModelDocViewStyle
 70
     0
  3
Imperial24
290
     0
100
AcDbSectionViewStyle
 70
     0
 71
     0
 90
       78
 71
     1
340
9878
 40
0.24
340
0
340
0
 40
0.24
300
I, O, Q, S, X, Z
 40
0.48
 90
        3
 40
0.18
 90
        1
 71
     2
340
987C
 90
       25
340
987C
 90
       50
 40
0.24
 40
0.0
 40
0.24
 71
     3
340
9878
 40
0.24
 90
        1
 40
0.75
 90
        1
300
%<\AcVar ViewType \f "%tc1">% %<\AcVar ViewSectionStartId>%-%<\AcVar ViewSectionEndId>%\PSCALE %<\AcVar ViewScale \f "%sn">%
 71
     4
300
ANSI31
 40
1.0
 90
        0
290
     0
290
     0
 90
        6
 40
0.0
 40
1.570796326794896
 40
0.2617993877991494
 40
1.308996938995747
 40
-0.2617993877991494
 40
1.832595714594046
  0
TABLESTYLE
  5
9AC8
102
{ACAD_XDICTIONARY
360
9B00
102
}
102
{ACAD_REACTORS
330
9AC7
102
}
330
9AC7
100
AcDbTableStyle
  3
Standard
 70
     0
 71
     0
 40
0.06
 41
0.06
280
     0
281
     0
  7
STANDARD
140
0.18
170
     2
 62
     0
 63
     7
283
     0
274
    -2
284
     1
 64
     0
275
    -2
285
     1
 65
     0
276
    -2
286
     1
 66
     0
277
    -2
287
     1
 67
     0
278
    -2
288
     1
 68
     0
279
    -2
289
     1
 69
     0
  7
STANDARD
140
0.25
170
     5
 62
     0
 63
     7
283
     0
274
    -2
284
     1
 64
     0
275
    -2
285
     1
 65
     0
276
    -2
286
     1
 66
     0
277
    -2
287
     1
 67
     0
278
    -2
288
     1
 68
     0
279
    -2
289
     1
 69
     0
  7
STANDARD
140
0.18
170
     5
 62
     0
 63
     7
283
     0
274
    -2
284
     1
 64
     0
275
    -2
285
     1
 65
     0
276
    -2
286
     1
 66
     0
277
    -2
287
     1
 67
     0
278
    -2
288
     1
 68
     0
279
    -2
289
     1
 69
     0
  0
VISUALSTYLE
  5
9AB3
102
{ACAD_XDICTIONARY
360
9B11
102
}
102
{ACAD_REACTORS
330
9AAD
102
}
330
9AAD
100
AcDbVisualStyle
  2
2dWireframe
 70
     4
 71
     0
 72
     2
 73
     0
 90
        0
 40
-0.6
 41
-30.0
 62
     5
 63
     7
 74
     1
 91
        4
 64
     7
 65
   257
 75
     1
175
     1
 42
1.0
 92
        0
 66
   257
 43
1.0
 76
     1
 77
     6
 78
     2
 67
     7
 79
     5
170
     0
171
     0
290
     0
174
     0
 93
        1
 44
0.0
173
     0
291
     0
 45
0.0
1001
ACAD
1000
AcDbSavedByObjectVersion
1070
     0
  0
VISUALSTYLE
  5
9AB2
102
{ACAD_XDICTIONARY
360
9B0F
102
}
102
{ACAD_REACTORS
330
9AAD
102
}
330
9AAD
100
AcDbVisualStyle
  2
Basic
 70
     7
 71
     1
 72
     0
 73
     1
 90
        0
 40
-0.6
 41
-30.0
 62
     5
 63
     7
 74
     0
 91
        4
 64
     7
 65
   257
 75
     1
175
     1
 42
1.0
 92
        8
 66
     7
 43
1.0
 76
     1
 77
     6
 78
     2
 67
     7
 79
     5
170
     0
171
     0
290
     0
174
     0
 93
        1
 44
0.0
173
     0
291
     1
 45
0.0
1001
ACAD
1000
AcDbSavedByObjectVersion
1070
     0
  0
VISUALSTYLE
  5
9AB9
102
{ACAD_XDICTIONARY
360
9B1D
102
}
102
{ACAD_REACTORS
330
9AAD
102
}
330
9AAD
100
AcDbVisualStyle
  2
Brighten
 70
    12
 71
     2
 72
     2
 73
     0
 90
        0
 40
-0.6
 41
-30.0
 62
     5
 63
     7
 74
     1
 91
        4
 64
     7
 65
   257
 75
     1
175
     1
 42
1.0
 92
        8
 66
     7
 43
1.0
 76
     1
 77
     6
 78
     2
 67
     7
 79
     5
170
     0
171
     0
290
     0
174
     0
 93
        1
 44
50.0
173
     0
291
     1
 45
0.0
1001
ACAD
1000
AcDbSavedByObjectVersion
1070
     0
  0
VISUALSTYLE
  5
9ABD
102
{ACAD_XDICTIONARY
360
9B25
102
}
102
{ACAD_REACTORS
330
9AAD
102
}
330
9AAD
100
AcDbVisualStyle
  2
ColorChange
 70
    16
 71
     2
 72
     2
 73
     3
 90
        0
 40
-0.6
 41
-30.0
 62
     5
 63
     8
 74
     1
 91
        4
 64
     7
 65
   257
 75
     1
175
     1
 42
1.0
 92
        8
 66
     8
 43
1.0
 76
     1
 77
     6
 78
     2
 67
     7
 79
     5
170
     0
171
     0
290
     0
174
     0
 93
        1
 44
0.0
173
     0
291
     1
 45
0.0
1001
ACAD
1000
AcDbSavedByObjectVersion
1070
     0
  0
VISUALSTYLE
  5
9AB6
102
{ACAD_XDICTIONARY
360
9B17
102
}
102
{ACAD_REACTORS
330
9AAD
102
}
330
9AAD
100
AcDbVisualStyle
  2
Conceptual
 70
     9
 71
     3
 72
     2
 73
     0
 90
        0
 40
-0.6
 41
-30.0
 62
     5
 63
     7
 74
     2
 91
        2
 64
     7
 65
   257
 75
     1
175
     1
 42
179.0
 92
        8
 66
     7
 43
1.0
 76
     1
 77
     6
 78
     2
 67
     7
 79
     3
170
     0
171
     0
290
     0
174
     0
 93
        1
 44
0.0
173
     0
291
     0
 45
0.0
1001
ACAD
1000
AcDbSavedByObjectVersion
1070
     0
  0
VISUALSTYLE
  5
9AB8
102
{ACAD_XDICTIONARY
360
9B1B
102
}
102
{ACAD_REACTORS
330
9AAD
102
}
330
9AAD
100
AcDbVisualStyle
  2
Dim
 70
    11
 71
     2
 72
     2
 73
     0
 90
        0
 40
-0.6
 41
-30.0
 62
     5
 63
     7
 74
     1
 91
        4
 64
     7
 65
   257
 75
     1
175
     1
 42
1.0
 92
        8
 66
     7
 43
1.0
 76
     1
 77
     6
 78
     2
 67
     7
 79
     5
170
     0
171
     0
290
     0
174
     0
 93
        1
 44
-50.0
173
     0
291
     1
 45
0.0
1001
ACAD
1000
AcDbSavedByObjectVersion
1070
     0
  0
VISUALSTYLE
  5
9AC5
102
{ACAD_XDICTIONARY
360
9B35
102
}
102
{ACAD_REACTORS
330
9AAD
102
}
330
9AAD
100
AcDbVisualStyle
  2
EdgeColorOff
 70
    22
 71
     2
 72
     2
 73
     0
 90
        0
 40
-0.6
 41
-30.0
 62
     5
 63
     7
 74
     1
 91
        4
 64
     7
 65
   257
 75
     1
175
     1
 42
1.0
 92
        8
 66
     7
 43
1.0
 76
     1
 77
     6
 78
     2
 67
     7
 79
     5
170
     0
171
     0
290
     0
174
     0
 93
        1
 44
0.0
173
     0
291
     1
 45
0.0
1001
ACAD
1000
AcDbSavedByObjectVersion
1070
     0
  0
VISUALSTYLE
  5
9ABC
102
{ACAD_XDICTIONARY
360
9B23
102
}
102
{ACAD_REACTORS
330
9AAD
102
}
330
9AAD
100
AcDbVisualStyle
  2
Facepattern
 70
    15
 71
     2
 72
     2
 73
     0
 90
        0
 40
-0.6
 41
-30.0
 62
     5
 63
     7
 74
     1
 91
        4
 64
     7
 65
   257
 75
     1
175
     1
 42
1.0
 92
        8
 66
     7
 43
1.0
 76
     1
 77
     6
 78
     2
 67
     7
 79
     5
170
     0
171
     0
290
     0
174
     0
 93
        1
 44
0.0
173
     0
291
     1
 45
0.0
1001
ACAD
1000
AcDbSavedByObjectVersion
1070
     0
  0
VISUALSTYLE
  5
9AAE
102
{ACAD_XDICTIONARY
360
9B07
102
}
102
{ACAD_REACTORS
330
9AAD
102
}
330
9AAD
100
AcDbVisualStyle
  2
Flat
 70
     0
 71
     2
 72
     1
 73
     1
 90
        2
 40
-0.6
 41
30.0
 62
     5
 63
     7
 74
     0
 91
        0
 64
     7
 65
   257
 75
     1
175
     1
 42
1.0
 92
        8
 66
     7
 43
1.0
 76
     1
 77
     6
 78
     2
 67
     7
 79
     5
170
     0
171
     0
290
     0
174
     0
 93
       13
 44
0.0
173
     0
291
     1
 45
0.0
1001
ACAD
1000
AcDbSavedByObjectVersion
1070
     0
  0
VISUALSTYLE
  5
9AAF
102
{ACAD_XDICTIONARY
360
9B09
102
}
102
{ACAD_REACTORS
330
9AAD
102
}
330
9AAD
100
AcDbVisualStyle
  2
FlatWithEdges
 70
     1
 71
     2
 72
     1
 73
     1
 90
        2
 40
-0.6
 41
30.0
 62
     5
 63
     7
 74
     1
 91
        0
 64
     7
 65
   257
 75
     1
175
     1
 42
1.0
 92
        0
 66
   257
 43
1.0
 76
     1
 77
     6
 78
     2
 67
     7
 79
     5
170
     0
171
     0
290
     0
174
     0
 93
       13
 44
0.0
173
     0
291
     1
 45
0.0
1001
ACAD
1000
AcDbSavedByObjectVersion
1070
     0
  0
VISUALSTYLE
  5
9AB0
102
{ACAD_XDICTIONARY
360
9B0B
102
}
102
{ACAD_REACTORS
330
9AAD
102
}
330
9AAD
100
AcDbVisualStyle
  2
Gouraud
 70
     2
 71
     2
 72
     2
 73
     1
 90
        2
 40
-0.6
 41
30.0
 62
     5
 63
     7
 74
     0
 91
        0
 64
     7
 65
   257
 75
     1
175
     1
 42
1.0
 92
        0
 66
     7
 43
1.0
 76
     1
 77
     6
 78
     2
 67
     7
 79
     5
170
     0
171
     0
290
     0
174
     0
 93
       13
 44
0.0
173
     0
291
     1
 45
0.0
1001
ACAD
1000
AcDbSavedByObjectVersion
1070
     0
  0
VISUALSTYLE
  5
9AB1
102
{ACAD_XDICTIONARY
360
9B0D
102
}
102
{ACAD_REACTORS
330
9AAD
102
}
330
9AAD
100
AcDbVisualStyle
  2
GouraudWithEdges
 70
     3
 71
     2
 72
     2
 73
     1
 90
        2
 40
-0.6
 41
30.0
 62
     5
 63
     7
 74
     1
 91
        0
 64
     7
 65
   257
 75
     1
175
     1
 42
1.0
 92
        0
 66
   257
 43
1.0
 76
     1
 77
     6
 78
     2
 67
     7
 79
     5
170
     0
171
     0
290
     0
174
     0
 93
       13
 44
0.0
173
     0
291
     1
 45
0.0
1001
ACAD
1000
AcDbSavedByObjectVersion
1070
     0
  0
VISUALSTYLE
  5
9AB5
102
{ACAD_XDICTIONARY
360
9B15
102
}
102
{ACAD_REACTORS
330
9AAD
102
}
330
9AAD
100
AcDbVisualStyle
  2
Hidden
 70
     6
 71
     1
 72
     2
 73
     2
 90
        0
 40
-0.6
 41
-30.0
 62
     5
 63
     7
 74
     2
 91
        2
 64
     7
 65
   257
 75
     2
175
     1
 42
40.0
 92
        0
 66
   257
 43
1.0
 76
     1
 77
     6
 78
     2
 67
     7
 79
     3
170
     0
171
     0
290
     0
174
     0
 93
        1
 44
0.0
173
     0
291
     0
 45
0.0
1001
ACAD
1000
AcDbSavedByObjectVersion
1070
     0
  0
VISUALSTYLE
  5
9AC3
102
{ACAD_XDICTIONARY
360
9B31
102
}
102
{ACAD_REACTORS
330
9AAD
102
}
330
9AAD
100
AcDbVisualStyle
  2
JitterOff
 70
    20
 71
     2
 72
     2
 73
     0
 90
        0
 40
-0.6
 41
-30.0
 62
     5
 63
     7
 74
     1
 91
        4
 64
     7
 65
   257
 75
     1
175
     1
 42
1.0
 92
       10
 66
     7
 43
1.0
 76
     1
 77
     6
 78
     2
 67
     7
 79
     5
170
     0
171
     0
290
     0
174
     0
 93
        1
 44
0.0
173
     0
291
     1
 45
0.0
1001
ACAD
1000
AcDbSavedByObjectVersion
1070
     0
  0
VISUALSTYLE
  5
9ABB
102
{ACAD_XDICTIONARY
360
9B21
102
}
102
{ACAD_REACTORS
330
9AAD
102
}
330
9AAD
100
AcDbVisualStyle
  2
Linepattern
 70
    14
 71
     2
 72
     2
 73
     0
 90
        0
 40
-0.6
 41
-30.0
 62
     5
 63
     7
 74
     1
 91
        4
 64
     7
 65
   257
 75
     7
175
     7
 42
1.0
 92
        8
 66
     7
 43
1.0
 76
     1
 77
     6
 78
     2
 67
     7
 79
     5
170
     0
171
     0
290
     0
174
     0
 93
        1
 44
0.0
173
     0
291
     1
 45
0.0
1001
ACAD
1000
AcDbSavedByObjectVersion
1070
     0
  0
VISUALSTYLE
  5
9AC4
102
{ACAD_XDICTIONARY
360
9B33
102
}
102
{ACAD_REACTORS
330
9AAD
102
}
330
9AAD
100
AcDbVisualStyle
  2
OverhangOff
 70
    21
 71
     2
 72
     2
 73
     0
 90
        0
 40
-0.6
 41
-30.0
 62
     5
 63
     7
 74
     1
 91
        4
 64
     7
 65
   257
 75
     1
175
     1
 42
1.0
 92
        9
 66
     7
 43
1.0
 76
     1
 77
     6
 78
     2
 67
     7
 79
     5
170
     0
171
     0
290
     0
174
     0
 93
        1
 44
0.0
173
     0
291
     1
 45
0.0
1001
ACAD
1000
AcDbSavedByObjectVersion
1070
     0
  0
VISUALSTYLE
  5
9AB7
102
{ACAD_XDICTIONARY
360
9B19
102
}
102
{ACAD_REACTORS
330
9AAD
102
}
330
9AAD
100
AcDbVisualStyle
  2
Realistic
 70
     8
 71
     2
 72
     3
 73
     0
 90
        2
 40
-0.6
 41
30.0
 62
     5
 63
     7
 74
     0
 91
        0
 64
     7
 65
   257
 75
     1
175
     1
 42
1.0
 92
        8
 66
   257
 43
1.0
 76
     1
 77
     6
 78
     2
 67
     7
 79
     3
170
     0
171
     0
290
     0
174
     0
 93
       13
 44
0.0
173
     0
291
     0
 45
0.0
1001
ACAD
1000
AcDbSavedByObjectVersion
1070
     0
  0
VISUALSTYLE
  5
9AC2
102
{ACAD_XDICTIONARY
360
9B2F
102
}
102
{ACAD_REACTORS
330
9AAD
102
}
330
9AAD
100
AcDbVisualStyle
  2
Shaded
 70
    27
 71
     2
 72
     2
 73
     1
 90
        2
 40
-0.6
 41
30.0
 62
     5
 63
     7
 74
     0
 91
        4
 64
     7
 65
   257
 75
     1
175
     1
 42
1.0
 92
        8
 66
   257
 43
1.0
 76
     1
 77
     6
 78
     2
 67
     8
 79
     3
170
     0
171
     0
290
     0
174
     0
 93
        5
 44
0.0
173
     0
291
     0
 45
0.0
1001
ACAD
1000
AcDbSavedByObjectVersion
1070
     0
  0
VISUALSTYLE
  5
9AC1
102
{ACAD_XDICTIONARY
360
9B2D
102
}
102
{ACAD_REACTORS
330
9AAD
102
}
330
9AAD
100
AcDbVisualStyle
  2
Shaded with edges
 70
    26
 71
     2
 72
     2
 73
     1
 90
        2
 40
-0.6
 41
30.0
 62
     5
 63
     7
 74
     1
 91
       10
 64
     7
 65
   257
 75
     2
175
     1
 42
1.0
 92
        8
 66
   257
 43
1.0
 76
     1
 77
     6
 78
     2
 67
     7
 79
     3
170
     0
171
     0
290
     0
174
     0
 93
        5
 44
0.0
173
     0
291
     0
 45
0.0
1001
ACAD
1000
AcDbSavedByObjectVersion
1070
     0
  0
VISUALSTYLE
  5
9ABE
102
{ACAD_XDICTIONARY
360
9B27
102
}
102
{ACAD_REACTORS
330
9AAD
102
}
330
9AAD
100
AcDbVisualStyle
  2
Shades of Gray
 70
    23
 71
     2
 72
     2
 73
     3
 90
        0
 40
-0.6
 41
-30.0
 62
     5
 63
     7
 74
     2
 91
        2
 64
     7
 65
     7
 75
     1
175
     1
 42
40.0
 92
        8
 66
     7
 43
1.0
 76
     1
 77
     6
 78
     2
 67
     7
 79
     3
170
     0
171
     0
290
     0
174
     0
 93
        1
 44
0.0
173
     0
291
     0
 45
0.0
1001
ACAD
1000
AcDbSavedByObjectVersion
1070
     0
  0
VISUALSTYLE
  5
9ABF
102
{ACAD_XDICTIONARY
360
9B29
102
}
102
{ACAD_REACTORS
330
9AAD
102
}
330
9AAD
100
AcDbVisualStyle
  2
Sketchy
 70
    24
 71
     1
 72
     2
 73
     2
 90
        0
 40
-0.6
 41
-30.0
 62
     5
 63
     7
 74
     2
 91
        2
 64
     7
 65
     7
 75
     1
175
     1
 42
40.0
 92
       11
 66
     7
 43
1.0
 76
     1
 77
     6
 78
     2
 67
     7
 79
     6
170
     0
171
     0
290
     0
174
     0
 93
        1
 44
0.0
173
     0
291
     0
 45
0.0
1001
ACAD
1000
AcDbSavedByObjectVersion
1070
     0
  0
VISUALSTYLE
  5
9ABA
102
{ACAD_XDICTIONARY
360
9B1F
102
}
102
{ACAD_REACTORS
330
9AAD
102
}
330
9AAD
100
AcDbVisualStyle
  2
Thicken
 70
    13
 71
     2
 72
     2
 73
     0
 90
        0
 40
-0.6
 41
-30.0
 62
     5
 63
     7
 74
     1
 91
        4
 64
     7
 65
   257
 75
     1
175
     1
 42
1.0
 92
       12
 66
     7
 43
1.0
 76
     1
 77
     6
 78
     2
 67
     7
 79
     5
170
     0
171
     0
290
     0
174
     0
 93
        1
 44
0.0
173
     0
291
     1
 45
0.0
1001
ACAD
1000
AcDbSavedByObjectVersion
1070
     0
  0
VISUALSTYLE
  5
9AB4
102
{ACAD_XDICTIONARY
360
9B13
102
}
102
{ACAD_REACTORS
330
9AAD
102
}
330
9AAD
100
AcDbVisualStyle
  2
Wireframe
 70
     5
 71
     0
 72
     2
 73
     0
 90
        0
 40
-0.6
 41
-30.0
 62
     5
 63
     7
 74
     1
 91
        4
 64
     7
 65
   257
 75
     1
175
     1
 42
1.0
 92
        0
 66
   257
 43
1.0
 76
     1
 77
     6
 78
     2
 67
     7
 79
     3
170
     0
171
     0
290
     0
174
     0
 93
        1
 44
0.0
173
     0
291
     0
 45
0.0
1001
ACAD
1000
AcDbSavedByObjectVersion
1070
     0
  0
VISUALSTYLE
  5
9AC0
102
{ACAD_XDICTIONARY
360
9B2B
102
}
102
{ACAD_REACTORS
330
9AAD
102
}
330
9AAD
100
AcDbVisualStyle
  2
X-Ray
 70
    25
 71
     2
 72
     2
 73
     1
 90
        1
 40
0.5
 41
-30.0
 62
     5
 63
     7
 74
     1
 91
        0
 64
     7
 65
   257
 75
     1
175
     1
 42
1.0
 92
        8
 66
     7
 43
1.0
 76
     1
 77
     6
 78
     2
 67
     7
 79
     3
170
     0
171
     0
290
     0
174
     0
 93
       13
 44
0.0
173
     0
291
     0
 45
0.0
1001
ACAD
1000
AcDbSavedByObjectVersion
1070
     0
  0
DICTIONARYVAR
  5
9AFA
102
{ACAD_REACTORS
330
9AF5
102
}
330
9AF5
100
DictionaryVariables
280
     0
  1
1:1
  0
DICTIONARYVAR
  5
9AF7
102
{ACAD_REACTORS
330
9AF5
102
}
330
9AF5
100
DictionaryVariables
280
     0
  1
STANDARD
  0
DICTIONARYVAR
  5
9AF6
102
{ACAD_REACTORS
330
9AF5
102
}
330
9AF5
100
DictionaryVariables
280
     0
  1
STANDARD
  0
DICTIONARYVAR
  5
9AF8
102
{ACAD_REACTORS
330
9AF5
102
}
330
9AF5
100
DictionaryVariables
280
     0
  1
Imperial24
  0
DICTIONARYVAR
  5
9AF9
102
{ACAD_REACTORS
330
9AF5
102
}
330
9AF5
100
DictionaryVariables
280
     0
  1
Imperial24
  0
DICTIONARYVAR
  5
9AFD
102
{ACAD_REACTORS
330
9AF5
102
}
330
9AF5
100
DictionaryVariables
280
     0
  1
1
  0
DICTIONARYVAR
  5
9AFC
102
{ACAD_REACTORS
330
9AF5
102
}
330
9AF5
100
DictionaryVariables
280
     0
  1
0
  0
DICTIONARYVAR
  5
9AFB
102
{ACAD_REACTORS
330
9AF5
102
}
330
9AF5
100
DictionaryVariables
280
     0
  1
127
  0
DICTIONARYVAR
  5
9AFE
102
{ACAD_REACTORS
330
9AF5
102
}
330
9AF5
100
DictionaryVariables
280
     0
  1
2
  0
DICTIONARY
  5
9B3B
330
9AE0
100
AcDbDictionary
280
     1
281
     1
  3
ACAD_XREC_ROUNDTRIP
360
9B3C
  0
DICTIONARY
  5
9B3D
330
9AE1
100
AcDbDictionary
280
     1
281
     1
  3
ACAD_XREC_ROUNDTRIP
360
9B3E
  0
DICTIONARY
  5
9B3F
330
9AE2
100
AcDbDictionary
280
     1
281
     1
  3
ACAD_XREC_ROUNDTRIP
360
9B40
  0
DICTIONARY
  5
9A9E
330
9A9D
100
AcDbDictionary
280
     1
281
     1
  3
ACAD_XREC_ROUNDTRIP
360
9B05
  3
BUMPTILE
360
9AA0
  3
DIFFUSETILE
360
9A9F
  3
OPACITYTILE
360
9AA3
  3
REFLECTIONTILE
360
9AA2
  3
REFRACTIONTILE
360
9AA4
  3
SPECULARTILE
360
9AA1
  0
DICTIONARY
  5
9A96
330
9A95
100
AcDbDictionary
280
     1
281
     1
  3
ACAD_XREC_ROUNDTRIP
360
9B04
  3
BUMPTILE
360
9A98
  3
DIFFUSETILE
360
9A97
  3
OPACITYTILE
360
9A9B
  3
REFLECTIONTILE
360
9A9A
  3
REFRACTIONTILE
360
9A9C
  3
SPECULARTILE
360
9A99
  0
DICTIONARY
  5
9AA6
330
9AA5
100
AcDbDictionary
280
     1
281
     1
  3
ACAD_XREC_ROUNDTRIP
360
9B06
  3
BUMPTILE
360
9AA8
  3
DIFFUSETILE
360
9AA7
  3
OPACITYTILE
360
9AAB
  3
REFLECTIONTILE
360
9AAA
  3
REFRACTIONTILE
360
9AAC
  3
SPECULARTILE
360
9AA9
  0
DICTIONARY
  5
9B39
330
9ADE
100
AcDbDictionary
280
     1
281
     1
  3
ACAD_XREC_ROUNDTRIP
360
9B3A
  0
DICTIONARY
  5
9B00
330
9AC8
100
AcDbDictionary
280
     1
281
     1
  3
ACAD_ROUNDTRIP_2008_TABLESTYLE_CELLSTYLEMAP
360
9B01
  3
ACAD_XREC_ROUNDTRIP
360
9B37
  0
DICTIONARY
  5
9B11
330
9AB3
100
AcDbDictionary
280
     1
281
     1
  3
ACAD_XREC_ROUNDTRIP
360
9B12
  0
DICTIONARY
  5
9B0F
330
9AB2
100
AcDbDictionary
280
     1
281
     1
  3
ACAD_XREC_ROUNDTRIP
360
9B10
  0
DICTIONARY
  5
9B1D
330
9AB9
100
AcDbDictionary
280
     1
281
     1
  3
ACAD_XREC_ROUNDTRIP
360
9B1E
  0
DICTIONARY
  5
9B25
330
9ABD
100
AcDbDictionary
280
     1
281
     1
  3
ACAD_XREC_ROUNDTRIP
360
9B26
  0
DICTIONARY
  5
9B17
330
9AB6
100
AcDbDictionary
280
     1
281
     1
  3
ACAD_XREC_ROUNDTRIP
360
9B18
  0
DICTIONARY
  5
9B1B
330
9AB8
100
AcDbDictionary
280
     1
281
     1
  3
ACAD_XREC_ROUNDTRIP
360
9B1C
  0
DICTIONARY
  5
9B35
330
9AC5
100
AcDbDictionary
280
     1
281
     1
  3
ACAD_XREC_ROUNDTRIP
360
9B36
  0
DICTIONARY
  5
9B23
330
9ABC
100
AcDbDictionary
280
     1
281
     1
  3
ACAD_XREC_ROUNDTRIP
360
9B24
  0
DICTIONARY
  5
9B07
330
9AAE
100
AcDbDictionary
280
     1
281
     1
  3
ACAD_XREC_ROUNDTRIP
360
9B08
  0
DICTIONARY
  5
9B09
330
9AAF
100
AcDbDictionary
280
     1
281
     1
  3
ACAD_XREC_ROUNDTRIP
360
9B0A
  0
DICTIONARY
  5
9B0B
330
9AB0
100
AcDbDictionary
280
     1
281
     1
  3
ACAD_XREC_ROUNDTRIP
360
9B0C
  0
DICTIONARY
  5
9B0D
330
9AB1
100
AcDbDictionary
280
     1
281
     1
  3
ACAD_XREC_ROUNDTRIP
360
9B0E
  0
DICTIONARY
  5
9B15
330
9AB5
100
AcDbDictionary
280
     1
281
     1
  3
ACAD_XREC_ROUNDTRIP
360
9B16
  0
DICTIONARY
  5
9B31
330
9AC3
100
AcDbDictionary
280
     1
281
     1
  3
ACAD_XREC_ROUNDTRIP
360
9B32
  0
DICTIONARY
  5
9B21
330
9ABB
100
AcDbDictionary
280
     1
281
     1
  3
ACAD_XREC_ROUNDTRIP
360
9B22
  0
DICTIONARY
  5
9B33
330
9AC4
100
AcDbDictionary
280
     1
281
     1
  3
ACAD_XREC_ROUNDTRIP
360
9B34
  0
DICTIONARY
  5
9B19
330
9AB7
100
AcDbDictionary
280
     1
281
     1
  3
ACAD_XREC_ROUNDTRIP
360
9B1A
  0
DICTIONARY
  5
9B2F
330
9AC2
100
AcDbDictionary
280
     1
281
     1
  3
ACAD_XREC_ROUNDTRIP
360
9B30
  0
DICTIONARY
  5
9B2D
330
9AC1
100
AcDbDictionary
280
     1
281
     1
  3
ACAD_XREC_ROUNDTRIP
360
9B2E
  0
DICTIONARY
  5
9B27
330
9ABE
100
AcDbDictionary
280
     1
281
     1
  3
ACAD_XREC_ROUNDTRIP
360
9B28
  0
DICTIONARY
  5
9B29
330
9ABF
100
AcDbDictionary
280
     1
281
     1
  3
ACAD_XREC_ROUNDTRIP
360
9B2A
  0
DICTIONARY
  5
9B1F
330
9ABA
100
AcDbDictionary
280
     1
281
     1
  3
ACAD_XREC_ROUNDTRIP
360
9B20
  0
DICTIONARY
  5
9B13
330
9AB4
100
AcDbDictionary
280
     1
281
     1
  3
ACAD_XREC_ROUNDTRIP
360
9B14
  0
DICTIONARY
  5
9B2B
330
9AC0
100
AcDbDictionary
280
     1
281
     1
  3
ACAD_XREC_ROUNDTRIP
360
9B2C
  0
XRECORD
  5
9B3C
102
{ACAD_REACTORS
330
9B3B
102
}
330
9B3B
100
AcDbXrecord
280
     1
102
DISPLAYNAME
  1
Imperial24
102
FLAGS
 90
        0
  0
XRECORD
  5
9B3E
102
{ACAD_REACTORS
330
9B3D
102
}
330
9B3D
100
AcDbXrecord
280
     1
102
SHADEPLOT
 70
     0
102
SHADEPLOTRESLEVEL
 70
     2
102
SHADEPLOTCUSTOMDPI
 70
   300
  0
XRECORD
  5
9B40
102
{ACAD_REACTORS
330
9B3F
102
}
330
9B3F
100
AcDbXrecord
280
     1
102
SHADEPLOT
 70
     0
102
SHADEPLOTRESLEVEL
 70
     2
102
SHADEPLOTCUSTOMDPI
 70
   300
  0
XRECORD
  5
9B05
102
{ACAD_REACTORS
330
9A9E
102
}
330
9A9E
100
AcDbXrecord
280
     1
102
MATERIAL
148
0.0
149
0.0
149
0.0
 93
        0
 94
      127
282
     0
 72
     0
 77
     0
171
     0
175
     0
179
     0
273
     0
  0
XRECORD
  5
9AA0
102
{ACAD_REACTORS
330
9A9E
102
}
330
9A9E
100
AcDbXrecord
280
     1
270
     1
271
     1
  0
XRECORD
  5
9A9F
102
{ACAD_REACTORS
330
9A9E
102
}
330
9A9E
100
AcDbXrecord
280
     1
270
     1
271
     1
  0
XRECORD
  5
9AA3
102
{ACAD_REACTORS
330
9A9E
102
}
330
9A9E
100
AcDbXrecord
280
     1
270
     1
271
     1
  0
XRECORD
  5
9AA2
102
{ACAD_REACTORS
330
9A9E
102
}
330
9A9E
100
AcDbXrecord
280
     1
270
     1
271
     1
  0
XRECORD
  5
9AA4
102
{ACAD_REACTORS
330
9A9E
102
}
330
9A9E
100
AcDbXrecord
280
     1
270
     1
271
     1
  0
XRECORD
  5
9AA1
102
{ACAD_REACTORS
330
9A9E
102
}
330
9A9E
100
AcDbXrecord
280
     1
270
     1
271
     1
  0
XRECORD
  5
9B04
102
{ACAD_REACTORS
330
9A96
102
}
330
9A96
100
AcDbXrecord
280
     1
102
MATERIAL
148
0.0
149
0.0
149
0.0
 93
        0
 94
      127
282
     0
 72
     0
 77
     0
171
     0
175
     0
179
     0
273
     0
  0
XRECORD
  5
9A98
102
{ACAD_REACTORS
330
9A96
102
}
330
9A96
100
AcDbXrecord
280
     1
270
     1
271
     1
  0
XRECORD
  5
9A97
102
{ACAD_REACTORS
330
9A96
102
}
330
9A96
100
AcDbXrecord
280
     1
270
     1
271
     1
  0
XRECORD
  5
9A9B
102
{ACAD_REACTORS
330
9A96
102
}
330
9A96
100
AcDbXrecord
280
     1
270
     1
271
     1
  0
XRECORD
  5
9A9A
102
{ACAD_REACTORS
330
9A96
102
}
330
9A96
100
AcDbXrecord
280
     1
270
     1
271
     1
  0
XRECORD
  5
9A9C
102
{ACAD_REACTORS
330
9A96
102
}
330
9A96
100
AcDbXrecord
280
     1
270
     1
271
     1
  0
XRECORD
  5
9A99
102
{ACAD_REACTORS
330
9A96
102
}
330
9A96
100
AcDbXrecord
280
     1
270
     1
271
     1
  0
XRECORD
  5
9B06
102
{ACAD_REACTORS
330
9AA6
102
}
330
9AA6
100
AcDbXrecord
280
     1
102
MATERIAL
148
0.0
149
0.0
149
0.0
 93
        0
 94
      127
282
     0
 72
     0
 77
     0
171
     0
175
     0
179
     0
273
     0
  0
XRECORD
  5
9AA8
102
{ACAD_REACTORS
330
9AA6
102
}
330
9AA6
100
AcDbXrecord
280
     1
270
     1
271
     1
  0
XRECORD
  5
9AA7
102
{ACAD_REACTORS
330
9AA6
102
}
330
9AA6
100
AcDbXrecord
280
     1
270
     1
271
     1
  0
XRECORD
  5
9AAB
102
{ACAD_REACTORS
330
9AA6
102
}
330
9AA6
100
AcDbXrecord
280
     1
270
     1
271
     1
  0
XRECORD
  5
9AAA
102
{ACAD_REACTORS
330
9AA6
102
}
330
9AA6
100
AcDbXrecord
280
     1
270
     1
271
     1
  0
XRECORD
  5
9AAC
102
{ACAD_REACTORS
330
9AA6
102
}
330
9AA6
100
AcDbXrecord
280
     1
270
     1
271
     1
  0
XRECORD
  5
9AA9
102
{ACAD_REACTORS
330
9AA6
102
}
330
9AA6
100
AcDbXrecord
280
     1
270
     1
271
     1
  0
XRECORD
  5
9B3A
102
{ACAD_REACTORS
330
9B39
102
}
330
9B39
100
AcDbXrecord
280
     1
102
DISPLAYNAME
  1
Imperial24
102
FLAGS
 90
        0
  0
CELLSTYLEMAP
  5
9B01
102
{ACAD_REACTORS
330
9B00
102
}
330
9B00
100
AcDbCellStyleMap
 90
        3
300
CELLSTYLE
  1
TABLEFORMAT_BEGIN
 90
        5
170
     1
 91
        0
 92
    32768
 62
   257
 93
        1
300
CONTENTFORMAT
  1
CONTENTFORMAT_BEGIN
 90
        0
 91
        0
 92
      512
 93
        0
300

 40
0.0
140
1.0
 94
        5
 62
     0
340
9878
144
0.25
309
CONTENTFORMAT_END
171
     0
 94
        0
309
TABLEFORMAT_END
  1
CELLSTYLE_BEGIN
 90
        1
 91
        1
300
_TITLE
309
CELLSTYLE_END
300
CELLSTYLE
  1
TABLEFORMAT_BEGIN
 90
        5
170
     1
 91
        0
 92
        0
 62
   257
 93
        1
300
CONTENTFORMAT
  1
CONTENTFORMAT_BEGIN
 90
        0
 91
        0
 92
      512
 93
        0
300

 40
0.0
140
1.0
 94
        5
 62
     0
340
9878
144
0.18
309
CONTENTFORMAT_END
171
     0
 94
        0
309
TABLEFORMAT_END
  1
CELLSTYLE_BEGIN
 90
        2
 91
        1
300
_HEADER
309
CELLSTYLE_END
300
CELLSTYLE
  1
TABLEFORMAT_BEGIN
 90
        5
170
     1
 91
        0
 92
        0
 62
   257
 93
        1
300
CONTENTFORMAT
  1
CONTENTFORMAT_BEGIN
 90
        0
 91
        0
 92
      512
 93
        0
300

 40
0.0
140
1.0
 94
        2
 62
     0
340
9878
144
0.18
309
CONTENTFORMAT_END
171
     0
 94
        0
309
TABLEFORMAT_END
  1
CELLSTYLE_BEGIN
 90
        3
 91
        2
300
_DATA
309
CELLSTYLE_END
  0
XRECORD
  5
9B37
102
{ACAD_REACTORS
330
9B00
102
}
330
9B00
100
AcDbXrecord
280
     1
102
ACAD_ROUNDTRIP_PRE2007_TABLESTYLE
 90
      512
 91
        0
  1

 92
      512
 93
        0
  2

 94
      512
 95
        0
  3

  0
XRECORD
  5
9B12
102
{ACAD_REACTORS
330
9B11
102
}
330
9B11
100
AcDbXrecord
280
     1
102
RTVSPost2010Prop28
280
     1
102
RTVSPost2010PropOp28
 70
     1
102
RTVSPost2010Prop29
280
     1
102
RTVSPost2010PropOp29
 70
     1
102
RTVSPost2010Prop30
280
     0
102
RTVSPost2010PropOp30
 70
     1
102
RTVSPost2010Prop31
280
     0
102
RTVSPost2010PropOp31
 70
     1
102
RTVSPost2010Prop32
280
     0
102
RTVSPost2010PropOp32
 70
     1
102
RTVSPost2010Prop33
280
     0
102
RTVSPost2010PropOp33
 70
     1
102
RTVSPost2010Prop34
280
     0
102
RTVSPost2010PropOp34
 70
     1
102
RTVSPost2010Prop35
280
     0
102
RTVSPost2010PropOp35
 70
     1
102
RTVSPost2010Prop36
280
     0
102
RTVSPost2010PropOp36
 70
     1
102
RTVSPost2010Prop37
 90
       50
102
RTVSPost2010PropOp37
 70
     1
102
RTVSPost2010Prop38
140
0.0
102
RTVSPost2010PropOp38
 70
     1
102
RTVSPost2010Prop39
140
1.0
102
RTVSPost2010PropOp39
 70
     1
102
RTVSPost2010Prop40
 90
        0
102
RTVSPost2010PropOp40
 70
     1
102
RTVSPost2010Prop41ColorIndex
 90
       18
102
RTVSPost2010Prop41ColorRGB
 90
        0
102
RTVSPost2010PropOp41
 70
     1
102
RTVSPost2010Prop42
 90
       50
102
RTVSPost2010PropOp42
 70
     1
102
RTVSPost2010Prop43
 90
        3
102
RTVSPost2010PropOp43
 70
     1
102
RTVSPost2010Prop44ColorIndex
 90
        5
102
RTVSPost2010Prop44ColorRGB
 90
      255
102
RTVSPost2010PropOp44
 70
     1
102
RTVSPost2010Prop45
280
     0
102
RTVSPost2010PropOp45
 70
     1
102
RTVSPost2010Prop46
 90
       50
102
RTVSPost2010PropOp46
 70
     1
102
RTVSPost2010Prop47
 90
       50
102
RTVSPost2010PropOp47
 70
     1
102
RTVSPost2010Prop48
 90
       50
102
RTVSPost2010PropOp48
 70
     1
102
RTVSPost2010Prop49
280
     0
102
RTVSPost2010PropOp49
 70
     1
102
RTVSPost2010Prop50
 90
       50
102
RTVSPost2010PropOp50
 70
     1
102
RTVSPost2010Prop51ColorIndex
 90
      256
102
RTVSPost2010Prop51ColorRGB
 90
-16777216
102
RTVSPost2010PropOp51
 70
     0
102
RTVSPost2010Prop52
140
1.0
102
RTVSPost2010PropOp52
 70
     0
102
RTVSPost2010Prop53
 90
        2
102
RTVSPost2010PropOp53
 70
     1
102
RTVSPost2010Prop54
  1
strokes_ogs.tif
102
RTVSPost2010PropOp54
 70
     1
102
RTVSPost2010Prop55
280
     0
102
RTVSPost2010PropOp55
 70
     1
102
RTVSPost2010Prop56
140
1.0
102
RTVSPost2010PropOp56
 70
     1
102
RTVSPost2010Prop57
140
1.0
102
RTVSPost2010PropOp57
 70
     1
102
RTVSPropertyOp0
 70
     1
102
RTVSPropertyOp1
 70
     1
102
RTVSPropertyOp2
 70
     1
102
RTVSPropertyOp3
 70
     1
102
RTVSPropertyOp4
 70
     1
102
RTVSPropertyOp5
 70
     1
102
RTVSPropertyOp6
 70
     1
102
RTVSPropertyOp7
 70
     1
102
RTVSPropertyOp8
 70
     1
102
RTVSPropertyOp9
 70
     1
102
RTVSPropertyOp10
 70
     1
102
RTVSPropertyOp11
 70
     1
102
RTVSPropertyOp12
 70
     1
102
RTVSPropertyOp13
 70
     1
102
RTVSPropertyOp14
 70
     1
102
RTVSPropertyOp15
 70
     1
102
RTVSPropertyOp16
 70
     1
102
RTVSPropertyOp17
 70
     1
102
RTVSPropertyOp18
 70
     1
102
RTVSPropertyOp19
 70
     1
102
RTVSPropertyOp20
 70
     1
102
RTVSPropertyOp21
 70
     1
102
RTVSPropertyOp22
 70
     1
102
RTVSPropertyOp23
 70
     1
102
RTVSPropertyOp24
 70
     1
102
RTVSPropertyOp25
 70
     1
102
RTVSPropertyOp26
 70
     1
102
RTVSPropertyOp27
 70
     1
102
RTVSPropertyOp28
 70
     1
102
RTVSPropertyOp29
 70
     1
102
RTVSPropertyOp30
 70
     1
102
RTVSPropertyOp31
 70
     1
102
RTVSPropertyOp32
 70
     1
102
RTVSPropertyOp33
 70
     1
102
RTVSPropertyOp34
 70
     1
102
RTVSPropertyOp35
 70
     1
102
RTVSPropertyOp36
 70
     1
102
RTVSPropertyOp37
 70
     1
102
RTVSPropertyOp38
 70
     1
102
RTVSPropertyOp39
 70
     1
102
RTVSPropertyOp40
 70
     1
102
RTVSPropertyOp41
 70
     1
102
RTVSPropertyOp42
 70
     1
102
RTVSPropertyOp43
 70
     1
102
RTVSPropertyOp44
 70
     1
102
RTVSPropertyOp45
 70
     1
102
RTVSPropertyOp46
 70
     1
102
RTVSPropertyOp47
 70
     1
102
RTVSPropertyOp48
 70
     1
102
RTVSPropertyOp49
 70
     1
102
RTVSPropertyOp50
 70
     1
102
RTVSPropertyOp51
 70
     0
102
RTVSPropertyOp52
 70
     0
102
RTVSPropertyOp53
 70
     1
102
RTVSPropertyOp54
 70
     1
102
RTVSPropertyOp55
 70
     1
102
RTVSPropertyOp56
 70
     1
102
RTVSPropertyOp57
 70
     1
102
RTVSPropertyOp58
 70
     1
102
RTVSPropertyOp59
 70
     1
102
RTVSPropertyOp60
 70
     1
102
RTVSPropertyOp61
 70
     1
102
RTVSPropertyOp62
 70
     1
  0
XRECORD
  5
9B10
102
{ACAD_REACTORS
330
9B0F
102
}
330
9B0F
100
AcDbXrecord
280
     1
102
RTVSPost2010Prop28
280
     0
102
RTVSPost2010PropOp28
 70
     1
102
RTVSPost2010Prop29
280
     1
102
RTVSPost2010PropOp29
 70
     1
102
RTVSPost2010Prop30
280
     1
102
RTVSPost2010PropOp30
 70
     1
102
RTVSPost2010Prop31
280
     0
102
RTVSPost2010PropOp31
 70
     1
102
RTVSPost2010Prop32
280
     0
102
RTVSPost2010PropOp32
 70
     1
102
RTVSPost2010Prop33
280
     0
102
RTVSPost2010PropOp33
 70
     1
102
RTVSPost2010Prop34
280
     0
102
RTVSPost2010PropOp34
 70
     1
102
RTVSPost2010Prop35
280
     0
102
RTVSPost2010PropOp35
 70
     1
102
RTVSPost2010Prop36
280
     0
102
RTVSPost2010PropOp36
 70
     1
102
RTVSPost2010Prop37
 90
       50
102
RTVSPost2010PropOp37
 70
     1
102
RTVSPost2010Prop38
140
0.0
102
RTVSPost2010PropOp38
 70
     1
102
RTVSPost2010Prop39
140
1.0
102
RTVSPost2010PropOp39
 70
     1
102
RTVSPost2010Prop40
 90
        0
102
RTVSPost2010PropOp40
 70
     1
102
RTVSPost2010Prop41ColorIndex
 90
       18
102
RTVSPost2010Prop41ColorRGB
 90
        0
102
RTVSPost2010PropOp41
 70
     1
102
RTVSPost2010Prop42
 90
       50
102
RTVSPost2010PropOp42
 70
     1
102
RTVSPost2010Prop43
 90
        3
102
RTVSPost2010PropOp43
 70
     1
102
RTVSPost2010Prop44ColorIndex
 90
        5
102
RTVSPost2010Prop44ColorRGB
 90
      255
102
RTVSPost2010PropOp44
 70
     1
102
RTVSPost2010Prop45
280
     0
102
RTVSPost2010PropOp45
 70
     1
102
RTVSPost2010Prop46
 90
       50
102
RTVSPost2010PropOp46
 70
     1
102
RTVSPost2010Prop47
 90
       50
102
RTVSPost2010PropOp47
 70
     1
102
RTVSPost2010Prop48
 90
       50
102
RTVSPost2010PropOp48
 70
     1
102
RTVSPost2010Prop49
280
     0
102
RTVSPost2010PropOp49
 70
     1
102
RTVSPost2010Prop50
 90
       50
102
RTVSPost2010PropOp50
 70
     1
102
RTVSPost2010Prop51ColorIndex
 90
      256
102
RTVSPost2010Prop51ColorRGB
 90
-16777216
102
RTVSPost2010PropOp51
 70
     0
102
RTVSPost2010Prop52
140
1.0
102
RTVSPost2010PropOp52
 70
     0
102
RTVSPost2010Prop53
 90
        2
102
RTVSPost2010PropOp53
 70
     1
102
RTVSPost2010Prop54
  1
strokes_ogs.tif
102
RTVSPost2010PropOp54
 70
     1
102
RTVSPost2010Prop55
280
     0
102
RTVSPost2010PropOp55
 70
     1
102
RTVSPost2010Prop56
140
1.0
102
RTVSPost2010PropOp56
 70
     1
102
RTVSPost2010Prop57
140
1.0
102
RTVSPost2010PropOp57
 70
     1
102
RTVSPropertyOp0
 70
     1
102
RTVSPropertyOp1
 70
     1
102
RTVSPropertyOp2
 70
     1
102
RTVSPropertyOp3
 70
     1
102
RTVSPropertyOp4
 70
     1
102
RTVSPropertyOp5
 70
     1
102
RTVSPropertyOp6
 70
     1
102
RTVSPropertyOp7
 70
     1
102
RTVSPropertyOp8
 70
     1
102
RTVSPropertyOp9
 70
     1
102
RTVSPropertyOp10
 70
     1
102
RTVSPropertyOp11
 70
     1
102
RTVSPropertyOp12
 70
     1
102
RTVSPropertyOp13
 70
     1
102
RTVSPropertyOp14
 70
     1
102
RTVSPropertyOp15
 70
     1
102
RTVSPropertyOp16
 70
     1
102
RTVSPropertyOp17
 70
     1
102
RTVSPropertyOp18
 70
     1
102
RTVSPropertyOp19
 70
     1
102
RTVSPropertyOp20
 70
     1
102
RTVSPropertyOp21
 70
     1
102
RTVSPropertyOp22
 70
     1
102
RTVSPropertyOp23
 70
     1
102
RTVSPropertyOp24
 70
     1
102
RTVSPropertyOp25
 70
     1
102
RTVSPropertyOp26
 70
     1
102
RTVSPropertyOp27
 70
     1
102
RTVSPropertyOp28
 70
     1
102
RTVSPropertyOp29
 70
     1
102
RTVSPropertyOp30
 70
     1
102
RTVSPropertyOp31
 70
     1
102
RTVSPropertyOp32
 70
     1
102
RTVSPropertyOp33
 70
     1
102
RTVSPropertyOp34
 70
     1
102
RTVSPropertyOp35
 70
     1
102
RTVSPropertyOp36
 70
     1
102
RTVSPropertyOp37
 70
     1
102
RTVSPropertyOp38
 70
     1
102
RTVSPropertyOp39
 70
     1
102
RTVSPropertyOp40
 70
     1
102
RTVSPropertyOp41
 70
     1
102
RTVSPropertyOp42
 70
     1
102
RTVSPropertyOp43
 70
     1
102
RTVSPropertyOp44
 70
     1
102
RTVSPropertyOp45
 70
     1
102
RTVSPropertyOp46
 70
     1
102
RTVSPropertyOp47
 70
     1
102
RTVSPropertyOp48
 70
     1
102
RTVSPropertyOp49
 70
     1
102
RTVSPropertyOp50
 70
     1
102
RTVSPropertyOp51
 70
     0
102
RTVSPropertyOp52
 70
     0
102
RTVSPropertyOp53
 70
     1
102
RTVSPropertyOp54
 70
     1
102
RTVSPropertyOp55
 70
     1
102
RTVSPropertyOp56
 70
     1
102
RTVSPropertyOp57
 70
     1
102
RTVSPropertyOp58
 70
     1
102
RTVSPropertyOp59
 70
     1
102
RTVSPropertyOp60
 70
     1
102
RTVSPropertyOp61
 70
     1
102
RTVSPropertyOp62
 70
     1
  0
XRECORD
  5
9B1E
102
{ACAD_REACTORS
330
9B1D
102
}
330
9B1D
100
AcDbXrecord
280
     1
102
RTVSPost2010Prop28
280
     0
102
RTVSPost2010PropOp28
 70
     1
102
RTVSPost2010Prop29
280
     1
102
RTVSPost2010PropOp29
 70
     1
102
RTVSPost2010Prop30
280
     1
102
RTVSPost2010PropOp30
 70
     1
102
RTVSPost2010Prop31
280
     0
102
RTVSPost2010PropOp31
 70
     1
102
RTVSPost2010Prop32
280
     0
102
RTVSPost2010PropOp32
 70
     1
102
RTVSPost2010Prop33
280
     0
102
RTVSPost2010PropOp33
 70
     1
102
RTVSPost2010Prop34
280
     0
102
RTVSPost2010PropOp34
 70
     1
102
RTVSPost2010Prop35
280
     0
102
RTVSPost2010PropOp35
 70
     1
102
RTVSPost2010Prop36
280
     0
102
RTVSPost2010PropOp36
 70
     1
102
RTVSPost2010Prop37
 90
       50
102
RTVSPost2010PropOp37
 70
     1
102
RTVSPost2010Prop38
140
0.0
102
RTVSPost2010PropOp38
 70
     1
102
RTVSPost2010Prop39
140
1.0
102
RTVSPost2010PropOp39
 70
     1
102
RTVSPost2010Prop40
 90
        0
102
RTVSPost2010PropOp40
 70
     1
102
RTVSPost2010Prop41ColorIndex
 90
       18
102
RTVSPost2010Prop41ColorRGB
 90
        0
102
RTVSPost2010PropOp41
 70
     1
102
RTVSPost2010Prop42
 90
       50
102
RTVSPost2010PropOp42
 70
     1
102
RTVSPost2010Prop43
 90
        3
102
RTVSPost2010PropOp43
 70
     1
102
RTVSPost2010Prop44ColorIndex
 90
        5
102
RTVSPost2010Prop44ColorRGB
 90
      255
102
RTVSPost2010PropOp44
 70
     1
102
RTVSPost2010Prop45
280
     0
102
RTVSPost2010PropOp45
 70
     1
102
RTVSPost2010Prop46
 90
       50
102
RTVSPost2010PropOp46
 70
     1
102
RTVSPost2010Prop47
 90
       50
102
RTVSPost2010PropOp47
 70
     1
102
RTVSPost2010Prop48
 90
       50
102
RTVSPost2010PropOp48
 70
     1
102
RTVSPost2010Prop49
280
     0
102
RTVSPost2010PropOp49
 70
     1
102
RTVSPost2010Prop50
 90
       50
102
RTVSPost2010PropOp50
 70
     1
102
RTVSPost2010Prop51ColorIndex
 90
      256
102
RTVSPost2010Prop51ColorRGB
 90
-16777216
102
RTVSPost2010PropOp51
 70
     0
102
RTVSPost2010Prop52
140
1.0
102
RTVSPost2010PropOp52
 70
     0
102
RTVSPost2010Prop53
 90
        2
102
RTVSPost2010PropOp53
 70
     1
102
RTVSPost2010Prop54
  1
strokes_ogs.tif
102
RTVSPost2010PropOp54
 70
     1
102
RTVSPost2010Prop55
280
     0
102
RTVSPost2010PropOp55
 70
     1
102
RTVSPost2010Prop56
140
1.0
102
RTVSPost2010PropOp56
 70
     1
102
RTVSPost2010Prop57
140
1.0
102
RTVSPost2010PropOp57
 70
     1
102
RTVSPropertyOp0
 70
     1
102
RTVSPropertyOp1
 70
     1
102
RTVSPropertyOp2
 70
     1
102
RTVSPropertyOp3
 70
     1
102
RTVSPropertyOp4
 70
     1
102
RTVSPropertyOp5
 70
     1
102
RTVSPropertyOp6
 70
     1
102
RTVSPropertyOp7
 70
     1
102
RTVSPropertyOp8
 70
     1
102
RTVSPropertyOp9
 70
     1
102
RTVSPropertyOp10
 70
     1
102
RTVSPropertyOp11
 70
     1
102
RTVSPropertyOp12
 70
     1
102
RTVSPropertyOp13
 70
     1
102
RTVSPropertyOp14
 70
     1
102
RTVSPropertyOp15
 70
     1
102
RTVSPropertyOp16
 70
     1
102
RTVSPropertyOp17
 70
     1
102
RTVSPropertyOp18
 70
     1
102
RTVSPropertyOp19
 70
     1
102
RTVSPropertyOp20
 70
     1
102
RTVSPropertyOp21
 70
     1
102
RTVSPropertyOp22
 70
     1
102
RTVSPropertyOp23
 70
     1
102
RTVSPropertyOp24
 70
     1
102
RTVSPropertyOp25
 70
     1
102
RTVSPropertyOp26
 70
     1
102
RTVSPropertyOp27
 70
     1
102
RTVSPropertyOp28
 70
     1
102
RTVSPropertyOp29
 70
     1
102
RTVSPropertyOp30
 70
     1
102
RTVSPropertyOp31
 70
     1
102
RTVSPropertyOp32
 70
     1
102
RTVSPropertyOp33
 70
     1
102
RTVSPropertyOp34
 70
     1
102
RTVSPropertyOp35
 70
     1
102
RTVSPropertyOp36
 70
     1
102
RTVSPropertyOp37
 70
     1
102
RTVSPropertyOp38
 70
     1
102
RTVSPropertyOp39
 70
     1
102
RTVSPropertyOp40
 70
     1
102
RTVSPropertyOp41
 70
     1
102
RTVSPropertyOp42
 70
     1
102
RTVSPropertyOp43
 70
     1
102
RTVSPropertyOp44
 70
     1
102
RTVSPropertyOp45
 70
     1
102
RTVSPropertyOp46
 70
     1
102
RTVSPropertyOp47
 70
     1
102
RTVSPropertyOp48
 70
     1
102
RTVSPropertyOp49
 70
     1
102
RTVSPropertyOp50
 70
     1
102
RTVSPropertyOp51
 70
     0
102
RTVSPropertyOp52
 70
     0
102
RTVSPropertyOp53
 70
     1
102
RTVSPropertyOp54
 70
     1
102
RTVSPropertyOp55
 70
     1
102
RTVSPropertyOp56
 70
     1
102
RTVSPropertyOp57
 70
     1
102
RTVSPropertyOp58
 70
     1
102
RTVSPropertyOp59
 70
     1
102
RTVSPropertyOp60
 70
     1
102
RTVSPropertyOp61
 70
     1
102
RTVSPropertyOp62
 70
     1
  0
XRECORD
  5
9B26
102
{ACAD_REACTORS
330
9B25
102
}
330
9B25
100
AcDbXrecord
280
     1
102
RTVSPost2010Prop28
280
     0
102
RTVSPost2010PropOp28
 70
     1
102
RTVSPost2010Prop29
280
     1
102
RTVSPost2010PropOp29
 70
     1
102
RTVSPost2010Prop30
280
     1
102
RTVSPost2010PropOp30
 70
     1
102
RTVSPost2010Prop31
280
     0
102
RTVSPost2010PropOp31
 70
     1
102
RTVSPost2010Prop32
280
     0
102
RTVSPost2010PropOp32
 70
     1
102
RTVSPost2010Prop33
280
     0
102
RTVSPost2010PropOp33
 70
     1
102
RTVSPost2010Prop34
280
     0
102
RTVSPost2010PropOp34
 70
     1
102
RTVSPost2010Prop35
280
     0
102
RTVSPost2010PropOp35
 70
     1
102
RTVSPost2010Prop36
280
     0
102
RTVSPost2010PropOp36
 70
     1
102
RTVSPost2010Prop37
 90
       50
102
RTVSPost2010PropOp37
 70
     1
102
RTVSPost2010Prop38
140
0.0
102
RTVSPost2010PropOp38
 70
     1
102
RTVSPost2010Prop39
140
1.0
102
RTVSPost2010PropOp39
 70
     1
102
RTVSPost2010Prop40
 90
        0
102
RTVSPost2010PropOp40
 70
     1
102
RTVSPost2010Prop41ColorIndex
 90
       18
102
RTVSPost2010Prop41ColorRGB
 90
        0
102
RTVSPost2010PropOp41
 70
     1
102
RTVSPost2010Prop42
 90
       50
102
RTVSPost2010PropOp42
 70
     1
102
RTVSPost2010Prop43
 90
        3
102
RTVSPost2010PropOp43
 70
     1
102
RTVSPost2010Prop44ColorIndex
 90
        5
102
RTVSPost2010Prop44ColorRGB
 90
      255
102
RTVSPost2010PropOp44
 70
     1
102
RTVSPost2010Prop45
280
     0
102
RTVSPost2010PropOp45
 70
     1
102
RTVSPost2010Prop46
 90
       50
102
RTVSPost2010PropOp46
 70
     1
102
RTVSPost2010Prop47
 90
       50
102
RTVSPost2010PropOp47
 70
     1
102
RTVSPost2010Prop48
 90
       50
102
RTVSPost2010PropOp48
 70
     1
102
RTVSPost2010Prop49
280
     0
102
RTVSPost2010PropOp49
 70
     1
102
RTVSPost2010Prop50
 90
       50
102
RTVSPost2010PropOp50
 70
     1
102
RTVSPost2010Prop51ColorIndex
 90
      256
102
RTVSPost2010Prop51ColorRGB
 90
-16777216
102
RTVSPost2010PropOp51
 70
     0
102
RTVSPost2010Prop52
140
1.0
102
RTVSPost2010PropOp52
 70
     0
102
RTVSPost2010Prop53
 90
        2
102
RTVSPost2010PropOp53
 70
     1
102
RTVSPost2010Prop54
  1
strokes_ogs.tif
102
RTVSPost2010PropOp54
 70
     1
102
RTVSPost2010Prop55
280
     0
102
RTVSPost2010PropOp55
 70
     1
102
RTVSPost2010Prop56
140
1.0
102
RTVSPost2010PropOp56
 70
     1
102
RTVSPost2010Prop57
140
1.0
102
RTVSPost2010PropOp57
 70
     1
102
RTVSPropertyOp0
 70
     1
102
RTVSPropertyOp1
 70
     1
102
RTVSPropertyOp2
 70
     1
102
RTVSPropertyOp3
 70
     1
102
RTVSPropertyOp4
 70
     1
102
RTVSPropertyOp5
 70
     1
102
RTVSPropertyOp6
 70
     1
102
RTVSPropertyOp7
 70
     1
102
RTVSPropertyOp8
 70
     1
102
RTVSPropertyOp9
 70
     1
102
RTVSPropertyOp10
 70
     1
102
RTVSPropertyOp11
 70
     1
102
RTVSPropertyOp12
 70
     1
102
RTVSPropertyOp13
 70
     1
102
RTVSPropertyOp14
 70
     1
102
RTVSPropertyOp15
 70
     1
102
RTVSPropertyOp16
 70
     1
102
RTVSPropertyOp17
 70
     1
102
RTVSPropertyOp18
 70
     1
102
RTVSPropertyOp19
 70
     1
102
RTVSPropertyOp20
 70
     1
102
RTVSPropertyOp21
 70
     1
102
RTVSPropertyOp22
 70
     1
102
RTVSPropertyOp23
 70
     1
102
RTVSPropertyOp24
 70
     1
102
RTVSPropertyOp25
 70
     1
102
RTVSPropertyOp26
 70
     1
102
RTVSPropertyOp27
 70
     1
102
RTVSPropertyOp28
 70
     1
102
RTVSPropertyOp29
 70
     1
102
RTVSPropertyOp30
 70
     1
102
RTVSPropertyOp31
 70
     1
102
RTVSPropertyOp32
 70
     1
102
RTVSPropertyOp33
 70
     1
102
RTVSPropertyOp34
 70
     1
102
RTVSPropertyOp35
 70
     1
102
RTVSPropertyOp36
 70
     1
102
RTVSPropertyOp37
 70
     1
102
RTVSPropertyOp38
 70
     1
102
RTVSPropertyOp39
 70
     1
102
RTVSPropertyOp40
 70
     1
102
RTVSPropertyOp41
 70
     1
102
RTVSPropertyOp42
 70
     1
102
RTVSPropertyOp43
 70
     1
102
RTVSPropertyOp44
 70
     1
102
RTVSPropertyOp45
 70
     1
102
RTVSPropertyOp46
 70
     1
102
RTVSPropertyOp47
 70
     1
102
RTVSPropertyOp48
 70
     1
102
RTVSPropertyOp49
 70
     1
102
RTVSPropertyOp50
 70
     1
102
RTVSPropertyOp51
 70
     0
102
RTVSPropertyOp52
 70
     0
102
RTVSPropertyOp53
 70
     1
102
RTVSPropertyOp54
 70
     1
102
RTVSPropertyOp55
 70
     1
102
RTVSPropertyOp56
 70
     1
102
RTVSPropertyOp57
 70
     1
102
RTVSPropertyOp58
 70
     1
102
RTVSPropertyOp59
 70
     1
102
RTVSPropertyOp60
 70
     1
102
RTVSPropertyOp61
 70
     1
102
RTVSPropertyOp62
 70
     1
  0
XRECORD
  5
9B18
102
{ACAD_REACTORS
330
9B17
102
}
330
9B17
100
AcDbXrecord
280
     1
102
RTVSPost2010Prop28
280
     0
102
RTVSPost2010PropOp28
 70
     1
102
RTVSPost2010Prop29
280
     1
102
RTVSPost2010PropOp29
 70
     1
102
RTVSPost2010Prop30
280
     1
102
RTVSPost2010PropOp30
 70
     1
102
RTVSPost2010Prop31
280
     0
102
RTVSPost2010PropOp31
 70
     1
102
RTVSPost2010Prop32
280
     0
102
RTVSPost2010PropOp32
 70
     1
102
RTVSPost2010Prop33
280
     0
102
RTVSPost2010PropOp33
 70
     1
102
RTVSPost2010Prop34
280
     0
102
RTVSPost2010PropOp34
 70
     1
102
RTVSPost2010Prop35
280
     0
102
RTVSPost2010PropOp35
 70
     1
102
RTVSPost2010Prop36
280
     0
102
RTVSPost2010PropOp36
 70
     1
102
RTVSPost2010Prop37
 90
       50
102
RTVSPost2010PropOp37
 70
     1
102
RTVSPost2010Prop38
140
0.0
102
RTVSPost2010PropOp38
 70
     1
102
RTVSPost2010Prop39
140
1.0
102
RTVSPost2010PropOp39
 70
     1
102
RTVSPost2010Prop40
 90
        0
102
RTVSPost2010PropOp40
 70
     1
102
RTVSPost2010Prop41ColorIndex
 90
       18
102
RTVSPost2010Prop41ColorRGB
 90
        0
102
RTVSPost2010PropOp41
 70
     1
102
RTVSPost2010Prop42
 90
       50
102
RTVSPost2010PropOp42
 70
     1
102
RTVSPost2010Prop43
 90
        3
102
RTVSPost2010PropOp43
 70
     1
102
RTVSPost2010Prop44ColorIndex
 90
        5
102
RTVSPost2010Prop44ColorRGB
 90
      255
102
RTVSPost2010PropOp44
 70
     1
102
RTVSPost2010Prop45
280
     0
102
RTVSPost2010PropOp45
 70
     1
102
RTVSPost2010Prop46
 90
       50
102
RTVSPost2010PropOp46
 70
     1
102
RTVSPost2010Prop47
 90
       50
102
RTVSPost2010PropOp47
 70
     1
102
RTVSPost2010Prop48
 90
       50
102
RTVSPost2010PropOp48
 70
     1
102
RTVSPost2010Prop49
280
     0
102
RTVSPost2010PropOp49
 70
     1
102
RTVSPost2010Prop50
 90
       50
102
RTVSPost2010PropOp50
 70
     1
102
RTVSPost2010Prop51ColorIndex
 90
      256
102
RTVSPost2010Prop51ColorRGB
 90
-16777216
102
RTVSPost2010PropOp51
 70
     0
102
RTVSPost2010Prop52
140
1.0
102
RTVSPost2010PropOp52
 70
     0
102
RTVSPost2010Prop53
 90
        2
102
RTVSPost2010PropOp53
 70
     1
102
RTVSPost2010Prop54
  1
strokes_ogs.tif
102
RTVSPost2010PropOp54
 70
     1
102
RTVSPost2010Prop55
280
     0
102
RTVSPost2010PropOp55
 70
     1
102
RTVSPost2010Prop56
140
1.0
102
RTVSPost2010PropOp56
 70
     1
102
RTVSPost2010Prop57
140
1.0
102
RTVSPost2010PropOp57
 70
     1
102
RTVSPropertyOp0
 70
     1
102
RTVSPropertyOp1
 70
     1
102
RTVSPropertyOp2
 70
     1
102
RTVSPropertyOp3
 70
     1
102
RTVSPropertyOp4
 70
     1
102
RTVSPropertyOp5
 70
     1
102
RTVSPropertyOp6
 70
     1
102
RTVSPropertyOp7
 70
     1
102
RTVSPropertyOp8
 70
     1
102
RTVSPropertyOp9
 70
     1
102
RTVSPropertyOp10
 70
     1
102
RTVSPropertyOp11
 70
     1
102
RTVSPropertyOp12
 70
     1
102
RTVSPropertyOp13
 70
     1
102
RTVSPropertyOp14
 70
     1
102
RTVSPropertyOp15
 70
     1
102
RTVSPropertyOp16
 70
     1
102
RTVSPropertyOp17
 70
     1
102
RTVSPropertyOp18
 70
     1
102
RTVSPropertyOp19
 70
     1
102
RTVSPropertyOp20
 70
     1
102
RTVSPropertyOp21
 70
     1
102
RTVSPropertyOp22
 70
     1
102
RTVSPropertyOp23
 70
     1
102
RTVSPropertyOp24
 70
     1
102
RTVSPropertyOp25
 70
     1
102
RTVSPropertyOp26
 70
     1
102
RTVSPropertyOp27
 70
     1
102
RTVSPropertyOp28
 70
     1
102
RTVSPropertyOp29
 70
     1
102
RTVSPropertyOp30
 70
     1
102
RTVSPropertyOp31
 70
     1
102
RTVSPropertyOp32
 70
     1
102
RTVSPropertyOp33
 70
     1
102
RTVSPropertyOp34
 70
     1
102
RTVSPropertyOp35
 70
     1
102
RTVSPropertyOp36
 70
     1
102
RTVSPropertyOp37
 70
     1
102
RTVSPropertyOp38
 70
     1
102
RTVSPropertyOp39
 70
     1
102
RTVSPropertyOp40
 70
     1
102
RTVSPropertyOp41
 70
     1
102
RTVSPropertyOp42
 70
     1
102
RTVSPropertyOp43
 70
     1
102
RTVSPropertyOp44
 70
     1
102
RTVSPropertyOp45
 70
     1
102
RTVSPropertyOp46
 70
     1
102
RTVSPropertyOp47
 70
     1
102
RTVSPropertyOp48
 70
     1
102
RTVSPropertyOp49
 70
     1
102
RTVSPropertyOp50
 70
     1
102
RTVSPropertyOp51
 70
     0
102
RTVSPropertyOp52
 70
     0
102
RTVSPropertyOp53
 70
     1
102
RTVSPropertyOp54
 70
     1
102
RTVSPropertyOp55
 70
     1
102
RTVSPropertyOp56
 70
     1
102
RTVSPropertyOp57
 70
     1
102
RTVSPropertyOp58
 70
     1
102
RTVSPropertyOp59
 70
     1
102
RTVSPropertyOp60
 70
     1
102
RTVSPropertyOp61
 70
     1
102
RTVSPropertyOp62
 70
     1
  0
XRECORD
  5
9B1C
102
{ACAD_REACTORS
330
9B1B
102
}
330
9B1B
100
AcDbXrecord
280
     1
102
RTVSPost2010Prop28
280
     0
102
RTVSPost2010PropOp28
 70
     1
102
RTVSPost2010Prop29
280
     1
102
RTVSPost2010PropOp29
 70
     1
102
RTVSPost2010Prop30
280
     1
102
RTVSPost2010PropOp30
 70
     1
102
RTVSPost2010Prop31
280
     0
102
RTVSPost2010PropOp31
 70
     1
102
RTVSPost2010Prop32
280
     0
102
RTVSPost2010PropOp32
 70
     1
102
RTVSPost2010Prop33
280
     0
102
RTVSPost2010PropOp33
 70
     1
102
RTVSPost2010Prop34
280
     0
102
RTVSPost2010PropOp34
 70
     1
102
RTVSPost2010Prop35
280
     0
102
RTVSPost2010PropOp35
 70
     1
102
RTVSPost2010Prop36
280
     0
102
RTVSPost2010PropOp36
 70
     1
102
RTVSPost2010Prop37
 90
       50
102
RTVSPost2010PropOp37
 70
     1
102
RTVSPost2010Prop38
140
0.0
102
RTVSPost2010PropOp38
 70
     1
102
RTVSPost2010Prop39
140
1.0
102
RTVSPost2010PropOp39
 70
     1
102
RTVSPost2010Prop40
 90
        0
102
RTVSPost2010PropOp40
 70
     1
102
RTVSPost2010Prop41ColorIndex
 90
       18
102
RTVSPost2010Prop41ColorRGB
 90
        0
102
RTVSPost2010PropOp41
 70
     1
102
RTVSPost2010Prop42
 90
       50
102
RTVSPost2010PropOp42
 70
     1
102
RTVSPost2010Prop43
 90
        3
102
RTVSPost2010PropOp43
 70
     1
102
RTVSPost2010Prop44ColorIndex
 90
        5
102
RTVSPost2010Prop44ColorRGB
 90
      255
102
RTVSPost2010PropOp44
 70
     1
102
RTVSPost2010Prop45
280
     0
102
RTVSPost2010PropOp45
 70
     1
102
RTVSPost2010Prop46
 90
       50
102
RTVSPost2010PropOp46
 70
     1
102
RTVSPost2010Prop47
 90
       50
102
RTVSPost2010PropOp47
 70
     1
102
RTVSPost2010Prop48
 90
       50
102
RTVSPost2010PropOp48
 70
     1
102
RTVSPost2010Prop49
280
     0
102
RTVSPost2010PropOp49
 70
     1
102
RTVSPost2010Prop50
 90
       50
102
RTVSPost2010PropOp50
 70
     1
102
RTVSPost2010Prop51ColorIndex
 90
      256
102
RTVSPost2010Prop51ColorRGB
 90
-16777216
102
RTVSPost2010PropOp51
 70
     0
102
RTVSPost2010Prop52
140
1.0
102
RTVSPost2010PropOp52
 70
     0
102
RTVSPost2010Prop53
 90
        2
102
RTVSPost2010PropOp53
 70
     1
102
RTVSPost2010Prop54
  1
strokes_ogs.tif
102
RTVSPost2010PropOp54
 70
     1
102
RTVSPost2010Prop55
280
     0
102
RTVSPost2010PropOp55
 70
     1
102
RTVSPost2010Prop56
140
1.0
102
RTVSPost2010PropOp56
 70
     1
102
RTVSPost2010Prop57
140
1.0
102
RTVSPost2010PropOp57
 70
     1
102
RTVSPropertyOp0
 70
     1
102
RTVSPropertyOp1
 70
     1
102
RTVSPropertyOp2
 70
     1
102
RTVSPropertyOp3
 70
     1
102
RTVSPropertyOp4
 70
     1
102
RTVSPropertyOp5
 70
     1
102
RTVSPropertyOp6
 70
     1
102
RTVSPropertyOp7
 70
     1
102
RTVSPropertyOp8
 70
     1
102
RTVSPropertyOp9
 70
     1
102
RTVSPropertyOp10
 70
     1
102
RTVSPropertyOp11
 70
     1
102
RTVSPropertyOp12
 70
     1
102
RTVSPropertyOp13
 70
     1
102
RTVSPropertyOp14
 70
     1
102
RTVSPropertyOp15
 70
     1
102
RTVSPropertyOp16
 70
     1
102
RTVSPropertyOp17
 70
     1
102
RTVSPropertyOp18
 70
     1
102
RTVSPropertyOp19
 70
     1
102
RTVSPropertyOp20
 70
     1
102
RTVSPropertyOp21
 70
     1
102
RTVSPropertyOp22
 70
     1
102
RTVSPropertyOp23
 70
     1
102
RTVSPropertyOp24
 70
     1
102
RTVSPropertyOp25
 70
     1
102
RTVSPropertyOp26
 70
     1
102
RTVSPropertyOp27
 70
     1
102
RTVSPropertyOp28
 70
     1
102
RTVSPropertyOp29
 70
     1
102
RTVSPropertyOp30
 70
     1
102
RTVSPropertyOp31
 70
     1
102
RTVSPropertyOp32
 70
     1
102
RTVSPropertyOp33
 70
     1
102
RTVSPropertyOp34
 70
     1
102
RTVSPropertyOp35
 70
     1
102
RTVSPropertyOp36
 70
     1
102
RTVSPropertyOp37
 70
     1
102
RTVSPropertyOp38
 70
     1
102
RTVSPropertyOp39
 70
     1
102
RTVSPropertyOp40
 70
     1
102
RTVSPropertyOp41
 70
     1
102
RTVSPropertyOp42
 70
     1
102
RTVSPropertyOp43
 70
     1
102
RTVSPropertyOp44
 70
     1
102
RTVSPropertyOp45
 70
     1
102
RTVSPropertyOp46
 70
     1
102
RTVSPropertyOp47
 70
     1
102
RTVSPropertyOp48
 70
     1
102
RTVSPropertyOp49
 70
     1
102
RTVSPropertyOp50
 70
     1
102
RTVSPropertyOp51
 70
     0
102
RTVSPropertyOp52
 70
     0
102
RTVSPropertyOp53
 70
     1
102
RTVSPropertyOp54
 70
     1
102
RTVSPropertyOp55
 70
     1
102
RTVSPropertyOp56
 70
     1
102
RTVSPropertyOp57
 70
     1
102
RTVSPropertyOp58
 70
     1
102
RTVSPropertyOp59
 70
     1
102
RTVSPropertyOp60
 70
     1
102
RTVSPropertyOp61
 70
     1
102
RTVSPropertyOp62
 70
     1
  0
XRECORD
  5
9B36
102
{ACAD_REACTORS
330
9B35
102
}
330
9B35
100
AcDbXrecord
280
     1
102
RTVSPost2010Prop28
280
     0
102
RTVSPost2010PropOp28
 70
     1
102
RTVSPost2010Prop29
280
     1
102
RTVSPost2010PropOp29
 70
     1
102
RTVSPost2010Prop30
280
     1
102
RTVSPost2010PropOp30
 70
     1
102
RTVSPost2010Prop31
280
     0
102
RTVSPost2010PropOp31
 70
     1
102
RTVSPost2010Prop32
280
     0
102
RTVSPost2010PropOp32
 70
     1
102
RTVSPost2010Prop33
280
     0
102
RTVSPost2010PropOp33
 70
     1
102
RTVSPost2010Prop34
280
     0
102
RTVSPost2010PropOp34
 70
     1
102
RTVSPost2010Prop35
280
     0
102
RTVSPost2010PropOp35
 70
     1
102
RTVSPost2010Prop36
280
     0
102
RTVSPost2010PropOp36
 70
     1
102
RTVSPost2010Prop37
 90
       50
102
RTVSPost2010PropOp37
 70
     0
102
RTVSPost2010Prop38
140
0.0
102
RTVSPost2010PropOp38
 70
     0
102
RTVSPost2010Prop39
140
1.0
102
RTVSPost2010PropOp39
 70
     0
102
RTVSPost2010Prop40
 90
        0
102
RTVSPost2010PropOp40
 70
     0
102
RTVSPost2010Prop41ColorIndex
 90
       18
102
RTVSPost2010Prop41ColorRGB
 90
        0
102
RTVSPost2010PropOp41
 70
     0
102
RTVSPost2010Prop42
 90
       50
102
RTVSPost2010PropOp42
 70
     0
102
RTVSPost2010Prop43
 90
        3
102
RTVSPost2010PropOp43
 70
     0
102
RTVSPost2010Prop44ColorIndex
 90
        5
102
RTVSPost2010Prop44ColorRGB
 90
      255
102
RTVSPost2010PropOp44
 70
     0
102
RTVSPost2010Prop45
280
     0
102
RTVSPost2010PropOp45
 70
     1
102
RTVSPost2010Prop46
 90
       50
102
RTVSPost2010PropOp46
 70
     0
102
RTVSPost2010Prop47
 90
       50
102
RTVSPost2010PropOp47
 70
     0
102
RTVSPost2010Prop48
 90
       50
102
RTVSPost2010PropOp48
 70
     0
102
RTVSPost2010Prop49
280
     0
102
RTVSPost2010PropOp49
 70
     1
102
RTVSPost2010Prop50
 90
       50
102
RTVSPost2010PropOp50
 70
     0
102
RTVSPost2010Prop51ColorIndex
 90
      256
102
RTVSPost2010Prop51ColorRGB
 90
-16777216
102
RTVSPost2010PropOp51
 70
     0
102
RTVSPost2010Prop52
140
1.0
102
RTVSPost2010PropOp52
 70
     0
102
RTVSPost2010Prop53
 90
        2
102
RTVSPost2010PropOp53
 70
     0
102
RTVSPost2010Prop54
  1
strokes_ogs.tif
102
RTVSPost2010PropOp54
 70
     0
102
RTVSPost2010Prop55
280
     0
102
RTVSPost2010PropOp55
 70
     1
102
RTVSPost2010Prop56
140
1.0
102
RTVSPost2010PropOp56
 70
     0
102
RTVSPost2010Prop57
140
1.0
102
RTVSPost2010PropOp57
 70
     0
102
RTVSPropertyOp0
 70
     0
102
RTVSPropertyOp1
 70
     0
102
RTVSPropertyOp2
 70
     0
102
RTVSPropertyOp3
 70
     0
102
RTVSPropertyOp4
 70
     0
102
RTVSPropertyOp5
 70
     0
102
RTVSPropertyOp6
 70
     0
102
RTVSPropertyOp7
 70
     0
102
RTVSPropertyOp8
 70
     0
102
RTVSPropertyOp9
 70
     0
102
RTVSPropertyOp10
 70
     0
102
RTVSPropertyOp11
 70
     0
102
RTVSPropertyOp12
 70
     0
102
RTVSPropertyOp13
 70
     0
102
RTVSPropertyOp14
 70
     2
102
RTVSPropertyOp15
 70
     0
102
RTVSPropertyOp16
 70
     0
102
RTVSPropertyOp17
 70
     0
102
RTVSPropertyOp18
 70
     0
102
RTVSPropertyOp19
 70
     0
102
RTVSPropertyOp20
 70
     0
102
RTVSPropertyOp21
 70
     0
102
RTVSPropertyOp22
 70
     0
102
RTVSPropertyOp23
 70
     0
102
RTVSPropertyOp24
 70
     0
102
RTVSPropertyOp25
 70
     0
102
RTVSPropertyOp26
 70
     0
102
RTVSPropertyOp27
 70
     0
102
RTVSPropertyOp28
 70
     1
102
RTVSPropertyOp29
 70
     1
102
RTVSPropertyOp30
 70
     1
102
RTVSPropertyOp31
 70
     1
102
RTVSPropertyOp32
 70
     1
102
RTVSPropertyOp33
 70
     1
102
RTVSPropertyOp34
 70
     1
102
RTVSPropertyOp35
 70
     1
102
RTVSPropertyOp36
 70
     1
102
RTVSPropertyOp37
 70
     0
102
RTVSPropertyOp38
 70
     0
102
RTVSPropertyOp39
 70
     0
102
RTVSPropertyOp40
 70
     0
102
RTVSPropertyOp41
 70
     0
102
RTVSPropertyOp42
 70
     0
102
RTVSPropertyOp43
 70
     0
102
RTVSPropertyOp44
 70
     0
102
RTVSPropertyOp45
 70
     1
102
RTVSPropertyOp46
 70
     0
102
RTVSPropertyOp47
 70
     0
102
RTVSPropertyOp48
 70
     0
102
RTVSPropertyOp49
 70
     1
102
RTVSPropertyOp50
 70
     0
102
RTVSPropertyOp51
 70
     0
102
RTVSPropertyOp52
 70
     0
102
RTVSPropertyOp53
 70
     0
102
RTVSPropertyOp54
 70
     0
102
RTVSPropertyOp55
 70
     1
102
RTVSPropertyOp56
 70
     0
102
RTVSPropertyOp57
 70
     0
102
RTVSPropertyOp58
 70
     0
102
RTVSPropertyOp59
 70
     0
102
RTVSPropertyOp60
 70
     0
102
RTVSPropertyOp61
 70
     0
102
RTVSPropertyOp62
 70
     0
  0
XRECORD
  5
9B24
102
{ACAD_REACTORS
330
9B23
102
}
330
9B23
100
AcDbXrecord
280
     1
102
RTVSPost2010Prop28
280
     0
102
RTVSPost2010PropOp28
 70
     1
102
RTVSPost2010Prop29
280
     1
102
RTVSPost2010PropOp29
 70
     1
102
RTVSPost2010Prop30
280
     1
102
RTVSPost2010PropOp30
 70
     1
102
RTVSPost2010Prop31
280
     0
102
RTVSPost2010PropOp31
 70
     1
102
RTVSPost2010Prop32
280
     0
102
RTVSPost2010PropOp32
 70
     1
102
RTVSPost2010Prop33
280
     0
102
RTVSPost2010PropOp33
 70
     1
102
RTVSPost2010Prop34
280
     0
102
RTVSPost2010PropOp34
 70
     1
102
RTVSPost2010Prop35
280
     0
102
RTVSPost2010PropOp35
 70
     1
102
RTVSPost2010Prop36
280
     0
102
RTVSPost2010PropOp36
 70
     1
102
RTVSPost2010Prop37
 90
       50
102
RTVSPost2010PropOp37
 70
     1
102
RTVSPost2010Prop38
140
0.0
102
RTVSPost2010PropOp38
 70
     1
102
RTVSPost2010Prop39
140
1.0
102
RTVSPost2010PropOp39
 70
     1
102
RTVSPost2010Prop40
 90
        0
102
RTVSPost2010PropOp40
 70
     1
102
RTVSPost2010Prop41ColorIndex
 90
       18
102
RTVSPost2010Prop41ColorRGB
 90
        0
102
RTVSPost2010PropOp41
 70
     1
102
RTVSPost2010Prop42
 90
       50
102
RTVSPost2010PropOp42
 70
     1
102
RTVSPost2010Prop43
 90
        3
102
RTVSPost2010PropOp43
 70
     1
102
RTVSPost2010Prop44ColorIndex
 90
        5
102
RTVSPost2010Prop44ColorRGB
 90
      255
102
RTVSPost2010PropOp44
 70
     1
102
RTVSPost2010Prop45
280
     0
102
RTVSPost2010PropOp45
 70
     1
102
RTVSPost2010Prop46
 90
       50
102
RTVSPost2010PropOp46
 70
     1
102
RTVSPost2010Prop47
 90
       50
102
RTVSPost2010PropOp47
 70
     1
102
RTVSPost2010Prop48
 90
       50
102
RTVSPost2010PropOp48
 70
     1
102
RTVSPost2010Prop49
280
     0
102
RTVSPost2010PropOp49
 70
     1
102
RTVSPost2010Prop50
 90
       50
102
RTVSPost2010PropOp50
 70
     1
102
RTVSPost2010Prop51ColorIndex
 90
      256
102
RTVSPost2010Prop51ColorRGB
 90
-16777216
102
RTVSPost2010PropOp51
 70
     0
102
RTVSPost2010Prop52
140
1.0
102
RTVSPost2010PropOp52
 70
     0
102
RTVSPost2010Prop53
 90
        2
102
RTVSPost2010PropOp53
 70
     1
102
RTVSPost2010Prop54
  1
strokes_ogs.tif
102
RTVSPost2010PropOp54
 70
     1
102
RTVSPost2010Prop55
280
     0
102
RTVSPost2010PropOp55
 70
     1
102
RTVSPost2010Prop56
140
1.0
102
RTVSPost2010PropOp56
 70
     1
102
RTVSPost2010Prop57
140
1.0
102
RTVSPost2010PropOp57
 70
     1
102
RTVSPropertyOp0
 70
     1
102
RTVSPropertyOp1
 70
     1
102
RTVSPropertyOp2
 70
     1
102
RTVSPropertyOp3
 70
     1
102
RTVSPropertyOp4
 70
     1
102
RTVSPropertyOp5
 70
     1
102
RTVSPropertyOp6
 70
     1
102
RTVSPropertyOp7
 70
     1
102
RTVSPropertyOp8
 70
     1
102
RTVSPropertyOp9
 70
     1
102
RTVSPropertyOp10
 70
     1
102
RTVSPropertyOp11
 70
     1
102
RTVSPropertyOp12
 70
     1
102
RTVSPropertyOp13
 70
     1
102
RTVSPropertyOp14
 70
     1
102
RTVSPropertyOp15
 70
     1
102
RTVSPropertyOp16
 70
     1
102
RTVSPropertyOp17
 70
     1
102
RTVSPropertyOp18
 70
     1
102
RTVSPropertyOp19
 70
     1
102
RTVSPropertyOp20
 70
     1
102
RTVSPropertyOp21
 70
     1
102
RTVSPropertyOp22
 70
     1
102
RTVSPropertyOp23
 70
     1
102
RTVSPropertyOp24
 70
     1
102
RTVSPropertyOp25
 70
     1
102
RTVSPropertyOp26
 70
     1
102
RTVSPropertyOp27
 70
     1
102
RTVSPropertyOp28
 70
     1
102
RTVSPropertyOp29
 70
     1
102
RTVSPropertyOp30
 70
     1
102
RTVSPropertyOp31
 70
     1
102
RTVSPropertyOp32
 70
     1
102
RTVSPropertyOp33
 70
     1
102
RTVSPropertyOp34
 70
     1
102
RTVSPropertyOp35
 70
     1
102
RTVSPropertyOp36
 70
     1
102
RTVSPropertyOp37
 70
     1
102
RTVSPropertyOp38
 70
     1
102
RTVSPropertyOp39
 70
     1
102
RTVSPropertyOp40
 70
     1
102
RTVSPropertyOp41
 70
     1
102
RTVSPropertyOp42
 70
     1
102
RTVSPropertyOp43
 70
     1
102
RTVSPropertyOp44
 70
     1
102
RTVSPropertyOp45
 70
     1
102
RTVSPropertyOp46
 70
     1
102
RTVSPropertyOp47
 70
     1
102
RTVSPropertyOp48
 70
     1
102
RTVSPropertyOp49
 70
     1
102
RTVSPropertyOp50
 70
     1
102
RTVSPropertyOp51
 70
     0
102
RTVSPropertyOp52
 70
     0
102
RTVSPropertyOp53
 70
     1
102
RTVSPropertyOp54
 70
     1
102
RTVSPropertyOp55
 70
     1
102
RTVSPropertyOp56
 70
     1
102
RTVSPropertyOp57
 70
     1
102
RTVSPropertyOp58
 70
     1
102
RTVSPropertyOp59
 70
     1
102
RTVSPropertyOp60
 70
     1
102
RTVSPropertyOp61
 70
     1
102
RTVSPropertyOp62
 70
     1
  0
XRECORD
  5
9B08
102
{ACAD_REACTORS
330
9B07
102
}
330
9B07
100
AcDbXrecord
280
     1
102
RTVSPost2010Prop28
280
     0
102
RTVSPost2010PropOp28
 70
     1
102
RTVSPost2010Prop29
280
     1
102
RTVSPost2010PropOp29
 70
     1
102
RTVSPost2010Prop30
280
     1
102
RTVSPost2010PropOp30
 70
     1
102
RTVSPost2010Prop31
280
     0
102
RTVSPost2010PropOp31
 70
     1
102
RTVSPost2010Prop32
280
     0
102
RTVSPost2010PropOp32
 70
     1
102
RTVSPost2010Prop33
280
     0
102
RTVSPost2010PropOp33
 70
     1
102
RTVSPost2010Prop34
280
     0
102
RTVSPost2010PropOp34
 70
     1
102
RTVSPost2010Prop35
280
     0
102
RTVSPost2010PropOp35
 70
     1
102
RTVSPost2010Prop36
280
     0
102
RTVSPost2010PropOp36
 70
     1
102
RTVSPost2010Prop37
 90
       50
102
RTVSPost2010PropOp37
 70
     1
102
RTVSPost2010Prop38
140
0.0
102
RTVSPost2010PropOp38
 70
     1
102
RTVSPost2010Prop39
140
1.0
102
RTVSPost2010PropOp39
 70
     1
102
RTVSPost2010Prop40
 90
        0
102
RTVSPost2010PropOp40
 70
     1
102
RTVSPost2010Prop41ColorIndex
 90
       18
102
RTVSPost2010Prop41ColorRGB
 90
        0
102
RTVSPost2010PropOp41
 70
     1
102
RTVSPost2010Prop42
 90
       50
102
RTVSPost2010PropOp42
 70
     1
102
RTVSPost2010Prop43
 90
        3
102
RTVSPost2010PropOp43
 70
     1
102
RTVSPost2010Prop44ColorIndex
 90
        5
102
RTVSPost2010Prop44ColorRGB
 90
      255
102
RTVSPost2010PropOp44
 70
     1
102
RTVSPost2010Prop45
280
     0
102
RTVSPost2010PropOp45
 70
     1
102
RTVSPost2010Prop46
 90
       50
102
RTVSPost2010PropOp46
 70
     1
102
RTVSPost2010Prop47
 90
       50
102
RTVSPost2010PropOp47
 70
     1
102
RTVSPost2010Prop48
 90
       50
102
RTVSPost2010PropOp48
 70
     1
102
RTVSPost2010Prop49
280
     0
102
RTVSPost2010PropOp49
 70
     1
102
RTVSPost2010Prop50
 90
       50
102
RTVSPost2010PropOp50
 70
     1
102
RTVSPost2010Prop51ColorIndex
 90
      256
102
RTVSPost2010Prop51ColorRGB
 90
-16777216
102
RTVSPost2010PropOp51
 70
     0
102
RTVSPost2010Prop52
140
1.0
102
RTVSPost2010PropOp52
 70
     0
102
RTVSPost2010Prop53
 90
        2
102
RTVSPost2010PropOp53
 70
     1
102
RTVSPost2010Prop54
  1
strokes_ogs.tif
102
RTVSPost2010PropOp54
 70
     1
102
RTVSPost2010Prop55
280
     0
102
RTVSPost2010PropOp55
 70
     1
102
RTVSPost2010Prop56
140
1.0
102
RTVSPost2010PropOp56
 70
     1
102
RTVSPost2010Prop57
140
1.0
102
RTVSPost2010PropOp57
 70
     1
102
RTVSPropertyOp0
 70
     1
102
RTVSPropertyOp1
 70
     1
102
RTVSPropertyOp2
 70
     1
102
RTVSPropertyOp3
 70
     1
102
RTVSPropertyOp4
 70
     1
102
RTVSPropertyOp5
 70
     1
102
RTVSPropertyOp6
 70
     1
102
RTVSPropertyOp7
 70
     1
102
RTVSPropertyOp8
 70
     1
102
RTVSPropertyOp9
 70
     1
102
RTVSPropertyOp10
 70
     1
102
RTVSPropertyOp11
 70
     1
102
RTVSPropertyOp12
 70
     1
102
RTVSPropertyOp13
 70
     1
102
RTVSPropertyOp14
 70
     1
102
RTVSPropertyOp15
 70
     1
102
RTVSPropertyOp16
 70
     1
102
RTVSPropertyOp17
 70
     1
102
RTVSPropertyOp18
 70
     1
102
RTVSPropertyOp19
 70
     1
102
RTVSPropertyOp20
 70
     1
102
RTVSPropertyOp21
 70
     1
102
RTVSPropertyOp22
 70
     1
102
RTVSPropertyOp23
 70
     1
102
RTVSPropertyOp24
 70
     1
102
RTVSPropertyOp25
 70
     1
102
RTVSPropertyOp26
 70
     1
102
RTVSPropertyOp27
 70
     1
102
RTVSPropertyOp28
 70
     1
102
RTVSPropertyOp29
 70
     1
102
RTVSPropertyOp30
 70
     1
102
RTVSPropertyOp31
 70
     1
102
RTVSPropertyOp32
 70
     1
102
RTVSPropertyOp33
 70
     1
102
RTVSPropertyOp34
 70
     1
102
RTVSPropertyOp35
 70
     1
102
RTVSPropertyOp36
 70
     1
102
RTVSPropertyOp37
 70
     1
102
RTVSPropertyOp38
 70
     1
102
RTVSPropertyOp39
 70
     1
102
RTVSPropertyOp40
 70
     1
102
RTVSPropertyOp41
 70
     1
102
RTVSPropertyOp42
 70
     1
102
RTVSPropertyOp43
 70
     1
102
RTVSPropertyOp44
 70
     1
102
RTVSPropertyOp45
 70
     1
102
RTVSPropertyOp46
 70
     1
102
RTVSPropertyOp47
 70
     1
102
RTVSPropertyOp48
 70
     1
102
RTVSPropertyOp49
 70
     1
102
RTVSPropertyOp50
 70
     1
102
RTVSPropertyOp51
 70
     0
102
RTVSPropertyOp52
 70
     0
102
RTVSPropertyOp53
 70
     1
102
RTVSPropertyOp54
 70
     1
102
RTVSPropertyOp55
 70
     1
102
RTVSPropertyOp56
 70
     1
102
RTVSPropertyOp57
 70
     1
102
RTVSPropertyOp58
 70
     1
102
RTVSPropertyOp59
 70
     1
102
RTVSPropertyOp60
 70
     1
102
RTVSPropertyOp61
 70
     1
102
RTVSPropertyOp62
 70
     1
  0
XRECORD
  5
9B0A
102
{ACAD_REACTORS
330
9B09
102
}
330
9B09
100
AcDbXrecord
280
     1
102
RTVSPost2010Prop28
280
     0
102
RTVSPost2010PropOp28
 70
     1
102
RTVSPost2010Prop29
280
     1
102
RTVSPost2010PropOp29
 70
     1
102
RTVSPost2010Prop30
280
     1
102
RTVSPost2010PropOp30
 70
     1
102
RTVSPost2010Prop31
280
     0
102
RTVSPost2010PropOp31
 70
     1
102
RTVSPost2010Prop32
280
     0
102
RTVSPost2010PropOp32
 70
     1
102
RTVSPost2010Prop33
280
     0
102
RTVSPost2010PropOp33
 70
     1
102
RTVSPost2010Prop34
280
     0
102
RTVSPost2010PropOp34
 70
     1
102
RTVSPost2010Prop35
280
     0
102
RTVSPost2010PropOp35
 70
     1
102
RTVSPost2010Prop36
280
     0
102
RTVSPost2010PropOp36
 70
     1
102
RTVSPost2010Prop37
 90
       50
102
RTVSPost2010PropOp37
 70
     1
102
RTVSPost2010Prop38
140
0.0
102
RTVSPost2010PropOp38
 70
     1
102
RTVSPost2010Prop39
140
1.0
102
RTVSPost2010PropOp39
 70
     1
102
RTVSPost2010Prop40
 90
        0
102
RTVSPost2010PropOp40
 70
     1
102
RTVSPost2010Prop41ColorIndex
 90
       18
102
RTVSPost2010Prop41ColorRGB
 90
        0
102
RTVSPost2010PropOp41
 70
     1
102
RTVSPost2010Prop42
 90
       50
102
RTVSPost2010PropOp42
 70
     1
102
RTVSPost2010Prop43
 90
        3
102
RTVSPost2010PropOp43
 70
     1
102
RTVSPost2010Prop44ColorIndex
 90
        5
102
RTVSPost2010Prop44ColorRGB
 90
      255
102
RTVSPost2010PropOp44
 70
     1
102
RTVSPost2010Prop45
280
     0
102
RTVSPost2010PropOp45
 70
     1
102
RTVSPost2010Prop46
 90
       50
102
RTVSPost2010PropOp46
 70
     1
102
RTVSPost2010Prop47
 90
       50
102
RTVSPost2010PropOp47
 70
     1
102
RTVSPost2010Prop48
 90
       50
102
RTVSPost2010PropOp48
 70
     1
102
RTVSPost2010Prop49
280
     0
102
RTVSPost2010PropOp49
 70
     1
102
RTVSPost2010Prop50
 90
       50
102
RTVSPost2010PropOp50
 70
     1
102
RTVSPost2010Prop51ColorIndex
 90
      256
102
RTVSPost2010Prop51ColorRGB
 90
-16777216
102
RTVSPost2010PropOp51
 70
     0
102
RTVSPost2010Prop52
140
1.0
102
RTVSPost2010PropOp52
 70
     0
102
RTVSPost2010Prop53
 90
        2
102
RTVSPost2010PropOp53
 70
     1
102
RTVSPost2010Prop54
  1
strokes_ogs.tif
102
RTVSPost2010PropOp54
 70
     1
102
RTVSPost2010Prop55
280
     0
102
RTVSPost2010PropOp55
 70
     1
102
RTVSPost2010Prop56
140
1.0
102
RTVSPost2010PropOp56
 70
     1
102
RTVSPost2010Prop57
140
1.0
102
RTVSPost2010PropOp57
 70
     1
102
RTVSPropertyOp0
 70
     1
102
RTVSPropertyOp1
 70
     1
102
RTVSPropertyOp2
 70
     1
102
RTVSPropertyOp3
 70
     1
102
RTVSPropertyOp4
 70
     1
102
RTVSPropertyOp5
 70
     1
102
RTVSPropertyOp6
 70
     1
102
RTVSPropertyOp7
 70
     1
102
RTVSPropertyOp8
 70
     1
102
RTVSPropertyOp9
 70
     1
102
RTVSPropertyOp10
 70
     1
102
RTVSPropertyOp11
 70
     1
102
RTVSPropertyOp12
 70
     1
102
RTVSPropertyOp13
 70
     1
102
RTVSPropertyOp14
 70
     1
102
RTVSPropertyOp15
 70
     1
102
RTVSPropertyOp16
 70
     1
102
RTVSPropertyOp17
 70
     1
102
RTVSPropertyOp18
 70
     1
102
RTVSPropertyOp19
 70
     1
102
RTVSPropertyOp20
 70
     1
102
RTVSPropertyOp21
 70
     1
102
RTVSPropertyOp22
 70
     1
102
RTVSPropertyOp23
 70
     1
102
RTVSPropertyOp24
 70
     1
102
RTVSPropertyOp25
 70
     1
102
RTVSPropertyOp26
 70
     1
102
RTVSPropertyOp27
 70
     1
102
RTVSPropertyOp28
 70
     1
102
RTVSPropertyOp29
 70
     1
102
RTVSPropertyOp30
 70
     1
102
RTVSPropertyOp31
 70
     1
102
RTVSPropertyOp32
 70
     1
102
RTVSPropertyOp33
 70
     1
102
RTVSPropertyOp34
 70
     1
102
RTVSPropertyOp35
 70
     1
102
RTVSPropertyOp36
 70
     1
102
RTVSPropertyOp37
 70
     1
102
RTVSPropertyOp38
 70
     1
102
RTVSPropertyOp39
 70
     1
102
RTVSPropertyOp40
 70
     1
102
RTVSPropertyOp41
 70
     1
102
RTVSPropertyOp42
 70
     1
102
RTVSPropertyOp43
 70
     1
102
RTVSPropertyOp44
 70
     1
102
RTVSPropertyOp45
 70
     1
102
RTVSPropertyOp46
 70
     1
102
RTVSPropertyOp47
 70
     1
102
RTVSPropertyOp48
 70
     1
102
RTVSPropertyOp49
 70
     1
102
RTVSPropertyOp50
 70
     1
102
RTVSPropertyOp51
 70
     0
102
RTVSPropertyOp52
 70
     0
102
RTVSPropertyOp53
 70
     1
102
RTVSPropertyOp54
 70
     1
102
RTVSPropertyOp55
 70
     1
102
RTVSPropertyOp56
 70
     1
102
RTVSPropertyOp57
 70
     1
102
RTVSPropertyOp58
 70
     1
102
RTVSPropertyOp59
 70
     1
102
RTVSPropertyOp60
 70
     1
102
RTVSPropertyOp61
 70
     1
102
RTVSPropertyOp62
 70
     1
  0
XRECORD
  5
9B0C
102
{ACAD_REACTORS
330
9B0B
102
}
330
9B0B
100
AcDbXrecord
280
     1
102
RTVSPost2010Prop28
280
     0
102
RTVSPost2010PropOp28
 70
     1
102
RTVSPost2010Prop29
280
     1
102
RTVSPost2010PropOp29
 70
     1
102
RTVSPost2010Prop30
280
     1
102
RTVSPost2010PropOp30
 70
     1
102
RTVSPost2010Prop31
280
     0
102
RTVSPost2010PropOp31
 70
     1
102
RTVSPost2010Prop32
280
     0
102
RTVSPost2010PropOp32
 70
     1
102
RTVSPost2010Prop33
280
     0
102
RTVSPost2010PropOp33
 70
     1
102
RTVSPost2010Prop34
280
     0
102
RTVSPost2010PropOp34
 70
     1
102
RTVSPost2010Prop35
280
     0
102
RTVSPost2010PropOp35
 70
     1
102
RTVSPost2010Prop36
280
     0
102
RTVSPost2010PropOp36
 70
     1
102
RTVSPost2010Prop37
 90
       50
102
RTVSPost2010PropOp37
 70
     1
102
RTVSPost2010Prop38
140
0.0
102
RTVSPost2010PropOp38
 70
     1
102
RTVSPost2010Prop39
140
1.0
102
RTVSPost2010PropOp39
 70
     1
102
RTVSPost2010Prop40
 90
        0
102
RTVSPost2010PropOp40
 70
     1
102
RTVSPost2010Prop41ColorIndex
 90
       18
102
RTVSPost2010Prop41ColorRGB
 90
        0
102
RTVSPost2010PropOp41
 70
     1
102
RTVSPost2010Prop42
 90
       50
102
RTVSPost2010PropOp42
 70
     1
102
RTVSPost2010Prop43
 90
        3
102
RTVSPost2010PropOp43
 70
     1
102
RTVSPost2010Prop44ColorIndex
 90
        5
102
RTVSPost2010Prop44ColorRGB
 90
      255
102
RTVSPost2010PropOp44
 70
     1
102
RTVSPost2010Prop45
280
     0
102
RTVSPost2010PropOp45
 70
     1
102
RTVSPost2010Prop46
 90
       50
102
RTVSPost2010PropOp46
 70
     1
102
RTVSPost2010Prop47
 90
       50
102
RTVSPost2010PropOp47
 70
     1
102
RTVSPost2010Prop48
 90
       50
102
RTVSPost2010PropOp48
 70
     1
102
RTVSPost2010Prop49
280
     0
102
RTVSPost2010PropOp49
 70
     1
102
RTVSPost2010Prop50
 90
       50
102
RTVSPost2010PropOp50
 70
     1
102
RTVSPost2010Prop51ColorIndex
 90
      256
102
RTVSPost2010Prop51ColorRGB
 90
-16777216
102
RTVSPost2010PropOp51
 70
     0
102
RTVSPost2010Prop52
140
1.0
102
RTVSPost2010PropOp52
 70
     0
102
RTVSPost2010Prop53
 90
        2
102
RTVSPost2010PropOp53
 70
     1
102
RTVSPost2010Prop54
  1
strokes_ogs.tif
102
RTVSPost2010PropOp54
 70
     1
102
RTVSPost2010Prop55
280
     0
102
RTVSPost2010PropOp55
 70
     1
102
RTVSPost2010Prop56
140
1.0
102
RTVSPost2010PropOp56
 70
     1
102
RTVSPost2010Prop57
140
1.0
102
RTVSPost2010PropOp57
 70
     1
102
RTVSPropertyOp0
 70
     1
102
RTVSPropertyOp1
 70
     1
102
RTVSPropertyOp2
 70
     1
102
RTVSPropertyOp3
 70
     1
102
RTVSPropertyOp4
 70
     1
102
RTVSPropertyOp5
 70
     1
102
RTVSPropertyOp6
 70
     1
102
RTVSPropertyOp7
 70
     1
102
RTVSPropertyOp8
 70
     1
102
RTVSPropertyOp9
 70
     1
102
RTVSPropertyOp10
 70
     1
102
RTVSPropertyOp11
 70
     1
102
RTVSPropertyOp12
 70
     1
102
RTVSPropertyOp13
 70
     1
102
RTVSPropertyOp14
 70
     1
102
RTVSPropertyOp15
 70
     1
102
RTVSPropertyOp16
 70
     1
102
RTVSPropertyOp17
 70
     1
102
RTVSPropertyOp18
 70
     1
102
RTVSPropertyOp19
 70
     1
102
RTVSPropertyOp20
 70
     1
102
RTVSPropertyOp21
 70
     1
102
RTVSPropertyOp22
 70
     1
102
RTVSPropertyOp23
 70
     1
102
RTVSPropertyOp24
 70
     1
102
RTVSPropertyOp25
 70
     1
102
RTVSPropertyOp26
 70
     1
102
RTVSPropertyOp27
 70
     1
102
RTVSPropertyOp28
 70
     1
102
RTVSPropertyOp29
 70
     1
102
RTVSPropertyOp30
 70
     1
102
RTVSPropertyOp31
 70
     1
102
RTVSPropertyOp32
 70
     1
102
RTVSPropertyOp33
 70
     1
102
RTVSPropertyOp34
 70
     1
102
RTVSPropertyOp35
 70
     1
102
RTVSPropertyOp36
 70
     1
102
RTVSPropertyOp37
 70
     1
102
RTVSPropertyOp38
 70
     1
102
RTVSPropertyOp39
 70
     1
102
RTVSPropertyOp40
 70
     1
102
RTVSPropertyOp41
 70
     1
102
RTVSPropertyOp42
 70
     1
102
RTVSPropertyOp43
 70
     1
102
RTVSPropertyOp44
 70
     1
102
RTVSPropertyOp45
 70
     1
102
RTVSPropertyOp46
 70
     1
102
RTVSPropertyOp47
 70
     1
102
RTVSPropertyOp48
 70
     1
102
RTVSPropertyOp49
 70
     1
102
RTVSPropertyOp50
 70
     1
102
RTVSPropertyOp51
 70
     0
102
RTVSPropertyOp52
 70
     0
102
RTVSPropertyOp53
 70
     1
102
RTVSPropertyOp54
 70
     1
102
RTVSPropertyOp55
 70
     1
102
RTVSPropertyOp56
 70
     1
102
RTVSPropertyOp57
 70
     1
102
RTVSPropertyOp58
 70
     1
102
RTVSPropertyOp59
 70
     1
102
RTVSPropertyOp60
 70
     1
102
RTVSPropertyOp61
 70
     1
102
RTVSPropertyOp62
 70
     1
  0
XRECORD
  5
9B0E
102
{ACAD_REACTORS
330
9B0D
102
}
330
9B0D
100
AcDbXrecord
280
     1
102
RTVSPost2010Prop28
280
     0
102
RTVSPost2010PropOp28
 70
     1
102
RTVSPost2010Prop29
280
     1
102
RTVSPost2010PropOp29
 70
     1
102
RTVSPost2010Prop30
280
     1
102
RTVSPost2010PropOp30
 70
     1
102
RTVSPost2010Prop31
280
     0
102
RTVSPost2010PropOp31
 70
     1
102
RTVSPost2010Prop32
280
     0
102
RTVSPost2010PropOp32
 70
     1
102
RTVSPost2010Prop33
280
     0
102
RTVSPost2010PropOp33
 70
     1
102
RTVSPost2010Prop34
280
     0
102
RTVSPost2010PropOp34
 70
     1
102
RTVSPost2010Prop35
280
     0
102
RTVSPost2010PropOp35
 70
     1
102
RTVSPost2010Prop36
280
     0
102
RTVSPost2010PropOp36
 70
     1
102
RTVSPost2010Prop37
 90
       50
102
RTVSPost2010PropOp37
 70
     1
102
RTVSPost2010Prop38
140
0.0
102
RTVSPost2010PropOp38
 70
     1
102
RTVSPost2010Prop39
140
1.0
102
RTVSPost2010PropOp39
 70
     1
102
RTVSPost2010Prop40
 90
        0
102
RTVSPost2010PropOp40
 70
     1
102
RTVSPost2010Prop41ColorIndex
 90
       18
102
RTVSPost2010Prop41ColorRGB
 90
        0
102
RTVSPost2010PropOp41
 70
     1
102
RTVSPost2010Prop42
 90
       50
102
RTVSPost2010PropOp42
 70
     1
102
RTVSPost2010Prop43
 90
        3
102
RTVSPost2010PropOp43
 70
     1
102
RTVSPost2010Prop44ColorIndex
 90
        5
102
RTVSPost2010Prop44ColorRGB
 90
      255
102
RTVSPost2010PropOp44
 70
     1
102
RTVSPost2010Prop45
280
     0
102
RTVSPost2010PropOp45
 70
     1
102
RTVSPost2010Prop46
 90
       50
102
RTVSPost2010PropOp46
 70
     1
102
RTVSPost2010Prop47
 90
       50
102
RTVSPost2010PropOp47
 70
     1
102
RTVSPost2010Prop48
 90
       50
102
RTVSPost2010PropOp48
 70
     1
102
RTVSPost2010Prop49
280
     0
102
RTVSPost2010PropOp49
 70
     1
102
RTVSPost2010Prop50
 90
       50
102
RTVSPost2010PropOp50
 70
     1
102
RTVSPost2010Prop51ColorIndex
 90
      256
102
RTVSPost2010Prop51ColorRGB
 90
-16777216
102
RTVSPost2010PropOp51
 70
     0
102
RTVSPost2010Prop52
140
1.0
102
RTVSPost2010PropOp52
 70
     0
102
RTVSPost2010Prop53
 90
        2
102
RTVSPost2010PropOp53
 70
     1
102
RTVSPost2010Prop54
  1
strokes_ogs.tif
102
RTVSPost2010PropOp54
 70
     1
102
RTVSPost2010Prop55
280
     0
102
RTVSPost2010PropOp55
 70
     1
102
RTVSPost2010Prop56
140
1.0
102
RTVSPost2010PropOp56
 70
     1
102
RTVSPost2010Prop57
140
1.0
102
RTVSPost2010PropOp57
 70
     1
102
RTVSPropertyOp0
 70
     1
102
RTVSPropertyOp1
 70
     1
102
RTVSPropertyOp2
 70
     1
102
RTVSPropertyOp3
 70
     1
102
RTVSPropertyOp4
 70
     1
102
RTVSPropertyOp5
 70
     1
102
RTVSPropertyOp6
 70
     1
102
RTVSPropertyOp7
 70
     1
102
RTVSPropertyOp8
 70
     1
102
RTVSPropertyOp9
 70
     1
102
RTVSPropertyOp10
 70
     1
102
RTVSPropertyOp11
 70
     1
102
RTVSPropertyOp12
 70
     1
102
RTVSPropertyOp13
 70
     1
102
RTVSPropertyOp14
 70
     1
102
RTVSPropertyOp15
 70
     1
102
RTVSPropertyOp16
 70
     1
102
RTVSPropertyOp17
 70
     1
102
RTVSPropertyOp18
 70
     1
102
RTVSPropertyOp19
 70
     1
102
RTVSPropertyOp20
 70
     1
102
RTVSPropertyOp21
 70
     1
102
RTVSPropertyOp22
 70
     1
102
RTVSPropertyOp23
 70
     1
102
RTVSPropertyOp24
 70
     1
102
RTVSPropertyOp25
 70
     1
102
RTVSPropertyOp26
 70
     1
102
RTVSPropertyOp27
 70
     1
102
RTVSPropertyOp28
 70
     1
102
RTVSPropertyOp29
 70
     1
102
RTVSPropertyOp30
 70
     1
102
RTVSPropertyOp31
 70
     1
102
RTVSPropertyOp32
 70
     1
102
RTVSPropertyOp33
 70
     1
102
RTVSPropertyOp34
 70
     1
102
RTVSPropertyOp35
 70
     1
102
RTVSPropertyOp36
 70
     1
102
RTVSPropertyOp37
 70
     1
102
RTVSPropertyOp38
 70
     1
102
RTVSPropertyOp39
 70
     1
102
RTVSPropertyOp40
 70
     1
102
RTVSPropertyOp41
 70
     1
102
RTVSPropertyOp42
 70
     1
102
RTVSPropertyOp43
 70
     1
102
RTVSPropertyOp44
 70
     1
102
RTVSPropertyOp45
 70
     1
102
RTVSPropertyOp46
 70
     1
102
RTVSPropertyOp47
 70
     1
102
RTVSPropertyOp48
 70
     1
102
RTVSPropertyOp49
 70
     1
102
RTVSPropertyOp50
 70
     1
102
RTVSPropertyOp51
 70
     0
102
RTVSPropertyOp52
 70
     0
102
RTVSPropertyOp53
 70
     1
102
RTVSPropertyOp54
 70
     1
102
RTVSPropertyOp55
 70
     1
102
RTVSPropertyOp56
 70
     1
102
RTVSPropertyOp57
 70
     1
102
RTVSPropertyOp58
 70
     1
102
RTVSPropertyOp59
 70
     1
102
RTVSPropertyOp60
 70
     1
102
RTVSPropertyOp61
 70
     1
102
RTVSPropertyOp62
 70
     1
  0
XRECORD
  5
9B16
102
{ACAD_REACTORS
330
9B15
102
}
330
9B15
100
AcDbXrecord
280
     1
102
RTVSPost2010Prop28
280
     0
102
RTVSPost2010PropOp28
 70
     1
102
RTVSPost2010Prop29
280
     1
102
RTVSPost2010PropOp29
 70
     1
102
RTVSPost2010Prop30
280
     1
102
RTVSPost2010PropOp30
 70
     1
102
RTVSPost2010Prop31
280
     0
102
RTVSPost2010PropOp31
 70
     1
102
RTVSPost2010Prop32
280
     0
102
RTVSPost2010PropOp32
 70
     1
102
RTVSPost2010Prop33
280
     0
102
RTVSPost2010PropOp33
 70
     1
102
RTVSPost2010Prop34
280
     0
102
RTVSPost2010PropOp34
 70
     1
102
RTVSPost2010Prop35
280
     0
102
RTVSPost2010PropOp35
 70
     1
102
RTVSPost2010Prop36
280
     0
102
RTVSPost2010PropOp36
 70
     1
102
RTVSPost2010Prop37
 90
       50
102
RTVSPost2010PropOp37
 70
     1
102
RTVSPost2010Prop38
140
0.0
102
RTVSPost2010PropOp38
 70
     1
102
RTVSPost2010Prop39
140
1.0
102
RTVSPost2010PropOp39
 70
     1
102
RTVSPost2010Prop40
 90
        0
102
RTVSPost2010PropOp40
 70
     1
102
RTVSPost2010Prop41ColorIndex
 90
       18
102
RTVSPost2010Prop41ColorRGB
 90
        0
102
RTVSPost2010PropOp41
 70
     1
102
RTVSPost2010Prop42
 90
       50
102
RTVSPost2010PropOp42
 70
     1
102
RTVSPost2010Prop43
 90
        3
102
RTVSPost2010PropOp43
 70
     1
102
RTVSPost2010Prop44ColorIndex
 90
        5
102
RTVSPost2010Prop44ColorRGB
 90
      255
102
RTVSPost2010PropOp44
 70
     1
102
RTVSPost2010Prop45
280
     0
102
RTVSPost2010PropOp45
 70
     1
102
RTVSPost2010Prop46
 90
       50
102
RTVSPost2010PropOp46
 70
     1
102
RTVSPost2010Prop47
 90
       50
102
RTVSPost2010PropOp47
 70
     1
102
RTVSPost2010Prop48
 90
       50
102
RTVSPost2010PropOp48
 70
     1
102
RTVSPost2010Prop49
280
     0
102
RTVSPost2010PropOp49
 70
     1
102
RTVSPost2010Prop50
 90
       50
102
RTVSPost2010PropOp50
 70
     1
102
RTVSPost2010Prop51ColorIndex
 90
      256
102
RTVSPost2010Prop51ColorRGB
 90
-16777216
102
RTVSPost2010PropOp51
 70
     0
102
RTVSPost2010Prop52
140
1.0
102
RTVSPost2010PropOp52
 70
     0
102
RTVSPost2010Prop53
 90
        2
102
RTVSPost2010PropOp53
 70
     1
102
RTVSPost2010Prop54
  1
strokes_ogs.tif
102
RTVSPost2010PropOp54
 70
     1
102
RTVSPost2010Prop55
280
     0
102
RTVSPost2010PropOp55
 70
     1
102
RTVSPost2010Prop56
140
1.0
102
RTVSPost2010PropOp56
 70
     1
102
RTVSPost2010Prop57
140
1.0
102
RTVSPost2010PropOp57
 70
     1
102
RTVSPropertyOp0
 70
     1
102
RTVSPropertyOp1
 70
     1
102
RTVSPropertyOp2
 70
     1
102
RTVSPropertyOp3
 70
     1
102
RTVSPropertyOp4
 70
     1
102
RTVSPropertyOp5
 70
     1
102
RTVSPropertyOp6
 70
     1
102
RTVSPropertyOp7
 70
     1
102
RTVSPropertyOp8
 70
     1
102
RTVSPropertyOp9
 70
     1
102
RTVSPropertyOp10
 70
     1
102
RTVSPropertyOp11
 70
     1
102
RTVSPropertyOp12
 70
     1
102
RTVSPropertyOp13
 70
     1
102
RTVSPropertyOp14
 70
     1
102
RTVSPropertyOp15
 70
     1
102
RTVSPropertyOp16
 70
     1
102
RTVSPropertyOp17
 70
     1
102
RTVSPropertyOp18
 70
     1
102
RTVSPropertyOp19
 70
     1
102
RTVSPropertyOp20
 70
     1
102
RTVSPropertyOp21
 70
     1
102
RTVSPropertyOp22
 70
     1
102
RTVSPropertyOp23
 70
     1
102
RTVSPropertyOp24
 70
     1
102
RTVSPropertyOp25
 70
     1
102
RTVSPropertyOp26
 70
     1
102
RTVSPropertyOp27
 70
     1
102
RTVSPropertyOp28
 70
     1
102
RTVSPropertyOp29
 70
     1
102
RTVSPropertyOp30
 70
     1
102
RTVSPropertyOp31
 70
     1
102
RTVSPropertyOp32
 70
     1
102
RTVSPropertyOp33
 70
     1
102
RTVSPropertyOp34
 70
     1
102
RTVSPropertyOp35
 70
     1
102
RTVSPropertyOp36
 70
     1
102
RTVSPropertyOp37
 70
     1
102
RTVSPropertyOp38
 70
     1
102
RTVSPropertyOp39
 70
     1
102
RTVSPropertyOp40
 70
     1
102
RTVSPropertyOp41
 70
     1
102
RTVSPropertyOp42
 70
     1
102
RTVSPropertyOp43
 70
     1
102
RTVSPropertyOp44
 70
     1
102
RTVSPropertyOp45
 70
     1
102
RTVSPropertyOp46
 70
     1
102
RTVSPropertyOp47
 70
     1
102
RTVSPropertyOp48
 70
     1
102
RTVSPropertyOp49
 70
     1
102
RTVSPropertyOp50
 70
     1
102
RTVSPropertyOp51
 70
     0
102
RTVSPropertyOp52
 70
     0
102
RTVSPropertyOp53
 70
     1
102
RTVSPropertyOp54
 70
     1
102
RTVSPropertyOp55
 70
     1
102
RTVSPropertyOp56
 70
     1
102
RTVSPropertyOp57
 70
     1
102
RTVSPropertyOp58
 70
     1
102
RTVSPropertyOp59
 70
     1
102
RTVSPropertyOp60
 70
     1
102
RTVSPropertyOp61
 70
     1
102
RTVSPropertyOp62
 70
     1
  0
XRECORD
  5
9B32
102
{ACAD_REACTORS
330
9B31
102
}
330
9B31
100
AcDbXrecord
280
     1
102
RTVSPost2010Prop28
280
     0
102
RTVSPost2010PropOp28
 70
     1
102
RTVSPost2010Prop29
280
     1
102
RTVSPost2010PropOp29
 70
     1
102
RTVSPost2010Prop30
280
     1
102
RTVSPost2010PropOp30
 70
     1
102
RTVSPost2010Prop31
280
     0
102
RTVSPost2010PropOp31
 70
     1
102
RTVSPost2010Prop32
280
     0
102
RTVSPost2010PropOp32
 70
     1
102
RTVSPost2010Prop33
280
     0
102
RTVSPost2010PropOp33
 70
     1
102
RTVSPost2010Prop34
280
     0
102
RTVSPost2010PropOp34
 70
     1
102
RTVSPost2010Prop35
280
     0
102
RTVSPost2010PropOp35
 70
     1
102
RTVSPost2010Prop36
280
     0
102
RTVSPost2010PropOp36
 70
     1
102
RTVSPost2010Prop37
 90
       50
102
RTVSPost2010PropOp37
 70
     0
102
RTVSPost2010Prop38
140
0.0
102
RTVSPost2010PropOp38
 70
     0
102
RTVSPost2010Prop39
140
1.0
102
RTVSPost2010PropOp39
 70
     0
102
RTVSPost2010Prop40
 90
        0
102
RTVSPost2010PropOp40
 70
     0
102
RTVSPost2010Prop41ColorIndex
 90
       18
102
RTVSPost2010Prop41ColorRGB
 90
        0
102
RTVSPost2010PropOp41
 70
     0
102
RTVSPost2010Prop42
 90
       50
102
RTVSPost2010PropOp42
 70
     0
102
RTVSPost2010Prop43
 90
        3
102
RTVSPost2010PropOp43
 70
     0
102
RTVSPost2010Prop44ColorIndex
 90
        5
102
RTVSPost2010Prop44ColorRGB
 90
      255
102
RTVSPost2010PropOp44
 70
     0
102
RTVSPost2010Prop45
280
     0
102
RTVSPost2010PropOp45
 70
     1
102
RTVSPost2010Prop46
 90
       50
102
RTVSPost2010PropOp46
 70
     0
102
RTVSPost2010Prop47
 90
       50
102
RTVSPost2010PropOp47
 70
     0
102
RTVSPost2010Prop48
 90
       50
102
RTVSPost2010PropOp48
 70
     0
102
RTVSPost2010Prop49
280
     0
102
RTVSPost2010PropOp49
 70
     1
102
RTVSPost2010Prop50
 90
       50
102
RTVSPost2010PropOp50
 70
     0
102
RTVSPost2010Prop51ColorIndex
 90
      256
102
RTVSPost2010Prop51ColorRGB
 90
-16777216
102
RTVSPost2010PropOp51
 70
     0
102
RTVSPost2010Prop52
140
1.0
102
RTVSPost2010PropOp52
 70
     0
102
RTVSPost2010Prop53
 90
        2
102
RTVSPost2010PropOp53
 70
     0
102
RTVSPost2010Prop54
  1
strokes_ogs.tif
102
RTVSPost2010PropOp54
 70
     0
102
RTVSPost2010Prop55
280
     0
102
RTVSPost2010PropOp55
 70
     1
102
RTVSPost2010Prop56
140
1.0
102
RTVSPost2010PropOp56
 70
     0
102
RTVSPost2010Prop57
140
1.0
102
RTVSPost2010PropOp57
 70
     0
102
RTVSPropertyOp0
 70
     0
102
RTVSPropertyOp1
 70
     0
102
RTVSPropertyOp2
 70
     0
102
RTVSPropertyOp3
 70
     0
102
RTVSPropertyOp4
 70
     0
102
RTVSPropertyOp5
 70
     0
102
RTVSPropertyOp6
 70
     0
102
RTVSPropertyOp7
 70
     0
102
RTVSPropertyOp8
 70
     0
102
RTVSPropertyOp9
 70
     0
102
RTVSPropertyOp10
 70
     0
102
RTVSPropertyOp11
 70
     0
102
RTVSPropertyOp12
 70
     0
102
RTVSPropertyOp13
 70
     0
102
RTVSPropertyOp14
 70
     2
102
RTVSPropertyOp15
 70
     0
102
RTVSPropertyOp16
 70
     0
102
RTVSPropertyOp17
 70
     0
102
RTVSPropertyOp18
 70
     0
102
RTVSPropertyOp19
 70
     0
102
RTVSPropertyOp20
 70
     0
102
RTVSPropertyOp21
 70
     0
102
RTVSPropertyOp22
 70
     0
102
RTVSPropertyOp23
 70
     0
102
RTVSPropertyOp24
 70
     0
102
RTVSPropertyOp25
 70
     0
102
RTVSPropertyOp26
 70
     0
102
RTVSPropertyOp27
 70
     0
102
RTVSPropertyOp28
 70
     1
102
RTVSPropertyOp29
 70
     1
102
RTVSPropertyOp30
 70
     1
102
RTVSPropertyOp31
 70
     1
102
RTVSPropertyOp32
 70
     1
102
RTVSPropertyOp33
 70
     1
102
RTVSPropertyOp34
 70
     1
102
RTVSPropertyOp35
 70
     1
102
RTVSPropertyOp36
 70
     1
102
RTVSPropertyOp37
 70
     0
102
RTVSPropertyOp38
 70
     0
102
RTVSPropertyOp39
 70
     0
102
RTVSPropertyOp40
 70
     0
102
RTVSPropertyOp41
 70
     0
102
RTVSPropertyOp42
 70
     0
102
RTVSPropertyOp43
 70
     0
102
RTVSPropertyOp44
 70
     0
102
RTVSPropertyOp45
 70
     1
102
RTVSPropertyOp46
 70
     0
102
RTVSPropertyOp47
 70
     0
102
RTVSPropertyOp48
 70
     0
102
RTVSPropertyOp49
 70
     1
102
RTVSPropertyOp50
 70
     0
102
RTVSPropertyOp51
 70
     0
102
RTVSPropertyOp52
 70
     0
102
RTVSPropertyOp53
 70
     0
102
RTVSPropertyOp54
 70
     0
102
RTVSPropertyOp55
 70
     1
102
RTVSPropertyOp56
 70
     0
102
RTVSPropertyOp57
 70
     0
102
RTVSPropertyOp58
 70
     0
102
RTVSPropertyOp59
 70
     0
102
RTVSPropertyOp60
 70
     0
102
RTVSPropertyOp61
 70
     0
102
RTVSPropertyOp62
 70
     0
  0
XRECORD
  5
9B22
102
{ACAD_REACTORS
330
9B21
102
}
330
9B21
100
AcDbXrecord
280
     1
102
RTVSPost2010Prop28
280
     0
102
RTVSPost2010PropOp28
 70
     1
102
RTVSPost2010Prop29
280
     1
102
RTVSPost2010PropOp29
 70
     1
102
RTVSPost2010Prop30
280
     1
102
RTVSPost2010PropOp30
 70
     1
102
RTVSPost2010Prop31
280
     0
102
RTVSPost2010PropOp31
 70
     1
102
RTVSPost2010Prop32
280
     0
102
RTVSPost2010PropOp32
 70
     1
102
RTVSPost2010Prop33
280
     0
102
RTVSPost2010PropOp33
 70
     1
102
RTVSPost2010Prop34
280
     0
102
RTVSPost2010PropOp34
 70
     1
102
RTVSPost2010Prop35
280
     0
102
RTVSPost2010PropOp35
 70
     1
102
RTVSPost2010Prop36
280
     0
102
RTVSPost2010PropOp36
 70
     1
102
RTVSPost2010Prop37
 90
       50
102
RTVSPost2010PropOp37
 70
     1
102
RTVSPost2010Prop38
140
0.0
102
RTVSPost2010PropOp38
 70
     1
102
RTVSPost2010Prop39
140
1.0
102
RTVSPost2010PropOp39
 70
     1
102
RTVSPost2010Prop40
 90
        0
102
RTVSPost2010PropOp40
 70
     1
102
RTVSPost2010Prop41ColorIndex
 90
       18
102
RTVSPost2010Prop41ColorRGB
 90
        0
102
RTVSPost2010PropOp41
 70
     1
102
RTVSPost2010Prop42
 90
       50
102
RTVSPost2010PropOp42
 70
     1
102
RTVSPost2010Prop43
 90
        3
102
RTVSPost2010PropOp43
 70
     1
102
RTVSPost2010Prop44ColorIndex
 90
        5
102
RTVSPost2010Prop44ColorRGB
 90
      255
102
RTVSPost2010PropOp44
 70
     1
102
RTVSPost2010Prop45
280
     0
102
RTVSPost2010PropOp45
 70
     1
102
RTVSPost2010Prop46
 90
       50
102
RTVSPost2010PropOp46
 70
     1
102
RTVSPost2010Prop47
 90
       50
102
RTVSPost2010PropOp47
 70
     1
102
RTVSPost2010Prop48
 90
       50
102
RTVSPost2010PropOp48
 70
     1
102
RTVSPost2010Prop49
280
     0
102
RTVSPost2010PropOp49
 70
     1
102
RTVSPost2010Prop50
 90
       50
102
RTVSPost2010PropOp50
 70
     1
102
RTVSPost2010Prop51ColorIndex
 90
      256
102
RTVSPost2010Prop51ColorRGB
 90
-16777216
102
RTVSPost2010PropOp51
 70
     0
102
RTVSPost2010Prop52
140
1.0
102
RTVSPost2010PropOp52
 70
     0
102
RTVSPost2010Prop53
 90
        2
102
RTVSPost2010PropOp53
 70
     1
102
RTVSPost2010Prop54
  1
strokes_ogs.tif
102
RTVSPost2010PropOp54
 70
     1
102
RTVSPost2010Prop55
280
     0
102
RTVSPost2010PropOp55
 70
     1
102
RTVSPost2010Prop56
140
1.0
102
RTVSPost2010PropOp56
 70
     1
102
RTVSPost2010Prop57
140
1.0
102
RTVSPost2010PropOp57
 70
     1
102
RTVSPropertyOp0
 70
     1
102
RTVSPropertyOp1
 70
     1
102
RTVSPropertyOp2
 70
     1
102
RTVSPropertyOp3
 70
     1
102
RTVSPropertyOp4
 70
     1
102
RTVSPropertyOp5
 70
     1
102
RTVSPropertyOp6
 70
     1
102
RTVSPropertyOp7
 70
     1
102
RTVSPropertyOp8
 70
     1
102
RTVSPropertyOp9
 70
     1
102
RTVSPropertyOp10
 70
     1
102
RTVSPropertyOp11
 70
     1
102
RTVSPropertyOp12
 70
     1
102
RTVSPropertyOp13
 70
     1
102
RTVSPropertyOp14
 70
     1
102
RTVSPropertyOp15
 70
     1
102
RTVSPropertyOp16
 70
     1
102
RTVSPropertyOp17
 70
     1
102
RTVSPropertyOp18
 70
     1
102
RTVSPropertyOp19
 70
     1
102
RTVSPropertyOp20
 70
     1
102
RTVSPropertyOp21
 70
     1
102
RTVSPropertyOp22
 70
     1
102
RTVSPropertyOp23
 70
     1
102
RTVSPropertyOp24
 70
     1
102
RTVSPropertyOp25
 70
     1
102
RTVSPropertyOp26
 70
     1
102
RTVSPropertyOp27
 70
     1
102
RTVSPropertyOp28
 70
     1
102
RTVSPropertyOp29
 70
     1
102
RTVSPropertyOp30
 70
     1
102
RTVSPropertyOp31
 70
     1
102
RTVSPropertyOp32
 70
     1
102
RTVSPropertyOp33
 70
     1
102
RTVSPropertyOp34
 70
     1
102
RTVSPropertyOp35
 70
     1
102
RTVSPropertyOp36
 70
     1
102
RTVSPropertyOp37
 70
     1
102
RTVSPropertyOp38
 70
     1
102
RTVSPropertyOp39
 70
     1
102
RTVSPropertyOp40
 70
     1
102
RTVSPropertyOp41
 70
     1
102
RTVSPropertyOp42
 70
     1
102
RTVSPropertyOp43
 70
     1
102
RTVSPropertyOp44
 70
     1
102
RTVSPropertyOp45
 70
     1
102
RTVSPropertyOp46
 70
     1
102
RTVSPropertyOp47
 70
     1
102
RTVSPropertyOp48
 70
     1
102
RTVSPropertyOp49
 70
     1
102
RTVSPropertyOp50
 70
     1
102
RTVSPropertyOp51
 70
     0
102
RTVSPropertyOp52
 70
     0
102
RTVSPropertyOp53
 70
     1
102
RTVSPropertyOp54
 70
     1
102
RTVSPropertyOp55
 70
     1
102
RTVSPropertyOp56
 70
     1
102
RTVSPropertyOp57
 70
     1
102
RTVSPropertyOp58
 70
     1
102
RTVSPropertyOp59
 70
     1
102
RTVSPropertyOp60
 70
     1
102
RTVSPropertyOp61
 70
     1
102
RTVSPropertyOp62
 70
     1
  0
XRECORD
  5
9B34
102
{ACAD_REACTORS
330
9B33
102
}
330
9B33
100
AcDbXrecord
280
     1
102
RTVSPost2010Prop28
280
     0
102
RTVSPost2010PropOp28
 70
     1
102
RTVSPost2010Prop29
280
     1
102
RTVSPost2010PropOp29
 70
     1
102
RTVSPost2010Prop30
280
     1
102
RTVSPost2010PropOp30
 70
     1
102
RTVSPost2010Prop31
280
     0
102
RTVSPost2010PropOp31
 70
     1
102
RTVSPost2010Prop32
280
     0
102
RTVSPost2010PropOp32
 70
     1
102
RTVSPost2010Prop33
280
     0
102
RTVSPost2010PropOp33
 70
     1
102
RTVSPost2010Prop34
280
     0
102
RTVSPost2010PropOp34
 70
     1
102
RTVSPost2010Prop35
280
     0
102
RTVSPost2010PropOp35
 70
     1
102
RTVSPost2010Prop36
280
     0
102
RTVSPost2010PropOp36
 70
     1
102
RTVSPost2010Prop37
 90
       50
102
RTVSPost2010PropOp37
 70
     0
102
RTVSPost2010Prop38
140
0.0
102
RTVSPost2010PropOp38
 70
     0
102
RTVSPost2010Prop39
140
1.0
102
RTVSPost2010PropOp39
 70
     0
102
RTVSPost2010Prop40
 90
        0
102
RTVSPost2010PropOp40
 70
     0
102
RTVSPost2010Prop41ColorIndex
 90
       18
102
RTVSPost2010Prop41ColorRGB
 90
        0
102
RTVSPost2010PropOp41
 70
     0
102
RTVSPost2010Prop42
 90
       50
102
RTVSPost2010PropOp42
 70
     0
102
RTVSPost2010Prop43
 90
        3
102
RTVSPost2010PropOp43
 70
     0
102
RTVSPost2010Prop44ColorIndex
 90
        5
102
RTVSPost2010Prop44ColorRGB
 90
      255
102
RTVSPost2010PropOp44
 70
     0
102
RTVSPost2010Prop45
280
     0
102
RTVSPost2010PropOp45
 70
     1
102
RTVSPost2010Prop46
 90
       50
102
RTVSPost2010PropOp46
 70
     0
102
RTVSPost2010Prop47
 90
       50
102
RTVSPost2010PropOp47
 70
     0
102
RTVSPost2010Prop48
 90
       50
102
RTVSPost2010PropOp48
 70
     0
102
RTVSPost2010Prop49
280
     0
102
RTVSPost2010PropOp49
 70
     1
102
RTVSPost2010Prop50
 90
       50
102
RTVSPost2010PropOp50
 70
     0
102
RTVSPost2010Prop51ColorIndex
 90
      256
102
RTVSPost2010Prop51ColorRGB
 90
-16777216
102
RTVSPost2010PropOp51
 70
     0
102
RTVSPost2010Prop52
140
1.0
102
RTVSPost2010PropOp52
 70
     0
102
RTVSPost2010Prop53
 90
        2
102
RTVSPost2010PropOp53
 70
     0
102
RTVSPost2010Prop54
  1
strokes_ogs.tif
102
RTVSPost2010PropOp54
 70
     0
102
RTVSPost2010Prop55
280
     0
102
RTVSPost2010PropOp55
 70
     1
102
RTVSPost2010Prop56
140
1.0
102
RTVSPost2010PropOp56
 70
     0
102
RTVSPost2010Prop57
140
1.0
102
RTVSPost2010PropOp57
 70
     0
102
RTVSPropertyOp0
 70
     0
102
RTVSPropertyOp1
 70
     0
102
RTVSPropertyOp2
 70
     0
102
RTVSPropertyOp3
 70
     0
102
RTVSPropertyOp4
 70
     0
102
RTVSPropertyOp5
 70
     0
102
RTVSPropertyOp6
 70
     0
102
RTVSPropertyOp7
 70
     0
102
RTVSPropertyOp8
 70
     0
102
RTVSPropertyOp9
 70
     0
102
RTVSPropertyOp10
 70
     0
102
RTVSPropertyOp11
 70
     0
102
RTVSPropertyOp12
 70
     0
102
RTVSPropertyOp13
 70
     0
102
RTVSPropertyOp14
 70
     2
102
RTVSPropertyOp15
 70
     0
102
RTVSPropertyOp16
 70
     0
102
RTVSPropertyOp17
 70
     0
102
RTVSPropertyOp18
 70
     0
102
RTVSPropertyOp19
 70
     0
102
RTVSPropertyOp20
 70
     0
102
RTVSPropertyOp21
 70
     0
102
RTVSPropertyOp22
 70
     0
102
RTVSPropertyOp23
 70
     0
102
RTVSPropertyOp24
 70
     0
102
RTVSPropertyOp25
 70
     0
102
RTVSPropertyOp26
 70
     0
102
RTVSPropertyOp27
 70
     0
102
RTVSPropertyOp28
 70
     1
102
RTVSPropertyOp29
 70
     1
102
RTVSPropertyOp30
 70
     1
102
RTVSPropertyOp31
 70
     1
102
RTVSPropertyOp32
 70
     1
102
RTVSPropertyOp33
 70
     1
102
RTVSPropertyOp34
 70
     1
102
RTVSPropertyOp35
 70
     1
102
RTVSPropertyOp36
 70
     1
102
RTVSPropertyOp37
 70
     0
102
RTVSPropertyOp38
 70
     0
102
RTVSPropertyOp39
 70
     0
102
RTVSPropertyOp40
 70
     0
102
RTVSPropertyOp41
 70
     0
102
RTVSPropertyOp42
 70
     0
102
RTVSPropertyOp43
 70
     0
102
RTVSPropertyOp44
 70
     0
102
RTVSPropertyOp45
 70
     1
102
RTVSPropertyOp46
 70
     0
102
RTVSPropertyOp47
 70
     0
102
RTVSPropertyOp48
 70
     0
102
RTVSPropertyOp49
 70
     1
102
RTVSPropertyOp50
 70
     0
102
RTVSPropertyOp51
 70
     0
102
RTVSPropertyOp52
 70
     0
102
RTVSPropertyOp53
 70
     0
102
RTVSPropertyOp54
 70
     0
102
RTVSPropertyOp55
 70
     1
102
RTVSPropertyOp56
 70
     0
102
RTVSPropertyOp57
 70
     0
102
RTVSPropertyOp58
 70
     0
102
RTVSPropertyOp59
 70
     0
102
RTVSPropertyOp60
 70
     0
102
RTVSPropertyOp61
 70
     0
102
RTVSPropertyOp62
 70
     0
  0
XRECORD
  5
9B1A
102
{ACAD_REACTORS
330
9B19
102
}
330
9B19
100
AcDbXrecord
280
     1
102
RTVSPost2010Prop28
280
     0
102
RTVSPost2010PropOp28
 70
     1
102
RTVSPost2010Prop29
280
     1
102
RTVSPost2010PropOp29
 70
     1
102
RTVSPost2010Prop30
280
     1
102
RTVSPost2010PropOp30
 70
     1
102
RTVSPost2010Prop31
280
     0
102
RTVSPost2010PropOp31
 70
     1
102
RTVSPost2010Prop32
280
     0
102
RTVSPost2010PropOp32
 70
     1
102
RTVSPost2010Prop33
280
     0
102
RTVSPost2010PropOp33
 70
     1
102
RTVSPost2010Prop34
280
     0
102
RTVSPost2010PropOp34
 70
     1
102
RTVSPost2010Prop35
280
     0
102
RTVSPost2010PropOp35
 70
     1
102
RTVSPost2010Prop36
280
     0
102
RTVSPost2010PropOp36
 70
     1
102
RTVSPost2010Prop37
 90
       50
102
RTVSPost2010PropOp37
 70
     1
102
RTVSPost2010Prop38
140
0.0
102
RTVSPost2010PropOp38
 70
     1
102
RTVSPost2010Prop39
140
1.0
102
RTVSPost2010PropOp39
 70
     1
102
RTVSPost2010Prop40
 90
        0
102
RTVSPost2010PropOp40
 70
     1
102
RTVSPost2010Prop41ColorIndex
 90
       18
102
RTVSPost2010Prop41ColorRGB
 90
        0
102
RTVSPost2010PropOp41
 70
     1
102
RTVSPost2010Prop42
 90
       50
102
RTVSPost2010PropOp42
 70
     1
102
RTVSPost2010Prop43
 90
        3
102
RTVSPost2010PropOp43
 70
     1
102
RTVSPost2010Prop44ColorIndex
 90
        5
102
RTVSPost2010Prop44ColorRGB
 90
      255
102
RTVSPost2010PropOp44
 70
     1
102
RTVSPost2010Prop45
280
     0
102
RTVSPost2010PropOp45
 70
     1
102
RTVSPost2010Prop46
 90
       50
102
RTVSPost2010PropOp46
 70
     1
102
RTVSPost2010Prop47
 90
       50
102
RTVSPost2010PropOp47
 70
     1
102
RTVSPost2010Prop48
 90
       50
102
RTVSPost2010PropOp48
 70
     1
102
RTVSPost2010Prop49
280
     0
102
RTVSPost2010PropOp49
 70
     1
102
RTVSPost2010Prop50
 90
       50
102
RTVSPost2010PropOp50
 70
     1
102
RTVSPost2010Prop51ColorIndex
 90
      256
102
RTVSPost2010Prop51ColorRGB
 90
-16777216
102
RTVSPost2010PropOp51
 70
     0
102
RTVSPost2010Prop52
140
1.0
102
RTVSPost2010PropOp52
 70
     0
102
RTVSPost2010Prop53
 90
        2
102
RTVSPost2010PropOp53
 70
     1
102
RTVSPost2010Prop54
  1
strokes_ogs.tif
102
RTVSPost2010PropOp54
 70
     1
102
RTVSPost2010Prop55
280
     0
102
RTVSPost2010PropOp55
 70
     1
102
RTVSPost2010Prop56
140
1.0
102
RTVSPost2010PropOp56
 70
     1
102
RTVSPost2010Prop57
140
1.0
102
RTVSPost2010PropOp57
 70
     1
102
RTVSPropertyOp0
 70
     1
102
RTVSPropertyOp1
 70
     1
102
RTVSPropertyOp2
 70
     1
102
RTVSPropertyOp3
 70
     1
102
RTVSPropertyOp4
 70
     1
102
RTVSPropertyOp5
 70
     1
102
RTVSPropertyOp6
 70
     1
102
RTVSPropertyOp7
 70
     1
102
RTVSPropertyOp8
 70
     1
102
RTVSPropertyOp9
 70
     1
102
RTVSPropertyOp10
 70
     1
102
RTVSPropertyOp11
 70
     1
102
RTVSPropertyOp12
 70
     1
102
RTVSPropertyOp13
 70
     1
102
RTVSPropertyOp14
 70
     1
102
RTVSPropertyOp15
 70
     1
102
RTVSPropertyOp16
 70
     1
102
RTVSPropertyOp17
 70
     1
102
RTVSPropertyOp18
 70
     1
102
RTVSPropertyOp19
 70
     1
102
RTVSPropertyOp20
 70
     1
102
RTVSPropertyOp21
 70
     1
102
RTVSPropertyOp22
 70
     1
102
RTVSPropertyOp23
 70
     1
102
RTVSPropertyOp24
 70
     1
102
RTVSPropertyOp25
 70
     1
102
RTVSPropertyOp26
 70
     1
102
RTVSPropertyOp27
 70
     1
102
RTVSPropertyOp28
 70
     1
102
RTVSPropertyOp29
 70
     1
102
RTVSPropertyOp30
 70
     1
102
RTVSPropertyOp31
 70
     1
102
RTVSPropertyOp32
 70
     1
102
RTVSPropertyOp33
 70
     1
102
RTVSPropertyOp34
 70
     1
102
RTVSPropertyOp35
 70
     1
102
RTVSPropertyOp36
 70
     1
102
RTVSPropertyOp37
 70
     1
102
RTVSPropertyOp38
 70
     1
102
RTVSPropertyOp39
 70
     1
102
RTVSPropertyOp40
 70
     1
102
RTVSPropertyOp41
 70
     1
102
RTVSPropertyOp42
 70
     1
102
RTVSPropertyOp43
 70
     1
102
RTVSPropertyOp44
 70
     1
102
RTVSPropertyOp45
 70
     1
102
RTVSPropertyOp46
 70
     1
102
RTVSPropertyOp47
 70
     1
102
RTVSPropertyOp48
 70
     1
102
RTVSPropertyOp49
 70
     1
102
RTVSPropertyOp50
 70
     1
102
RTVSPropertyOp51
 70
     0
102
RTVSPropertyOp52
 70
     0
102
RTVSPropertyOp53
 70
     1
102
RTVSPropertyOp54
 70
     1
102
RTVSPropertyOp55
 70
     1
102
RTVSPropertyOp56
 70
     1
102
RTVSPropertyOp57
 70
     1
102
RTVSPropertyOp58
 70
     1
102
RTVSPropertyOp59
 70
     1
102
RTVSPropertyOp60
 70
     1
102
RTVSPropertyOp61
 70
     1
102
RTVSPropertyOp62
 70
     1
  0
XRECORD
  5
9B30
102
{ACAD_REACTORS
330
9B2F
102
}
330
9B2F
100
AcDbXrecord
280
     1
102
RTVSPost2010Prop28
280
     0
102
RTVSPost2010PropOp28
 70
     1
102
RTVSPost2010Prop29
280
     1
102
RTVSPost2010PropOp29
 70
     1
102
RTVSPost2010Prop30
280
     1
102
RTVSPost2010PropOp30
 70
     1
102
RTVSPost2010Prop31
280
     0
102
RTVSPost2010PropOp31
 70
     1
102
RTVSPost2010Prop32
280
     0
102
RTVSPost2010PropOp32
 70
     1
102
RTVSPost2010Prop33
280
     0
102
RTVSPost2010PropOp33
 70
     1
102
RTVSPost2010Prop34
280
     0
102
RTVSPost2010PropOp34
 70
     1
102
RTVSPost2010Prop35
280
     0
102
RTVSPost2010PropOp35
 70
     1
102
RTVSPost2010Prop36
280
     0
102
RTVSPost2010PropOp36
 70
     1
102
RTVSPost2010Prop37
 90
       50
102
RTVSPost2010PropOp37
 70
     1
102
RTVSPost2010Prop38
140
0.0
102
RTVSPost2010PropOp38
 70
     1
102
RTVSPost2010Prop39
140
1.0
102
RTVSPost2010PropOp39
 70
     1
102
RTVSPost2010Prop40
 90
        0
102
RTVSPost2010PropOp40
 70
     1
102
RTVSPost2010Prop41ColorIndex
 90
       18
102
RTVSPost2010Prop41ColorRGB
 90
        0
102
RTVSPost2010PropOp41
 70
     1
102
RTVSPost2010Prop42
 90
       50
102
RTVSPost2010PropOp42
 70
     1
102
RTVSPost2010Prop43
 90
        3
102
RTVSPost2010PropOp43
 70
     1
102
RTVSPost2010Prop44ColorIndex
 90
        5
102
RTVSPost2010Prop44ColorRGB
 90
      255
102
RTVSPost2010PropOp44
 70
     1
102
RTVSPost2010Prop45
280
     0
102
RTVSPost2010PropOp45
 70
     1
102
RTVSPost2010Prop46
 90
       50
102
RTVSPost2010PropOp46
 70
     1
102
RTVSPost2010Prop47
 90
       50
102
RTVSPost2010PropOp47
 70
     1
102
RTVSPost2010Prop48
 90
       50
102
RTVSPost2010PropOp48
 70
     1
102
RTVSPost2010Prop49
280
     0
102
RTVSPost2010PropOp49
 70
     1
102
RTVSPost2010Prop50
 90
       50
102
RTVSPost2010PropOp50
 70
     1
102
RTVSPost2010Prop51ColorIndex
 90
      256
102
RTVSPost2010Prop51ColorRGB
 90
-16777216
102
RTVSPost2010PropOp51
 70
     0
102
RTVSPost2010Prop52
140
1.0
102
RTVSPost2010PropOp52
 70
     0
102
RTVSPost2010Prop53
 90
        2
102
RTVSPost2010PropOp53
 70
     1
102
RTVSPost2010Prop54
  1
strokes_ogs.tif
102
RTVSPost2010PropOp54
 70
     1
102
RTVSPost2010Prop55
280
     0
102
RTVSPost2010PropOp55
 70
     1
102
RTVSPost2010Prop56
140
1.0
102
RTVSPost2010PropOp56
 70
     1
102
RTVSPost2010Prop57
140
1.0
102
RTVSPost2010PropOp57
 70
     1
102
RTVSPropertyOp0
 70
     1
102
RTVSPropertyOp1
 70
     1
102
RTVSPropertyOp2
 70
     1
102
RTVSPropertyOp3
 70
     1
102
RTVSPropertyOp4
 70
     1
102
RTVSPropertyOp5
 70
     1
102
RTVSPropertyOp6
 70
     1
102
RTVSPropertyOp7
 70
     1
102
RTVSPropertyOp8
 70
     1
102
RTVSPropertyOp9
 70
     1
102
RTVSPropertyOp10
 70
     1
102
RTVSPropertyOp11
 70
     1
102
RTVSPropertyOp12
 70
     1
102
RTVSPropertyOp13
 70
     1
102
RTVSPropertyOp14
 70
     1
102
RTVSPropertyOp15
 70
     1
102
RTVSPropertyOp16
 70
     1
102
RTVSPropertyOp17
 70
     1
102
RTVSPropertyOp18
 70
     1
102
RTVSPropertyOp19
 70
     1
102
RTVSPropertyOp20
 70
     1
102
RTVSPropertyOp21
 70
     1
102
RTVSPropertyOp22
 70
     1
102
RTVSPropertyOp23
 70
     1
102
RTVSPropertyOp24
 70
     1
102
RTVSPropertyOp25
 70
     1
102
RTVSPropertyOp26
 70
     1
102
RTVSPropertyOp27
 70
     1
102
RTVSPropertyOp28
 70
     1
102
RTVSPropertyOp29
 70
     1
102
RTVSPropertyOp30
 70
     1
102
RTVSPropertyOp31
 70
     1
102
RTVSPropertyOp32
 70
     1
102
RTVSPropertyOp33
 70
     1
102
RTVSPropertyOp34
 70
     1
102
RTVSPropertyOp35
 70
     1
102
RTVSPropertyOp36
 70
     1
102
RTVSPropertyOp37
 70
     1
102
RTVSPropertyOp38
 70
     1
102
RTVSPropertyOp39
 70
     1
102
RTVSPropertyOp40
 70
     1
102
RTVSPropertyOp41
 70
     1
102
RTVSPropertyOp42
 70
     1
102
RTVSPropertyOp43
 70
     1
102
RTVSPropertyOp44
 70
     1
102
RTVSPropertyOp45
 70
     1
102
RTVSPropertyOp46
 70
     1
102
RTVSPropertyOp47
 70
     1
102
RTVSPropertyOp48
 70
     1
102
RTVSPropertyOp49
 70
     1
102
RTVSPropertyOp50
 70
     1
102
RTVSPropertyOp51
 70
     0
102
RTVSPropertyOp52
 70
     0
102
RTVSPropertyOp53
 70
     1
102
RTVSPropertyOp54
 70
     1
102
RTVSPropertyOp55
 70
     1
102
RTVSPropertyOp56
 70
     1
102
RTVSPropertyOp57
 70
     1
102
RTVSPropertyOp58
 70
     1
102
RTVSPropertyOp59
 70
     1
102
RTVSPropertyOp60
 70
     1
102
RTVSPropertyOp61
 70
     1
102
RTVSPropertyOp62
 70
     1
  0
XRECORD
  5
9B2E
102
{ACAD_REACTORS
330
9B2D
102
}
330
9B2D
100
AcDbXrecord
280
     1
102
RTVSPost2010Prop28
280
     0
102
RTVSPost2010PropOp28
 70
     1
102
RTVSPost2010Prop29
280
     1
102
RTVSPost2010PropOp29
 70
     1
102
RTVSPost2010Prop30
280
     1
102
RTVSPost2010PropOp30
 70
     1
102
RTVSPost2010Prop31
280
     0
102
RTVSPost2010PropOp31
 70
     1
102
RTVSPost2010Prop32
280
     0
102
RTVSPost2010PropOp32
 70
     1
102
RTVSPost2010Prop33
280
     0
102
RTVSPost2010PropOp33
 70
     1
102
RTVSPost2010Prop34
280
     0
102
RTVSPost2010PropOp34
 70
     1
102
RTVSPost2010Prop35
280
     0
102
RTVSPost2010PropOp35
 70
     1
102
RTVSPost2010Prop36
280
     0
102
RTVSPost2010PropOp36
 70
     1
102
RTVSPost2010Prop37
 90
       50
102
RTVSPost2010PropOp37
 70
     1
102
RTVSPost2010Prop38
140
0.0
102
RTVSPost2010PropOp38
 70
     1
102
RTVSPost2010Prop39
140
1.0
102
RTVSPost2010PropOp39
 70
     1
102
RTVSPost2010Prop40
 90
        0
102
RTVSPost2010PropOp40
 70
     1
102
RTVSPost2010Prop41ColorIndex
 90
       18
102
RTVSPost2010Prop41ColorRGB
 90
        0
102
RTVSPost2010PropOp41
 70
     1
102
RTVSPost2010Prop42
 90
       50
102
RTVSPost2010PropOp42
 70
     1
102
RTVSPost2010Prop43
 90
        3
102
RTVSPost2010PropOp43
 70
     1
102
RTVSPost2010Prop44ColorIndex
 90
        5
102
RTVSPost2010Prop44ColorRGB
 90
      255
102
RTVSPost2010PropOp44
 70
     1
102
RTVSPost2010Prop45
280
     0
102
RTVSPost2010PropOp45
 70
     1
102
RTVSPost2010Prop46
 90
       50
102
RTVSPost2010PropOp46
 70
     1
102
RTVSPost2010Prop47
 90
       50
102
RTVSPost2010PropOp47
 70
     1
102
RTVSPost2010Prop48
 90
       50
102
RTVSPost2010PropOp48
 70
     1
102
RTVSPost2010Prop49
280
     0
102
RTVSPost2010PropOp49
 70
     1
102
RTVSPost2010Prop50
 90
       50
102
RTVSPost2010PropOp50
 70
     1
102
RTVSPost2010Prop51ColorIndex
 90
      256
102
RTVSPost2010Prop51ColorRGB
 90
-16777216
102
RTVSPost2010PropOp51
 70
     0
102
RTVSPost2010Prop52
140
1.0
102
RTVSPost2010PropOp52
 70
     0
102
RTVSPost2010Prop53
 90
        2
102
RTVSPost2010PropOp53
 70
     1
102
RTVSPost2010Prop54
  1
strokes_ogs.tif
102
RTVSPost2010PropOp54
 70
     1
102
RTVSPost2010Prop55
280
     0
102
RTVSPost2010PropOp55
 70
     1
102
RTVSPost2010Prop56
140
1.0
102
RTVSPost2010PropOp56
 70
     1
102
RTVSPost2010Prop57
140
1.0
102
RTVSPost2010PropOp57
 70
     1
102
RTVSPropertyOp0
 70
     1
102
RTVSPropertyOp1
 70
     1
102
RTVSPropertyOp2
 70
     1
102
RTVSPropertyOp3
 70
     1
102
RTVSPropertyOp4
 70
     1
102
RTVSPropertyOp5
 70
     1
102
RTVSPropertyOp6
 70
     1
102
RTVSPropertyOp7
 70
     1
102
RTVSPropertyOp8
 70
     1
102
RTVSPropertyOp9
 70
     1
102
RTVSPropertyOp10
 70
     1
102
RTVSPropertyOp11
 70
     1
102
RTVSPropertyOp12
 70
     1
102
RTVSPropertyOp13
 70
     1
102
RTVSPropertyOp14
 70
     1
102
RTVSPropertyOp15
 70
     1
102
RTVSPropertyOp16
 70
     1
102
RTVSPropertyOp17
 70
     1
102
RTVSPropertyOp18
 70
     1
102
RTVSPropertyOp19
 70
     1
102
RTVSPropertyOp20
 70
     1
102
RTVSPropertyOp21
 70
     1
102
RTVSPropertyOp22
 70
     1
102
RTVSPropertyOp23
 70
     1
102
RTVSPropertyOp24
 70
     1
102
RTVSPropertyOp25
 70
     1
102
RTVSPropertyOp26
 70
     1
102
RTVSPropertyOp27
 70
     1
102
RTVSPropertyOp28
 70
     1
102
RTVSPropertyOp29
 70
     1
102
RTVSPropertyOp30
 70
     1
102
RTVSPropertyOp31
 70
     1
102
RTVSPropertyOp32
 70
     1
102
RTVSPropertyOp33
 70
     1
102
RTVSPropertyOp34
 70
     1
102
RTVSPropertyOp35
 70
     1
102
RTVSPropertyOp36
 70
     1
102
RTVSPropertyOp37
 70
     1
102
RTVSPropertyOp38
 70
     1
102
RTVSPropertyOp39
 70
     1
102
RTVSPropertyOp40
 70
     1
102
RTVSPropertyOp41
 70
     1
102
RTVSPropertyOp42
 70
     1
102
RTVSPropertyOp43
 70
     1
102
RTVSPropertyOp44
 70
     1
102
RTVSPropertyOp45
 70
     1
102
RTVSPropertyOp46
 70
     1
102
RTVSPropertyOp47
 70
     1
102
RTVSPropertyOp48
 70
     1
102
RTVSPropertyOp49
 70
     1
102
RTVSPropertyOp50
 70
     1
102
RTVSPropertyOp51
 70
     0
102
RTVSPropertyOp52
 70
     0
102
RTVSPropertyOp53
 70
     1
102
RTVSPropertyOp54
 70
     1
102
RTVSPropertyOp55
 70
     1
102
RTVSPropertyOp56
 70
     1
102
RTVSPropertyOp57
 70
     1
102
RTVSPropertyOp58
 70
     1
102
RTVSPropertyOp59
 70
     1
102
RTVSPropertyOp60
 70
     1
102
RTVSPropertyOp61
 70
     1
102
RTVSPropertyOp62
 70
     1
  0
XRECORD
  5
9B28
102
{ACAD_REACTORS
330
9B27
102
}
330
9B27
100
AcDbXrecord
280
     1
102
RTVSPost2010Prop28
280
     0
102
RTVSPost2010PropOp28
 70
     1
102
RTVSPost2010Prop29
280
     1
102
RTVSPost2010PropOp29
 70
     1
102
RTVSPost2010Prop30
280
     1
102
RTVSPost2010PropOp30
 70
     1
102
RTVSPost2010Prop31
280
     0
102
RTVSPost2010PropOp31
 70
     1
102
RTVSPost2010Prop32
280
     0
102
RTVSPost2010PropOp32
 70
     1
102
RTVSPost2010Prop33
280
     0
102
RTVSPost2010PropOp33
 70
     1
102
RTVSPost2010Prop34
280
     0
102
RTVSPost2010PropOp34
 70
     1
102
RTVSPost2010Prop35
280
     0
102
RTVSPost2010PropOp35
 70
     1
102
RTVSPost2010Prop36
280
     0
102
RTVSPost2010PropOp36
 70
     1
102
RTVSPost2010Prop37
 90
       50
102
RTVSPost2010PropOp37
 70
     1
102
RTVSPost2010Prop38
140
0.0
102
RTVSPost2010PropOp38
 70
     1
102
RTVSPost2010Prop39
140
1.0
102
RTVSPost2010PropOp39
 70
     1
102
RTVSPost2010Prop40
 90
        0
102
RTVSPost2010PropOp40
 70
     1
102
RTVSPost2010Prop41ColorIndex
 90
       18
102
RTVSPost2010Prop41ColorRGB
 90
        0
102
RTVSPost2010PropOp41
 70
     1
102
RTVSPost2010Prop42
 90
       50
102
RTVSPost2010PropOp42
 70
     1
102
RTVSPost2010Prop43
 90
        3
102
RTVSPost2010PropOp43
 70
     1
102
RTVSPost2010Prop44ColorIndex
 90
        5
102
RTVSPost2010Prop44ColorRGB
 90
      255
102
RTVSPost2010PropOp44
 70
     1
102
RTVSPost2010Prop45
280
     0
102
RTVSPost2010PropOp45
 70
     1
102
RTVSPost2010Prop46
 90
       50
102
RTVSPost2010PropOp46
 70
     1
102
RTVSPost2010Prop47
 90
       50
102
RTVSPost2010PropOp47
 70
     1
102
RTVSPost2010Prop48
 90
       50
102
RTVSPost2010PropOp48
 70
     1
102
RTVSPost2010Prop49
280
     0
102
RTVSPost2010PropOp49
 70
     1
102
RTVSPost2010Prop50
 90
       50
102
RTVSPost2010PropOp50
 70
     1
102
RTVSPost2010Prop51ColorIndex
 90
      256
102
RTVSPost2010Prop51ColorRGB
 90
-16777216
102
RTVSPost2010PropOp51
 70
     0
102
RTVSPost2010Prop52
140
1.0
102
RTVSPost2010PropOp52
 70
     0
102
RTVSPost2010Prop53
 90
        2
102
RTVSPost2010PropOp53
 70
     1
102
RTVSPost2010Prop54
  1
strokes_ogs.tif
102
RTVSPost2010PropOp54
 70
     1
102
RTVSPost2010Prop55
280
     0
102
RTVSPost2010PropOp55
 70
     1
102
RTVSPost2010Prop56
140
1.0
102
RTVSPost2010PropOp56
 70
     1
102
RTVSPost2010Prop57
140
1.0
102
RTVSPost2010PropOp57
 70
     1
102
RTVSPropertyOp0
 70
     1
102
RTVSPropertyOp1
 70
     1
102
RTVSPropertyOp2
 70
     1
102
RTVSPropertyOp3
 70
     1
102
RTVSPropertyOp4
 70
     1
102
RTVSPropertyOp5
 70
     1
102
RTVSPropertyOp6
 70
     1
102
RTVSPropertyOp7
 70
     1
102
RTVSPropertyOp8
 70
     1
102
RTVSPropertyOp9
 70
     1
102
RTVSPropertyOp10
 70
     1
102
RTVSPropertyOp11
 70
     1
102
RTVSPropertyOp12
 70
     1
102
RTVSPropertyOp13
 70
     1
102
RTVSPropertyOp14
 70
     1
102
RTVSPropertyOp15
 70
     1
102
RTVSPropertyOp16
 70
     1
102
RTVSPropertyOp17
 70
     1
102
RTVSPropertyOp18
 70
     1
102
RTVSPropertyOp19
 70
     1
102
RTVSPropertyOp20
 70
     1
102
RTVSPropertyOp21
 70
     1
102
RTVSPropertyOp22
 70
     1
102
RTVSPropertyOp23
 70
     1
102
RTVSPropertyOp24
 70
     1
102
RTVSPropertyOp25
 70
     1
102
RTVSPropertyOp26
 70
     1
102
RTVSPropertyOp27
 70
     1
102
RTVSPropertyOp28
 70
     1
102
RTVSPropertyOp29
 70
     1
102
RTVSPropertyOp30
 70
     1
102
RTVSPropertyOp31
 70
     1
102
RTVSPropertyOp32
 70
     1
102
RTVSPropertyOp33
 70
     1
102
RTVSPropertyOp34
 70
     1
102
RTVSPropertyOp35
 70
     1
102
RTVSPropertyOp36
 70
     1
102
RTVSPropertyOp37
 70
     1
102
RTVSPropertyOp38
 70
     1
102
RTVSPropertyOp39
 70
     1
102
RTVSPropertyOp40
 70
     1
102
RTVSPropertyOp41
 70
     1
102
RTVSPropertyOp42
 70
     1
102
RTVSPropertyOp43
 70
     1
102
RTVSPropertyOp44
 70
     1
102
RTVSPropertyOp45
 70
     1
102
RTVSPropertyOp46
 70
     1
102
RTVSPropertyOp47
 70
     1
102
RTVSPropertyOp48
 70
     1
102
RTVSPropertyOp49
 70
     1
102
RTVSPropertyOp50
 70
     1
102
RTVSPropertyOp51
 70
     0
102
RTVSPropertyOp52
 70
     0
102
RTVSPropertyOp53
 70
     1
102
RTVSPropertyOp54
 70
     1
102
RTVSPropertyOp55
 70
     1
102
RTVSPropertyOp56
 70
     1
102
RTVSPropertyOp57
 70
     1
102
RTVSPropertyOp58
 70
     1
102
RTVSPropertyOp59
 70
     1
102
RTVSPropertyOp60
 70
     1
102
RTVSPropertyOp61
 70
     1
102
RTVSPropertyOp62
 70
     1
  0
XRECORD
  5
9B2A
102
{ACAD_REACTORS
330
9B29
102
}
330
9B29
100
AcDbXrecord
280
     1
102
RTVSPost2010Prop28
280
     0
102
RTVSPost2010PropOp28
 70
     1
102
RTVSPost2010Prop29
280
     1
102
RTVSPost2010PropOp29
 70
     1
102
RTVSPost2010Prop30
280
     1
102
RTVSPost2010PropOp30
 70
     1
102
RTVSPost2010Prop31
280
     0
102
RTVSPost2010PropOp31
 70
     1
102
RTVSPost2010Prop32
280
     0
102
RTVSPost2010PropOp32
 70
     1
102
RTVSPost2010Prop33
280
     0
102
RTVSPost2010PropOp33
 70
     1
102
RTVSPost2010Prop34
280
     0
102
RTVSPost2010PropOp34
 70
     1
102
RTVSPost2010Prop35
280
     0
102
RTVSPost2010PropOp35
 70
     1
102
RTVSPost2010Prop36
280
     0
102
RTVSPost2010PropOp36
 70
     1
102
RTVSPost2010Prop37
 90
       50
102
RTVSPost2010PropOp37
 70
     1
102
RTVSPost2010Prop38
140
0.0
102
RTVSPost2010PropOp38
 70
     1
102
RTVSPost2010Prop39
140
1.0
102
RTVSPost2010PropOp39
 70
     1
102
RTVSPost2010Prop40
 90
        0
102
RTVSPost2010PropOp40
 70
     1
102
RTVSPost2010Prop41ColorIndex
 90
       18
102
RTVSPost2010Prop41ColorRGB
 90
        0
102
RTVSPost2010PropOp41
 70
     1
102
RTVSPost2010Prop42
 90
       50
102
RTVSPost2010PropOp42
 70
     1
102
RTVSPost2010Prop43
 90
        3
102
RTVSPost2010PropOp43
 70
     1
102
RTVSPost2010Prop44ColorIndex
 90
        5
102
RTVSPost2010Prop44ColorRGB
 90
      255
102
RTVSPost2010PropOp44
 70
     1
102
RTVSPost2010Prop45
280
     0
102
RTVSPost2010PropOp45
 70
     1
102
RTVSPost2010Prop46
 90
       50
102
RTVSPost2010PropOp46
 70
     1
102
RTVSPost2010Prop47
 90
       50
102
RTVSPost2010PropOp47
 70
     1
102
RTVSPost2010Prop48
 90
       50
102
RTVSPost2010PropOp48
 70
     1
102
RTVSPost2010Prop49
280
     0
102
RTVSPost2010PropOp49
 70
     1
102
RTVSPost2010Prop50
 90
       50
102
RTVSPost2010PropOp50
 70
     1
102
RTVSPost2010Prop51ColorIndex
 90
      256
102
RTVSPost2010Prop51ColorRGB
 90
-16777216
102
RTVSPost2010PropOp51
 70
     0
102
RTVSPost2010Prop52
140
1.0
102
RTVSPost2010PropOp52
 70
     0
102
RTVSPost2010Prop53
 90
        2
102
RTVSPost2010PropOp53
 70
     1
102
RTVSPost2010Prop54
  1
strokes_ogs.tif
102
RTVSPost2010PropOp54
 70
     1
102
RTVSPost2010Prop55
280
     0
102
RTVSPost2010PropOp55
 70
     1
102
RTVSPost2010Prop56
140
1.0
102
RTVSPost2010PropOp56
 70
     1
102
RTVSPost2010Prop57
140
1.0
102
RTVSPost2010PropOp57
 70
     1
102
RTVSPropertyOp0
 70
     1
102
RTVSPropertyOp1
 70
     1
102
RTVSPropertyOp2
 70
     1
102
RTVSPropertyOp3
 70
     1
102
RTVSPropertyOp4
 70
     1
102
RTVSPropertyOp5
 70
     1
102
RTVSPropertyOp6
 70
     1
102
RTVSPropertyOp7
 70
     1
102
RTVSPropertyOp8
 70
     1
102
RTVSPropertyOp9
 70
     1
102
RTVSPropertyOp10
 70
     1
102
RTVSPropertyOp11
 70
     1
102
RTVSPropertyOp12
 70
     1
102
RTVSPropertyOp13
 70
     1
102
RTVSPropertyOp14
 70
     1
102
RTVSPropertyOp15
 70
     1
102
RTVSPropertyOp16
 70
     1
102
RTVSPropertyOp17
 70
     1
102
RTVSPropertyOp18
 70
     1
102
RTVSPropertyOp19
 70
     1
102
RTVSPropertyOp20
 70
     1
102
RTVSPropertyOp21
 70
     1
102
RTVSPropertyOp22
 70
     1
102
RTVSPropertyOp23
 70
     1
102
RTVSPropertyOp24
 70
     1
102
RTVSPropertyOp25
 70
     1
102
RTVSPropertyOp26
 70
     1
102
RTVSPropertyOp27
 70
     1
102
RTVSPropertyOp28
 70
     1
102
RTVSPropertyOp29
 70
     1
102
RTVSPropertyOp30
 70
     1
102
RTVSPropertyOp31
 70
     1
102
RTVSPropertyOp32
 70
     1
102
RTVSPropertyOp33
 70
     1
102
RTVSPropertyOp34
 70
     1
102
RTVSPropertyOp35
 70
     1
102
RTVSPropertyOp36
 70
     1
102
RTVSPropertyOp37
 70
     1
102
RTVSPropertyOp38
 70
     1
102
RTVSPropertyOp39
 70
     1
102
RTVSPropertyOp40
 70
     1
102
RTVSPropertyOp41
 70
     1
102
RTVSPropertyOp42
 70
     1
102
RTVSPropertyOp43
 70
     1
102
RTVSPropertyOp44
 70
     1
102
RTVSPropertyOp45
 70
     1
102
RTVSPropertyOp46
 70
     1
102
RTVSPropertyOp47
 70
     1
102
RTVSPropertyOp48
 70
     1
102
RTVSPropertyOp49
 70
     1
102
RTVSPropertyOp50
 70
     1
102
RTVSPropertyOp51
 70
     0
102
RTVSPropertyOp52
 70
     0
102
RTVSPropertyOp53
 70
     1
102
RTVSPropertyOp54
 70
     1
102
RTVSPropertyOp55
 70
     1
102
RTVSPropertyOp56
 70
     1
102
RTVSPropertyOp57
 70
     1
102
RTVSPropertyOp58
 70
     1
102
RTVSPropertyOp59
 70
     1
102
RTVSPropertyOp60
 70
     1
102
RTVSPropertyOp61
 70
     1
102
RTVSPropertyOp62
 70
     1
  0
XRECORD
  5
9B20
102
{ACAD_REACTORS
330
9B1F
102
}
330
9B1F
100
AcDbXrecord
280
     1
102
RTVSPost2010Prop28
280
     0
102
RTVSPost2010PropOp28
 70
     1
102
RTVSPost2010Prop29
280
     1
102
RTVSPost2010PropOp29
 70
     1
102
RTVSPost2010Prop30
280
     1
102
RTVSPost2010PropOp30
 70
     1
102
RTVSPost2010Prop31
280
     0
102
RTVSPost2010PropOp31
 70
     1
102
RTVSPost2010Prop32
280
     0
102
RTVSPost2010PropOp32
 70
     1
102
RTVSPost2010Prop33
280
     0
102
RTVSPost2010PropOp33
 70
     1
102
RTVSPost2010Prop34
280
     0
102
RTVSPost2010PropOp34
 70
     1
102
RTVSPost2010Prop35
280
     0
102
RTVSPost2010PropOp35
 70
     1
102
RTVSPost2010Prop36
280
     0
102
RTVSPost2010PropOp36
 70
     1
102
RTVSPost2010Prop37
 90
       50
102
RTVSPost2010PropOp37
 70
     1
102
RTVSPost2010Prop38
140
0.0
102
RTVSPost2010PropOp38
 70
     1
102
RTVSPost2010Prop39
140
1.0
102
RTVSPost2010PropOp39
 70
     1
102
RTVSPost2010Prop40
 90
        0
102
RTVSPost2010PropOp40
 70
     1
102
RTVSPost2010Prop41ColorIndex
 90
       18
102
RTVSPost2010Prop41ColorRGB
 90
        0
102
RTVSPost2010PropOp41
 70
     1
102
RTVSPost2010Prop42
 90
       50
102
RTVSPost2010PropOp42
 70
     1
102
RTVSPost2010Prop43
 90
        3
102
RTVSPost2010PropOp43
 70
     1
102
RTVSPost2010Prop44ColorIndex
 90
        5
102
RTVSPost2010Prop44ColorRGB
 90
      255
102
RTVSPost2010PropOp44
 70
     1
102
RTVSPost2010Prop45
280
     0
102
RTVSPost2010PropOp45
 70
     1
102
RTVSPost2010Prop46
 90
       50
102
RTVSPost2010PropOp46
 70
     1
102
RTVSPost2010Prop47
 90
       50
102
RTVSPost2010PropOp47
 70
     1
102
RTVSPost2010Prop48
 90
       50
102
RTVSPost2010PropOp48
 70
     1
102
RTVSPost2010Prop49
280
     0
102
RTVSPost2010PropOp49
 70
     1
102
RTVSPost2010Prop50
 90
       50
102
RTVSPost2010PropOp50
 70
     1
102
RTVSPost2010Prop51ColorIndex
 90
      256
102
RTVSPost2010Prop51ColorRGB
 90
-16777216
102
RTVSPost2010PropOp51
 70
     0
102
RTVSPost2010Prop52
140
1.0
102
RTVSPost2010PropOp52
 70
     0
102
RTVSPost2010Prop53
 90
        2
102
RTVSPost2010PropOp53
 70
     1
102
RTVSPost2010Prop54
  1
strokes_ogs.tif
102
RTVSPost2010PropOp54
 70
     1
102
RTVSPost2010Prop55
280
     0
102
RTVSPost2010PropOp55
 70
     1
102
RTVSPost2010Prop56
140
1.0
102
RTVSPost2010PropOp56
 70
     1
102
RTVSPost2010Prop57
140
1.0
102
RTVSPost2010PropOp57
 70
     1
102
RTVSPropertyOp0
 70
     1
102
RTVSPropertyOp1
 70
     1
102
RTVSPropertyOp2
 70
     1
102
RTVSPropertyOp3
 70
     1
102
RTVSPropertyOp4
 70
     1
102
RTVSPropertyOp5
 70
     1
102
RTVSPropertyOp6
 70
     1
102
RTVSPropertyOp7
 70
     1
102
RTVSPropertyOp8
 70
     1
102
RTVSPropertyOp9
 70
     1
102
RTVSPropertyOp10
 70
     1
102
RTVSPropertyOp11
 70
     1
102
RTVSPropertyOp12
 70
     1
102
RTVSPropertyOp13
 70
     1
102
RTVSPropertyOp14
 70
     1
102
RTVSPropertyOp15
 70
     1
102
RTVSPropertyOp16
 70
     1
102
RTVSPropertyOp17
 70
     1
102
RTVSPropertyOp18
 70
     1
102
RTVSPropertyOp19
 70
     1
102
RTVSPropertyOp20
 70
     1
102
RTVSPropertyOp21
 70
     1
102
RTVSPropertyOp22
 70
     1
102
RTVSPropertyOp23
 70
     1
102
RTVSPropertyOp24
 70
     1
102
RTVSPropertyOp25
 70
     1
102
RTVSPropertyOp26
 70
     1
102
RTVSPropertyOp27
 70
     1
102
RTVSPropertyOp28
 70
     1
102
RTVSPropertyOp29
 70
     1
102
RTVSPropertyOp30
 70
     1
102
RTVSPropertyOp31
 70
     1
102
RTVSPropertyOp32
 70
     1
102
RTVSPropertyOp33
 70
     1
102
RTVSPropertyOp34
 70
     1
102
RTVSPropertyOp35
 70
     1
102
RTVSPropertyOp36
 70
     1
102
RTVSPropertyOp37
 70
     1
102
RTVSPropertyOp38
 70
     1
102
RTVSPropertyOp39
 70
     1
102
RTVSPropertyOp40
 70
     1
102
RTVSPropertyOp41
 70
     1
102
RTVSPropertyOp42
 70
     1
102
RTVSPropertyOp43
 70
     1
102
RTVSPropertyOp44
 70
     1
102
RTVSPropertyOp45
 70
     1
102
RTVSPropertyOp46
 70
     1
102
RTVSPropertyOp47
 70
     1
102
RTVSPropertyOp48
 70
     1
102
RTVSPropertyOp49
 70
     1
102
RTVSPropertyOp50
 70
     1
102
RTVSPropertyOp51
 70
     0
102
RTVSPropertyOp52
 70
     0
102
RTVSPropertyOp53
 70
     1
102
RTVSPropertyOp54
 70
     1
102
RTVSPropertyOp55
 70
     1
102
RTVSPropertyOp56
 70
     1
102
RTVSPropertyOp57
 70
     1
102
RTVSPropertyOp58
 70
     1
102
RTVSPropertyOp59
 70
     1
102
RTVSPropertyOp60
 70
     1
102
RTVSPropertyOp61
 70
     1
102
RTVSPropertyOp62
 70
     1
  0
XRECORD
  5
9B14
102
{ACAD_REACTORS
330
9B13
102
}
330
9B13
100
AcDbXrecord
280
     1
102
RTVSPost2010Prop28
280
     0
102
RTVSPost2010PropOp28
 70
     1
102
RTVSPost2010Prop29
280
     1
102
RTVSPost2010PropOp29
 70
     1
102
RTVSPost2010Prop30
280
     1
102
RTVSPost2010PropOp30
 70
     1
102
RTVSPost2010Prop31
280
     0
102
RTVSPost2010PropOp31
 70
     1
102
RTVSPost2010Prop32
280
     0
102
RTVSPost2010PropOp32
 70
     1
102
RTVSPost2010Prop33
280
     0
102
RTVSPost2010PropOp33
 70
     1
102
RTVSPost2010Prop34
280
     0
102
RTVSPost2010PropOp34
 70
     1
102
RTVSPost2010Prop35
280
     0
102
RTVSPost2010PropOp35
 70
     1
102
RTVSPost2010Prop36
280
     0
102
RTVSPost2010PropOp36
 70
     1
102
RTVSPost2010Prop37
 90
       50
102
RTVSPost2010PropOp37
 70
     1
102
RTVSPost2010Prop38
140
0.0
102
RTVSPost2010PropOp38
 70
     1
102
RTVSPost2010Prop39
140
1.0
102
RTVSPost2010PropOp39
 70
     1
102
RTVSPost2010Prop40
 90
        0
102
RTVSPost2010PropOp40
 70
     1
102
RTVSPost2010Prop41ColorIndex
 90
       18
102
RTVSPost2010Prop41ColorRGB
 90
        0
102
RTVSPost2010PropOp41
 70
     1
102
RTVSPost2010Prop42
 90
       50
102
RTVSPost2010PropOp42
 70
     1
102
RTVSPost2010Prop43
 90
        3
102
RTVSPost2010PropOp43
 70
     1
102
RTVSPost2010Prop44ColorIndex
 90
        5
102
RTVSPost2010Prop44ColorRGB
 90
      255
102
RTVSPost2010PropOp44
 70
     1
102
RTVSPost2010Prop45
280
     0
102
RTVSPost2010PropOp45
 70
     1
102
RTVSPost2010Prop46
 90
       50
102
RTVSPost2010PropOp46
 70
     1
102
RTVSPost2010Prop47
 90
       50
102
RTVSPost2010PropOp47
 70
     1
102
RTVSPost2010Prop48
 90
       50
102
RTVSPost2010PropOp48
 70
     1
102
RTVSPost2010Prop49
280
     0
102
RTVSPost2010PropOp49
 70
     1
102
RTVSPost2010Prop50
 90
       50
102
RTVSPost2010PropOp50
 70
     1
102
RTVSPost2010Prop51ColorIndex
 90
      256
102
RTVSPost2010Prop51ColorRGB
 90
-16777216
102
RTVSPost2010PropOp51
 70
     0
102
RTVSPost2010Prop52
140
1.0
102
RTVSPost2010PropOp52
 70
     0
102
RTVSPost2010Prop53
 90
        2
102
RTVSPost2010PropOp53
 70
     1
102
RTVSPost2010Prop54
  1
strokes_ogs.tif
102
RTVSPost2010PropOp54
 70
     1
102
RTVSPost2010Prop55
280
     0
102
RTVSPost2010PropOp55
 70
     1
102
RTVSPost2010Prop56
140
1.0
102
RTVSPost2010PropOp56
 70
     1
102
RTVSPost2010Prop57
140
1.0
102
RTVSPost2010PropOp57
 70
     1
102
RTVSPropertyOp0
 70
     1
102
RTVSPropertyOp1
 70
     1
102
RTVSPropertyOp2
 70
     1
102
RTVSPropertyOp3
 70
     1
102
RTVSPropertyOp4
 70
     1
102
RTVSPropertyOp5
 70
     1
102
RTVSPropertyOp6
 70
     1
102
RTVSPropertyOp7
 70
     1
102
RTVSPropertyOp8
 70
     1
102
RTVSPropertyOp9
 70
     1
102
RTVSPropertyOp10
 70
     1
102
RTVSPropertyOp11
 70
     1
102
RTVSPropertyOp12
 70
     1
102
RTVSPropertyOp13
 70
     1
102
RTVSPropertyOp14
 70
     1
102
RTVSPropertyOp15
 70
     1
102
RTVSPropertyOp16
 70
     1
102
RTVSPropertyOp17
 70
     1
102
RTVSPropertyOp18
 70
     1
102
RTVSPropertyOp19
 70
     1
102
RTVSPropertyOp20
 70
     1
102
RTVSPropertyOp21
 70
     1
102
RTVSPropertyOp22
 70
     1
102
RTVSPropertyOp23
 70
     1
102
RTVSPropertyOp24
 70
     1
102
RTVSPropertyOp25
 70
     1
102
RTVSPropertyOp26
 70
     1
102
RTVSPropertyOp27
 70
     1
102
RTVSPropertyOp28
 70
     1
102
RTVSPropertyOp29
 70
     1
102
RTVSPropertyOp30
 70
     1
102
RTVSPropertyOp31
 70
     1
102
RTVSPropertyOp32
 70
     1
102
RTVSPropertyOp33
 70
     1
102
RTVSPropertyOp34
 70
     1
102
RTVSPropertyOp35
 70
     1
102
RTVSPropertyOp36
 70
     1
102
RTVSPropertyOp37
 70
     1
102
RTVSPropertyOp38
 70
     1
102
RTVSPropertyOp39
 70
     1
102
RTVSPropertyOp40
 70
     1
102
RTVSPropertyOp41
 70
     1
102
RTVSPropertyOp42
 70
     1
102
RTVSPropertyOp43
 70
     1
102
RTVSPropertyOp44
 70
     1
102
RTVSPropertyOp45
 70
     1
102
RTVSPropertyOp46
 70
     1
102
RTVSPropertyOp47
 70
     1
102
RTVSPropertyOp48
 70
     1
102
RTVSPropertyOp49
 70
     1
102
RTVSPropertyOp50
 70
     1
102
RTVSPropertyOp51
 70
     0
102
RTVSPropertyOp52
 70
     0
102
RTVSPropertyOp53
 70
     1
102
RTVSPropertyOp54
 70
     1
102
RTVSPropertyOp55
 70
     1
102
RTVSPropertyOp56
 70
     1
102
RTVSPropertyOp57
 70
     1
102
RTVSPropertyOp58
 70
     1
102
RTVSPropertyOp59
 70
     1
102
RTVSPropertyOp60
 70
     1
102
RTVSPropertyOp61
 70
     1
102
RTVSPropertyOp62
 70
     1
  0
XRECORD
  5
9B2C
102
{ACAD_REACTORS
330
9B2B
102
}
330
9B2B
100
AcDbXrecord
280
     1
102
RTVSPost2010Prop28
280
     0
102
RTVSPost2010PropOp28
 70
     1
102
RTVSPost2010Prop29
280
     1
102
RTVSPost2010PropOp29
 70
     1
102
RTVSPost2010Prop30
280
     1
102
RTVSPost2010PropOp30
 70
     1
102
RTVSPost2010Prop31
280
     0
102
RTVSPost2010PropOp31
 70
     1
102
RTVSPost2010Prop32
280
     0
102
RTVSPost2010PropOp32
 70
     1
102
RTVSPost2010Prop33
280
     0
102
RTVSPost2010PropOp33
 70
     1
102
RTVSPost2010Prop34
280
     0
102
RTVSPost2010PropOp34
 70
     1
102
RTVSPost2010Prop35
280
     0
102
RTVSPost2010PropOp35
 70
     1
102
RTVSPost2010Prop36
280
     0
102
RTVSPost2010PropOp36
 70
     1
102
RTVSPost2010Prop37
 90
       50
102
RTVSPost2010PropOp37
 70
     1
102
RTVSPost2010Prop38
140
0.0
102
RTVSPost2010PropOp38
 70
     1
102
RTVSPost2010Prop39
140
1.0
102
RTVSPost2010PropOp39
 70
     1
102
RTVSPost2010Prop40
 90
        0
102
RTVSPost2010PropOp40
 70
     1
102
RTVSPost2010Prop41ColorIndex
 90
       18
102
RTVSPost2010Prop41ColorRGB
 90
        0
102
RTVSPost2010PropOp41
 70
     1
102
RTVSPost2010Prop42
 90
       50
102
RTVSPost2010PropOp42
 70
     1
102
RTVSPost2010Prop43
 90
        3
102
RTVSPost2010PropOp43
 70
     1
102
RTVSPost2010Prop44ColorIndex
 90
        5
102
RTVSPost2010Prop44ColorRGB
 90
      255
102
RTVSPost2010PropOp44
 70
     1
102
RTVSPost2010Prop45
280
     0
102
RTVSPost2010PropOp45
 70
     1
102
RTVSPost2010Prop46
 90
       50
102
RTVSPost2010PropOp46
 70
     1
102
RTVSPost2010Prop47
 90
       50
102
RTVSPost2010PropOp47
 70
     1
102
RTVSPost2010Prop48
 90
       50
102
RTVSPost2010PropOp48
 70
     1
102
RTVSPost2010Prop49
280
     0
102
RTVSPost2010PropOp49
 70
     1
102
RTVSPost2010Prop50
 90
       50
102
RTVSPost2010PropOp50
 70
     1
102
RTVSPost2010Prop51ColorIndex
 90
      256
102
RTVSPost2010Prop51ColorRGB
 90
-16777216
102
RTVSPost2010PropOp51
 70
     0
102
RTVSPost2010Prop52
140
1.0
102
RTVSPost2010PropOp52
 70
     0
102
RTVSPost2010Prop53
 90
        2
102
RTVSPost2010PropOp53
 70
     1
102
RTVSPost2010Prop54
  1
strokes_ogs.tif
102
RTVSPost2010PropOp54
 70
     1
102
RTVSPost2010Prop55
280
     0
102
RTVSPost2010PropOp55
 70
     1
102
RTVSPost2010Prop56
140
1.0
102
RTVSPost2010PropOp56
 70
     1
102
RTVSPost2010Prop57
140
1.0
102
RTVSPost2010PropOp57
 70
     1
102
RTVSPropertyOp0
 70
     1
102
RTVSPropertyOp1
 70
     1
102
RTVSPropertyOp2
 70
     1
102
RTVSPropertyOp3
 70
     1
102
RTVSPropertyOp4
 70
     1
102
RTVSPropertyOp5
 70
     1
102
RTVSPropertyOp6
 70
     1
102
RTVSPropertyOp7
 70
     1
102
RTVSPropertyOp8
 70
     1
102
RTVSPropertyOp9
 70
     1
102
RTVSPropertyOp10
 70
     1
102
RTVSPropertyOp11
 70
     1
102
RTVSPropertyOp12
 70
     1
102
RTVSPropertyOp13
 70
     1
102
RTVSPropertyOp14
 70
     1
102
RTVSPropertyOp15
 70
     1
102
RTVSPropertyOp16
 70
     1
102
RTVSPropertyOp17
 70
     1
102
RTVSPropertyOp18
 70
     1
102
RTVSPropertyOp19
 70
     1
102
RTVSPropertyOp20
 70
     1
102
RTVSPropertyOp21
 70
     1
102
RTVSPropertyOp22
 70
     1
102
RTVSPropertyOp23
 70
     1
102
RTVSPropertyOp24
 70
     1
102
RTVSPropertyOp25
 70
     1
102
RTVSPropertyOp26
 70
     1
102
RTVSPropertyOp27
 70
     1
102
RTVSPropertyOp28
 70
     1
102
RTVSPropertyOp29
 70
     1
102
RTVSPropertyOp30
 70
     1
102
RTVSPropertyOp31
 70
     1
102
RTVSPropertyOp32
 70
     1
102
RTVSPropertyOp33
 70
     1
102
RTVSPropertyOp34
 70
     1
102
RTVSPropertyOp35
 70
     1
102
RTVSPropertyOp36
 70
     1
102
RTVSPropertyOp37
 70
     1
102
RTVSPropertyOp38
 70
     1
102
RTVSPropertyOp39
 70
     1
102
RTVSPropertyOp40
 70
     1
102
RTVSPropertyOp41
 70
     1
102
RTVSPropertyOp42
 70
     1
102
RTVSPropertyOp43
 70
     1
102
RTVSPropertyOp44
 70
     1
102
RTVSPropertyOp45
 70
     1
102
RTVSPropertyOp46
 70
     1
102
RTVSPropertyOp47
 70
     1
102
RTVSPropertyOp48
 70
     1
102
RTVSPropertyOp49
 70
     1
102
RTVSPropertyOp50
 70
     1
102
RTVSPropertyOp51
 70
     0
102
RTVSPropertyOp52
 70
     0
102
RTVSPropertyOp53
 70
     1
102
RTVSPropertyOp54
 70
     1
102
RTVSPropertyOp55
 70
     1
102
RTVSPropertyOp56
 70
     1
102
RTVSPropertyOp57
 70
     1
102
RTVSPropertyOp58
 70
     1
102
RTVSPropertyOp59
 70
     1
102
RTVSPropertyOp60
 70
     1
102
RTVSPropertyOp61
 70
     1
102
RTVSPropertyOp62
 70
     1
  0
ENDSEC
  0
EOF
