  0
SECTION
  2
HEADER
  9
$ACADVER
  1
AC1015
  9
$ACADMAINTVER
 70
    20
  9
$DWGCODEPAGE
  3
ANSI_932
  9
$INSBASE
 10
0.0
 20
0.0
 30
0.0
  9
$EXTMIN
 10
9.999999064246615
 20
9.999999806846744
 30
0.0
  9
$EXTMAX
 10
284.0653469949182
 20
220.3071992724175
 30
0.0
  9
$LIMMIN
 10
0.0000015376081137
 20
-0.0000001931532552
  9
$LIMMAX
 10
396.0000015376081
 20
272.9999998068465
  9
$ORTHOMODE
 70
     0
  9
$REGENMODE
 70
     1
  9
$FILLMODE
 70
     1
  9
$QTEXTMODE
 70
     0
  9
$MIRRTEXT
 70
     1
  9
$LTSCALE
 40
1.0
  9
$ATTMODE
 70
     1
  9
$TEXTSIZE
 40
2.5
  9
$TRACEWID
 40
1.0
  9
$TEXTSTYLE
  7
STANDARD
  9
$CLAYER
  8
0
  9
$CELTYPE
  6
ByLayer
  9
$CECOLOR
 62
   256
  9
$CELTSCALE
 40
1.0
  9
$DISPSILH
 70
     0
  9
$DIMSCALE
 40
1.0
  9
$DIMASZ
 40
3.0
  9
$DIMEXO
 40
1.0
  9
$DIMDLI
 40
10.0
  9
$DIMRND
 40
0.0
  9
$DIMDLE
 40
0.0
  9
$DIMEXE
 40
1.0
  9
$DIMTP
 40
0.0
  9
$DIMTM
 40
0.0
  9
$DIMTXT
 40
3.2
  9
$DIMCEN
 40
0.0
  9
$DIMTSZ
 40
0.0
  9
$DIMTOL
 70
     0
  9
$DIMLIM
 70
     0
  9
$DIMTIH
 70
     0
  9
$DIMTOH
 70
     0
  9
$DIMSE1
 70
     0
  9
$DIMSE2
 70
     0
  9
$DIMTAD
 70
     3
  9
$DIMZIN
 70
     8
  9
$DIMBLK
  1

  9
$DIMASO
 70
     1
  9
$DIMSHO
 70
     1
  9
$DIMPOST
  1

  9
$DIMAPOST
  1

  9
$DIMALT
 70
     0
  9
$DIMALTD
 70
     2
  9
$DIMALTF
 40
25.4
  9
$DIMLFAC
 40
1.0
  9
$DIMTOFL
 70
     1
  9
$DIMTVP
 40
0.0
  9
$DIMTIX
 70
     0
  9
$DIMSOXD
 70
     0
  9
$DIMSAH
 70
     1
  9
$DIMBLK1
  1
OPEN
  9
$DIMBLK2
  1
OPEN
  9
$DIMSTYLE
  2
STANDARD
  9
$DIMCLRD
 70
     0
  9
$DIMCLRE
 70
     0
  9
$DIMCLRT
 70
     0
  9
$DIMTFAC
 40
1.0
  9
$DIMGAP
 40
1.0
  9
$DIMJUST
 70
     0
  9
$DIMSD1
 70
     0
  9
$DIMSD2
 70
     0
  9
$DIMTOLJ
 70
     1
  9
$DIMTZIN
 70
     0
  9
$DIMALTZ
 70
     0
  9
$DIMALTTZ
 70
     0
  9
$DIMUPT
 70
     0
  9
$DIMDEC
 70
     4
  9
$DIMTDEC
 70
     4
  9
$DIMALTU
 70
     2
  9
$DIMALTTD
 70
     2
  9
$DIMTXSTY
  7
STANDARD
  9
$DIMAUNIT
 70
     0
  9
$DIMADEC
 70
     0
  9
$DIMALTRND
 40
0.0
  9
$DIMAZIN
 70
     0
  9
$DIMDSEP
 70
    46
  9
$DIMATFIT
 70
     3
  9
$DIMFRAC
 70
     0
  9
$DIMLDRBLK
  1
OPEN
  9
$DIMLUNIT
 70
     2
  9
$DIMLWD
 70
    -2
  9
$DIMLWE
 70
    -2
  9
$DIMTMOVE
 70
     0
  9
$LUNITS
 70
     2
  9
$LUPREC
 70
     4
  9
$SKETCHINC
 40
1.0
  9
$FILLETRAD
 40
10.0
  9
$AUNITS
 70
     0
  9
$AUPREC
 70
     0
  9
$MENU
  1
.
  9
$ELEVATION
 40
0.0
  9
$PELEVATION
 40
0.0
  9
$THICKNESS
 40
0.0
  9
$LIMCHECK
 70
     0
  9
$CHAMFERA
 40
10.0
  9
$CHAMFERB
 40
10.0
  9
$CHAMFERC
 40
0.0
  9
$CHAMFERD
 40
0.0
  9
$SKPOLY
 70
     0
  9
$TDCREATE
 40
2456276.613031620
  9
$TDUCREATE
 40
2456276.238031620
  9
$TDUPDATE
 40
2457192.616821655
  9
$TDUUPDATE
 40
2457192.241821655
  9
$TDINDWG
 40
0.0011518403
  9
$TDUSRTIMER
 40
0.0011518403
  9
$USRTIMER
 70
     1
  9
$ANGBASE
 50
0.0
  9
$ANGDIR
 70
     0
  9
$PDMODE
 70
     0
  9
$PDSIZE
 40
0.0
  9
$PLINEWID
 40
0.0
  9
$SPLFRAME
 70
     0
  9
$SPLINETYPE
 70
     6
  9
$SPLINESEGS
 70
     8
  9
$HANDSEED
  5
514
  9
$SURFTAB1
 70
     6
  9
$SURFTAB2
 70
     6
  9
$SURFTYPE
 70
     6
  9
$SURFU
 70
     6
  9
$SURFV
 70
     6
  9
$UCSBASE
  2

  9
$UCSNAME
  2

  9
$UCSORG
 10
0.0
 20
0.0
 30
0.0
  9
$UCSXDIR
 10
1.0
 20
0.0
 30
0.0
  9
$UCSYDIR
 10
0.0
 20
1.0
 30
0.0
  9
$UCSORTHOREF
  2

  9
$UCSORTHOVIEW
 70
     0
  9
$UCSORGTOP
 10
0.0
 20
0.0
 30
0.0
  9
$UCSORGBOTTOM
 10
0.0
 20
0.0
 30
0.0
  9
$UCSORGLEFT
 10
0.0
 20
0.0
 30
0.0
  9
$UCSORGRIGHT
 10
0.0
 20
0.0
 30
0.0
  9
$UCSORGFRONT
 10
0.0
 20
0.0
 30
0.0
  9
$UCSORGBACK
 10
0.0
 20
0.0
 30
0.0
  9
$PUCSBASE
  2

  9
$PUCSNAME
  2

  9
$PUCSORG
 10
0.0
 20
0.0
 30
0.0
  9
$PUCSXDIR
 10
1.0
 20
0.0
 30
0.0
  9
$PUCSYDIR
 10
0.0
 20
1.0
 30
0.0
  9
$PUCSORTHOREF
  2

  9
$PUCSORTHOVIEW
 70
     0
  9
$PUCSORGTOP
 10
0.0
 20
0.0
 30
0.0
  9
$PUCSORGBOTTOM
 10
0.0
 20
0.0
 30
0.0
  9
$PUCSORGLEFT
 10
0.0
 20
0.0
 30
0.0
  9
$PUCSORGRIGHT
 10
0.0
 20
0.0
 30
0.0
  9
$PUCSORGFRONT
 10
0.0
 20
0.0
 30
0.0
  9
$PUCSORGBACK
 10
0.0
 20
0.0
 30
0.0
  9
$USERI1
 70
     0
  9
$USERI2
 70
     0
  9
$USERI3
 70
     0
  9
$USERI4
 70
     0
  9
$USERI5
 70
     0
  9
$USERR1
 40
0.0
  9
$USERR2
 40
0.0
  9
$USERR3
 40
0.0
  9
$USERR4
 40
0.0
  9
$USERR5
 40
0.0
  9
$WORLDVIEW
 70
     1
  9
$SHADEDGE
 70
     3
  9
$SHADEDIF
 70
    70
  9
$TILEMODE
 70
     1
  9
$MAXACTVP
 70
    48
  9
$PINSBASE
 10
0.0
 20
0.0
 30
0.0
  9
$PLIMCHECK
 70
     0
  9
$PEXTMIN
 10
1.000000000000000E+20
 20
1.000000000000000E+20
 30
1.000000000000000E+20
  9
$PEXTMAX
 10
-1.000000000000000E+20
 20
-1.000000000000000E+20
 30
-1.000000000000000E+20
  9
$PLIMMIN
 10
0.0
 20
0.0
  9
$PLIMMAX
 10
420.0
 20
297.0
  9
$UNITMODE
 70
     0
  9
$VISRETAIN
 70
     1
  9
$PLINEGEN
 70
     0
  9
$PSLTSCALE
 70
     1
  9
$TREEDEPTH
 70
  3020
  9
$CMLSTYLE
  2
Standard
  9
$CMLJUST
 70
     0
  9
$CMLSCALE
 40
1.0
  9
$PROXYGRAPHICS
 70
     1
  9
$MEASUREMENT
 70
     0
  9
$CELWEIGHT
370
    -1
  9
$ENDCAPS
280
     0
  9
$JOINSTYLE
280
     0
  9
$LWDISPLAY
290
     0
  9
$INSUNITS
 70
     0
  9
$HYPERLINKBASE
  1

  9
$STYLESHEET
  1

  9
$XEDIT
290
     1
  9
$CEPSNTYPE
380
     0
  9
$PSTYLEMODE
290
     1
  9
$FINGERPRINTGUID
  2
{50C1845C-A319-4756-A7EB-873D0A7E0129}
  9
$VERSIONGUID
  2
{3E06F6DE-B2B8-4F6F-BB5E-B076E1438BE5}
  9
$EXTNAMES
290
     1
  9
$PSVPSCALE
 40
0.0
  9
$OLESTARTUP
290
     0
  0
ENDSEC
  0
SECTION
  2
CLASSES
  0
CLASS
  1
ACDBDICTIONARYWDFLT
  2
AcDbDictionaryWithDefault
  3
ObjectDBX Classes
 90
        0
280
     0
281
     0
  0
CLASS
  1
MATERIAL
  2
AcDbMaterial
  3
ObjectDBX Classes
 90
     1153
280
     0
281
     0
  0
CLASS
  1
VISUALSTYLE
  2
AcDbVisualStyle
  3
ObjectDBX Classes
 90
     4095
280
     0
281
     0
  0
CLASS
  1
SCALE
  2
AcDbScale
  3
ObjectDBX Classes
 90
     1153
280
     0
281
     0
  0
CLASS
  1
TABLESTYLE
  2
AcDbTableStyle
  3
ObjectDBX Classes
 90
     4095
280
     0
281
     0
  0
CLASS
  1
MLEADERSTYLE
  2
AcDbMLeaderStyle
  3
ACDB_MLEADERSTYLE_CLASS
 90
     4095
280
     0
281
     0
  0
CLASS
  1
ACDBSECTIONVIEWSTYLE
  2
AcDbSectionViewStyle
  3
ObjectDBX Classes
 90
     1025
280
     0
281
     0
  0
CLASS
  1
ACDBDETAILVIEWSTYLE
  2
AcDbDetailViewStyle
  3
ObjectDBX Classes
 90
     1025
280
     0
281
     0
  0
CLASS
  1
DICTIONARYVAR
  2
AcDbDictionaryVar
  3
ObjectDBX Classes
 90
        0
280
     0
281
     0
  0
CLASS
  1
CELLSTYLEMAP
  2
AcDbCellStyleMap
  3
ObjectDBX Classes
 90
     1152
280
     0
281
     0
  0
CLASS
  1
ACDBPLACEHOLDER
  2
AcDbPlaceHolder
  3
ObjectDBX Classes
 90
        0
280
     0
281
     0
  0
CLASS
  1
LAYOUT
  2
AcDbLayout
  3
ObjectDBX Classes
 90
        0
280
     0
281
     0
  0
ENDSEC
  0
SECTION
  2
TABLES
  0
TABLE
  2
VPORT
  5
437
330
0
100
AcDbSymbolTable
 70
     1
  0
VPORT
  5
4A2
330
437
100
AcDbSymbolTableRecord
100
AcDbViewportTableRecord
  2
*ACTIVE
 70
     0
 10
0.0
 20
0.0
 11
1.0
 21
1.0
 12
234.1476613384667
 22
115.1510471705505
 13
0.0
 23
0.0
 14
10.0
 24
10.0
 15
10.0
 25
10.0
 16
0.0
 26
0.0
 36
1.0
 17
0.0
 27
0.0
 37
0.0
 40
211.9512909336822
 41
1.899603698811096
 42
50.0
 43
0.0
 44
0.0
 50
0.0
 51
0.0
 71
     0
 72
   100
 73
     1
 74
     0
 75
     0
 76
     0
 77
     0
 78
     0
281
     0
 65
     1
110
0.0
120
0.0
130
0.0
111
1.0
121
0.0
131
0.0
112
0.0
122
1.0
132
0.0
 79
     0
146
0.0
1001
ACAD_NAV_VCDISPLAY
1070
     3
  0
ENDTAB
  0
TABLE
  2
LTYPE
  5
434
330
0
100
AcDbSymbolTable
 70
     4
  0
LTYPE
  5
489
330
434
100
AcDbSymbolTableRecord
100
AcDbLinetypeTableRecord
  2
ByBlock
 70
     0
  3

 72
    65
 73
     0
 40
0.0
  0
LTYPE
  5
48A
330
434
100
AcDbSymbolTableRecord
100
AcDbLinetypeTableRecord
  2
ByLayer
 70
     0
  3

 72
    65
 73
     0
 40
0.0
  0
LTYPE
  5
48B
330
434
100
AcDbSymbolTableRecord
100
AcDbLinetypeTableRecord
  2
CONTINUOUS
 70
     0
  3
Solid line
 72
    65
 73
     0
 40
0.0
  0
LTYPE
  5
4A3
330
434
100
AcDbSymbolTableRecord
100
AcDbLinetypeTableRecord
  2
DASHED
 70
     0
  3
Dashed __ __ __ __ __ __ __ __ __ __ __ __ __ _
 72
    65
 73
     2
 40
19.04999999999999
 49
12.7
 74
     0
 49
-6.349999999999998
 74
     0
  0
LTYPE
  5
4A4
330
434
100
AcDbSymbolTableRecord
100
AcDbLinetypeTableRecord
  2
CENTER
 70
     0
  3
Center ____ _ ____ _ ____ _ ____ _ ____ _ ____
 72
    65
 73
     4
 40
50.8
 49
31.75
 74
     0
 49
-6.349999999999998
 74
     0
 49
6.349999999999998
 74
     0
 49
-6.349999999999998
 74
     0
  0
LTYPE
  5
4A5
330
434
100
AcDbSymbolTableRecord
100
AcDbLinetypeTableRecord
  2
PHANTOM
 70
     0
  3
Phantom ______  __  __  ______  __  __  ______
 72
    65
 73
     6
 40
63.5
 49
31.75
 74
     0
 49
-6.349999999999998
 74
     0
 49
6.349999999999998
 74
     0
 49
-6.349999999999998
 74
     0
 49
6.349999999999998
 74
     0
 49
-6.349999999999998
 74
     0
  0
ENDTAB
  0
TABLE
  2
LAYER
  5
431
330
0
100
AcDbSymbolTable
 70
     8
  0
LAYER
  5
483
102
{ACAD_XDICTIONARY
360
4B8
102
}
330
431
100
AcDbSymbolTableRecord
100
AcDbLayerTableRecord
  2
0
 70
     0
 62
     7
  6
CONTINUOUS
370
    -3
390
43E
  0
LAYER
  5
4A6
102
{ACAD_XDICTIONARY
360
4BA
102
}
330
431
100
AcDbSymbolTableRecord
100
AcDbLayerTableRecord
  2
4
 70
     0
 62
     1
  6
CENTER
370
    -3
390
43E
  0
LAYER
  5
4A7
102
{ACAD_XDICTIONARY
360
4BC
102
}
330
431
100
AcDbSymbolTableRecord
100
AcDbLayerTableRecord
  2
5
 70
     0
 62
     6
  6
PHANTOM
370
    -3
390
43E
  0
LAYER
  5
4A8
102
{ACAD_XDICTIONARY
360
4BE
102
}
330
431
100
AcDbSymbolTableRecord
100
AcDbLayerTableRecord
  2
1
 70
     0
 62
     7
  6
CONTINUOUS
370
    -3
390
43E
  0
LAYER
  5
4A9
102
{ACAD_XDICTIONARY
360
4C0
102
}
330
431
100
AcDbSymbolTableRecord
100
AcDbLayerTableRecord
  2
2
 70
     0
 62
     4
  6
CONTINUOUS
370
    -3
390
43E
  0
LAYER
  5
4AA
102
{ACAD_XDICTIONARY
360
4C2
102
}
330
431
100
AcDbSymbolTableRecord
100
AcDbLayerTableRecord
  2
3
 70
     0
 62
     2
  6
DASHED
370
    -3
390
43E
  0
LAYER
  5
4AB
102
{ACAD_XDICTIONARY
360
4C4
102
}
330
431
100
AcDbSymbolTableRecord
100
AcDbLayerTableRecord
  2
6
 70
     0
 62
     5
  6
CONTINUOUS
370
    -3
390
43E
  0
LAYER
  5
4AC
102
{ACAD_XDICTIONARY
360
4C6
102
}
330
431
100
AcDbSymbolTableRecord
100
AcDbLayerTableRecord
  2
7
 70
     0
 62
     3
  6
CONTINUOUS
370
    -3
390
43E
  0
ENDTAB
  0
TABLE
  2
STYLE
  5
432
330
0
100
AcDbSymbolTable
 70
     2
  0
STYLE
  5
484
330
432
100
AcDbSymbolTableRecord
100
AcDbTextStyleTableRecord
  2
STANDARD
 70
     0
 40
0.0
 41
1.0
 50
0.0
 71
     0
 42
2.5
  3
simplex.shx
  4

  0
STYLE
  5
488
330
432
100
AcDbSymbolTableRecord
100
AcDbTextStyleTableRecord
  2
Annotative
 70
     0
 40
0.0
 41
1.0
 50
0.0
 71
     0
 42
0.2
  3
txt
  4

1001
AcadAnnotative
1000
AnnotativeData
1002
{
1070
     1
1070
     1
1002
}
  0
ENDTAB
  0
TABLE
  2
VIEW
  5
435
330
0
100
AcDbSymbolTable
 70
     0
  0
ENDTAB
  0
TABLE
  2
UCS
  5
436
330
0
100
AcDbSymbolTable
 70
     0
  0
ENDTAB
  0
TABLE
  2
APPID
  5
438
330
0
100
AcDbSymbolTable
 70
     6
  0
APPID
  5
485
330
438
100
AcDbSymbolTableRecord
100
AcDbRegAppTableRecord
  2
ACAD
 70
     0
  0
APPID
  5
48C
330
438
100
AcDbSymbolTableRecord
100
AcDbRegAppTableRecord
  2
AcadAnnotative
 70
     0
  0
APPID
  5
4AD
330
438
100
AcDbSymbolTableRecord
100
AcDbRegAppTableRecord
  2
CONTENTTABDATA
 70
     0
  0
APPID
  5
4AE
330
438
100
AcDbSymbolTableRecord
100
AcDbRegAppTableRecord
  2
CONTENTCURRENTTAB
 70
     0
  0
APPID
  5
4D2
330
438
100
AcDbSymbolTableRecord
100
AcDbRegAppTableRecord
  2
ACAD_NAV_VCDISPLAY
 70
     0
  0
APPID
  5
50B
330
438
100
AcDbSymbolTableRecord
100
AcDbRegAppTableRecord
  2
ACAD_MLEADERVER
 70
     0
  0
ENDTAB
  0
TABLE
  2
DIMSTYLE
  5
439
330
0
100
AcDbSymbolTable
 70
     2
100
AcDbDimStyleTable
 71
     0
  0
DIMSTYLE
105
486
330
439
100
AcDbSymbolTableRecord
100
AcDbDimStyleTableRecord
  2
STANDARD
 70
     0
 41
3.0
 42
1.0
 43
10.0
 44
1.0
 73
     0
 74
     0
 77
     3
 78
     8
140
3.2
141
0.0
147
1.0
172
     1
173
     1
279
     2
284
     8
285
     8
286
     8
340
484
  0
DIMSTYLE
105
487
330
439
100
AcDbSymbolTableRecord
100
AcDbDimStyleTableRecord
  2
Annotative
 70
     0
340
484
1001
AcadAnnotative
1000
AnnotativeData
1002
{
1070
     1
1070
     1
1002
}
  0
ENDTAB
  0
TABLE
  2
BLOCK_RECORD
  5
430
330
0
100
AcDbSymbolTable
 70
     3
  0
BLOCK_RECORD
  5
49E
330
430
100
AcDbSymbolTableRecord
100
AcDbBlockTableRecord
  2
*Model_Space
340
4A1
  0
BLOCK_RECORD
  5
49A
330
430
100
AcDbSymbolTableRecord
100
AcDbBlockTableRecord
  2
*Paper_Space
340
49D
  0
BLOCK_RECORD
  5
4B1
330
430
100
AcDbSymbolTableRecord
100
AcDbBlockTableRecord
  2
$MODEL_SPACE
340
0
  0
BLOCK_RECORD
  5
4B3
330
430
100
AcDbSymbolTableRecord
100
AcDbBlockTableRecord
  2
$PAPER_SPACE
340
0
  0
BLOCK_RECORD
  5
4B5
330
430
100
AcDbSymbolTableRecord
100
AcDbBlockTableRecord
  2
_OPEN
340
0
  0
ENDTAB
  0
ENDSEC
  0
SECTION
  2
BLOCKS
  0
BLOCK
  5
49F
330
49E
100
AcDbEntity
  8
0
100
AcDbBlockBegin
  2
*Model_Space
 70
     0
 10
0.0
 20
0.0
 30
0.0
  3
*Model_Space
  1

  0
ENDBLK
  5
4A0
330
49E
100
AcDbEntity
  8
0
100
AcDbBlockEnd
  0
BLOCK
  5
49B
330
49A
100
AcDbEntity
 67
     1
  8
0
100
AcDbBlockBegin
  2
*Paper_Space
 70
     0
 10
0.0
 20
0.0
 30
0.0
  3
*Paper_Space
  1

  0
ENDBLK
  5
49C
330
49A
100
AcDbEntity
 67
     1
  8
0
100
AcDbBlockEnd
  0
BLOCK
  5
4B2
330
4B1
100
AcDbEntity
  8
0
100
AcDbBlockBegin
  2
$MODEL_SPACE
 70
     0
 10
0.0
 20
0.0
 30
0.0
  3
$MODEL_SPACE
  1

  0
ENDBLK
  5
1A
330
4B1
100
AcDbEntity
  8
0
100
AcDbBlockEnd
  0
BLOCK
  5
4B4
330
4B3
100
AcDbEntity
  8
0
100
AcDbBlockBegin
  2
$PAPER_SPACE
 70
     0
 10
0.0
 20
0.0
 30
0.0
  3
$PAPER_SPACE
  1

  0
ENDBLK
  5
17
330
4B3
100
AcDbEntity
  8
0
100
AcDbBlockEnd
  0
BLOCK
  5
4B6
330
4B5
100
AcDbEntity
  8
0
100
AcDbBlockBegin
  2
_OPEN
 70
     0
 10
0.0
 20
0.0
 30
0.0
  3
_OPEN
  1

  0
LINE
  5
30
330
4B5
100
AcDbEntity
  8
0
  6
ByBlock
 62
     0
100
AcDbLine
 10
-1.0
 20
0.1666666666666666
 30
0.0
 11
0.0
 21
0.0
 31
0.0
  0
LINE
  5
31
330
4B5
100
AcDbEntity
  8
0
  6
ByBlock
 62
     0
100
AcDbLine
 10
0.0
 20
0.0
 30
0.0
 11
-1.0
 21
-0.1666666666666666
 31
0.0
  0
LINE
  5
32
330
4B5
100
AcDbEntity
  8
0
  6
ByBlock
 62
     0
100
AcDbLine
 10
0.0
 20
0.0
 30
0.0
 11
-1.0
 21
0.0
 31
0.0
  0
ENDBLK
  5
33
330
4B5
100
AcDbEntity
  8
0
100
AcDbBlockEnd
  0
ENDSEC
  0
SECTION
  2
ENTITIES
  0
LINE
  5
25D
330
49E
100
AcDbEntity
  8
1
  6
Continuous
100
AcDbLine
 10
192.1742010783359
 20
150.1319332287115
 30
0.0
 11
192.1742010783359
 21
126.8819332287151
 31
0.0
  0
LINE
  5
25E
330
49E
100
AcDbEntity
  8
1
  6
Continuous
100
AcDbLine
 10
192.6742010783336
 20
149.3819332287151
 30
0.0
 11
192.6742010783336
 21
88.88193322871499
 31
0.0
  0
LINE
  5
25F
330
49E
100
AcDbEntity
  8
1
  6
Continuous
100
AcDbLine
 10
194.6742010783339
 20
88.88193322871499
 30
0.0
 11
194.6742010783339
 21
163.881933228715
 31
0.0
  0
LINE
  5
260
330
49E
100
AcDbEntity
  8
4
  6
CENTER
100
AcDbLine
 10
190.1742010783491
 20
84.88193322871509
 30
0.0
 11
190.1742010783491
 21
166.881933228715
 31
0.0
  0
LINE
  5
261
330
49E
100
AcDbEntity
  8
3
  6
DASHED
100
AcDbLine
 10
187.6742010783489
 20
163.8819332287151
 30
0.0
 11
187.6742010783489
 21
88.8819332287151
 31
0.0
  0
LINE
  5
262
330
49E
100
AcDbEntity
  8
1
  6
Continuous
100
AcDbLine
 10
185.6742010783491
 20
126.881933228715
 30
0.0
 11
185.6742010783491
 21
163.881933228715
 31
0.0
  0
LINE
  5
263
330
49E
100
AcDbEntity
  8
4
  6
CENTER
100
AcDbLine
 10
42.39190924521068
 20
84.88193322871509
 30
0.0
 11
42.39190924521068
 21
166.881933228715
 31
0.0
  0
LINE
  5
264
330
49E
100
AcDbEntity
  8
3
  6
DASHED
100
AcDbLine
 10
44.89190924521079
 20
163.8819332287151
 30
0.0
 11
44.89190924521079
 21
88.8819332287151
 31
0.0
  0
LINE
  5
265
330
49E
100
AcDbEntity
  8
1
  6
Continuous
100
AcDbLine
 10
46.89190924521071
 20
126.881933228715
 30
0.0
 11
46.89190924521067
 21
163.881933228715
 31
0.0
  0
LINE
  5
266
330
49E
100
AcDbEntity
  8
1
  6
Continuous
100
AcDbLine
 10
39.89190924536382
 20
163.881933228715
 30
0.0
 11
39.89190924512132
 21
88.88193322871513
 31
0.0
  0
LINE
  5
267
330
49E
100
AcDbEntity
  8
1
  6
Continuous
100
AcDbLine
 10
37.89190924520196
 20
88.88193322871513
 30
0.0
 11
37.89190924522594
 21
163.881933228715
 31
0.0
  0
LINE
  5
268
330
49E
100
AcDbEntity
  8
1
  6
Continuous
100
AcDbLine
 10
136.2830551617799
 20
161.881933228715
 30
0.0
 11
136.2830551617799
 21
90.88193322871513
 31
0.0
  0
LINE
  5
269
330
49E
100
AcDbEntity
  8
1
  6
Continuous
100
AcDbLine
 10
96.28305516177997
 20
161.881933228715
 30
0.0
 11
96.28305516177997
 21
90.88193322871513
 31
0.0
  0
LINE
  5
26A
330
49E
100
AcDbEntity
  8
1
  6
Continuous
100
AcDbLine
 10
120.7830551617798
 20
163.881933228715
 30
0.0
 11
120.7830551617798
 21
126.881933228715
 31
0.0
  0
LINE
  5
26B
330
49E
100
AcDbEntity
  8
1
  6
Continuous
100
AcDbLine
 10
111.7830551617799
 20
163.881933228715
 30
0.0
 11
111.7830551617799
 21
126.881933228715
 31
0.0
  0
LINE
  5
26C
330
49E
100
AcDbEntity
  8
1
  6
Continuous
100
AcDbLine
 10
110.7830551617799
 20
162.8819332287151
 30
0.0
 11
110.7830551617799
 21
126.881933228715
 31
0.0
  0
LINE
  5
26D
330
49E
100
AcDbEntity
  8
3
  6
DASHED
100
AcDbLine
 10
113.78305516178
 20
163.8819332287151
 30
0.0
 11
113.78305516178
 21
88.8819332287151
 31
0.0
  0
LINE
  5
26E
330
49E
100
AcDbEntity
  8
3
  6
DASHED
100
AcDbLine
 10
118.78305516178
 20
163.8819332287151
 30
0.0
 11
118.78305516178
 21
88.8819332287151
 31
0.0
  0
LINE
  5
26F
330
49E
100
AcDbEntity
  8
4
  6
CENTER
100
AcDbLine
 10
116.2830551617799
 20
84.88193322871509
 30
0.0
 11
116.2830551617799
 21
166.881933228715
 31
0.0
  0
TEXT
  5
270
330
49E
100
AcDbEntity
  8
1
  6
Continuous
100
AcDbText
 10
9.999999064246617
 20
10.00000056761563
 30
0.0
 40
1.399999999999999
  1
LAYER
100
AcDbText
  0
TEXT
  5
271
330
49E
100
AcDbEntity
  8
7
  6
Continuous
100
AcDbText
 10
9.999999064246617
 20
18.00000056761563
 30
0.0
 40
3.0
  1
TYPE No.TH-159-1L
100
AcDbText
  0
TEXT
  5
272
330
49E
100
AcDbEntity
  8
7
  6
Continuous
100
AcDbText
 10
9.999999064246617
 20
26.00000056761564
 30
0.0
 40
3.0
  1
CODE No.2782
100
AcDbText
  0
TEXT
  5
273
330
49E
100
AcDbEntity
  8
2
  6
Continuous
100
AcDbText
 10
19.97951006424661
 20
9.999999806846744
 30
0.0
 40
1.399999999999999
  1
2
100
AcDbText
  0
TEXT
  5
274
330
49E
100
AcDbEntity
  8
1
  6
Continuous
100
AcDbText
 10
17.97951006424661
 20
9.999999806846744
 30
0.0
 40
1.399999999999999
  1
1
100
AcDbText
  0
TEXT
  5
275
330
49E
100
AcDbEntity
  8
3
  6
DASHED
100
AcDbText
 10
21.97951006424661
 20
9.999999806846744
 30
0.0
 40
1.399999999999999
  1
3
100
AcDbText
  0
TEXT
  5
276
330
49E
100
AcDbEntity
  8
5
  6
PHANTOM
100
AcDbText
 10
25.97951006424661
 20
9.999999806846744
 30
0.0
 40
1.399999999999999
  1
5
100
AcDbText
  0
TEXT
  5
277
330
49E
100
AcDbEntity
  8
4
  6
CENTER
100
AcDbText
 10
23.9795100642466
 20
9.999999806846744
 30
0.0
 40
1.399999999999999
  1
4
100
AcDbText
  0
TEXT
  5
278
330
49E
100
AcDbEntity
  8
7
  6
Continuous
100
AcDbText
 10
29.97951006424661
 20
9.999999806846744
 30
0.0
 40
1.399999999999999
  1
7
100
AcDbText
  0
TEXT
  5
279
330
49E
100
AcDbEntity
  8
6
  6
Continuous
100
AcDbText
 10
27.97951006424661
 20
9.999999806846744
 30
0.0
 40
1.399999999999999
  1
6
100
AcDbText
  0
LINE
  5
27A
330
49E
100
AcDbEntity
  8
1
  6
Continuous
100
AcDbLine
 10
40.39190924522389
 20
88.8819332287151
 30
0.0
 11
40.39190924522393
 21
125.881933228715
 31
0.0
  0
LINE
  5
27B
330
49E
100
AcDbEntity
  8
1
  6
Continuous
100
AcDbLine
 10
46.89190924521067
 20
88.8819332287151
 30
0.0
 11
46.89190924521073
 21
125.881933228715
 31
0.0
  0
LINE
  5
27C
330
49E
100
AcDbEntity
  8
1
  6
Continuous
100
AcDbLine
 10
44.89190924521067
 20
87.88193322871505
 30
0.0
 11
39.89190924521068
 21
87.88193322871505
 31
0.0
  0
LINE
  5
27D
330
49E
100
AcDbEntity
  8
1
  6
Continuous
100
AcDbLine
 10
37.89190924520196
 20
88.88193322871513
 30
0.0
 11
46.89190924521067
 21
88.8819332287151
 31
0.0
  0
LINE
  5
27E
330
49E
100
AcDbEntity
  8
1
  6
Continuous
100
AcDbLine
 10
39.54190924521068
 20
88.8819332287151
 30
0.0
 11
39.89190924521068
 21
87.88193322871519
 31
0.0
  0
LINE
  5
27F
330
49E
100
AcDbEntity
  8
1
  6
Continuous
100
AcDbLine
 10
45.24190924521081
 20
88.8819332287151
 30
0.0
 11
44.89190924521079
 21
87.88193322871505
 31
0.0
  0
LINE
  5
280
330
49E
100
AcDbEntity
  8
1
  6
Continuous
100
AcDbLine
 10
39.89190924524422
 20
126.881933228715
 30
0.0
 11
46.89190924521073
 21
126.881933228715
 31
0.0
  0
LINE
  5
281
330
49E
100
AcDbEntity
  8
1
  6
Continuous
100
AcDbLine
 10
39.891909245241
 20
125.881933228715
 30
0.0
 11
46.89190924521073
 21
125.881933228715
 31
0.0
  0
LINE
  5
282
330
49E
100
AcDbEntity
  8
4
  6
CENTER
100
AcDbLine
 10
41.39190924520402
 20
107.881933228715
 30
0.0
 11
36.39190924520391
 21
107.881933228715
 31
0.0
  0
ARC
  5
283
330
49E
100
AcDbEntity
  8
1
  6
Continuous
100
AcDbCircle
 10
46.39190924521067
 20
126.3819332287151
 30
0.0
 40
0.4999999999999716
100
AcDbArc
 50
270.0
 51
90.0
  0
LINE
  5
284
330
49E
100
AcDbEntity
  8
1
  6
Continuous
100
AcDbLine
 10
120.0247125485388
 20
36.00666718501282
 30
0.0
 11
136.2830551617648
 21
36.00666718501282
 31
0.0
  0
LINE
  5
285
330
49E
100
AcDbEntity
  8
1
  6
Continuous
100
AcDbLine
 10
136.2830551617648
 20
34.00666718500638
 30
0.0
 11
96.28305516179432
 21
34.00666718501918
 31
0.0
  0
LINE
  5
286
330
49E
100
AcDbEntity
  8
1
  6
Continuous
100
AcDbLine
 10
131.9594198809511
 20
37.00666718501282
 30
0.0
 11
136.2830551617648
 21
37.00666718501282
 31
0.0
  0
LINE
  5
287
330
49E
100
AcDbEntity
  8
3
  6
DASHED
100
AcDbLine
 10
130.9361351876637
 20
35.00666718503605
 30
0.0
 11
136.2830551617648
 21
35.00666718503605
 31
0.0
  0
LINE
  5
288
330
49E
100
AcDbEntity
  8
3
  6
DASHED
100
AcDbLine
 10
130.9361351876636
 20
34.60666718503608
 30
0.0
 11
136.2830551617648
 21
34.60666718503608
 31
0.0
  0
LINE
  5
289
330
49E
100
AcDbEntity
  8
1
  6
Continuous
100
AcDbLine
 10
96.28305516180073
 20
36.00666718507739
 30
0.0
 11
114.9146619434164
 21
36.00666718501714
 31
0.0
  0
LINE
  5
28A
330
49E
100
AcDbEntity
  8
1
  6
Continuous
100
AcDbLine
 10
96.28305516175707
 20
36.00666718507739
 30
0.0
 11
96.28305516175062
 21
34.00666718507687
 31
0.0
  0
LINE
  5
28B
330
49E
100
AcDbEntity
  8
4
  6
CENTER
100
AcDbLine
 10
103.7830551617651
 20
37.50666718501282
 30
0.0
 11
103.7830551617651
 21
32.5066671850127
 31
0.0
  0
LINE
  5
28C
330
49E
100
AcDbEntity
  8
4
  6
CENTER
100
AcDbLine
 10
122.333055161765
 20
38.50666718501269
 30
0.0
 11
110.2330551617648
 21
38.50666718501269
 31
0.0
  0
ARC
  5
28D
330
49E
100
AcDbEntity
  8
1
  6
Continuous
100
AcDbCircle
 10
116.2830551617649
 20
38.50666718501269
 30
0.0
 40
4.499999999999943
100
AcDbArc
 50
269.9999999998175
 51
213.748988595703
  0
ARC
  5
28E
330
49E
100
AcDbEntity
  8
5
  6
PHANTOM
100
AcDbCircle
 10
120.4951993633789
 20
35.4232090333136
 30
0.0
 40
0.6000000000000001
100
AcDbArc
 50
278.8901761223838
 51
8.890176122383033
  0
ARC
  5
28F
330
49E
100
AcDbEntity
  8
5
  6
PHANTOM
100
AcDbCircle
 10
120.4951993633789
 20
35.42320903331364
 30
0.0
 40
1.0
100
AcDbArc
 50
278.8901761223838
 51
8.890176122383033
  0
ARC
  5
290
330
49E
100
AcDbEntity
  8
5
  6
PHANTOM
100
AcDbCircle
 10
121.7978037868232
 20
37.44885009631234
 30
0.0
 40
1.0
100
AcDbArc
 50
68.60816201679432
 51
188.8901761223829
  0
LINE
  5
291
330
49E
100
AcDbEntity
  8
1
  6
Continuous
100
AcDbLine
 10
120.6830551617648
 20
36.40666718501268
 30
0.0
 11
120.2630049101913
 21
36.40666718501268
 31
0.0
  0
LINE
  5
292
330
49E
100
AcDbEntity
  8
4
  6
CENTER
100
AcDbLine
 10
116.2830551617649
 20
44.55666718501277
 30
0.0
 11
116.2830551617649
 21
32.45666718501263
 31
0.0
  0
CIRCLE
  5
293
330
49E
100
AcDbEntity
  8
1
  6
Continuous
100
AcDbCircle
 10
116.2830551617649
 20
38.50666718501269
 30
0.0
 40
2.499999999999969
  0
CIRCLE
  5
294
330
49E
100
AcDbEntity
  8
1
  6
Continuous
100
AcDbCircle
 10
116.2830551617649
 20
38.50666718501269
 30
0.0
 40
2.85
  0
LINE
  5
295
330
49E
100
AcDbEntity
  8
1
  6
Continuous
100
AcDbLine
 10
113.7300068747996
 20
37.24000051835436
 30
0.0
 11
112.2519262876092
 21
36.50666718502578
 31
0.0
  0
ARC
  5
296
330
49E
100
AcDbEntity
  8
5
  6
PHANTOM
100
AcDbCircle
 10
117.8276361434895
 20
35.00594836191761
 30
0.0
 40
1.0
100
AcDbArc
 50
153.8901761223828
 51
278.8901761223838
  0
ARC
  5
297
330
49E
100
AcDbEntity
  8
5
  6
PHANTOM
100
AcDbCircle
 10
117.8276361434896
 20
35.00594836191748
 30
0.0
 40
0.6000000000000001
100
AcDbArc
 50
153.890176122382
 51
278.8901761223838
  0
LINE
  5
298
330
49E
100
AcDbEntity
  8
5
  6
PHANTOM
100
AcDbLine
 10
120.5879239570225
 20
34.83041720667149
 30
0.0
 11
117.9203607371332
 21
34.41315653527544
 31
0.0
  0
LINE
  5
299
330
49E
100
AcDbEntity
  8
5
  6
PHANTOM
100
AcDbLine
 10
120.6497403527849
 20
34.43522265557685
 30
0.0
 11
117.9821771328955
 21
34.01796198418076
 31
0.0
  0
ARC
  5
29A
330
49E
100
AcDbEntity
  8
3
  6
DASHED
100
AcDbCircle
 10
117.9830551617648
 20
37.00666718501282
 30
0.0
 40
1.0
100
AcDbArc
 50
144.9999999999996
 51
270.0
  0
LINE
  5
29B
330
49E
100
AcDbEntity
  8
5
  6
PHANTOM
100
AcDbLine
 10
117.2888648648737
 20
35.27000424490199
 30
0.0
 11
117.6791392078305
 21
36.06630768033135
 31
0.0
  0
LINE
  5
29C
330
49E
100
AcDbEntity
  8
5
  6
PHANTOM
100
AcDbLine
 10
116.9296840124632
 20
35.44604150022485
 30
0.0
 11
117.3199583554201
 21
36.24234493565428
 31
0.0
  0
LINE
  5
29D
330
49E
100
AcDbEntity
  8
5
  6
PHANTOM
100
AcDbLine
 10
117.3199583554201
 20
36.24234493565428
 30
0.0
 11
117.6791392078305
 21
36.06630768033135
 31
0.0
  0
LINE
  5
29E
330
49E
100
AcDbEntity
  8
3
  6
DASHED
100
AcDbLine
 10
120.0247125485388
 20
36.00666718501282
 30
0.0
 11
117.9830551617648
 21
36.00666718501282
 31
0.0
  0
LINE
  5
29F
330
49E
100
AcDbEntity
  8
3
  6
DASHED
100
AcDbLine
 10
120.2630049101913
 20
36.40666718501268
 30
0.0
 11
117.9830551617648
 21
36.40666718501268
 31
0.0
  0
ARC
  5
2A0
330
49E
100
AcDbEntity
  8
3
  6
DASHED
100
AcDbCircle
 10
117.9830551617648
 20
37.00666718501282
 30
0.0
 40
0.6000000000000001
100
AcDbArc
 50
144.999999999999
 51
270.0
  0
LINE
  5
2A1
330
49E
100
AcDbEntity
  8
3
  6
DASHED
100
AcDbLine
 10
117.4915639351913
 20
37.35081304682347
 30
0.0
 11
118.0002111903914
 21
38.07723661047248
 31
0.0
  0
LINE
  5
2A2
330
49E
100
AcDbEntity
  8
3
  6
DASHED
100
AcDbLine
 10
117.6725503726759
 20
38.30666718501278
 30
0.0
 11
118.0002111903914
 21
38.07723661047248
 31
0.0
  0
LINE
  5
2A3
330
49E
100
AcDbEntity
  8
3
  6
DASHED
100
AcDbLine
 10
117.1639031174758
 20
37.58024362136376
 30
0.0
 11
117.6725503726759
 21
38.30666718501278
 31
0.0
  0
LINE
  5
2A4
330
49E
100
AcDbEntity
  8
5
  6
PHANTOM
100
AcDbLine
 10
122.1625479347719
 20
38.37995788090945
 30
0.0
 11
130.6226136552076
 21
35.06588456540776
 31
0.0
  0
LINE
  5
2A5
330
49E
100
AcDbEntity
  8
5
  6
PHANTOM
100
AcDbLine
 10
122.0166502755925
 20
38.00751476707068
 30
0.0
 11
130.4767159960281
 21
34.69344145156894
 31
0.0
  0
LINE
  5
2A6
330
49E
100
AcDbEntity
  8
3
  6
DASHED
100
AcDbLine
 10
130.4318786198562
 20
34.74311329915348
 30
0.0
 11
128.2680062227153
 21
36.00666718501282
 31
0.0
  0
LINE
  5
2A7
330
49E
100
AcDbEntity
  8
1
  6
Continuous
100
AcDbLine
 10
129.0612532035908
 20
36.00666718501282
 30
0.0
 11
122.7873117295723
 21
39.67022107091866
 31
0.0
  0
LINE
  5
2A8
330
49E
100
AcDbEntity
  8
3
  6
DASHED
100
AcDbLine
 10
127.8032399506876
 20
34.87732208266793
 30
0.0
 11
128.4131946437204
 21
35.92188705020209
 31
0.0
  0
LINE
  5
2A9
330
49E
100
AcDbEntity
  8
1
  6
Continuous
100
AcDbLine
 10
121.7830551618838
 20
36.00666718501282
 30
0.0
 11
121.7830551618866
 21
34.00666718506488
 31
0.0
  0
LINE
  5
2AA
330
49E
100
AcDbEntity
  8
5
  6
PHANTOM
100
AcDbLine
 10
127.8589160407063
 20
34.41980548072978
 30
0.0
 11
128.3001148648778
 21
35.54608444106867
 31
0.0
  0
ARC
  5
2AB
330
49E
100
AcDbEntity
  8
5
  6
PHANTOM
100
AcDbCircle
 10
122.2818930404867
 20
35.26201356370045
 30
0.0
 40
0.5
100
AcDbArc
 50
158.6081620167944
 51
262.6444054847211
  0
LINE
  5
2AC
330
49E
100
AcDbEntity
  8
3
  6
DASHED
100
AcDbLine
 10
127.2315839347751
 20
34.64941511271558
 30
0.0
 11
122.5737832414157
 21
36.00666718501282
 31
0.0
  0
LINE
  5
2AD
330
49E
100
AcDbEntity
  8
5
  6
PHANTOM
100
AcDbLine
 10
127.3293486528624
 20
34.10629221272653
 30
0.0
 11
122.2178795449413
 21
34.76612822172307
 31
0.0
  0
ARC
  5
2AE
330
49E
100
AcDbEntity
  8
5
  6
PHANTOM
100
AcDbCircle
 10
127.3933621484077
 20
34.60217755470409
 30
0.0
 40
0.5
100
AcDbArc
 50
262.6444054847211
 51
338.6081620167944
  0
ARC
  5
2AF
330
49E
100
AcDbEntity
  8
3
  6
DASHED
100
AcDbCircle
 10
127.3714630077463
 20
35.12945036657163
 30
0.0
 40
0.5
100
AcDbArc
 50
253.754229362338
 51
329.7179858944125
  0
LINE
  5
2B0
330
49E
100
AcDbEntity
  8
1
  6
Continuous
100
AcDbLine
 10
128.2680062227153
 20
36.00666718501282
 30
0.0
 11
122.5856091024493
 21
39.32479951656569
 31
0.0
  0
LINE
  5
2B1
330
49E
100
AcDbEntity
  8
5
  6
PHANTOM
100
AcDbLine
 10
120.8098174090866
 20
37.29430910690632
 30
0.0
 11
121.0879911900209
 21
35.51593362695717
 31
0.0
  0
LINE
  5
2B2
330
49E
100
AcDbEntity
  8
5
  6
PHANTOM
100
AcDbLine
 10
121.2050119601814
 20
37.35612550266875
 30
0.0
 11
121.4831857411157
 21
35.57775002271955
 31
0.0
  0
ARC
  5
2B3
330
49E
100
AcDbEntity
  8
5
  6
PHANTOM
100
AcDbCircle
 10
121.7978037868232
 20
37.44885009631234
 30
0.0
 40
0.6
100
AcDbArc
 50
68.60816201679432
 51
188.8901761223829
  0
LINE
  5
2B4
330
49E
100
AcDbEntity
  8
5
  6
PHANTOM
100
AcDbLine
 10
121.8163391481881
 20
35.44438563767466
 30
0.0
 11
122.7134681572953
 21
37.73454932875994
 31
0.0
  0
ARC
  5
2B5
330
49E
100
AcDbEntity
  8
1
  6
Continuous
100
AcDbCircle
 10
122.4233728685739
 20
36.57129084825646
 30
0.0
 40
0.5
100
AcDbArc
 50
149.7179858944109
 51
253.754229362338
  0
LINE
  5
2B6
330
49E
100
AcDbEntity
  8
1
  6
Continuous
100
AcDbLine
 10
121.9915959256326
 20
36.82341913216026
 30
0.0
 11
123.231871328425
 21
38.9474264570476
 31
0.0
  0
LINE
  5
2B7
330
49E
100
AcDbEntity
  8
1
  6
Continuous
100
AcDbLine
 10
122.5737832414158
 20
36.00666718501282
 30
0.0
 11
122.2834937956027
 21
36.09125559440036
 31
0.0
  0
ARC
  5
2B8
330
49E
100
AcDbEntity
  8
1
  6
Continuous
100
AcDbCircle
 10
122.2830551617648
 20
38.80666718503607
 30
0.0
 40
0.6
100
AcDbArc
 50
59.71798589441142
 51
180.0
  0
ARC
  5
2B9
330
49E
100
AcDbEntity
  8
1
  6
Continuous
100
AcDbCircle
 10
122.2830551617648
 20
38.80666718503607
 30
0.0
 40
1.0
100
AcDbArc
 50
59.71798589441142
 51
180.0
  0
LINE
  5
2BA
330
49E
100
AcDbEntity
  8
1
  6
Continuous
100
AcDbLine
 10
121.6830551617648
 20
38.80666718503607
 30
0.0
 11
121.6830551617648
 21
37.00666718501282
 31
0.0
  0
LINE
  5
2BB
330
49E
100
AcDbEntity
  8
1
  6
Continuous
100
AcDbLine
 10
121.2830551617648
 20
38.80666718503607
 30
0.0
 11
121.2830551617648
 21
37.00666718501269
 31
0.0
  0
ARC
  5
2BC
330
49E
100
AcDbEntity
  8
1
  6
Continuous
100
AcDbCircle
 10
120.6830551617648
 20
37.00666718501269
 30
0.0
 40
0.6000000000000001
100
AcDbArc
 50
270.0
 51
0.000000000000007
  0
ARC
  5
2BD
330
49E
100
AcDbEntity
  8
1
  6
Continuous
100
AcDbCircle
 10
120.6830551617648
 20
37.00666718501282
 30
0.0
 40
1.0
100
AcDbArc
 50
270.0
 51
0.000000000000007
  0
LINE
  5
2BE
330
49E
100
AcDbEntity
  8
4
  6
CENTER
100
AcDbLine
 10
128.7830551617648
 20
37.50666718501282
 30
0.0
 11
128.7830551617648
 21
32.5066671850127
 31
0.0
  0
LINE
  5
2BF
330
49E
100
AcDbEntity
  8
3
  6
DASHED
100
AcDbLine
 10
130.6335812469791
 20
35.08853485350647
 30
0.0
 11
129.0612532035908
 21
36.00666718501282
 31
0.0
  0
ARC
  5
2C0
330
49E
100
AcDbEntity
  8
3
  6
DASHED
100
AcDbCircle
 10
130.9361351876636
 20
35.60666718503608
 30
0.0
 40
1.0
100
AcDbArc
 50
241.374546096456
 51
270.0
  0
ARC
  5
2C1
330
49E
100
AcDbEntity
  8
3
  6
DASHED
100
AcDbCircle
 10
130.9361351876637
 20
35.60666718503608
 30
0.0
 40
0.6000000000000001
100
AcDbArc
 50
241.3745460964578
 51
270.0
  0
LINE
  5
2C2
330
49E
100
AcDbEntity
  8
1
  6
Continuous
100
AcDbLine
 10
130.7455208117224
 20
36.59614793347304
 30
0.0
 11
129.973654084894
 21
36.00666718501289
 31
0.0
  0
ARC
  5
2C3
330
49E
100
AcDbEntity
  8
1
  6
Continuous
100
AcDbCircle
 10
131.9594198809511
 20
35.00666718501281
 30
0.0
 40
2.0
100
AcDbArc
 50
90.0
 51
127.3692597852013
  0
LINE
  5
2C4
330
49E
100
AcDbEntity
  8
1
  6
Continuous
100
AcDbLine
 10
136.2830551617648
 20
37.00666718501282
 30
0.0
 11
136.2830551617648
 21
34.0066671850127
 31
0.0
  0
ARC
  5
2C5
330
49E
100
AcDbEntity
  8
1
  6
Continuous
100
AcDbCircle
 10
134.2830551617799
 20
90.88193322871513
 30
0.0
 40
2.0
100
AcDbArc
 50
270.0
 51
0.000000000000007
  0
LINE
  5
2C6
330
49E
100
AcDbEntity
  8
1
  6
Continuous
100
AcDbLine
 10
121.7830551617798
 20
125.881933228715
 30
0.0
 11
121.7830551617798
 21
89.8819332287152
 31
0.0
  0
LINE
  5
2C7
330
49E
100
AcDbEntity
  8
1
  6
Continuous
100
AcDbLine
 10
120.7830551617798
 20
125.881933228715
 30
0.0
 11
120.7830551617798
 21
88.8819332287151
 31
0.0
  0
LINE
  5
2C8
330
49E
100
AcDbEntity
  8
1
  6
Continuous
100
AcDbLine
 10
111.7830551617799
 20
125.881933228715
 30
0.0
 11
111.7830551617799
 21
88.8819332287151
 31
0.0
  0
LINE
  5
2C9
330
49E
100
AcDbEntity
  8
1
  6
Continuous
100
AcDbLine
 10
98.28305516177998
 20
88.8819332287151
 30
0.0
 11
120.7830551617798
 21
88.8819332287151
 31
0.0
  0
ARC
  5
2CA
330
49E
100
AcDbEntity
  8
1
  6
Continuous
100
AcDbCircle
 10
98.28305516177998
 20
90.88193322871513
 30
0.0
 40
2.0
100
AcDbArc
 50
180.0
 51
270.0
  0
LINE
  5
2CB
330
49E
100
AcDbEntity
  8
1
  6
Continuous
100
AcDbLine
 10
119.13305516178
 20
88.8819332287151
 30
0.0
 11
118.78305516178
 21
87.88193322871505
 31
0.0
  0
LINE
  5
2CC
330
49E
100
AcDbEntity
  8
1
  6
Continuous
100
AcDbLine
 10
113.4330551617799
 20
88.8819332287151
 30
0.0
 11
113.7830551617799
 21
87.88193322871519
 31
0.0
  0
LINE
  5
2CD
330
49E
100
AcDbEntity
  8
1
  6
Continuous
100
AcDbLine
 10
118.7830551617798
 20
87.88193322871505
 30
0.0
 11
113.7830551617799
 21
87.88193322871505
 31
0.0
  0
LINE
  5
2CE
330
49E
100
AcDbEntity
  8
1
  6
Continuous
100
AcDbLine
 10
122.7830551617798
 20
88.8819332287151
 30
0.0
 11
134.2830551617799
 21
88.8819332287151
 31
0.0
  0
ARC
  5
2CF
330
49E
100
AcDbEntity
  8
1
  6
Continuous
100
AcDbCircle
 10
122.7830551617798
 20
89.8819332287152
 30
0.0
 40
1.0
100
AcDbArc
 50
180.0
 51
270.0
  0
LINE
  5
2D0
330
49E
100
AcDbEntity
  8
4
  6
CENTER
100
AcDbLine
 10
99.08305516177982
 20
107.881933228715
 30
0.0
 11
108.4830551617798
 21
107.881933228715
 31
0.0
  0
CIRCLE
  5
2D1
330
49E
100
AcDbEntity
  8
1
  6
Continuous
100
AcDbCircle
 10
103.7830551617798
 20
107.881933228715
 30
0.0
 40
2.5
  0
LINE
  5
2D2
330
49E
100
AcDbEntity
  8
4
  6
CENTER
100
AcDbLine
 10
103.7830551617798
 20
112.581933228715
 30
0.0
 11
103.7830551617798
 21
103.1819332287151
 31
0.0
  0
ARC
  5
2D3
330
49E
100
AcDbEntity
  8
1
  6
Continuous
100
AcDbCircle
 10
128.78305516178
 20
116.2152986787786
 30
0.0
 40
1.145412728988862
100
AcDbArc
 50
215.537677792001
 51
256.5374393917323
  0
ARC
  5
2D4
330
49E
100
AcDbEntity
  8
1
  6
Continuous
100
AcDbCircle
 10
128.78305516178
 20
116.2152986787786
 30
0.0
 40
1.145412728988862
100
AcDbArc
 50
270.0
 51
324.462322208052
  0
LINE
  5
2D5
330
49E
100
AcDbEntity
  8
4
  6
CENTER
100
AcDbLine
 10
128.78305516178
 20
112.581933228715
 30
0.0
 11
128.78305516178
 21
103.1819332287151
 31
0.0
  0
LINE
  5
2D6
330
49E
100
AcDbEntity
  8
4
  6
CENTER
100
AcDbLine
 10
133.48305516178
 20
107.881933228715
 30
0.0
 11
124.08305516178
 21
107.881933228715
 31
0.0
  0
CIRCLE
  5
2D7
330
49E
100
AcDbEntity
  8
1
  6
Continuous
100
AcDbCircle
 10
128.78305516178
 20
107.881933228715
 30
0.0
 40
2.5
  0
LINE
  5
2D8
330
49E
100
AcDbEntity
  8
1
  6
Continuous
100
AcDbLine
 10
111.7830551617799
 20
125.881933228715
 30
0.0
 11
120.7830551617798
 21
125.881933228715
 31
0.0
  0
LINE
  5
2D9
330
49E
100
AcDbEntity
  8
1
  6
Continuous
100
AcDbLine
 10
111.7830551617799
 20
126.881933228715
 30
0.0
 11
120.7830551617798
 21
126.881933228715
 31
0.0
  0
ARC
  5
2DA
330
49E
100
AcDbEntity
  8
1
  6
Continuous
100
AcDbCircle
 10
120.2830551617799
 20
126.3819332287151
 30
0.0
 40
0.4999999999999716
100
AcDbArc
 50
270.0
 51
90.0
  0
ARC
  5
2DB
330
49E
100
AcDbEntity
  8
1
  6
Continuous
100
AcDbCircle
 10
111.7830551617799
 20
126.881933228715
 30
0.0
 40
1.0
100
AcDbArc
 50
180.0
 51
270.0
  0
ARC
  5
2DC
330
49E
100
AcDbEntity
  8
1
  6
Continuous
100
AcDbCircle
 10
112.2830551617798
 20
126.381933228715
 30
0.0
 40
0.4999999999999716
100
AcDbArc
 50
90.0
 51
270.0
  0
LINE
  5
2DD
330
49E
100
AcDbEntity
  8
1
  6
Continuous
100
AcDbLine
 10
128.78305516178
 20
125.4719579289478
 30
0.0
 11
128.78305516178
 21
126.6219579289478
 31
0.0
  0
LINE
  5
2DE
330
49E
100
AcDbEntity
  8
1
  6
Continuous
100
AcDbLine
 10
127.78305516178
 20
125.4719579289478
 30
0.0
 11
129.78305516178
 21
125.4719579289478
 31
0.0
  0
LINE
  5
2DF
330
49E
100
AcDbEntity
  8
1
  6
Continuous
100
AcDbLine
 10
127.78305516178
 20
124.310166017349
 30
0.0
 11
129.78305516178
 21
124.310166017349
 31
0.0
  0
ARC
  5
2E0
330
49E
100
AcDbEntity
  8
1
  6
Continuous
100
AcDbCircle
 10
128.78305516178
 20
121.5485677786513
 30
0.0
 40
1.145412728988864
100
AcDbArc
 50
62.24965455462823
 51
144.4623222079989
  0
LINE
  5
2E1
330
49E
100
AcDbEntity
  8
1
  6
Continuous
100
AcDbLine
 10
127.5640873443715
 20
115.9930791329506
 30
0.0
 11
129.4799128291021
 21
115.9930791329506
 31
0.0
  0
LINE
  5
2E2
330
49E
100
AcDbEntity
  8
1
  6
Continuous
100
AcDbLine
 10
129.6030447436183
 20
116.4375182246066
 30
0.0
 11
127.9630655799344
 21
116.4375182246066
 31
0.0
  0
LINE
  5
2E3
330
49E
100
AcDbEntity
  8
1
  6
Continuous
100
AcDbLine
 10
127.6868629572198
 20
116.8819573162627
 30
0.0
 11
129.879247366333
 21
116.8819573162627
 31
0.0
  0
LINE
  5
2E4
330
49E
100
AcDbEntity
  8
1
  6
Continuous
100
AcDbLine
 10
127.6283216613402
 20
117.3263964079187
 30
0.0
 11
129.9377886622125
 21
117.3263964079187
 31
0.0
  0
LINE
  5
2E5
330
49E
100
AcDbEntity
  8
1
  6
Continuous
100
AcDbLine
 10
127.2697028770468
 20
118.2152745912308
 30
0.0
 11
130.2964074465059
 21
118.2152745912308
 31
0.0
  0
LINE
  5
2E6
330
49E
100
AcDbEntity
  8
1
  6
Continuous
100
AcDbLine
 10
127.2321888811012
 20
118.659713682887
 30
0.0
 11
130.3339214424515
 21
118.659713682887
 31
0.0
  0
LINE
  5
2E7
330
49E
100
AcDbEntity
  8
1
  6
Continuous
100
AcDbLine
 10
127.2321888811012
 20
119.104152774543
 30
0.0
 11
130.3339214424515
 21
119.104152774543
 31
0.0
  0
LINE
  5
2E8
330
49E
100
AcDbEntity
  8
1
  6
Continuous
100
AcDbLine
 10
127.320396246126
 20
119.5485918661991
 30
0.0
 11
130.2457140774267
 21
119.5485918661991
 31
0.0
  0
LINE
  5
2E9
330
49E
100
AcDbEntity
  8
1
  6
Continuous
100
AcDbLine
 10
127.3221072216245
 20
120.4374700495112
 30
0.0
 11
130.104663140655
 21
120.4374700495112
 31
0.0
  0
LINE
  5
2EA
330
49E
100
AcDbEntity
  8
1
  6
Continuous
100
AcDbLine
 10
127.5314880514389
 20
120.8819091411673
 30
0.0
 11
128.560835615952
 21
120.8819091411673
 31
0.0
  0
ARC
  5
2EB
330
49E
100
AcDbEntity
  8
1
  6
Continuous
100
AcDbCircle
 10
128.560835615952
 20
121.1041286869952
 30
0.0
 40
0.2222195458280311
100
AcDbArc
 50
270.0
 51
90.00000000000005
  0
LINE
  5
2EC
330
49E
100
AcDbEntity
  8
1
  6
Continuous
100
AcDbLine
 10
128.560835615952
 20
121.3263482328233
 30
0.0
 11
127.6113787271047
 21
121.3263482328233
 31
0.0
  0
LINE
  5
2ED
330
49E
100
AcDbEntity
  8
1
  6
Continuous
100
AcDbLine
 10
129.6147411632046
 20
121.5526411661117
 30
0.0
 11
127.7410080042681
 21
122.0547064528818
 31
0.0
  0
ARC
  5
2EE
330
49E
100
AcDbEntity
  8
1
  6
Continuous
100
AcDbCircle
 10
132.5163435316871
 20
118.881933228715
 30
0.0
 40
5.733264282363177
100
AcDbArc
 50
144.4623222079989
 51
215.537677792001
  0
ARC
  5
2EF
330
49E
100
AcDbEntity
  8
1
  6
Continuous
100
AcDbCircle
 10
127.9630655799344
 20
116.6597377704348
 30
0.0
 40
0.2222195458280301
100
AcDbArc
 50
206.0143659996366
 51
270.0
  0
ARC
  5
2F0
330
49E
100
AcDbEntity
  8
1
  6
Continuous
100
AcDbCircle
 10
132.5163435316871
 20
118.881933228715
 30
0.0
 40
5.288825190707116
100
AcDbArc
 50
202.9439535565376
 51
206.0143659996366
  0
ARC
  5
2F1
330
49E
100
AcDbEntity
  8
1
  6
Continuous
100
AcDbCircle
 10
127.6868629572197
 20
116.8375134070971
 30
0.0
 40
0.044443909165606
100
AcDbArc
 50
90.00000000000005
 51
202.9439535565376
  0
LINE
  5
2F2
330
49E
100
AcDbEntity
  8
1
  6
Continuous
100
AcDbLine
 10
128.2497282517928
 20
117.7708354995748
 30
0.0
 11
127.4008515173914
 21
117.7708354995748
 31
0.0
  0
ARC
  5
2F3
330
49E
100
AcDbEntity
  8
1
  6
Continuous
100
AcDbCircle
 10
127.4008515173914
 20
117.7263915904092
 30
0.0
 40
0.044443909165606
100
AcDbArc
 50
90.00000000000005
 51
192.7289438731228
  0
ARC
  5
2F4
330
49E
100
AcDbEntity
  8
1
  6
Continuous
100
AcDbCircle
 10
132.5163435316871
 20
118.881933228715
 30
0.0
 40
5.288825190707116
100
AcDbArc
 50
192.7289438731228
 51
193.2681189705564
  0
ARC
  5
2F5
330
49E
100
AcDbEntity
  8
1
  6
Continuous
100
AcDbCircle
 10
132.5163435316871
 20
118.881933228715
 30
0.0
 40
5.288825190707116
100
AcDbArc
 50
193.2681189705564
 51
195.2575232904557
  0
ARC
  5
2F6
330
49E
100
AcDbEntity
  8
1
  6
Continuous
100
AcDbCircle
 10
127.6283216613402
 20
117.5486159537468
 30
0.0
 40
0.2222195458280301
100
AcDbArc
 50
195.2575232904566
 51
270.0
  0
LINE
  5
2F7
330
49E
100
AcDbEntity
  8
1
  6
Continuous
100
AcDbLine
 10
128.2497282517928
 20
119.9930309578551
 30
0.0
 11
127.5283190393704
 21
119.9930309578551
 31
0.0
  0
ARC
  5
2F8
330
49E
100
AcDbEntity
  8
1
  6
Continuous
100
AcDbCircle
 10
127.5283190393704
 20
119.7708114120271
 30
0.0
 40
0.2222195458280301
100
AcDbArc
 50
90.00000000000005
 51
169.8958172838744
  0
ARC
  5
2F9
330
49E
100
AcDbEntity
  8
1
  6
Continuous
100
AcDbCircle
 10
132.5163435316871
 20
118.881933228715
 30
0.0
 40
5.288825190707116
100
AcDbArc
 50
169.8958172838744
 51
172.2070756645772
  0
ARC
  5
2FA
330
49E
100
AcDbEntity
  8
1
  6
Continuous
100
AcDbCircle
 10
127.320396246126
 20
119.5930357753647
 30
0.0
 40
0.044443909165606
100
AcDbArc
 50
172.2070756645772
 51
270.0
  0
LINE
  5
2FB
330
49E
100
AcDbEntity
  8
1
  6
Continuous
100
AcDbLine
 10
127.78305516178
 20
124.910166017349
 30
0.0
 11
127.78305516178
 21
123.710166017349
 31
0.0
  0
ARC
  5
2FC
330
49E
100
AcDbEntity
  8
1
  6
Continuous
100
AcDbCircle
 10
125.0497667918655
 20
118.881933228715
 30
0.0
 40
5.733264282363177
100
AcDbArc
 50
324.462322208052
 51
35.53767779194785
  0
ARC
  5
2FD
330
49E
100
AcDbEntity
  8
1
  6
Continuous
100
AcDbCircle
 10
129.879247366333
 20
116.8375134070971
 30
0.0
 40
0.044443909165606
100
AcDbArc
 50
337.0560464434622
 51
90.00000000000005
  0
ARC
  5
2FE
330
49E
100
AcDbEntity
  8
1
  6
Continuous
100
AcDbCircle
 10
125.0497667918655
 20
118.881933228715
 30
0.0
 40
5.288825190707116
100
AcDbArc
 50
333.9856340003631
 51
337.0560464434622
  0
ARC
  5
2FF
330
49E
100
AcDbEntity
  8
1
  6
Continuous
100
AcDbCircle
 10
129.6030447436183
 20
116.6597377704348
 30
0.0
 40
0.2222195458280301
100
AcDbArc
 50
270.0
 51
333.9856340003631
  0
ARC
  5
300
330
49E
100
AcDbEntity
  8
1
  6
Continuous
100
AcDbCircle
 10
129.9377886622125
 20
117.5486159537468
 30
0.0
 40
0.2222195458280301
100
AcDbArc
 50
270.0
 51
344.7424767095434
  0
ARC
  5
301
330
49E
100
AcDbEntity
  8
1
  6
Continuous
100
AcDbCircle
 10
125.0497667918655
 20
118.881933228715
 30
0.0
 40
5.288825190707116
100
AcDbArc
 50
344.7424767095434
 51
344.7937121239421
  0
ARC
  5
302
330
49E
100
AcDbEntity
  8
1
  6
Continuous
100
AcDbCircle
 10
125.0497667918655
 20
118.881933228715
 30
0.0
 40
5.288825190707116
100
AcDbArc
 50
344.7937121239421
 51
347.2710561268771
  0
ARC
  5
303
330
49E
100
AcDbEntity
  8
1
  6
Continuous
100
AcDbCircle
 10
130.1652588061613
 20
117.7263915904092
 30
0.0
 40
0.044443909165606
100
AcDbArc
 50
347.2710561268771
 51
90.00000000000005
  0
LINE
  5
304
330
49E
100
AcDbEntity
  8
1
  6
Continuous
100
AcDbLine
 10
130.1652588061614
 20
117.7708354995748
 30
0.0
 11
129.3163820717673
 21
117.7708354995748
 31
0.0
  0
LINE
  5
305
330
49E
100
AcDbEntity
  8
1
  6
Continuous
100
AcDbLine
 10
128.78305516178
 20
118.659713682887
 30
0.0
 11
128.78305516178
 21
118.2152745912308
 31
0.0
  0
ARC
  5
306
330
49E
100
AcDbEntity
  8
1
  6
Continuous
100
AcDbCircle
 10
130.2457140774267
 20
119.5930357753647
 30
0.0
 40
0.044443909165606
100
AcDbArc
 50
270.0
 51
7.792924335422765
  0
ARC
  5
307
330
49E
100
AcDbEntity
  8
1
  6
Continuous
100
AcDbCircle
 10
125.0497667918655
 20
118.881933228715
 30
0.0
 40
5.288825190707116
100
AcDbArc
 50
7.792924335422765
 51
10.10418271612534
  0
ARC
  5
308
330
49E
100
AcDbEntity
  8
1
  6
Continuous
100
AcDbCircle
 10
130.0377912841822
 20
119.7708114120271
 30
0.0
 40
0.2222195458280301
100
AcDbArc
 50
10.10418271612534
 51
90.00000000000005
  0
LINE
  5
309
330
49E
100
AcDbEntity
  8
1
  6
Continuous
100
AcDbLine
 10
130.0377912841823
 20
119.9930309578551
 30
0.0
 11
128.78305516178
 21
119.9930309578551
 31
0.0
  0
LINE
  5
30A
330
49E
100
AcDbEntity
  8
1
  6
Continuous
100
AcDbLine
 10
128.78305516178
 20
119.9930309578551
 30
0.0
 11
128.78305516178
 21
119.7708114120271
 31
0.0
  0
ARC
  5
30B
330
49E
100
AcDbEntity
  8
1
  6
Continuous
100
AcDbCircle
 10
128.78305516178
 20
121.5485677786513
 30
0.0
 40
1.145412728988864
100
AcDbArc
 50
35.53767779194785
 51
45.69883927961678
  0
LINE
  5
30C
330
49E
100
AcDbEntity
  8
1
  6
Continuous
100
AcDbLine
 10
128.78305516178
 20
121.1041286869953
 30
0.0
 11
129.8490916655385
 21
121.1041286869953
 31
0.0
  0
LINE
  5
30D
330
49E
100
AcDbEntity
  8
1
  6
Continuous
100
AcDbLine
 10
128.78305516178
 20
122.6939805076402
 30
0.0
 11
128.78305516178
 21
121.7754907585505
 31
0.0
  0
LINE
  5
30E
330
49E
100
AcDbEntity
  8
1
  6
Continuous
100
AcDbLine
 10
127.78305516178
 20
126.6219579289478
 30
0.0
 11
129.78305516178
 21
126.6219579289478
 31
0.0
  0
CIRCLE
  5
30F
330
49E
100
AcDbEntity
  8
1
  6
Continuous
100
AcDbCircle
 10
128.28305516178
 20
133.543979302615
 30
0.0
 40
0.5
  0
LINE
  5
310
330
49E
100
AcDbEntity
  8
1
  6
Continuous
100
AcDbLine
 10
127.78305516178
 20
130.978035547587
 30
0.0
 11
128.78305516178
 21
130.978035547587
 31
0.0
  0
LINE
  5
311
330
49E
100
AcDbEntity
  8
1
  6
Continuous
100
AcDbLine
 10
127.78305516178
 20
129.5654314886944
 30
0.0
 11
129.78305516178
 21
129.5654314886944
 31
0.0
  0
LINE
  5
312
330
49E
100
AcDbEntity
  8
1
  6
Continuous
100
AcDbLine
 10
127.78305516178
 20
131.978035547587
 30
0.0
 11
127.78305516178
 21
130.978035547587
 31
0.0
  0
ARC
  5
313
330
49E
100
AcDbEntity
  8
1
  6
Continuous
100
AcDbCircle
 10
120.7830551617798
 20
125.881933228715
 30
0.0
 40
1.0
100
AcDbArc
 50
0.000000000000007
 51
90.0
  0
LINE
  5
314
330
49E
100
AcDbEntity
  8
1
  6
Continuous
100
AcDbLine
 10
127.78305516178
 20
129.5654314886944
 30
0.0
 11
128.3063122065943
 21
129.321432721514
 31
0.0
  0
LINE
  5
315
330
49E
100
AcDbEntity
  8
1
  6
Continuous
100
AcDbLine
 10
128.78305516178
 20
131.478035547587
 30
0.0
 11
128.78305516178
 21
130.978035547587
 31
0.0
  0
LINE
  5
316
330
49E
100
AcDbEntity
  8
1
  6
Continuous
100
AcDbLine
 10
129.78305516178
 20
131.478035547587
 30
0.0
 11
129.78305516178
 21
130.978035547587
 31
0.0
  0
LINE
  5
317
330
49E
100
AcDbEntity
  8
1
  6
Continuous
100
AcDbLine
 10
128.78305516178
 20
128.4963628844921
 30
0.0
 11
128.78305516178
 21
127.5572443400267
 31
0.0
  0
LINE
  5
318
330
49E
100
AcDbEntity
  8
1
  6
Continuous
100
AcDbLine
 10
128.78305516178
 20
135.8446055729178
 30
0.0
 11
128.78305516178
 21
134.9054870284524
 31
0.0
  0
ARC
  5
319
330
49E
100
AcDbEntity
  8
1
  6
Continuous
100
AcDbCircle
 10
129.28305516178
 20
131.478035547587
 30
0.0
 40
0.5
100
AcDbArc
 50
0.0
 51
180.0
  0
LINE
  5
31A
330
49E
100
AcDbEntity
  8
1
  6
Continuous
100
AcDbLine
 10
129.78305516178
 20
133.543979302615
 30
0.0
 11
128.4497218284467
 21
134.0153838234061
 31
0.0
  0
LINE
  5
31B
330
49E
100
AcDbEntity
  8
1
  6
Continuous
100
AcDbLine
 10
185.6742010783491
 20
88.8819332287151
 30
0.0
 11
185.6742010783491
 21
125.881933228715
 31
0.0
  0
LINE
  5
31C
330
49E
100
AcDbEntity
  8
1
  6
Continuous
100
AcDbLine
 10
194.6742010783579
 20
88.88193322871513
 30
0.0
 11
185.6742010783491
 21
88.8819332287151
 31
0.0
  0
LINE
  5
31D
330
49E
100
AcDbEntity
  8
1
  6
Continuous
100
AcDbLine
 10
187.6742010783491
 20
87.88193322871505
 30
0.0
 11
192.6742010783492
 21
87.88193322871505
 31
0.0
  0
LINE
  5
31E
330
49E
100
AcDbEntity
  8
1
  6
Continuous
100
AcDbLine
 10
187.324201078349
 20
88.8819332287151
 30
0.0
 11
187.6742010783489
 21
87.88193322871505
 31
0.0
  0
LINE
  5
31F
330
49E
100
AcDbEntity
  8
1
  6
Continuous
100
AcDbLine
 10
193.0242010783491
 20
88.8819332287151
 30
0.0
 11
192.6742010783492
 21
87.88193322871519
 31
0.0
  0
LINE
  5
320
330
49E
100
AcDbEntity
  8
4
  6
CENTER
100
AcDbLine
 10
191.1742010783557
 20
107.881933228715
 30
0.0
 11
196.1742010783559
 21
107.881933228715
 31
0.0
  0
LINE
  5
321
330
49E
100
AcDbEntity
  8
1
  6
Continuous
100
AcDbLine
 10
192.6742010783186
 20
125.881933228715
 30
0.0
 11
185.6742010783491
 21
125.881933228715
 31
0.0
  0
LINE
  5
322
330
49E
100
AcDbEntity
  8
1
  6
Continuous
100
AcDbLine
 10
192.6742010783156
 20
126.881933228715
 30
0.0
 11
185.6742010783491
 21
126.881933228715
 31
0.0
  0
ARC
  5
323
330
49E
100
AcDbEntity
  8
1
  6
Continuous
100
AcDbCircle
 10
186.1742010783491
 20
126.3819332287151
 30
0.0
 40
0.4999999999999716
100
AcDbArc
 50
90.0
 51
270.0
  0
LINE
  5
324
330
49E
100
AcDbEntity
  8
3
  6
DASHED
100
AcDbLine
 10
43.64190924521079
 20
163.3819332287051
 30
0.0
 11
41.14190924521068
 21
163.3819332287052
 31
0.0
  0
LINE
  5
325
330
49E
100
AcDbEntity
  8
3
  6
DASHED
100
AcDbLine
 10
39.89190924521068
 20
156.7819332287158
 30
0.0
 11
44.89190924521079
 21
156.7819332287156
 31
0.0
  0
LINE
  5
326
330
49E
100
AcDbEntity
  8
3
  6
DASHED
100
AcDbLine
 10
39.891909245211
 20
157.7819332287156
 30
0.0
 11
44.8919092452109
 21
157.7819332287156
 31
0.0
  0
LINE
  5
327
330
49E
100
AcDbEntity
  8
3
  6
DASHED
100
AcDbLine
 10
39.89190924521079
 20
150.481933228714
 30
0.0
 11
44.89190924521278
 21
150.4819332287208
 31
0.0
  0
LINE
  5
328
330
49E
100
AcDbEntity
  8
1
  6
Continuous
100
AcDbLine
 10
37.89190924522594
 20
163.881933228715
 30
0.0
 11
46.89190924521067
 21
163.881933228715
 31
0.0
  0
LINE
  5
329
330
49E
100
AcDbEntity
  8
3
  6
DASHED
100
AcDbLine
 10
41.14190924521068
 20
163.3819332287052
 30
0.0
 11
39.8919092452109
 21
157.7819332287156
 31
0.0
  0
LINE
  5
32A
330
49E
100
AcDbEntity
  8
4
  6
CENTER
100
AcDbLine
 10
41.39190924521584
 20
144.881933228715
 30
0.0
 11
36.39190924521573
 21
144.881933228715
 31
0.0
  0
LINE
  5
32B
330
49E
100
AcDbEntity
  8
3
  6
DASHED
100
AcDbLine
 10
41.14190924521079
 20
156.7819332287158
 30
0.0
 11
41.14190924521079
 21
150.4819332287157
 31
0.0
  0
LINE
  5
32C
330
49E
100
AcDbEntity
  8
3
  6
DASHED
100
AcDbLine
 10
43.64190924521079
 20
163.3819332287051
 30
0.0
 11
44.8919092452109
 21
157.7819332287156
 31
0.0
  0
LINE
  5
32D
330
49E
100
AcDbEntity
  8
3
  6
DASHED
100
AcDbLine
 10
43.6419092452109
 20
156.7819332287156
 30
0.0
 11
43.6419092452109
 21
150.4819332287157
 31
0.0
  0
LINE
  5
32E
330
49E
100
AcDbEntity
  8
1
  6
Continuous
100
AcDbLine
 10
136.2830551617291
 20
216.7571992723528
 30
0.0
 11
116.2830551617729
 21
216.7571992724174
 31
0.0
  0
LINE
  5
32F
330
49E
100
AcDbEntity
  8
3
  6
DASHED
100
AcDbLine
 10
130.9361351876636
 20
218.157199272394
 30
0.0
 11
136.2830551617648
 21
218.157199272394
 31
0.0
  0
LINE
  5
330
330
49E
100
AcDbEntity
  8
1
  6
Continuous
100
AcDbLine
 10
131.9594198809511
 20
215.7571992724173
 30
0.0
 11
136.2830551617648
 21
215.7571992724173
 31
0.0
  0
LINE
  5
331
330
49E
100
AcDbEntity
  8
3
  6
DASHED
100
AcDbLine
 10
130.9361351876637
 20
217.757199272394
 30
0.0
 11
136.2830551617648
 21
217.757199272394
 31
0.0
  0
LINE
  5
332
330
49E
100
AcDbEntity
  8
1
  6
Continuous
100
AcDbLine
 10
136.2830551617648
 20
218.7571992724237
 30
0.0
 11
96.28305516179432
 21
218.7571992724109
 31
0.0
  0
ARC
  5
333
330
49E
100
AcDbEntity
  8
1
  6
Continuous
100
AcDbCircle
 10
134.2830551617799
 20
161.881933228715
 30
0.0
 40
2.0
100
AcDbArc
 50
0.000000000000007
 51
90.0
  0
LINE
  5
334
330
49E
100
AcDbEntity
  8
1
  6
Continuous
100
AcDbLine
 10
136.2830551617799
 20
160.381933228715
 30
0.0
 11
131.2830551616676
 21
160.381933228715
 31
0.0
  0
LINE
  5
335
330
49E
100
AcDbEntity
  8
1
  6
Continuous
100
AcDbLine
 10
136.2760986189635
 20
159.0485998953816
 30
0.0
 11
131.2830551616676
 21
159.0485998953816
 31
0.0
  0
LINE
  5
336
330
49E
100
AcDbEntity
  8
1
  6
Continuous
100
AcDbLine
 10
136.28305516178
 20
150.7152665620486
 30
0.0
 11
131.2830551616676
 21
150.7152665620486
 31
0.0
  0
LINE
  5
337
330
49E
100
AcDbEntity
  8
1
  6
Continuous
100
AcDbLine
 10
136.28305516178
 20
149.3819332287151
 30
0.0
 11
131.2830551616676
 21
149.3819332287151
 31
0.0
  0
LINE
  5
338
330
49E
100
AcDbEntity
  8
1
  6
Continuous
100
AcDbLine
 10
98.28305516177998
 20
163.881933228715
 30
0.0
 11
109.7830551617799
 21
163.881933228715
 31
0.0
  0
LINE
  5
339
330
49E
100
AcDbEntity
  8
4
  6
CENTER
100
AcDbLine
 10
99.08305516177982
 20
144.881933228715
 30
0.0
 11
108.4830551617797
 21
144.881933228715
 31
0.0
  0
CIRCLE
  5
33A
330
49E
100
AcDbEntity
  8
1
  6
Continuous
100
AcDbCircle
 10
103.7830551617797
 20
144.881933228715
 30
0.0
 40
2.5
  0
LINE
  5
33B
330
49E
100
AcDbEntity
  8
4
  6
CENTER
100
AcDbLine
 10
103.7830551617797
 20
149.581933228715
 30
0.0
 11
103.7830551617797
 21
140.1819332287151
 31
0.0
  0
ARC
  5
33C
330
49E
100
AcDbEntity
  8
1
  6
Continuous
100
AcDbCircle
 10
98.28305516177998
 20
161.881933228715
 30
0.0
 40
2.0
100
AcDbArc
 50
90.0
 51
180.0
  0
LINE
  5
33D
330
49E
100
AcDbEntity
  8
1
  6
Continuous
100
AcDbLine
 10
131.2830551616677
 20
151.681933228715
 30
0.0
 11
131.2830551616686
 21
158.081933228715
 31
0.0
  0
LINE
  5
33E
330
49E
100
AcDbEntity
  8
3
  6
DASHED
100
AcDbLine
 10
115.0330551617799
 20
163.3819332287052
 30
0.0
 11
113.7830551617801
 21
157.7819332287156
 31
0.0
  0
LINE
  5
33F
330
49E
100
AcDbEntity
  8
3
  6
DASHED
100
AcDbLine
 10
117.53305516178
 20
163.3819332287051
 30
0.0
 11
118.7830551617801
 21
157.7819332287158
 31
0.0
  0
LINE
  5
340
330
49E
100
AcDbEntity
  8
3
  6
DASHED
100
AcDbLine
 10
115.03305516178
 20
156.7819332287158
 30
0.0
 11
115.03305516178
 21
150.4819332287157
 31
0.0
  0
LINE
  5
341
330
49E
100
AcDbEntity
  8
3
  6
DASHED
100
AcDbLine
 10
117.53305516178
 20
156.7819332287156
 30
0.0
 11
117.53305516178
 21
150.4819332287157
 31
0.0
  0
LINE
  5
342
330
49E
100
AcDbEntity
  8
3
  6
DASHED
100
AcDbLine
 10
113.78305516178
 20
150.481933228714
 30
0.0
 11
118.783055161782
 21
150.4819332287208
 31
0.0
  0
LINE
  5
343
330
49E
100
AcDbEntity
  8
3
  6
DASHED
100
AcDbLine
 10
113.7830551617802
 20
157.7819332287156
 30
0.0
 11
118.7830551617801
 21
157.7819332287156
 31
0.0
  0
LINE
  5
344
330
49E
100
AcDbEntity
  8
3
  6
DASHED
100
AcDbLine
 10
113.7830551617799
 20
156.7819332287158
 30
0.0
 11
118.78305516178
 21
156.7819332287156
 31
0.0
  0
LINE
  5
345
330
49E
100
AcDbEntity
  8
4
  6
CENTER
100
AcDbLine
 10
128.78305516178
 20
149.581933228715
 30
0.0
 11
128.78305516178
 21
140.1819332287151
 31
0.0
  0
CIRCLE
  5
346
330
49E
100
AcDbEntity
  8
1
  6
Continuous
100
AcDbCircle
 10
128.7830551617801
 20
144.881933228715
 30
0.0
 40
2.5
  0
LINE
  5
347
330
49E
100
AcDbEntity
  8
1
  6
Continuous
100
AcDbLine
 10
127.78305516178
 20
138.2989862627819
 30
0.0
 11
129.78305516178
 21
138.2989862627819
 31
0.0
  0
LINE
  5
348
330
49E
100
AcDbEntity
  8
4
  6
CENTER
100
AcDbLine
 10
133.48305516178
 20
144.881933228715
 30
0.0
 11
124.08305516178
 21
144.881933228715
 31
0.0
  0
LINE
  5
349
330
49E
100
AcDbEntity
  8
1
  6
Continuous
100
AcDbLine
 10
129.78305516178
 20
138.2989862627819
 30
0.0
 11
129.78305516178
 21
139.3201950784885
 31
0.0
  0
LINE
  5
34A
330
49E
100
AcDbEntity
  8
1
  6
Continuous
100
AcDbLine
 10
120.7830551617798
 20
151.381933228714
 30
0.0
 11
130.9830551616676
 21
151.381933228715
 31
0.0
  0
LINE
  5
34B
330
49E
100
AcDbEntity
  8
1
  6
Continuous
100
AcDbLine
 10
121.9223728685896
 20
156.7819332287151
 30
0.0
 11
128.6138972708571
 21
156.7819332287151
 31
0.0
  0
LINE
  5
34C
330
49E
100
AcDbEntity
  8
1
  6
Continuous
100
AcDbLine
 10
121.2830551617801
 20
151.381933228714
 30
0.0
 11
121.2830551617802
 21
156.3819332287162
 31
0.0
  0
LINE
  5
34D
330
49E
100
AcDbEntity
  8
1
  6
Continuous
100
AcDbLine
 10
120.7830551617798
 20
156.381933228714
 30
0.0
 11
123.4325739555602
 21
156.381933228714
 31
0.0
  0
LINE
  5
34E
330
49E
100
AcDbEntity
  8
1
  6
Continuous
100
AcDbLine
 10
121.9223728685896
 20
156.7819332287151
 30
0.0
 11
121.9223728685897
 21
156.3819332287153
 31
0.0
  0
LINE
  5
34F
330
49E
100
AcDbEntity
  8
1
  6
Continuous
100
AcDbLine
 10
123.4325739555603
 20
156.781933228715
 30
0.0
 11
123.4325739555602
 21
156.3819332287152
 31
0.0
  0
LINE
  5
350
330
49E
100
AcDbEntity
  8
1
  6
Continuous
100
AcDbLine
 10
130.7830551617801
 20
151.381933228714
 30
0.0
 11
130.7830551617801
 21
156.3819332287161
 31
0.0
  0
ARC
  5
351
330
49E
100
AcDbEntity
  8
1
  6
Continuous
100
AcDbCircle
 10
131.2830551616676
 20
151.7152665620486
 30
0.0
 40
1.0
100
AcDbArc
 50
199.4712206345053
 51
270.0
  0
ARC
  5
352
330
49E
100
AcDbEntity
  8
1
  6
Continuous
100
AcDbCircle
 10
131.2830551616676
 20
151.7152665620486
 30
0.0
 40
2.3333333333334
100
AcDbArc
 50
188.2132107017437
 51
270.0
  0
ARC
  5
353
330
49E
100
AcDbEntity
  8
1
  6
Continuous
100
AcDbCircle
 10
130.9830551616676
 20
151.6819332287151
 30
0.0
 40
0.3
100
AcDbArc
 50
270.0
 51
0.000000000000007
  0
LINE
  5
354
330
49E
100
AcDbEntity
  8
1
  6
Continuous
100
AcDbLine
 10
128.6138972708571
 20
156.381933228714
 30
0.0
 11
131.2830551616684
 21
156.381933228714
 31
0.0
  0
LINE
  5
355
330
49E
100
AcDbEntity
  8
1
  6
Continuous
100
AcDbLine
 10
128.6138972708571
 20
156.7819332287151
 30
0.0
 11
128.6138972708571
 21
156.3819332287153
 31
0.0
  0
LINE
  5
356
330
49E
100
AcDbEntity
  8
1
  6
Continuous
100
AcDbLine
 10
111.7830551617799
 20
163.881933228715
 30
0.0
 11
134.2830551617799
 21
163.881933228715
 31
0.0
  0
ARC
  5
357
330
49E
100
AcDbEntity
  8
1
  6
Continuous
100
AcDbCircle
 10
109.7830551617799
 20
162.8819332287151
 30
0.0
 40
1.0
100
AcDbArc
 50
0.000000000000007
 51
90.0
  0
LINE
  5
358
330
49E
100
AcDbEntity
  8
3
  6
DASHED
100
AcDbLine
 10
117.53305516178
 20
163.3819332287051
 30
0.0
 11
115.0330551617799
 21
163.3819332287052
 31
0.0
  0
LINE
  5
359
330
49E
100
AcDbEntity
  8
1
  6
Continuous
100
AcDbLine
 10
120.7830551617798
 20
158.381933228715
 30
0.0
 11
130.9830551616685
 21
158.381933228715
 31
0.0
  0
ARC
  5
35A
330
49E
100
AcDbEntity
  8
1
  6
Continuous
100
AcDbCircle
 10
131.2830551616676
 20
158.0485998953816
 30
0.0
 40
1.0
100
AcDbArc
 50
90.0
 51
160.528779365507
  0
ARC
  5
35B
330
49E
100
AcDbEntity
  8
1
  6
Continuous
100
AcDbCircle
 10
131.2830551616676
 20
158.0485998953816
 30
0.0
 40
2.3333333333334
100
AcDbArc
 50
90.0
 51
171.7867892982563
  0
ARC
  5
35C
330
49E
100
AcDbEntity
  8
1
  6
Continuous
100
AcDbCircle
 10
130.9830551616685
 20
158.081933228715
 30
0.0
 40
0.3
100
AcDbArc
 50
0.000000000000007
 51
90.0
  0
LINE
  5
35D
330
49E
100
AcDbEntity
  8
1
  6
Continuous
100
AcDbLine
 10
112.541397774991
 20
216.7571992724173
 30
0.0
 11
96.28305516176501
 21
216.7571992724173
 31
0.0
  0
LINE
  5
35E
330
49E
100
AcDbEntity
  8
1
  6
Continuous
100
AcDbLine
 10
96.28305516175707
 20
216.7571992723528
 30
0.0
 11
96.28305516175062
 21
218.7571992723532
 31
0.0
  0
LINE
  5
35F
330
49E
100
AcDbEntity
  8
4
  6
CENTER
100
AcDbLine
 10
103.7830551617651
 20
215.2571992724173
 30
0.0
 11
103.7830551617651
 21
220.2571992724174
 31
0.0
  0
LINE
  5
360
330
49E
100
AcDbEntity
  8
1
  6
Continuous
100
AcDbLine
 10
120.6830551617648
 20
216.3571992724174
 30
0.0
 11
120.2630049101913
 21
216.3571992724174
 31
0.0
  0
ARC
  5
361
330
49E
100
AcDbEntity
  8
5
  6
PHANTOM
100
AcDbCircle
 10
120.4951993633789
 20
217.3406574241165
 30
0.0
 40
0.6000000000000001
100
AcDbArc
 50
351.1098238776168
 51
81.10982387761612
  0
ARC
  5
362
330
49E
100
AcDbEntity
  8
1
  6
Continuous
100
AcDbCircle
 10
116.2830551617649
 20
214.2571992724174
 30
0.0
 40
4.499999999999943
100
AcDbArc
 50
89.99999999981762
 51
33.74898859570233
  0
LINE
  5
363
330
49E
100
AcDbEntity
  8
4
  6
CENTER
100
AcDbLine
 10
122.333055161765
 20
214.2571992724174
 30
0.0
 11
110.2330551617648
 21
214.2571992724174
 31
0.0
  0
ARC
  5
364
330
49E
100
AcDbEntity
  8
5
  6
PHANTOM
100
AcDbCircle
 10
121.7978037868232
 20
215.3150163611178
 30
0.0
 40
1.0
100
AcDbArc
 50
171.1098238776168
 51
291.3918379832056
  0
ARC
  5
365
330
49E
100
AcDbEntity
  8
5
  6
PHANTOM
100
AcDbCircle
 10
120.4951993633789
 20
217.3406574241165
 30
0.0
 40
1.0
100
AcDbArc
 50
351.1098238776168
 51
81.10982387761612
  0
LINE
  5
366
330
49E
100
AcDbEntity
  8
4
  6
CENTER
100
AcDbLine
 10
116.2830551617649
 20
208.2071992724173
 30
0.0
 11
116.2830551617649
 21
220.3071992724175
 31
0.0
  0
LINE
  5
367
330
49E
100
AcDbEntity
  8
1
  6
Continuous
100
AcDbLine
 10
110.7830551616458
 20
216.7571992724173
 30
0.0
 11
110.7830551616431
 21
218.7571992723652
 31
0.0
  0
ARC
  5
368
330
49E
100
AcDbEntity
  8
3
  6
DASHED
100
AcDbCircle
 10
117.9830551617648
 20
215.7571992724173
 30
0.0
 40
0.6000000000000001
100
AcDbArc
 50
89.99999999999998
 51
215.0000000000009
  0
ARC
  5
369
330
49E
100
AcDbEntity
  8
3
  6
DASHED
100
AcDbCircle
 10
117.9830551617648
 20
215.7571992724173
 30
0.0
 40
1.0
100
AcDbArc
 50
89.99999999999998
 51
215.0000000000003
  0
CIRCLE
  5
36A
330
49E
100
AcDbEntity
  8
1
  6
Continuous
100
AcDbCircle
 10
116.2830551617649
 20
214.2571992724174
 30
0.0
 40
2.499999999999969
  0
CIRCLE
  5
36B
330
49E
100
AcDbEntity
  8
1
  6
Continuous
100
AcDbCircle
 10
116.2830551617649
 20
214.2571992724174
 30
0.0
 40
1.25
  0
LINE
  5
36C
330
49E
100
AcDbEntity
  8
3
  6
DASHED
100
AcDbLine
 10
117.6725503726759
 20
214.4571992724173
 30
0.0
 11
118.0002111903914
 21
214.6866298469576
 31
0.0
  0
LINE
  5
36D
330
49E
100
AcDbEntity
  8
1
  6
Continuous
100
AcDbLine
 10
118.5225712029625
 20
215.3683103835212
 30
0.0
 11
120.3141840359206
 21
216.2571992724043
 31
0.0
  0
LINE
  5
36E
330
49E
100
AcDbEntity
  8
3
  6
DASHED
100
AcDbLine
 10
120.2630049101913
 20
216.3571992724174
 30
0.0
 11
117.9830551617648
 21
216.3571992724174
 31
0.0
  0
LINE
  5
36F
330
49E
100
AcDbEntity
  8
3
  6
DASHED
100
AcDbLine
 10
117.1639031174758
 20
215.1836228360663
 30
0.0
 11
117.6725503726759
 21
214.4571992724173
 31
0.0
  0
LINE
  5
370
330
49E
100
AcDbEntity
  8
3
  6
DASHED
100
AcDbLine
 10
117.4915639351913
 20
215.4130534106066
 30
0.0
 11
118.0002111903914
 21
214.6866298469576
 31
0.0
  0
ARC
  5
371
330
49E
100
AcDbEntity
  8
5
  6
PHANTOM
100
AcDbCircle
 10
117.8276361434895
 20
217.7579180955125
 30
0.0
 40
1.0
100
AcDbArc
 50
81.10982387761612
 51
206.1098238776171
  0
ARC
  5
372
330
49E
100
AcDbEntity
  8
5
  6
PHANTOM
100
AcDbCircle
 10
117.8276361434896
 20
217.7579180955127
 30
0.0
 40
0.6000000000000001
100
AcDbArc
 50
81.10982387761612
 51
206.1098238776177
  0
LINE
  5
373
330
49E
100
AcDbEntity
  8
5
  6
PHANTOM
100
AcDbLine
 10
120.5879239570225
 20
217.9334492507586
 30
0.0
 11
117.9203607371332
 21
218.3507099221547
 31
0.0
  0
LINE
  5
374
330
49E
100
AcDbEntity
  8
5
  6
PHANTOM
100
AcDbLine
 10
120.6497403527849
 20
218.3286438018532
 30
0.0
 11
117.9821771328955
 21
218.7459044732493
 31
0.0
  0
LINE
  5
375
330
49E
100
AcDbEntity
  8
5
  6
PHANTOM
100
AcDbLine
 10
117.3199583554201
 20
216.5215215217758
 30
0.0
 11
117.6791392078305
 21
216.6975587770987
 31
0.0
  0
LINE
  5
376
330
49E
100
AcDbEntity
  8
5
  6
PHANTOM
100
AcDbLine
 10
116.9296840124632
 20
217.3178249572053
 30
0.0
 11
117.3199583554201
 21
216.5215215217758
 31
0.0
  0
LINE
  5
377
330
49E
100
AcDbEntity
  8
5
  6
PHANTOM
100
AcDbLine
 10
117.2888648648737
 20
217.4938622125281
 30
0.0
 11
117.6791392078305
 21
216.6975587770987
 31
0.0
  0
LINE
  5
378
330
49E
100
AcDbEntity
  8
3
  6
DASHED
100
AcDbLine
 10
120.0247125485388
 20
216.7571992724173
 30
0.0
 11
117.9830551617648
 21
216.7571992724173
 31
0.0
  0
LINE
  5
379
330
49E
100
AcDbEntity
  8
5
  6
PHANTOM
100
AcDbLine
 10
128.3001148648778
 20
217.2177820163614
 30
0.0
 11
130.4767159960281
 21
218.0704250058612
 31
0.0
  0
LINE
  5
37A
330
49E
100
AcDbEntity
  8
5
  6
PHANTOM
100
AcDbLine
 10
127.8589160407063
 20
218.3440609767003
 30
0.0
 11
128.4460125240572
 21
216.8453389025226
 31
0.0
  0
LINE
  5
37B
330
49E
100
AcDbEntity
  8
3
  6
DASHED
100
AcDbLine
 10
127.8032399506876
 20
217.8865443747621
 30
0.0
 11
128.4627004597634
 21
216.757199272378
 31
0.0
  0
LINE
  5
37C
330
49E
100
AcDbEntity
  8
3
  6
DASHED
100
AcDbLine
 10
130.4318786198562
 20
218.0207531582767
 30
0.0
 11
123.231871328425
 21
213.8164400003825
 31
0.0
  0
LINE
  5
37D
330
49E
100
AcDbEntity
  8
5
  6
PHANTOM
100
AcDbLine
 10
122.1625479347719
 20
214.3839085765206
 30
0.0
 11
130.6226136552076
 21
217.6979818920224
 31
0.0
  0
LINE
  5
37E
330
49E
100
AcDbEntity
  8
1
  6
Continuous
100
AcDbLine
 10
129.0612532035908
 20
216.7571992724173
 30
0.0
 11
122.7873117295723
 21
213.0936453865114
 31
0.0
  0
ARC
  5
37F
330
49E
100
AcDbEntity
  8
1
  6
Continuous
100
AcDbCircle
 10
120.6830551617648
 20
215.7571992724174
 30
0.0
 40
0.6000000000000001
100
AcDbArc
 50
0.000000000000007
 51
89.99999999999998
  0
LINE
  5
380
330
49E
100
AcDbEntity
  8
5
  6
PHANTOM
100
AcDbLine
 10
121.2050119601814
 20
215.4077409547613
 30
0.0
 11
121.4831857411157
 21
217.1861164347106
 31
0.0
  0
LINE
  5
381
330
49E
100
AcDbEntity
  8
5
  6
PHANTOM
100
AcDbLine
 10
120.8098174090866
 20
215.4695573505237
 30
0.0
 11
121.0879911900209
 21
217.2479328304729
 31
0.0
  0
ARC
  5
382
330
49E
100
AcDbEntity
  8
1
  6
Continuous
100
AcDbCircle
 10
122.4233728685739
 20
216.1925756091737
 30
0.0
 40
0.5
100
AcDbArc
 50
106.2457706376619
 51
210.2820141055889
  0
LINE
  5
383
330
49E
100
AcDbEntity
  8
5
  6
PHANTOM
100
AcDbLine
 10
121.8163391481881
 20
217.3194808197554
 30
0.0
 11
122.8593658164747
 21
214.6568740148313
 31
0.0
  0
ARC
  5
384
330
49E
100
AcDbEntity
  8
1
  6
Continuous
100
AcDbCircle
 10
120.6830551617648
 20
215.7571992724173
 30
0.0
 40
1.0
100
AcDbArc
 50
0.000000000000007
 51
89.99999999999998
  0
LINE
  5
385
330
49E
100
AcDbEntity
  8
1
  6
Continuous
100
AcDbLine
 10
121.2830551617648
 20
213.957199272394
 30
0.0
 11
121.2830551617648
 21
215.7571992724174
 31
0.0
  0
LINE
  5
386
330
49E
100
AcDbEntity
  8
1
  6
Continuous
100
AcDbLine
 10
121.6830551617648
 20
213.957199272394
 30
0.0
 11
121.6830551617648
 21
215.7571992724173
 31
0.0
  0
LINE
  5
387
330
49E
100
AcDbEntity
  8
5
  6
PHANTOM
100
AcDbLine
 10
122.0166502755925
 20
214.7563516903595
 30
0.0
 11
122.7134681572953
 21
215.0293171286701
 31
0.0
  0
LINE
  5
388
330
49E
100
AcDbEntity
  8
1
  6
Continuous
100
AcDbLine
 10
121.9915959256326
 20
215.9404473252697
 30
0.0
 11
123.4335739555481
 21
213.4710184460295
 31
0.0
  0
LINE
  5
389
330
49E
100
AcDbEntity
  8
1
  6
Continuous
100
AcDbLine
 10
123.2318713284251
 20
213.8164400003825
 30
0.0
 11
122.5856091024493
 21
213.4390669408644
 31
0.0
  0
ARC
  5
38A
330
49E
100
AcDbEntity
  8
1
  6
Continuous
100
AcDbCircle
 10
122.2830551617648
 20
213.957199272394
 30
0.0
 40
1.0
100
AcDbArc
 50
180.0
 51
300.2820141055885
  0
ARC
  5
38B
330
49E
100
AcDbEntity
  8
1
  6
Continuous
100
AcDbCircle
 10
122.2830551617648
 20
213.957199272394
 30
0.0
 40
0.6
100
AcDbArc
 50
180.0
 51
300.2820141055885
  0
ARC
  5
38C
330
49E
100
AcDbEntity
  8
5
  6
PHANTOM
100
AcDbCircle
 10
121.7978037868232
 20
215.3150163611178
 30
0.0
 40
0.6
100
AcDbArc
 50
171.1098238776168
 51
291.3918379832056
  0
LINE
  5
38D
330
49E
100
AcDbEntity
  8
5
  6
PHANTOM
100
AcDbLine
 10
127.3293486528624
 20
218.6575742447035
 30
0.0
 11
122.2178795449413
 21
217.997738235707
 31
0.0
  0
LINE
  5
38E
330
49E
100
AcDbEntity
  8
3
  6
DASHED
100
AcDbLine
 10
127.2315839347751
 20
218.1144513447145
 30
0.0
 11
122.5737832414157
 21
216.7571992724173
 31
0.0
  0
LINE
  5
38F
330
49E
100
AcDbEntity
  8
1
  6
Continuous
100
AcDbLine
 10
122.5737832414158
 20
216.7571992724173
 30
0.0
 11
122.2834937956027
 21
216.6726108630296
 31
0.0
  0
ARC
  5
390
330
49E
100
AcDbEntity
  8
5
  6
PHANTOM
100
AcDbCircle
 10
122.2818930404867
 20
217.5018528937296
 30
0.0
 40
0.5
100
AcDbArc
 50
97.35559451527874
 51
201.3918379832055
  0
ARC
  5
391
330
49E
100
AcDbEntity
  8
3
  6
DASHED
100
AcDbCircle
 10
127.3714630077463
 20
217.6344160908584
 30
0.0
 40
0.5
100
AcDbArc
 50
30.28201410558748
 51
106.2457706376619
  0
ARC
  5
392
330
49E
100
AcDbEntity
  8
5
  6
PHANTOM
100
AcDbCircle
 10
127.3933621484077
 20
218.161688902726
 30
0.0
 40
0.5
100
AcDbArc
 50
21.39183798320551
 51
97.35559451527874
  0
LINE
  5
393
330
49E
100
AcDbEntity
  8
4
  6
CENTER
100
AcDbLine
 10
128.7830551617648
 20
215.2571992724173
 30
0.0
 11
128.7830551617648
 21
220.2571992724174
 31
0.0
  0
LINE
  5
394
330
49E
100
AcDbEntity
  8
1
  6
Continuous
100
AcDbLine
 10
130.7455208117224
 20
216.1677185239571
 30
0.0
 11
129.973654084894
 21
216.7571992724172
 31
0.0
  0
ARC
  5
395
330
49E
100
AcDbEntity
  8
1
  6
Continuous
100
AcDbCircle
 10
131.9594198809511
 20
217.7571992724173
 30
0.0
 40
2.0
100
AcDbArc
 50
232.6307402147985
 51
270.0
  0
LINE
  5
396
330
49E
100
AcDbEntity
  8
1
  6
Continuous
100
AcDbLine
 10
128.4627004597634
 20
216.757199272378
 30
0.0
 11
128.6148972708434
 21
216.4965578528749
 31
0.0
  0
ARC
  5
397
330
49E
100
AcDbEntity
  8
3
  6
DASHED
100
AcDbCircle
 10
130.9361351876636
 20
217.157199272394
 30
0.0
 40
1.0
100
AcDbArc
 50
89.99999999999998
 51
118.6254539035439
  0
ARC
  5
398
330
49E
100
AcDbEntity
  8
3
  6
DASHED
100
AcDbCircle
 10
130.9361351876637
 20
217.157199272394
 30
0.0
 40
0.6000000000000001
100
AcDbArc
 50
89.99999999999998
 51
118.625453903542
  0
LINE
  5
399
330
49E
100
AcDbEntity
  8
3
  6
DASHED
100
AcDbLine
 10
130.6335812469791
 20
217.6753316039236
 30
0.0
 11
129.0612532035908
 21
216.7571992724173
 31
0.0
  0
LINE
  5
39A
330
49E
100
AcDbEntity
  8
3
  6
DASHED
100
AcDbLine
 10
192.6742010783492
 20
163.8819332287151
 30
0.0
 11
192.6742010783492
 21
149.3819332286917
 31
0.0
  0
LINE
  5
39B
330
49E
100
AcDbEntity
  8
1
  6
Continuous
100
AcDbLine
 10
191.6742010783339
 20
158.2763819532543
 30
0.0
 11
191.6742010783339
 21
151.4874845041787
 31
0.0
  0
LINE
  5
39C
330
49E
100
AcDbEntity
  8
1
  6
Continuous
100
AcDbLine
 10
193.6742010783339
 20
158.88193322872
 30
0.0
 11
193.6742010783339
 21
150.881933228715
 31
0.0
  0
LINE
  5
39D
330
49E
100
AcDbEntity
  8
3
  6
DASHED
100
AcDbLine
 10
191.4242010783491
 20
163.3819332287052
 30
0.0
 11
192.6742010783489
 21
157.7819332287156
 31
0.0
  0
LINE
  5
39E
330
49E
100
AcDbEntity
  8
3
  6
DASHED
100
AcDbLine
 10
188.9242010783489
 20
163.3819332287051
 30
0.0
 11
187.6742010783489
 21
157.7819332287156
 31
0.0
  0
LINE
  5
39F
330
49E
100
AcDbEntity
  8
4
  6
CENTER
100
AcDbLine
 10
191.174201078344
 20
144.881933228715
 30
0.0
 11
196.1742010783441
 21
144.881933228715
 31
0.0
  0
LINE
  5
3A0
330
49E
100
AcDbEntity
  8
1
  6
Continuous
100
AcDbLine
 10
188.8742010782372
 20
151.3819332287142
 30
0.0
 11
191.6769882884069
 21
151.3819332287145
 31
0.0
  0
LINE
  5
3A1
330
49E
100
AcDbEntity
  8
1
  6
Continuous
100
AcDbLine
 10
189.3880202518728
 20
156.7819332287151
 30
0.0
 11
191.6742010783339
 21
156.7819332287151
 31
0.0
  0
LINE
  5
3A2
330
49E
100
AcDbEntity
  8
3
  6
DASHED
100
AcDbLine
 10
192.6742010783488
 20
157.7819332287156
 30
0.0
 11
187.6742010783489
 21
157.7819332287156
 31
0.0
  0
LINE
  5
3A3
330
49E
100
AcDbEntity
  8
3
  6
DASHED
100
AcDbLine
 10
192.6742010783492
 20
156.7819332287158
 30
0.0
 11
187.6742010783489
 21
156.7819332287156
 31
0.0
  0
LINE
  5
3A4
330
49E
100
AcDbEntity
  8
3
  6
DASHED
100
AcDbLine
 10
192.674201078349
 20
150.481933228714
 30
0.0
 11
187.674201078347
 21
150.4819332287208
 31
0.0
  0
LINE
  5
3A5
330
49E
100
AcDbEntity
  8
1
  6
Continuous
100
AcDbLine
 10
188.8742010782372
 20
156.381933228714
 30
0.0
 11
188.8742010782372
 21
151.3819332287142
 31
0.0
  0
LINE
  5
3A6
330
49E
100
AcDbEntity
  8
3
  6
DASHED
100
AcDbLine
 10
188.9242010783489
 20
156.7819332287156
 30
0.0
 11
188.9242010783489
 21
150.4819332287157
 31
0.0
  0
LINE
  5
3A7
330
49E
100
AcDbEntity
  8
1
  6
Continuous
100
AcDbLine
 10
188.8742010782372
 20
156.381933228714
 30
0.0
 11
189.3880202518728
 21
156.381933228714
 31
0.0
  0
LINE
  5
3A8
330
49E
100
AcDbEntity
  8
1
  6
Continuous
100
AcDbLine
 10
189.3880202518728
 20
156.7819332287151
 30
0.0
 11
189.3880202518728
 21
156.381933228714
 31
0.0
  0
LINE
  5
3A9
330
49E
100
AcDbEntity
  8
1
  6
Continuous
100
AcDbLine
 10
194.0742010782372
 20
156.381933228714
 30
0.0
 11
194.0742010782372
 21
151.3819332287549
 31
0.0
  0
LINE
  5
3AA
330
49E
100
AcDbEntity
  8
3
  6
DASHED
100
AcDbLine
 10
191.424201078349
 20
156.7819332287158
 30
0.0
 11
191.424201078349
 21
150.4819332287157
 31
0.0
  0
LINE
  5
3AB
330
49E
100
AcDbEntity
  8
1
  6
Continuous
100
AcDbLine
 10
193.6742010783339
 20
150.881933228715
 30
0.0
 11
194.3383016670095
 21
149.8857823457016
 31
0.0
  0
LINE
  5
3AC
330
49E
100
AcDbEntity
  8
1
  6
Continuous
100
AcDbLine
 10
193.6742010783339
 20
151.3819332287547
 30
0.0
 11
194.6742010784474
 21
151.3819332287553
 31
0.0
  0
LINE
  5
3AD
330
49E
100
AcDbEntity
  8
1
  6
Continuous
100
AcDbLine
 10
192.6742010783336
 20
149.3819332287151
 30
0.0
 11
192.0101004896581
 21
150.3780841117282
 31
0.0
  0
ARC
  5
3AE
330
49E
100
AcDbEntity
  8
1
  6
Continuous
100
AcDbCircle
 10
193.6742010783339
 20
151.4874845041787
 30
0.0
 40
2.0
100
AcDbArc
 50
180.0
 51
213.6900675259806
  0
ARC
  5
3AF
330
49E
100
AcDbEntity
  8
1
  6
Continuous
100
AcDbCircle
 10
192.6742010783339
 20
148.7763819532511
 30
0.0
 40
2.0
100
AcDbArc
 50
0.000000000000007
 51
33.69006752598251
  0
LINE
  5
3B0
330
49E
100
AcDbEntity
  8
1
  6
Continuous
100
AcDbLine
 10
194.0742010782372
 20
154.3819332289468
 30
0.0
 11
194.6742010783336
 21
154.3819332289477
 31
0.0
  0
LINE
  5
3B1
330
49E
100
AcDbEntity
  8
3
  6
DASHED
100
AcDbLine
 10
192.6742010783488
 20
157.7819332287156
 30
0.0
 11
192.6742010783492
 21
156.7819332287158
 31
0.0
  0
LINE
  5
3B2
330
49E
100
AcDbEntity
  8
1
  6
Continuous
100
AcDbLine
 10
193.6742010783339
 20
156.7819332287151
 30
0.0
 11
194.0514178967017
 21
156.7819332287151
 31
0.0
  0
LINE
  5
3B3
330
49E
100
AcDbEntity
  8
1
  6
Continuous
100
AcDbLine
 10
194.0514178967017
 20
156.7819332287151
 30
0.0
 11
194.0514178967017
 21
156.381933228714
 31
0.0
  0
LINE
  5
3B4
330
49E
100
AcDbEntity
  8
1
  6
Continuous
100
AcDbLine
 10
193.6742010783339
 20
156.381933228714
 30
0.0
 11
194.0742010782372
 21
156.381933228714
 31
0.0
  0
LINE
  5
3B5
330
49E
100
AcDbEntity
  8
3
  6
DASHED
100
AcDbLine
 10
188.9242010783489
 20
163.3819332287051
 30
0.0
 11
191.4242010783491
 21
163.3819332287052
 31
0.0
  0
LINE
  5
3B6
330
49E
100
AcDbEntity
  8
1
  6
Continuous
100
AcDbLine
 10
194.6742010783339
 20
163.881933228715
 30
0.0
 11
185.6742010783491
 21
163.881933228715
 31
0.0
  0
LINE
  5
3B7
330
49E
100
AcDbEntity
  8
1
  6
Continuous
100
AcDbLine
 10
192.6742010783339
 20
163.8819332287149
 30
0.0
 11
192.6742010783339
 21
160.3819332287151
 31
0.0
  0
LINE
  5
3B8
330
49E
100
AcDbEntity
  8
1
  6
Continuous
100
AcDbLine
 10
192.1742010783359
 20
163.881933228715
 30
0.0
 11
192.1742010783359
 21
159.6319332287205
 31
0.0
  0
LINE
  5
3B9
330
49E
100
AcDbEntity
  8
1
  6
Continuous
100
AcDbLine
 10
193.6742010783339
 20
158.3819332286753
 30
0.0
 11
194.6742010784474
 21
158.3819332286748
 31
0.0
  0
LINE
  5
3BA
330
49E
100
AcDbEntity
  8
1
  6
Continuous
100
AcDbLine
 10
193.6742010783339
 20
158.88193322872
 30
0.0
 11
194.3383016670079
 21
159.8780841117277
 31
0.0
  0
LINE
  5
3BB
330
49E
100
AcDbEntity
  8
1
  6
Continuous
100
AcDbLine
 10
192.6742010783339
 20
160.381933228715
 30
0.0
 11
192.01010048966
 21
159.3857823457073
 31
0.0
  0
ARC
  5
3BC
330
49E
100
AcDbEntity
  8
1
  6
Continuous
100
AcDbCircle
 10
193.6742010783339
 20
158.2763819532543
 30
0.0
 40
2.0
100
AcDbArc
 50
146.3099324739311
 51
180.0
  0
ARC
  5
3BD
330
49E
100
AcDbEntity
  8
1
  6
Continuous
100
AcDbCircle
 10
192.6742010783339
 20
160.9874845041808
 30
0.0
 40
2.0
100
AcDbArc
 50
326.3099324739312
 51
0.000000000000007
  0
LINE
  5
3BE
330
49E
100
AcDbEntity
  8
1
  6
Continuous
100
AcDbLine
 10
136.2830551617648
 20
215.7571992724173
 30
0.0
 11
136.2830551617648
 21
218.7571992724174
 31
0.0
  0
LINE
  5
3BF
330
49E
100
AcDbEntity
  8
4
  6
CENTER
100
AcDbLine
 10
264.0653469949183
 20
84.88193322871509
 30
0.0
 11
264.0653469949183
 21
166.881933228715
 31
0.0
  0
LINE
  5
3C0
330
49E
100
AcDbEntity
  8
3
  6
DASHED
100
AcDbLine
 10
261.5653469949183
 20
163.8819332287151
 30
0.0
 11
261.5653469949183
 21
88.8819332287151
 31
0.0
  0
LINE
  5
3C1
330
49E
100
AcDbEntity
  8
3
  6
DASHED
100
AcDbLine
 10
266.5653469949182
 20
163.8819332287151
 30
0.0
 11
266.5653469949182
 21
88.8819332287151
 31
0.0
  0
LINE
  5
3C2
330
49E
100
AcDbEntity
  8
1
  6
Continuous
100
AcDbLine
 10
269.5653469949184
 20
162.8819332287151
 30
0.0
 11
269.5653469949184
 21
126.881933228715
 31
0.0
  0
LINE
  5
3C3
330
49E
100
AcDbEntity
  8
1
  6
Continuous
100
AcDbLine
 10
268.5653469949183
 20
163.881933228715
 30
0.0
 11
268.5653469949183
 21
126.881933228715
 31
0.0
  0
LINE
  5
3C4
330
49E
100
AcDbEntity
  8
1
  6
Continuous
100
AcDbLine
 10
284.0653469949182
 20
161.881933228715
 30
0.0
 11
284.0653469949182
 21
90.88193322871513
 31
0.0
  0
LINE
  5
3C5
330
49E
100
AcDbEntity
  8
1
  6
Continuous
100
AcDbLine
 10
244.0653469949184
 20
161.881933228715
 30
0.0
 11
244.0653469949184
 21
90.88193322871513
 31
0.0
  0
ARC
  5
3C6
330
49E
100
AcDbEntity
  8
1
  6
Continuous
100
AcDbCircle
 10
260.0653469949183
 20
126.3819332287151
 30
0.0
 40
0.4999999999999716
100
AcDbArc
 50
90.0
 51
270.0
  0
LINE
  5
3C7
330
49E
100
AcDbEntity
  8
1
  6
Continuous
100
AcDbLine
 10
268.5653469949183
 20
126.881933228715
 30
0.0
 11
259.5653469949184
 21
126.881933228715
 31
0.0
  0
LINE
  5
3C8
330
49E
100
AcDbEntity
  8
1
  6
Continuous
100
AcDbLine
 10
268.5653469949183
 20
125.881933228715
 30
0.0
 11
259.5653469949184
 21
125.881933228715
 31
0.0
  0
LINE
  5
3C9
330
49E
100
AcDbEntity
  8
1
  6
Continuous
100
AcDbLine
 10
282.0653469949182
 20
88.8819332287151
 30
0.0
 11
259.5653469949184
 21
88.8819332287151
 31
0.0
  0
LINE
  5
3CA
330
49E
100
AcDbEntity
  8
1
  6
Continuous
100
AcDbLine
 10
259.5653469949184
 20
125.881933228715
 30
0.0
 11
259.5653469949184
 21
88.8819332287151
 31
0.0
  0
LINE
  5
3CB
330
49E
100
AcDbEntity
  8
1
  6
Continuous
100
AcDbLine
 10
258.5653469949184
 20
125.881933228715
 30
0.0
 11
258.5653469949184
 21
89.8819332287152
 31
0.0
  0
ARC
  5
3CC
330
49E
100
AcDbEntity
  8
1
  6
Continuous
100
AcDbCircle
 10
246.0653469949184
 20
90.88193322871513
 30
0.0
 40
2.0
100
AcDbArc
 50
180.0
 51
270.0
  0
LINE
  5
3CD
330
49E
100
AcDbEntity
  8
1
  6
Continuous
100
AcDbLine
 10
257.5653469949183
 20
88.8819332287151
 30
0.0
 11
246.0653469949184
 21
88.8819332287151
 31
0.0
  0
ARC
  5
3CE
330
49E
100
AcDbEntity
  8
1
  6
Continuous
100
AcDbCircle
 10
257.5653469949183
 20
89.8819332287152
 30
0.0
 40
1.0
100
AcDbArc
 50
270.0
 51
0.000000000000007
  0
LINE
  5
3CF
330
49E
100
AcDbEntity
  8
4
  6
CENTER
100
AcDbLine
 10
251.5653469949183
 20
112.581933228715
 30
0.0
 11
251.5653469949183
 21
103.1819332287151
 31
0.0
  0
LINE
  5
3D0
330
49E
100
AcDbEntity
  8
4
  6
CENTER
100
AcDbLine
 10
246.8653469949182
 20
107.881933228715
 30
0.0
 11
256.2653469949183
 21
107.881933228715
 31
0.0
  0
CIRCLE
  5
3D1
330
49E
100
AcDbEntity
  8
1
  6
Continuous
100
AcDbCircle
 10
251.5653469949183
 20
107.881933228715
 30
0.0
 40
2.5
  0
ARC
  5
3D2
330
49E
100
AcDbEntity
  8
1
  6
Continuous
100
AcDbCircle
 10
259.5653469949184
 20
125.881933228715
 30
0.0
 40
1.0
100
AcDbArc
 50
90.0
 51
180.0
  0
LINE
  5
3D3
330
49E
100
AcDbEntity
  8
1
  6
Continuous
100
AcDbLine
 10
266.9153469949184
 20
88.8819332287151
 30
0.0
 11
266.5653469949183
 21
87.88193322871519
 31
0.0
  0
LINE
  5
3D4
330
49E
100
AcDbEntity
  8
1
  6
Continuous
100
AcDbLine
 10
261.2153469949181
 20
88.8819332287151
 30
0.0
 11
261.5653469949183
 21
87.88193322871505
 31
0.0
  0
LINE
  5
3D5
330
49E
100
AcDbEntity
  8
1
  6
Continuous
100
AcDbLine
 10
261.5653469949184
 20
87.88193322871505
 30
0.0
 11
266.5653469949183
 21
87.88193322871505
 31
0.0
  0
ARC
  5
3D6
330
49E
100
AcDbEntity
  8
1
  6
Continuous
100
AcDbCircle
 10
282.0653469949182
 20
90.88193322871513
 30
0.0
 40
2.0
100
AcDbArc
 50
270.0
 51
0.000000000000007
  0
LINE
  5
3D7
330
49E
100
AcDbEntity
  8
4
  6
CENTER
100
AcDbLine
 10
281.2653469949184
 20
107.881933228715
 30
0.0
 11
271.8653469949185
 21
107.881933228715
 31
0.0
  0
CIRCLE
  5
3D8
330
49E
100
AcDbEntity
  8
1
  6
Continuous
100
AcDbCircle
 10
276.5653469949183
 20
107.881933228715
 30
0.0
 40
2.5
  0
LINE
  5
3D9
330
49E
100
AcDbEntity
  8
4
  6
CENTER
100
AcDbLine
 10
276.5653469949183
 20
112.581933228715
 30
0.0
 11
276.5653469949183
 21
103.1819332287151
 31
0.0
  0
ARC
  5
3DA
330
49E
100
AcDbEntity
  8
1
  6
Continuous
100
AcDbCircle
 10
268.5653469949183
 20
126.881933228715
 30
0.0
 40
1.0
100
AcDbArc
 50
270.0
 51
0.000000000000007
  0
ARC
  5
3DB
330
49E
100
AcDbEntity
  8
1
  6
Continuous
100
AcDbCircle
 10
268.0653469949183
 20
126.381933228715
 30
0.0
 40
0.4999999999999716
100
AcDbArc
 50
270.0
 51
90.0
  0
LINE
  5
3DC
330
49E
100
AcDbEntity
  8
1
  6
Continuous
100
AcDbLine
 10
263.3653469949182
 20
156.381933228714
 30
0.0
 11
245.0653469949183
 21
156.381933228714
 31
0.0
  0
LINE
  5
3DD
330
49E
100
AcDbEntity
  8
1
  6
Continuous
100
AcDbLine
 10
263.7653469949183
 20
151.3819332287137
 30
0.0
 11
257.065346994847
 21
151.3819332287143
 31
0.0
  0
LINE
  5
3DE
330
49E
100
AcDbEntity
  8
1
  6
Continuous
100
AcDbLine
 10
263.7653469949183
 20
158.381933228715
 30
0.0
 11
249.3653469950297
 21
158.381933228715
 31
0.0
  0
LINE
  5
3DF
330
49E
100
AcDbEntity
  8
1
  6
Continuous
100
AcDbLine
 10
268.5653469949183
 20
163.881933228715
 30
0.0
 11
246.0653469949184
 21
163.881933228715
 31
0.0
  0
LINE
  5
3E0
330
49E
100
AcDbEntity
  8
1
  6
Continuous
100
AcDbLine
 10
259.5653469949186
 20
158.381933228715
 30
0.0
 11
259.5653469949184
 21
156.381933228714
 31
0.0
  0
LINE
  5
3E1
330
49E
100
AcDbEntity
  8
1
  6
Continuous
100
AcDbLine
 10
249.0653469950299
 20
156.381933228714
 30
0.0
 11
249.0653469950297
 21
158.081933228715
 31
0.0
  0
ARC
  5
3E2
330
49E
100
AcDbEntity
  8
1
  6
Continuous
100
AcDbCircle
 10
245.0653469949183
 20
155.381933228714
 30
0.0
 40
1.0
100
AcDbArc
 50
90.0
 51
180.0
  0
ARC
  5
3E3
330
49E
100
AcDbEntity
  8
1
  6
Continuous
100
AcDbCircle
 10
245.0653469949183
 20
152.381933228714
 30
0.0
 40
1.0
100
AcDbArc
 50
180.0
 51
270.0
  0
LINE
  5
3E4
330
49E
100
AcDbEntity
  8
1
  6
Continuous
100
AcDbLine
 10
244.0653469949182
 20
150.7152665620486
 30
0.0
 11
249.0653469950307
 21
150.7152665620486
 31
0.0
  0
LINE
  5
3E5
330
49E
100
AcDbEntity
  8
4
  6
CENTER
100
AcDbLine
 10
251.5653469949183
 20
149.581933228715
 30
0.0
 11
251.5653469949183
 21
140.1819332287151
 31
0.0
  0
CIRCLE
  5
3E6
330
49E
100
AcDbEntity
  8
1
  6
Continuous
100
AcDbCircle
 10
251.5653469949182
 20
144.881933228715
 30
0.0
 40
2.5
  0
LINE
  5
3E7
330
49E
100
AcDbEntity
  8
4
  6
CENTER
100
AcDbLine
 10
246.8653469949182
 20
144.881933228715
 30
0.0
 11
256.2653469949183
 21
144.881933228715
 31
0.0
  0
LINE
  5
3E8
330
49E
100
AcDbEntity
  8
1
  6
Continuous
100
AcDbLine
 10
253.0653469950667
 20
151.3819332287147
 30
0.0
 11
245.0653469949182
 21
151.3819332287154
 31
0.0
  0
LINE
  5
3E9
330
49E
100
AcDbEntity
  8
1
  6
Continuous
100
AcDbLine
 10
258.4260292881087
 20
156.7819332287151
 30
0.0
 11
251.7345048858411
 21
156.7819332287151
 31
0.0
  0
ARC
  5
3EA
330
49E
100
AcDbEntity
  8
1
  6
Continuous
100
AcDbCircle
 10
249.0653469950307
 20
151.7152665620486
 30
0.0
 40
1.0
100
AcDbArc
 50
270.0
 51
340.5287793654945
  0
LINE
  5
3EB
330
49E
100
AcDbEntity
  8
1
  6
Continuous
100
AcDbLine
 10
251.7345048858411
 20
156.7819332287151
 30
0.0
 11
251.7345048858411
 21
156.3819332287153
 31
0.0
  0
LINE
  5
3EC
330
49E
100
AcDbEntity
  8
1
  6
Continuous
100
AcDbLine
 10
258.6653469949185
 20
151.381933228714
 30
0.0
 11
258.6653469949184
 21
156.3819332287163
 31
0.0
  0
LINE
  5
3ED
330
49E
100
AcDbEntity
  8
1
  6
Continuous
100
AcDbLine
 10
256.565346994847
 20
151.8819332287141
 30
0.0
 11
256.565346994847
 21
153.881933228715
 31
0.0
  0
LINE
  5
3EE
330
49E
100
AcDbEntity
  8
1
  6
Continuous
100
AcDbLine
 10
253.5653469950668
 20
151.881933228715
 30
0.0
 11
253.5653469950668
 21
153.881933228715
 31
0.0
  0
ARC
  5
3EF
330
49E
100
AcDbEntity
  8
1
  6
Continuous
100
AcDbCircle
 10
253.0653469950669
 20
151.881933228715
 30
0.0
 40
0.5
100
AcDbArc
 50
270.0
 51
0.000000000000007
  0
ARC
  5
3F0
330
49E
100
AcDbEntity
  8
1
  6
Continuous
100
AcDbCircle
 10
257.065346994847
 20
151.8819332287141
 30
0.0
 40
0.5
100
AcDbArc
 50
180.0
 51
270.0
  0
LINE
  5
3F1
330
49E
100
AcDbEntity
  8
1
  6
Continuous
100
AcDbLine
 10
256.065346994847
 20
154.381933228715
 30
0.0
 11
254.0653469950668
 21
154.381933228715
 31
0.0
  0
ARC
  5
3F2
330
49E
100
AcDbEntity
  8
1
  6
Continuous
100
AcDbCircle
 10
254.0653469950668
 20
153.881933228715
 30
0.0
 40
0.5
100
AcDbArc
 50
90.0
 51
180.0
  0
LINE
  5
3F3
330
49E
100
AcDbEntity
  8
1
  6
Continuous
100
AcDbLine
 10
258.4260292881087
 20
156.7819332287151
 30
0.0
 11
258.4260292881086
 21
156.3819332287153
 31
0.0
  0
ARC
  5
3F4
330
49E
100
AcDbEntity
  8
1
  6
Continuous
100
AcDbCircle
 10
256.065346994847
 20
153.881933228715
 30
0.0
 40
0.5
100
AcDbArc
 50
0.000000000000007
 51
90.0
  0
LINE
  5
3F5
330
49E
100
AcDbEntity
  8
1
  6
Continuous
100
AcDbLine
 10
244.0723035377347
 20
159.0485998953816
 30
0.0
 11
249.0653469950307
 21
159.0485998953816
 31
0.0
  0
ARC
  5
3F6
330
49E
100
AcDbEntity
  8
1
  6
Continuous
100
AcDbCircle
 10
246.0653469949184
 20
161.881933228715
 30
0.0
 40
2.0
100
AcDbArc
 50
90.0
 51
180.0
  0
ARC
  5
3F7
330
49E
100
AcDbEntity
  8
1
  6
Continuous
100
AcDbCircle
 10
249.3653469950297
 20
158.081933228715
 30
0.0
 40
0.3
100
AcDbArc
 50
90.0
 51
180.0
  0
ARC
  5
3F8
330
49E
100
AcDbEntity
  8
1
  6
Continuous
100
AcDbCircle
 10
249.0653469950307
 20
158.0485998953816
 30
0.0
 40
1.0
100
AcDbArc
 50
19.47122063449294
 51
90.0
  0
LINE
  5
3F9
330
49E
100
AcDbEntity
  8
1
  6
Continuous
100
AcDbLine
 10
261.8258309537494
 20
158.381933228715
 30
0.0
 11
261.8258309537494
 21
156.381933228714
 31
0.0
  0
LINE
  5
3FA
330
49E
100
AcDbEntity
  8
1
  6
Continuous
100
AcDbLine
 10
260.0342181207626
 20
158.381933228715
 30
0.0
 11
260.0342181207626
 21
156.381933228714
 31
0.0
  0
LINE
  5
3FB
330
49E
100
AcDbEntity
  8
3
  6
DASHED
100
AcDbLine
 10
262.8153469949182
 20
163.3819332287051
 30
0.0
 11
261.5653469949183
 21
157.7819332287166
 31
0.0
  0
LINE
  5
3FC
330
49E
100
AcDbEntity
  8
3
  6
DASHED
100
AcDbLine
 10
265.3153469949184
 20
163.3819332287052
 30
0.0
 11
266.5653469949182
 21
157.7819332287156
 31
0.0
  0
LINE
  5
3FD
330
49E
100
AcDbEntity
  8
1
  6
Continuous
100
AcDbLine
 10
264.0653469949183
 20
158.081933228715
 30
0.0
 11
264.0653469949183
 21
151.681933228715
 31
0.0
  0
LINE
  5
3FE
330
49E
100
AcDbEntity
  8
4
  6
CENTER
100
AcDbLine
 10
281.2653469949184
 20
144.881933228715
 30
0.0
 11
271.8653469949185
 21
144.881933228715
 31
0.0
  0
CIRCLE
  5
3FF
330
49E
100
AcDbEntity
  8
1
  6
Continuous
100
AcDbCircle
 10
276.5653469949186
 20
144.881933228715
 30
0.0
 40
2.5
  0
LINE
  5
400
330
49E
100
AcDbEntity
  8
3
  6
DASHED
100
AcDbLine
 10
262.8153469949182
 20
156.381933228714
 30
0.0
 11
262.8153469949182
 21
150.4819332287157
 31
0.0
  0
LINE
  5
401
330
49E
100
AcDbEntity
  8
3
  6
DASHED
100
AcDbLine
 10
265.3153469949182
 20
156.7819332287158
 30
0.0
 11
265.3153469949182
 21
150.4819332287157
 31
0.0
  0
LINE
  5
402
330
49E
100
AcDbEntity
  8
1
  6
Continuous
100
AcDbLine
 10
263.3653469949182
 20
151.381933228714
 30
0.0
 11
263.3653469949182
 21
156.381933228714
 31
0.0
  0
LINE
  5
403
330
49E
100
AcDbEntity
  8
3
  6
DASHED
100
AcDbLine
 10
266.5653469949182
 20
150.481933228714
 30
0.0
 11
261.5653469949163
 21
150.4819332287208
 31
0.0
  0
ARC
  5
404
330
49E
100
AcDbEntity
  8
1
  6
Continuous
100
AcDbCircle
 10
263.7653469949183
 20
151.681933228715
 30
0.0
 40
0.3
100
AcDbArc
 50
270.0
 51
0.000000000000007
  0
LINE
  5
405
330
49E
100
AcDbEntity
  8
1
  6
Continuous
100
AcDbLine
 10
264.0653469949183
 20
157.7819332287156
 30
0.0
 11
261.8258309537494
 21
157.7819332287156
 31
0.0
  0
LINE
  5
406
330
49E
100
AcDbEntity
  8
1
  6
Continuous
100
AcDbLine
 10
264.0653469949183
 20
156.7819332287156
 30
0.0
 11
261.8258309537494
 21
156.7819332287156
 31
0.0
  0
LINE
  5
407
330
49E
100
AcDbEntity
  8
3
  6
DASHED
100
AcDbLine
 10
261.8258309537494
 20
156.7819332287156
 30
0.0
 11
261.5653469949183
 21
156.7819332287156
 31
0.0
  0
LINE
  5
408
330
49E
100
AcDbEntity
  8
3
  6
DASHED
100
AcDbLine
 10
261.8258309537494
 20
157.7819332287156
 30
0.0
 11
261.5653469949183
 21
157.7819332287166
 31
0.0
  0
LINE
  5
409
330
49E
100
AcDbEntity
  8
1
  6
Continuous
100
AcDbLine
 10
262.8153469949182
 20
156.7819332287156
 30
0.0
 11
262.8153469949182
 21
156.381933228714
 31
0.0
  0
LINE
  5
40A
330
49E
100
AcDbEntity
  8
3
  6
DASHED
100
AcDbLine
 10
266.5653469949183
 20
156.7819332287158
 30
0.0
 11
264.0653469949183
 21
156.7819332287156
 31
0.0
  0
LINE
  5
40B
330
49E
100
AcDbEntity
  8
3
  6
DASHED
100
AcDbLine
 10
266.5653469949181
 20
157.7819332287156
 30
0.0
 11
264.0653469949183
 21
157.7819332287156
 31
0.0
  0
LINE
  5
40C
330
49E
100
AcDbEntity
  8
4
  6
CENTER
100
AcDbLine
 10
276.5653469949186
 20
149.581933228715
 30
0.0
 11
276.5653469949186
 21
140.1819332287151
 31
0.0
  0
LINE
  5
40D
330
49E
100
AcDbEntity
  8
1
  6
Continuous
100
AcDbLine
 10
282.0653469949182
 20
163.881933228715
 30
0.0
 11
270.5653469949183
 21
163.881933228715
 31
0.0
  0
ARC
  5
40E
330
49E
100
AcDbEntity
  8
1
  6
Continuous
100
AcDbCircle
 10
263.7653469949183
 20
158.081933228715
 30
0.0
 40
0.3
100
AcDbArc
 50
0.000000000000007
 51
90.0
  0
LINE
  5
40F
330
49E
100
AcDbEntity
  8
3
  6
DASHED
100
AcDbLine
 10
262.8153469949182
 20
163.3819332287051
 30
0.0
 11
265.3153469949184
 21
163.3819332287052
 31
0.0
  0
ARC
  5
410
330
49E
100
AcDbEntity
  8
1
  6
Continuous
100
AcDbCircle
 10
270.5653469949183
 20
162.8819332287151
 30
0.0
 40
1.0
100
AcDbArc
 50
90.0
 51
180.0
  0
ARC
  5
411
330
49E
100
AcDbEntity
  8
1
  6
Continuous
100
AcDbCircle
 10
282.0653469949182
 20
161.881933228715
 30
0.0
 40
2.0
100
AcDbArc
 50
0.000000000000007
 51
90.0
  0
LINE
  5
41E
330
49E
100
AcDbEntity
  8
1
  6
Continuous
100
AcDbLine
 10
127.78305516178
 20
137.0226490854424
 30
0.0
 11
128.3063122065943
 21
136.778650318262
 31
0.0
  0
LINE
  5
41F
330
49E
100
AcDbEntity
  8
1
  6
Continuous
100
AcDbLine
 10
127.78305516178
 20
137.0226490854424
 30
0.0
 11
129.78305516178
 21
137.0226490854424
 31
0.0
  0
ENDSEC
  0
SECTION
  2
OBJECTS
  0
DICTIONARY
  5
43B
330
0
100
AcDbDictionary
281
     1
  3
ACAD_CIP_PREVIOUS_PRODUCT_INFO
350
4B7
  3
ACAD_COLOR
350
491
  3
ACAD_DETAILVIEWSTYLE
350
498
  3
ACAD_GROUP
350
43C
  3
ACAD_LAYOUT
350
490
  3
ACAD_MATERIAL
350
43F
  3
ACAD_MLEADERSTYLE
350
494
  3
ACAD_MLINESTYLE
350
48D
  3
ACAD_PLOTSETTINGS
350
48F
  3
ACAD_PLOTSTYLENAME
350
43D
  3
ACAD_SCALELIST
350
471
  3
ACAD_SECTIONVIEWSTYLE
350
496
  3
ACAD_TABLESTYLE
350
492
  3
ACAD_VISUALSTYLE
350
458
  3
ACDB_RECOMPOSE_DATA
350
4D5
  3
AcDbVariableDictionary
350
4C8
  3
DWGPROPS
350
4D6
  0
DICTIONARY
  5
4B8
330
483
100
AcDbDictionary
280
     1
281
     1
  3
ADSK_XREC_LAYER_RECONCILED
360
4B9
  0
DICTIONARY
  5
4BA
330
4A6
100
AcDbDictionary
280
     1
281
     1
  3
ADSK_XREC_LAYER_RECONCILED
360
4BB
  0
DICTIONARY
  5
4BC
330
4A7
100
AcDbDictionary
280
     1
281
     1
  3
ADSK_XREC_LAYER_RECONCILED
360
4BD
  0
DICTIONARY
  5
4BE
330
4A8
100
AcDbDictionary
280
     1
281
     1
  3
ADSK_XREC_LAYER_RECONCILED
360
4BF
  0
DICTIONARY
  5
4C0
330
4A9
100
AcDbDictionary
280
     1
281
     1
  3
ADSK_XREC_LAYER_RECONCILED
360
4C1
  0
DICTIONARY
  5
4C2
330
4AA
100
AcDbDictionary
280
     1
281
     1
  3
ADSK_XREC_LAYER_RECONCILED
360
4C3
  0
DICTIONARY
  5
4C4
330
4AB
100
AcDbDictionary
280
     1
281
     1
  3
ADSK_XREC_LAYER_RECONCILED
360
4C5
  0
DICTIONARY
  5
4C6
330
4AC
100
AcDbDictionary
280
     1
281
     1
  3
ADSK_XREC_LAYER_RECONCILED
360
4C7
  0
XRECORD
  5
4B7
102
{ACAD_REACTORS
330
43B
102
}
330
43B
100
AcDbXrecord
280
     1
300
ACDLT
300
2014
300
ACDLT_F_S
  0
DICTIONARY
  5
491
102
{ACAD_REACTORS
330
43B
102
}
330
43B
100
AcDbDictionary
281
     1
  0
DICTIONARY
  5
498
102
{ACAD_REACTORS
330
43B
102
}
330
43B
100
AcDbDictionary
281
     1
  3
Imperial24
350
499
  0
DICTIONARY
  5
43C
102
{ACAD_REACTORS
330
43B
102
}
330
43B
100
AcDbDictionary
281
     1
  0
DICTIONARY
  5
490
102
{ACAD_REACTORS
330
43B
102
}
330
43B
100
AcDbDictionary
281
     1
  3
Model
350
4A1
  3
レイアウト1
350
49D
  0
DICTIONARY
  5
43F
102
{ACAD_REACTORS
330
43B
102
}
330
43B
100
AcDbDictionary
281
     1
  3
ByBlock
350
448
  3
ByLayer
350
440
  3
Global
350
450
  0
DICTIONARY
  5
494
102
{ACAD_REACTORS
330
43B
102
}
330
43B
100
AcDbDictionary
281
     1
  3
Standard
350
495
  0
DICTIONARY
  5
48D
102
{ACAD_REACTORS
330
43B
102
}
330
43B
100
AcDbDictionary
281
     1
  3
Standard
350
48E
  0
DICTIONARY
  5
48F
102
{ACAD_REACTORS
330
43B
102
}
330
43B
100
AcDbDictionary
281
     1
  0
ACDBDICTIONARYWDFLT
  5
43D
102
{ACAD_REACTORS
330
43B
102
}
330
43B
100
AcDbDictionary
281
     1
  3
Normal
350
43E
100
AcDbDictionaryWithDefault
340
43E
  0
DICTIONARY
  5
471
102
{ACAD_REACTORS
330
43B
102
}
330
43B
100
AcDbDictionary
281
     1
  3
A0
350
472
  3
A1
350
473
  3
A2
350
474
  3
A3
350
475
  3
A4
350
476
  3
A5
350
477
  3
A6
350
478
  3
A7
350
479
  3
A8
350
47A
  3
A9
350
47B
  3
B0
350
47C
  3
B1
350
47D
  3
B2
350
47E
  3
B3
350
47F
  3
B4
350
480
  3
B5
350
481
  3
B6
350
482
  0
DICTIONARY
  5
496
102
{ACAD_REACTORS
330
43B
102
}
330
43B
100
AcDbDictionary
281
     1
  3
Imperial24
350
497
  0
DICTIONARY
  5
492
102
{ACAD_REACTORS
330
43B
102
}
330
43B
100
AcDbDictionary
281
     1
  3
Standard
350
493
  0
DICTIONARY
  5
458
102
{ACAD_REACTORS
330
43B
102
}
330
43B
100
AcDbDictionary
281
     1
  3
2dWireframe
350
45E
  3
Basic
350
45D
  3
Brighten
350
464
  3
ColorChange
350
468
  3
Conceptual
350
461
  3
Dim
350
463
  3
EdgeColorOff
350
470
  3
Facepattern
350
467
  3
Flat
350
459
  3
FlatWithEdges
350
45A
  3
Gouraud
350
45B
  3
GouraudWithEdges
350
45C
  3
Hidden
350
460
  3
JitterOff
350
46E
  3
Linepattern
350
466
  3
OverhangOff
350
46F
  3
Realistic
350
462
  3
Shaded
350
46D
  3
Shaded with edges
350
46C
  3
Shades of Gray
350
469
  3
Sketchy
350
46A
  3
Thicken
350
465
  3
Wireframe
350
45F
  3
X-Ray
350
46B
  0
XRECORD
  5
4D5
102
{ACAD_REACTORS
330
43B
102
}
330
43B
100
AcDbXrecord
280
     1
 90
        1
330
493
  0
DICTIONARY
  5
4C8
102
{ACAD_REACTORS
330
43B
102
}
330
43B
100
AcDbDictionary
281
     1
  3
CANNOSCALE
350
4CD
  3
CMLEADERSTYLE
350
4CA
  3
CTABLESTYLE
350
4C9
  3
CVIEWDETAILSTYLE
350
4CB
  3
CVIEWSECTIONSTYLE
350
4CC
  3
DIMASSOC
350
4D0
  3
INDEXCTL
350
4CF
  3
SORTENTS
350
4CE
  3
XCLIPFRAME
350
4D1
  0
XRECORD
  5
4D6
102
{ACAD_REACTORS
330
43B
102
}
330
43B
100
AcDbXrecord
280
     1
  1
DWGPROPS COOKIE
  2

  3

  4

  6

  7

  8
Yoshitsune
  9

300
=
301
=
302
=
303
=
304
=
305
=
306
=
307
=
308
=
309
=
 40
0.0011512962962963
 41
2456276.61303162
 42
2457192.616821655
  1

 90
        0
  0
XRECORD
  5
4B9
102
{ACAD_REACTORS
330
4B8
102
}
330
4B8
100
AcDbXrecord
280
     1
290
     1
  0
XRECORD
  5
4BB
102
{ACAD_REACTORS
330
4BA
102
}
330
4BA
100
AcDbXrecord
280
     1
290
     1
  0
XRECORD
  5
4BD
102
{ACAD_REACTORS
330
4BC
102
}
330
4BC
100
AcDbXrecord
280
     1
290
     1
  0
XRECORD
  5
4BF
102
{ACAD_REACTORS
330
4BE
102
}
330
4BE
100
AcDbXrecord
280
     1
290
     1
  0
XRECORD
  5
4C1
102
{ACAD_REACTORS
330
4C0
102
}
330
4C0
100
AcDbXrecord
280
     1
290
     1
  0
XRECORD
  5
4C3
102
{ACAD_REACTORS
330
4C2
102
}
330
4C2
100
AcDbXrecord
280
     1
290
     1
  0
XRECORD
  5
4C5
102
{ACAD_REACTORS
330
4C4
102
}
330
4C4
100
AcDbXrecord
280
     1
290
     1
  0
XRECORD
  5
4C7
102
{ACAD_REACTORS
330
4C6
102
}
330
4C6
100
AcDbXrecord
280
     1
290
     1
  0
ACDBDETAILVIEWSTYLE
  5
499
102
{ACAD_XDICTIONARY
360
50E
102
}
102
{ACAD_REACTORS
330
498
102
}
330
498
100
AcDbModelDocViewStyle
 70
     0
  3
Imperial24
290
     0
100
AcDbDetailViewStyle
 70
     0
 71
     0
 90
        3
 71
     1
340
484
 40
0.24
340
0
 40
0.24
300

 40
0.36
280
     3
 71
     2
340
48B
 90
       25
 71
     3
340
484
 40
0.24
 90
        1
 40
0.75
 90
        1
300
%<\AcVar ViewType \f "%tc1">% %<\AcVar ViewDetailId>%\PSCALE %<\AcVar ViewScale \f "%sn">%
 71
     4
340
48B
 90
       25
340
48B
 90
       25
280
     0
  0
LAYOUT
  5
4A1
102
{ACAD_XDICTIONARY
360
512
102
}
102
{ACAD_REACTORS
330
490
102
}
330
490
100
AcDbPlotSettings
  1

  2
Canon LBP9100C
  4

  6

 40
0.0
 41
0.0
 42
0.0
 43
0.0
 44
0.0
 45
0.0
 46
0.0
 47
0.0
 48
0.0
 49
0.0
140
0.0
141
0.0
142
1.0
143
1.0
 70
  1712
 72
     0
 73
     0
 74
     0
  7

 75
     0
147
1.0
148
0.0
149
0.0
100
AcDbLayout
  1
Model
 70
     1
 71
     0
 10
0.0
 20
0.0
 11
12.0
 21
9.0
 12
0.0
 22
0.0
 32
0.0
 14
0.0
 24
0.0
 34
0.0
 15
0.0
 25
0.0
 35
0.0
146
0.0
 13
0.0
 23
0.0
 33
0.0
 16
1.0
 26
0.0
 36
0.0
 17
0.0
 27
1.0
 37
0.0
 76
     0
330
49E
331
4A2
  0
LAYOUT
  5
49D
102
{ACAD_XDICTIONARY
360
510
102
}
102
{ACAD_REACTORS
330
490
102
}
330
490
100
AcDbPlotSettings
  1

  2
Canon LBP9100C
  4

  6

 40
0.0
 41
0.0
 42
0.0
 43
0.0
 44
0.0
 45
0.0
 46
0.0
 47
0.0
 48
0.0
 49
0.0
140
0.0
141
0.0
142
1.0
143
1.0
 70
   688
 72
     0
 73
     0
 74
     5
  7

 75
    16
147
1.0
148
0.0
149
0.0
100
AcDbLayout
  1
レイアウト1
 70
     1
 71
     1
 10
0.0
 20
0.0
 11
420.0
 21
297.0
 12
0.0
 22
0.0
 32
0.0
 14
1.000000000000000E+20
 24
1.000000000000000E+20
 34
1.000000000000000E+20
 15
-1.000000000000000E+20
 25
-1.000000000000000E+20
 35
-1.000000000000000E+20
146
0.0
 13
0.0
 23
0.0
 33
0.0
 16
1.0
 26
0.0
 36
0.0
 17
0.0
 27
1.0
 37
0.0
 76
     0
330
49A
  0
MATERIAL
  5
448
102
{ACAD_XDICTIONARY
360
449
102
}
102
{ACAD_REACTORS
330
43F
102
}
330
43F
100
AcDbMaterial
  1
ByBlock
 72
     0
 43
0.0208333333333333
 43
0.0
 43
0.0
 43
0.0
 43
0.0
 43
0.0208333333333333
 43
0.0
 43
0.0
 43
0.0
 43
0.0
 43
1.0
 43
0.0
 43
0.0
 43
0.0
 43
0.0
 43
1.0
 77
     0
 47
0.0208333333333333
 47
0.0
 47
0.0
 47
0.0
 47
0.0
 47
0.0208333333333333
 47
0.0
 47
0.0
 47
0.0
 47
0.0
 47
1.0
 47
0.0
 47
0.0
 47
0.0
 47
0.0
 47
1.0
171
     0
 49
0.0208333333333333
 49
0.0
 49
0.0
 49
0.0
 49
0.0
 49
0.0208333333333333
 49
0.0
 49
0.0
 49
0.0
 49
0.0
 49
1.0
 49
0.0
 49
0.0
 49
0.0
 49
0.0
 49
1.0
175
     0
142
0.0208333333333333
142
0.0
142
0.0
142
0.0
142
0.0
142
0.0208333333333333
142
0.0
142
0.0
142
0.0
142
0.0
142
1.0
142
0.0
142
0.0
142
0.0
142
0.0
142
1.0
179
     0
144
0.0208333333333333
144
0.0
144
0.0
144
0.0
144
0.0
144
0.0208333333333333
144
0.0
144
0.0
144
0.0
144
0.0
144
1.0
144
0.0
144
0.0
144
0.0
144
0.0
144
1.0
147
0.0208333333333333
147
0.0
147
0.0
147
0.0
147
0.0
147
0.0208333333333333
147
0.0
147
0.0
147
0.0
147
0.0
147
1.0
147
0.0
147
0.0
147
0.0
147
0.0
147
1.0
  0
MATERIAL
  5
440
102
{ACAD_XDICTIONARY
360
441
102
}
102
{ACAD_REACTORS
330
43F
102
}
330
43F
100
AcDbMaterial
  1
ByLayer
 72
     0
 43
0.0208333333333333
 43
0.0
 43
0.0
 43
0.0
 43
0.0
 43
0.0208333333333333
 43
0.0
 43
0.0
 43
0.0
 43
0.0
 43
1.0
 43
0.0
 43
0.0
 43
0.0
 43
0.0
 43
1.0
 77
     0
 47
0.0208333333333333
 47
0.0
 47
0.0
 47
0.0
 47
0.0
 47
0.0208333333333333
 47
0.0
 47
0.0
 47
0.0
 47
0.0
 47
1.0
 47
0.0
 47
0.0
 47
0.0
 47
0.0
 47
1.0
171
     0
 49
0.0208333333333333
 49
0.0
 49
0.0
 49
0.0
 49
0.0
 49
0.0208333333333333
 49
0.0
 49
0.0
 49
0.0
 49
0.0
 49
1.0
 49
0.0
 49
0.0
 49
0.0
 49
0.0
 49
1.0
175
     0
142
0.0208333333333333
142
0.0
142
0.0
142
0.0
142
0.0
142
0.0208333333333333
142
0.0
142
0.0
142
0.0
142
0.0
142
1.0
142
0.0
142
0.0
142
0.0
142
0.0
142
1.0
179
     0
144
0.0208333333333333
144
0.0
144
0.0
144
0.0
144
0.0
144
0.0208333333333333
144
0.0
144
0.0
144
0.0
144
0.0
144
1.0
144
0.0
144
0.0
144
0.0
144
0.0
144
1.0
147
0.0208333333333333
147
0.0
147
0.0
147
0.0
147
0.0
147
0.0208333333333333
147
0.0
147
0.0
147
0.0
147
0.0
147
1.0
147
0.0
147
0.0
147
0.0
147
0.0
147
1.0
  0
MATERIAL
  5
450
102
{ACAD_XDICTIONARY
360
451
102
}
102
{ACAD_REACTORS
330
43F
102
}
330
43F
100
AcDbMaterial
  1
Global
 72
     0
 43
0.0208333333333333
 43
0.0
 43
0.0
 43
0.0
 43
0.0
 43
0.0208333333333333
 43
0.0
 43
0.0
 43
0.0
 43
0.0
 43
1.0
 43
0.0
 43
0.0
 43
0.0
 43
0.0
 43
1.0
 77
     0
 47
0.0208333333333333
 47
0.0
 47
0.0
 47
0.0
 47
0.0
 47
0.0208333333333333
 47
0.0
 47
0.0
 47
0.0
 47
0.0
 47
1.0
 47
0.0
 47
0.0
 47
0.0
 47
0.0
 47
1.0
171
     0
 49
0.0208333333333333
 49
0.0
 49
0.0
 49
0.0
 49
0.0
 49
0.0208333333333333
 49
0.0
 49
0.0
 49
0.0
 49
0.0
 49
1.0
 49
0.0
 49
0.0
 49
0.0
 49
0.0
 49
1.0
175
     0
142
0.0208333333333333
142
0.0
142
0.0
142
0.0
142
0.0
142
0.0208333333333333
142
0.0
142
0.0
142
0.0
142
0.0
142
1.0
142
0.0
142
0.0
142
0.0
142
0.0
142
1.0
179
     0
144
0.0208333333333333
144
0.0
144
0.0
144
0.0
144
0.0
144
0.0208333333333333
144
0.0
144
0.0
144
0.0
144
0.0
144
1.0
144
0.0
144
0.0
144
0.0
144
0.0
144
1.0
147
0.0208333333333333
147
0.0
147
0.0
147
0.0
147
0.0
147
0.0208333333333333
147
0.0
147
0.0
147
0.0
147
0.0
147
1.0
147
0.0
147
0.0
147
0.0
147
0.0
147
1.0
  0
MLEADERSTYLE
  5
495
102
{ACAD_REACTORS
330
494
102
}
330
494
100
AcDbMLeaderStyle
170
     2
171
     1
172
     0
 90
        2
 40
0.0
 41
0.0
173
     1
 91
-1056964608
340
489
 92
       -2
290
     1
 42
0.09
291
     1
 43
0.36
  3
Standard
 44
0.18
300

342
484
174
     1
178
     6
175
     1
176
     0
 93
-1056964608
 45
0.18
292
     0
297
     0
 46
0.18
 94
-1056964608
 47
1.0
 49
1.0
140
1.0
293
     1
141
0.0
294
     1
177
     0
142
1.0
295
     0
296
     0
143
0.125
1001
ACAD_MLEADERVER
1070
     2
  0
MLINESTYLE
  5
48E
102
{ACAD_REACTORS
330
48D
102
}
330
48D
100
AcDbMlineStyle
  2
STANDARD
 70
     0
  3

 62
   256
 51
90.0
 52
90.0
 71
     2
 49
0.5
 62
   256
  6
BYLAYER
 49
-0.5
 62
   256
  6
BYLAYER
  0
ACDBPLACEHOLDER
  5
43E
102
{ACAD_REACTORS
330
43D
102
}
330
43D
  0
SCALE
  5
472
102
{ACAD_REACTORS
330
471
102
}
330
471
100
AcDbScale
 70
     0
300
1:1
140
1.0
141
1.0
290
     1
  0
SCALE
  5
473
102
{ACAD_REACTORS
330
471
102
}
330
471
100
AcDbScale
 70
     0
300
1/128" = 1'-0"
140
0.0078125
141
12.0
290
     0
  0
SCALE
  5
474
102
{ACAD_REACTORS
330
471
102
}
330
471
100
AcDbScale
 70
     0
300
1/64" = 1'-0"
140
0.015625
141
12.0
290
     0
  0
SCALE
  5
475
102
{ACAD_REACTORS
330
471
102
}
330
471
100
AcDbScale
 70
     0
300
1/32" = 1'-0"
140
0.03125
141
12.0
290
     0
  0
SCALE
  5
476
102
{ACAD_REACTORS
330
471
102
}
330
471
100
AcDbScale
 70
     0
300
1/16" = 1'-0"
140
0.0625
141
12.0
290
     0
  0
SCALE
  5
477
102
{ACAD_REACTORS
330
471
102
}
330
471
100
AcDbScale
 70
     0
300
3/32" = 1'-0"
140
0.09375
141
12.0
290
     0
  0
SCALE
  5
478
102
{ACAD_REACTORS
330
471
102
}
330
471
100
AcDbScale
 70
     0
300
1/8" = 1'-0"
140
0.125
141
12.0
290
     0
  0
SCALE
  5
479
102
{ACAD_REACTORS
330
471
102
}
330
471
100
AcDbScale
 70
     0
300
3/16" = 1'-0"
140
0.1875
141
12.0
290
     0
  0
SCALE
  5
47A
102
{ACAD_REACTORS
330
471
102
}
330
471
100
AcDbScale
 70
     0
300
1/4" = 1'-0"
140
0.25
141
12.0
290
     0
  0
SCALE
  5
47B
102
{ACAD_REACTORS
330
471
102
}
330
471
100
AcDbScale
 70
     0
300
3/8" = 1'-0"
140
0.375
141
12.0
290
     0
  0
SCALE
  5
47C
102
{ACAD_REACTORS
330
471
102
}
330
471
100
AcDbScale
 70
     0
300
1/2" = 1'-0"
140
0.5
141
12.0
290
     0
  0
SCALE
  5
47D
102
{ACAD_REACTORS
330
471
102
}
330
471
100
AcDbScale
 70
     0
300
3/4" = 1'-0"
140
0.75
141
12.0
290
     0
  0
SCALE
  5
47E
102
{ACAD_REACTORS
330
471
102
}
330
471
100
AcDbScale
 70
     0
300
1" = 1'-0"
140
1.0
141
12.0
290
     0
  0
SCALE
  5
47F
102
{ACAD_REACTORS
330
471
102
}
330
471
100
AcDbScale
 70
     0
300
1-1/2" = 1'-0"
140
1.5
141
12.0
290
     0
  0
SCALE
  5
480
102
{ACAD_REACTORS
330
471
102
}
330
471
100
AcDbScale
 70
     0
300
3" = 1'-0"
140
3.0
141
12.0
290
     0
  0
SCALE
  5
481
102
{ACAD_REACTORS
330
471
102
}
330
471
100
AcDbScale
 70
     0
300
6" = 1'-0"
140
6.0
141
12.0
290
     0
  0
SCALE
  5
482
102
{ACAD_REACTORS
330
471
102
}
330
471
100
AcDbScale
 70
     0
300
1'-0" = 1'-0"
140
12.0
141
12.0
290
     0
  0
ACDBSECTIONVIEWSTYLE
  5
497
102
{ACAD_XDICTIONARY
360
50C
102
}
102
{ACAD_REACTORS
330
496
102
}
330
496
100
AcDbModelDocViewStyle
 70
     0
  3
Imperial24
290
     0
100
AcDbSectionViewStyle
 70
     0
 71
     0
 90
       78
 71
     1
340
484
 40
0.24
340
0
340
0
 40
0.24
300
I, O, Q, S, X, Z
 40
0.48
 90
        3
 40
0.18
 90
        1
 71
     2
340
48B
 90
       25
340
48B
 90
       50
 40
0.24
 40
0.0
 40
0.24
 71
     3
340
484
 40
0.24
 90
        1
 40
0.75
 90
        1
300
%<\AcVar ViewType \f "%tc1">% %<\AcVar ViewSectionStartId>%-%<\AcVar ViewSectionEndId>%\PSCALE %<\AcVar ViewScale \f "%sn">%
 71
     4
300
ANSI31
 40
1.0
 90
        0
290
     0
290
     0
 90
        6
 40
0.0
 40
1.570796326794896
 40
0.2617993877991494
 40
1.308996938995747
 40
-0.2617993877991494
 40
1.832595714594046
  0
TABLESTYLE
  5
493
102
{ACAD_XDICTIONARY
360
4D3
102
}
102
{ACAD_REACTORS
330
492
102
}
330
492
100
AcDbTableStyle
  3
Standard
 70
     0
 71
     0
 40
0.06
 41
0.06
280
     0
281
     0
  7
STANDARD
140
0.18
170
     2
 62
     0
 63
     7
283
     0
274
    -2
284
     1
 64
     0
275
    -2
285
     1
 65
     0
276
    -2
286
     1
 66
     0
277
    -2
287
     1
 67
     0
278
    -2
288
     1
 68
     0
279
    -2
289
     1
 69
     0
  7
STANDARD
140
0.25
170
     5
 62
     0
 63
     7
283
     0
274
    -2
284
     1
 64
     0
275
    -2
285
     1
 65
     0
276
    -2
286
     1
 66
     0
277
    -2
287
     1
 67
     0
278
    -2
288
     1
 68
     0
279
    -2
289
     1
 69
     0
  7
STANDARD
140
0.18
170
     5
 62
     0
 63
     7
283
     0
274
    -2
284
     1
 64
     0
275
    -2
285
     1
 65
     0
276
    -2
286
     1
 66
     0
277
    -2
287
     1
 67
     0
278
    -2
288
     1
 68
     0
279
    -2
289
     1
 69
     0
  0
VISUALSTYLE
  5
45E
102
{ACAD_XDICTIONARY
360
4E4
102
}
102
{ACAD_REACTORS
330
458
102
}
330
458
100
AcDbVisualStyle
  2
2dWireframe
 70
     4
 71
     0
 72
     2
 73
     0
 90
        0
 40
-0.6
 41
-30.0
 62
     5
 63
     7
 74
     1
 91
        4
 64
     7
 65
   257
 75
     1
175
     1
 42
1.0
 92
        0
 66
   257
 43
1.0
 76
     1
 77
     6
 78
     2
 67
     7
 79
     5
170
     0
171
     0
290
     0
174
     0
 93
        1
 44
0.0
173
     0
291
     0
 45
0.0
1001
ACAD
1000
AcDbSavedByObjectVersion
1070
     0
  0
VISUALSTYLE
  5
45D
102
{ACAD_XDICTIONARY
360
4E2
102
}
102
{ACAD_REACTORS
330
458
102
}
330
458
100
AcDbVisualStyle
  2
Basic
 70
     7
 71
     1
 72
     0
 73
     1
 90
        0
 40
-0.6
 41
-30.0
 62
     5
 63
     7
 74
     0
 91
        4
 64
     7
 65
   257
 75
     1
175
     1
 42
1.0
 92
        8
 66
     7
 43
1.0
 76
     1
 77
     6
 78
     2
 67
     7
 79
     5
170
     0
171
     0
290
     0
174
     0
 93
        1
 44
0.0
173
     0
291
     1
 45
0.0
1001
ACAD
1000
AcDbSavedByObjectVersion
1070
     0
  0
VISUALSTYLE
  5
464
102
{ACAD_XDICTIONARY
360
4F0
102
}
102
{ACAD_REACTORS
330
458
102
}
330
458
100
AcDbVisualStyle
  2
Brighten
 70
    12
 71
     2
 72
     2
 73
     0
 90
        0
 40
-0.6
 41
-30.0
 62
     5
 63
     7
 74
     1
 91
        4
 64
     7
 65
   257
 75
     1
175
     1
 42
1.0
 92
        8
 66
     7
 43
1.0
 76
     1
 77
     6
 78
     2
 67
     7
 79
     5
170
     0
171
     0
290
     0
174
     0
 93
        1
 44
50.0
173
     0
291
     1
 45
0.0
1001
ACAD
1000
AcDbSavedByObjectVersion
1070
     0
  0
VISUALSTYLE
  5
468
102
{ACAD_XDICTIONARY
360
4F8
102
}
102
{ACAD_REACTORS
330
458
102
}
330
458
100
AcDbVisualStyle
  2
ColorChange
 70
    16
 71
     2
 72
     2
 73
     3
 90
        0
 40
-0.6
 41
-30.0
 62
     5
 63
     8
 74
     1
 91
        4
 64
     7
 65
   257
 75
     1
175
     1
 42
1.0
 92
        8
 66
     8
 43
1.0
 76
     1
 77
     6
 78
     2
 67
     7
 79
     5
170
     0
171
     0
290
     0
174
     0
 93
        1
 44
0.0
173
     0
291
     1
 45
0.0
1001
ACAD
1000
AcDbSavedByObjectVersion
1070
     0
  0
VISUALSTYLE
  5
461
102
{ACAD_XDICTIONARY
360
4EA
102
}
102
{ACAD_REACTORS
330
458
102
}
330
458
100
AcDbVisualStyle
  2
Conceptual
 70
     9
 71
     3
 72
     2
 73
     0
 90
        0
 40
-0.6
 41
-30.0
 62
     5
 63
     7
 74
     2
 91
        2
 64
     7
 65
   257
 75
     1
175
     1
 42
179.0
 92
        8
 66
     7
 43
1.0
 76
     1
 77
     6
 78
     2
 67
     7
 79
     3
170
     0
171
     0
290
     0
174
     0
 93
        1
 44
0.0
173
     0
291
     0
 45
0.0
1001
ACAD
1000
AcDbSavedByObjectVersion
1070
     0
  0
VISUALSTYLE
  5
463
102
{ACAD_XDICTIONARY
360
4EE
102
}
102
{ACAD_REACTORS
330
458
102
}
330
458
100
AcDbVisualStyle
  2
Dim
 70
    11
 71
     2
 72
     2
 73
     0
 90
        0
 40
-0.6
 41
-30.0
 62
     5
 63
     7
 74
     1
 91
        4
 64
     7
 65
   257
 75
     1
175
     1
 42
1.0
 92
        8
 66
     7
 43
1.0
 76
     1
 77
     6
 78
     2
 67
     7
 79
     5
170
     0
171
     0
290
     0
174
     0
 93
        1
 44
-50.0
173
     0
291
     1
 45
0.0
1001
ACAD
1000
AcDbSavedByObjectVersion
1070
     0
  0
VISUALSTYLE
  5
470
102
{ACAD_XDICTIONARY
360
508
102
}
102
{ACAD_REACTORS
330
458
102
}
330
458
100
AcDbVisualStyle
  2
EdgeColorOff
 70
    22
 71
     2
 72
     2
 73
     0
 90
        0
 40
-0.6
 41
-30.0
 62
     5
 63
     7
 74
     1
 91
        4
 64
     7
 65
   257
 75
     1
175
     1
 42
1.0
 92
        8
 66
     7
 43
1.0
 76
     1
 77
     6
 78
     2
 67
     7
 79
     5
170
     0
171
     0
290
     0
174
     0
 93
        1
 44
0.0
173
     0
291
     1
 45
0.0
1001
ACAD
1000
AcDbSavedByObjectVersion
1070
     0
  0
VISUALSTYLE
  5
467
102
{ACAD_XDICTIONARY
360
4F6
102
}
102
{ACAD_REACTORS
330
458
102
}
330
458
100
AcDbVisualStyle
  2
Facepattern
 70
    15
 71
     2
 72
     2
 73
     0
 90
        0
 40
-0.6
 41
-30.0
 62
     5
 63
     7
 74
     1
 91
        4
 64
     7
 65
   257
 75
     1
175
     1
 42
1.0
 92
        8
 66
     7
 43
1.0
 76
     1
 77
     6
 78
     2
 67
     7
 79
     5
170
     0
171
     0
290
     0
174
     0
 93
        1
 44
0.0
173
     0
291
     1
 45
0.0
1001
ACAD
1000
AcDbSavedByObjectVersion
1070
     0
  0
VISUALSTYLE
  5
459
102
{ACAD_XDICTIONARY
360
4DA
102
}
102
{ACAD_REACTORS
330
458
102
}
330
458
100
AcDbVisualStyle
  2
Flat
 70
     0
 71
     2
 72
     1
 73
     1
 90
        2
 40
-0.6
 41
30.0
 62
     5
 63
     7
 74
     0
 91
        0
 64
     7
 65
   257
 75
     1
175
     1
 42
1.0
 92
        8
 66
     7
 43
1.0
 76
     1
 77
     6
 78
     2
 67
     7
 79
     5
170
     0
171
     0
290
     0
174
     0
 93
       13
 44
0.0
173
     0
291
     1
 45
0.0
1001
ACAD
1000
AcDbSavedByObjectVersion
1070
     0
  0
VISUALSTYLE
  5
45A
102
{ACAD_XDICTIONARY
360
4DC
102
}
102
{ACAD_REACTORS
330
458
102
}
330
458
100
AcDbVisualStyle
  2
FlatWithEdges
 70
     1
 71
     2
 72
     1
 73
     1
 90
        2
 40
-0.6
 41
30.0
 62
     5
 63
     7
 74
     1
 91
        0
 64
     7
 65
   257
 75
     1
175
     1
 42
1.0
 92
        0
 66
   257
 43
1.0
 76
     1
 77
     6
 78
     2
 67
     7
 79
     5
170
     0
171
     0
290
     0
174
     0
 93
       13
 44
0.0
173
     0
291
     1
 45
0.0
1001
ACAD
1000
AcDbSavedByObjectVersion
1070
     0
  0
VISUALSTYLE
  5
45B
102
{ACAD_XDICTIONARY
360
4DE
102
}
102
{ACAD_REACTORS
330
458
102
}
330
458
100
AcDbVisualStyle
  2
Gouraud
 70
     2
 71
     2
 72
     2
 73
     1
 90
        2
 40
-0.6
 41
30.0
 62
     5
 63
     7
 74
     0
 91
        0
 64
     7
 65
   257
 75
     1
175
     1
 42
1.0
 92
        0
 66
     7
 43
1.0
 76
     1
 77
     6
 78
     2
 67
     7
 79
     5
170
     0
171
     0
290
     0
174
     0
 93
       13
 44
0.0
173
     0
291
     1
 45
0.0
1001
ACAD
1000
AcDbSavedByObjectVersion
1070
     0
  0
VISUALSTYLE
  5
45C
102
{ACAD_XDICTIONARY
360
4E0
102
}
102
{ACAD_REACTORS
330
458
102
}
330
458
100
AcDbVisualStyle
  2
GouraudWithEdges
 70
     3
 71
     2
 72
     2
 73
     1
 90
        2
 40
-0.6
 41
30.0
 62
     5
 63
     7
 74
     1
 91
        0
 64
     7
 65
   257
 75
     1
175
     1
 42
1.0
 92
        0
 66
   257
 43
1.0
 76
     1
 77
     6
 78
     2
 67
     7
 79
     5
170
     0
171
     0
290
     0
174
     0
 93
       13
 44
0.0
173
     0
291
     1
 45
0.0
1001
ACAD
1000
AcDbSavedByObjectVersion
1070
     0
  0
VISUALSTYLE
  5
460
102
{ACAD_XDICTIONARY
360
4E8
102
}
102
{ACAD_REACTORS
330
458
102
}
330
458
100
AcDbVisualStyle
  2
Hidden
 70
     6
 71
     1
 72
     2
 73
     2
 90
        0
 40
-0.6
 41
-30.0
 62
     5
 63
     7
 74
     2
 91
        2
 64
     7
 65
   257
 75
     2
175
     1
 42
40.0
 92
        0
 66
   257
 43
1.0
 76
     1
 77
     6
 78
     2
 67
     7
 79
     3
170
     0
171
     0
290
     0
174
     0
 93
        1
 44
0.0
173
     0
291
     0
 45
0.0
1001
ACAD
1000
AcDbSavedByObjectVersion
1070
     0
  0
VISUALSTYLE
  5
46E
102
{ACAD_XDICTIONARY
360
504
102
}
102
{ACAD_REACTORS
330
458
102
}
330
458
100
AcDbVisualStyle
  2
JitterOff
 70
    20
 71
     2
 72
     2
 73
     0
 90
        0
 40
-0.6
 41
-30.0
 62
     5
 63
     7
 74
     1
 91
        4
 64
     7
 65
   257
 75
     1
175
     1
 42
1.0
 92
       10
 66
     7
 43
1.0
 76
     1
 77
     6
 78
     2
 67
     7
 79
     5
170
     0
171
     0
290
     0
174
     0
 93
        1
 44
0.0
173
     0
291
     1
 45
0.0
1001
ACAD
1000
AcDbSavedByObjectVersion
1070
     0
  0
VISUALSTYLE
  5
466
102
{ACAD_XDICTIONARY
360
4F4
102
}
102
{ACAD_REACTORS
330
458
102
}
330
458
100
AcDbVisualStyle
  2
Linepattern
 70
    14
 71
     2
 72
     2
 73
     0
 90
        0
 40
-0.6
 41
-30.0
 62
     5
 63
     7
 74
     1
 91
        4
 64
     7
 65
   257
 75
     7
175
     7
 42
1.0
 92
        8
 66
     7
 43
1.0
 76
     1
 77
     6
 78
     2
 67
     7
 79
     5
170
     0
171
     0
290
     0
174
     0
 93
        1
 44
0.0
173
     0
291
     1
 45
0.0
1001
ACAD
1000
AcDbSavedByObjectVersion
1070
     0
  0
VISUALSTYLE
  5
46F
102
{ACAD_XDICTIONARY
360
506
102
}
102
{ACAD_REACTORS
330
458
102
}
330
458
100
AcDbVisualStyle
  2
OverhangOff
 70
    21
 71
     2
 72
     2
 73
     0
 90
        0
 40
-0.6
 41
-30.0
 62
     5
 63
     7
 74
     1
 91
        4
 64
     7
 65
   257
 75
     1
175
     1
 42
1.0
 92
        9
 66
     7
 43
1.0
 76
     1
 77
     6
 78
     2
 67
     7
 79
     5
170
     0
171
     0
290
     0
174
     0
 93
        1
 44
0.0
173
     0
291
     1
 45
0.0
1001
ACAD
1000
AcDbSavedByObjectVersion
1070
     0
  0
VISUALSTYLE
  5
462
102
{ACAD_XDICTIONARY
360
4EC
102
}
102
{ACAD_REACTORS
330
458
102
}
330
458
100
AcDbVisualStyle
  2
Realistic
 70
     8
 71
     2
 72
     3
 73
     0
 90
        2
 40
-0.6
 41
30.0
 62
     5
 63
     7
 74
     0
 91
        0
 64
     7
 65
   257
 75
     1
175
     1
 42
1.0
 92
        8
 66
   257
 43
1.0
 76
     1
 77
     6
 78
     2
 67
     7
 79
     3
170
     0
171
     0
290
     0
174
     0
 93
       13
 44
0.0
173
     0
291
     0
 45
0.0
1001
ACAD
1000
AcDbSavedByObjectVersion
1070
     0
  0
VISUALSTYLE
  5
46D
102
{ACAD_XDICTIONARY
360
502
102
}
102
{ACAD_REACTORS
330
458
102
}
330
458
100
AcDbVisualStyle
  2
Shaded
 70
    27
 71
     2
 72
     2
 73
     1
 90
        2
 40
-0.6
 41
30.0
 62
     5
 63
     7
 74
     0
 91
        4
 64
     7
 65
   257
 75
     1
175
     1
 42
1.0
 92
        8
 66
   257
 43
1.0
 76
     1
 77
     6
 78
     2
 67
     8
 79
     3
170
     0
171
     0
290
     0
174
     0
 93
        5
 44
0.0
173
     0
291
     0
 45
0.0
1001
ACAD
1000
AcDbSavedByObjectVersion
1070
     0
  0
VISUALSTYLE
  5
46C
102
{ACAD_XDICTIONARY
360
500
102
}
102
{ACAD_REACTORS
330
458
102
}
330
458
100
AcDbVisualStyle
  2
Shaded with edges
 70
    26
 71
     2
 72
     2
 73
     1
 90
        2
 40
-0.6
 41
30.0
 62
     5
 63
     7
 74
     1
 91
       10
 64
     7
 65
   257
 75
     2
175
     1
 42
1.0
 92
        8
 66
   257
 43
1.0
 76
     1
 77
     6
 78
     2
 67
     7
 79
     3
170
     0
171
     0
290
     0
174
     0
 93
        5
 44
0.0
173
     0
291
     0
 45
0.0
1001
ACAD
1000
AcDbSavedByObjectVersion
1070
     0
  0
VISUALSTYLE
  5
469
102
{ACAD_XDICTIONARY
360
4FA
102
}
102
{ACAD_REACTORS
330
458
102
}
330
458
100
AcDbVisualStyle
  2
Shades of Gray
 70
    23
 71
     2
 72
     2
 73
     3
 90
        0
 40
-0.6
 41
-30.0
 62
     5
 63
     7
 74
     2
 91
        2
 64
     7
 65
     7
 75
     1
175
     1
 42
40.0
 92
        8
 66
     7
 43
1.0
 76
     1
 77
     6
 78
     2
 67
     7
 79
     3
170
     0
171
     0
290
     0
174
     0
 93
        1
 44
0.0
173
     0
291
     0
 45
0.0
1001
ACAD
1000
AcDbSavedByObjectVersion
1070
     0
  0
VISUALSTYLE
  5
46A
102
{ACAD_XDICTIONARY
360
4FC
102
}
102
{ACAD_REACTORS
330
458
102
}
330
458
100
AcDbVisualStyle
  2
Sketchy
 70
    24
 71
     1
 72
     2
 73
     2
 90
        0
 40
-0.6
 41
-30.0
 62
     5
 63
     7
 74
     2
 91
        2
 64
     7
 65
     7
 75
     1
175
     1
 42
40.0
 92
       11
 66
     7
 43
1.0
 76
     1
 77
     6
 78
     2
 67
     7
 79
     6
170
     0
171
     0
290
     0
174
     0
 93
        1
 44
0.0
173
     0
291
     0
 45
0.0
1001
ACAD
1000
AcDbSavedByObjectVersion
1070
     0
  0
VISUALSTYLE
  5
465
102
{ACAD_XDICTIONARY
360
4F2
102
}
102
{ACAD_REACTORS
330
458
102
}
330
458
100
AcDbVisualStyle
  2
Thicken
 70
    13
 71
     2
 72
     2
 73
     0
 90
        0
 40
-0.6
 41
-30.0
 62
     5
 63
     7
 74
     1
 91
        4
 64
     7
 65
   257
 75
     1
175
     1
 42
1.0
 92
       12
 66
     7
 43
1.0
 76
     1
 77
     6
 78
     2
 67
     7
 79
     5
170
     0
171
     0
290
     0
174
     0
 93
        1
 44
0.0
173
     0
291
     1
 45
0.0
1001
ACAD
1000
AcDbSavedByObjectVersion
1070
     0
  0
VISUALSTYLE
  5
45F
102
{ACAD_XDICTIONARY
360
4E6
102
}
102
{ACAD_REACTORS
330
458
102
}
330
458
100
AcDbVisualStyle
  2
Wireframe
 70
     5
 71
     0
 72
     2
 73
     0
 90
        0
 40
-0.6
 41
-30.0
 62
     5
 63
     7
 74
     1
 91
        4
 64
     7
 65
   257
 75
     1
175
     1
 42
1.0
 92
        0
 66
   257
 43
1.0
 76
     1
 77
     6
 78
     2
 67
     7
 79
     3
170
     0
171
     0
290
     0
174
     0
 93
        1
 44
0.0
173
     0
291
     0
 45
0.0
1001
ACAD
1000
AcDbSavedByObjectVersion
1070
     0
  0
VISUALSTYLE
  5
46B
102
{ACAD_XDICTIONARY
360
4FE
102
}
102
{ACAD_REACTORS
330
458
102
}
330
458
100
AcDbVisualStyle
  2
X-Ray
 70
    25
 71
     2
 72
     2
 73
     1
 90
        1
 40
0.5
 41
-30.0
 62
     5
 63
     7
 74
     1
 91
        0
 64
     7
 65
   257
 75
     1
175
     1
 42
1.0
 92
        8
 66
     7
 43
1.0
 76
     1
 77
     6
 78
     2
 67
     7
 79
     3
170
     0
171
     0
290
     0
174
     0
 93
       13
 44
0.0
173
     0
291
     0
 45
0.0
1001
ACAD
1000
AcDbSavedByObjectVersion
1070
     0
  0
DICTIONARYVAR
  5
4CD
102
{ACAD_REACTORS
330
4C8
102
}
330
4C8
100
DictionaryVariables
280
     0
  1
1:1
  0
DICTIONARYVAR
  5
4CA
102
{ACAD_REACTORS
330
4C8
102
}
330
4C8
100
DictionaryVariables
280
     0
  1
STANDARD
  0
DICTIONARYVAR
  5
4C9
102
{ACAD_REACTORS
330
4C8
102
}
330
4C8
100
DictionaryVariables
280
     0
  1
STANDARD
  0
DICTIONARYVAR
  5
4CB
102
{ACAD_REACTORS
330
4C8
102
}
330
4C8
100
DictionaryVariables
280
     0
  1
Imperial24
  0
DICTIONARYVAR
  5
4CC
102
{ACAD_REACTORS
330
4C8
102
}
330
4C8
100
DictionaryVariables
280
     0
  1
Imperial24
  0
DICTIONARYVAR
  5
4D0
102
{ACAD_REACTORS
330
4C8
102
}
330
4C8
100
DictionaryVariables
280
     0
  1
1
  0
DICTIONARYVAR
  5
4CF
102
{ACAD_REACTORS
330
4C8
102
}
330
4C8
100
DictionaryVariables
280
     0
  1
0
  0
DICTIONARYVAR
  5
4CE
102
{ACAD_REACTORS
330
4C8
102
}
330
4C8
100
DictionaryVariables
280
     0
  1
127
  0
DICTIONARYVAR
  5
4D1
102
{ACAD_REACTORS
330
4C8
102
}
330
4C8
100
DictionaryVariables
280
     0
  1
2
  0
DICTIONARY
  5
50E
330
499
100
AcDbDictionary
280
     1
281
     1
  3
ACAD_XREC_ROUNDTRIP
360
50F
  0
DICTIONARY
  5
512
330
4A1
100
AcDbDictionary
280
     1
281
     1
  3
ACAD_XREC_ROUNDTRIP
360
513
  0
DICTIONARY
  5
510
330
49D
100
AcDbDictionary
280
     1
281
     1
  3
ACAD_XREC_ROUNDTRIP
360
511
  0
DICTIONARY
  5
449
330
448
100
AcDbDictionary
280
     1
281
     1
  3
ACAD_XREC_ROUNDTRIP
360
4D8
  3
BUMPTILE
360
44B
  3
DIFFUSETILE
360
44A
  3
OPACITYTILE
360
44E
  3
REFLECTIONTILE
360
44D
  3
REFRACTIONTILE
360
44F
  3
SPECULARTILE
360
44C
  0
DICTIONARY
  5
441
330
440
100
AcDbDictionary
280
     1
281
     1
  3
ACAD_XREC_ROUNDTRIP
360
4D7
  3
BUMPTILE
360
443
  3
DIFFUSETILE
360
442
  3
OPACITYTILE
360
446
  3
REFLECTIONTILE
360
445
  3
REFRACTIONTILE
360
447
  3
SPECULARTILE
360
444
  0
DICTIONARY
  5
451
330
450
100
AcDbDictionary
280
     1
281
     1
  3
ACAD_XREC_ROUNDTRIP
360
4D9
  3
BUMPTILE
360
453
  3
DIFFUSETILE
360
452
  3
OPACITYTILE
360
456
  3
REFLECTIONTILE
360
455
  3
REFRACTIONTILE
360
457
  3
SPECULARTILE
360
454
  0
DICTIONARY
  5
50C
330
497
100
AcDbDictionary
280
     1
281
     1
  3
ACAD_XREC_ROUNDTRIP
360
50D
  0
DICTIONARY
  5
4D3
330
493
100
AcDbDictionary
280
     1
281
     1
  3
ACAD_ROUNDTRIP_2008_TABLESTYLE_CELLSTYLEMAP
360
4D4
  3
ACAD_XREC_ROUNDTRIP
360
50A
  0
DICTIONARY
  5
4E4
330
45E
100
AcDbDictionary
280
     1
281
     1
  3
ACAD_XREC_ROUNDTRIP
360
4E5
  0
DICTIONARY
  5
4E2
330
45D
100
AcDbDictionary
280
     1
281
     1
  3
ACAD_XREC_ROUNDTRIP
360
4E3
  0
DICTIONARY
  5
4F0
330
464
100
AcDbDictionary
280
     1
281
     1
  3
ACAD_XREC_ROUNDTRIP
360
4F1
  0
DICTIONARY
  5
4F8
330
468
100
AcDbDictionary
280
     1
281
     1
  3
ACAD_XREC_ROUNDTRIP
360
4F9
  0
DICTIONARY
  5
4EA
330
461
100
AcDbDictionary
280
     1
281
     1
  3
ACAD_XREC_ROUNDTRIP
360
4EB
  0
DICTIONARY
  5
4EE
330
463
100
AcDbDictionary
280
     1
281
     1
  3
ACAD_XREC_ROUNDTRIP
360
4EF
  0
DICTIONARY
  5
508
330
470
100
AcDbDictionary
280
     1
281
     1
  3
ACAD_XREC_ROUNDTRIP
360
509
  0
DICTIONARY
  5
4F6
330
467
100
AcDbDictionary
280
     1
281
     1
  3
ACAD_XREC_ROUNDTRIP
360
4F7
  0
DICTIONARY
  5
4DA
330
459
100
AcDbDictionary
280
     1
281
     1
  3
ACAD_XREC_ROUNDTRIP
360
4DB
  0
DICTIONARY
  5
4DC
330
45A
100
AcDbDictionary
280
     1
281
     1
  3
ACAD_XREC_ROUNDTRIP
360
4DD
  0
DICTIONARY
  5
4DE
330
45B
100
AcDbDictionary
280
     1
281
     1
  3
ACAD_XREC_ROUNDTRIP
360
4DF
  0
DICTIONARY
  5
4E0
330
45C
100
AcDbDictionary
280
     1
281
     1
  3
ACAD_XREC_ROUNDTRIP
360
4E1
  0
DICTIONARY
  5
4E8
330
460
100
AcDbDictionary
280
     1
281
     1
  3
ACAD_XREC_ROUNDTRIP
360
4E9
  0
DICTIONARY
  5
504
330
46E
100
AcDbDictionary
280
     1
281
     1
  3
ACAD_XREC_ROUNDTRIP
360
505
  0
DICTIONARY
  5
4F4
330
466
100
AcDbDictionary
280
     1
281
     1
  3
ACAD_XREC_ROUNDTRIP
360
4F5
  0
DICTIONARY
  5
506
330
46F
100
AcDbDictionary
280
     1
281
     1
  3
ACAD_XREC_ROUNDTRIP
360
507
  0
DICTIONARY
  5
4EC
330
462
100
AcDbDictionary
280
     1
281
     1
  3
ACAD_XREC_ROUNDTRIP
360
4ED
  0
DICTIONARY
  5
502
330
46D
100
AcDbDictionary
280
     1
281
     1
  3
ACAD_XREC_ROUNDTRIP
360
503
  0
DICTIONARY
  5
500
330
46C
100
AcDbDictionary
280
     1
281
     1
  3
ACAD_XREC_ROUNDTRIP
360
501
  0
DICTIONARY
  5
4FA
330
469
100
AcDbDictionary
280
     1
281
     1
  3
ACAD_XREC_ROUNDTRIP
360
4FB
  0
DICTIONARY
  5
4FC
330
46A
100
AcDbDictionary
280
     1
281
     1
  3
ACAD_XREC_ROUNDTRIP
360
4FD
  0
DICTIONARY
  5
4F2
330
465
100
AcDbDictionary
280
     1
281
     1
  3
ACAD_XREC_ROUNDTRIP
360
4F3
  0
DICTIONARY
  5
4E6
330
45F
100
AcDbDictionary
280
     1
281
     1
  3
ACAD_XREC_ROUNDTRIP
360
4E7
  0
DICTIONARY
  5
4FE
330
46B
100
AcDbDictionary
280
     1
281
     1
  3
ACAD_XREC_ROUNDTRIP
360
4FF
  0
XRECORD
  5
50F
102
{ACAD_REACTORS
330
50E
102
}
330
50E
100
AcDbXrecord
280
     1
102
DISPLAYNAME
  1
Imperial24
102
FLAGS
 90
        0
  0
XRECORD
  5
513
102
{ACAD_REACTORS
330
512
102
}
330
512
100
AcDbXrecord
280
     1
102
SHADEPLOT
 70
     0
102
SHADEPLOTRESLEVEL
 70
     2
102
SHADEPLOTCUSTOMDPI
 70
   300
  0
XRECORD
  5
511
102
{ACAD_REACTORS
330
510
102
}
330
510
100
AcDbXrecord
280
     1
102
SHADEPLOT
 70
     0
102
SHADEPLOTRESLEVEL
 70
     2
102
SHADEPLOTCUSTOMDPI
 70
   300
  0
XRECORD
  5
4D8
102
{ACAD_REACTORS
330
449
102
}
330
449
100
AcDbXrecord
280
     1
102
MATERIAL
148
0.0
149
0.0
149
0.0
 93
        0
 94
      127
282
     0
 72
     0
 77
     0
171
     0
175
     0
179
     0
273
     0
  0
XRECORD
  5
44B
102
{ACAD_REACTORS
330
449
102
}
330
449
100
AcDbXrecord
280
     1
270
     1
271
     1
  0
XRECORD
  5
44A
102
{ACAD_REACTORS
330
449
102
}
330
449
100
AcDbXrecord
280
     1
270
     1
271
     1
  0
XRECORD
  5
44E
102
{ACAD_REACTORS
330
449
102
}
330
449
100
AcDbXrecord
280
     1
270
     1
271
     1
  0
XRECORD
  5
44D
102
{ACAD_REACTORS
330
449
102
}
330
449
100
AcDbXrecord
280
     1
270
     1
271
     1
  0
XRECORD
  5
44F
102
{ACAD_REACTORS
330
449
102
}
330
449
100
AcDbXrecord
280
     1
270
     1
271
     1
  0
XRECORD
  5
44C
102
{ACAD_REACTORS
330
449
102
}
330
449
100
AcDbXrecord
280
     1
270
     1
271
     1
  0
XRECORD
  5
4D7
102
{ACAD_REACTORS
330
441
102
}
330
441
100
AcDbXrecord
280
     1
102
MATERIAL
148
0.0
149
0.0
149
0.0
 93
        0
 94
      127
282
     0
 72
     0
 77
     0
171
     0
175
     0
179
     0
273
     0
  0
XRECORD
  5
443
102
{ACAD_REACTORS
330
441
102
}
330
441
100
AcDbXrecord
280
     1
270
     1
271
     1
  0
XRECORD
  5
442
102
{ACAD_REACTORS
330
441
102
}
330
441
100
AcDbXrecord
280
     1
270
     1
271
     1
  0
XRECORD
  5
446
102
{ACAD_REACTORS
330
441
102
}
330
441
100
AcDbXrecord
280
     1
270
     1
271
     1
  0
XRECORD
  5
445
102
{ACAD_REACTORS
330
441
102
}
330
441
100
AcDbXrecord
280
     1
270
     1
271
     1
  0
XRECORD
  5
447
102
{ACAD_REACTORS
330
441
102
}
330
441
100
AcDbXrecord
280
     1
270
     1
271
     1
  0
XRECORD
  5
444
102
{ACAD_REACTORS
330
441
102
}
330
441
100
AcDbXrecord
280
     1
270
     1
271
     1
  0
XRECORD
  5
4D9
102
{ACAD_REACTORS
330
451
102
}
330
451
100
AcDbXrecord
280
     1
102
MATERIAL
148
0.0
149
0.0
149
0.0
 93
        0
 94
      127
282
     0
 72
     0
 77
     0
171
     0
175
     0
179
     0
273
     0
  0
XRECORD
  5
453
102
{ACAD_REACTORS
330
451
102
}
330
451
100
AcDbXrecord
280
     1
270
     1
271
     1
  0
XRECORD
  5
452
102
{ACAD_REACTORS
330
451
102
}
330
451
100
AcDbXrecord
280
     1
270
     1
271
     1
  0
XRECORD
  5
456
102
{ACAD_REACTORS
330
451
102
}
330
451
100
AcDbXrecord
280
     1
270
     1
271
     1
  0
XRECORD
  5
455
102
{ACAD_REACTORS
330
451
102
}
330
451
100
AcDbXrecord
280
     1
270
     1
271
     1
  0
XRECORD
  5
457
102
{ACAD_REACTORS
330
451
102
}
330
451
100
AcDbXrecord
280
     1
270
     1
271
     1
  0
XRECORD
  5
454
102
{ACAD_REACTORS
330
451
102
}
330
451
100
AcDbXrecord
280
     1
270
     1
271
     1
  0
XRECORD
  5
50D
102
{ACAD_REACTORS
330
50C
102
}
330
50C
100
AcDbXrecord
280
     1
102
DISPLAYNAME
  1
Imperial24
102
FLAGS
 90
        0
  0
CELLSTYLEMAP
  5
4D4
102
{ACAD_REACTORS
330
4D3
102
}
330
4D3
100
AcDbCellStyleMap
 90
        3
300
CELLSTYLE
  1
TABLEFORMAT_BEGIN
 90
        5
170
     1
 91
        0
 92
    32768
 62
   257
 93
        1
300
CONTENTFORMAT
  1
CONTENTFORMAT_BEGIN
 90
        0
 91
        0
 92
      512
 93
        0
300

 40
0.0
140
1.0
 94
        5
 62
     0
340
484
144
0.25
309
CONTENTFORMAT_END
171
     0
 94
        0
309
TABLEFORMAT_END
  1
CELLSTYLE_BEGIN
 90
        1
 91
        1
300
_TITLE
309
CELLSTYLE_END
300
CELLSTYLE
  1
TABLEFORMAT_BEGIN
 90
        5
170
     1
 91
        0
 92
        0
 62
   257
 93
        1
300
CONTENTFORMAT
  1
CONTENTFORMAT_BEGIN
 90
        0
 91
        0
 92
      512
 93
        0
300

 40
0.0
140
1.0
 94
        5
 62
     0
340
484
144
0.18
309
CONTENTFORMAT_END
171
     0
 94
        0
309
TABLEFORMAT_END
  1
CELLSTYLE_BEGIN
 90
        2
 91
        1
300
_HEADER
309
CELLSTYLE_END
300
CELLSTYLE
  1
TABLEFORMAT_BEGIN
 90
        5
170
     1
 91
        0
 92
        0
 62
   257
 93
        1
300
CONTENTFORMAT
  1
CONTENTFORMAT_BEGIN
 90
        0
 91
        0
 92
      512
 93
        0
300

 40
0.0
140
1.0
 94
        2
 62
     0
340
484
144
0.18
309
CONTENTFORMAT_END
171
     0
 94
        0
309
TABLEFORMAT_END
  1
CELLSTYLE_BEGIN
 90
        3
 91
        2
300
_DATA
309
CELLSTYLE_END
  0
XRECORD
  5
50A
102
{ACAD_REACTORS
330
4D3
102
}
330
4D3
100
AcDbXrecord
280
     1
102
ACAD_ROUNDTRIP_PRE2007_TABLESTYLE
 90
      512
 91
        0
  1

 92
      512
 93
        0
  2

 94
      512
 95
        0
  3

  0
XRECORD
  5
4E5
102
{ACAD_REACTORS
330
4E4
102
}
330
4E4
100
AcDbXrecord
280
     1
102
RTVSPost2010Prop28
280
     1
102
RTVSPost2010PropOp28
 70
     1
102
RTVSPost2010Prop29
280
     1
102
RTVSPost2010PropOp29
 70
     1
102
RTVSPost2010Prop30
280
     0
102
RTVSPost2010PropOp30
 70
     1
102
RTVSPost2010Prop31
280
     0
102
RTVSPost2010PropOp31
 70
     1
102
RTVSPost2010Prop32
280
     0
102
RTVSPost2010PropOp32
 70
     1
102
RTVSPost2010Prop33
280
     0
102
RTVSPost2010PropOp33
 70
     1
102
RTVSPost2010Prop34
280
     0
102
RTVSPost2010PropOp34
 70
     1
102
RTVSPost2010Prop35
280
     0
102
RTVSPost2010PropOp35
 70
     1
102
RTVSPost2010Prop36
280
     0
102
RTVSPost2010PropOp36
 70
     1
102
RTVSPost2010Prop37
 90
       50
102
RTVSPost2010PropOp37
 70
     1
102
RTVSPost2010Prop38
140
0.0
102
RTVSPost2010PropOp38
 70
     1
102
RTVSPost2010Prop39
140
1.0
102
RTVSPost2010PropOp39
 70
     1
102
RTVSPost2010Prop40
 90
        0
102
RTVSPost2010PropOp40
 70
     1
102
RTVSPost2010Prop41ColorIndex
 90
       18
102
RTVSPost2010Prop41ColorRGB
 90
        0
102
RTVSPost2010PropOp41
 70
     1
102
RTVSPost2010Prop42
 90
       50
102
RTVSPost2010PropOp42
 70
     1
102
RTVSPost2010Prop43
 90
        3
102
RTVSPost2010PropOp43
 70
     1
102
RTVSPost2010Prop44ColorIndex
 90
        5
102
RTVSPost2010Prop44ColorRGB
 90
      255
102
RTVSPost2010PropOp44
 70
     1
102
RTVSPost2010Prop45
280
     0
102
RTVSPost2010PropOp45
 70
     1
102
RTVSPost2010Prop46
 90
       50
102
RTVSPost2010PropOp46
 70
     1
102
RTVSPost2010Prop47
 90
       50
102
RTVSPost2010PropOp47
 70
     1
102
RTVSPost2010Prop48
 90
       50
102
RTVSPost2010PropOp48
 70
     1
102
RTVSPost2010Prop49
280
     0
102
RTVSPost2010PropOp49
 70
     1
102
RTVSPost2010Prop50
 90
       50
102
RTVSPost2010PropOp50
 70
     1
102
RTVSPost2010Prop51ColorIndex
 90
      256
102
RTVSPost2010Prop51ColorRGB
 90
-16777216
102
RTVSPost2010PropOp51
 70
     0
102
RTVSPost2010Prop52
140
1.0
102
RTVSPost2010PropOp52
 70
     0
102
RTVSPost2010Prop53
 90
        2
102
RTVSPost2010PropOp53
 70
     1
102
RTVSPost2010Prop54
  1
strokes_ogs.tif
102
RTVSPost2010PropOp54
 70
     1
102
RTVSPost2010Prop55
280
     0
102
RTVSPost2010PropOp55
 70
     1
102
RTVSPost2010Prop56
140
1.0
102
RTVSPost2010PropOp56
 70
     1
102
RTVSPost2010Prop57
140
1.0
102
RTVSPost2010PropOp57
 70
     1
102
RTVSPropertyOp0
 70
     1
102
RTVSPropertyOp1
 70
     1
102
RTVSPropertyOp2
 70
     1
102
RTVSPropertyOp3
 70
     1
102
RTVSPropertyOp4
 70
     1
102
RTVSPropertyOp5
 70
     1
102
RTVSPropertyOp6
 70
     1
102
RTVSPropertyOp7
 70
     1
102
RTVSPropertyOp8
 70
     1
102
RTVSPropertyOp9
 70
     1
102
RTVSPropertyOp10
 70
     1
102
RTVSPropertyOp11
 70
     1
102
RTVSPropertyOp12
 70
     1
102
RTVSPropertyOp13
 70
     1
102
RTVSPropertyOp14
 70
     1
102
RTVSPropertyOp15
 70
     1
102
RTVSPropertyOp16
 70
     1
102
RTVSPropertyOp17
 70
     1
102
RTVSPropertyOp18
 70
     1
102
RTVSPropertyOp19
 70
     1
102
RTVSPropertyOp20
 70
     1
102
RTVSPropertyOp21
 70
     1
102
RTVSPropertyOp22
 70
     1
102
RTVSPropertyOp23
 70
     1
102
RTVSPropertyOp24
 70
     1
102
RTVSPropertyOp25
 70
     1
102
RTVSPropertyOp26
 70
     1
102
RTVSPropertyOp27
 70
     1
102
RTVSPropertyOp28
 70
     1
102
RTVSPropertyOp29
 70
     1
102
RTVSPropertyOp30
 70
     1
102
RTVSPropertyOp31
 70
     1
102
RTVSPropertyOp32
 70
     1
102
RTVSPropertyOp33
 70
     1
102
RTVSPropertyOp34
 70
     1
102
RTVSPropertyOp35
 70
     1
102
RTVSPropertyOp36
 70
     1
102
RTVSPropertyOp37
 70
     1
102
RTVSPropertyOp38
 70
     1
102
RTVSPropertyOp39
 70
     1
102
RTVSPropertyOp40
 70
     1
102
RTVSPropertyOp41
 70
     1
102
RTVSPropertyOp42
 70
     1
102
RTVSPropertyOp43
 70
     1
102
RTVSPropertyOp44
 70
     1
102
RTVSPropertyOp45
 70
     1
102
RTVSPropertyOp46
 70
     1
102
RTVSPropertyOp47
 70
     1
102
RTVSPropertyOp48
 70
     1
102
RTVSPropertyOp49
 70
     1
102
RTVSPropertyOp50
 70
     1
102
RTVSPropertyOp51
 70
     0
102
RTVSPropertyOp52
 70
     0
102
RTVSPropertyOp53
 70
     1
102
RTVSPropertyOp54
 70
     1
102
RTVSPropertyOp55
 70
     1
102
RTVSPropertyOp56
 70
     1
102
RTVSPropertyOp57
 70
     1
102
RTVSPropertyOp58
 70
     1
102
RTVSPropertyOp59
 70
     1
102
RTVSPropertyOp60
 70
     1
102
RTVSPropertyOp61
 70
     1
102
RTVSPropertyOp62
 70
     1
  0
XRECORD
  5
4E3
102
{ACAD_REACTORS
330
4E2
102
}
330
4E2
100
AcDbXrecord
280
     1
102
RTVSPost2010Prop28
280
     0
102
RTVSPost2010PropOp28
 70
     1
102
RTVSPost2010Prop29
280
     1
102
RTVSPost2010PropOp29
 70
     1
102
RTVSPost2010Prop30
280
     1
102
RTVSPost2010PropOp30
 70
     1
102
RTVSPost2010Prop31
280
     0
102
RTVSPost2010PropOp31
 70
     1
102
RTVSPost2010Prop32
280
     0
102
RTVSPost2010PropOp32
 70
     1
102
RTVSPost2010Prop33
280
     0
102
RTVSPost2010PropOp33
 70
     1
102
RTVSPost2010Prop34
280
     0
102
RTVSPost2010PropOp34
 70
     1
102
RTVSPost2010Prop35
280
     0
102
RTVSPost2010PropOp35
 70
     1
102
RTVSPost2010Prop36
280
     0
102
RTVSPost2010PropOp36
 70
     1
102
RTVSPost2010Prop37
 90
       50
102
RTVSPost2010PropOp37
 70
     1
102
RTVSPost2010Prop38
140
0.0
102
RTVSPost2010PropOp38
 70
     1
102
RTVSPost2010Prop39
140
1.0
102
RTVSPost2010PropOp39
 70
     1
102
RTVSPost2010Prop40
 90
        0
102
RTVSPost2010PropOp40
 70
     1
102
RTVSPost2010Prop41ColorIndex
 90
       18
102
RTVSPost2010Prop41ColorRGB
 90
        0
102
RTVSPost2010PropOp41
 70
     1
102
RTVSPost2010Prop42
 90
       50
102
RTVSPost2010PropOp42
 70
     1
102
RTVSPost2010Prop43
 90
        3
102
RTVSPost2010PropOp43
 70
     1
102
RTVSPost2010Prop44ColorIndex
 90
        5
102
RTVSPost2010Prop44ColorRGB
 90
      255
102
RTVSPost2010PropOp44
 70
     1
102
RTVSPost2010Prop45
280
     0
102
RTVSPost2010PropOp45
 70
     1
102
RTVSPost2010Prop46
 90
       50
102
RTVSPost2010PropOp46
 70
     1
102
RTVSPost2010Prop47
 90
       50
102
RTVSPost2010PropOp47
 70
     1
102
RTVSPost2010Prop48
 90
       50
102
RTVSPost2010PropOp48
 70
     1
102
RTVSPost2010Prop49
280
     0
102
RTVSPost2010PropOp49
 70
     1
102
RTVSPost2010Prop50
 90
       50
102
RTVSPost2010PropOp50
 70
     1
102
RTVSPost2010Prop51ColorIndex
 90
      256
102
RTVSPost2010Prop51ColorRGB
 90
-16777216
102
RTVSPost2010PropOp51
 70
     0
102
RTVSPost2010Prop52
140
1.0
102
RTVSPost2010PropOp52
 70
     0
102
RTVSPost2010Prop53
 90
        2
102
RTVSPost2010PropOp53
 70
     1
102
RTVSPost2010Prop54
  1
strokes_ogs.tif
102
RTVSPost2010PropOp54
 70
     1
102
RTVSPost2010Prop55
280
     0
102
RTVSPost2010PropOp55
 70
     1
102
RTVSPost2010Prop56
140
1.0
102
RTVSPost2010PropOp56
 70
     1
102
RTVSPost2010Prop57
140
1.0
102
RTVSPost2010PropOp57
 70
     1
102
RTVSPropertyOp0
 70
     1
102
RTVSPropertyOp1
 70
     1
102
RTVSPropertyOp2
 70
     1
102
RTVSPropertyOp3
 70
     1
102
RTVSPropertyOp4
 70
     1
102
RTVSPropertyOp5
 70
     1
102
RTVSPropertyOp6
 70
     1
102
RTVSPropertyOp7
 70
     1
102
RTVSPropertyOp8
 70
     1
102
RTVSPropertyOp9
 70
     1
102
RTVSPropertyOp10
 70
     1
102
RTVSPropertyOp11
 70
     1
102
RTVSPropertyOp12
 70
     1
102
RTVSPropertyOp13
 70
     1
102
RTVSPropertyOp14
 70
     1
102
RTVSPropertyOp15
 70
     1
102
RTVSPropertyOp16
 70
     1
102
RTVSPropertyOp17
 70
     1
102
RTVSPropertyOp18
 70
     1
102
RTVSPropertyOp19
 70
     1
102
RTVSPropertyOp20
 70
     1
102
RTVSPropertyOp21
 70
     1
102
RTVSPropertyOp22
 70
     1
102
RTVSPropertyOp23
 70
     1
102
RTVSPropertyOp24
 70
     1
102
RTVSPropertyOp25
 70
     1
102
RTVSPropertyOp26
 70
     1
102
RTVSPropertyOp27
 70
     1
102
RTVSPropertyOp28
 70
     1
102
RTVSPropertyOp29
 70
     1
102
RTVSPropertyOp30
 70
     1
102
RTVSPropertyOp31
 70
     1
102
RTVSPropertyOp32
 70
     1
102
RTVSPropertyOp33
 70
     1
102
RTVSPropertyOp34
 70
     1
102
RTVSPropertyOp35
 70
     1
102
RTVSPropertyOp36
 70
     1
102
RTVSPropertyOp37
 70
     1
102
RTVSPropertyOp38
 70
     1
102
RTVSPropertyOp39
 70
     1
102
RTVSPropertyOp40
 70
     1
102
RTVSPropertyOp41
 70
     1
102
RTVSPropertyOp42
 70
     1
102
RTVSPropertyOp43
 70
     1
102
RTVSPropertyOp44
 70
     1
102
RTVSPropertyOp45
 70
     1
102
RTVSPropertyOp46
 70
     1
102
RTVSPropertyOp47
 70
     1
102
RTVSPropertyOp48
 70
     1
102
RTVSPropertyOp49
 70
     1
102
RTVSPropertyOp50
 70
     1
102
RTVSPropertyOp51
 70
     0
102
RTVSPropertyOp52
 70
     0
102
RTVSPropertyOp53
 70
     1
102
RTVSPropertyOp54
 70
     1
102
RTVSPropertyOp55
 70
     1
102
RTVSPropertyOp56
 70
     1
102
RTVSPropertyOp57
 70
     1
102
RTVSPropertyOp58
 70
     1
102
RTVSPropertyOp59
 70
     1
102
RTVSPropertyOp60
 70
     1
102
RTVSPropertyOp61
 70
     1
102
RTVSPropertyOp62
 70
     1
  0
XRECORD
  5
4F1
102
{ACAD_REACTORS
330
4F0
102
}
330
4F0
100
AcDbXrecord
280
     1
102
RTVSPost2010Prop28
280
     0
102
RTVSPost2010PropOp28
 70
     1
102
RTVSPost2010Prop29
280
     1
102
RTVSPost2010PropOp29
 70
     1
102
RTVSPost2010Prop30
280
     1
102
RTVSPost2010PropOp30
 70
     1
102
RTVSPost2010Prop31
280
     0
102
RTVSPost2010PropOp31
 70
     1
102
RTVSPost2010Prop32
280
     0
102
RTVSPost2010PropOp32
 70
     1
102
RTVSPost2010Prop33
280
     0
102
RTVSPost2010PropOp33
 70
     1
102
RTVSPost2010Prop34
280
     0
102
RTVSPost2010PropOp34
 70
     1
102
RTVSPost2010Prop35
280
     0
102
RTVSPost2010PropOp35
 70
     1
102
RTVSPost2010Prop36
280
     0
102
RTVSPost2010PropOp36
 70
     1
102
RTVSPost2010Prop37
 90
       50
102
RTVSPost2010PropOp37
 70
     1
102
RTVSPost2010Prop38
140
0.0
102
RTVSPost2010PropOp38
 70
     1
102
RTVSPost2010Prop39
140
1.0
102
RTVSPost2010PropOp39
 70
     1
102
RTVSPost2010Prop40
 90
        0
102
RTVSPost2010PropOp40
 70
     1
102
RTVSPost2010Prop41ColorIndex
 90
       18
102
RTVSPost2010Prop41ColorRGB
 90
        0
102
RTVSPost2010PropOp41
 70
     1
102
RTVSPost2010Prop42
 90
       50
102
RTVSPost2010PropOp42
 70
     1
102
RTVSPost2010Prop43
 90
        3
102
RTVSPost2010PropOp43
 70
     1
102
RTVSPost2010Prop44ColorIndex
 90
        5
102
RTVSPost2010Prop44ColorRGB
 90
      255
102
RTVSPost2010PropOp44
 70
     1
102
RTVSPost2010Prop45
280
     0
102
RTVSPost2010PropOp45
 70
     1
102
RTVSPost2010Prop46
 90
       50
102
RTVSPost2010PropOp46
 70
     1
102
RTVSPost2010Prop47
 90
       50
102
RTVSPost2010PropOp47
 70
     1
102
RTVSPost2010Prop48
 90
       50
102
RTVSPost2010PropOp48
 70
     1
102
RTVSPost2010Prop49
280
     0
102
RTVSPost2010PropOp49
 70
     1
102
RTVSPost2010Prop50
 90
       50
102
RTVSPost2010PropOp50
 70
     1
102
RTVSPost2010Prop51ColorIndex
 90
      256
102
RTVSPost2010Prop51ColorRGB
 90
-16777216
102
RTVSPost2010PropOp51
 70
     0
102
RTVSPost2010Prop52
140
1.0
102
RTVSPost2010PropOp52
 70
     0
102
RTVSPost2010Prop53
 90
        2
102
RTVSPost2010PropOp53
 70
     1
102
RTVSPost2010Prop54
  1
strokes_ogs.tif
102
RTVSPost2010PropOp54
 70
     1
102
RTVSPost2010Prop55
280
     0
102
RTVSPost2010PropOp55
 70
     1
102
RTVSPost2010Prop56
140
1.0
102
RTVSPost2010PropOp56
 70
     1
102
RTVSPost2010Prop57
140
1.0
102
RTVSPost2010PropOp57
 70
     1
102
RTVSPropertyOp0
 70
     1
102
RTVSPropertyOp1
 70
     1
102
RTVSPropertyOp2
 70
     1
102
RTVSPropertyOp3
 70
     1
102
RTVSPropertyOp4
 70
     1
102
RTVSPropertyOp5
 70
     1
102
RTVSPropertyOp6
 70
     1
102
RTVSPropertyOp7
 70
     1
102
RTVSPropertyOp8
 70
     1
102
RTVSPropertyOp9
 70
     1
102
RTVSPropertyOp10
 70
     1
102
RTVSPropertyOp11
 70
     1
102
RTVSPropertyOp12
 70
     1
102
RTVSPropertyOp13
 70
     1
102
RTVSPropertyOp14
 70
     1
102
RTVSPropertyOp15
 70
     1
102
RTVSPropertyOp16
 70
     1
102
RTVSPropertyOp17
 70
     1
102
RTVSPropertyOp18
 70
     1
102
RTVSPropertyOp19
 70
     1
102
RTVSPropertyOp20
 70
     1
102
RTVSPropertyOp21
 70
     1
102
RTVSPropertyOp22
 70
     1
102
RTVSPropertyOp23
 70
     1
102
RTVSPropertyOp24
 70
     1
102
RTVSPropertyOp25
 70
     1
102
RTVSPropertyOp26
 70
     1
102
RTVSPropertyOp27
 70
     1
102
RTVSPropertyOp28
 70
     1
102
RTVSPropertyOp29
 70
     1
102
RTVSPropertyOp30
 70
     1
102
RTVSPropertyOp31
 70
     1
102
RTVSPropertyOp32
 70
     1
102
RTVSPropertyOp33
 70
     1
102
RTVSPropertyOp34
 70
     1
102
RTVSPropertyOp35
 70
     1
102
RTVSPropertyOp36
 70
     1
102
RTVSPropertyOp37
 70
     1
102
RTVSPropertyOp38
 70
     1
102
RTVSPropertyOp39
 70
     1
102
RTVSPropertyOp40
 70
     1
102
RTVSPropertyOp41
 70
     1
102
RTVSPropertyOp42
 70
     1
102
RTVSPropertyOp43
 70
     1
102
RTVSPropertyOp44
 70
     1
102
RTVSPropertyOp45
 70
     1
102
RTVSPropertyOp46
 70
     1
102
RTVSPropertyOp47
 70
     1
102
RTVSPropertyOp48
 70
     1
102
RTVSPropertyOp49
 70
     1
102
RTVSPropertyOp50
 70
     1
102
RTVSPropertyOp51
 70
     0
102
RTVSPropertyOp52
 70
     0
102
RTVSPropertyOp53
 70
     1
102
RTVSPropertyOp54
 70
     1
102
RTVSPropertyOp55
 70
     1
102
RTVSPropertyOp56
 70
     1
102
RTVSPropertyOp57
 70
     1
102
RTVSPropertyOp58
 70
     1
102
RTVSPropertyOp59
 70
     1
102
RTVSPropertyOp60
 70
     1
102
RTVSPropertyOp61
 70
     1
102
RTVSPropertyOp62
 70
     1
  0
XRECORD
  5
4F9
102
{ACAD_REACTORS
330
4F8
102
}
330
4F8
100
AcDbXrecord
280
     1
102
RTVSPost2010Prop28
280
     0
102
RTVSPost2010PropOp28
 70
     1
102
RTVSPost2010Prop29
280
     1
102
RTVSPost2010PropOp29
 70
     1
102
RTVSPost2010Prop30
280
     1
102
RTVSPost2010PropOp30
 70
     1
102
RTVSPost2010Prop31
280
     0
102
RTVSPost2010PropOp31
 70
     1
102
RTVSPost2010Prop32
280
     0
102
RTVSPost2010PropOp32
 70
     1
102
RTVSPost2010Prop33
280
     0
102
RTVSPost2010PropOp33
 70
     1
102
RTVSPost2010Prop34
280
     0
102
RTVSPost2010PropOp34
 70
     1
102
RTVSPost2010Prop35
280
     0
102
RTVSPost2010PropOp35
 70
     1
102
RTVSPost2010Prop36
280
     0
102
RTVSPost2010PropOp36
 70
     1
102
RTVSPost2010Prop37
 90
       50
102
RTVSPost2010PropOp37
 70
     1
102
RTVSPost2010Prop38
140
0.0
102
RTVSPost2010PropOp38
 70
     1
102
RTVSPost2010Prop39
140
1.0
102
RTVSPost2010PropOp39
 70
     1
102
RTVSPost2010Prop40
 90
        0
102
RTVSPost2010PropOp40
 70
     1
102
RTVSPost2010Prop41ColorIndex
 90
       18
102
RTVSPost2010Prop41ColorRGB
 90
        0
102
RTVSPost2010PropOp41
 70
     1
102
RTVSPost2010Prop42
 90
       50
102
RTVSPost2010PropOp42
 70
     1
102
RTVSPost2010Prop43
 90
        3
102
RTVSPost2010PropOp43
 70
     1
102
RTVSPost2010Prop44ColorIndex
 90
        5
102
RTVSPost2010Prop44ColorRGB
 90
      255
102
RTVSPost2010PropOp44
 70
     1
102
RTVSPost2010Prop45
280
     0
102
RTVSPost2010PropOp45
 70
     1
102
RTVSPost2010Prop46
 90
       50
102
RTVSPost2010PropOp46
 70
     1
102
RTVSPost2010Prop47
 90
       50
102
RTVSPost2010PropOp47
 70
     1
102
RTVSPost2010Prop48
 90
       50
102
RTVSPost2010PropOp48
 70
     1
102
RTVSPost2010Prop49
280
     0
102
RTVSPost2010PropOp49
 70
     1
102
RTVSPost2010Prop50
 90
       50
102
RTVSPost2010PropOp50
 70
     1
102
RTVSPost2010Prop51ColorIndex
 90
      256
102
RTVSPost2010Prop51ColorRGB
 90
-16777216
102
RTVSPost2010PropOp51
 70
     0
102
RTVSPost2010Prop52
140
1.0
102
RTVSPost2010PropOp52
 70
     0
102
RTVSPost2010Prop53
 90
        2
102
RTVSPost2010PropOp53
 70
     1
102
RTVSPost2010Prop54
  1
strokes_ogs.tif
102
RTVSPost2010PropOp54
 70
     1
102
RTVSPost2010Prop55
280
     0
102
RTVSPost2010PropOp55
 70
     1
102
RTVSPost2010Prop56
140
1.0
102
RTVSPost2010PropOp56
 70
     1
102
RTVSPost2010Prop57
140
1.0
102
RTVSPost2010PropOp57
 70
     1
102
RTVSPropertyOp0
 70
     1
102
RTVSPropertyOp1
 70
     1
102
RTVSPropertyOp2
 70
     1
102
RTVSPropertyOp3
 70
     1
102
RTVSPropertyOp4
 70
     1
102
RTVSPropertyOp5
 70
     1
102
RTVSPropertyOp6
 70
     1
102
RTVSPropertyOp7
 70
     1
102
RTVSPropertyOp8
 70
     1
102
RTVSPropertyOp9
 70
     1
102
RTVSPropertyOp10
 70
     1
102
RTVSPropertyOp11
 70
     1
102
RTVSPropertyOp12
 70
     1
102
RTVSPropertyOp13
 70
     1
102
RTVSPropertyOp14
 70
     1
102
RTVSPropertyOp15
 70
     1
102
RTVSPropertyOp16
 70
     1
102
RTVSPropertyOp17
 70
     1
102
RTVSPropertyOp18
 70
     1
102
RTVSPropertyOp19
 70
     1
102
RTVSPropertyOp20
 70
     1
102
RTVSPropertyOp21
 70
     1
102
RTVSPropertyOp22
 70
     1
102
RTVSPropertyOp23
 70
     1
102
RTVSPropertyOp24
 70
     1
102
RTVSPropertyOp25
 70
     1
102
RTVSPropertyOp26
 70
     1
102
RTVSPropertyOp27
 70
     1
102
RTVSPropertyOp28
 70
     1
102
RTVSPropertyOp29
 70
     1
102
RTVSPropertyOp30
 70
     1
102
RTVSPropertyOp31
 70
     1
102
RTVSPropertyOp32
 70
     1
102
RTVSPropertyOp33
 70
     1
102
RTVSPropertyOp34
 70
     1
102
RTVSPropertyOp35
 70
     1
102
RTVSPropertyOp36
 70
     1
102
RTVSPropertyOp37
 70
     1
102
RTVSPropertyOp38
 70
     1
102
RTVSPropertyOp39
 70
     1
102
RTVSPropertyOp40
 70
     1
102
RTVSPropertyOp41
 70
     1
102
RTVSPropertyOp42
 70
     1
102
RTVSPropertyOp43
 70
     1
102
RTVSPropertyOp44
 70
     1
102
RTVSPropertyOp45
 70
     1
102
RTVSPropertyOp46
 70
     1
102
RTVSPropertyOp47
 70
     1
102
RTVSPropertyOp48
 70
     1
102
RTVSPropertyOp49
 70
     1
102
RTVSPropertyOp50
 70
     1
102
RTVSPropertyOp51
 70
     0
102
RTVSPropertyOp52
 70
     0
102
RTVSPropertyOp53
 70
     1
102
RTVSPropertyOp54
 70
     1
102
RTVSPropertyOp55
 70
     1
102
RTVSPropertyOp56
 70
     1
102
RTVSPropertyOp57
 70
     1
102
RTVSPropertyOp58
 70
     1
102
RTVSPropertyOp59
 70
     1
102
RTVSPropertyOp60
 70
     1
102
RTVSPropertyOp61
 70
     1
102
RTVSPropertyOp62
 70
     1
  0
XRECORD
  5
4EB
102
{ACAD_REACTORS
330
4EA
102
}
330
4EA
100
AcDbXrecord
280
     1
102
RTVSPost2010Prop28
280
     0
102
RTVSPost2010PropOp28
 70
     1
102
RTVSPost2010Prop29
280
     1
102
RTVSPost2010PropOp29
 70
     1
102
RTVSPost2010Prop30
280
     1
102
RTVSPost2010PropOp30
 70
     1
102
RTVSPost2010Prop31
280
     0
102
RTVSPost2010PropOp31
 70
     1
102
RTVSPost2010Prop32
280
     0
102
RTVSPost2010PropOp32
 70
     1
102
RTVSPost2010Prop33
280
     0
102
RTVSPost2010PropOp33
 70
     1
102
RTVSPost2010Prop34
280
     0
102
RTVSPost2010PropOp34
 70
     1
102
RTVSPost2010Prop35
280
     0
102
RTVSPost2010PropOp35
 70
     1
102
RTVSPost2010Prop36
280
     0
102
RTVSPost2010PropOp36
 70
     1
102
RTVSPost2010Prop37
 90
       50
102
RTVSPost2010PropOp37
 70
     1
102
RTVSPost2010Prop38
140
0.0
102
RTVSPost2010PropOp38
 70
     1
102
RTVSPost2010Prop39
140
1.0
102
RTVSPost2010PropOp39
 70
     1
102
RTVSPost2010Prop40
 90
        0
102
RTVSPost2010PropOp40
 70
     1
102
RTVSPost2010Prop41ColorIndex
 90
       18
102
RTVSPost2010Prop41ColorRGB
 90
        0
102
RTVSPost2010PropOp41
 70
     1
102
RTVSPost2010Prop42
 90
       50
102
RTVSPost2010PropOp42
 70
     1
102
RTVSPost2010Prop43
 90
        3
102
RTVSPost2010PropOp43
 70
     1
102
RTVSPost2010Prop44ColorIndex
 90
        5
102
RTVSPost2010Prop44ColorRGB
 90
      255
102
RTVSPost2010PropOp44
 70
     1
102
RTVSPost2010Prop45
280
     0
102
RTVSPost2010PropOp45
 70
     1
102
RTVSPost2010Prop46
 90
       50
102
RTVSPost2010PropOp46
 70
     1
102
RTVSPost2010Prop47
 90
       50
102
RTVSPost2010PropOp47
 70
     1
102
RTVSPost2010Prop48
 90
       50
102
RTVSPost2010PropOp48
 70
     1
102
RTVSPost2010Prop49
280
     0
102
RTVSPost2010PropOp49
 70
     1
102
RTVSPost2010Prop50
 90
       50
102
RTVSPost2010PropOp50
 70
     1
102
RTVSPost2010Prop51ColorIndex
 90
      256
102
RTVSPost2010Prop51ColorRGB
 90
-16777216
102
RTVSPost2010PropOp51
 70
     0
102
RTVSPost2010Prop52
140
1.0
102
RTVSPost2010PropOp52
 70
     0
102
RTVSPost2010Prop53
 90
        2
102
RTVSPost2010PropOp53
 70
     1
102
RTVSPost2010Prop54
  1
strokes_ogs.tif
102
RTVSPost2010PropOp54
 70
     1
102
RTVSPost2010Prop55
280
     0
102
RTVSPost2010PropOp55
 70
     1
102
RTVSPost2010Prop56
140
1.0
102
RTVSPost2010PropOp56
 70
     1
102
RTVSPost2010Prop57
140
1.0
102
RTVSPost2010PropOp57
 70
     1
102
RTVSPropertyOp0
 70
     1
102
RTVSPropertyOp1
 70
     1
102
RTVSPropertyOp2
 70
     1
102
RTVSPropertyOp3
 70
     1
102
RTVSPropertyOp4
 70
     1
102
RTVSPropertyOp5
 70
     1
102
RTVSPropertyOp6
 70
     1
102
RTVSPropertyOp7
 70
     1
102
RTVSPropertyOp8
 70
     1
102
RTVSPropertyOp9
 70
     1
102
RTVSPropertyOp10
 70
     1
102
RTVSPropertyOp11
 70
     1
102
RTVSPropertyOp12
 70
     1
102
RTVSPropertyOp13
 70
     1
102
RTVSPropertyOp14
 70
     1
102
RTVSPropertyOp15
 70
     1
102
RTVSPropertyOp16
 70
     1
102
RTVSPropertyOp17
 70
     1
102
RTVSPropertyOp18
 70
     1
102
RTVSPropertyOp19
 70
     1
102
RTVSPropertyOp20
 70
     1
102
RTVSPropertyOp21
 70
     1
102
RTVSPropertyOp22
 70
     1
102
RTVSPropertyOp23
 70
     1
102
RTVSPropertyOp24
 70
     1
102
RTVSPropertyOp25
 70
     1
102
RTVSPropertyOp26
 70
     1
102
RTVSPropertyOp27
 70
     1
102
RTVSPropertyOp28
 70
     1
102
RTVSPropertyOp29
 70
     1
102
RTVSPropertyOp30
 70
     1
102
RTVSPropertyOp31
 70
     1
102
RTVSPropertyOp32
 70
     1
102
RTVSPropertyOp33
 70
     1
102
RTVSPropertyOp34
 70
     1
102
RTVSPropertyOp35
 70
     1
102
RTVSPropertyOp36
 70
     1
102
RTVSPropertyOp37
 70
     1
102
RTVSPropertyOp38
 70
     1
102
RTVSPropertyOp39
 70
     1
102
RTVSPropertyOp40
 70
     1
102
RTVSPropertyOp41
 70
     1
102
RTVSPropertyOp42
 70
     1
102
RTVSPropertyOp43
 70
     1
102
RTVSPropertyOp44
 70
     1
102
RTVSPropertyOp45
 70
     1
102
RTVSPropertyOp46
 70
     1
102
RTVSPropertyOp47
 70
     1
102
RTVSPropertyOp48
 70
     1
102
RTVSPropertyOp49
 70
     1
102
RTVSPropertyOp50
 70
     1
102
RTVSPropertyOp51
 70
     0
102
RTVSPropertyOp52
 70
     0
102
RTVSPropertyOp53
 70
     1
102
RTVSPropertyOp54
 70
     1
102
RTVSPropertyOp55
 70
     1
102
RTVSPropertyOp56
 70
     1
102
RTVSPropertyOp57
 70
     1
102
RTVSPropertyOp58
 70
     1
102
RTVSPropertyOp59
 70
     1
102
RTVSPropertyOp60
 70
     1
102
RTVSPropertyOp61
 70
     1
102
RTVSPropertyOp62
 70
     1
  0
XRECORD
  5
4EF
102
{ACAD_REACTORS
330
4EE
102
}
330
4EE
100
AcDbXrecord
280
     1
102
RTVSPost2010Prop28
280
     0
102
RTVSPost2010PropOp28
 70
     1
102
RTVSPost2010Prop29
280
     1
102
RTVSPost2010PropOp29
 70
     1
102
RTVSPost2010Prop30
280
     1
102
RTVSPost2010PropOp30
 70
     1
102
RTVSPost2010Prop31
280
     0
102
RTVSPost2010PropOp31
 70
     1
102
RTVSPost2010Prop32
280
     0
102
RTVSPost2010PropOp32
 70
     1
102
RTVSPost2010Prop33
280
     0
102
RTVSPost2010PropOp33
 70
     1
102
RTVSPost2010Prop34
280
     0
102
RTVSPost2010PropOp34
 70
     1
102
RTVSPost2010Prop35
280
     0
102
RTVSPost2010PropOp35
 70
     1
102
RTVSPost2010Prop36
280
     0
102
RTVSPost2010PropOp36
 70
     1
102
RTVSPost2010Prop37
 90
       50
102
RTVSPost2010PropOp37
 70
     1
102
RTVSPost2010Prop38
140
0.0
102
RTVSPost2010PropOp38
 70
     1
102
RTVSPost2010Prop39
140
1.0
102
RTVSPost2010PropOp39
 70
     1
102
RTVSPost2010Prop40
 90
        0
102
RTVSPost2010PropOp40
 70
     1
102
RTVSPost2010Prop41ColorIndex
 90
       18
102
RTVSPost2010Prop41ColorRGB
 90
        0
102
RTVSPost2010PropOp41
 70
     1
102
RTVSPost2010Prop42
 90
       50
102
RTVSPost2010PropOp42
 70
     1
102
RTVSPost2010Prop43
 90
        3
102
RTVSPost2010PropOp43
 70
     1
102
RTVSPost2010Prop44ColorIndex
 90
        5
102
RTVSPost2010Prop44ColorRGB
 90
      255
102
RTVSPost2010PropOp44
 70
     1
102
RTVSPost2010Prop45
280
     0
102
RTVSPost2010PropOp45
 70
     1
102
RTVSPost2010Prop46
 90
       50
102
RTVSPost2010PropOp46
 70
     1
102
RTVSPost2010Prop47
 90
       50
102
RTVSPost2010PropOp47
 70
     1
102
RTVSPost2010Prop48
 90
       50
102
RTVSPost2010PropOp48
 70
     1
102
RTVSPost2010Prop49
280
     0
102
RTVSPost2010PropOp49
 70
     1
102
RTVSPost2010Prop50
 90
       50
102
RTVSPost2010PropOp50
 70
     1
102
RTVSPost2010Prop51ColorIndex
 90
      256
102
RTVSPost2010Prop51ColorRGB
 90
-16777216
102
RTVSPost2010PropOp51
 70
     0
102
RTVSPost2010Prop52
140
1.0
102
RTVSPost2010PropOp52
 70
     0
102
RTVSPost2010Prop53
 90
        2
102
RTVSPost2010PropOp53
 70
     1
102
RTVSPost2010Prop54
  1
strokes_ogs.tif
102
RTVSPost2010PropOp54
 70
     1
102
RTVSPost2010Prop55
280
     0
102
RTVSPost2010PropOp55
 70
     1
102
RTVSPost2010Prop56
140
1.0
102
RTVSPost2010PropOp56
 70
     1
102
RTVSPost2010Prop57
140
1.0
102
RTVSPost2010PropOp57
 70
     1
102
RTVSPropertyOp0
 70
     1
102
RTVSPropertyOp1
 70
     1
102
RTVSPropertyOp2
 70
     1
102
RTVSPropertyOp3
 70
     1
102
RTVSPropertyOp4
 70
     1
102
RTVSPropertyOp5
 70
     1
102
RTVSPropertyOp6
 70
     1
102
RTVSPropertyOp7
 70
     1
102
RTVSPropertyOp8
 70
     1
102
RTVSPropertyOp9
 70
     1
102
RTVSPropertyOp10
 70
     1
102
RTVSPropertyOp11
 70
     1
102
RTVSPropertyOp12
 70
     1
102
RTVSPropertyOp13
 70
     1
102
RTVSPropertyOp14
 70
     1
102
RTVSPropertyOp15
 70
     1
102
RTVSPropertyOp16
 70
     1
102
RTVSPropertyOp17
 70
     1
102
RTVSPropertyOp18
 70
     1
102
RTVSPropertyOp19
 70
     1
102
RTVSPropertyOp20
 70
     1
102
RTVSPropertyOp21
 70
     1
102
RTVSPropertyOp22
 70
     1
102
RTVSPropertyOp23
 70
     1
102
RTVSPropertyOp24
 70
     1
102
RTVSPropertyOp25
 70
     1
102
RTVSPropertyOp26
 70
     1
102
RTVSPropertyOp27
 70
     1
102
RTVSPropertyOp28
 70
     1
102
RTVSPropertyOp29
 70
     1
102
RTVSPropertyOp30
 70
     1
102
RTVSPropertyOp31
 70
     1
102
RTVSPropertyOp32
 70
     1
102
RTVSPropertyOp33
 70
     1
102
RTVSPropertyOp34
 70
     1
102
RTVSPropertyOp35
 70
     1
102
RTVSPropertyOp36
 70
     1
102
RTVSPropertyOp37
 70
     1
102
RTVSPropertyOp38
 70
     1
102
RTVSPropertyOp39
 70
     1
102
RTVSPropertyOp40
 70
     1
102
RTVSPropertyOp41
 70
     1
102
RTVSPropertyOp42
 70
     1
102
RTVSPropertyOp43
 70
     1
102
RTVSPropertyOp44
 70
     1
102
RTVSPropertyOp45
 70
     1
102
RTVSPropertyOp46
 70
     1
102
RTVSPropertyOp47
 70
     1
102
RTVSPropertyOp48
 70
     1
102
RTVSPropertyOp49
 70
     1
102
RTVSPropertyOp50
 70
     1
102
RTVSPropertyOp51
 70
     0
102
RTVSPropertyOp52
 70
     0
102
RTVSPropertyOp53
 70
     1
102
RTVSPropertyOp54
 70
     1
102
RTVSPropertyOp55
 70
     1
102
RTVSPropertyOp56
 70
     1
102
RTVSPropertyOp57
 70
     1
102
RTVSPropertyOp58
 70
     1
102
RTVSPropertyOp59
 70
     1
102
RTVSPropertyOp60
 70
     1
102
RTVSPropertyOp61
 70
     1
102
RTVSPropertyOp62
 70
     1
  0
XRECORD
  5
509
102
{ACAD_REACTORS
330
508
102
}
330
508
100
AcDbXrecord
280
     1
102
RTVSPost2010Prop28
280
     0
102
RTVSPost2010PropOp28
 70
     1
102
RTVSPost2010Prop29
280
     1
102
RTVSPost2010PropOp29
 70
     1
102
RTVSPost2010Prop30
280
     1
102
RTVSPost2010PropOp30
 70
     1
102
RTVSPost2010Prop31
280
     0
102
RTVSPost2010PropOp31
 70
     1
102
RTVSPost2010Prop32
280
     0
102
RTVSPost2010PropOp32
 70
     1
102
RTVSPost2010Prop33
280
     0
102
RTVSPost2010PropOp33
 70
     1
102
RTVSPost2010Prop34
280
     0
102
RTVSPost2010PropOp34
 70
     1
102
RTVSPost2010Prop35
280
     0
102
RTVSPost2010PropOp35
 70
     1
102
RTVSPost2010Prop36
280
     0
102
RTVSPost2010PropOp36
 70
     1
102
RTVSPost2010Prop37
 90
       50
102
RTVSPost2010PropOp37
 70
     0
102
RTVSPost2010Prop38
140
0.0
102
RTVSPost2010PropOp38
 70
     0
102
RTVSPost2010Prop39
140
1.0
102
RTVSPost2010PropOp39
 70
     0
102
RTVSPost2010Prop40
 90
        0
102
RTVSPost2010PropOp40
 70
     0
102
RTVSPost2010Prop41ColorIndex
 90
       18
102
RTVSPost2010Prop41ColorRGB
 90
        0
102
RTVSPost2010PropOp41
 70
     0
102
RTVSPost2010Prop42
 90
       50
102
RTVSPost2010PropOp42
 70
     0
102
RTVSPost2010Prop43
 90
        3
102
RTVSPost2010PropOp43
 70
     0
102
RTVSPost2010Prop44ColorIndex
 90
        5
102
RTVSPost2010Prop44ColorRGB
 90
      255
102
RTVSPost2010PropOp44
 70
     0
102
RTVSPost2010Prop45
280
     0
102
RTVSPost2010PropOp45
 70
     1
102
RTVSPost2010Prop46
 90
       50
102
RTVSPost2010PropOp46
 70
     0
102
RTVSPost2010Prop47
 90
       50
102
RTVSPost2010PropOp47
 70
     0
102
RTVSPost2010Prop48
 90
       50
102
RTVSPost2010PropOp48
 70
     0
102
RTVSPost2010Prop49
280
     0
102
RTVSPost2010PropOp49
 70
     1
102
RTVSPost2010Prop50
 90
       50
102
RTVSPost2010PropOp50
 70
     0
102
RTVSPost2010Prop51ColorIndex
 90
      256
102
RTVSPost2010Prop51ColorRGB
 90
-16777216
102
RTVSPost2010PropOp51
 70
     0
102
RTVSPost2010Prop52
140
1.0
102
RTVSPost2010PropOp52
 70
     0
102
RTVSPost2010Prop53
 90
        2
102
RTVSPost2010PropOp53
 70
     0
102
RTVSPost2010Prop54
  1
strokes_ogs.tif
102
RTVSPost2010PropOp54
 70
     0
102
RTVSPost2010Prop55
280
     0
102
RTVSPost2010PropOp55
 70
     1
102
RTVSPost2010Prop56
140
1.0
102
RTVSPost2010PropOp56
 70
     0
102
RTVSPost2010Prop57
140
1.0
102
RTVSPost2010PropOp57
 70
     0
102
RTVSPropertyOp0
 70
     0
102
RTVSPropertyOp1
 70
     0
102
RTVSPropertyOp2
 70
     0
102
RTVSPropertyOp3
 70
     0
102
RTVSPropertyOp4
 70
     0
102
RTVSPropertyOp5
 70
     0
102
RTVSPropertyOp6
 70
     0
102
RTVSPropertyOp7
 70
     0
102
RTVSPropertyOp8
 70
     0
102
RTVSPropertyOp9
 70
     0
102
RTVSPropertyOp10
 70
     0
102
RTVSPropertyOp11
 70
     0
102
RTVSPropertyOp12
 70
     0
102
RTVSPropertyOp13
 70
     0
102
RTVSPropertyOp14
 70
     2
102
RTVSPropertyOp15
 70
     0
102
RTVSPropertyOp16
 70
     0
102
RTVSPropertyOp17
 70
     0
102
RTVSPropertyOp18
 70
     0
102
RTVSPropertyOp19
 70
     0
102
RTVSPropertyOp20
 70
     0
102
RTVSPropertyOp21
 70
     0
102
RTVSPropertyOp22
 70
     0
102
RTVSPropertyOp23
 70
     0
102
RTVSPropertyOp24
 70
     0
102
RTVSPropertyOp25
 70
     0
102
RTVSPropertyOp26
 70
     0
102
RTVSPropertyOp27
 70
     0
102
RTVSPropertyOp28
 70
     1
102
RTVSPropertyOp29
 70
     1
102
RTVSPropertyOp30
 70
     1
102
RTVSPropertyOp31
 70
     1
102
RTVSPropertyOp32
 70
     1
102
RTVSPropertyOp33
 70
     1
102
RTVSPropertyOp34
 70
     1
102
RTVSPropertyOp35
 70
     1
102
RTVSPropertyOp36
 70
     1
102
RTVSPropertyOp37
 70
     0
102
RTVSPropertyOp38
 70
     0
102
RTVSPropertyOp39
 70
     0
102
RTVSPropertyOp40
 70
     0
102
RTVSPropertyOp41
 70
     0
102
RTVSPropertyOp42
 70
     0
102
RTVSPropertyOp43
 70
     0
102
RTVSPropertyOp44
 70
     0
102
RTVSPropertyOp45
 70
     1
102
RTVSPropertyOp46
 70
     0
102
RTVSPropertyOp47
 70
     0
102
RTVSPropertyOp48
 70
     0
102
RTVSPropertyOp49
 70
     1
102
RTVSPropertyOp50
 70
     0
102
RTVSPropertyOp51
 70
     0
102
RTVSPropertyOp52
 70
     0
102
RTVSPropertyOp53
 70
     0
102
RTVSPropertyOp54
 70
     0
102
RTVSPropertyOp55
 70
     1
102
RTVSPropertyOp56
 70
     0
102
RTVSPropertyOp57
 70
     0
102
RTVSPropertyOp58
 70
     0
102
RTVSPropertyOp59
 70
     0
102
RTVSPropertyOp60
 70
     0
102
RTVSPropertyOp61
 70
     0
102
RTVSPropertyOp62
 70
     0
  0
XRECORD
  5
4F7
102
{ACAD_REACTORS
330
4F6
102
}
330
4F6
100
AcDbXrecord
280
     1
102
RTVSPost2010Prop28
280
     0
102
RTVSPost2010PropOp28
 70
     1
102
RTVSPost2010Prop29
280
     1
102
RTVSPost2010PropOp29
 70
     1
102
RTVSPost2010Prop30
280
     1
102
RTVSPost2010PropOp30
 70
     1
102
RTVSPost2010Prop31
280
     0
102
RTVSPost2010PropOp31
 70
     1
102
RTVSPost2010Prop32
280
     0
102
RTVSPost2010PropOp32
 70
     1
102
RTVSPost2010Prop33
280
     0
102
RTVSPost2010PropOp33
 70
     1
102
RTVSPost2010Prop34
280
     0
102
RTVSPost2010PropOp34
 70
     1
102
RTVSPost2010Prop35
280
     0
102
RTVSPost2010PropOp35
 70
     1
102
RTVSPost2010Prop36
280
     0
102
RTVSPost2010PropOp36
 70
     1
102
RTVSPost2010Prop37
 90
       50
102
RTVSPost2010PropOp37
 70
     1
102
RTVSPost2010Prop38
140
0.0
102
RTVSPost2010PropOp38
 70
     1
102
RTVSPost2010Prop39
140
1.0
102
RTVSPost2010PropOp39
 70
     1
102
RTVSPost2010Prop40
 90
        0
102
RTVSPost2010PropOp40
 70
     1
102
RTVSPost2010Prop41ColorIndex
 90
       18
102
RTVSPost2010Prop41ColorRGB
 90
        0
102
RTVSPost2010PropOp41
 70
     1
102
RTVSPost2010Prop42
 90
       50
102
RTVSPost2010PropOp42
 70
     1
102
RTVSPost2010Prop43
 90
        3
102
RTVSPost2010PropOp43
 70
     1
102
RTVSPost2010Prop44ColorIndex
 90
        5
102
RTVSPost2010Prop44ColorRGB
 90
      255
102
RTVSPost2010PropOp44
 70
     1
102
RTVSPost2010Prop45
280
     0
102
RTVSPost2010PropOp45
 70
     1
102
RTVSPost2010Prop46
 90
       50
102
RTVSPost2010PropOp46
 70
     1
102
RTVSPost2010Prop47
 90
       50
102
RTVSPost2010PropOp47
 70
     1
102
RTVSPost2010Prop48
 90
       50
102
RTVSPost2010PropOp48
 70
     1
102
RTVSPost2010Prop49
280
     0
102
RTVSPost2010PropOp49
 70
     1
102
RTVSPost2010Prop50
 90
       50
102
RTVSPost2010PropOp50
 70
     1
102
RTVSPost2010Prop51ColorIndex
 90
      256
102
RTVSPost2010Prop51ColorRGB
 90
-16777216
102
RTVSPost2010PropOp51
 70
     0
102
RTVSPost2010Prop52
140
1.0
102
RTVSPost2010PropOp52
 70
     0
102
RTVSPost2010Prop53
 90
        2
102
RTVSPost2010PropOp53
 70
     1
102
RTVSPost2010Prop54
  1
strokes_ogs.tif
102
RTVSPost2010PropOp54
 70
     1
102
RTVSPost2010Prop55
280
     0
102
RTVSPost2010PropOp55
 70
     1
102
RTVSPost2010Prop56
140
1.0
102
RTVSPost2010PropOp56
 70
     1
102
RTVSPost2010Prop57
140
1.0
102
RTVSPost2010PropOp57
 70
     1
102
RTVSPropertyOp0
 70
     1
102
RTVSPropertyOp1
 70
     1
102
RTVSPropertyOp2
 70
     1
102
RTVSPropertyOp3
 70
     1
102
RTVSPropertyOp4
 70
     1
102
RTVSPropertyOp5
 70
     1
102
RTVSPropertyOp6
 70
     1
102
RTVSPropertyOp7
 70
     1
102
RTVSPropertyOp8
 70
     1
102
RTVSPropertyOp9
 70
     1
102
RTVSPropertyOp10
 70
     1
102
RTVSPropertyOp11
 70
     1
102
RTVSPropertyOp12
 70
     1
102
RTVSPropertyOp13
 70
     1
102
RTVSPropertyOp14
 70
     1
102
RTVSPropertyOp15
 70
     1
102
RTVSPropertyOp16
 70
     1
102
RTVSPropertyOp17
 70
     1
102
RTVSPropertyOp18
 70
     1
102
RTVSPropertyOp19
 70
     1
102
RTVSPropertyOp20
 70
     1
102
RTVSPropertyOp21
 70
     1
102
RTVSPropertyOp22
 70
     1
102
RTVSPropertyOp23
 70
     1
102
RTVSPropertyOp24
 70
     1
102
RTVSPropertyOp25
 70
     1
102
RTVSPropertyOp26
 70
     1
102
RTVSPropertyOp27
 70
     1
102
RTVSPropertyOp28
 70
     1
102
RTVSPropertyOp29
 70
     1
102
RTVSPropertyOp30
 70
     1
102
RTVSPropertyOp31
 70
     1
102
RTVSPropertyOp32
 70
     1
102
RTVSPropertyOp33
 70
     1
102
RTVSPropertyOp34
 70
     1
102
RTVSPropertyOp35
 70
     1
102
RTVSPropertyOp36
 70
     1
102
RTVSPropertyOp37
 70
     1
102
RTVSPropertyOp38
 70
     1
102
RTVSPropertyOp39
 70
     1
102
RTVSPropertyOp40
 70
     1
102
RTVSPropertyOp41
 70
     1
102
RTVSPropertyOp42
 70
     1
102
RTVSPropertyOp43
 70
     1
102
RTVSPropertyOp44
 70
     1
102
RTVSPropertyOp45
 70
     1
102
RTVSPropertyOp46
 70
     1
102
RTVSPropertyOp47
 70
     1
102
RTVSPropertyOp48
 70
     1
102
RTVSPropertyOp49
 70
     1
102
RTVSPropertyOp50
 70
     1
102
RTVSPropertyOp51
 70
     0
102
RTVSPropertyOp52
 70
     0
102
RTVSPropertyOp53
 70
     1
102
RTVSPropertyOp54
 70
     1
102
RTVSPropertyOp55
 70
     1
102
RTVSPropertyOp56
 70
     1
102
RTVSPropertyOp57
 70
     1
102
RTVSPropertyOp58
 70
     1
102
RTVSPropertyOp59
 70
     1
102
RTVSPropertyOp60
 70
     1
102
RTVSPropertyOp61
 70
     1
102
RTVSPropertyOp62
 70
     1
  0
XRECORD
  5
4DB
102
{ACAD_REACTORS
330
4DA
102
}
330
4DA
100
AcDbXrecord
280
     1
102
RTVSPost2010Prop28
280
     0
102
RTVSPost2010PropOp28
 70
     1
102
RTVSPost2010Prop29
280
     1
102
RTVSPost2010PropOp29
 70
     1
102
RTVSPost2010Prop30
280
     1
102
RTVSPost2010PropOp30
 70
     1
102
RTVSPost2010Prop31
280
     0
102
RTVSPost2010PropOp31
 70
     1
102
RTVSPost2010Prop32
280
     0
102
RTVSPost2010PropOp32
 70
     1
102
RTVSPost2010Prop33
280
     0
102
RTVSPost2010PropOp33
 70
     1
102
RTVSPost2010Prop34
280
     0
102
RTVSPost2010PropOp34
 70
     1
102
RTVSPost2010Prop35
280
     0
102
RTVSPost2010PropOp35
 70
     1
102
RTVSPost2010Prop36
280
     0
102
RTVSPost2010PropOp36
 70
     1
102
RTVSPost2010Prop37
 90
       50
102
RTVSPost2010PropOp37
 70
     1
102
RTVSPost2010Prop38
140
0.0
102
RTVSPost2010PropOp38
 70
     1
102
RTVSPost2010Prop39
140
1.0
102
RTVSPost2010PropOp39
 70
     1
102
RTVSPost2010Prop40
 90
        0
102
RTVSPost2010PropOp40
 70
     1
102
RTVSPost2010Prop41ColorIndex
 90
       18
102
RTVSPost2010Prop41ColorRGB
 90
        0
102
RTVSPost2010PropOp41
 70
     1
102
RTVSPost2010Prop42
 90
       50
102
RTVSPost2010PropOp42
 70
     1
102
RTVSPost2010Prop43
 90
        3
102
RTVSPost2010PropOp43
 70
     1
102
RTVSPost2010Prop44ColorIndex
 90
        5
102
RTVSPost2010Prop44ColorRGB
 90
      255
102
RTVSPost2010PropOp44
 70
     1
102
RTVSPost2010Prop45
280
     0
102
RTVSPost2010PropOp45
 70
     1
102
RTVSPost2010Prop46
 90
       50
102
RTVSPost2010PropOp46
 70
     1
102
RTVSPost2010Prop47
 90
       50
102
RTVSPost2010PropOp47
 70
     1
102
RTVSPost2010Prop48
 90
       50
102
RTVSPost2010PropOp48
 70
     1
102
RTVSPost2010Prop49
280
     0
102
RTVSPost2010PropOp49
 70
     1
102
RTVSPost2010Prop50
 90
       50
102
RTVSPost2010PropOp50
 70
     1
102
RTVSPost2010Prop51ColorIndex
 90
      256
102
RTVSPost2010Prop51ColorRGB
 90
-16777216
102
RTVSPost2010PropOp51
 70
     0
102
RTVSPost2010Prop52
140
1.0
102
RTVSPost2010PropOp52
 70
     0
102
RTVSPost2010Prop53
 90
        2
102
RTVSPost2010PropOp53
 70
     1
102
RTVSPost2010Prop54
  1
strokes_ogs.tif
102
RTVSPost2010PropOp54
 70
     1
102
RTVSPost2010Prop55
280
     0
102
RTVSPost2010PropOp55
 70
     1
102
RTVSPost2010Prop56
140
1.0
102
RTVSPost2010PropOp56
 70
     1
102
RTVSPost2010Prop57
140
1.0
102
RTVSPost2010PropOp57
 70
     1
102
RTVSPropertyOp0
 70
     1
102
RTVSPropertyOp1
 70
     1
102
RTVSPropertyOp2
 70
     1
102
RTVSPropertyOp3
 70
     1
102
RTVSPropertyOp4
 70
     1
102
RTVSPropertyOp5
 70
     1
102
RTVSPropertyOp6
 70
     1
102
RTVSPropertyOp7
 70
     1
102
RTVSPropertyOp8
 70
     1
102
RTVSPropertyOp9
 70
     1
102
RTVSPropertyOp10
 70
     1
102
RTVSPropertyOp11
 70
     1
102
RTVSPropertyOp12
 70
     1
102
RTVSPropertyOp13
 70
     1
102
RTVSPropertyOp14
 70
     1
102
RTVSPropertyOp15
 70
     1
102
RTVSPropertyOp16
 70
     1
102
RTVSPropertyOp17
 70
     1
102
RTVSPropertyOp18
 70
     1
102
RTVSPropertyOp19
 70
     1
102
RTVSPropertyOp20
 70
     1
102
RTVSPropertyOp21
 70
     1
102
RTVSPropertyOp22
 70
     1
102
RTVSPropertyOp23
 70
     1
102
RTVSPropertyOp24
 70
     1
102
RTVSPropertyOp25
 70
     1
102
RTVSPropertyOp26
 70
     1
102
RTVSPropertyOp27
 70
     1
102
RTVSPropertyOp28
 70
     1
102
RTVSPropertyOp29
 70
     1
102
RTVSPropertyOp30
 70
     1
102
RTVSPropertyOp31
 70
     1
102
RTVSPropertyOp32
 70
     1
102
RTVSPropertyOp33
 70
     1
102
RTVSPropertyOp34
 70
     1
102
RTVSPropertyOp35
 70
     1
102
RTVSPropertyOp36
 70
     1
102
RTVSPropertyOp37
 70
     1
102
RTVSPropertyOp38
 70
     1
102
RTVSPropertyOp39
 70
     1
102
RTVSPropertyOp40
 70
     1
102
RTVSPropertyOp41
 70
     1
102
RTVSPropertyOp42
 70
     1
102
RTVSPropertyOp43
 70
     1
102
RTVSPropertyOp44
 70
     1
102
RTVSPropertyOp45
 70
     1
102
RTVSPropertyOp46
 70
     1
102
RTVSPropertyOp47
 70
     1
102
RTVSPropertyOp48
 70
     1
102
RTVSPropertyOp49
 70
     1
102
RTVSPropertyOp50
 70
     1
102
RTVSPropertyOp51
 70
     0
102
RTVSPropertyOp52
 70
     0
102
RTVSPropertyOp53
 70
     1
102
RTVSPropertyOp54
 70
     1
102
RTVSPropertyOp55
 70
     1
102
RTVSPropertyOp56
 70
     1
102
RTVSPropertyOp57
 70
     1
102
RTVSPropertyOp58
 70
     1
102
RTVSPropertyOp59
 70
     1
102
RTVSPropertyOp60
 70
     1
102
RTVSPropertyOp61
 70
     1
102
RTVSPropertyOp62
 70
     1
  0
XRECORD
  5
4DD
102
{ACAD_REACTORS
330
4DC
102
}
330
4DC
100
AcDbXrecord
280
     1
102
RTVSPost2010Prop28
280
     0
102
RTVSPost2010PropOp28
 70
     1
102
RTVSPost2010Prop29
280
     1
102
RTVSPost2010PropOp29
 70
     1
102
RTVSPost2010Prop30
280
     1
102
RTVSPost2010PropOp30
 70
     1
102
RTVSPost2010Prop31
280
     0
102
RTVSPost2010PropOp31
 70
     1
102
RTVSPost2010Prop32
280
     0
102
RTVSPost2010PropOp32
 70
     1
102
RTVSPost2010Prop33
280
     0
102
RTVSPost2010PropOp33
 70
     1
102
RTVSPost2010Prop34
280
     0
102
RTVSPost2010PropOp34
 70
     1
102
RTVSPost2010Prop35
280
     0
102
RTVSPost2010PropOp35
 70
     1
102
RTVSPost2010Prop36
280
     0
102
RTVSPost2010PropOp36
 70
     1
102
RTVSPost2010Prop37
 90
       50
102
RTVSPost2010PropOp37
 70
     1
102
RTVSPost2010Prop38
140
0.0
102
RTVSPost2010PropOp38
 70
     1
102
RTVSPost2010Prop39
140
1.0
102
RTVSPost2010PropOp39
 70
     1
102
RTVSPost2010Prop40
 90
        0
102
RTVSPost2010PropOp40
 70
     1
102
RTVSPost2010Prop41ColorIndex
 90
       18
102
RTVSPost2010Prop41ColorRGB
 90
        0
102
RTVSPost2010PropOp41
 70
     1
102
RTVSPost2010Prop42
 90
       50
102
RTVSPost2010PropOp42
 70
     1
102
RTVSPost2010Prop43
 90
        3
102
RTVSPost2010PropOp43
 70
     1
102
RTVSPost2010Prop44ColorIndex
 90
        5
102
RTVSPost2010Prop44ColorRGB
 90
      255
102
RTVSPost2010PropOp44
 70
     1
102
RTVSPost2010Prop45
280
     0
102
RTVSPost2010PropOp45
 70
     1
102
RTVSPost2010Prop46
 90
       50
102
RTVSPost2010PropOp46
 70
     1
102
RTVSPost2010Prop47
 90
       50
102
RTVSPost2010PropOp47
 70
     1
102
RTVSPost2010Prop48
 90
       50
102
RTVSPost2010PropOp48
 70
     1
102
RTVSPost2010Prop49
280
     0
102
RTVSPost2010PropOp49
 70
     1
102
RTVSPost2010Prop50
 90
       50
102
RTVSPost2010PropOp50
 70
     1
102
RTVSPost2010Prop51ColorIndex
 90
      256
102
RTVSPost2010Prop51ColorRGB
 90
-16777216
102
RTVSPost2010PropOp51
 70
     0
102
RTVSPost2010Prop52
140
1.0
102
RTVSPost2010PropOp52
 70
     0
102
RTVSPost2010Prop53
 90
        2
102
RTVSPost2010PropOp53
 70
     1
102
RTVSPost2010Prop54
  1
strokes_ogs.tif
102
RTVSPost2010PropOp54
 70
     1
102
RTVSPost2010Prop55
280
     0
102
RTVSPost2010PropOp55
 70
     1
102
RTVSPost2010Prop56
140
1.0
102
RTVSPost2010PropOp56
 70
     1
102
RTVSPost2010Prop57
140
1.0
102
RTVSPost2010PropOp57
 70
     1
102
RTVSPropertyOp0
 70
     1
102
RTVSPropertyOp1
 70
     1
102
RTVSPropertyOp2
 70
     1
102
RTVSPropertyOp3
 70
     1
102
RTVSPropertyOp4
 70
     1
102
RTVSPropertyOp5
 70
     1
102
RTVSPropertyOp6
 70
     1
102
RTVSPropertyOp7
 70
     1
102
RTVSPropertyOp8
 70
     1
102
RTVSPropertyOp9
 70
     1
102
RTVSPropertyOp10
 70
     1
102
RTVSPropertyOp11
 70
     1
102
RTVSPropertyOp12
 70
     1
102
RTVSPropertyOp13
 70
     1
102
RTVSPropertyOp14
 70
     1
102
RTVSPropertyOp15
 70
     1
102
RTVSPropertyOp16
 70
     1
102
RTVSPropertyOp17
 70
     1
102
RTVSPropertyOp18
 70
     1
102
RTVSPropertyOp19
 70
     1
102
RTVSPropertyOp20
 70
     1
102
RTVSPropertyOp21
 70
     1
102
RTVSPropertyOp22
 70
     1
102
RTVSPropertyOp23
 70
     1
102
RTVSPropertyOp24
 70
     1
102
RTVSPropertyOp25
 70
     1
102
RTVSPropertyOp26
 70
     1
102
RTVSPropertyOp27
 70
     1
102
RTVSPropertyOp28
 70
     1
102
RTVSPropertyOp29
 70
     1
102
RTVSPropertyOp30
 70
     1
102
RTVSPropertyOp31
 70
     1
102
RTVSPropertyOp32
 70
     1
102
RTVSPropertyOp33
 70
     1
102
RTVSPropertyOp34
 70
     1
102
RTVSPropertyOp35
 70
     1
102
RTVSPropertyOp36
 70
     1
102
RTVSPropertyOp37
 70
     1
102
RTVSPropertyOp38
 70
     1
102
RTVSPropertyOp39
 70
     1
102
RTVSPropertyOp40
 70
     1
102
RTVSPropertyOp41
 70
     1
102
RTVSPropertyOp42
 70
     1
102
RTVSPropertyOp43
 70
     1
102
RTVSPropertyOp44
 70
     1
102
RTVSPropertyOp45
 70
     1
102
RTVSPropertyOp46
 70
     1
102
RTVSPropertyOp47
 70
     1
102
RTVSPropertyOp48
 70
     1
102
RTVSPropertyOp49
 70
     1
102
RTVSPropertyOp50
 70
     1
102
RTVSPropertyOp51
 70
     0
102
RTVSPropertyOp52
 70
     0
102
RTVSPropertyOp53
 70
     1
102
RTVSPropertyOp54
 70
     1
102
RTVSPropertyOp55
 70
     1
102
RTVSPropertyOp56
 70
     1
102
RTVSPropertyOp57
 70
     1
102
RTVSPropertyOp58
 70
     1
102
RTVSPropertyOp59
 70
     1
102
RTVSPropertyOp60
 70
     1
102
RTVSPropertyOp61
 70
     1
102
RTVSPropertyOp62
 70
     1
  0
XRECORD
  5
4DF
102
{ACAD_REACTORS
330
4DE
102
}
330
4DE
100
AcDbXrecord
280
     1
102
RTVSPost2010Prop28
280
     0
102
RTVSPost2010PropOp28
 70
     1
102
RTVSPost2010Prop29
280
     1
102
RTVSPost2010PropOp29
 70
     1
102
RTVSPost2010Prop30
280
     1
102
RTVSPost2010PropOp30
 70
     1
102
RTVSPost2010Prop31
280
     0
102
RTVSPost2010PropOp31
 70
     1
102
RTVSPost2010Prop32
280
     0
102
RTVSPost2010PropOp32
 70
     1
102
RTVSPost2010Prop33
280
     0
102
RTVSPost2010PropOp33
 70
     1
102
RTVSPost2010Prop34
280
     0
102
RTVSPost2010PropOp34
 70
     1
102
RTVSPost2010Prop35
280
     0
102
RTVSPost2010PropOp35
 70
     1
102
RTVSPost2010Prop36
280
     0
102
RTVSPost2010PropOp36
 70
     1
102
RTVSPost2010Prop37
 90
       50
102
RTVSPost2010PropOp37
 70
     1
102
RTVSPost2010Prop38
140
0.0
102
RTVSPost2010PropOp38
 70
     1
102
RTVSPost2010Prop39
140
1.0
102
RTVSPost2010PropOp39
 70
     1
102
RTVSPost2010Prop40
 90
        0
102
RTVSPost2010PropOp40
 70
     1
102
RTVSPost2010Prop41ColorIndex
 90
       18
102
RTVSPost2010Prop41ColorRGB
 90
        0
102
RTVSPost2010PropOp41
 70
     1
102
RTVSPost2010Prop42
 90
       50
102
RTVSPost2010PropOp42
 70
     1
102
RTVSPost2010Prop43
 90
        3
102
RTVSPost2010PropOp43
 70
     1
102
RTVSPost2010Prop44ColorIndex
 90
        5
102
RTVSPost2010Prop44ColorRGB
 90
      255
102
RTVSPost2010PropOp44
 70
     1
102
RTVSPost2010Prop45
280
     0
102
RTVSPost2010PropOp45
 70
     1
102
RTVSPost2010Prop46
 90
       50
102
RTVSPost2010PropOp46
 70
     1
102
RTVSPost2010Prop47
 90
       50
102
RTVSPost2010PropOp47
 70
     1
102
RTVSPost2010Prop48
 90
       50
102
RTVSPost2010PropOp48
 70
     1
102
RTVSPost2010Prop49
280
     0
102
RTVSPost2010PropOp49
 70
     1
102
RTVSPost2010Prop50
 90
       50
102
RTVSPost2010PropOp50
 70
     1
102
RTVSPost2010Prop51ColorIndex
 90
      256
102
RTVSPost2010Prop51ColorRGB
 90
-16777216
102
RTVSPost2010PropOp51
 70
     0
102
RTVSPost2010Prop52
140
1.0
102
RTVSPost2010PropOp52
 70
     0
102
RTVSPost2010Prop53
 90
        2
102
RTVSPost2010PropOp53
 70
     1
102
RTVSPost2010Prop54
  1
strokes_ogs.tif
102
RTVSPost2010PropOp54
 70
     1
102
RTVSPost2010Prop55
280
     0
102
RTVSPost2010PropOp55
 70
     1
102
RTVSPost2010Prop56
140
1.0
102
RTVSPost2010PropOp56
 70
     1
102
RTVSPost2010Prop57
140
1.0
102
RTVSPost2010PropOp57
 70
     1
102
RTVSPropertyOp0
 70
     1
102
RTVSPropertyOp1
 70
     1
102
RTVSPropertyOp2
 70
     1
102
RTVSPropertyOp3
 70
     1
102
RTVSPropertyOp4
 70
     1
102
RTVSPropertyOp5
 70
     1
102
RTVSPropertyOp6
 70
     1
102
RTVSPropertyOp7
 70
     1
102
RTVSPropertyOp8
 70
     1
102
RTVSPropertyOp9
 70
     1
102
RTVSPropertyOp10
 70
     1
102
RTVSPropertyOp11
 70
     1
102
RTVSPropertyOp12
 70
     1
102
RTVSPropertyOp13
 70
     1
102
RTVSPropertyOp14
 70
     1
102
RTVSPropertyOp15
 70
     1
102
RTVSPropertyOp16
 70
     1
102
RTVSPropertyOp17
 70
     1
102
RTVSPropertyOp18
 70
     1
102
RTVSPropertyOp19
 70
     1
102
RTVSPropertyOp20
 70
     1
102
RTVSPropertyOp21
 70
     1
102
RTVSPropertyOp22
 70
     1
102
RTVSPropertyOp23
 70
     1
102
RTVSPropertyOp24
 70
     1
102
RTVSPropertyOp25
 70
     1
102
RTVSPropertyOp26
 70
     1
102
RTVSPropertyOp27
 70
     1
102
RTVSPropertyOp28
 70
     1
102
RTVSPropertyOp29
 70
     1
102
RTVSPropertyOp30
 70
     1
102
RTVSPropertyOp31
 70
     1
102
RTVSPropertyOp32
 70
     1
102
RTVSPropertyOp33
 70
     1
102
RTVSPropertyOp34
 70
     1
102
RTVSPropertyOp35
 70
     1
102
RTVSPropertyOp36
 70
     1
102
RTVSPropertyOp37
 70
     1
102
RTVSPropertyOp38
 70
     1
102
RTVSPropertyOp39
 70
     1
102
RTVSPropertyOp40
 70
     1
102
RTVSPropertyOp41
 70
     1
102
RTVSPropertyOp42
 70
     1
102
RTVSPropertyOp43
 70
     1
102
RTVSPropertyOp44
 70
     1
102
RTVSPropertyOp45
 70
     1
102
RTVSPropertyOp46
 70
     1
102
RTVSPropertyOp47
 70
     1
102
RTVSPropertyOp48
 70
     1
102
RTVSPropertyOp49
 70
     1
102
RTVSPropertyOp50
 70
     1
102
RTVSPropertyOp51
 70
     0
102
RTVSPropertyOp52
 70
     0
102
RTVSPropertyOp53
 70
     1
102
RTVSPropertyOp54
 70
     1
102
RTVSPropertyOp55
 70
     1
102
RTVSPropertyOp56
 70
     1
102
RTVSPropertyOp57
 70
     1
102
RTVSPropertyOp58
 70
     1
102
RTVSPropertyOp59
 70
     1
102
RTVSPropertyOp60
 70
     1
102
RTVSPropertyOp61
 70
     1
102
RTVSPropertyOp62
 70
     1
  0
XRECORD
  5
4E1
102
{ACAD_REACTORS
330
4E0
102
}
330
4E0
100
AcDbXrecord
280
     1
102
RTVSPost2010Prop28
280
     0
102
RTVSPost2010PropOp28
 70
     1
102
RTVSPost2010Prop29
280
     1
102
RTVSPost2010PropOp29
 70
     1
102
RTVSPost2010Prop30
280
     1
102
RTVSPost2010PropOp30
 70
     1
102
RTVSPost2010Prop31
280
     0
102
RTVSPost2010PropOp31
 70
     1
102
RTVSPost2010Prop32
280
     0
102
RTVSPost2010PropOp32
 70
     1
102
RTVSPost2010Prop33
280
     0
102
RTVSPost2010PropOp33
 70
     1
102
RTVSPost2010Prop34
280
     0
102
RTVSPost2010PropOp34
 70
     1
102
RTVSPost2010Prop35
280
     0
102
RTVSPost2010PropOp35
 70
     1
102
RTVSPost2010Prop36
280
     0
102
RTVSPost2010PropOp36
 70
     1
102
RTVSPost2010Prop37
 90
       50
102
RTVSPost2010PropOp37
 70
     1
102
RTVSPost2010Prop38
140
0.0
102
RTVSPost2010PropOp38
 70
     1
102
RTVSPost2010Prop39
140
1.0
102
RTVSPost2010PropOp39
 70
     1
102
RTVSPost2010Prop40
 90
        0
102
RTVSPost2010PropOp40
 70
     1
102
RTVSPost2010Prop41ColorIndex
 90
       18
102
RTVSPost2010Prop41ColorRGB
 90
        0
102
RTVSPost2010PropOp41
 70
     1
102
RTVSPost2010Prop42
 90
       50
102
RTVSPost2010PropOp42
 70
     1
102
RTVSPost2010Prop43
 90
        3
102
RTVSPost2010PropOp43
 70
     1
102
RTVSPost2010Prop44ColorIndex
 90
        5
102
RTVSPost2010Prop44ColorRGB
 90
      255
102
RTVSPost2010PropOp44
 70
     1
102
RTVSPost2010Prop45
280
     0
102
RTVSPost2010PropOp45
 70
     1
102
RTVSPost2010Prop46
 90
       50
102
RTVSPost2010PropOp46
 70
     1
102
RTVSPost2010Prop47
 90
       50
102
RTVSPost2010PropOp47
 70
     1
102
RTVSPost2010Prop48
 90
       50
102
RTVSPost2010PropOp48
 70
     1
102
RTVSPost2010Prop49
280
     0
102
RTVSPost2010PropOp49
 70
     1
102
RTVSPost2010Prop50
 90
       50
102
RTVSPost2010PropOp50
 70
     1
102
RTVSPost2010Prop51ColorIndex
 90
      256
102
RTVSPost2010Prop51ColorRGB
 90
-16777216
102
RTVSPost2010PropOp51
 70
     0
102
RTVSPost2010Prop52
140
1.0
102
RTVSPost2010PropOp52
 70
     0
102
RTVSPost2010Prop53
 90
        2
102
RTVSPost2010PropOp53
 70
     1
102
RTVSPost2010Prop54
  1
strokes_ogs.tif
102
RTVSPost2010PropOp54
 70
     1
102
RTVSPost2010Prop55
280
     0
102
RTVSPost2010PropOp55
 70
     1
102
RTVSPost2010Prop56
140
1.0
102
RTVSPost2010PropOp56
 70
     1
102
RTVSPost2010Prop57
140
1.0
102
RTVSPost2010PropOp57
 70
     1
102
RTVSPropertyOp0
 70
     1
102
RTVSPropertyOp1
 70
     1
102
RTVSPropertyOp2
 70
     1
102
RTVSPropertyOp3
 70
     1
102
RTVSPropertyOp4
 70
     1
102
RTVSPropertyOp5
 70
     1
102
RTVSPropertyOp6
 70
     1
102
RTVSPropertyOp7
 70
     1
102
RTVSPropertyOp8
 70
     1
102
RTVSPropertyOp9
 70
     1
102
RTVSPropertyOp10
 70
     1
102
RTVSPropertyOp11
 70
     1
102
RTVSPropertyOp12
 70
     1
102
RTVSPropertyOp13
 70
     1
102
RTVSPropertyOp14
 70
     1
102
RTVSPropertyOp15
 70
     1
102
RTVSPropertyOp16
 70
     1
102
RTVSPropertyOp17
 70
     1
102
RTVSPropertyOp18
 70
     1
102
RTVSPropertyOp19
 70
     1
102
RTVSPropertyOp20
 70
     1
102
RTVSPropertyOp21
 70
     1
102
RTVSPropertyOp22
 70
     1
102
RTVSPropertyOp23
 70
     1
102
RTVSPropertyOp24
 70
     1
102
RTVSPropertyOp25
 70
     1
102
RTVSPropertyOp26
 70
     1
102
RTVSPropertyOp27
 70
     1
102
RTVSPropertyOp28
 70
     1
102
RTVSPropertyOp29
 70
     1
102
RTVSPropertyOp30
 70
     1
102
RTVSPropertyOp31
 70
     1
102
RTVSPropertyOp32
 70
     1
102
RTVSPropertyOp33
 70
     1
102
RTVSPropertyOp34
 70
     1
102
RTVSPropertyOp35
 70
     1
102
RTVSPropertyOp36
 70
     1
102
RTVSPropertyOp37
 70
     1
102
RTVSPropertyOp38
 70
     1
102
RTVSPropertyOp39
 70
     1
102
RTVSPropertyOp40
 70
     1
102
RTVSPropertyOp41
 70
     1
102
RTVSPropertyOp42
 70
     1
102
RTVSPropertyOp43
 70
     1
102
RTVSPropertyOp44
 70
     1
102
RTVSPropertyOp45
 70
     1
102
RTVSPropertyOp46
 70
     1
102
RTVSPropertyOp47
 70
     1
102
RTVSPropertyOp48
 70
     1
102
RTVSPropertyOp49
 70
     1
102
RTVSPropertyOp50
 70
     1
102
RTVSPropertyOp51
 70
     0
102
RTVSPropertyOp52
 70
     0
102
RTVSPropertyOp53
 70
     1
102
RTVSPropertyOp54
 70
     1
102
RTVSPropertyOp55
 70
     1
102
RTVSPropertyOp56
 70
     1
102
RTVSPropertyOp57
 70
     1
102
RTVSPropertyOp58
 70
     1
102
RTVSPropertyOp59
 70
     1
102
RTVSPropertyOp60
 70
     1
102
RTVSPropertyOp61
 70
     1
102
RTVSPropertyOp62
 70
     1
  0
XRECORD
  5
4E9
102
{ACAD_REACTORS
330
4E8
102
}
330
4E8
100
AcDbXrecord
280
     1
102
RTVSPost2010Prop28
280
     0
102
RTVSPost2010PropOp28
 70
     1
102
RTVSPost2010Prop29
280
     1
102
RTVSPost2010PropOp29
 70
     1
102
RTVSPost2010Prop30
280
     1
102
RTVSPost2010PropOp30
 70
     1
102
RTVSPost2010Prop31
280
     0
102
RTVSPost2010PropOp31
 70
     1
102
RTVSPost2010Prop32
280
     0
102
RTVSPost2010PropOp32
 70
     1
102
RTVSPost2010Prop33
280
     0
102
RTVSPost2010PropOp33
 70
     1
102
RTVSPost2010Prop34
280
     0
102
RTVSPost2010PropOp34
 70
     1
102
RTVSPost2010Prop35
280
     0
102
RTVSPost2010PropOp35
 70
     1
102
RTVSPost2010Prop36
280
     0
102
RTVSPost2010PropOp36
 70
     1
102
RTVSPost2010Prop37
 90
       50
102
RTVSPost2010PropOp37
 70
     1
102
RTVSPost2010Prop38
140
0.0
102
RTVSPost2010PropOp38
 70
     1
102
RTVSPost2010Prop39
140
1.0
102
RTVSPost2010PropOp39
 70
     1
102
RTVSPost2010Prop40
 90
        0
102
RTVSPost2010PropOp40
 70
     1
102
RTVSPost2010Prop41ColorIndex
 90
       18
102
RTVSPost2010Prop41ColorRGB
 90
        0
102
RTVSPost2010PropOp41
 70
     1
102
RTVSPost2010Prop42
 90
       50
102
RTVSPost2010PropOp42
 70
     1
102
RTVSPost2010Prop43
 90
        3
102
RTVSPost2010PropOp43
 70
     1
102
RTVSPost2010Prop44ColorIndex
 90
        5
102
RTVSPost2010Prop44ColorRGB
 90
      255
102
RTVSPost2010PropOp44
 70
     1
102
RTVSPost2010Prop45
280
     0
102
RTVSPost2010PropOp45
 70
     1
102
RTVSPost2010Prop46
 90
       50
102
RTVSPost2010PropOp46
 70
     1
102
RTVSPost2010Prop47
 90
       50
102
RTVSPost2010PropOp47
 70
     1
102
RTVSPost2010Prop48
 90
       50
102
RTVSPost2010PropOp48
 70
     1
102
RTVSPost2010Prop49
280
     0
102
RTVSPost2010PropOp49
 70
     1
102
RTVSPost2010Prop50
 90
       50
102
RTVSPost2010PropOp50
 70
     1
102
RTVSPost2010Prop51ColorIndex
 90
      256
102
RTVSPost2010Prop51ColorRGB
 90
-16777216
102
RTVSPost2010PropOp51
 70
     0
102
RTVSPost2010Prop52
140
1.0
102
RTVSPost2010PropOp52
 70
     0
102
RTVSPost2010Prop53
 90
        2
102
RTVSPost2010PropOp53
 70
     1
102
RTVSPost2010Prop54
  1
strokes_ogs.tif
102
RTVSPost2010PropOp54
 70
     1
102
RTVSPost2010Prop55
280
     0
102
RTVSPost2010PropOp55
 70
     1
102
RTVSPost2010Prop56
140
1.0
102
RTVSPost2010PropOp56
 70
     1
102
RTVSPost2010Prop57
140
1.0
102
RTVSPost2010PropOp57
 70
     1
102
RTVSPropertyOp0
 70
     1
102
RTVSPropertyOp1
 70
     1
102
RTVSPropertyOp2
 70
     1
102
RTVSPropertyOp3
 70
     1
102
RTVSPropertyOp4
 70
     1
102
RTVSPropertyOp5
 70
     1
102
RTVSPropertyOp6
 70
     1
102
RTVSPropertyOp7
 70
     1
102
RTVSPropertyOp8
 70
     1
102
RTVSPropertyOp9
 70
     1
102
RTVSPropertyOp10
 70
     1
102
RTVSPropertyOp11
 70
     1
102
RTVSPropertyOp12
 70
     1
102
RTVSPropertyOp13
 70
     1
102
RTVSPropertyOp14
 70
     1
102
RTVSPropertyOp15
 70
     1
102
RTVSPropertyOp16
 70
     1
102
RTVSPropertyOp17
 70
     1
102
RTVSPropertyOp18
 70
     1
102
RTVSPropertyOp19
 70
     1
102
RTVSPropertyOp20
 70
     1
102
RTVSPropertyOp21
 70
     1
102
RTVSPropertyOp22
 70
     1
102
RTVSPropertyOp23
 70
     1
102
RTVSPropertyOp24
 70
     1
102
RTVSPropertyOp25
 70
     1
102
RTVSPropertyOp26
 70
     1
102
RTVSPropertyOp27
 70
     1
102
RTVSPropertyOp28
 70
     1
102
RTVSPropertyOp29
 70
     1
102
RTVSPropertyOp30
 70
     1
102
RTVSPropertyOp31
 70
     1
102
RTVSPropertyOp32
 70
     1
102
RTVSPropertyOp33
 70
     1
102
RTVSPropertyOp34
 70
     1
102
RTVSPropertyOp35
 70
     1
102
RTVSPropertyOp36
 70
     1
102
RTVSPropertyOp37
 70
     1
102
RTVSPropertyOp38
 70
     1
102
RTVSPropertyOp39
 70
     1
102
RTVSPropertyOp40
 70
     1
102
RTVSPropertyOp41
 70
     1
102
RTVSPropertyOp42
 70
     1
102
RTVSPropertyOp43
 70
     1
102
RTVSPropertyOp44
 70
     1
102
RTVSPropertyOp45
 70
     1
102
RTVSPropertyOp46
 70
     1
102
RTVSPropertyOp47
 70
     1
102
RTVSPropertyOp48
 70
     1
102
RTVSPropertyOp49
 70
     1
102
RTVSPropertyOp50
 70
     1
102
RTVSPropertyOp51
 70
     0
102
RTVSPropertyOp52
 70
     0
102
RTVSPropertyOp53
 70
     1
102
RTVSPropertyOp54
 70
     1
102
RTVSPropertyOp55
 70
     1
102
RTVSPropertyOp56
 70
     1
102
RTVSPropertyOp57
 70
     1
102
RTVSPropertyOp58
 70
     1
102
RTVSPropertyOp59
 70
     1
102
RTVSPropertyOp60
 70
     1
102
RTVSPropertyOp61
 70
     1
102
RTVSPropertyOp62
 70
     1
  0
XRECORD
  5
505
102
{ACAD_REACTORS
330
504
102
}
330
504
100
AcDbXrecord
280
     1
102
RTVSPost2010Prop28
280
     0
102
RTVSPost2010PropOp28
 70
     1
102
RTVSPost2010Prop29
280
     1
102
RTVSPost2010PropOp29
 70
     1
102
RTVSPost2010Prop30
280
     1
102
RTVSPost2010PropOp30
 70
     1
102
RTVSPost2010Prop31
280
     0
102
RTVSPost2010PropOp31
 70
     1
102
RTVSPost2010Prop32
280
     0
102
RTVSPost2010PropOp32
 70
     1
102
RTVSPost2010Prop33
280
     0
102
RTVSPost2010PropOp33
 70
     1
102
RTVSPost2010Prop34
280
     0
102
RTVSPost2010PropOp34
 70
     1
102
RTVSPost2010Prop35
280
     0
102
RTVSPost2010PropOp35
 70
     1
102
RTVSPost2010Prop36
280
     0
102
RTVSPost2010PropOp36
 70
     1
102
RTVSPost2010Prop37
 90
       50
102
RTVSPost2010PropOp37
 70
     0
102
RTVSPost2010Prop38
140
0.0
102
RTVSPost2010PropOp38
 70
     0
102
RTVSPost2010Prop39
140
1.0
102
RTVSPost2010PropOp39
 70
     0
102
RTVSPost2010Prop40
 90
        0
102
RTVSPost2010PropOp40
 70
     0
102
RTVSPost2010Prop41ColorIndex
 90
       18
102
RTVSPost2010Prop41ColorRGB
 90
        0
102
RTVSPost2010PropOp41
 70
     0
102
RTVSPost2010Prop42
 90
       50
102
RTVSPost2010PropOp42
 70
     0
102
RTVSPost2010Prop43
 90
        3
102
RTVSPost2010PropOp43
 70
     0
102
RTVSPost2010Prop44ColorIndex
 90
        5
102
RTVSPost2010Prop44ColorRGB
 90
      255
102
RTVSPost2010PropOp44
 70
     0
102
RTVSPost2010Prop45
280
     0
102
RTVSPost2010PropOp45
 70
     1
102
RTVSPost2010Prop46
 90
       50
102
RTVSPost2010PropOp46
 70
     0
102
RTVSPost2010Prop47
 90
       50
102
RTVSPost2010PropOp47
 70
     0
102
RTVSPost2010Prop48
 90
       50
102
RTVSPost2010PropOp48
 70
     0
102
RTVSPost2010Prop49
280
     0
102
RTVSPost2010PropOp49
 70
     1
102
RTVSPost2010Prop50
 90
       50
102
RTVSPost2010PropOp50
 70
     0
102
RTVSPost2010Prop51ColorIndex
 90
      256
102
RTVSPost2010Prop51ColorRGB
 90
-16777216
102
RTVSPost2010PropOp51
 70
     0
102
RTVSPost2010Prop52
140
1.0
102
RTVSPost2010PropOp52
 70
     0
102
RTVSPost2010Prop53
 90
        2
102
RTVSPost2010PropOp53
 70
     0
102
RTVSPost2010Prop54
  1
strokes_ogs.tif
102
RTVSPost2010PropOp54
 70
     0
102
RTVSPost2010Prop55
280
     0
102
RTVSPost2010PropOp55
 70
     1
102
RTVSPost2010Prop56
140
1.0
102
RTVSPost2010PropOp56
 70
     0
102
RTVSPost2010Prop57
140
1.0
102
RTVSPost2010PropOp57
 70
     0
102
RTVSPropertyOp0
 70
     0
102
RTVSPropertyOp1
 70
     0
102
RTVSPropertyOp2
 70
     0
102
RTVSPropertyOp3
 70
     0
102
RTVSPropertyOp4
 70
     0
102
RTVSPropertyOp5
 70
     0
102
RTVSPropertyOp6
 70
     0
102
RTVSPropertyOp7
 70
     0
102
RTVSPropertyOp8
 70
     0
102
RTVSPropertyOp9
 70
     0
102
RTVSPropertyOp10
 70
     0
102
RTVSPropertyOp11
 70
     0
102
RTVSPropertyOp12
 70
     0
102
RTVSPropertyOp13
 70
     0
102
RTVSPropertyOp14
 70
     2
102
RTVSPropertyOp15
 70
     0
102
RTVSPropertyOp16
 70
     0
102
RTVSPropertyOp17
 70
     0
102
RTVSPropertyOp18
 70
     0
102
RTVSPropertyOp19
 70
     0
102
RTVSPropertyOp20
 70
     0
102
RTVSPropertyOp21
 70
     0
102
RTVSPropertyOp22
 70
     0
102
RTVSPropertyOp23
 70
     0
102
RTVSPropertyOp24
 70
     0
102
RTVSPropertyOp25
 70
     0
102
RTVSPropertyOp26
 70
     0
102
RTVSPropertyOp27
 70
     0
102
RTVSPropertyOp28
 70
     1
102
RTVSPropertyOp29
 70
     1
102
RTVSPropertyOp30
 70
     1
102
RTVSPropertyOp31
 70
     1
102
RTVSPropertyOp32
 70
     1
102
RTVSPropertyOp33
 70
     1
102
RTVSPropertyOp34
 70
     1
102
RTVSPropertyOp35
 70
     1
102
RTVSPropertyOp36
 70
     1
102
RTVSPropertyOp37
 70
     0
102
RTVSPropertyOp38
 70
     0
102
RTVSPropertyOp39
 70
     0
102
RTVSPropertyOp40
 70
     0
102
RTVSPropertyOp41
 70
     0
102
RTVSPropertyOp42
 70
     0
102
RTVSPropertyOp43
 70
     0
102
RTVSPropertyOp44
 70
     0
102
RTVSPropertyOp45
 70
     1
102
RTVSPropertyOp46
 70
     0
102
RTVSPropertyOp47
 70
     0
102
RTVSPropertyOp48
 70
     0
102
RTVSPropertyOp49
 70
     1
102
RTVSPropertyOp50
 70
     0
102
RTVSPropertyOp51
 70
     0
102
RTVSPropertyOp52
 70
     0
102
RTVSPropertyOp53
 70
     0
102
RTVSPropertyOp54
 70
     0
102
RTVSPropertyOp55
 70
     1
102
RTVSPropertyOp56
 70
     0
102
RTVSPropertyOp57
 70
     0
102
RTVSPropertyOp58
 70
     0
102
RTVSPropertyOp59
 70
     0
102
RTVSPropertyOp60
 70
     0
102
RTVSPropertyOp61
 70
     0
102
RTVSPropertyOp62
 70
     0
  0
XRECORD
  5
4F5
102
{ACAD_REACTORS
330
4F4
102
}
330
4F4
100
AcDbXrecord
280
     1
102
RTVSPost2010Prop28
280
     0
102
RTVSPost2010PropOp28
 70
     1
102
RTVSPost2010Prop29
280
     1
102
RTVSPost2010PropOp29
 70
     1
102
RTVSPost2010Prop30
280
     1
102
RTVSPost2010PropOp30
 70
     1
102
RTVSPost2010Prop31
280
     0
102
RTVSPost2010PropOp31
 70
     1
102
RTVSPost2010Prop32
280
     0
102
RTVSPost2010PropOp32
 70
     1
102
RTVSPost2010Prop33
280
     0
102
RTVSPost2010PropOp33
 70
     1
102
RTVSPost2010Prop34
280
     0
102
RTVSPost2010PropOp34
 70
     1
102
RTVSPost2010Prop35
280
     0
102
RTVSPost2010PropOp35
 70
     1
102
RTVSPost2010Prop36
280
     0
102
RTVSPost2010PropOp36
 70
     1
102
RTVSPost2010Prop37
 90
       50
102
RTVSPost2010PropOp37
 70
     1
102
RTVSPost2010Prop38
140
0.0
102
RTVSPost2010PropOp38
 70
     1
102
RTVSPost2010Prop39
140
1.0
102
RTVSPost2010PropOp39
 70
     1
102
RTVSPost2010Prop40
 90
        0
102
RTVSPost2010PropOp40
 70
     1
102
RTVSPost2010Prop41ColorIndex
 90
       18
102
RTVSPost2010Prop41ColorRGB
 90
        0
102
RTVSPost2010PropOp41
 70
     1
102
RTVSPost2010Prop42
 90
       50
102
RTVSPost2010PropOp42
 70
     1
102
RTVSPost2010Prop43
 90
        3
102
RTVSPost2010PropOp43
 70
     1
102
RTVSPost2010Prop44ColorIndex
 90
        5
102
RTVSPost2010Prop44ColorRGB
 90
      255
102
RTVSPost2010PropOp44
 70
     1
102
RTVSPost2010Prop45
280
     0
102
RTVSPost2010PropOp45
 70
     1
102
RTVSPost2010Prop46
 90
       50
102
RTVSPost2010PropOp46
 70
     1
102
RTVSPost2010Prop47
 90
       50
102
RTVSPost2010PropOp47
 70
     1
102
RTVSPost2010Prop48
 90
       50
102
RTVSPost2010PropOp48
 70
     1
102
RTVSPost2010Prop49
280
     0
102
RTVSPost2010PropOp49
 70
     1
102
RTVSPost2010Prop50
 90
       50
102
RTVSPost2010PropOp50
 70
     1
102
RTVSPost2010Prop51ColorIndex
 90
      256
102
RTVSPost2010Prop51ColorRGB
 90
-16777216
102
RTVSPost2010PropOp51
 70
     0
102
RTVSPost2010Prop52
140
1.0
102
RTVSPost2010PropOp52
 70
     0
102
RTVSPost2010Prop53
 90
        2
102
RTVSPost2010PropOp53
 70
     1
102
RTVSPost2010Prop54
  1
strokes_ogs.tif
102
RTVSPost2010PropOp54
 70
     1
102
RTVSPost2010Prop55
280
     0
102
RTVSPost2010PropOp55
 70
     1
102
RTVSPost2010Prop56
140
1.0
102
RTVSPost2010PropOp56
 70
     1
102
RTVSPost2010Prop57
140
1.0
102
RTVSPost2010PropOp57
 70
     1
102
RTVSPropertyOp0
 70
     1
102
RTVSPropertyOp1
 70
     1
102
RTVSPropertyOp2
 70
     1
102
RTVSPropertyOp3
 70
     1
102
RTVSPropertyOp4
 70
     1
102
RTVSPropertyOp5
 70
     1
102
RTVSPropertyOp6
 70
     1
102
RTVSPropertyOp7
 70
     1
102
RTVSPropertyOp8
 70
     1
102
RTVSPropertyOp9
 70
     1
102
RTVSPropertyOp10
 70
     1
102
RTVSPropertyOp11
 70
     1
102
RTVSPropertyOp12
 70
     1
102
RTVSPropertyOp13
 70
     1
102
RTVSPropertyOp14
 70
     1
102
RTVSPropertyOp15
 70
     1
102
RTVSPropertyOp16
 70
     1
102
RTVSPropertyOp17
 70
     1
102
RTVSPropertyOp18
 70
     1
102
RTVSPropertyOp19
 70
     1
102
RTVSPropertyOp20
 70
     1
102
RTVSPropertyOp21
 70
     1
102
RTVSPropertyOp22
 70
     1
102
RTVSPropertyOp23
 70
     1
102
RTVSPropertyOp24
 70
     1
102
RTVSPropertyOp25
 70
     1
102
RTVSPropertyOp26
 70
     1
102
RTVSPropertyOp27
 70
     1
102
RTVSPropertyOp28
 70
     1
102
RTVSPropertyOp29
 70
     1
102
RTVSPropertyOp30
 70
     1
102
RTVSPropertyOp31
 70
     1
102
RTVSPropertyOp32
 70
     1
102
RTVSPropertyOp33
 70
     1
102
RTVSPropertyOp34
 70
     1
102
RTVSPropertyOp35
 70
     1
102
RTVSPropertyOp36
 70
     1
102
RTVSPropertyOp37
 70
     1
102
RTVSPropertyOp38
 70
     1
102
RTVSPropertyOp39
 70
     1
102
RTVSPropertyOp40
 70
     1
102
RTVSPropertyOp41
 70
     1
102
RTVSPropertyOp42
 70
     1
102
RTVSPropertyOp43
 70
     1
102
RTVSPropertyOp44
 70
     1
102
RTVSPropertyOp45
 70
     1
102
RTVSPropertyOp46
 70
     1
102
RTVSPropertyOp47
 70
     1
102
RTVSPropertyOp48
 70
     1
102
RTVSPropertyOp49
 70
     1
102
RTVSPropertyOp50
 70
     1
102
RTVSPropertyOp51
 70
     0
102
RTVSPropertyOp52
 70
     0
102
RTVSPropertyOp53
 70
     1
102
RTVSPropertyOp54
 70
     1
102
RTVSPropertyOp55
 70
     1
102
RTVSPropertyOp56
 70
     1
102
RTVSPropertyOp57
 70
     1
102
RTVSPropertyOp58
 70
     1
102
RTVSPropertyOp59
 70
     1
102
RTVSPropertyOp60
 70
     1
102
RTVSPropertyOp61
 70
     1
102
RTVSPropertyOp62
 70
     1
  0
XRECORD
  5
507
102
{ACAD_REACTORS
330
506
102
}
330
506
100
AcDbXrecord
280
     1
102
RTVSPost2010Prop28
280
     0
102
RTVSPost2010PropOp28
 70
     1
102
RTVSPost2010Prop29
280
     1
102
RTVSPost2010PropOp29
 70
     1
102
RTVSPost2010Prop30
280
     1
102
RTVSPost2010PropOp30
 70
     1
102
RTVSPost2010Prop31
280
     0
102
RTVSPost2010PropOp31
 70
     1
102
RTVSPost2010Prop32
280
     0
102
RTVSPost2010PropOp32
 70
     1
102
RTVSPost2010Prop33
280
     0
102
RTVSPost2010PropOp33
 70
     1
102
RTVSPost2010Prop34
280
     0
102
RTVSPost2010PropOp34
 70
     1
102
RTVSPost2010Prop35
280
     0
102
RTVSPost2010PropOp35
 70
     1
102
RTVSPost2010Prop36
280
     0
102
RTVSPost2010PropOp36
 70
     1
102
RTVSPost2010Prop37
 90
       50
102
RTVSPost2010PropOp37
 70
     0
102
RTVSPost2010Prop38
140
0.0
102
RTVSPost2010PropOp38
 70
     0
102
RTVSPost2010Prop39
140
1.0
102
RTVSPost2010PropOp39
 70
     0
102
RTVSPost2010Prop40
 90
        0
102
RTVSPost2010PropOp40
 70
     0
102
RTVSPost2010Prop41ColorIndex
 90
       18
102
RTVSPost2010Prop41ColorRGB
 90
        0
102
RTVSPost2010PropOp41
 70
     0
102
RTVSPost2010Prop42
 90
       50
102
RTVSPost2010PropOp42
 70
     0
102
RTVSPost2010Prop43
 90
        3
102
RTVSPost2010PropOp43
 70
     0
102
RTVSPost2010Prop44ColorIndex
 90
        5
102
RTVSPost2010Prop44ColorRGB
 90
      255
102
RTVSPost2010PropOp44
 70
     0
102
RTVSPost2010Prop45
280
     0
102
RTVSPost2010PropOp45
 70
     1
102
RTVSPost2010Prop46
 90
       50
102
RTVSPost2010PropOp46
 70
     0
102
RTVSPost2010Prop47
 90
       50
102
RTVSPost2010PropOp47
 70
     0
102
RTVSPost2010Prop48
 90
       50
102
RTVSPost2010PropOp48
 70
     0
102
RTVSPost2010Prop49
280
     0
102
RTVSPost2010PropOp49
 70
     1
102
RTVSPost2010Prop50
 90
       50
102
RTVSPost2010PropOp50
 70
     0
102
RTVSPost2010Prop51ColorIndex
 90
      256
102
RTVSPost2010Prop51ColorRGB
 90
-16777216
102
RTVSPost2010PropOp51
 70
     0
102
RTVSPost2010Prop52
140
1.0
102
RTVSPost2010PropOp52
 70
     0
102
RTVSPost2010Prop53
 90
        2
102
RTVSPost2010PropOp53
 70
     0
102
RTVSPost2010Prop54
  1
strokes_ogs.tif
102
RTVSPost2010PropOp54
 70
     0
102
RTVSPost2010Prop55
280
     0
102
RTVSPost2010PropOp55
 70
     1
102
RTVSPost2010Prop56
140
1.0
102
RTVSPost2010PropOp56
 70
     0
102
RTVSPost2010Prop57
140
1.0
102
RTVSPost2010PropOp57
 70
     0
102
RTVSPropertyOp0
 70
     0
102
RTVSPropertyOp1
 70
     0
102
RTVSPropertyOp2
 70
     0
102
RTVSPropertyOp3
 70
     0
102
RTVSPropertyOp4
 70
     0
102
RTVSPropertyOp5
 70
     0
102
RTVSPropertyOp6
 70
     0
102
RTVSPropertyOp7
 70
     0
102
RTVSPropertyOp8
 70
     0
102
RTVSPropertyOp9
 70
     0
102
RTVSPropertyOp10
 70
     0
102
RTVSPropertyOp11
 70
     0
102
RTVSPropertyOp12
 70
     0
102
RTVSPropertyOp13
 70
     0
102
RTVSPropertyOp14
 70
     2
102
RTVSPropertyOp15
 70
     0
102
RTVSPropertyOp16
 70
     0
102
RTVSPropertyOp17
 70
     0
102
RTVSPropertyOp18
 70
     0
102
RTVSPropertyOp19
 70
     0
102
RTVSPropertyOp20
 70
     0
102
RTVSPropertyOp21
 70
     0
102
RTVSPropertyOp22
 70
     0
102
RTVSPropertyOp23
 70
     0
102
RTVSPropertyOp24
 70
     0
102
RTVSPropertyOp25
 70
     0
102
RTVSPropertyOp26
 70
     0
102
RTVSPropertyOp27
 70
     0
102
RTVSPropertyOp28
 70
     1
102
RTVSPropertyOp29
 70
     1
102
RTVSPropertyOp30
 70
     1
102
RTVSPropertyOp31
 70
     1
102
RTVSPropertyOp32
 70
     1
102
RTVSPropertyOp33
 70
     1
102
RTVSPropertyOp34
 70
     1
102
RTVSPropertyOp35
 70
     1
102
RTVSPropertyOp36
 70
     1
102
RTVSPropertyOp37
 70
     0
102
RTVSPropertyOp38
 70
     0
102
RTVSPropertyOp39
 70
     0
102
RTVSPropertyOp40
 70
     0
102
RTVSPropertyOp41
 70
     0
102
RTVSPropertyOp42
 70
     0
102
RTVSPropertyOp43
 70
     0
102
RTVSPropertyOp44
 70
     0
102
RTVSPropertyOp45
 70
     1
102
RTVSPropertyOp46
 70
     0
102
RTVSPropertyOp47
 70
     0
102
RTVSPropertyOp48
 70
     0
102
RTVSPropertyOp49
 70
     1
102
RTVSPropertyOp50
 70
     0
102
RTVSPropertyOp51
 70
     0
102
RTVSPropertyOp52
 70
     0
102
RTVSPropertyOp53
 70
     0
102
RTVSPropertyOp54
 70
     0
102
RTVSPropertyOp55
 70
     1
102
RTVSPropertyOp56
 70
     0
102
RTVSPropertyOp57
 70
     0
102
RTVSPropertyOp58
 70
     0
102
RTVSPropertyOp59
 70
     0
102
RTVSPropertyOp60
 70
     0
102
RTVSPropertyOp61
 70
     0
102
RTVSPropertyOp62
 70
     0
  0
XRECORD
  5
4ED
102
{ACAD_REACTORS
330
4EC
102
}
330
4EC
100
AcDbXrecord
280
     1
102
RTVSPost2010Prop28
280
     0
102
RTVSPost2010PropOp28
 70
     1
102
RTVSPost2010Prop29
280
     1
102
RTVSPost2010PropOp29
 70
     1
102
RTVSPost2010Prop30
280
     1
102
RTVSPost2010PropOp30
 70
     1
102
RTVSPost2010Prop31
280
     0
102
RTVSPost2010PropOp31
 70
     1
102
RTVSPost2010Prop32
280
     0
102
RTVSPost2010PropOp32
 70
     1
102
RTVSPost2010Prop33
280
     0
102
RTVSPost2010PropOp33
 70
     1
102
RTVSPost2010Prop34
280
     0
102
RTVSPost2010PropOp34
 70
     1
102
RTVSPost2010Prop35
280
     0
102
RTVSPost2010PropOp35
 70
     1
102
RTVSPost2010Prop36
280
     0
102
RTVSPost2010PropOp36
 70
     1
102
RTVSPost2010Prop37
 90
       50
102
RTVSPost2010PropOp37
 70
     1
102
RTVSPost2010Prop38
140
0.0
102
RTVSPost2010PropOp38
 70
     1
102
RTVSPost2010Prop39
140
1.0
102
RTVSPost2010PropOp39
 70
     1
102
RTVSPost2010Prop40
 90
        0
102
RTVSPost2010PropOp40
 70
     1
102
RTVSPost2010Prop41ColorIndex
 90
       18
102
RTVSPost2010Prop41ColorRGB
 90
        0
102
RTVSPost2010PropOp41
 70
     1
102
RTVSPost2010Prop42
 90
       50
102
RTVSPost2010PropOp42
 70
     1
102
RTVSPost2010Prop43
 90
        3
102
RTVSPost2010PropOp43
 70
     1
102
RTVSPost2010Prop44ColorIndex
 90
        5
102
RTVSPost2010Prop44ColorRGB
 90
      255
102
RTVSPost2010PropOp44
 70
     1
102
RTVSPost2010Prop45
280
     0
102
RTVSPost2010PropOp45
 70
     1
102
RTVSPost2010Prop46
 90
       50
102
RTVSPost2010PropOp46
 70
     1
102
RTVSPost2010Prop47
 90
       50
102
RTVSPost2010PropOp47
 70
     1
102
RTVSPost2010Prop48
 90
       50
102
RTVSPost2010PropOp48
 70
     1
102
RTVSPost2010Prop49
280
     0
102
RTVSPost2010PropOp49
 70
     1
102
RTVSPost2010Prop50
 90
       50
102
RTVSPost2010PropOp50
 70
     1
102
RTVSPost2010Prop51ColorIndex
 90
      256
102
RTVSPost2010Prop51ColorRGB
 90
-16777216
102
RTVSPost2010PropOp51
 70
     0
102
RTVSPost2010Prop52
140
1.0
102
RTVSPost2010PropOp52
 70
     0
102
RTVSPost2010Prop53
 90
        2
102
RTVSPost2010PropOp53
 70
     1
102
RTVSPost2010Prop54
  1
strokes_ogs.tif
102
RTVSPost2010PropOp54
 70
     1
102
RTVSPost2010Prop55
280
     0
102
RTVSPost2010PropOp55
 70
     1
102
RTVSPost2010Prop56
140
1.0
102
RTVSPost2010PropOp56
 70
     1
102
RTVSPost2010Prop57
140
1.0
102
RTVSPost2010PropOp57
 70
     1
102
RTVSPropertyOp0
 70
     1
102
RTVSPropertyOp1
 70
     1
102
RTVSPropertyOp2
 70
     1
102
RTVSPropertyOp3
 70
     1
102
RTVSPropertyOp4
 70
     1
102
RTVSPropertyOp5
 70
     1
102
RTVSPropertyOp6
 70
     1
102
RTVSPropertyOp7
 70
     1
102
RTVSPropertyOp8
 70
     1
102
RTVSPropertyOp9
 70
     1
102
RTVSPropertyOp10
 70
     1
102
RTVSPropertyOp11
 70
     1
102
RTVSPropertyOp12
 70
     1
102
RTVSPropertyOp13
 70
     1
102
RTVSPropertyOp14
 70
     1
102
RTVSPropertyOp15
 70
     1
102
RTVSPropertyOp16
 70
     1
102
RTVSPropertyOp17
 70
     1
102
RTVSPropertyOp18
 70
     1
102
RTVSPropertyOp19
 70
     1
102
RTVSPropertyOp20
 70
     1
102
RTVSPropertyOp21
 70
     1
102
RTVSPropertyOp22
 70
     1
102
RTVSPropertyOp23
 70
     1
102
RTVSPropertyOp24
 70
     1
102
RTVSPropertyOp25
 70
     1
102
RTVSPropertyOp26
 70
     1
102
RTVSPropertyOp27
 70
     1
102
RTVSPropertyOp28
 70
     1
102
RTVSPropertyOp29
 70
     1
102
RTVSPropertyOp30
 70
     1
102
RTVSPropertyOp31
 70
     1
102
RTVSPropertyOp32
 70
     1
102
RTVSPropertyOp33
 70
     1
102
RTVSPropertyOp34
 70
     1
102
RTVSPropertyOp35
 70
     1
102
RTVSPropertyOp36
 70
     1
102
RTVSPropertyOp37
 70
     1
102
RTVSPropertyOp38
 70
     1
102
RTVSPropertyOp39
 70
     1
102
RTVSPropertyOp40
 70
     1
102
RTVSPropertyOp41
 70
     1
102
RTVSPropertyOp42
 70
     1
102
RTVSPropertyOp43
 70
     1
102
RTVSPropertyOp44
 70
     1
102
RTVSPropertyOp45
 70
     1
102
RTVSPropertyOp46
 70
     1
102
RTVSPropertyOp47
 70
     1
102
RTVSPropertyOp48
 70
     1
102
RTVSPropertyOp49
 70
     1
102
RTVSPropertyOp50
 70
     1
102
RTVSPropertyOp51
 70
     0
102
RTVSPropertyOp52
 70
     0
102
RTVSPropertyOp53
 70
     1
102
RTVSPropertyOp54
 70
     1
102
RTVSPropertyOp55
 70
     1
102
RTVSPropertyOp56
 70
     1
102
RTVSPropertyOp57
 70
     1
102
RTVSPropertyOp58
 70
     1
102
RTVSPropertyOp59
 70
     1
102
RTVSPropertyOp60
 70
     1
102
RTVSPropertyOp61
 70
     1
102
RTVSPropertyOp62
 70
     1
  0
XRECORD
  5
503
102
{ACAD_REACTORS
330
502
102
}
330
502
100
AcDbXrecord
280
     1
102
RTVSPost2010Prop28
280
     0
102
RTVSPost2010PropOp28
 70
     1
102
RTVSPost2010Prop29
280
     1
102
RTVSPost2010PropOp29
 70
     1
102
RTVSPost2010Prop30
280
     1
102
RTVSPost2010PropOp30
 70
     1
102
RTVSPost2010Prop31
280
     0
102
RTVSPost2010PropOp31
 70
     1
102
RTVSPost2010Prop32
280
     0
102
RTVSPost2010PropOp32
 70
     1
102
RTVSPost2010Prop33
280
     0
102
RTVSPost2010PropOp33
 70
     1
102
RTVSPost2010Prop34
280
     0
102
RTVSPost2010PropOp34
 70
     1
102
RTVSPost2010Prop35
280
     0
102
RTVSPost2010PropOp35
 70
     1
102
RTVSPost2010Prop36
280
     0
102
RTVSPost2010PropOp36
 70
     1
102
RTVSPost2010Prop37
 90
       50
102
RTVSPost2010PropOp37
 70
     1
102
RTVSPost2010Prop38
140
0.0
102
RTVSPost2010PropOp38
 70
     1
102
RTVSPost2010Prop39
140
1.0
102
RTVSPost2010PropOp39
 70
     1
102
RTVSPost2010Prop40
 90
        0
102
RTVSPost2010PropOp40
 70
     1
102
RTVSPost2010Prop41ColorIndex
 90
       18
102
RTVSPost2010Prop41ColorRGB
 90
        0
102
RTVSPost2010PropOp41
 70
     1
102
RTVSPost2010Prop42
 90
       50
102
RTVSPost2010PropOp42
 70
     1
102
RTVSPost2010Prop43
 90
        3
102
RTVSPost2010PropOp43
 70
     1
102
RTVSPost2010Prop44ColorIndex
 90
        5
102
RTVSPost2010Prop44ColorRGB
 90
      255
102
RTVSPost2010PropOp44
 70
     1
102
RTVSPost2010Prop45
280
     0
102
RTVSPost2010PropOp45
 70
     1
102
RTVSPost2010Prop46
 90
       50
102
RTVSPost2010PropOp46
 70
     1
102
RTVSPost2010Prop47
 90
       50
102
RTVSPost2010PropOp47
 70
     1
102
RTVSPost2010Prop48
 90
       50
102
RTVSPost2010PropOp48
 70
     1
102
RTVSPost2010Prop49
280
     0
102
RTVSPost2010PropOp49
 70
     1
102
RTVSPost2010Prop50
 90
       50
102
RTVSPost2010PropOp50
 70
     1
102
RTVSPost2010Prop51ColorIndex
 90
      256
102
RTVSPost2010Prop51ColorRGB
 90
-16777216
102
RTVSPost2010PropOp51
 70
     0
102
RTVSPost2010Prop52
140
1.0
102
RTVSPost2010PropOp52
 70
     0
102
RTVSPost2010Prop53
 90
        2
102
RTVSPost2010PropOp53
 70
     1
102
RTVSPost2010Prop54
  1
strokes_ogs.tif
102
RTVSPost2010PropOp54
 70
     1
102
RTVSPost2010Prop55
280
     0
102
RTVSPost2010PropOp55
 70
     1
102
RTVSPost2010Prop56
140
1.0
102
RTVSPost2010PropOp56
 70
     1
102
RTVSPost2010Prop57
140
1.0
102
RTVSPost2010PropOp57
 70
     1
102
RTVSPropertyOp0
 70
     1
102
RTVSPropertyOp1
 70
     1
102
RTVSPropertyOp2
 70
     1
102
RTVSPropertyOp3
 70
     1
102
RTVSPropertyOp4
 70
     1
102
RTVSPropertyOp5
 70
     1
102
RTVSPropertyOp6
 70
     1
102
RTVSPropertyOp7
 70
     1
102
RTVSPropertyOp8
 70
     1
102
RTVSPropertyOp9
 70
     1
102
RTVSPropertyOp10
 70
     1
102
RTVSPropertyOp11
 70
     1
102
RTVSPropertyOp12
 70
     1
102
RTVSPropertyOp13
 70
     1
102
RTVSPropertyOp14
 70
     1
102
RTVSPropertyOp15
 70
     1
102
RTVSPropertyOp16
 70
     1
102
RTVSPropertyOp17
 70
     1
102
RTVSPropertyOp18
 70
     1
102
RTVSPropertyOp19
 70
     1
102
RTVSPropertyOp20
 70
     1
102
RTVSPropertyOp21
 70
     1
102
RTVSPropertyOp22
 70
     1
102
RTVSPropertyOp23
 70
     1
102
RTVSPropertyOp24
 70
     1
102
RTVSPropertyOp25
 70
     1
102
RTVSPropertyOp26
 70
     1
102
RTVSPropertyOp27
 70
     1
102
RTVSPropertyOp28
 70
     1
102
RTVSPropertyOp29
 70
     1
102
RTVSPropertyOp30
 70
     1
102
RTVSPropertyOp31
 70
     1
102
RTVSPropertyOp32
 70
     1
102
RTVSPropertyOp33
 70
     1
102
RTVSPropertyOp34
 70
     1
102
RTVSPropertyOp35
 70
     1
102
RTVSPropertyOp36
 70
     1
102
RTVSPropertyOp37
 70
     1
102
RTVSPropertyOp38
 70
     1
102
RTVSPropertyOp39
 70
     1
102
RTVSPropertyOp40
 70
     1
102
RTVSPropertyOp41
 70
     1
102
RTVSPropertyOp42
 70
     1
102
RTVSPropertyOp43
 70
     1
102
RTVSPropertyOp44
 70
     1
102
RTVSPropertyOp45
 70
     1
102
RTVSPropertyOp46
 70
     1
102
RTVSPropertyOp47
 70
     1
102
RTVSPropertyOp48
 70
     1
102
RTVSPropertyOp49
 70
     1
102
RTVSPropertyOp50
 70
     1
102
RTVSPropertyOp51
 70
     0
102
RTVSPropertyOp52
 70
     0
102
RTVSPropertyOp53
 70
     1
102
RTVSPropertyOp54
 70
     1
102
RTVSPropertyOp55
 70
     1
102
RTVSPropertyOp56
 70
     1
102
RTVSPropertyOp57
 70
     1
102
RTVSPropertyOp58
 70
     1
102
RTVSPropertyOp59
 70
     1
102
RTVSPropertyOp60
 70
     1
102
RTVSPropertyOp61
 70
     1
102
RTVSPropertyOp62
 70
     1
  0
XRECORD
  5
501
102
{ACAD_REACTORS
330
500
102
}
330
500
100
AcDbXrecord
280
     1
102
RTVSPost2010Prop28
280
     0
102
RTVSPost2010PropOp28
 70
     1
102
RTVSPost2010Prop29
280
     1
102
RTVSPost2010PropOp29
 70
     1
102
RTVSPost2010Prop30
280
     1
102
RTVSPost2010PropOp30
 70
     1
102
RTVSPost2010Prop31
280
     0
102
RTVSPost2010PropOp31
 70
     1
102
RTVSPost2010Prop32
280
     0
102
RTVSPost2010PropOp32
 70
     1
102
RTVSPost2010Prop33
280
     0
102
RTVSPost2010PropOp33
 70
     1
102
RTVSPost2010Prop34
280
     0
102
RTVSPost2010PropOp34
 70
     1
102
RTVSPost2010Prop35
280
     0
102
RTVSPost2010PropOp35
 70
     1
102
RTVSPost2010Prop36
280
     0
102
RTVSPost2010PropOp36
 70
     1
102
RTVSPost2010Prop37
 90
       50
102
RTVSPost2010PropOp37
 70
     1
102
RTVSPost2010Prop38
140
0.0
102
RTVSPost2010PropOp38
 70
     1
102
RTVSPost2010Prop39
140
1.0
102
RTVSPost2010PropOp39
 70
     1
102
RTVSPost2010Prop40
 90
        0
102
RTVSPost2010PropOp40
 70
     1
102
RTVSPost2010Prop41ColorIndex
 90
       18
102
RTVSPost2010Prop41ColorRGB
 90
        0
102
RTVSPost2010PropOp41
 70
     1
102
RTVSPost2010Prop42
 90
       50
102
RTVSPost2010PropOp42
 70
     1
102
RTVSPost2010Prop43
 90
        3
102
RTVSPost2010PropOp43
 70
     1
102
RTVSPost2010Prop44ColorIndex
 90
        5
102
RTVSPost2010Prop44ColorRGB
 90
      255
102
RTVSPost2010PropOp44
 70
     1
102
RTVSPost2010Prop45
280
     0
102
RTVSPost2010PropOp45
 70
     1
102
RTVSPost2010Prop46
 90
       50
102
RTVSPost2010PropOp46
 70
     1
102
RTVSPost2010Prop47
 90
       50
102
RTVSPost2010PropOp47
 70
     1
102
RTVSPost2010Prop48
 90
       50
102
RTVSPost2010PropOp48
 70
     1
102
RTVSPost2010Prop49
280
     0
102
RTVSPost2010PropOp49
 70
     1
102
RTVSPost2010Prop50
 90
       50
102
RTVSPost2010PropOp50
 70
     1
102
RTVSPost2010Prop51ColorIndex
 90
      256
102
RTVSPost2010Prop51ColorRGB
 90
-16777216
102
RTVSPost2010PropOp51
 70
     0
102
RTVSPost2010Prop52
140
1.0
102
RTVSPost2010PropOp52
 70
     0
102
RTVSPost2010Prop53
 90
        2
102
RTVSPost2010PropOp53
 70
     1
102
RTVSPost2010Prop54
  1
strokes_ogs.tif
102
RTVSPost2010PropOp54
 70
     1
102
RTVSPost2010Prop55
280
     0
102
RTVSPost2010PropOp55
 70
     1
102
RTVSPost2010Prop56
140
1.0
102
RTVSPost2010PropOp56
 70
     1
102
RTVSPost2010Prop57
140
1.0
102
RTVSPost2010PropOp57
 70
     1
102
RTVSPropertyOp0
 70
     1
102
RTVSPropertyOp1
 70
     1
102
RTVSPropertyOp2
 70
     1
102
RTVSPropertyOp3
 70
     1
102
RTVSPropertyOp4
 70
     1
102
RTVSPropertyOp5
 70
     1
102
RTVSPropertyOp6
 70
     1
102
RTVSPropertyOp7
 70
     1
102
RTVSPropertyOp8
 70
     1
102
RTVSPropertyOp9
 70
     1
102
RTVSPropertyOp10
 70
     1
102
RTVSPropertyOp11
 70
     1
102
RTVSPropertyOp12
 70
     1
102
RTVSPropertyOp13
 70
     1
102
RTVSPropertyOp14
 70
     1
102
RTVSPropertyOp15
 70
     1
102
RTVSPropertyOp16
 70
     1
102
RTVSPropertyOp17
 70
     1
102
RTVSPropertyOp18
 70
     1
102
RTVSPropertyOp19
 70
     1
102
RTVSPropertyOp20
 70
     1
102
RTVSPropertyOp21
 70
     1
102
RTVSPropertyOp22
 70
     1
102
RTVSPropertyOp23
 70
     1
102
RTVSPropertyOp24
 70
     1
102
RTVSPropertyOp25
 70
     1
102
RTVSPropertyOp26
 70
     1
102
RTVSPropertyOp27
 70
     1
102
RTVSPropertyOp28
 70
     1
102
RTVSPropertyOp29
 70
     1
102
RTVSPropertyOp30
 70
     1
102
RTVSPropertyOp31
 70
     1
102
RTVSPropertyOp32
 70
     1
102
RTVSPropertyOp33
 70
     1
102
RTVSPropertyOp34
 70
     1
102
RTVSPropertyOp35
 70
     1
102
RTVSPropertyOp36
 70
     1
102
RTVSPropertyOp37
 70
     1
102
RTVSPropertyOp38
 70
     1
102
RTVSPropertyOp39
 70
     1
102
RTVSPropertyOp40
 70
     1
102
RTVSPropertyOp41
 70
     1
102
RTVSPropertyOp42
 70
     1
102
RTVSPropertyOp43
 70
     1
102
RTVSPropertyOp44
 70
     1
102
RTVSPropertyOp45
 70
     1
102
RTVSPropertyOp46
 70
     1
102
RTVSPropertyOp47
 70
     1
102
RTVSPropertyOp48
 70
     1
102
RTVSPropertyOp49
 70
     1
102
RTVSPropertyOp50
 70
     1
102
RTVSPropertyOp51
 70
     0
102
RTVSPropertyOp52
 70
     0
102
RTVSPropertyOp53
 70
     1
102
RTVSPropertyOp54
 70
     1
102
RTVSPropertyOp55
 70
     1
102
RTVSPropertyOp56
 70
     1
102
RTVSPropertyOp57
 70
     1
102
RTVSPropertyOp58
 70
     1
102
RTVSPropertyOp59
 70
     1
102
RTVSPropertyOp60
 70
     1
102
RTVSPropertyOp61
 70
     1
102
RTVSPropertyOp62
 70
     1
  0
XRECORD
  5
4FB
102
{ACAD_REACTORS
330
4FA
102
}
330
4FA
100
AcDbXrecord
280
     1
102
RTVSPost2010Prop28
280
     0
102
RTVSPost2010PropOp28
 70
     1
102
RTVSPost2010Prop29
280
     1
102
RTVSPost2010PropOp29
 70
     1
102
RTVSPost2010Prop30
280
     1
102
RTVSPost2010PropOp30
 70
     1
102
RTVSPost2010Prop31
280
     0
102
RTVSPost2010PropOp31
 70
     1
102
RTVSPost2010Prop32
280
     0
102
RTVSPost2010PropOp32
 70
     1
102
RTVSPost2010Prop33
280
     0
102
RTVSPost2010PropOp33
 70
     1
102
RTVSPost2010Prop34
280
     0
102
RTVSPost2010PropOp34
 70
     1
102
RTVSPost2010Prop35
280
     0
102
RTVSPost2010PropOp35
 70
     1
102
RTVSPost2010Prop36
280
     0
102
RTVSPost2010PropOp36
 70
     1
102
RTVSPost2010Prop37
 90
       50
102
RTVSPost2010PropOp37
 70
     1
102
RTVSPost2010Prop38
140
0.0
102
RTVSPost2010PropOp38
 70
     1
102
RTVSPost2010Prop39
140
1.0
102
RTVSPost2010PropOp39
 70
     1
102
RTVSPost2010Prop40
 90
        0
102
RTVSPost2010PropOp40
 70
     1
102
RTVSPost2010Prop41ColorIndex
 90
       18
102
RTVSPost2010Prop41ColorRGB
 90
        0
102
RTVSPost2010PropOp41
 70
     1
102
RTVSPost2010Prop42
 90
       50
102
RTVSPost2010PropOp42
 70
     1
102
RTVSPost2010Prop43
 90
        3
102
RTVSPost2010PropOp43
 70
     1
102
RTVSPost2010Prop44ColorIndex
 90
        5
102
RTVSPost2010Prop44ColorRGB
 90
      255
102
RTVSPost2010PropOp44
 70
     1
102
RTVSPost2010Prop45
280
     0
102
RTVSPost2010PropOp45
 70
     1
102
RTVSPost2010Prop46
 90
       50
102
RTVSPost2010PropOp46
 70
     1
102
RTVSPost2010Prop47
 90
       50
102
RTVSPost2010PropOp47
 70
     1
102
RTVSPost2010Prop48
 90
       50
102
RTVSPost2010PropOp48
 70
     1
102
RTVSPost2010Prop49
280
     0
102
RTVSPost2010PropOp49
 70
     1
102
RTVSPost2010Prop50
 90
       50
102
RTVSPost2010PropOp50
 70
     1
102
RTVSPost2010Prop51ColorIndex
 90
      256
102
RTVSPost2010Prop51ColorRGB
 90
-16777216
102
RTVSPost2010PropOp51
 70
     0
102
RTVSPost2010Prop52
140
1.0
102
RTVSPost2010PropOp52
 70
     0
102
RTVSPost2010Prop53
 90
        2
102
RTVSPost2010PropOp53
 70
     1
102
RTVSPost2010Prop54
  1
strokes_ogs.tif
102
RTVSPost2010PropOp54
 70
     1
102
RTVSPost2010Prop55
280
     0
102
RTVSPost2010PropOp55
 70
     1
102
RTVSPost2010Prop56
140
1.0
102
RTVSPost2010PropOp56
 70
     1
102
RTVSPost2010Prop57
140
1.0
102
RTVSPost2010PropOp57
 70
     1
102
RTVSPropertyOp0
 70
     1
102
RTVSPropertyOp1
 70
     1
102
RTVSPropertyOp2
 70
     1
102
RTVSPropertyOp3
 70
     1
102
RTVSPropertyOp4
 70
     1
102
RTVSPropertyOp5
 70
     1
102
RTVSPropertyOp6
 70
     1
102
RTVSPropertyOp7
 70
     1
102
RTVSPropertyOp8
 70
     1
102
RTVSPropertyOp9
 70
     1
102
RTVSPropertyOp10
 70
     1
102
RTVSPropertyOp11
 70
     1
102
RTVSPropertyOp12
 70
     1
102
RTVSPropertyOp13
 70
     1
102
RTVSPropertyOp14
 70
     1
102
RTVSPropertyOp15
 70
     1
102
RTVSPropertyOp16
 70
     1
102
RTVSPropertyOp17
 70
     1
102
RTVSPropertyOp18
 70
     1
102
RTVSPropertyOp19
 70
     1
102
RTVSPropertyOp20
 70
     1
102
RTVSPropertyOp21
 70
     1
102
RTVSPropertyOp22
 70
     1
102
RTVSPropertyOp23
 70
     1
102
RTVSPropertyOp24
 70
     1
102
RTVSPropertyOp25
 70
     1
102
RTVSPropertyOp26
 70
     1
102
RTVSPropertyOp27
 70
     1
102
RTVSPropertyOp28
 70
     1
102
RTVSPropertyOp29
 70
     1
102
RTVSPropertyOp30
 70
     1
102
RTVSPropertyOp31
 70
     1
102
RTVSPropertyOp32
 70
     1
102
RTVSPropertyOp33
 70
     1
102
RTVSPropertyOp34
 70
     1
102
RTVSPropertyOp35
 70
     1
102
RTVSPropertyOp36
 70
     1
102
RTVSPropertyOp37
 70
     1
102
RTVSPropertyOp38
 70
     1
102
RTVSPropertyOp39
 70
     1
102
RTVSPropertyOp40
 70
     1
102
RTVSPropertyOp41
 70
     1
102
RTVSPropertyOp42
 70
     1
102
RTVSPropertyOp43
 70
     1
102
RTVSPropertyOp44
 70
     1
102
RTVSPropertyOp45
 70
     1
102
RTVSPropertyOp46
 70
     1
102
RTVSPropertyOp47
 70
     1
102
RTVSPropertyOp48
 70
     1
102
RTVSPropertyOp49
 70
     1
102
RTVSPropertyOp50
 70
     1
102
RTVSPropertyOp51
 70
     0
102
RTVSPropertyOp52
 70
     0
102
RTVSPropertyOp53
 70
     1
102
RTVSPropertyOp54
 70
     1
102
RTVSPropertyOp55
 70
     1
102
RTVSPropertyOp56
 70
     1
102
RTVSPropertyOp57
 70
     1
102
RTVSPropertyOp58
 70
     1
102
RTVSPropertyOp59
 70
     1
102
RTVSPropertyOp60
 70
     1
102
RTVSPropertyOp61
 70
     1
102
RTVSPropertyOp62
 70
     1
  0
XRECORD
  5
4FD
102
{ACAD_REACTORS
330
4FC
102
}
330
4FC
100
AcDbXrecord
280
     1
102
RTVSPost2010Prop28
280
     0
102
RTVSPost2010PropOp28
 70
     1
102
RTVSPost2010Prop29
280
     1
102
RTVSPost2010PropOp29
 70
     1
102
RTVSPost2010Prop30
280
     1
102
RTVSPost2010PropOp30
 70
     1
102
RTVSPost2010Prop31
280
     0
102
RTVSPost2010PropOp31
 70
     1
102
RTVSPost2010Prop32
280
     0
102
RTVSPost2010PropOp32
 70
     1
102
RTVSPost2010Prop33
280
     0
102
RTVSPost2010PropOp33
 70
     1
102
RTVSPost2010Prop34
280
     0
102
RTVSPost2010PropOp34
 70
     1
102
RTVSPost2010Prop35
280
     0
102
RTVSPost2010PropOp35
 70
     1
102
RTVSPost2010Prop36
280
     0
102
RTVSPost2010PropOp36
 70
     1
102
RTVSPost2010Prop37
 90
       50
102
RTVSPost2010PropOp37
 70
     1
102
RTVSPost2010Prop38
140
0.0
102
RTVSPost2010PropOp38
 70
     1
102
RTVSPost2010Prop39
140
1.0
102
RTVSPost2010PropOp39
 70
     1
102
RTVSPost2010Prop40
 90
        0
102
RTVSPost2010PropOp40
 70
     1
102
RTVSPost2010Prop41ColorIndex
 90
       18
102
RTVSPost2010Prop41ColorRGB
 90
        0
102
RTVSPost2010PropOp41
 70
     1
102
RTVSPost2010Prop42
 90
       50
102
RTVSPost2010PropOp42
 70
     1
102
RTVSPost2010Prop43
 90
        3
102
RTVSPost2010PropOp43
 70
     1
102
RTVSPost2010Prop44ColorIndex
 90
        5
102
RTVSPost2010Prop44ColorRGB
 90
      255
102
RTVSPost2010PropOp44
 70
     1
102
RTVSPost2010Prop45
280
     0
102
RTVSPost2010PropOp45
 70
     1
102
RTVSPost2010Prop46
 90
       50
102
RTVSPost2010PropOp46
 70
     1
102
RTVSPost2010Prop47
 90
       50
102
RTVSPost2010PropOp47
 70
     1
102
RTVSPost2010Prop48
 90
       50
102
RTVSPost2010PropOp48
 70
     1
102
RTVSPost2010Prop49
280
     0
102
RTVSPost2010PropOp49
 70
     1
102
RTVSPost2010Prop50
 90
       50
102
RTVSPost2010PropOp50
 70
     1
102
RTVSPost2010Prop51ColorIndex
 90
      256
102
RTVSPost2010Prop51ColorRGB
 90
-16777216
102
RTVSPost2010PropOp51
 70
     0
102
RTVSPost2010Prop52
140
1.0
102
RTVSPost2010PropOp52
 70
     0
102
RTVSPost2010Prop53
 90
        2
102
RTVSPost2010PropOp53
 70
     1
102
RTVSPost2010Prop54
  1
strokes_ogs.tif
102
RTVSPost2010PropOp54
 70
     1
102
RTVSPost2010Prop55
280
     0
102
RTVSPost2010PropOp55
 70
     1
102
RTVSPost2010Prop56
140
1.0
102
RTVSPost2010PropOp56
 70
     1
102
RTVSPost2010Prop57
140
1.0
102
RTVSPost2010PropOp57
 70
     1
102
RTVSPropertyOp0
 70
     1
102
RTVSPropertyOp1
 70
     1
102
RTVSPropertyOp2
 70
     1
102
RTVSPropertyOp3
 70
     1
102
RTVSPropertyOp4
 70
     1
102
RTVSPropertyOp5
 70
     1
102
RTVSPropertyOp6
 70
     1
102
RTVSPropertyOp7
 70
     1
102
RTVSPropertyOp8
 70
     1
102
RTVSPropertyOp9
 70
     1
102
RTVSPropertyOp10
 70
     1
102
RTVSPropertyOp11
 70
     1
102
RTVSPropertyOp12
 70
     1
102
RTVSPropertyOp13
 70
     1
102
RTVSPropertyOp14
 70
     1
102
RTVSPropertyOp15
 70
     1
102
RTVSPropertyOp16
 70
     1
102
RTVSPropertyOp17
 70
     1
102
RTVSPropertyOp18
 70
     1
102
RTVSPropertyOp19
 70
     1
102
RTVSPropertyOp20
 70
     1
102
RTVSPropertyOp21
 70
     1
102
RTVSPropertyOp22
 70
     1
102
RTVSPropertyOp23
 70
     1
102
RTVSPropertyOp24
 70
     1
102
RTVSPropertyOp25
 70
     1
102
RTVSPropertyOp26
 70
     1
102
RTVSPropertyOp27
 70
     1
102
RTVSPropertyOp28
 70
     1
102
RTVSPropertyOp29
 70
     1
102
RTVSPropertyOp30
 70
     1
102
RTVSPropertyOp31
 70
     1
102
RTVSPropertyOp32
 70
     1
102
RTVSPropertyOp33
 70
     1
102
RTVSPropertyOp34
 70
     1
102
RTVSPropertyOp35
 70
     1
102
RTVSPropertyOp36
 70
     1
102
RTVSPropertyOp37
 70
     1
102
RTVSPropertyOp38
 70
     1
102
RTVSPropertyOp39
 70
     1
102
RTVSPropertyOp40
 70
     1
102
RTVSPropertyOp41
 70
     1
102
RTVSPropertyOp42
 70
     1
102
RTVSPropertyOp43
 70
     1
102
RTVSPropertyOp44
 70
     1
102
RTVSPropertyOp45
 70
     1
102
RTVSPropertyOp46
 70
     1
102
RTVSPropertyOp47
 70
     1
102
RTVSPropertyOp48
 70
     1
102
RTVSPropertyOp49
 70
     1
102
RTVSPropertyOp50
 70
     1
102
RTVSPropertyOp51
 70
     0
102
RTVSPropertyOp52
 70
     0
102
RTVSPropertyOp53
 70
     1
102
RTVSPropertyOp54
 70
     1
102
RTVSPropertyOp55
 70
     1
102
RTVSPropertyOp56
 70
     1
102
RTVSPropertyOp57
 70
     1
102
RTVSPropertyOp58
 70
     1
102
RTVSPropertyOp59
 70
     1
102
RTVSPropertyOp60
 70
     1
102
RTVSPropertyOp61
 70
     1
102
RTVSPropertyOp62
 70
     1
  0
XRECORD
  5
4F3
102
{ACAD_REACTORS
330
4F2
102
}
330
4F2
100
AcDbXrecord
280
     1
102
RTVSPost2010Prop28
280
     0
102
RTVSPost2010PropOp28
 70
     1
102
RTVSPost2010Prop29
280
     1
102
RTVSPost2010PropOp29
 70
     1
102
RTVSPost2010Prop30
280
     1
102
RTVSPost2010PropOp30
 70
     1
102
RTVSPost2010Prop31
280
     0
102
RTVSPost2010PropOp31
 70
     1
102
RTVSPost2010Prop32
280
     0
102
RTVSPost2010PropOp32
 70
     1
102
RTVSPost2010Prop33
280
     0
102
RTVSPost2010PropOp33
 70
     1
102
RTVSPost2010Prop34
280
     0
102
RTVSPost2010PropOp34
 70
     1
102
RTVSPost2010Prop35
280
     0
102
RTVSPost2010PropOp35
 70
     1
102
RTVSPost2010Prop36
280
     0
102
RTVSPost2010PropOp36
 70
     1
102
RTVSPost2010Prop37
 90
       50
102
RTVSPost2010PropOp37
 70
     1
102
RTVSPost2010Prop38
140
0.0
102
RTVSPost2010PropOp38
 70
     1
102
RTVSPost2010Prop39
140
1.0
102
RTVSPost2010PropOp39
 70
     1
102
RTVSPost2010Prop40
 90
        0
102
RTVSPost2010PropOp40
 70
     1
102
RTVSPost2010Prop41ColorIndex
 90
       18
102
RTVSPost2010Prop41ColorRGB
 90
        0
102
RTVSPost2010PropOp41
 70
     1
102
RTVSPost2010Prop42
 90
       50
102
RTVSPost2010PropOp42
 70
     1
102
RTVSPost2010Prop43
 90
        3
102
RTVSPost2010PropOp43
 70
     1
102
RTVSPost2010Prop44ColorIndex
 90
        5
102
RTVSPost2010Prop44ColorRGB
 90
      255
102
RTVSPost2010PropOp44
 70
     1
102
RTVSPost2010Prop45
280
     0
102
RTVSPost2010PropOp45
 70
     1
102
RTVSPost2010Prop46
 90
       50
102
RTVSPost2010PropOp46
 70
     1
102
RTVSPost2010Prop47
 90
       50
102
RTVSPost2010PropOp47
 70
     1
102
RTVSPost2010Prop48
 90
       50
102
RTVSPost2010PropOp48
 70
     1
102
RTVSPost2010Prop49
280
     0
102
RTVSPost2010PropOp49
 70
     1
102
RTVSPost2010Prop50
 90
       50
102
RTVSPost2010PropOp50
 70
     1
102
RTVSPost2010Prop51ColorIndex
 90
      256
102
RTVSPost2010Prop51ColorRGB
 90
-16777216
102
RTVSPost2010PropOp51
 70
     0
102
RTVSPost2010Prop52
140
1.0
102
RTVSPost2010PropOp52
 70
     0
102
RTVSPost2010Prop53
 90
        2
102
RTVSPost2010PropOp53
 70
     1
102
RTVSPost2010Prop54
  1
strokes_ogs.tif
102
RTVSPost2010PropOp54
 70
     1
102
RTVSPost2010Prop55
280
     0
102
RTVSPost2010PropOp55
 70
     1
102
RTVSPost2010Prop56
140
1.0
102
RTVSPost2010PropOp56
 70
     1
102
RTVSPost2010Prop57
140
1.0
102
RTVSPost2010PropOp57
 70
     1
102
RTVSPropertyOp0
 70
     1
102
RTVSPropertyOp1
 70
     1
102
RTVSPropertyOp2
 70
     1
102
RTVSPropertyOp3
 70
     1
102
RTVSPropertyOp4
 70
     1
102
RTVSPropertyOp5
 70
     1
102
RTVSPropertyOp6
 70
     1
102
RTVSPropertyOp7
 70
     1
102
RTVSPropertyOp8
 70
     1
102
RTVSPropertyOp9
 70
     1
102
RTVSPropertyOp10
 70
     1
102
RTVSPropertyOp11
 70
     1
102
RTVSPropertyOp12
 70
     1
102
RTVSPropertyOp13
 70
     1
102
RTVSPropertyOp14
 70
     1
102
RTVSPropertyOp15
 70
     1
102
RTVSPropertyOp16
 70
     1
102
RTVSPropertyOp17
 70
     1
102
RTVSPropertyOp18
 70
     1
102
RTVSPropertyOp19
 70
     1
102
RTVSPropertyOp20
 70
     1
102
RTVSPropertyOp21
 70
     1
102
RTVSPropertyOp22
 70
     1
102
RTVSPropertyOp23
 70
     1
102
RTVSPropertyOp24
 70
     1
102
RTVSPropertyOp25
 70
     1
102
RTVSPropertyOp26
 70
     1
102
RTVSPropertyOp27
 70
     1
102
RTVSPropertyOp28
 70
     1
102
RTVSPropertyOp29
 70
     1
102
RTVSPropertyOp30
 70
     1
102
RTVSPropertyOp31
 70
     1
102
RTVSPropertyOp32
 70
     1
102
RTVSPropertyOp33
 70
     1
102
RTVSPropertyOp34
 70
     1
102
RTVSPropertyOp35
 70
     1
102
RTVSPropertyOp36
 70
     1
102
RTVSPropertyOp37
 70
     1
102
RTVSPropertyOp38
 70
     1
102
RTVSPropertyOp39
 70
     1
102
RTVSPropertyOp40
 70
     1
102
RTVSPropertyOp41
 70
     1
102
RTVSPropertyOp42
 70
     1
102
RTVSPropertyOp43
 70
     1
102
RTVSPropertyOp44
 70
     1
102
RTVSPropertyOp45
 70
     1
102
RTVSPropertyOp46
 70
     1
102
RTVSPropertyOp47
 70
     1
102
RTVSPropertyOp48
 70
     1
102
RTVSPropertyOp49
 70
     1
102
RTVSPropertyOp50
 70
     1
102
RTVSPropertyOp51
 70
     0
102
RTVSPropertyOp52
 70
     0
102
RTVSPropertyOp53
 70
     1
102
RTVSPropertyOp54
 70
     1
102
RTVSPropertyOp55
 70
     1
102
RTVSPropertyOp56
 70
     1
102
RTVSPropertyOp57
 70
     1
102
RTVSPropertyOp58
 70
     1
102
RTVSPropertyOp59
 70
     1
102
RTVSPropertyOp60
 70
     1
102
RTVSPropertyOp61
 70
     1
102
RTVSPropertyOp62
 70
     1
  0
XRECORD
  5
4E7
102
{ACAD_REACTORS
330
4E6
102
}
330
4E6
100
AcDbXrecord
280
     1
102
RTVSPost2010Prop28
280
     0
102
RTVSPost2010PropOp28
 70
     1
102
RTVSPost2010Prop29
280
     1
102
RTVSPost2010PropOp29
 70
     1
102
RTVSPost2010Prop30
280
     1
102
RTVSPost2010PropOp30
 70
     1
102
RTVSPost2010Prop31
280
     0
102
RTVSPost2010PropOp31
 70
     1
102
RTVSPost2010Prop32
280
     0
102
RTVSPost2010PropOp32
 70
     1
102
RTVSPost2010Prop33
280
     0
102
RTVSPost2010PropOp33
 70
     1
102
RTVSPost2010Prop34
280
     0
102
RTVSPost2010PropOp34
 70
     1
102
RTVSPost2010Prop35
280
     0
102
RTVSPost2010PropOp35
 70
     1
102
RTVSPost2010Prop36
280
     0
102
RTVSPost2010PropOp36
 70
     1
102
RTVSPost2010Prop37
 90
       50
102
RTVSPost2010PropOp37
 70
     1
102
RTVSPost2010Prop38
140
0.0
102
RTVSPost2010PropOp38
 70
     1
102
RTVSPost2010Prop39
140
1.0
102
RTVSPost2010PropOp39
 70
     1
102
RTVSPost2010Prop40
 90
        0
102
RTVSPost2010PropOp40
 70
     1
102
RTVSPost2010Prop41ColorIndex
 90
       18
102
RTVSPost2010Prop41ColorRGB
 90
        0
102
RTVSPost2010PropOp41
 70
     1
102
RTVSPost2010Prop42
 90
       50
102
RTVSPost2010PropOp42
 70
     1
102
RTVSPost2010Prop43
 90
        3
102
RTVSPost2010PropOp43
 70
     1
102
RTVSPost2010Prop44ColorIndex
 90
        5
102
RTVSPost2010Prop44ColorRGB
 90
      255
102
RTVSPost2010PropOp44
 70
     1
102
RTVSPost2010Prop45
280
     0
102
RTVSPost2010PropOp45
 70
     1
102
RTVSPost2010Prop46
 90
       50
102
RTVSPost2010PropOp46
 70
     1
102
RTVSPost2010Prop47
 90
       50
102
RTVSPost2010PropOp47
 70
     1
102
RTVSPost2010Prop48
 90
       50
102
RTVSPost2010PropOp48
 70
     1
102
RTVSPost2010Prop49
280
     0
102
RTVSPost2010PropOp49
 70
     1
102
RTVSPost2010Prop50
 90
       50
102
RTVSPost2010PropOp50
 70
     1
102
RTVSPost2010Prop51ColorIndex
 90
      256
102
RTVSPost2010Prop51ColorRGB
 90
-16777216
102
RTVSPost2010PropOp51
 70
     0
102
RTVSPost2010Prop52
140
1.0
102
RTVSPost2010PropOp52
 70
     0
102
RTVSPost2010Prop53
 90
        2
102
RTVSPost2010PropOp53
 70
     1
102
RTVSPost2010Prop54
  1
strokes_ogs.tif
102
RTVSPost2010PropOp54
 70
     1
102
RTVSPost2010Prop55
280
     0
102
RTVSPost2010PropOp55
 70
     1
102
RTVSPost2010Prop56
140
1.0
102
RTVSPost2010PropOp56
 70
     1
102
RTVSPost2010Prop57
140
1.0
102
RTVSPost2010PropOp57
 70
     1
102
RTVSPropertyOp0
 70
     1
102
RTVSPropertyOp1
 70
     1
102
RTVSPropertyOp2
 70
     1
102
RTVSPropertyOp3
 70
     1
102
RTVSPropertyOp4
 70
     1
102
RTVSPropertyOp5
 70
     1
102
RTVSPropertyOp6
 70
     1
102
RTVSPropertyOp7
 70
     1
102
RTVSPropertyOp8
 70
     1
102
RTVSPropertyOp9
 70
     1
102
RTVSPropertyOp10
 70
     1
102
RTVSPropertyOp11
 70
     1
102
RTVSPropertyOp12
 70
     1
102
RTVSPropertyOp13
 70
     1
102
RTVSPropertyOp14
 70
     1
102
RTVSPropertyOp15
 70
     1
102
RTVSPropertyOp16
 70
     1
102
RTVSPropertyOp17
 70
     1
102
RTVSPropertyOp18
 70
     1
102
RTVSPropertyOp19
 70
     1
102
RTVSPropertyOp20
 70
     1
102
RTVSPropertyOp21
 70
     1
102
RTVSPropertyOp22
 70
     1
102
RTVSPropertyOp23
 70
     1
102
RTVSPropertyOp24
 70
     1
102
RTVSPropertyOp25
 70
     1
102
RTVSPropertyOp26
 70
     1
102
RTVSPropertyOp27
 70
     1
102
RTVSPropertyOp28
 70
     1
102
RTVSPropertyOp29
 70
     1
102
RTVSPropertyOp30
 70
     1
102
RTVSPropertyOp31
 70
     1
102
RTVSPropertyOp32
 70
     1
102
RTVSPropertyOp33
 70
     1
102
RTVSPropertyOp34
 70
     1
102
RTVSPropertyOp35
 70
     1
102
RTVSPropertyOp36
 70
     1
102
RTVSPropertyOp37
 70
     1
102
RTVSPropertyOp38
 70
     1
102
RTVSPropertyOp39
 70
     1
102
RTVSPropertyOp40
 70
     1
102
RTVSPropertyOp41
 70
     1
102
RTVSPropertyOp42
 70
     1
102
RTVSPropertyOp43
 70
     1
102
RTVSPropertyOp44
 70
     1
102
RTVSPropertyOp45
 70
     1
102
RTVSPropertyOp46
 70
     1
102
RTVSPropertyOp47
 70
     1
102
RTVSPropertyOp48
 70
     1
102
RTVSPropertyOp49
 70
     1
102
RTVSPropertyOp50
 70
     1
102
RTVSPropertyOp51
 70
     0
102
RTVSPropertyOp52
 70
     0
102
RTVSPropertyOp53
 70
     1
102
RTVSPropertyOp54
 70
     1
102
RTVSPropertyOp55
 70
     1
102
RTVSPropertyOp56
 70
     1
102
RTVSPropertyOp57
 70
     1
102
RTVSPropertyOp58
 70
     1
102
RTVSPropertyOp59
 70
     1
102
RTVSPropertyOp60
 70
     1
102
RTVSPropertyOp61
 70
     1
102
RTVSPropertyOp62
 70
     1
  0
XRECORD
  5
4FF
102
{ACAD_REACTORS
330
4FE
102
}
330
4FE
100
AcDbXrecord
280
     1
102
RTVSPost2010Prop28
280
     0
102
RTVSPost2010PropOp28
 70
     1
102
RTVSPost2010Prop29
280
     1
102
RTVSPost2010PropOp29
 70
     1
102
RTVSPost2010Prop30
280
     1
102
RTVSPost2010PropOp30
 70
     1
102
RTVSPost2010Prop31
280
     0
102
RTVSPost2010PropOp31
 70
     1
102
RTVSPost2010Prop32
280
     0
102
RTVSPost2010PropOp32
 70
     1
102
RTVSPost2010Prop33
280
     0
102
RTVSPost2010PropOp33
 70
     1
102
RTVSPost2010Prop34
280
     0
102
RTVSPost2010PropOp34
 70
     1
102
RTVSPost2010Prop35
280
     0
102
RTVSPost2010PropOp35
 70
     1
102
RTVSPost2010Prop36
280
     0
102
RTVSPost2010PropOp36
 70
     1
102
RTVSPost2010Prop37
 90
       50
102
RTVSPost2010PropOp37
 70
     1
102
RTVSPost2010Prop38
140
0.0
102
RTVSPost2010PropOp38
 70
     1
102
RTVSPost2010Prop39
140
1.0
102
RTVSPost2010PropOp39
 70
     1
102
RTVSPost2010Prop40
 90
        0
102
RTVSPost2010PropOp40
 70
     1
102
RTVSPost2010Prop41ColorIndex
 90
       18
102
RTVSPost2010Prop41ColorRGB
 90
        0
102
RTVSPost2010PropOp41
 70
     1
102
RTVSPost2010Prop42
 90
       50
102
RTVSPost2010PropOp42
 70
     1
102
RTVSPost2010Prop43
 90
        3
102
RTVSPost2010PropOp43
 70
     1
102
RTVSPost2010Prop44ColorIndex
 90
        5
102
RTVSPost2010Prop44ColorRGB
 90
      255
102
RTVSPost2010PropOp44
 70
     1
102
RTVSPost2010Prop45
280
     0
102
RTVSPost2010PropOp45
 70
     1
102
RTVSPost2010Prop46
 90
       50
102
RTVSPost2010PropOp46
 70
     1
102
RTVSPost2010Prop47
 90
       50
102
RTVSPost2010PropOp47
 70
     1
102
RTVSPost2010Prop48
 90
       50
102
RTVSPost2010PropOp48
 70
     1
102
RTVSPost2010Prop49
280
     0
102
RTVSPost2010PropOp49
 70
     1
102
RTVSPost2010Prop50
 90
       50
102
RTVSPost2010PropOp50
 70
     1
102
RTVSPost2010Prop51ColorIndex
 90
      256
102
RTVSPost2010Prop51ColorRGB
 90
-16777216
102
RTVSPost2010PropOp51
 70
     0
102
RTVSPost2010Prop52
140
1.0
102
RTVSPost2010PropOp52
 70
     0
102
RTVSPost2010Prop53
 90
        2
102
RTVSPost2010PropOp53
 70
     1
102
RTVSPost2010Prop54
  1
strokes_ogs.tif
102
RTVSPost2010PropOp54
 70
     1
102
RTVSPost2010Prop55
280
     0
102
RTVSPost2010PropOp55
 70
     1
102
RTVSPost2010Prop56
140
1.0
102
RTVSPost2010PropOp56
 70
     1
102
RTVSPost2010Prop57
140
1.0
102
RTVSPost2010PropOp57
 70
     1
102
RTVSPropertyOp0
 70
     1
102
RTVSPropertyOp1
 70
     1
102
RTVSPropertyOp2
 70
     1
102
RTVSPropertyOp3
 70
     1
102
RTVSPropertyOp4
 70
     1
102
RTVSPropertyOp5
 70
     1
102
RTVSPropertyOp6
 70
     1
102
RTVSPropertyOp7
 70
     1
102
RTVSPropertyOp8
 70
     1
102
RTVSPropertyOp9
 70
     1
102
RTVSPropertyOp10
 70
     1
102
RTVSPropertyOp11
 70
     1
102
RTVSPropertyOp12
 70
     1
102
RTVSPropertyOp13
 70
     1
102
RTVSPropertyOp14
 70
     1
102
RTVSPropertyOp15
 70
     1
102
RTVSPropertyOp16
 70
     1
102
RTVSPropertyOp17
 70
     1
102
RTVSPropertyOp18
 70
     1
102
RTVSPropertyOp19
 70
     1
102
RTVSPropertyOp20
 70
     1
102
RTVSPropertyOp21
 70
     1
102
RTVSPropertyOp22
 70
     1
102
RTVSPropertyOp23
 70
     1
102
RTVSPropertyOp24
 70
     1
102
RTVSPropertyOp25
 70
     1
102
RTVSPropertyOp26
 70
     1
102
RTVSPropertyOp27
 70
     1
102
RTVSPropertyOp28
 70
     1
102
RTVSPropertyOp29
 70
     1
102
RTVSPropertyOp30
 70
     1
102
RTVSPropertyOp31
 70
     1
102
RTVSPropertyOp32
 70
     1
102
RTVSPropertyOp33
 70
     1
102
RTVSPropertyOp34
 70
     1
102
RTVSPropertyOp35
 70
     1
102
RTVSPropertyOp36
 70
     1
102
RTVSPropertyOp37
 70
     1
102
RTVSPropertyOp38
 70
     1
102
RTVSPropertyOp39
 70
     1
102
RTVSPropertyOp40
 70
     1
102
RTVSPropertyOp41
 70
     1
102
RTVSPropertyOp42
 70
     1
102
RTVSPropertyOp43
 70
     1
102
RTVSPropertyOp44
 70
     1
102
RTVSPropertyOp45
 70
     1
102
RTVSPropertyOp46
 70
     1
102
RTVSPropertyOp47
 70
     1
102
RTVSPropertyOp48
 70
     1
102
RTVSPropertyOp49
 70
     1
102
RTVSPropertyOp50
 70
     1
102
RTVSPropertyOp51
 70
     0
102
RTVSPropertyOp52
 70
     0
102
RTVSPropertyOp53
 70
     1
102
RTVSPropertyOp54
 70
     1
102
RTVSPropertyOp55
 70
     1
102
RTVSPropertyOp56
 70
     1
102
RTVSPropertyOp57
 70
     1
102
RTVSPropertyOp58
 70
     1
102
RTVSPropertyOp59
 70
     1
102
RTVSPropertyOp60
 70
     1
102
RTVSPropertyOp61
 70
     1
102
RTVSPropertyOp62
 70
     1
  0
ENDSEC
  0
EOF
