  0
SECTION
  2
HEADER
  9
$ACADVER
  1
AC1015
  9
$ACADMAINTVER
 70
    20
  9
$DWGCODEPAGE
  3
ANSI_932
  9
$INSBASE
 10
0.0
 20
0.0
 30
0.0
  9
$EXTMIN
 10
9.999999064246615
 20
9.999999806846744
 30
0.0
  9
$EXTMAX
 10
284.0653469949184
 20
220.3071992724175
 30
0.0
  9
$LIMMIN
 10
0.0000015376081137
 20
-0.0000001931532552
  9
$LIMMAX
 10
396.0000015376081
 20
272.9999998068465
  9
$ORTHOMODE
 70
     0
  9
$REGENMODE
 70
     1
  9
$FILLMODE
 70
     1
  9
$QTEXTMODE
 70
     0
  9
$MIRRTEXT
 70
     1
  9
$LTSCALE
 40
1.0
  9
$ATTMODE
 70
     1
  9
$TEXTSIZE
 40
2.5
  9
$TRACEWID
 40
1.0
  9
$TEXTSTYLE
  7
STANDARD
  9
$CLAYER
  8
0
  9
$CELTYPE
  6
ByLayer
  9
$CECOLOR
 62
   256
  9
$CELTSCALE
 40
1.0
  9
$DISPSILH
 70
     0
  9
$DIMSCALE
 40
1.0
  9
$DIMASZ
 40
3.0
  9
$DIMEXO
 40
1.0
  9
$DIMDLI
 40
10.0
  9
$DIMRND
 40
0.0
  9
$DIMDLE
 40
0.0
  9
$DIMEXE
 40
1.0
  9
$DIMTP
 40
0.0
  9
$DIMTM
 40
0.0
  9
$DIMTXT
 40
3.2
  9
$DIMCEN
 40
0.0
  9
$DIMTSZ
 40
0.0
  9
$DIMTOL
 70
     0
  9
$DIMLIM
 70
     0
  9
$DIMTIH
 70
     0
  9
$DIMTOH
 70
     0
  9
$DIMSE1
 70
     0
  9
$DIMSE2
 70
     0
  9
$DIMTAD
 70
     3
  9
$DIMZIN
 70
     8
  9
$DIMBLK
  1

  9
$DIMASO
 70
     1
  9
$DIMSHO
 70
     1
  9
$DIMPOST
  1

  9
$DIMAPOST
  1

  9
$DIMALT
 70
     0
  9
$DIMALTD
 70
     2
  9
$DIMALTF
 40
25.4
  9
$DIMLFAC
 40
1.0
  9
$DIMTOFL
 70
     1
  9
$DIMTVP
 40
0.0
  9
$DIMTIX
 70
     0
  9
$DIMSOXD
 70
     0
  9
$DIMSAH
 70
     1
  9
$DIMBLK1
  1
OPEN
  9
$DIMBLK2
  1
OPEN
  9
$DIMSTYLE
  2
STANDARD
  9
$DIMCLRD
 70
     0
  9
$DIMCLRE
 70
     0
  9
$DIMCLRT
 70
     0
  9
$DIMTFAC
 40
1.0
  9
$DIMGAP
 40
1.0
  9
$DIMJUST
 70
     0
  9
$DIMSD1
 70
     0
  9
$DIMSD2
 70
     0
  9
$DIMTOLJ
 70
     1
  9
$DIMTZIN
 70
     0
  9
$DIMALTZ
 70
     0
  9
$DIMALTTZ
 70
     0
  9
$DIMUPT
 70
     0
  9
$DIMDEC
 70
     4
  9
$DIMTDEC
 70
     4
  9
$DIMALTU
 70
     2
  9
$DIMALTTD
 70
     2
  9
$DIMTXSTY
  7
STANDARD
  9
$DIMAUNIT
 70
     0
  9
$DIMADEC
 70
     0
  9
$DIMALTRND
 40
0.0
  9
$DIMAZIN
 70
     0
  9
$DIMDSEP
 70
    46
  9
$DIMATFIT
 70
     3
  9
$DIMFRAC
 70
     0
  9
$DIMLDRBLK
  1
OPEN
  9
$DIMLUNIT
 70
     2
  9
$DIMLWD
 70
    -2
  9
$DIMLWE
 70
    -2
  9
$DIMTMOVE
 70
     0
  9
$LUNITS
 70
     2
  9
$LUPREC
 70
     4
  9
$SKETCHINC
 40
1.0
  9
$FILLETRAD
 40
10.0
  9
$AUNITS
 70
     0
  9
$AUPREC
 70
     0
  9
$MENU
  1
.
  9
$ELEVATION
 40
0.0
  9
$PELEVATION
 40
0.0
  9
$THICKNESS
 40
0.0
  9
$LIMCHECK
 70
     0
  9
$CHAMFERA
 40
10.0
  9
$CHAMFERB
 40
10.0
  9
$CHAMFERC
 40
0.0
  9
$CHAMFERD
 40
0.0
  9
$SKPOLY
 70
     0
  9
$TDCREATE
 40
2456276.612696157
  9
$TDUCREATE
 40
2456276.237696158
  9
$TDUPDATE
 40
2457192.616830741
  9
$TDUUPDATE
 40
2457192.241830741
  9
$TDINDWG
 40
0.0015847685
  9
$TDUSRTIMER
 40
0.0015847454
  9
$USRTIMER
 70
     1
  9
$ANGBASE
 50
0.0
  9
$ANGDIR
 70
     0
  9
$PDMODE
 70
     0
  9
$PDSIZE
 40
0.0
  9
$PLINEWID
 40
0.0
  9
$SPLFRAME
 70
     0
  9
$SPLINETYPE
 70
     6
  9
$SPLINESEGS
 70
     8
  9
$HANDSEED
  5
516
  9
$SURFTAB1
 70
     6
  9
$SURFTAB2
 70
     6
  9
$SURFTYPE
 70
     6
  9
$SURFU
 70
     6
  9
$SURFV
 70
     6
  9
$UCSBASE
  2

  9
$UCSNAME
  2

  9
$UCSORG
 10
0.0
 20
0.0
 30
0.0
  9
$UCSXDIR
 10
1.0
 20
0.0
 30
0.0
  9
$UCSYDIR
 10
0.0
 20
1.0
 30
0.0
  9
$UCSORTHOREF
  2

  9
$UCSORTHOVIEW
 70
     0
  9
$UCSORGTOP
 10
0.0
 20
0.0
 30
0.0
  9
$UCSORGBOTTOM
 10
0.0
 20
0.0
 30
0.0
  9
$UCSORGLEFT
 10
0.0
 20
0.0
 30
0.0
  9
$UCSORGRIGHT
 10
0.0
 20
0.0
 30
0.0
  9
$UCSORGFRONT
 10
0.0
 20
0.0
 30
0.0
  9
$UCSORGBACK
 10
0.0
 20
0.0
 30
0.0
  9
$PUCSBASE
  2

  9
$PUCSNAME
  2

  9
$PUCSORG
 10
0.0
 20
0.0
 30
0.0
  9
$PUCSXDIR
 10
1.0
 20
0.0
 30
0.0
  9
$PUCSYDIR
 10
0.0
 20
1.0
 30
0.0
  9
$PUCSORTHOREF
  2

  9
$PUCSORTHOVIEW
 70
     0
  9
$PUCSORGTOP
 10
0.0
 20
0.0
 30
0.0
  9
$PUCSORGBOTTOM
 10
0.0
 20
0.0
 30
0.0
  9
$PUCSORGLEFT
 10
0.0
 20
0.0
 30
0.0
  9
$PUCSORGRIGHT
 10
0.0
 20
0.0
 30
0.0
  9
$PUCSORGFRONT
 10
0.0
 20
0.0
 30
0.0
  9
$PUCSORGBACK
 10
0.0
 20
0.0
 30
0.0
  9
$USERI1
 70
     0
  9
$USERI2
 70
     0
  9
$USERI3
 70
     0
  9
$USERI4
 70
     0
  9
$USERI5
 70
     0
  9
$USERR1
 40
0.0
  9
$USERR2
 40
0.0
  9
$USERR3
 40
0.0
  9
$USERR4
 40
0.0
  9
$USERR5
 40
0.0
  9
$WORLDVIEW
 70
     1
  9
$SHADEDGE
 70
     3
  9
$SHADEDIF
 70
    70
  9
$TILEMODE
 70
     1
  9
$MAXACTVP
 70
    48
  9
$PINSBASE
 10
0.0
 20
0.0
 30
0.0
  9
$PLIMCHECK
 70
     0
  9
$PEXTMIN
 10
1.000000000000000E+20
 20
1.000000000000000E+20
 30
1.000000000000000E+20
  9
$PEXTMAX
 10
-1.000000000000000E+20
 20
-1.000000000000000E+20
 30
-1.000000000000000E+20
  9
$PLIMMIN
 10
0.0
 20
0.0
  9
$PLIMMAX
 10
420.0
 20
297.0
  9
$UNITMODE
 70
     0
  9
$VISRETAIN
 70
     1
  9
$PLINEGEN
 70
     0
  9
$PSLTSCALE
 70
     1
  9
$TREEDEPTH
 70
  3020
  9
$CMLSTYLE
  2
Standard
  9
$CMLJUST
 70
     0
  9
$CMLSCALE
 40
1.0
  9
$PROXYGRAPHICS
 70
     1
  9
$MEASUREMENT
 70
     0
  9
$CELWEIGHT
370
    -1
  9
$ENDCAPS
280
     0
  9
$JOINSTYLE
280
     0
  9
$LWDISPLAY
290
     0
  9
$INSUNITS
 70
     0
  9
$HYPERLINKBASE
  1

  9
$STYLESHEET
  1

  9
$XEDIT
290
     1
  9
$CEPSNTYPE
380
     0
  9
$PSTYLEMODE
290
     1
  9
$FINGERPRINTGUID
  2
{955590E6-DCF6-43E3-B128-AD58820B9628}
  9
$VERSIONGUID
  2
{F42180C9-70CD-44E3-B2F1-7FF054863E53}
  9
$EXTNAMES
290
     1
  9
$PSVPSCALE
 40
0.0
  9
$OLESTARTUP
290
     0
  0
ENDSEC
  0
SECTION
  2
CLASSES
  0
CLASS
  1
ACDBDICTIONARYWDFLT
  2
AcDbDictionaryWithDefault
  3
ObjectDBX Classes
 90
        0
280
     0
281
     0
  0
CLASS
  1
MATERIAL
  2
AcDbMaterial
  3
ObjectDBX Classes
 90
     1153
280
     0
281
     0
  0
CLASS
  1
VISUALSTYLE
  2
AcDbVisualStyle
  3
ObjectDBX Classes
 90
     4095
280
     0
281
     0
  0
CLASS
  1
SCALE
  2
AcDbScale
  3
ObjectDBX Classes
 90
     1153
280
     0
281
     0
  0
CLASS
  1
TABLESTYLE
  2
AcDbTableStyle
  3
ObjectDBX Classes
 90
     4095
280
     0
281
     0
  0
CLASS
  1
MLEADERSTYLE
  2
AcDbMLeaderStyle
  3
ACDB_MLEADERSTYLE_CLASS
 90
     4095
280
     0
281
     0
  0
CLASS
  1
ACDBSECTIONVIEWSTYLE
  2
AcDbSectionViewStyle
  3
ObjectDBX Classes
 90
     1025
280
     0
281
     0
  0
CLASS
  1
ACDBDETAILVIEWSTYLE
  2
AcDbDetailViewStyle
  3
ObjectDBX Classes
 90
     1025
280
     0
281
     0
  0
CLASS
  1
DICTIONARYVAR
  2
AcDbDictionaryVar
  3
ObjectDBX Classes
 90
        0
280
     0
281
     0
  0
CLASS
  1
CELLSTYLEMAP
  2
AcDbCellStyleMap
  3
ObjectDBX Classes
 90
     1152
280
     0
281
     0
  0
CLASS
  1
ACDBPLACEHOLDER
  2
AcDbPlaceHolder
  3
ObjectDBX Classes
 90
        0
280
     0
281
     0
  0
CLASS
  1
LAYOUT
  2
AcDbLayout
  3
ObjectDBX Classes
 90
        0
280
     0
281
     0
  0
ENDSEC
  0
SECTION
  2
TABLES
  0
TABLE
  2
VPORT
  5
439
330
0
100
AcDbSymbolTable
 70
     1
  0
VPORT
  5
4A4
330
439
100
AcDbSymbolTableRecord
100
AcDbViewportTableRecord
  2
*ACTIVE
 70
     0
 10
0.0
 20
0.0
 11
1.0
 21
1.0
 12
234.1476613384667
 22
115.1510471705505
 13
0.0
 23
0.0
 14
10.0
 24
10.0
 15
10.0
 25
10.0
 16
0.0
 26
0.0
 36
1.0
 17
0.0
 27
0.0
 37
0.0
 40
211.9512909336822
 41
1.899603698811096
 42
50.0
 43
0.0
 44
0.0
 50
0.0
 51
0.0
 71
     0
 72
   100
 73
     1
 74
     0
 75
     0
 76
     0
 77
     0
 78
     0
281
     0
 65
     1
110
0.0
120
0.0
130
0.0
111
1.0
121
0.0
131
0.0
112
0.0
122
1.0
132
0.0
 79
     0
146
0.0
1001
ACAD_NAV_VCDISPLAY
1070
     3
  0
ENDTAB
  0
TABLE
  2
LTYPE
  5
436
330
0
100
AcDbSymbolTable
 70
     4
  0
LTYPE
  5
48B
330
436
100
AcDbSymbolTableRecord
100
AcDbLinetypeTableRecord
  2
ByBlock
 70
     0
  3

 72
    65
 73
     0
 40
0.0
  0
LTYPE
  5
48C
330
436
100
AcDbSymbolTableRecord
100
AcDbLinetypeTableRecord
  2
ByLayer
 70
     0
  3

 72
    65
 73
     0
 40
0.0
  0
LTYPE
  5
48D
330
436
100
AcDbSymbolTableRecord
100
AcDbLinetypeTableRecord
  2
CONTINUOUS
 70
     0
  3
Solid line
 72
    65
 73
     0
 40
0.0
  0
LTYPE
  5
4A5
330
436
100
AcDbSymbolTableRecord
100
AcDbLinetypeTableRecord
  2
DASHED
 70
     0
  3
Dashed __ __ __ __ __ __ __ __ __ __ __ __ __ _
 72
    65
 73
     2
 40
19.04999999999999
 49
12.7
 74
     0
 49
-6.349999999999998
 74
     0
  0
LTYPE
  5
4A6
330
436
100
AcDbSymbolTableRecord
100
AcDbLinetypeTableRecord
  2
CENTER
 70
     0
  3
Center ____ _ ____ _ ____ _ ____ _ ____ _ ____
 72
    65
 73
     4
 40
50.8
 49
31.75
 74
     0
 49
-6.349999999999998
 74
     0
 49
6.349999999999998
 74
     0
 49
-6.349999999999998
 74
     0
  0
LTYPE
  5
4A7
330
436
100
AcDbSymbolTableRecord
100
AcDbLinetypeTableRecord
  2
PHANTOM
 70
     0
  3
Phantom ______  __  __  ______  __  __  ______
 72
    65
 73
     6
 40
63.5
 49
31.75
 74
     0
 49
-6.349999999999998
 74
     0
 49
6.349999999999998
 74
     0
 49
-6.349999999999998
 74
     0
 49
6.349999999999998
 74
     0
 49
-6.349999999999998
 74
     0
  0
ENDTAB
  0
TABLE
  2
LAYER
  5
433
330
0
100
AcDbSymbolTable
 70
     8
  0
LAYER
  5
485
102
{ACAD_XDICTIONARY
360
4BA
102
}
330
433
100
AcDbSymbolTableRecord
100
AcDbLayerTableRecord
  2
0
 70
     0
 62
     7
  6
CONTINUOUS
370
    -3
390
440
  0
LAYER
  5
4A8
102
{ACAD_XDICTIONARY
360
4BC
102
}
330
433
100
AcDbSymbolTableRecord
100
AcDbLayerTableRecord
  2
4
 70
     0
 62
     1
  6
CENTER
370
    -3
390
440
  0
LAYER
  5
4A9
102
{ACAD_XDICTIONARY
360
4BE
102
}
330
433
100
AcDbSymbolTableRecord
100
AcDbLayerTableRecord
  2
5
 70
     0
 62
     6
  6
PHANTOM
370
    -3
390
440
  0
LAYER
  5
4AA
102
{ACAD_XDICTIONARY
360
4C0
102
}
330
433
100
AcDbSymbolTableRecord
100
AcDbLayerTableRecord
  2
1
 70
     0
 62
     7
  6
CONTINUOUS
370
    -3
390
440
  0
LAYER
  5
4AB
102
{ACAD_XDICTIONARY
360
4C2
102
}
330
433
100
AcDbSymbolTableRecord
100
AcDbLayerTableRecord
  2
2
 70
     0
 62
     4
  6
CONTINUOUS
370
    -3
390
440
  0
LAYER
  5
4AC
102
{ACAD_XDICTIONARY
360
4C4
102
}
330
433
100
AcDbSymbolTableRecord
100
AcDbLayerTableRecord
  2
3
 70
     0
 62
     2
  6
DASHED
370
    -3
390
440
  0
LAYER
  5
4AD
102
{ACAD_XDICTIONARY
360
4C6
102
}
330
433
100
AcDbSymbolTableRecord
100
AcDbLayerTableRecord
  2
6
 70
     0
 62
     5
  6
CONTINUOUS
370
    -3
390
440
  0
LAYER
  5
4AE
102
{ACAD_XDICTIONARY
360
4C8
102
}
330
433
100
AcDbSymbolTableRecord
100
AcDbLayerTableRecord
  2
7
 70
     0
 62
     3
  6
CONTINUOUS
370
    -3
390
440
  0
ENDTAB
  0
TABLE
  2
STYLE
  5
434
330
0
100
AcDbSymbolTable
 70
     2
  0
STYLE
  5
486
330
434
100
AcDbSymbolTableRecord
100
AcDbTextStyleTableRecord
  2
STANDARD
 70
     0
 40
0.0
 41
1.0
 50
0.0
 71
     0
 42
2.5
  3
simplex.shx
  4

  0
STYLE
  5
48A
330
434
100
AcDbSymbolTableRecord
100
AcDbTextStyleTableRecord
  2
Annotative
 70
     0
 40
0.0
 41
1.0
 50
0.0
 71
     0
 42
0.2
  3
txt
  4

1001
AcadAnnotative
1000
AnnotativeData
1002
{
1070
     1
1070
     1
1002
}
  0
ENDTAB
  0
TABLE
  2
VIEW
  5
437
330
0
100
AcDbSymbolTable
 70
     0
  0
ENDTAB
  0
TABLE
  2
UCS
  5
438
330
0
100
AcDbSymbolTable
 70
     0
  0
ENDTAB
  0
TABLE
  2
APPID
  5
43A
330
0
100
AcDbSymbolTable
 70
     6
  0
APPID
  5
487
330
43A
100
AcDbSymbolTableRecord
100
AcDbRegAppTableRecord
  2
ACAD
 70
     0
  0
APPID
  5
48E
330
43A
100
AcDbSymbolTableRecord
100
AcDbRegAppTableRecord
  2
AcadAnnotative
 70
     0
  0
APPID
  5
4AF
330
43A
100
AcDbSymbolTableRecord
100
AcDbRegAppTableRecord
  2
CONTENTTABDATA
 70
     0
  0
APPID
  5
4B0
330
43A
100
AcDbSymbolTableRecord
100
AcDbRegAppTableRecord
  2
CONTENTCURRENTTAB
 70
     0
  0
APPID
  5
4D4
330
43A
100
AcDbSymbolTableRecord
100
AcDbRegAppTableRecord
  2
ACAD_NAV_VCDISPLAY
 70
     0
  0
APPID
  5
50D
330
43A
100
AcDbSymbolTableRecord
100
AcDbRegAppTableRecord
  2
ACAD_MLEADERVER
 70
     0
  0
ENDTAB
  0
TABLE
  2
DIMSTYLE
  5
43B
330
0
100
AcDbSymbolTable
 70
     2
100
AcDbDimStyleTable
 71
     0
  0
DIMSTYLE
105
488
330
43B
100
AcDbSymbolTableRecord
100
AcDbDimStyleTableRecord
  2
STANDARD
 70
     0
 41
3.0
 42
1.0
 43
10.0
 44
1.0
 73
     0
 74
     0
 77
     3
 78
     8
140
3.2
141
0.0
147
1.0
172
     1
173
     1
279
     2
284
     8
285
     8
286
     8
340
486
  0
DIMSTYLE
105
489
330
43B
100
AcDbSymbolTableRecord
100
AcDbDimStyleTableRecord
  2
Annotative
 70
     0
340
486
1001
AcadAnnotative
1000
AnnotativeData
1002
{
1070
     1
1070
     1
1002
}
  0
ENDTAB
  0
TABLE
  2
BLOCK_RECORD
  5
432
330
0
100
AcDbSymbolTable
 70
     3
  0
BLOCK_RECORD
  5
4A0
330
432
100
AcDbSymbolTableRecord
100
AcDbBlockTableRecord
  2
*Model_Space
340
4A3
  0
BLOCK_RECORD
  5
49C
330
432
100
AcDbSymbolTableRecord
100
AcDbBlockTableRecord
  2
*Paper_Space
340
49F
  0
BLOCK_RECORD
  5
4B3
330
432
100
AcDbSymbolTableRecord
100
AcDbBlockTableRecord
  2
$MODEL_SPACE
340
0
  0
BLOCK_RECORD
  5
4B5
330
432
100
AcDbSymbolTableRecord
100
AcDbBlockTableRecord
  2
$PAPER_SPACE
340
0
  0
BLOCK_RECORD
  5
4B7
330
432
100
AcDbSymbolTableRecord
100
AcDbBlockTableRecord
  2
_OPEN
340
0
  0
ENDTAB
  0
ENDSEC
  0
SECTION
  2
BLOCKS
  0
BLOCK
  5
4A1
330
4A0
100
AcDbEntity
  8
0
100
AcDbBlockBegin
  2
*Model_Space
 70
     0
 10
0.0
 20
0.0
 30
0.0
  3
*Model_Space
  1

  0
ENDBLK
  5
4A2
330
4A0
100
AcDbEntity
  8
0
100
AcDbBlockEnd
  0
BLOCK
  5
49D
330
49C
100
AcDbEntity
 67
     1
  8
0
100
AcDbBlockBegin
  2
*Paper_Space
 70
     0
 10
0.0
 20
0.0
 30
0.0
  3
*Paper_Space
  1

  0
ENDBLK
  5
49E
330
49C
100
AcDbEntity
 67
     1
  8
0
100
AcDbBlockEnd
  0
BLOCK
  5
4B4
330
4B3
100
AcDbEntity
  8
0
100
AcDbBlockBegin
  2
$MODEL_SPACE
 70
     0
 10
0.0
 20
0.0
 30
0.0
  3
$MODEL_SPACE
  1

  0
ENDBLK
  5
1A
330
4B3
100
AcDbEntity
  8
0
100
AcDbBlockEnd
  0
BLOCK
  5
4B6
330
4B5
100
AcDbEntity
  8
0
100
AcDbBlockBegin
  2
$PAPER_SPACE
 70
     0
 10
0.0
 20
0.0
 30
0.0
  3
$PAPER_SPACE
  1

  0
ENDBLK
  5
17
330
4B5
100
AcDbEntity
  8
0
100
AcDbBlockEnd
  0
BLOCK
  5
4B8
330
4B7
100
AcDbEntity
  8
0
100
AcDbBlockBegin
  2
_OPEN
 70
     0
 10
0.0
 20
0.0
 30
0.0
  3
_OPEN
  1

  0
LINE
  5
30
330
4B7
100
AcDbEntity
  8
0
  6
ByBlock
 62
     0
100
AcDbLine
 10
-1.0
 20
0.1666666666666666
 30
0.0
 11
0.0
 21
0.0
 31
0.0
  0
LINE
  5
31
330
4B7
100
AcDbEntity
  8
0
  6
ByBlock
 62
     0
100
AcDbLine
 10
0.0
 20
0.0
 30
0.0
 11
-1.0
 21
-0.1666666666666666
 31
0.0
  0
LINE
  5
32
330
4B7
100
AcDbEntity
  8
0
  6
ByBlock
 62
     0
100
AcDbLine
 10
0.0
 20
0.0
 30
0.0
 11
-1.0
 21
0.0
 31
0.0
  0
ENDBLK
  5
33
330
4B7
100
AcDbEntity
  8
0
100
AcDbBlockEnd
  0
ENDSEC
  0
SECTION
  2
ENTITIES
  0
LINE
  5
260
330
4A0
100
AcDbEntity
  8
1
  6
Continuous
100
AcDbLine
 10
40.39190924522393
 20
150.1319332287115
 30
0.0
 11
40.39190924522393
 21
126.8819332287151
 31
0.0
  0
LINE
  5
261
330
4A0
100
AcDbEntity
  8
1
  6
Continuous
100
AcDbLine
 10
39.89190924522617
 20
149.3819332287151
 30
0.0
 11
39.89190924522617
 21
88.88193322871499
 31
0.0
  0
LINE
  5
262
330
4A0
100
AcDbEntity
  8
1
  6
Continuous
100
AcDbLine
 10
37.89190924522594
 20
88.88193322871499
 30
0.0
 11
37.89190924522594
 21
163.881933228715
 31
0.0
  0
LINE
  5
263
330
4A0
100
AcDbEntity
  8
4
  6
CENTER
100
AcDbLine
 10
42.39190924521068
 20
84.88193322871509
 30
0.0
 11
42.39190924521068
 21
166.881933228715
 31
0.0
  0
LINE
  5
264
330
4A0
100
AcDbEntity
  8
3
  6
DASHED
100
AcDbLine
 10
44.89190924521079
 20
163.8819332287151
 30
0.0
 11
44.89190924521079
 21
88.8819332287151
 31
0.0
  0
LINE
  5
265
330
4A0
100
AcDbEntity
  8
1
  6
Continuous
100
AcDbLine
 10
46.89190924521071
 20
126.881933228715
 30
0.0
 11
46.89190924521067
 21
163.881933228715
 31
0.0
  0
LINE
  5
266
330
4A0
100
AcDbEntity
  8
4
  6
CENTER
100
AcDbLine
 10
190.1742010783491
 20
84.88193322871509
 30
0.0
 11
190.1742010783491
 21
166.881933228715
 31
0.0
  0
LINE
  5
267
330
4A0
100
AcDbEntity
  8
3
  6
DASHED
100
AcDbLine
 10
187.6742010783489
 20
163.8819332287151
 30
0.0
 11
187.6742010783489
 21
88.8819332287151
 31
0.0
  0
LINE
  5
268
330
4A0
100
AcDbEntity
  8
1
  6
Continuous
100
AcDbLine
 10
185.6742010783491
 20
126.881933228715
 30
0.0
 11
185.6742010783491
 21
163.881933228715
 31
0.0
  0
LINE
  5
269
330
4A0
100
AcDbEntity
  8
1
  6
Continuous
100
AcDbLine
 10
192.6742010781959
 20
163.881933228715
 30
0.0
 11
192.6742010784385
 21
88.88193322871513
 31
0.0
  0
LINE
  5
26A
330
4A0
100
AcDbEntity
  8
1
  6
Continuous
100
AcDbLine
 10
194.6742010783579
 20
88.88193322871513
 30
0.0
 11
194.6742010783339
 21
163.881933228715
 31
0.0
  0
LINE
  5
26B
330
4A0
100
AcDbEntity
  8
1
  6
Continuous
100
AcDbLine
 10
96.28305516177995
 20
161.881933228715
 30
0.0
 11
96.28305516177995
 21
90.88193322871513
 31
0.0
  0
LINE
  5
26C
330
4A0
100
AcDbEntity
  8
1
  6
Continuous
100
AcDbLine
 10
136.2830551617799
 20
161.881933228715
 30
0.0
 11
136.2830551617799
 21
90.88193322871513
 31
0.0
  0
LINE
  5
26D
330
4A0
100
AcDbEntity
  8
1
  6
Continuous
100
AcDbLine
 10
111.7830551617799
 20
163.881933228715
 30
0.0
 11
111.7830551617799
 21
126.881933228715
 31
0.0
  0
LINE
  5
26E
330
4A0
100
AcDbEntity
  8
1
  6
Continuous
100
AcDbLine
 10
120.7830551617798
 20
163.881933228715
 30
0.0
 11
120.7830551617798
 21
126.881933228715
 31
0.0
  0
LINE
  5
26F
330
4A0
100
AcDbEntity
  8
1
  6
Continuous
100
AcDbLine
 10
121.7830551617798
 20
162.8819332287151
 30
0.0
 11
121.7830551617798
 21
126.881933228715
 31
0.0
  0
LINE
  5
270
330
4A0
100
AcDbEntity
  8
3
  6
DASHED
100
AcDbLine
 10
118.7830551617798
 20
163.8819332287151
 30
0.0
 11
118.7830551617798
 21
88.8819332287151
 31
0.0
  0
LINE
  5
271
330
4A0
100
AcDbEntity
  8
3
  6
DASHED
100
AcDbLine
 10
113.7830551617798
 20
163.8819332287151
 30
0.0
 11
113.7830551617798
 21
88.8819332287151
 31
0.0
  0
LINE
  5
272
330
4A0
100
AcDbEntity
  8
4
  6
CENTER
100
AcDbLine
 10
116.2830551617799
 20
84.88193322871509
 30
0.0
 11
116.2830551617799
 21
166.881933228715
 31
0.0
  0
ARC
  5
273
330
4A0
100
AcDbEntity
  8
1
  6
Continuous
100
AcDbCircle
 10
100.0497667918726
 20
133.881933228715
 30
0.0
 40
5.733264282363177
100
AcDbArc
 50
324.4623222079991
 51
35.53767779200097
  0
ARC
  5
274
330
4A0
100
AcDbEntity
  8
1
  6
Continuous
100
AcDbCircle
 10
107.5163435316942
 20
133.881933228715
 30
0.0
 40
5.733264282363177
100
AcDbArc
 50
144.4623222080521
 51
215.5376777919479
  0
TEXT
  5
275
330
4A0
100
AcDbEntity
  8
1
  6
Continuous
100
AcDbText
 10
9.999999064246617
 20
10.00000056761563
 30
0.0
 40
1.399999999999999
  1
LAYER
100
AcDbText
  0
TEXT
  5
276
330
4A0
100
AcDbEntity
  8
7
  6
Continuous
100
AcDbText
 10
9.999999064246617
 20
18.00000056761563
 30
0.0
 40
3.0
  1
TYPE No.TH-159-1R
100
AcDbText
  0
TEXT
  5
277
330
4A0
100
AcDbEntity
  8
7
  6
Continuous
100
AcDbText
 10
9.999999064246617
 20
26.00000056761564
 30
0.0
 40
3.0
  1
CODE No.2781
100
AcDbText
  0
TEXT
  5
278
330
4A0
100
AcDbEntity
  8
2
  6
Continuous
100
AcDbText
 10
19.97951006424661
 20
9.999999806846744
 30
0.0
 40
1.399999999999999
  1
2
100
AcDbText
  0
TEXT
  5
279
330
4A0
100
AcDbEntity
  8
1
  6
Continuous
100
AcDbText
 10
17.97951006424661
 20
9.999999806846744
 30
0.0
 40
1.399999999999999
  1
1
100
AcDbText
  0
TEXT
  5
27A
330
4A0
100
AcDbEntity
  8
3
  6
DASHED
100
AcDbText
 10
21.97951006424661
 20
9.999999806846744
 30
0.0
 40
1.399999999999999
  1
3
100
AcDbText
  0
TEXT
  5
27B
330
4A0
100
AcDbEntity
  8
5
  6
PHANTOM
100
AcDbText
 10
25.97951006424661
 20
9.999999806846744
 30
0.0
 40
1.399999999999999
  1
5
100
AcDbText
  0
TEXT
  5
27C
330
4A0
100
AcDbEntity
  8
4
  6
CENTER
100
AcDbText
 10
23.9795100642466
 20
9.999999806846744
 30
0.0
 40
1.399999999999999
  1
4
100
AcDbText
  0
TEXT
  5
27D
330
4A0
100
AcDbEntity
  8
7
  6
Continuous
100
AcDbText
 10
29.97951006424661
 20
9.999999806846744
 30
0.0
 40
1.399999999999999
  1
7
100
AcDbText
  0
TEXT
  5
27E
330
4A0
100
AcDbEntity
  8
6
  6
Continuous
100
AcDbText
 10
27.97951006424661
 20
9.999999806846744
 30
0.0
 40
1.399999999999999
  1
6
100
AcDbText
  0
LINE
  5
27F
330
4A0
100
AcDbEntity
  8
1
  6
Continuous
100
AcDbLine
 10
46.89190924521067
 20
88.8819332287151
 30
0.0
 11
46.89190924521073
 21
125.881933228715
 31
0.0
  0
LINE
  5
280
330
4A0
100
AcDbEntity
  8
1
  6
Continuous
100
AcDbLine
 10
37.89190924520196
 20
88.88193322871513
 30
0.0
 11
46.89190924521067
 21
88.8819332287151
 31
0.0
  0
LINE
  5
281
330
4A0
100
AcDbEntity
  8
1
  6
Continuous
100
AcDbLine
 10
44.89190924521067
 20
87.88193322871505
 30
0.0
 11
39.89190924521068
 21
87.88193322871505
 31
0.0
  0
LINE
  5
282
330
4A0
100
AcDbEntity
  8
1
  6
Continuous
100
AcDbLine
 10
39.54190924521068
 20
88.8819332287151
 30
0.0
 11
39.89190924521068
 21
87.88193322871519
 31
0.0
  0
LINE
  5
283
330
4A0
100
AcDbEntity
  8
1
  6
Continuous
100
AcDbLine
 10
45.24190924521081
 20
88.8819332287151
 30
0.0
 11
44.89190924521079
 21
87.88193322871505
 31
0.0
  0
LINE
  5
284
330
4A0
100
AcDbEntity
  8
1
  6
Continuous
100
AcDbLine
 10
39.891909245241
 20
125.881933228715
 30
0.0
 11
46.89190924521073
 21
125.881933228715
 31
0.0
  0
LINE
  5
285
330
4A0
100
AcDbEntity
  8
1
  6
Continuous
100
AcDbLine
 10
39.89190924524422
 20
126.881933228715
 30
0.0
 11
46.89190924521073
 21
126.881933228715
 31
0.0
  0
LINE
  5
286
330
4A0
100
AcDbEntity
  8
4
  6
CENTER
100
AcDbLine
 10
41.39190924520402
 20
107.881933228715
 30
0.0
 11
36.39190924520391
 21
107.881933228715
 31
0.0
  0
ARC
  5
287
330
4A0
100
AcDbEntity
  8
1
  6
Continuous
100
AcDbCircle
 10
46.39190924521067
 20
126.3819332287151
 30
0.0
 40
0.4999999999999716
100
AcDbArc
 50
270.0
 51
90.0
  0
LINE
  5
288
330
4A0
100
AcDbEntity
  8
1
  6
Continuous
100
AcDbLine
 10
96.28305516179501
 20
34.00666718500638
 30
0.0
 11
136.2830551617655
 21
34.00666718501918
 31
0.0
  0
LINE
  5
289
330
4A0
100
AcDbEntity
  8
1
  6
Continuous
100
AcDbLine
 10
136.2830551617591
 20
36.00666718507739
 30
0.0
 11
117.6514483801434
 21
36.00666718501714
 31
0.0
  0
LINE
  5
28A
330
4A0
100
AcDbEntity
  8
1
  6
Continuous
100
AcDbLine
 10
112.541397775021
 20
36.00666718501282
 30
0.0
 11
96.28305516179501
 21
36.00666718501282
 31
0.0
  0
LINE
  5
28B
330
4A0
100
AcDbEntity
  8
5
  6
PHANTOM
100
AcDbLine
 10
110.4035623887879
 20
38.37995788090945
 30
0.0
 11
101.9434966683522
 21
35.06588456540776
 31
0.0
  0
LINE
  5
28C
330
4A0
100
AcDbEntity
  8
5
  6
PHANTOM
100
AcDbLine
 10
110.5494600479673
 20
38.00751476707068
 30
0.0
 11
102.0893943275317
 21
34.69344145156894
 31
0.0
  0
ARC
  5
28D
330
4A0
100
AcDbEntity
  8
5
  6
PHANTOM
100
AcDbCircle
 10
105.172748175152
 20
34.60217755470409
 30
0.0
 40
0.5
100
AcDbArc
 50
201.3918379832055
 51
277.3555945152787
  0
LINE
  5
28E
330
4A0
100
AcDbEntity
  8
1
  6
Continuous
100
AcDbLine
 10
103.504857119969
 20
36.00666718501282
 30
0.0
 11
109.7787985939875
 21
39.67022107091866
 31
0.0
  0
LINE
  5
28F
330
4A0
100
AcDbEntity
  8
1
  6
Continuous
100
AcDbLine
 10
104.2981041008445
 20
36.00666718501282
 30
0.0
 11
109.9805012211104
 21
39.32479951656569
 31
0.0
  0
ARC
  5
290
330
4A0
100
AcDbEntity
  8
3
  6
DASHED
100
AcDbCircle
 10
105.1946473158135
 20
35.12945036657163
 30
0.0
 40
0.5
100
AcDbArc
 50
210.2820141055874
 51
286.2457706376617
  0
LINE
  5
291
330
4A0
100
AcDbEntity
  8
1
  6
Continuous
100
AcDbLine
 10
100.6066904426087
 20
37.00666718501282
 30
0.0
 11
96.28305516179501
 21
37.00666718501282
 31
0.0
  0
LINE
  5
292
330
4A0
100
AcDbEntity
  8
3
  6
DASHED
100
AcDbLine
 10
101.6299751358961
 20
35.00666718503605
 30
0.0
 11
96.28305516179501
 21
35.00666718503605
 31
0.0
  0
LINE
  5
293
330
4A0
100
AcDbEntity
  8
3
  6
DASHED
100
AcDbLine
 10
101.6299751358962
 20
34.60666718503608
 30
0.0
 11
96.28305516179501
 21
34.60666718503608
 31
0.0
  0
LINE
  5
294
330
4A0
100
AcDbEntity
  8
1
  6
Continuous
100
AcDbLine
 10
96.28305516179501
 20
37.00666718501282
 30
0.0
 11
96.28305516179501
 21
34.0066671850127
 31
0.0
  0
LINE
  5
295
330
4A0
100
AcDbEntity
  8
4
  6
CENTER
100
AcDbLine
 10
103.7830551617949
 20
37.50666718501282
 30
0.0
 11
103.7830551617949
 21
32.5066671850127
 31
0.0
  0
LINE
  5
296
330
4A0
100
AcDbEntity
  8
5
  6
PHANTOM
100
AcDbLine
 10
104.7071942828535
 20
34.41980548072978
 30
0.0
 11
104.265995458682
 21
35.54608444106867
 31
0.0
  0
LINE
  5
297
330
4A0
100
AcDbEntity
  8
3
  6
DASHED
100
AcDbLine
 10
102.1342317037036
 20
34.74311329915348
 30
0.0
 11
104.2981041008444
 21
36.00666718501282
 31
0.0
  0
LINE
  5
298
330
4A0
100
AcDbEntity
  8
3
  6
DASHED
100
AcDbLine
 10
101.9325290765806
 20
35.08853485350647
 30
0.0
 11
103.504857119969
 21
36.00666718501282
 31
0.0
  0
LINE
  5
299
330
4A0
100
AcDbEntity
  8
3
  6
DASHED
100
AcDbLine
 10
104.7628703728721
 20
34.87732208266793
 30
0.0
 11
104.1529156798394
 21
35.92188705020209
 31
0.0
  0
ARC
  5
29A
330
4A0
100
AcDbEntity
  8
3
  6
DASHED
100
AcDbCircle
 10
101.6299751358962
 20
35.60666718503608
 30
0.0
 40
1.0
100
AcDbArc
 50
270.0
 51
298.625453903544
  0
ARC
  5
29B
330
4A0
100
AcDbEntity
  8
3
  6
DASHED
100
AcDbCircle
 10
101.6299751358961
 20
35.60666718503608
 30
0.0
 40
0.6000000000000001
100
AcDbArc
 50
270.0
 51
298.6254539035421
  0
ARC
  5
29C
330
4A0
100
AcDbEntity
  8
1
  6
Continuous
100
AcDbCircle
 10
100.6066904426087
 20
35.00666718501281
 30
0.0
 40
2.0
100
AcDbArc
 50
52.63074021479848
 51
90.0
  0
LINE
  5
29D
330
4A0
100
AcDbEntity
  8
1
  6
Continuous
100
AcDbLine
 10
101.8205895118374
 20
36.59614793347304
 30
0.0
 11
102.5924562386658
 21
36.00666718501289
 31
0.0
  0
LINE
  5
29E
330
4A0
100
AcDbEntity
  8
4
  6
CENTER
100
AcDbLine
 10
110.2330551617948
 20
38.50666718501269
 30
0.0
 11
122.333055161795
 21
38.50666718501269
 31
0.0
  0
ARC
  5
29F
330
4A0
100
AcDbEntity
  8
1
  6
Continuous
100
AcDbCircle
 10
116.2830551617949
 20
38.50666718501269
 30
0.0
 40
4.499999999999943
100
AcDbArc
 50
326.2510114042968
 51
270.0000000001824
  0
LINE
  5
2A0
330
4A0
100
AcDbEntity
  8
4
  6
CENTER
100
AcDbLine
 10
116.2830551617949
 20
44.55666718501277
 30
0.0
 11
116.2830551617949
 21
32.45666718501263
 31
0.0
  0
CIRCLE
  5
2A1
330
4A0
100
AcDbEntity
  8
1
  6
Continuous
100
AcDbCircle
 10
116.2830551617949
 20
38.50666718501269
 30
0.0
 40
2.499999999999969
  0
CIRCLE
  5
2A2
330
4A0
100
AcDbEntity
  8
1
  6
Continuous
100
AcDbCircle
 10
116.2830551617949
 20
38.50666718501269
 30
0.0
 40
2.85
  0
LINE
  5
2A3
330
4A0
100
AcDbEntity
  8
5
  6
PHANTOM
100
AcDbLine
 10
111.9781863665373
 20
34.83041720667149
 30
0.0
 11
114.6457495864266
 21
34.41315653527544
 31
0.0
  0
LINE
  5
2A4
330
4A0
100
AcDbEntity
  8
5
  6
PHANTOM
100
AcDbLine
 10
111.9163699707748
 20
34.43522265557685
 30
0.0
 11
114.5839331906643
 21
34.01796198418076
 31
0.0
  0
LINE
  5
2A5
330
4A0
100
AcDbEntity
  8
3
  6
DASHED
100
AcDbLine
 10
112.541397775021
 20
36.00666718501282
 30
0.0
 11
114.583055161795
 21
36.00666718501282
 31
0.0
  0
LINE
  5
2A6
330
4A0
100
AcDbEntity
  8
3
  6
DASHED
100
AcDbLine
 10
112.3031054133685
 20
36.40666718501268
 30
0.0
 11
114.583055161795
 21
36.40666718501268
 31
0.0
  0
LINE
  5
2A7
330
4A0
100
AcDbEntity
  8
1
  6
Continuous
100
AcDbLine
 10
110.7830551616759
 20
36.00666718501282
 30
0.0
 11
110.7830551616732
 21
34.00666718506488
 31
0.0
  0
ARC
  5
2A8
330
4A0
100
AcDbEntity
  8
5
  6
PHANTOM
100
AcDbCircle
 10
112.0709109601809
 20
35.4232090333136
 30
0.0
 40
0.6000000000000001
100
AcDbArc
 50
171.1098238776168
 51
261.109823877616
  0
ARC
  5
2A9
330
4A0
100
AcDbEntity
  8
5
  6
PHANTOM
100
AcDbCircle
 10
112.0709109601809
 20
35.42320903331364
 30
0.0
 40
1.0
100
AcDbArc
 50
171.1098238776168
 51
261.109823877616
  0
ARC
  5
2AA
330
4A0
100
AcDbEntity
  8
5
  6
PHANTOM
100
AcDbCircle
 10
110.2842172830731
 20
35.26201356370045
 30
0.0
 40
0.5
100
AcDbArc
 50
277.3555945152787
 51
21.39183798320553
  0
LINE
  5
2AB
330
4A0
100
AcDbEntity
  8
3
  6
DASHED
100
AcDbLine
 10
105.3345263887846
 20
34.64941511271558
 30
0.0
 11
109.9923270821441
 21
36.00666718501282
 31
0.0
  0
LINE
  5
2AC
330
4A0
100
AcDbEntity
  8
5
  6
PHANTOM
100
AcDbLine
 10
105.2367616706973
 20
34.10629221272653
 30
0.0
 11
110.3482307786185
 21
34.76612822172307
 31
0.0
  0
LINE
  5
2AD
330
4A0
100
AcDbEntity
  8
5
  6
PHANTOM
100
AcDbLine
 10
111.7562929144732
 20
37.29430910690632
 30
0.0
 11
111.4781191335389
 21
35.51593362695717
 31
0.0
  0
LINE
  5
2AE
330
4A0
100
AcDbEntity
  8
5
  6
PHANTOM
100
AcDbLine
 10
111.3610983633784
 20
37.35612550266875
 30
0.0
 11
111.0829245824441
 21
35.57775002271955
 31
0.0
  0
ARC
  5
2AF
330
4A0
100
AcDbEntity
  8
5
  6
PHANTOM
100
AcDbCircle
 10
110.7683065367365
 20
37.44885009631234
 30
0.0
 40
1.0
100
AcDbArc
 50
351.1098238776168
 51
111.3918379832055
  0
ARC
  5
2B0
330
4A0
100
AcDbEntity
  8
5
  6
PHANTOM
100
AcDbCircle
 10
110.7683065367365
 20
37.44885009631234
 30
0.0
 40
0.6
100
AcDbArc
 50
351.1098238776168
 51
111.3918379832055
  0
LINE
  5
2B1
330
4A0
100
AcDbEntity
  8
5
  6
PHANTOM
100
AcDbLine
 10
110.7497711753717
 20
35.44438563767466
 30
0.0
 11
109.8526421662645
 21
37.73454932875994
 31
0.0
  0
ARC
  5
2B2
330
4A0
100
AcDbEntity
  8
1
  6
Continuous
100
AcDbCircle
 10
110.1427374549859
 20
36.57129084825646
 30
0.0
 40
0.5
100
AcDbArc
 50
286.2457706376617
 51
30.28201410558899
  0
LINE
  5
2B3
330
4A0
100
AcDbEntity
  8
1
  6
Continuous
100
AcDbLine
 10
110.5745143979272
 20
36.82341913216026
 30
0.0
 11
109.3342389951348
 21
38.9474264570476
 31
0.0
  0
LINE
  5
2B4
330
4A0
100
AcDbEntity
  8
1
  6
Continuous
100
AcDbLine
 10
109.992327082144
 20
36.00666718501282
 30
0.0
 11
110.2826165279571
 21
36.09125559440036
 31
0.0
  0
ARC
  5
2B5
330
4A0
100
AcDbEntity
  8
1
  6
Continuous
100
AcDbCircle
 10
110.2830551617949
 20
38.80666718503607
 30
0.0
 40
0.6
100
AcDbArc
 50
0.0
 51
120.2820141055884
  0
ARC
  5
2B6
330
4A0
100
AcDbEntity
  8
1
  6
Continuous
100
AcDbCircle
 10
110.2830551617949
 20
38.80666718503607
 30
0.0
 40
1.0
100
AcDbArc
 50
0.0
 51
120.2820141055884
  0
LINE
  5
2B7
330
4A0
100
AcDbEntity
  8
1
  6
Continuous
100
AcDbLine
 10
110.883055161795
 20
38.80666718503607
 30
0.0
 11
110.883055161795
 21
37.00666718501282
 31
0.0
  0
LINE
  5
2B8
330
4A0
100
AcDbEntity
  8
1
  6
Continuous
100
AcDbLine
 10
111.2830551617949
 20
38.80666718503607
 30
0.0
 11
111.2830551617949
 21
37.00666718501269
 31
0.0
  0
ARC
  5
2B9
330
4A0
100
AcDbEntity
  8
1
  6
Continuous
100
AcDbCircle
 10
111.883055161795
 20
37.00666718501269
 30
0.0
 40
0.6000000000000001
100
AcDbArc
 50
180.0
 51
270.0
  0
ARC
  5
2BA
330
4A0
100
AcDbEntity
  8
1
  6
Continuous
100
AcDbCircle
 10
111.883055161795
 20
37.00666718501282
 30
0.0
 40
1.0
100
AcDbArc
 50
180.0
 51
270.0
  0
LINE
  5
2BB
330
4A0
100
AcDbEntity
  8
1
  6
Continuous
100
AcDbLine
 10
111.883055161795
 20
36.40666718501268
 30
0.0
 11
112.3031054133685
 21
36.40666718501268
 31
0.0
  0
ARC
  5
2BC
330
4A0
100
AcDbEntity
  8
5
  6
PHANTOM
100
AcDbCircle
 10
114.7384741800703
 20
35.00594836191761
 30
0.0
 40
1.0
100
AcDbArc
 50
261.109823877616
 51
26.10982387761711
  0
ARC
  5
2BD
330
4A0
100
AcDbEntity
  8
5
  6
PHANTOM
100
AcDbCircle
 10
114.7384741800702
 20
35.00594836191748
 30
0.0
 40
0.6000000000000001
100
AcDbArc
 50
261.109823877616
 51
26.10982387761783
  0
LINE
  5
2BE
330
4A0
100
AcDbEntity
  8
5
  6
PHANTOM
100
AcDbLine
 10
115.2772454586861
 20
35.27000424490199
 30
0.0
 11
114.8869711157293
 21
36.06630768033135
 31
0.0
  0
LINE
  5
2BF
330
4A0
100
AcDbEntity
  8
5
  6
PHANTOM
100
AcDbLine
 10
115.6364263110965
 20
35.44604150022485
 30
0.0
 11
115.2461519681397
 21
36.24234493565428
 31
0.0
  0
LINE
  5
2C0
330
4A0
100
AcDbEntity
  8
5
  6
PHANTOM
100
AcDbLine
 10
115.2461519681397
 20
36.24234493565428
 30
0.0
 11
114.8869711157293
 21
36.06630768033135
 31
0.0
  0
ARC
  5
2C1
330
4A0
100
AcDbEntity
  8
3
  6
DASHED
100
AcDbCircle
 10
114.583055161795
 20
37.00666718501282
 30
0.0
 40
1.0
100
AcDbArc
 50
270.0
 51
35.0000000000003
  0
ARC
  5
2C2
330
4A0
100
AcDbEntity
  8
3
  6
DASHED
100
AcDbCircle
 10
114.583055161795
 20
37.00666718501282
 30
0.0
 40
0.6000000000000001
100
AcDbArc
 50
270.0
 51
35.00000000000097
  0
LINE
  5
2C3
330
4A0
100
AcDbEntity
  8
3
  6
DASHED
100
AcDbLine
 10
115.0745463883685
 20
37.35081304682347
 30
0.0
 11
114.5658991331684
 21
38.07723661047248
 31
0.0
  0
LINE
  5
2C4
330
4A0
100
AcDbEntity
  8
3
  6
DASHED
100
AcDbLine
 10
114.8935599508839
 20
38.30666718501278
 30
0.0
 11
114.5658991331684
 21
38.07723661047248
 31
0.0
  0
LINE
  5
2C5
330
4A0
100
AcDbEntity
  8
3
  6
DASHED
100
AcDbLine
 10
115.402207206084
 20
37.58024362136376
 30
0.0
 11
114.8935599508839
 21
38.30666718501278
 31
0.0
  0
LINE
  5
2C6
330
4A0
100
AcDbEntity
  8
1
  6
Continuous
100
AcDbLine
 10
118.8361034487602
 20
37.24000051835436
 30
0.0
 11
120.3141840359505
 21
36.50666718502578
 31
0.0
  0
LINE
  5
2C7
330
4A0
100
AcDbEntity
  8
4
  6
CENTER
100
AcDbLine
 10
128.7830551617946
 20
37.50666718501282
 30
0.0
 11
128.7830551617946
 21
32.5066671850127
 31
0.0
  0
LINE
  5
2C8
330
4A0
100
AcDbEntity
  8
1
  6
Continuous
100
AcDbLine
 10
136.2830551618028
 20
36.00666718507739
 30
0.0
 11
136.2830551618092
 21
34.00666718507687
 31
0.0
  0
ARC
  5
2C9
330
4A0
100
AcDbEntity
  8
1
  6
Continuous
100
AcDbCircle
 10
134.2830551617799
 20
90.88193322871513
 30
0.0
 40
2.0
100
AcDbArc
 50
270.0
 51
0.0
  0
LINE
  5
2CA
330
4A0
100
AcDbEntity
  8
1
  6
Continuous
100
AcDbLine
 10
110.7830551617799
 20
125.881933228715
 30
0.0
 11
110.7830551617799
 21
89.8819332287152
 31
0.0
  0
LINE
  5
2CB
330
4A0
100
AcDbEntity
  8
1
  6
Continuous
100
AcDbLine
 10
111.7830551617799
 20
125.881933228715
 30
0.0
 11
111.7830551617799
 21
88.8819332287151
 31
0.0
  0
LINE
  5
2CC
330
4A0
100
AcDbEntity
  8
1
  6
Continuous
100
AcDbLine
 10
120.7830551617798
 20
125.881933228715
 30
0.0
 11
120.7830551617798
 21
88.8819332287151
 31
0.0
  0
LINE
  5
2CD
330
4A0
100
AcDbEntity
  8
1
  6
Continuous
100
AcDbLine
 10
109.7830551617799
 20
88.8819332287151
 30
0.0
 11
98.28305516177991
 21
88.8819332287151
 31
0.0
  0
ARC
  5
2CE
330
4A0
100
AcDbEntity
  8
1
  6
Continuous
100
AcDbCircle
 10
98.28305516177991
 20
90.88193322871513
 30
0.0
 40
2.0
100
AcDbArc
 50
180.0
 51
270.0
  0
LINE
  5
2CF
330
4A0
100
AcDbEntity
  8
1
  6
Continuous
100
AcDbLine
 10
134.2830551617799
 20
88.8819332287151
 30
0.0
 11
111.7830551617799
 21
88.8819332287151
 31
0.0
  0
ARC
  5
2D0
330
4A0
100
AcDbEntity
  8
1
  6
Continuous
100
AcDbCircle
 10
109.7830551617799
 20
89.8819332287152
 30
0.0
 40
1.0
100
AcDbArc
 50
270.0
 51
0.0
  0
LINE
  5
2D1
330
4A0
100
AcDbEntity
  8
1
  6
Continuous
100
AcDbLine
 10
113.4330551617797
 20
88.8819332287151
 30
0.0
 11
113.7830551617798
 21
87.88193322871505
 31
0.0
  0
LINE
  5
2D2
330
4A0
100
AcDbEntity
  8
1
  6
Continuous
100
AcDbLine
 10
119.1330551617799
 20
88.8819332287151
 30
0.0
 11
118.7830551617798
 21
87.88193322871519
 31
0.0
  0
LINE
  5
2D3
330
4A0
100
AcDbEntity
  8
1
  6
Continuous
100
AcDbLine
 10
113.7830551617799
 20
87.88193322871505
 30
0.0
 11
118.7830551617798
 21
87.88193322871505
 31
0.0
  0
LINE
  5
2D4
330
4A0
100
AcDbEntity
  8
4
  6
CENTER
100
AcDbLine
 10
99.08305516177982
 20
107.881933228715
 30
0.0
 11
108.4830551617797
 21
107.881933228715
 31
0.0
  0
ARC
  5
2D5
330
4A0
100
AcDbEntity
  8
1
  6
Continuous
100
AcDbCircle
 10
105.1652588061684
 20
135.0374748670208
 30
0.0
 40
0.044443909165606
100
AcDbArc
 50
270.0
 51
12.72894387312288
  0
ARC
  5
2D6
330
4A0
100
AcDbEntity
  8
1
  6
Continuous
100
AcDbCircle
 10
100.0497667918726
 20
133.881933228715
 30
0.0
 40
5.288825190707116
100
AcDbArc
 50
13.26811897055641
 51
15.25752329045583
  0
LINE
  5
2D7
330
4A0
100
AcDbEntity
  8
1
  6
Continuous
100
AcDbLine
 10
105.296407446513
 20
134.5485918661991
 30
0.0
 11
102.2697028770539
 21
134.5485918661991
 31
0.0
  0
LINE
  5
2D8
330
4A0
100
AcDbEntity
  8
1
  6
Continuous
100
AcDbLine
 10
105.3339214424586
 20
134.104152774543
 30
0.0
 11
102.2321888811083
 21
134.104152774543
 31
0.0
  0
LINE
  5
2D9
330
4A0
100
AcDbEntity
  8
1
  6
Continuous
100
AcDbLine
 10
105.3339214424586
 20
133.659713682887
 30
0.0
 11
102.2321888811083
 21
133.659713682887
 31
0.0
  0
ARC
  5
2DA
330
4A0
100
AcDbEntity
  8
1
  6
Continuous
100
AcDbCircle
 10
105.0377912841893
 20
132.9930550454029
 30
0.0
 40
0.2222195458280301
100
AcDbArc
 50
270.0
 51
349.8958172838745
  0
LINE
  5
2DB
330
4A0
100
AcDbEntity
  8
1
  6
Continuous
100
AcDbLine
 10
105.2457140774338
 20
133.2152745912308
 30
0.0
 11
102.3203962461331
 21
133.2152745912308
 31
0.0
  0
LINE
  5
2DC
330
4A0
100
AcDbEntity
  8
1
  6
Continuous
100
AcDbLine
 10
105.2440031019353
 20
132.3263964079188
 30
0.0
 11
102.4614471829047
 21
132.3263964079188
 31
0.0
  0
CIRCLE
  5
2DD
330
4A0
100
AcDbEntity
  8
1
  6
Continuous
100
AcDbCircle
 10
103.7830551617798
 20
107.881933228715
 30
0.0
 40
2.5
  0
ARC
  5
2DE
330
4A0
100
AcDbEntity
  8
1
  6
Continuous
100
AcDbCircle
 10
104.2830551617798
 20
114.3799315075738
 30
0.0
 40
0.5
100
AcDbArc
 50
179.999999999964
 51
359.9999999999625
  0
LINE
  5
2DF
330
4A0
100
AcDbEntity
  8
1
  6
Continuous
100
AcDbLine
 10
103.7830551617798
 20
114.6799315075733
 30
0.0
 11
102.7830551617798
 21
113.8799315075738
 31
0.0
  0
LINE
  5
2E0
330
4A0
100
AcDbEntity
  8
4
  6
CENTER
100
AcDbLine
 10
103.7830551617798
 20
112.581933228715
 30
0.0
 11
103.7830551617798
 21
103.1819332287151
 31
0.0
  0
LINE
  5
2E1
330
4A0
100
AcDbEntity
  8
1
  6
Continuous
100
AcDbLine
 10
104.7830551617798
 20
114.9799315075728
 30
0.0
 11
104.7830551617798
 21
114.3799315075738
 31
0.0
  0
LINE
  5
2E2
330
4A0
100
AcDbEntity
  8
1
  6
Continuous
100
AcDbLine
 10
103.7830551617798
 20
114.9799315075728
 30
0.0
 11
103.7830551617798
 21
114.3799315075738
 31
0.0
  0
LINE
  5
2E3
330
4A0
100
AcDbEntity
  8
1
  6
Continuous
100
AcDbLine
 10
104.7830551617798
 20
114.9799315075728
 30
0.0
 11
102.7830551617798
 21
114.9799315075728
 31
0.0
  0
LINE
  5
2E4
330
4A0
100
AcDbEntity
  8
1
  6
Continuous
100
AcDbLine
 10
103.7830551617798
 20
116.9192608845122
 30
0.0
 11
103.7830551617798
 21
117.8583794289776
 31
0.0
  0
CIRCLE
  5
2E5
330
4A0
100
AcDbEntity
  8
1
  6
Continuous
100
AcDbCircle
 10
104.2830551617798
 20
119.219887154815
 30
0.0
 40
0.5
  0
LINE
  5
2E6
330
4A0
100
AcDbEntity
  8
1
  6
Continuous
100
AcDbLine
 10
102.7830551617798
 20
119.219887154815
 30
0.0
 11
104.1163884951131
 21
118.7484826340239
 31
0.0
  0
LINE
  5
2E7
330
4A0
100
AcDbEntity
  8
1
  6
Continuous
100
AcDbLine
 10
103.7830551617798
 20
124.2675035729379
 30
0.0
 11
103.7830551617798
 21
125.2066221174033
 31
0.0
  0
LINE
  5
2E8
330
4A0
100
AcDbEntity
  8
1
  6
Continuous
100
AcDbLine
 10
104.7830551617798
 20
121.785830909843
 30
0.0
 11
103.7830551617798
 21
121.785830909843
 31
0.0
  0
LINE
  5
2E9
330
4A0
100
AcDbEntity
  8
1
  6
Continuous
100
AcDbLine
 10
103.7830551617798
 20
121.285830909843
 30
0.0
 11
103.7830551617798
 21
121.785830909843
 31
0.0
  0
LINE
  5
2EA
330
4A0
100
AcDbEntity
  8
1
  6
Continuous
100
AcDbLine
 10
104.7830551617798
 20
120.785830909843
 30
0.0
 11
104.7830551617798
 21
121.785830909843
 31
0.0
  0
LINE
  5
2EB
330
4A0
100
AcDbEntity
  8
1
  6
Continuous
100
AcDbLine
 10
104.7830551617798
 20
123.1984349687356
 30
0.0
 11
104.2597981169655
 21
123.442433735916
 31
0.0
  0
LINE
  5
2EC
330
4A0
100
AcDbEntity
  8
1
  6
Continuous
100
AcDbLine
 10
102.7830551617798
 20
121.285830909843
 30
0.0
 11
102.7830551617798
 21
121.785830909843
 31
0.0
  0
LINE
  5
2ED
330
4A0
100
AcDbEntity
  8
1
  6
Continuous
100
AcDbLine
 10
104.7830551617798
 20
123.1984349687356
 30
0.0
 11
102.7830551617798
 21
123.1984349687356
 31
0.0
  0
ARC
  5
2EE
330
4A0
100
AcDbEntity
  8
1
  6
Continuous
100
AcDbCircle
 10
103.2830551617798
 20
121.285830909843
 30
0.0
 40
0.5
100
AcDbArc
 50
180.0
 51
0.0
  0
LINE
  5
2EF
330
4A0
100
AcDbEntity
  8
1
  6
Continuous
100
AcDbLine
 10
102.9513691603552
 20
131.2112252913183
 30
0.0
 11
104.8251023192917
 21
130.7091600045482
 31
0.0
  0
LINE
  5
2F0
330
4A0
100
AcDbEntity
  8
1
  6
Continuous
100
AcDbLine
 10
104.7830551617798
 20
127.853700440081
 30
0.0
 11
104.7830551617798
 21
129.053700440081
 31
0.0
  0
LINE
  5
2F1
330
4A0
100
AcDbEntity
  8
1
  6
Continuous
100
AcDbLine
 10
103.7830551617798
 20
127.2919085284822
 30
0.0
 11
103.7830551617798
 21
126.1419085284822
 31
0.0
  0
LINE
  5
2F2
330
4A0
100
AcDbEntity
  8
1
  6
Continuous
100
AcDbLine
 10
104.7830551617798
 20
126.1419085284822
 30
0.0
 11
102.7830551617798
 21
126.1419085284822
 31
0.0
  0
LINE
  5
2F3
330
4A0
100
AcDbEntity
  8
1
  6
Continuous
100
AcDbLine
 10
104.7830551617798
 20
127.2919085284822
 30
0.0
 11
102.7830551617798
 21
127.2919085284822
 31
0.0
  0
LINE
  5
2F4
330
4A0
100
AcDbEntity
  8
1
  6
Continuous
100
AcDbLine
 10
104.7830551617798
 20
128.453700440081
 30
0.0
 11
102.7830551617798
 21
128.453700440081
 31
0.0
  0
ARC
  5
2F5
330
4A0
100
AcDbEntity
  8
1
  6
Continuous
100
AcDbCircle
 10
103.7830551617798
 20
131.2152986787787
 30
0.0
 40
1.145412728988864
100
AcDbArc
 50
242.2496545546281
 51
324.4623222079991
  0
ARC
  5
2F6
330
4A0
100
AcDbEntity
  8
1
  6
Continuous
100
AcDbCircle
 10
103.7830551617798
 20
131.2152986787787
 30
0.0
 40
1.145412728988864
100
AcDbArc
 50
215.5376777919479
 51
225.6988392796166
  0
LINE
  5
2F7
330
4A0
100
AcDbEntity
  8
1
  6
Continuous
100
AcDbLine
 10
103.7830551617798
 20
130.0698859497898
 30
0.0
 11
103.7830551617798
 21
130.9883756988795
 31
0.0
  0
LINE
  5
2F8
330
4A0
100
AcDbEntity
  8
1
  6
Continuous
100
AcDbLine
 10
102.9630655799414
 20
136.3263482328234
 30
0.0
 11
104.6030447436254
 21
136.3263482328234
 31
0.0
  0
ARC
  5
2F9
330
4A0
100
AcDbEntity
  8
1
  6
Continuous
100
AcDbCircle
 10
104.6030447436254
 20
136.1041286869953
 30
0.0
 40
0.2222195458280301
100
AcDbArc
 50
26.0143659996368
 51
90.0
  0
ARC
  5
2FA
330
4A0
100
AcDbEntity
  8
1
  6
Continuous
100
AcDbCircle
 10
100.0497667918726
 20
133.881933228715
 30
0.0
 40
5.288825190707116
100
AcDbArc
 50
22.94395355653777
 51
26.0143659996368
  0
ARC
  5
2FB
330
4A0
100
AcDbEntity
  8
1
  6
Continuous
100
AcDbCircle
 10
104.8792473663401
 20
135.9263530503328
 30
0.0
 40
0.044443909165606
100
AcDbArc
 50
270.0
 51
22.94395355653777
  0
LINE
  5
2FC
330
4A0
100
AcDbEntity
  8
1
  6
Continuous
100
AcDbLine
 10
104.87924736634
 20
135.8819091411673
 30
0.0
 11
102.6868629572268
 21
135.8819091411673
 31
0.0
  0
ARC
  5
2FD
330
4A0
100
AcDbEntity
  8
1
  6
Continuous
100
AcDbCircle
 10
102.6868629572268
 20
135.9263530503328
 30
0.0
 40
0.044443909165606
100
AcDbArc
 50
157.0560464434621
 51
270.0
  0
ARC
  5
2FE
330
4A0
100
AcDbEntity
  8
1
  6
Continuous
100
AcDbCircle
 10
107.5163435316942
 20
133.881933228715
 30
0.0
 40
5.288825190707116
100
AcDbArc
 50
153.985634000363
 51
157.0560464434621
  0
ARC
  5
2FF
330
4A0
100
AcDbEntity
  8
1
  6
Continuous
100
AcDbCircle
 10
102.9630655799414
 20
136.1041286869953
 30
0.0
 40
0.2222195458280301
100
AcDbArc
 50
90.0
 51
153.985634000363
  0
LINE
  5
300
330
4A0
100
AcDbEntity
  8
1
  6
Continuous
100
AcDbLine
 10
104.316382071767
 20
134.9930309578552
 30
0.0
 11
105.1652588061684
 21
134.9930309578552
 31
0.0
  0
ARC
  5
301
330
4A0
100
AcDbEntity
  8
1
  6
Continuous
100
AcDbCircle
 10
104.9377886622196
 20
135.2152505036832
 30
0.0
 40
0.2222195458280301
100
AcDbArc
 50
15.25752329045661
 51
90.0
  0
LINE
  5
302
330
4A0
100
AcDbEntity
  8
1
  6
Continuous
100
AcDbLine
 10
104.9377886622196
 20
135.4374700495113
 30
0.0
 11
102.6283216613472
 21
135.4374700495113
 31
0.0
  0
ARC
  5
303
330
4A0
100
AcDbEntity
  8
1
  6
Continuous
100
AcDbCircle
 10
102.6283216613472
 20
135.2152505036832
 30
0.0
 40
0.2222195458280301
100
AcDbArc
 50
90.0
 51
164.7424767095432
  0
ARC
  5
304
330
4A0
100
AcDbEntity
  8
1
  6
Continuous
100
AcDbCircle
 10
107.5163435316942
 20
133.881933228715
 30
0.0
 40
5.288825190707116
100
AcDbArc
 50
164.7424767095432
 51
164.793712123942
  0
ARC
  5
305
330
4A0
100
AcDbEntity
  8
1
  6
Continuous
100
AcDbCircle
 10
107.5163435316942
 20
133.881933228715
 30
0.0
 40
5.288825190707116
100
AcDbArc
 50
164.793712123942
 51
167.271056126877
  0
ARC
  5
306
330
4A0
100
AcDbEntity
  8
1
  6
Continuous
100
AcDbCircle
 10
102.4008515173984
 20
135.0374748670208
 30
0.0
 40
0.044443909165606
100
AcDbArc
 50
167.271056126877
 51
270.0
  0
LINE
  5
307
330
4A0
100
AcDbEntity
  8
1
  6
Continuous
100
AcDbLine
 10
102.4008515173984
 20
134.9930309578552
 30
0.0
 11
103.2497282517925
 21
134.9930309578552
 31
0.0
  0
LINE
  5
308
330
4A0
100
AcDbEntity
  8
1
  6
Continuous
100
AcDbLine
 10
103.7830551617798
 20
134.104152774543
 30
0.0
 11
103.7830551617798
 21
134.5485918661991
 31
0.0
  0
LINE
  5
309
330
4A0
100
AcDbEntity
  8
1
  6
Continuous
100
AcDbLine
 10
104.316382071767
 20
132.7708354995749
 30
0.0
 11
105.0377912841893
 21
132.7708354995749
 31
0.0
  0
ARC
  5
30A
330
4A0
100
AcDbEntity
  8
1
  6
Continuous
100
AcDbCircle
 10
102.3203962461331
 20
133.1708306820653
 30
0.0
 40
0.044443909165606
100
AcDbArc
 50
90.0
 51
187.7929243354225
  0
ARC
  5
30B
330
4A0
100
AcDbEntity
  8
1
  6
Continuous
100
AcDbCircle
 10
107.5163435316942
 20
133.881933228715
 30
0.0
 40
5.288825190707116
100
AcDbArc
 50
187.7929243354225
 51
190.1041827161252
  0
ARC
  5
30C
330
4A0
100
AcDbEntity
  8
1
  6
Continuous
100
AcDbCircle
 10
102.5283190393776
 20
132.9930550454029
 30
0.0
 40
0.2222195458280301
100
AcDbArc
 50
190.1041827161252
 51
270.0
  0
LINE
  5
30D
330
4A0
100
AcDbEntity
  8
1
  6
Continuous
100
AcDbLine
 10
102.5283190393775
 20
132.7708354995749
 30
0.0
 11
103.7830551617798
 21
132.7708354995749
 31
0.0
  0
LINE
  5
30E
330
4A0
100
AcDbEntity
  8
1
  6
Continuous
100
AcDbLine
 10
103.7830551617798
 20
132.7708354995749
 30
0.0
 11
103.7830551617798
 21
132.9930550454029
 31
0.0
  0
LINE
  5
30F
330
4A0
100
AcDbEntity
  8
1
  6
Continuous
100
AcDbLine
 10
105.0346222721209
 20
131.8819573162627
 30
0.0
 11
104.0052747076078
 21
131.8819573162627
 31
0.0
  0
ARC
  5
310
330
4A0
100
AcDbEntity
  8
1
  6
Continuous
100
AcDbCircle
 10
104.0052747076078
 20
131.6597377704348
 30
0.0
 40
0.2222195458280311
100
AcDbArc
 50
90.0
 51
270.0
  0
LINE
  5
311
330
4A0
100
AcDbEntity
  8
1
  6
Continuous
100
AcDbLine
 10
104.0052747076078
 20
131.4375182246067
 30
0.0
 11
104.9547315964551
 21
131.4375182246067
 31
0.0
  0
LINE
  5
312
330
4A0
100
AcDbEntity
  8
1
  6
Continuous
100
AcDbLine
 10
103.7830551617798
 20
131.6597377704347
 30
0.0
 11
102.7170186580213
 21
131.6597377704347
 31
0.0
  0
LINE
  5
313
330
4A0
100
AcDbEntity
  8
4
  6
CENTER
100
AcDbLine
 10
128.78305516178
 20
112.581933228715
 30
0.0
 11
128.78305516178
 21
103.1819332287151
 31
0.0
  0
LINE
  5
314
330
4A0
100
AcDbEntity
  8
4
  6
CENTER
100
AcDbLine
 10
133.48305516178
 20
107.881933228715
 30
0.0
 11
124.08305516178
 21
107.881933228715
 31
0.0
  0
CIRCLE
  5
315
330
4A0
100
AcDbEntity
  8
1
  6
Continuous
100
AcDbCircle
 10
128.78305516178
 20
107.881933228715
 30
0.0
 40
2.5
  0
LINE
  5
316
330
4A0
100
AcDbEntity
  8
1
  6
Continuous
100
AcDbLine
 10
120.7830551617798
 20
125.881933228715
 30
0.0
 11
111.7830551617799
 21
125.881933228715
 31
0.0
  0
LINE
  5
317
330
4A0
100
AcDbEntity
  8
1
  6
Continuous
100
AcDbLine
 10
120.7830551617798
 20
126.881933228715
 30
0.0
 11
111.7830551617799
 21
126.881933228715
 31
0.0
  0
ARC
  5
318
330
4A0
100
AcDbEntity
  8
1
  6
Continuous
100
AcDbCircle
 10
120.2830551617799
 20
126.381933228715
 30
0.0
 40
0.4999999999999716
100
AcDbArc
 50
270.0
 51
90.0
  0
ARC
  5
319
330
4A0
100
AcDbEntity
  8
1
  6
Continuous
100
AcDbCircle
 10
111.7830551617799
 20
125.881933228715
 30
0.0
 40
1.0
100
AcDbArc
 50
90.0
 51
180.0
  0
ARC
  5
31A
330
4A0
100
AcDbEntity
  8
1
  6
Continuous
100
AcDbCircle
 10
112.2830551617798
 20
126.3819332287151
 30
0.0
 40
0.4999999999999716
100
AcDbArc
 50
90.0
 51
270.0
  0
ARC
  5
31B
330
4A0
100
AcDbEntity
  8
1
  6
Continuous
100
AcDbCircle
 10
100.0497667918726
 20
133.881933228715
 30
0.0
 40
5.288825190707116
100
AcDbArc
 50
12.72894387312288
 51
13.26811897055641
  0
ARC
  5
31C
330
4A0
100
AcDbEntity
  8
1
  6
Continuous
100
AcDbCircle
 10
100.0497667918726
 20
133.881933228715
 30
0.0
 40
5.288825190707116
100
AcDbArc
 50
349.8958172838745
 51
352.2070756645772
  0
ARC
  5
31D
330
4A0
100
AcDbEntity
  8
1
  6
Continuous
100
AcDbCircle
 10
105.2457140774338
 20
133.1708306820653
 30
0.0
 40
0.044443909165606
100
AcDbArc
 50
352.2070756645772
 51
90.0
  0
ARC
  5
31E
330
4A0
100
AcDbEntity
  8
1
  6
Continuous
100
AcDbCircle
 10
120.7830551617798
 20
126.881933228715
 30
0.0
 40
1.0
100
AcDbArc
 50
270.0
 51
0.0
  0
LINE
  5
31F
330
4A0
100
AcDbEntity
  8
1
  6
Continuous
100
AcDbLine
 10
192.1742010783359
 20
88.8819332287151
 30
0.0
 11
192.1742010783359
 21
125.881933228715
 31
0.0
  0
LINE
  5
320
330
4A0
100
AcDbEntity
  8
1
  6
Continuous
100
AcDbLine
 10
185.6742010783491
 20
88.8819332287151
 30
0.0
 11
185.6742010783491
 21
125.881933228715
 31
0.0
  0
LINE
  5
321
330
4A0
100
AcDbEntity
  8
1
  6
Continuous
100
AcDbLine
 10
187.6742010783491
 20
87.88193322871505
 30
0.0
 11
192.6742010783492
 21
87.88193322871505
 31
0.0
  0
LINE
  5
322
330
4A0
100
AcDbEntity
  8
1
  6
Continuous
100
AcDbLine
 10
194.6742010783579
 20
88.88193322871513
 30
0.0
 11
185.6742010783491
 21
88.8819332287151
 31
0.0
  0
LINE
  5
323
330
4A0
100
AcDbEntity
  8
1
  6
Continuous
100
AcDbLine
 10
187.324201078349
 20
88.8819332287151
 30
0.0
 11
187.6742010783489
 21
87.88193322871505
 31
0.0
  0
LINE
  5
324
330
4A0
100
AcDbEntity
  8
1
  6
Continuous
100
AcDbLine
 10
193.0242010783491
 20
88.8819332287151
 30
0.0
 11
192.6742010783492
 21
87.88193322871519
 31
0.0
  0
LINE
  5
325
330
4A0
100
AcDbEntity
  8
4
  6
CENTER
100
AcDbLine
 10
191.1742010783557
 20
107.881933228715
 30
0.0
 11
196.1742010783559
 21
107.881933228715
 31
0.0
  0
LINE
  5
326
330
4A0
100
AcDbEntity
  8
1
  6
Continuous
100
AcDbLine
 10
192.6742010783156
 20
126.881933228715
 30
0.0
 11
185.6742010783491
 21
126.881933228715
 31
0.0
  0
LINE
  5
327
330
4A0
100
AcDbEntity
  8
1
  6
Continuous
100
AcDbLine
 10
192.6742010783186
 20
125.881933228715
 30
0.0
 11
185.6742010783491
 21
125.881933228715
 31
0.0
  0
ARC
  5
328
330
4A0
100
AcDbEntity
  8
1
  6
Continuous
100
AcDbCircle
 10
186.1742010783491
 20
126.3819332287151
 30
0.0
 40
0.4999999999999716
100
AcDbArc
 50
90.0
 51
270.0
  0
LINE
  5
329
330
4A0
100
AcDbEntity
  8
1
  6
Continuous
100
AcDbLine
 10
43.69190924532252
 20
156.381933228714
 30
0.0
 11
43.17809007168704
 21
156.381933228714
 31
0.0
  0
LINE
  5
32A
330
4A0
100
AcDbEntity
  8
1
  6
Continuous
100
AcDbLine
 10
43.69190924532252
 20
151.3819332287142
 30
0.0
 11
40.88912203515293
 21
151.3819332287145
 31
0.0
  0
LINE
  5
32B
330
4A0
100
AcDbEntity
  8
3
  6
DASHED
100
AcDbLine
 10
43.64190924521079
 20
163.3819332287051
 30
0.0
 11
41.14190924521068
 21
163.3819332287052
 31
0.0
  0
LINE
  5
32C
330
4A0
100
AcDbEntity
  8
1
  6
Continuous
100
AcDbLine
 10
37.89190924522594
 20
163.881933228715
 30
0.0
 11
46.89190924521067
 21
163.881933228715
 31
0.0
  0
LINE
  5
32D
330
4A0
100
AcDbEntity
  8
3
  6
DASHED
100
AcDbLine
 10
39.891909245211
 20
157.7819332287156
 30
0.0
 11
44.8919092452109
 21
157.7819332287156
 31
0.0
  0
LINE
  5
32E
330
4A0
100
AcDbEntity
  8
3
  6
DASHED
100
AcDbLine
 10
39.89190924521068
 20
156.7819332287158
 30
0.0
 11
44.89190924521079
 21
156.7819332287156
 31
0.0
  0
LINE
  5
32F
330
4A0
100
AcDbEntity
  8
3
  6
DASHED
100
AcDbLine
 10
39.89190924521079
 20
150.481933228714
 30
0.0
 11
44.89190924521278
 21
150.4819332287208
 31
0.0
  0
LINE
  5
330
330
4A0
100
AcDbEntity
  8
3
  6
DASHED
100
AcDbLine
 10
39.89190924521057
 20
163.8819332287151
 30
0.0
 11
39.89190924521057
 21
149.3819332286917
 31
0.0
  0
LINE
  5
331
330
4A0
100
AcDbEntity
  8
1
  6
Continuous
100
AcDbLine
 10
40.89190924522593
 20
158.2763819532543
 30
0.0
 11
40.89190924522593
 21
151.4874845041787
 31
0.0
  0
LINE
  5
332
330
4A0
100
AcDbEntity
  8
1
  6
Continuous
100
AcDbLine
 10
38.89190924522594
 20
158.88193322872
 30
0.0
 11
38.89190924522594
 21
150.881933228715
 31
0.0
  0
LINE
  5
333
330
4A0
100
AcDbEntity
  8
3
  6
DASHED
100
AcDbLine
 10
41.14190924521068
 20
163.3819332287052
 30
0.0
 11
39.8919092452109
 21
157.7819332287156
 31
0.0
  0
LINE
  5
334
330
4A0
100
AcDbEntity
  8
4
  6
CENTER
100
AcDbLine
 10
41.39190924521584
 20
144.881933228715
 30
0.0
 11
36.39190924521573
 21
144.881933228715
 31
0.0
  0
LINE
  5
335
330
4A0
100
AcDbEntity
  8
1
  6
Continuous
100
AcDbLine
 10
38.49190924532253
 20
156.381933228714
 30
0.0
 11
38.49190924532251
 21
151.3819332287549
 31
0.0
  0
LINE
  5
336
330
4A0
100
AcDbEntity
  8
3
  6
DASHED
100
AcDbLine
 10
41.14190924521079
 20
156.7819332287158
 30
0.0
 11
41.14190924521079
 21
150.4819332287157
 31
0.0
  0
LINE
  5
337
330
4A0
100
AcDbEntity
  8
1
  6
Continuous
100
AcDbLine
 10
38.89190924522594
 20
150.881933228715
 30
0.0
 11
38.22780865655036
 21
149.8857823457016
 31
0.0
  0
ARC
  5
338
330
4A0
100
AcDbEntity
  8
1
  6
Continuous
100
AcDbCircle
 10
39.89190924522594
 20
148.7763819532511
 30
0.0
 40
2.0
100
AcDbArc
 50
146.3099324740175
 51
180.0
  0
LINE
  5
339
330
4A0
100
AcDbEntity
  8
1
  6
Continuous
100
AcDbLine
 10
38.89190924522594
 20
151.3819332287547
 30
0.0
 11
37.89190924511245
 21
151.3819332287553
 31
0.0
  0
LINE
  5
33A
330
4A0
100
AcDbEntity
  8
1
  6
Continuous
100
AcDbLine
 10
39.89190924522625
 20
149.3819332287151
 30
0.0
 11
40.55600983390166
 21
150.3780841117282
 31
0.0
  0
ARC
  5
33B
330
4A0
100
AcDbEntity
  8
1
  6
Continuous
100
AcDbCircle
 10
38.89190924522594
 20
151.4874845041787
 30
0.0
 40
2.0
100
AcDbArc
 50
326.3099324740192
 51
0.0
  0
LINE
  5
33C
330
4A0
100
AcDbEntity
  8
1
  6
Continuous
100
AcDbLine
 10
38.89190924522597
 20
156.7819332287151
 30
0.0
 11
38.51469242685811
 21
156.7819332287151
 31
0.0
  0
LINE
  5
33D
330
4A0
100
AcDbEntity
  8
1
  6
Continuous
100
AcDbLine
 10
38.51469242685811
 20
156.7819332287151
 30
0.0
 11
38.51469242685811
 21
156.381933228714
 31
0.0
  0
LINE
  5
33E
330
4A0
100
AcDbEntity
  8
1
  6
Continuous
100
AcDbLine
 10
38.89190924522597
 20
156.381933228714
 30
0.0
 11
38.49190924532251
 21
156.381933228714
 31
0.0
  0
LINE
  5
33F
330
4A0
100
AcDbEntity
  8
1
  6
Continuous
100
AcDbLine
 10
38.49190924532251
 20
154.3819332289468
 30
0.0
 11
37.89190924522625
 21
154.3819332289477
 31
0.0
  0
LINE
  5
340
330
4A0
100
AcDbEntity
  8
3
  6
DASHED
100
AcDbLine
 10
39.891909245211
 20
157.7819332287156
 30
0.0
 11
39.89190924521068
 21
156.7819332287158
 31
0.0
  0
LINE
  5
341
330
4A0
100
AcDbEntity
  8
1
  6
Continuous
100
AcDbLine
 10
43.17809007168704
 20
156.7819332287151
 30
0.0
 11
43.17809007168704
 21
156.381933228714
 31
0.0
  0
LINE
  5
342
330
4A0
100
AcDbEntity
  8
1
  6
Continuous
100
AcDbLine
 10
43.17809007168704
 20
156.7819332287151
 30
0.0
 11
40.89190924522593
 21
156.7819332287151
 31
0.0
  0
LINE
  5
343
330
4A0
100
AcDbEntity
  8
1
  6
Continuous
100
AcDbLine
 10
39.89190924522594
 20
163.8819332287149
 30
0.0
 11
39.89190924522594
 21
160.3819332287151
 31
0.0
  0
LINE
  5
344
330
4A0
100
AcDbEntity
  8
1
  6
Continuous
100
AcDbLine
 10
40.39190924522389
 20
163.881933228715
 30
0.0
 11
40.39190924522389
 21
159.6319332287205
 31
0.0
  0
LINE
  5
345
330
4A0
100
AcDbEntity
  8
1
  6
Continuous
100
AcDbLine
 10
38.89190924522594
 20
158.3819332286753
 30
0.0
 11
37.89190924511245
 21
158.3819332286748
 31
0.0
  0
LINE
  5
346
330
4A0
100
AcDbEntity
  8
1
  6
Continuous
100
AcDbLine
 10
38.89190924522594
 20
158.88193322872
 30
0.0
 11
38.22780865655195
 21
159.8780841117277
 31
0.0
  0
ARC
  5
347
330
4A0
100
AcDbEntity
  8
1
  6
Continuous
100
AcDbCircle
 10
39.89190924522594
 20
160.9874845041808
 30
0.0
 40
2.0
100
AcDbArc
 50
180.0
 51
213.6900675260686
  0
LINE
  5
348
330
4A0
100
AcDbEntity
  8
1
  6
Continuous
100
AcDbLine
 10
39.89190924522594
 20
160.381933228715
 30
0.0
 11
40.55600983389984
 21
159.3857823457073
 31
0.0
  0
ARC
  5
349
330
4A0
100
AcDbEntity
  8
1
  6
Continuous
100
AcDbCircle
 10
38.89190924522594
 20
158.2763819532543
 30
0.0
 40
2.0
100
AcDbArc
 50
0.0
 51
33.69006752606877
  0
LINE
  5
34A
330
4A0
100
AcDbEntity
  8
3
  6
DASHED
100
AcDbLine
 10
43.64190924521079
 20
163.3819332287051
 30
0.0
 11
44.8919092452109
 21
157.7819332287156
 31
0.0
  0
LINE
  5
34B
330
4A0
100
AcDbEntity
  8
1
  6
Continuous
100
AcDbLine
 10
43.69190924532252
 20
156.381933228714
 30
0.0
 11
43.69190924532252
 21
151.3819332287142
 31
0.0
  0
LINE
  5
34C
330
4A0
100
AcDbEntity
  8
3
  6
DASHED
100
AcDbLine
 10
43.6419092452109
 20
156.7819332287156
 30
0.0
 11
43.6419092452109
 21
150.4819332287157
 31
0.0
  0
LINE
  5
34D
330
4A0
100
AcDbEntity
  8
1
  6
Continuous
100
AcDbLine
 10
120.0247125485688
 20
216.7571992724173
 30
0.0
 11
136.2830551617948
 21
216.7571992724173
 31
0.0
  0
LINE
  5
34E
330
4A0
100
AcDbEntity
  8
1
  6
Continuous
100
AcDbLine
 10
96.28305516179501
 20
218.7571992724237
 30
0.0
 11
136.2830551617655
 21
218.7571992724109
 31
0.0
  0
ARC
  5
34F
330
4A0
100
AcDbEntity
  8
1
  6
Continuous
100
AcDbCircle
 10
134.2830551617799
 20
161.881933228715
 30
0.0
 40
2.0
100
AcDbArc
 50
0.0
 51
90.0
  0
LINE
  5
350
330
4A0
100
AcDbEntity
  8
1
  6
Continuous
100
AcDbLine
 10
120.7830551617798
 20
163.881933228715
 30
0.0
 11
98.28305516177991
 21
163.881933228715
 31
0.0
  0
LINE
  5
351
330
4A0
100
AcDbEntity
  8
4
  6
CENTER
100
AcDbLine
 10
99.08305516177982
 20
144.881933228715
 30
0.0
 11
108.4830551617797
 21
144.881933228715
 31
0.0
  0
LINE
  5
352
330
4A0
100
AcDbEntity
  8
1
  6
Continuous
100
AcDbLine
 10
111.7830551617799
 20
158.381933228715
 30
0.0
 11
101.5830551618911
 21
158.381933228715
 31
0.0
  0
LINE
  5
353
330
4A0
100
AcDbEntity
  8
1
  6
Continuous
100
AcDbLine
 10
111.7830551617799
 20
151.381933228714
 30
0.0
 11
101.5830551618922
 21
151.381933228715
 31
0.0
  0
CIRCLE
  5
354
330
4A0
100
AcDbEntity
  8
1
  6
Continuous
100
AcDbCircle
 10
103.7830551617796
 20
144.881933228715
 30
0.0
 40
2.5
  0
LINE
  5
355
330
4A0
100
AcDbEntity
  8
1
  6
Continuous
100
AcDbLine
 10
110.6437374549702
 20
156.7819332287151
 30
0.0
 11
103.9522130527026
 21
156.7819332287151
 31
0.0
  0
LINE
  5
356
330
4A0
100
AcDbEntity
  8
1
  6
Continuous
100
AcDbLine
 10
101.283055161892
 20
151.681933228715
 30
0.0
 11
101.2830551618912
 21
158.081933228715
 31
0.0
  0
LINE
  5
357
330
4A0
100
AcDbEntity
  8
4
  6
CENTER
100
AcDbLine
 10
103.7830551617798
 20
149.581933228715
 30
0.0
 11
103.7830551617798
 21
140.1819332287151
 31
0.0
  0
ARC
  5
358
330
4A0
100
AcDbEntity
  8
1
  6
Continuous
100
AcDbCircle
 10
103.7830551617798
 20
136.5485677786514
 30
0.0
 40
1.145412728988862
100
AcDbArc
 50
35.53767779200097
 51
76.53743939173245
  0
ARC
  5
359
330
4A0
100
AcDbEntity
  8
1
  6
Continuous
100
AcDbCircle
 10
103.7830551617798
 20
136.5485677786514
 30
0.0
 40
1.145412728988862
100
AcDbArc
 50
90.0
 51
144.4623222080521
  0
LINE
  5
35A
330
4A0
100
AcDbEntity
  8
1
  6
Continuous
100
AcDbLine
 10
105.0020229791883
 20
136.7707873244794
 30
0.0
 11
103.0861974944577
 21
136.7707873244794
 31
0.0
  0
LINE
  5
35B
330
4A0
100
AcDbEntity
  8
1
  6
Continuous
100
AcDbLine
 10
96.28305516177984
 20
150.7152665620486
 30
0.0
 11
101.283055161892
 21
150.7152665620486
 31
0.0
  0
LINE
  5
35C
330
4A0
100
AcDbEntity
  8
1
  6
Continuous
100
AcDbLine
 10
96.28305516177984
 20
149.3819332287151
 30
0.0
 11
101.283055161892
 21
149.3819332287151
 31
0.0
  0
LINE
  5
35D
330
4A0
100
AcDbEntity
  8
1
  6
Continuous
100
AcDbLine
 10
101.7830551617796
 20
151.381933228714
 30
0.0
 11
101.7830551617796
 21
156.3819332287161
 31
0.0
  0
ARC
  5
35E
330
4A0
100
AcDbEntity
  8
1
  6
Continuous
100
AcDbCircle
 10
101.283055161892
 20
151.7152665620486
 30
0.0
 40
1.0
100
AcDbArc
 50
270.0
 51
340.5287793654945
  0
ARC
  5
35F
330
4A0
100
AcDbEntity
  8
1
  6
Continuous
100
AcDbCircle
 10
101.283055161892
 20
151.7152665620486
 30
0.0
 40
2.3333333333334
100
AcDbArc
 50
270.0
 51
351.7867892982562
  0
ARC
  5
360
330
4A0
100
AcDbEntity
  8
1
  6
Continuous
100
AcDbCircle
 10
101.5830551618922
 20
151.6819332287151
 30
0.0
 40
0.3
100
AcDbArc
 50
180.0
 51
270.0
  0
LINE
  5
361
330
4A0
100
AcDbEntity
  8
1
  6
Continuous
100
AcDbLine
 10
103.9522130527026
 20
156.381933228714
 30
0.0
 11
101.2830551618914
 21
156.381933228714
 31
0.0
  0
LINE
  5
362
330
4A0
100
AcDbEntity
  8
1
  6
Continuous
100
AcDbLine
 10
103.9522130527026
 20
156.7819332287151
 30
0.0
 11
103.9522130527026
 21
156.3819332287153
 31
0.0
  0
ARC
  5
363
330
4A0
100
AcDbEntity
  8
1
  6
Continuous
100
AcDbCircle
 10
98.28305516177991
 20
161.881933228715
 30
0.0
 40
2.0
100
AcDbArc
 50
90.0
 51
180.0
  0
LINE
  5
364
330
4A0
100
AcDbEntity
  8
1
  6
Continuous
100
AcDbLine
 10
96.28305516177995
 20
160.381933228715
 30
0.0
 11
101.283055161892
 21
160.381933228715
 31
0.0
  0
LINE
  5
365
330
4A0
100
AcDbEntity
  8
1
  6
Continuous
100
AcDbLine
 10
96.2900117045963
 20
159.0485998953816
 30
0.0
 11
101.283055161892
 21
159.0485998953816
 31
0.0
  0
ARC
  5
366
330
4A0
100
AcDbEntity
  8
1
  6
Continuous
100
AcDbCircle
 10
101.283055161892
 20
158.0485998953816
 30
0.0
 40
1.0
100
AcDbArc
 50
19.47122063449294
 51
90.0
  0
ARC
  5
367
330
4A0
100
AcDbEntity
  8
1
  6
Continuous
100
AcDbCircle
 10
101.283055161892
 20
158.0485998953816
 30
0.0
 40
2.3333333333334
100
AcDbArc
 50
8.213210701743673
 51
90.0
  0
ARC
  5
368
330
4A0
100
AcDbEntity
  8
1
  6
Continuous
100
AcDbCircle
 10
101.5830551618911
 20
158.081933228715
 30
0.0
 40
0.3
100
AcDbArc
 50
90.0
 51
180.0
  0
LINE
  5
369
330
4A0
100
AcDbEntity
  8
3
  6
DASHED
100
AcDbLine
 10
117.5330551617798
 20
163.3819332287052
 30
0.0
 11
118.7830551617797
 21
157.7819332287156
 31
0.0
  0
LINE
  5
36A
330
4A0
100
AcDbEntity
  8
3
  6
DASHED
100
AcDbLine
 10
115.0330551617798
 20
163.3819332287051
 30
0.0
 11
113.7830551617797
 21
157.7819332287158
 31
0.0
  0
LINE
  5
36B
330
4A0
100
AcDbEntity
  8
1
  6
Continuous
100
AcDbLine
 10
111.2830551617797
 20
151.381933228714
 30
0.0
 11
111.2830551617796
 21
156.3819332287162
 31
0.0
  0
LINE
  5
36C
330
4A0
100
AcDbEntity
  8
1
  6
Continuous
100
AcDbLine
 10
111.7830551617799
 20
156.381933228714
 30
0.0
 11
109.1335363679996
 21
156.381933228714
 31
0.0
  0
LINE
  5
36D
330
4A0
100
AcDbEntity
  8
1
  6
Continuous
100
AcDbLine
 10
110.6437374549702
 20
156.7819332287151
 30
0.0
 11
110.6437374549701
 21
156.3819332287153
 31
0.0
  0
LINE
  5
36E
330
4A0
100
AcDbEntity
  8
1
  6
Continuous
100
AcDbLine
 10
109.1335363679995
 20
156.781933228715
 30
0.0
 11
109.1335363679996
 21
156.3819332287152
 31
0.0
  0
LINE
  5
36F
330
4A0
100
AcDbEntity
  8
3
  6
DASHED
100
AcDbLine
 10
117.5330551617798
 20
156.7819332287158
 30
0.0
 11
117.5330551617798
 21
150.4819332287157
 31
0.0
  0
LINE
  5
370
330
4A0
100
AcDbEntity
  8
3
  6
DASHED
100
AcDbLine
 10
115.0330551617796
 20
156.7819332287156
 30
0.0
 11
115.0330551617796
 21
150.4819332287157
 31
0.0
  0
LINE
  5
371
330
4A0
100
AcDbEntity
  8
3
  6
DASHED
100
AcDbLine
 10
118.7830551617798
 20
150.481933228714
 30
0.0
 11
113.7830551617778
 21
150.4819332287208
 31
0.0
  0
LINE
  5
372
330
4A0
100
AcDbEntity
  8
3
  6
DASHED
100
AcDbLine
 10
118.7830551617796
 20
157.7819332287156
 30
0.0
 11
113.7830551617797
 21
157.7819332287156
 31
0.0
  0
LINE
  5
373
330
4A0
100
AcDbEntity
  8
3
  6
DASHED
100
AcDbLine
 10
118.7830551617798
 20
156.7819332287158
 30
0.0
 11
113.7830551617798
 21
156.7819332287156
 31
0.0
  0
LINE
  5
374
330
4A0
100
AcDbEntity
  8
4
  6
CENTER
100
AcDbLine
 10
128.7830551617801
 20
149.581933228715
 30
0.0
 11
128.7830551617801
 21
140.1819332287151
 31
0.0
  0
CIRCLE
  5
375
330
4A0
100
AcDbEntity
  8
1
  6
Continuous
100
AcDbCircle
 10
128.7830551617801
 20
144.881933228715
 30
0.0
 40
2.5
  0
LINE
  5
376
330
4A0
100
AcDbEntity
  8
4
  6
CENTER
100
AcDbLine
 10
133.48305516178
 20
144.881933228715
 30
0.0
 11
124.08305516178
 21
144.881933228715
 31
0.0
  0
LINE
  5
377
330
4A0
100
AcDbEntity
  8
3
  6
DASHED
100
AcDbLine
 10
115.0330551617798
 20
163.3819332287051
 30
0.0
 11
117.5330551617798
 21
163.3819332287052
 31
0.0
  0
LINE
  5
378
330
4A0
100
AcDbEntity
  8
1
  6
Continuous
100
AcDbLine
 10
134.2830551617799
 20
163.881933228715
 30
0.0
 11
122.7830551617798
 21
163.881933228715
 31
0.0
  0
ARC
  5
379
330
4A0
100
AcDbEntity
  8
1
  6
Continuous
100
AcDbCircle
 10
122.7830551617798
 20
162.8819332287151
 30
0.0
 40
1.0
100
AcDbArc
 50
90.0
 51
180.0
  0
LINE
  5
37A
330
4A0
100
AcDbEntity
  8
1
  6
Continuous
100
AcDbLine
 10
96.28305516183074
 20
216.7571992723528
 30
0.0
 11
116.2830551617868
 21
216.7571992724174
 31
0.0
  0
ARC
  5
37B
330
4A0
100
AcDbEntity
  8
3
  6
DASHED
100
AcDbCircle
 10
105.1946473158135
 20
217.6344160908584
 30
0.0
 40
0.5
100
AcDbArc
 50
73.75422936233807
 51
149.7179858944124
  0
ARC
  5
37C
330
4A0
100
AcDbEntity
  8
5
  6
PHANTOM
100
AcDbCircle
 10
105.172748175152
 20
218.161688902726
 30
0.0
 40
0.5
100
AcDbArc
 50
82.64440548472128
 51
158.6081620167944
  0
LINE
  5
37D
330
4A0
100
AcDbEntity
  8
3
  6
DASHED
100
AcDbLine
 10
102.1342317037036
 20
218.0207531582767
 30
0.0
 11
109.3342389951347
 21
213.8164400003825
 31
0.0
  0
LINE
  5
37E
330
4A0
100
AcDbEntity
  8
5
  6
PHANTOM
100
AcDbLine
 10
110.4035623887879
 20
214.3839085765206
 30
0.0
 11
101.9434966683522
 21
217.6979818920224
 31
0.0
  0
LINE
  5
37F
330
4A0
100
AcDbEntity
  8
1
  6
Continuous
100
AcDbLine
 10
103.504857119969
 20
216.7571992724173
 30
0.0
 11
109.7787985939875
 21
213.0936453865114
 31
0.0
  0
LINE
  5
380
330
4A0
100
AcDbEntity
  8
3
  6
DASHED
100
AcDbLine
 10
101.6299751358962
 20
218.157199272394
 30
0.0
 11
96.28305516179501
 21
218.157199272394
 31
0.0
  0
LINE
  5
381
330
4A0
100
AcDbEntity
  8
1
  6
Continuous
100
AcDbLine
 10
100.6066904426087
 20
215.7571992724173
 30
0.0
 11
96.28305516179501
 21
215.7571992724173
 31
0.0
  0
LINE
  5
382
330
4A0
100
AcDbEntity
  8
3
  6
DASHED
100
AcDbLine
 10
101.6299751358961
 20
217.757199272394
 30
0.0
 11
96.28305516179501
 21
217.757199272394
 31
0.0
  0
LINE
  5
383
330
4A0
100
AcDbEntity
  8
1
  6
Continuous
100
AcDbLine
 10
96.28305516179501
 20
215.7571992724173
 30
0.0
 11
96.28305516179501
 21
218.7571992724174
 31
0.0
  0
LINE
  5
384
330
4A0
100
AcDbEntity
  8
4
  6
CENTER
100
AcDbLine
 10
103.7830551617949
 20
215.2571992724173
 30
0.0
 11
103.7830551617949
 21
220.2571992724174
 31
0.0
  0
LINE
  5
385
330
4A0
100
AcDbEntity
  8
1
  6
Continuous
100
AcDbLine
 10
101.8205895118374
 20
216.1677185239571
 30
0.0
 11
102.5924562386658
 21
216.7571992724172
 31
0.0
  0
ARC
  5
386
330
4A0
100
AcDbEntity
  8
1
  6
Continuous
100
AcDbCircle
 10
100.6066904426087
 20
217.7571992724173
 30
0.0
 40
2.0
100
AcDbArc
 50
270.0
 51
307.3692597852015
  0
LINE
  5
387
330
4A0
100
AcDbEntity
  8
5
  6
PHANTOM
100
AcDbLine
 10
104.265995458682
 20
217.2177820163614
 30
0.0
 11
102.0893943275317
 21
218.0704250058612
 31
0.0
  0
LINE
  5
388
330
4A0
100
AcDbEntity
  8
1
  6
Continuous
100
AcDbLine
 10
104.1034098637964
 20
216.757199272378
 30
0.0
 11
103.9512130527163
 21
216.4965578528749
 31
0.0
  0
LINE
  5
389
330
4A0
100
AcDbEntity
  8
5
  6
PHANTOM
100
AcDbLine
 10
104.7071942828535
 20
218.3440609767003
 30
0.0
 11
104.1200977995025
 21
216.8453389025226
 31
0.0
  0
LINE
  5
38A
330
4A0
100
AcDbEntity
  8
3
  6
DASHED
100
AcDbLine
 10
104.7628703728721
 20
217.8865443747621
 30
0.0
 11
104.1034098637964
 21
216.757199272378
 31
0.0
  0
ARC
  5
38B
330
4A0
100
AcDbEntity
  8
3
  6
DASHED
100
AcDbCircle
 10
101.6299751358962
 20
217.157199272394
 30
0.0
 40
1.0
100
AcDbArc
 50
61.37454609645601
 51
90.00000000000005
  0
ARC
  5
38C
330
4A0
100
AcDbEntity
  8
3
  6
DASHED
100
AcDbCircle
 10
101.6299751358961
 20
217.157199272394
 30
0.0
 40
0.6000000000000001
100
AcDbArc
 50
61.37454609645786
 51
90.00000000000005
  0
LINE
  5
38D
330
4A0
100
AcDbEntity
  8
3
  6
DASHED
100
AcDbLine
 10
101.9325290765806
 20
217.6753316039236
 30
0.0
 11
103.504857119969
 21
216.7571992724173
 31
0.0
  0
ARC
  5
38E
330
4A0
100
AcDbEntity
  8
1
  6
Continuous
100
AcDbCircle
 10
116.2830551617949
 20
214.2571992724174
 30
0.0
 40
4.499999999999943
100
AcDbArc
 50
146.2510114042974
 51
90.00000000018239
  0
LINE
  5
38F
330
4A0
100
AcDbEntity
  8
4
  6
CENTER
100
AcDbLine
 10
110.2330551617948
 20
214.2571992724174
 30
0.0
 11
122.333055161795
 21
214.2571992724174
 31
0.0
  0
LINE
  5
390
330
4A0
100
AcDbEntity
  8
4
  6
CENTER
100
AcDbLine
 10
116.2830551617949
 20
208.2071992724173
 30
0.0
 11
116.2830551617949
 21
220.3071992724175
 31
0.0
  0
LINE
  5
391
330
4A0
100
AcDbEntity
  8
1
  6
Continuous
100
AcDbLine
 10
114.0435391205972
 20
215.3683103835212
 30
0.0
 11
112.2519262876392
 21
216.2571992724043
 31
0.0
  0
LINE
  5
392
330
4A0
100
AcDbEntity
  8
5
  6
PHANTOM
100
AcDbLine
 10
111.9781863665373
 20
217.9334492507586
 30
0.0
 11
114.6457495864266
 21
218.3507099221547
 31
0.0
  0
LINE
  5
393
330
4A0
100
AcDbEntity
  8
5
  6
PHANTOM
100
AcDbLine
 10
111.9163699707748
 20
218.3286438018532
 30
0.0
 11
114.5839331906643
 21
218.7459044732493
 31
0.0
  0
LINE
  5
394
330
4A0
100
AcDbEntity
  8
3
  6
DASHED
100
AcDbLine
 10
112.3031054133685
 20
216.3571992724174
 30
0.0
 11
114.583055161795
 21
216.3571992724174
 31
0.0
  0
LINE
  5
395
330
4A0
100
AcDbEntity
  8
3
  6
DASHED
100
AcDbLine
 10
112.541397775021
 20
216.7571992724173
 30
0.0
 11
114.583055161795
 21
216.7571992724173
 31
0.0
  0
ARC
  5
396
330
4A0
100
AcDbEntity
  8
1
  6
Continuous
100
AcDbCircle
 10
111.883055161795
 20
215.7571992724174
 30
0.0
 40
0.6000000000000001
100
AcDbArc
 50
90.00000000000005
 51
180.0
  0
LINE
  5
397
330
4A0
100
AcDbEntity
  8
5
  6
PHANTOM
100
AcDbLine
 10
111.3610983633784
 20
215.4077409547613
 30
0.0
 11
111.0829245824441
 21
217.1861164347106
 31
0.0
  0
LINE
  5
398
330
4A0
100
AcDbEntity
  8
5
  6
PHANTOM
100
AcDbLine
 10
111.7562929144732
 20
215.4695573505237
 30
0.0
 11
111.4781191335389
 21
217.2479328304729
 31
0.0
  0
ARC
  5
399
330
4A0
100
AcDbEntity
  8
1
  6
Continuous
100
AcDbCircle
 10
110.1427374549859
 20
216.1925756091737
 30
0.0
 40
0.5
100
AcDbArc
 50
329.7179858944111
 51
73.75422936233807
  0
LINE
  5
39A
330
4A0
100
AcDbEntity
  8
5
  6
PHANTOM
100
AcDbLine
 10
110.7497711753717
 20
217.3194808197554
 30
0.0
 11
109.706744507085
 21
214.6568740148313
 31
0.0
  0
ARC
  5
39B
330
4A0
100
AcDbEntity
  8
1
  6
Continuous
100
AcDbCircle
 10
111.883055161795
 20
215.7571992724173
 30
0.0
 40
1.0
100
AcDbArc
 50
90.00000000000005
 51
180.0
  0
LINE
  5
39C
330
4A0
100
AcDbEntity
  8
1
  6
Continuous
100
AcDbLine
 10
111.883055161795
 20
216.3571992724174
 30
0.0
 11
112.3031054133685
 21
216.3571992724174
 31
0.0
  0
LINE
  5
39D
330
4A0
100
AcDbEntity
  8
1
  6
Continuous
100
AcDbLine
 10
111.2830551617949
 20
213.957199272394
 30
0.0
 11
111.2830551617949
 21
215.7571992724174
 31
0.0
  0
LINE
  5
39E
330
4A0
100
AcDbEntity
  8
1
  6
Continuous
100
AcDbLine
 10
110.883055161795
 20
213.957199272394
 30
0.0
 11
110.883055161795
 21
215.7571992724173
 31
0.0
  0
LINE
  5
39F
330
4A0
100
AcDbEntity
  8
5
  6
PHANTOM
100
AcDbLine
 10
110.5494600479673
 20
214.7563516903595
 30
0.0
 11
109.8526421662644
 21
215.0293171286701
 31
0.0
  0
LINE
  5
3A0
330
4A0
100
AcDbEntity
  8
1
  6
Continuous
100
AcDbLine
 10
110.5745143979272
 20
215.9404473252697
 30
0.0
 11
109.1325363680117
 21
213.4710184460295
 31
0.0
  0
LINE
  5
3A1
330
4A0
100
AcDbEntity
  8
1
  6
Continuous
100
AcDbLine
 10
109.3342389951347
 20
213.8164400003825
 30
0.0
 11
109.9805012211104
 21
213.4390669408644
 31
0.0
  0
ARC
  5
3A2
330
4A0
100
AcDbEntity
  8
1
  6
Continuous
100
AcDbCircle
 10
110.2830551617949
 20
213.957199272394
 30
0.0
 40
1.0
100
AcDbArc
 50
239.7179858944114
 51
0.0
  0
ARC
  5
3A3
330
4A0
100
AcDbEntity
  8
1
  6
Continuous
100
AcDbCircle
 10
110.2830551617949
 20
213.957199272394
 30
0.0
 40
0.6
100
AcDbArc
 50
239.7179858944114
 51
0.0
  0
ARC
  5
3A4
330
4A0
100
AcDbEntity
  8
5
  6
PHANTOM
100
AcDbCircle
 10
110.7683065367365
 20
215.3150163611178
 30
0.0
 40
0.6
100
AcDbArc
 50
248.6081620167943
 51
8.890176122383069
  0
ARC
  5
3A5
330
4A0
100
AcDbEntity
  8
5
  6
PHANTOM
100
AcDbCircle
 10
110.7683065367365
 20
215.3150163611178
 30
0.0
 40
1.0
100
AcDbArc
 50
248.6081620167943
 51
8.890176122383069
  0
LINE
  5
3A6
330
4A0
100
AcDbEntity
  8
5
  6
PHANTOM
100
AcDbLine
 10
105.2367616706973
 20
218.6575742447035
 30
0.0
 11
110.3482307786185
 21
217.997738235707
 31
0.0
  0
LINE
  5
3A7
330
4A0
100
AcDbEntity
  8
3
  6
DASHED
100
AcDbLine
 10
105.3345263887846
 20
218.1144513447145
 30
0.0
 11
109.9923270821441
 21
216.7571992724173
 31
0.0
  0
ARC
  5
3A8
330
4A0
100
AcDbEntity
  8
5
  6
PHANTOM
100
AcDbCircle
 10
112.0709109601809
 20
217.3406574241165
 30
0.0
 40
0.6000000000000001
100
AcDbArc
 50
98.89017612238387
 51
188.8901761223829
  0
LINE
  5
3A9
330
4A0
100
AcDbEntity
  8
1
  6
Continuous
100
AcDbLine
 10
109.992327082144
 20
216.7571992724173
 30
0.0
 11
110.2826165279571
 21
216.6726108630296
 31
0.0
  0
ARC
  5
3AA
330
4A0
100
AcDbEntity
  8
5
  6
PHANTOM
100
AcDbCircle
 10
110.2842172830731
 20
217.5018528937296
 30
0.0
 40
0.5
100
AcDbArc
 50
338.6081620167944
 51
82.64440548472128
  0
ARC
  5
3AB
330
4A0
100
AcDbEntity
  8
5
  6
PHANTOM
100
AcDbCircle
 10
112.0709109601809
 20
217.3406574241165
 30
0.0
 40
1.0
100
AcDbArc
 50
98.89017612238387
 51
188.8901761223829
  0
ARC
  5
3AC
330
4A0
100
AcDbEntity
  8
3
  6
DASHED
100
AcDbCircle
 10
114.583055161795
 20
215.7571992724173
 30
0.0
 40
0.6000000000000001
100
AcDbArc
 50
324.9999999999989
 51
90.00000000000005
  0
ARC
  5
3AD
330
4A0
100
AcDbEntity
  8
3
  6
DASHED
100
AcDbCircle
 10
114.583055161795
 20
215.7571992724173
 30
0.0
 40
1.0
100
AcDbArc
 50
324.9999999999996
 51
90.00000000000005
  0
CIRCLE
  5
3AE
330
4A0
100
AcDbEntity
  8
1
  6
Continuous
100
AcDbCircle
 10
116.2830551617949
 20
214.2571992724174
 30
0.0
 40
2.499999999999969
  0
CIRCLE
  5
3AF
330
4A0
100
AcDbEntity
  8
1
  6
Continuous
100
AcDbCircle
 10
116.2830551617949
 20
214.2571992724174
 30
0.0
 40
1.25
  0
LINE
  5
3B0
330
4A0
100
AcDbEntity
  8
3
  6
DASHED
100
AcDbLine
 10
114.8935599508839
 20
214.4571992724173
 30
0.0
 11
114.5658991331684
 21
214.6866298469576
 31
0.0
  0
LINE
  5
3B1
330
4A0
100
AcDbEntity
  8
3
  6
DASHED
100
AcDbLine
 10
115.402207206084
 20
215.1836228360663
 30
0.0
 11
114.8935599508839
 21
214.4571992724173
 31
0.0
  0
LINE
  5
3B2
330
4A0
100
AcDbEntity
  8
3
  6
DASHED
100
AcDbLine
 10
115.0745463883685
 20
215.4130534106066
 30
0.0
 11
114.5658991331684
 21
214.6866298469576
 31
0.0
  0
ARC
  5
3B3
330
4A0
100
AcDbEntity
  8
5
  6
PHANTOM
100
AcDbCircle
 10
114.7384741800702
 20
217.7579180955127
 30
0.0
 40
0.6000000000000001
100
AcDbArc
 50
333.8901761223821
 51
98.89017612238387
  0
ARC
  5
3B4
330
4A0
100
AcDbEntity
  8
5
  6
PHANTOM
100
AcDbCircle
 10
114.7384741800703
 20
217.7579180955125
 30
0.0
 40
1.0
100
AcDbArc
 50
333.8901761223829
 51
98.89017612238387
  0
LINE
  5
3B5
330
4A0
100
AcDbEntity
  8
5
  6
PHANTOM
100
AcDbLine
 10
115.2461519681397
 20
216.5215215217758
 30
0.0
 11
114.8869711157293
 21
216.6975587770987
 31
0.0
  0
LINE
  5
3B6
330
4A0
100
AcDbEntity
  8
5
  6
PHANTOM
100
AcDbLine
 10
115.6364263110965
 20
217.3178249572053
 30
0.0
 11
115.2461519681397
 21
216.5215215217758
 31
0.0
  0
LINE
  5
3B7
330
4A0
100
AcDbEntity
  8
5
  6
PHANTOM
100
AcDbLine
 10
115.2772454586861
 20
217.4938622125281
 30
0.0
 11
114.8869711157293
 21
216.6975587770987
 31
0.0
  0
LINE
  5
3B8
330
4A0
100
AcDbEntity
  8
1
  6
Continuous
100
AcDbLine
 10
121.7830551619139
 20
216.7571992724173
 30
0.0
 11
121.7830551619166
 21
218.7571992723652
 31
0.0
  0
LINE
  5
3B9
330
4A0
100
AcDbEntity
  8
4
  6
CENTER
100
AcDbLine
 10
128.7830551617946
 20
215.2571992724173
 30
0.0
 11
128.7830551617946
 21
220.2571992724174
 31
0.0
  0
LINE
  5
3BA
330
4A0
100
AcDbEntity
  8
3
  6
DASHED
100
AcDbLine
 10
188.9242010783489
 20
163.3819332287051
 30
0.0
 11
187.6742010783489
 21
157.7819332287156
 31
0.0
  0
LINE
  5
3BB
330
4A0
100
AcDbEntity
  8
3
  6
DASHED
100
AcDbLine
 10
191.4242010783491
 20
163.3819332287052
 30
0.0
 11
192.6742010783489
 21
157.7819332287156
 31
0.0
  0
LINE
  5
3BC
330
4A0
100
AcDbEntity
  8
4
  6
CENTER
100
AcDbLine
 10
191.174201078344
 20
144.881933228715
 30
0.0
 11
196.1742010783441
 21
144.881933228715
 31
0.0
  0
LINE
  5
3BD
330
4A0
100
AcDbEntity
  8
3
  6
DASHED
100
AcDbLine
 10
192.6742010783492
 20
156.7819332287158
 30
0.0
 11
187.6742010783489
 21
156.7819332287156
 31
0.0
  0
LINE
  5
3BE
330
4A0
100
AcDbEntity
  8
3
  6
DASHED
100
AcDbLine
 10
192.6742010783488
 20
157.7819332287156
 30
0.0
 11
187.6742010783489
 21
157.7819332287156
 31
0.0
  0
LINE
  5
3BF
330
4A0
100
AcDbEntity
  8
3
  6
DASHED
100
AcDbLine
 10
192.674201078349
 20
150.481933228714
 30
0.0
 11
187.674201078347
 21
150.4819332287208
 31
0.0
  0
LINE
  5
3C0
330
4A0
100
AcDbEntity
  8
3
  6
DASHED
100
AcDbLine
 10
188.9242010783489
 20
156.7819332287156
 30
0.0
 11
188.9242010783489
 21
150.4819332287157
 31
0.0
  0
LINE
  5
3C1
330
4A0
100
AcDbEntity
  8
3
  6
DASHED
100
AcDbLine
 10
191.424201078349
 20
156.7819332287158
 30
0.0
 11
191.424201078349
 21
150.4819332287157
 31
0.0
  0
LINE
  5
3C2
330
4A0
100
AcDbEntity
  8
3
  6
DASHED
100
AcDbLine
 10
188.9242010783489
 20
163.3819332287051
 30
0.0
 11
191.4242010783491
 21
163.3819332287052
 31
0.0
  0
LINE
  5
3C3
330
4A0
100
AcDbEntity
  8
1
  6
Continuous
100
AcDbLine
 10
194.6742010783339
 20
163.881933228715
 30
0.0
 11
185.6742010783491
 21
163.881933228715
 31
0.0
  0
LINE
  5
3C4
330
4A0
100
AcDbEntity
  8
1
  6
Continuous
100
AcDbLine
 10
136.2830551618028
 20
216.7571992723528
 30
0.0
 11
136.2830551618092
 21
218.7571992723532
 31
0.0
  0
LINE
  5
3C5
330
4A0
100
AcDbEntity
  8
4
  6
CENTER
100
AcDbLine
 10
264.0653469949183
 20
84.88193322871509
 30
0.0
 11
264.0653469949183
 21
166.881933228715
 31
0.0
  0
LINE
  5
3C6
330
4A0
100
AcDbEntity
  8
3
  6
DASHED
100
AcDbLine
 10
266.5653469949185
 20
163.8819332287151
 30
0.0
 11
266.5653469949185
 21
88.8819332287151
 31
0.0
  0
LINE
  5
3C7
330
4A0
100
AcDbEntity
  8
3
  6
DASHED
100
AcDbLine
 10
261.5653469949184
 20
163.8819332287151
 30
0.0
 11
261.5653469949184
 21
88.8819332287151
 31
0.0
  0
LINE
  5
3C8
330
4A0
100
AcDbEntity
  8
1
  6
Continuous
100
AcDbLine
 10
258.5653469949184
 20
162.8819332287151
 30
0.0
 11
258.5653469949184
 21
126.881933228715
 31
0.0
  0
LINE
  5
3C9
330
4A0
100
AcDbEntity
  8
1
  6
Continuous
100
AcDbLine
 10
259.5653469949184
 20
163.881933228715
 30
0.0
 11
259.5653469949184
 21
126.881933228715
 31
0.0
  0
LINE
  5
3CA
330
4A0
100
AcDbEntity
  8
1
  6
Continuous
100
AcDbLine
 10
244.0653469949185
 20
161.881933228715
 30
0.0
 11
244.0653469949185
 21
90.88193322871513
 31
0.0
  0
LINE
  5
3CB
330
4A0
100
AcDbEntity
  8
1
  6
Continuous
100
AcDbLine
 10
284.0653469949184
 20
161.881933228715
 30
0.0
 11
284.0653469949184
 21
90.88193322871513
 31
0.0
  0
ARC
  5
3CC
330
4A0
100
AcDbEntity
  8
1
  6
Continuous
100
AcDbCircle
 10
260.0653469949183
 20
126.381933228715
 30
0.0
 40
0.4999999999999716
100
AcDbArc
 50
90.0
 51
270.0
  0
LINE
  5
3CD
330
4A0
100
AcDbEntity
  8
1
  6
Continuous
100
AcDbLine
 10
259.5653469949184
 20
126.881933228715
 30
0.0
 11
268.5653469949183
 21
126.881933228715
 31
0.0
  0
LINE
  5
3CE
330
4A0
100
AcDbEntity
  8
1
  6
Continuous
100
AcDbLine
 10
259.5653469949184
 20
125.881933228715
 30
0.0
 11
268.5653469949183
 21
125.881933228715
 31
0.0
  0
LINE
  5
3CF
330
4A0
100
AcDbEntity
  8
1
  6
Continuous
100
AcDbLine
 10
246.0653469949185
 20
88.8819332287151
 30
0.0
 11
268.5653469949183
 21
88.8819332287151
 31
0.0
  0
ARC
  5
3D0
330
4A0
100
AcDbEntity
  8
1
  6
Continuous
100
AcDbCircle
 10
246.0653469949185
 20
90.88193322871513
 30
0.0
 40
2.0
100
AcDbArc
 50
180.0
 51
270.0
  0
LINE
  5
3D1
330
4A0
100
AcDbEntity
  8
4
  6
CENTER
100
AcDbLine
 10
251.5653469949183
 20
112.581933228715
 30
0.0
 11
251.5653469949183
 21
103.1819332287151
 31
0.0
  0
LINE
  5
3D2
330
4A0
100
AcDbEntity
  8
4
  6
CENTER
100
AcDbLine
 10
246.8653469949182
 20
107.881933228715
 30
0.0
 11
256.2653469949183
 21
107.881933228715
 31
0.0
  0
CIRCLE
  5
3D3
330
4A0
100
AcDbEntity
  8
1
  6
Continuous
100
AcDbCircle
 10
251.5653469949183
 20
107.881933228715
 30
0.0
 40
2.5
  0
ARC
  5
3D4
330
4A0
100
AcDbEntity
  8
1
  6
Continuous
100
AcDbCircle
 10
259.5653469949184
 20
126.881933228715
 30
0.0
 40
1.0
100
AcDbArc
 50
180.0
 51
270.0
  0
LINE
  5
3D5
330
4A0
100
AcDbEntity
  8
1
  6
Continuous
100
AcDbLine
 10
268.5653469949183
 20
125.881933228715
 30
0.0
 11
268.5653469949183
 21
88.8819332287151
 31
0.0
  0
LINE
  5
3D6
330
4A0
100
AcDbEntity
  8
1
  6
Continuous
100
AcDbLine
 10
269.5653469949184
 20
125.881933228715
 30
0.0
 11
269.5653469949184
 21
89.8819332287152
 31
0.0
  0
LINE
  5
3D7
330
4A0
100
AcDbEntity
  8
1
  6
Continuous
100
AcDbLine
 10
270.5653469949183
 20
88.8819332287151
 30
0.0
 11
282.0653469949184
 21
88.8819332287151
 31
0.0
  0
LINE
  5
3D8
330
4A0
100
AcDbEntity
  8
1
  6
Continuous
100
AcDbLine
 10
261.2153469949184
 20
88.8819332287151
 30
0.0
 11
261.5653469949184
 21
87.88193322871519
 31
0.0
  0
LINE
  5
3D9
330
4A0
100
AcDbEntity
  8
1
  6
Continuous
100
AcDbLine
 10
266.9153469949185
 20
88.8819332287151
 30
0.0
 11
266.5653469949185
 21
87.88193322871505
 31
0.0
  0
LINE
  5
3DA
330
4A0
100
AcDbEntity
  8
1
  6
Continuous
100
AcDbLine
 10
266.5653469949183
 20
87.88193322871505
 30
0.0
 11
261.5653469949184
 21
87.88193322871505
 31
0.0
  0
ARC
  5
3DB
330
4A0
100
AcDbEntity
  8
1
  6
Continuous
100
AcDbCircle
 10
270.5653469949183
 20
89.8819332287152
 30
0.0
 40
1.0
100
AcDbArc
 50
180.0
 51
270.0
  0
ARC
  5
3DC
330
4A0
100
AcDbEntity
  8
1
  6
Continuous
100
AcDbCircle
 10
282.0653469949184
 20
90.88193322871513
 30
0.0
 40
2.0
100
AcDbArc
 50
270.0
 51
0.000000000000007
  0
LINE
  5
3DD
330
4A0
100
AcDbEntity
  8
4
  6
CENTER
100
AcDbLine
 10
281.2653469949184
 20
107.881933228715
 30
0.0
 11
271.8653469949185
 21
107.881933228715
 31
0.0
  0
CIRCLE
  5
3DE
330
4A0
100
AcDbEntity
  8
1
  6
Continuous
100
AcDbCircle
 10
276.5653469949185
 20
107.881933228715
 30
0.0
 40
2.5
  0
LINE
  5
3DF
330
4A0
100
AcDbEntity
  8
4
  6
CENTER
100
AcDbLine
 10
276.5653469949185
 20
112.581933228715
 30
0.0
 11
276.5653469949185
 21
103.1819332287151
 31
0.0
  0
ARC
  5
3E0
330
4A0
100
AcDbEntity
  8
1
  6
Continuous
100
AcDbCircle
 10
268.0653469949183
 20
126.3819332287151
 30
0.0
 40
0.4999999999999716
100
AcDbArc
 50
270.0
 51
90.0
  0
ARC
  5
3E1
330
4A0
100
AcDbEntity
  8
1
  6
Continuous
100
AcDbCircle
 10
268.5653469949183
 20
125.881933228715
 30
0.0
 40
1.0
100
AcDbArc
 50
0.000000000000007
 51
90.0
  0
LINE
  5
3E2
330
4A0
100
AcDbEntity
  8
1
  6
Continuous
100
AcDbLine
 10
259.5653469949184
 20
163.881933228715
 30
0.0
 11
282.0653469949184
 21
163.881933228715
 31
0.0
  0
LINE
  5
3E3
330
4A0
100
AcDbEntity
  8
4
  6
CENTER
100
AcDbLine
 10
251.5653469949182
 20
149.581933228715
 30
0.0
 11
251.5653469949182
 21
140.1819332287151
 31
0.0
  0
CIRCLE
  5
3E4
330
4A0
100
AcDbEntity
  8
1
  6
Continuous
100
AcDbCircle
 10
251.5653469949182
 20
144.881933228715
 30
0.0
 40
2.5
  0
LINE
  5
3E5
330
4A0
100
AcDbEntity
  8
4
  6
CENTER
100
AcDbLine
 10
246.8653469949182
 20
144.881933228715
 30
0.0
 11
256.2653469949183
 21
144.881933228715
 31
0.0
  0
ARC
  5
3E6
330
4A0
100
AcDbEntity
  8
1
  6
Continuous
100
AcDbCircle
 10
246.0653469949185
 20
161.881933228715
 30
0.0
 40
2.0
100
AcDbArc
 50
90.0
 51
180.0
  0
LINE
  5
3E7
330
4A0
100
AcDbEntity
  8
1
  6
Continuous
100
AcDbLine
 10
246.0653469949185
 20
163.881933228715
 30
0.0
 11
257.5653469949183
 21
163.881933228715
 31
0.0
  0
ARC
  5
3E8
330
4A0
100
AcDbEntity
  8
1
  6
Continuous
100
AcDbCircle
 10
257.5653469949183
 20
162.8819332287151
 30
0.0
 40
1.0
100
AcDbArc
 50
0.000000000000007
 51
90.0
  0
LINE
  5
3E9
330
4A0
100
AcDbEntity
  8
1
  6
Continuous
100
AcDbLine
 10
266.3048630360874
 20
158.381933228715
 30
0.0
 11
266.3048630360873
 21
156.381933228714
 31
0.0
  0
LINE
  5
3EA
330
4A0
100
AcDbEntity
  8
1
  6
Continuous
100
AcDbLine
 10
268.5653469949182
 20
158.381933228715
 30
0.0
 11
268.5653469949182
 21
156.381933228714
 31
0.0
  0
LINE
  5
3EB
330
4A0
100
AcDbEntity
  8
1
  6
Continuous
100
AcDbLine
 10
268.0964758690742
 20
158.381933228715
 30
0.0
 11
268.0964758690742
 21
156.381933228714
 31
0.0
  0
LINE
  5
3EC
330
4A0
100
AcDbEntity
  8
3
  6
DASHED
100
AcDbLine
 10
265.3153469949184
 20
163.3819332287051
 30
0.0
 11
266.5653469949183
 21
157.7819332287166
 31
0.0
  0
LINE
  5
3ED
330
4A0
100
AcDbEntity
  8
3
  6
DASHED
100
AcDbLine
 10
262.8153469949184
 20
163.3819332287052
 30
0.0
 11
261.5653469949186
 21
157.7819332287156
 31
0.0
  0
LINE
  5
3EE
330
4A0
100
AcDbEntity
  8
1
  6
Continuous
100
AcDbLine
 10
264.0653469949183
 20
158.081933228715
 30
0.0
 11
264.0653469949183
 21
151.681933228715
 31
0.0
  0
LINE
  5
3EF
330
4A0
100
AcDbEntity
  8
1
  6
Continuous
100
AcDbLine
 10
279.0653469948069
 20
156.381933228714
 30
0.0
 11
279.065346994807
 21
158.081933228715
 31
0.0
  0
LINE
  5
3F0
330
4A0
100
AcDbEntity
  8
1
  6
Continuous
100
AcDbLine
 10
275.06534699477
 20
151.3819332287147
 30
0.0
 11
283.0653469949186
 21
151.3819332287154
 31
0.0
  0
LINE
  5
3F1
330
4A0
100
AcDbEntity
  8
1
  6
Continuous
100
AcDbLine
 10
269.7046647017281
 20
156.7819332287151
 30
0.0
 11
276.3961891039957
 21
156.7819332287151
 31
0.0
  0
LINE
  5
3F2
330
4A0
100
AcDbEntity
  8
1
  6
Continuous
100
AcDbLine
 10
264.7653469949184
 20
156.381933228714
 30
0.0
 11
283.0653469949183
 21
156.381933228714
 31
0.0
  0
LINE
  5
3F3
330
4A0
100
AcDbEntity
  8
4
  6
CENTER
100
AcDbLine
 10
281.2653469949184
 20
144.881933228715
 30
0.0
 11
271.8653469949185
 21
144.881933228715
 31
0.0
  0
CIRCLE
  5
3F4
330
4A0
100
AcDbEntity
  8
1
  6
Continuous
100
AcDbCircle
 10
276.5653469949186
 20
144.881933228715
 30
0.0
 40
2.5
  0
LINE
  5
3F5
330
4A0
100
AcDbEntity
  8
1
  6
Continuous
100
AcDbLine
 10
264.3653469949184
 20
151.3819332287137
 30
0.0
 11
271.0653469949897
 21
151.3819332287143
 31
0.0
  0
LINE
  5
3F6
330
4A0
100
AcDbEntity
  8
3
  6
DASHED
100
AcDbLine
 10
265.3153469949186
 20
156.381933228714
 30
0.0
 11
265.3153469949186
 21
150.4819332287157
 31
0.0
  0
LINE
  5
3F7
330
4A0
100
AcDbEntity
  8
3
  6
DASHED
100
AcDbLine
 10
262.8153469949185
 20
156.7819332287158
 30
0.0
 11
262.8153469949185
 21
150.4819332287157
 31
0.0
  0
LINE
  5
3F8
330
4A0
100
AcDbEntity
  8
1
  6
Continuous
100
AcDbLine
 10
264.7653469949184
 20
151.381933228714
 30
0.0
 11
264.7653469949184
 21
156.381933228714
 31
0.0
  0
LINE
  5
3F9
330
4A0
100
AcDbEntity
  8
3
  6
DASHED
100
AcDbLine
 10
261.5653469949184
 20
150.481933228714
 30
0.0
 11
266.5653469949205
 21
150.4819332287208
 31
0.0
  0
ARC
  5
3FA
330
4A0
100
AcDbEntity
  8
1
  6
Continuous
100
AcDbCircle
 10
264.3653469949184
 20
151.681933228715
 30
0.0
 40
0.3
100
AcDbArc
 50
180.0
 51
270.0
  0
LINE
  5
3FB
330
4A0
100
AcDbEntity
  8
3
  6
DASHED
100
AcDbLine
 10
261.5653469949184
 20
156.7819332287158
 30
0.0
 11
264.0653469949183
 21
156.7819332287156
 31
0.0
  0
LINE
  5
3FC
330
4A0
100
AcDbEntity
  8
3
  6
DASHED
100
AcDbLine
 10
261.5653469949187
 20
157.7819332287156
 30
0.0
 11
264.0653469949183
 21
157.7819332287156
 31
0.0
  0
LINE
  5
3FD
330
4A0
100
AcDbEntity
  8
3
  6
DASHED
100
AcDbLine
 10
266.3048630360873
 20
156.7819332287156
 30
0.0
 11
266.5653469949185
 21
156.7819332287156
 31
0.0
  0
LINE
  5
3FE
330
4A0
100
AcDbEntity
  8
3
  6
DASHED
100
AcDbLine
 10
266.3048630360874
 20
157.7819332287156
 30
0.0
 11
266.5653469949183
 21
157.7819332287166
 31
0.0
  0
LINE
  5
3FF
330
4A0
100
AcDbEntity
  8
1
  6
Continuous
100
AcDbLine
 10
264.0653469949183
 20
157.7819332287156
 30
0.0
 11
266.3048630360874
 21
157.7819332287156
 31
0.0
  0
LINE
  5
400
330
4A0
100
AcDbEntity
  8
1
  6
Continuous
100
AcDbLine
 10
264.0653469949183
 20
156.7819332287156
 30
0.0
 11
266.3048630360873
 21
156.7819332287156
 31
0.0
  0
LINE
  5
401
330
4A0
100
AcDbEntity
  8
1
  6
Continuous
100
AcDbLine
 10
265.3153469949186
 20
156.7819332287156
 30
0.0
 11
265.3153469949186
 21
156.381933228714
 31
0.0
  0
LINE
  5
402
330
4A0
100
AcDbEntity
  8
1
  6
Continuous
100
AcDbLine
 10
269.4653469949183
 20
151.381933228714
 30
0.0
 11
269.4653469949184
 21
156.3819332287163
 31
0.0
  0
LINE
  5
403
330
4A0
100
AcDbEntity
  8
1
  6
Continuous
100
AcDbLine
 10
271.5653469949898
 20
151.8819332287141
 30
0.0
 11
271.5653469949898
 21
153.881933228715
 31
0.0
  0
LINE
  5
404
330
4A0
100
AcDbEntity
  8
1
  6
Continuous
100
AcDbLine
 10
274.56534699477
 20
151.881933228715
 30
0.0
 11
274.5653469947701
 21
153.881933228715
 31
0.0
  0
ARC
  5
405
330
4A0
100
AcDbEntity
  8
1
  6
Continuous
100
AcDbCircle
 10
271.0653469949897
 20
151.8819332287141
 30
0.0
 40
0.5
100
AcDbArc
 50
270.0
 51
0.000000000000007
  0
ARC
  5
406
330
4A0
100
AcDbEntity
  8
1
  6
Continuous
100
AcDbCircle
 10
275.06534699477
 20
151.881933228715
 30
0.0
 40
0.5
100
AcDbArc
 50
180.0
 51
270.0
  0
ARC
  5
407
330
4A0
100
AcDbEntity
  8
1
  6
Continuous
100
AcDbCircle
 10
272.0653469949898
 20
153.881933228715
 30
0.0
 40
0.5
100
AcDbArc
 50
90.0
 51
180.0
  0
LINE
  5
408
330
4A0
100
AcDbEntity
  8
1
  6
Continuous
100
AcDbLine
 10
269.7046647017281
 20
156.7819332287151
 30
0.0
 11
269.7046647017282
 21
156.3819332287153
 31
0.0
  0
ARC
  5
409
330
4A0
100
AcDbEntity
  8
1
  6
Continuous
100
AcDbCircle
 10
274.06534699477
 20
153.881933228715
 30
0.0
 40
0.5
100
AcDbArc
 50
0.000000000000007
 51
90.0
  0
LINE
  5
40A
330
4A0
100
AcDbEntity
  8
1
  6
Continuous
100
AcDbLine
 10
272.0653469949898
 20
154.381933228715
 30
0.0
 11
274.06534699477
 21
154.381933228715
 31
0.0
  0
LINE
  5
40B
330
4A0
100
AcDbEntity
  8
4
  6
CENTER
100
AcDbLine
 10
276.5653469949185
 20
149.581933228715
 30
0.0
 11
276.5653469949185
 21
140.1819332287151
 31
0.0
  0
ARC
  5
40C
330
4A0
100
AcDbEntity
  8
1
  6
Continuous
100
AcDbCircle
 10
283.0653469949183
 20
155.381933228714
 30
0.0
 40
1.0
100
AcDbArc
 50
0.000000000000007
 51
90.0
  0
ARC
  5
40D
330
4A0
100
AcDbEntity
  8
1
  6
Continuous
100
AcDbCircle
 10
283.0653469949183
 20
152.381933228714
 30
0.0
 40
1.0
100
AcDbArc
 50
270.0
 51
0.000000000000007
  0
LINE
  5
40E
330
4A0
100
AcDbEntity
  8
1
  6
Continuous
100
AcDbLine
 10
284.0653469949184
 20
150.7152665620486
 30
0.0
 11
279.065346994806
 21
150.7152665620486
 31
0.0
  0
ARC
  5
40F
330
4A0
100
AcDbEntity
  8
1
  6
Continuous
100
AcDbCircle
 10
279.065346994806
 20
151.7152665620486
 30
0.0
 40
1.0
100
AcDbArc
 50
199.4712206345053
 51
270.0
  0
LINE
  5
410
330
4A0
100
AcDbEntity
  8
1
  6
Continuous
100
AcDbLine
 10
276.3961891039957
 20
156.7819332287151
 30
0.0
 11
276.3961891039957
 21
156.3819332287153
 31
0.0
  0
LINE
  5
411
330
4A0
100
AcDbEntity
  8
1
  6
Continuous
100
AcDbLine
 10
264.3653469949184
 20
158.381933228715
 30
0.0
 11
278.765346994807
 21
158.381933228715
 31
0.0
  0
ARC
  5
412
330
4A0
100
AcDbEntity
  8
1
  6
Continuous
100
AcDbCircle
 10
264.3653469949184
 20
158.081933228715
 30
0.0
 40
0.3
100
AcDbArc
 50
90.0
 51
180.0
  0
LINE
  5
413
330
4A0
100
AcDbEntity
  8
3
  6
DASHED
100
AcDbLine
 10
265.3153469949184
 20
163.3819332287051
 30
0.0
 11
262.8153469949184
 21
163.3819332287052
 31
0.0
  0
LINE
  5
414
330
4A0
100
AcDbEntity
  8
1
  6
Continuous
100
AcDbLine
 10
284.058390452102
 20
159.0485998953816
 30
0.0
 11
279.065346994806
 21
159.0485998953816
 31
0.0
  0
ARC
  5
415
330
4A0
100
AcDbEntity
  8
1
  6
Continuous
100
AcDbCircle
 10
282.0653469949184
 20
161.881933228715
 30
0.0
 40
2.0
100
AcDbArc
 50
0.000000000000007
 51
90.0
  0
ARC
  5
416
330
4A0
100
AcDbEntity
  8
1
  6
Continuous
100
AcDbCircle
 10
278.765346994807
 20
158.081933228715
 30
0.0
 40
0.3
100
AcDbArc
 50
0.000000000000007
 51
90.0
  0
ARC
  5
417
330
4A0
100
AcDbEntity
  8
1
  6
Continuous
100
AcDbCircle
 10
279.065346994806
 20
158.0485998953816
 30
0.0
 40
1.0
100
AcDbArc
 50
90.0
 51
160.528779365507
  0
LINE
  5
421
330
4A0
100
AcDbEntity
  8
1
  6
Continuous
100
AcDbLine
 10
104.7830551617798
 20
116.0386093474139
 30
0.0
 11
104.2597981169655
 21
116.2826081145942
 31
0.0
  0
LINE
  5
422
330
4A0
100
AcDbEntity
  8
1
  6
Continuous
100
AcDbLine
 10
104.7830551617798
 20
116.0386093474139
 30
0.0
 11
102.7830551617798
 21
116.0386093474139
 31
0.0
  0
ENDSEC
  0
SECTION
  2
OBJECTS
  0
DICTIONARY
  5
43D
330
0
100
AcDbDictionary
281
     1
  3
ACAD_CIP_PREVIOUS_PRODUCT_INFO
350
4B9
  3
ACAD_COLOR
350
493
  3
ACAD_DETAILVIEWSTYLE
350
49A
  3
ACAD_GROUP
350
43E
  3
ACAD_LAYOUT
350
492
  3
ACAD_MATERIAL
350
441
  3
ACAD_MLEADERSTYLE
350
496
  3
ACAD_MLINESTYLE
350
48F
  3
ACAD_PLOTSETTINGS
350
491
  3
ACAD_PLOTSTYLENAME
350
43F
  3
ACAD_SCALELIST
350
473
  3
ACAD_SECTIONVIEWSTYLE
350
498
  3
ACAD_TABLESTYLE
350
494
  3
ACAD_VISUALSTYLE
350
45A
  3
ACDB_RECOMPOSE_DATA
350
4D7
  3
AcDbVariableDictionary
350
4CA
  3
DWGPROPS
350
4D8
  0
DICTIONARY
  5
4BA
330
485
100
AcDbDictionary
280
     1
281
     1
  3
ADSK_XREC_LAYER_RECONCILED
360
4BB
  0
DICTIONARY
  5
4BC
330
4A8
100
AcDbDictionary
280
     1
281
     1
  3
ADSK_XREC_LAYER_RECONCILED
360
4BD
  0
DICTIONARY
  5
4BE
330
4A9
100
AcDbDictionary
280
     1
281
     1
  3
ADSK_XREC_LAYER_RECONCILED
360
4BF
  0
DICTIONARY
  5
4C0
330
4AA
100
AcDbDictionary
280
     1
281
     1
  3
ADSK_XREC_LAYER_RECONCILED
360
4C1
  0
DICTIONARY
  5
4C2
330
4AB
100
AcDbDictionary
280
     1
281
     1
  3
ADSK_XREC_LAYER_RECONCILED
360
4C3
  0
DICTIONARY
  5
4C4
330
4AC
100
AcDbDictionary
280
     1
281
     1
  3
ADSK_XREC_LAYER_RECONCILED
360
4C5
  0
DICTIONARY
  5
4C6
330
4AD
100
AcDbDictionary
280
     1
281
     1
  3
ADSK_XREC_LAYER_RECONCILED
360
4C7
  0
DICTIONARY
  5
4C8
330
4AE
100
AcDbDictionary
280
     1
281
     1
  3
ADSK_XREC_LAYER_RECONCILED
360
4C9
  0
XRECORD
  5
4B9
102
{ACAD_REACTORS
330
43D
102
}
330
43D
100
AcDbXrecord
280
     1
300
ACDLT
300
2014
300
ACDLT_F_S
  0
DICTIONARY
  5
493
102
{ACAD_REACTORS
330
43D
102
}
330
43D
100
AcDbDictionary
281
     1
  0
DICTIONARY
  5
49A
102
{ACAD_REACTORS
330
43D
102
}
330
43D
100
AcDbDictionary
281
     1
  3
Imperial24
350
49B
  0
DICTIONARY
  5
43E
102
{ACAD_REACTORS
330
43D
102
}
330
43D
100
AcDbDictionary
281
     1
  0
DICTIONARY
  5
492
102
{ACAD_REACTORS
330
43D
102
}
330
43D
100
AcDbDictionary
281
     1
  3
Model
350
4A3
  3
レイアウト1
350
49F
  0
DICTIONARY
  5
441
102
{ACAD_REACTORS
330
43D
102
}
330
43D
100
AcDbDictionary
281
     1
  3
ByBlock
350
44A
  3
ByLayer
350
442
  3
Global
350
452
  0
DICTIONARY
  5
496
102
{ACAD_REACTORS
330
43D
102
}
330
43D
100
AcDbDictionary
281
     1
  3
Standard
350
497
  0
DICTIONARY
  5
48F
102
{ACAD_REACTORS
330
43D
102
}
330
43D
100
AcDbDictionary
281
     1
  3
Standard
350
490
  0
DICTIONARY
  5
491
102
{ACAD_REACTORS
330
43D
102
}
330
43D
100
AcDbDictionary
281
     1
  0
ACDBDICTIONARYWDFLT
  5
43F
102
{ACAD_REACTORS
330
43D
102
}
330
43D
100
AcDbDictionary
281
     1
  3
Normal
350
440
100
AcDbDictionaryWithDefault
340
440
  0
DICTIONARY
  5
473
102
{ACAD_REACTORS
330
43D
102
}
330
43D
100
AcDbDictionary
281
     1
  3
A0
350
474
  3
A1
350
475
  3
A2
350
476
  3
A3
350
477
  3
A4
350
478
  3
A5
350
479
  3
A6
350
47A
  3
A7
350
47B
  3
A8
350
47C
  3
A9
350
47D
  3
B0
350
47E
  3
B1
350
47F
  3
B2
350
480
  3
B3
350
481
  3
B4
350
482
  3
B5
350
483
  3
B6
350
484
  0
DICTIONARY
  5
498
102
{ACAD_REACTORS
330
43D
102
}
330
43D
100
AcDbDictionary
281
     1
  3
Imperial24
350
499
  0
DICTIONARY
  5
494
102
{ACAD_REACTORS
330
43D
102
}
330
43D
100
AcDbDictionary
281
     1
  3
Standard
350
495
  0
DICTIONARY
  5
45A
102
{ACAD_REACTORS
330
43D
102
}
330
43D
100
AcDbDictionary
281
     1
  3
2dWireframe
350
460
  3
Basic
350
45F
  3
Brighten
350
466
  3
ColorChange
350
46A
  3
Conceptual
350
463
  3
Dim
350
465
  3
EdgeColorOff
350
472
  3
Facepattern
350
469
  3
Flat
350
45B
  3
FlatWithEdges
350
45C
  3
Gouraud
350
45D
  3
GouraudWithEdges
350
45E
  3
Hidden
350
462
  3
JitterOff
350
470
  3
Linepattern
350
468
  3
OverhangOff
350
471
  3
Realistic
350
464
  3
Shaded
350
46F
  3
Shaded with edges
350
46E
  3
Shades of Gray
350
46B
  3
Sketchy
350
46C
  3
Thicken
350
467
  3
Wireframe
350
461
  3
X-Ray
350
46D
  0
XRECORD
  5
4D7
102
{ACAD_REACTORS
330
43D
102
}
330
43D
100
AcDbXrecord
280
     1
 90
        1
330
495
  0
DICTIONARY
  5
4CA
102
{ACAD_REACTORS
330
43D
102
}
330
43D
100
AcDbDictionary
281
     1
  3
CANNOSCALE
350
4CF
  3
CMLEADERSTYLE
350
4CC
  3
CTABLESTYLE
350
4CB
  3
CVIEWDETAILSTYLE
350
4CD
  3
CVIEWSECTIONSTYLE
350
4CE
  3
DIMASSOC
350
4D2
  3
INDEXCTL
350
4D1
  3
SORTENTS
350
4D0
  3
XCLIPFRAME
350
4D3
  0
XRECORD
  5
4D8
102
{ACAD_REACTORS
330
43D
102
}
330
43D
100
AcDbXrecord
280
     1
  1
DWGPROPS COOKIE
  2

  3

  4

  6

  7

  8
Yoshitsune
  9

300
=
301
=
302
=
303
=
304
=
305
=
306
=
307
=
308
=
309
=
 40
0.0015840972222222
 41
2456276.612696157
 42
2457192.616830741
  1

 90
        0
  0
XRECORD
  5
4BB
102
{ACAD_REACTORS
330
4BA
102
}
330
4BA
100
AcDbXrecord
280
     1
290
     1
  0
XRECORD
  5
4BD
102
{ACAD_REACTORS
330
4BC
102
}
330
4BC
100
AcDbXrecord
280
     1
290
     1
  0
XRECORD
  5
4BF
102
{ACAD_REACTORS
330
4BE
102
}
330
4BE
100
AcDbXrecord
280
     1
290
     1
  0
XRECORD
  5
4C1
102
{ACAD_REACTORS
330
4C0
102
}
330
4C0
100
AcDbXrecord
280
     1
290
     1
  0
XRECORD
  5
4C3
102
{ACAD_REACTORS
330
4C2
102
}
330
4C2
100
AcDbXrecord
280
     1
290
     1
  0
XRECORD
  5
4C5
102
{ACAD_REACTORS
330
4C4
102
}
330
4C4
100
AcDbXrecord
280
     1
290
     1
  0
XRECORD
  5
4C7
102
{ACAD_REACTORS
330
4C6
102
}
330
4C6
100
AcDbXrecord
280
     1
290
     1
  0
XRECORD
  5
4C9
102
{ACAD_REACTORS
330
4C8
102
}
330
4C8
100
AcDbXrecord
280
     1
290
     1
  0
ACDBDETAILVIEWSTYLE
  5
49B
102
{ACAD_XDICTIONARY
360
510
102
}
102
{ACAD_REACTORS
330
49A
102
}
330
49A
100
AcDbModelDocViewStyle
 70
     0
  3
Imperial24
290
     0
100
AcDbDetailViewStyle
 70
     0
 71
     0
 90
        3
 71
     1
340
486
 40
0.24
340
0
 40
0.24
300

 40
0.36
280
     3
 71
     2
340
48D
 90
       25
 71
     3
340
486
 40
0.24
 90
        1
 40
0.75
 90
        1
300
%<\AcVar ViewType \f "%tc1">% %<\AcVar ViewDetailId>%\PSCALE %<\AcVar ViewScale \f "%sn">%
 71
     4
340
48D
 90
       25
340
48D
 90
       25
280
     0
  0
LAYOUT
  5
4A3
102
{ACAD_XDICTIONARY
360
514
102
}
102
{ACAD_REACTORS
330
492
102
}
330
492
100
AcDbPlotSettings
  1

  2
Canon LBP9100C
  4

  6

 40
0.0
 41
0.0
 42
0.0
 43
0.0
 44
0.0
 45
0.0
 46
0.0
 47
0.0
 48
0.0
 49
0.0
140
0.0
141
0.0
142
1.0
143
1.0
 70
  1712
 72
     0
 73
     0
 74
     0
  7

 75
     0
147
1.0
148
0.0
149
0.0
100
AcDbLayout
  1
Model
 70
     1
 71
     0
 10
0.0
 20
0.0
 11
12.0
 21
9.0
 12
0.0
 22
0.0
 32
0.0
 14
0.0
 24
0.0
 34
0.0
 15
0.0
 25
0.0
 35
0.0
146
0.0
 13
0.0
 23
0.0
 33
0.0
 16
1.0
 26
0.0
 36
0.0
 17
0.0
 27
1.0
 37
0.0
 76
     0
330
4A0
331
4A4
  0
LAYOUT
  5
49F
102
{ACAD_XDICTIONARY
360
512
102
}
102
{ACAD_REACTORS
330
492
102
}
330
492
100
AcDbPlotSettings
  1

  2
Canon LBP9100C
  4

  6

 40
0.0
 41
0.0
 42
0.0
 43
0.0
 44
0.0
 45
0.0
 46
0.0
 47
0.0
 48
0.0
 49
0.0
140
0.0
141
0.0
142
1.0
143
1.0
 70
   688
 72
     0
 73
     0
 74
     5
  7

 75
    16
147
1.0
148
0.0
149
0.0
100
AcDbLayout
  1
レイアウト1
 70
     1
 71
     1
 10
0.0
 20
0.0
 11
420.0
 21
297.0
 12
0.0
 22
0.0
 32
0.0
 14
1.000000000000000E+20
 24
1.000000000000000E+20
 34
1.000000000000000E+20
 15
-1.000000000000000E+20
 25
-1.000000000000000E+20
 35
-1.000000000000000E+20
146
0.0
 13
0.0
 23
0.0
 33
0.0
 16
1.0
 26
0.0
 36
0.0
 17
0.0
 27
1.0
 37
0.0
 76
     0
330
49C
  0
MATERIAL
  5
44A
102
{ACAD_XDICTIONARY
360
44B
102
}
102
{ACAD_REACTORS
330
441
102
}
330
441
100
AcDbMaterial
  1
ByBlock
 72
     0
 43
0.0208333333333333
 43
0.0
 43
0.0
 43
0.0
 43
0.0
 43
0.0208333333333333
 43
0.0
 43
0.0
 43
0.0
 43
0.0
 43
1.0
 43
0.0
 43
0.0
 43
0.0
 43
0.0
 43
1.0
 77
     0
 47
0.0208333333333333
 47
0.0
 47
0.0
 47
0.0
 47
0.0
 47
0.0208333333333333
 47
0.0
 47
0.0
 47
0.0
 47
0.0
 47
1.0
 47
0.0
 47
0.0
 47
0.0
 47
0.0
 47
1.0
171
     0
 49
0.0208333333333333
 49
0.0
 49
0.0
 49
0.0
 49
0.0
 49
0.0208333333333333
 49
0.0
 49
0.0
 49
0.0
 49
0.0
 49
1.0
 49
0.0
 49
0.0
 49
0.0
 49
0.0
 49
1.0
175
     0
142
0.0208333333333333
142
0.0
142
0.0
142
0.0
142
0.0
142
0.0208333333333333
142
0.0
142
0.0
142
0.0
142
0.0
142
1.0
142
0.0
142
0.0
142
0.0
142
0.0
142
1.0
179
     0
144
0.0208333333333333
144
0.0
144
0.0
144
0.0
144
0.0
144
0.0208333333333333
144
0.0
144
0.0
144
0.0
144
0.0
144
1.0
144
0.0
144
0.0
144
0.0
144
0.0
144
1.0
147
0.0208333333333333
147
0.0
147
0.0
147
0.0
147
0.0
147
0.0208333333333333
147
0.0
147
0.0
147
0.0
147
0.0
147
1.0
147
0.0
147
0.0
147
0.0
147
0.0
147
1.0
  0
MATERIAL
  5
442
102
{ACAD_XDICTIONARY
360
443
102
}
102
{ACAD_REACTORS
330
441
102
}
330
441
100
AcDbMaterial
  1
ByLayer
 72
     0
 43
0.0208333333333333
 43
0.0
 43
0.0
 43
0.0
 43
0.0
 43
0.0208333333333333
 43
0.0
 43
0.0
 43
0.0
 43
0.0
 43
1.0
 43
0.0
 43
0.0
 43
0.0
 43
0.0
 43
1.0
 77
     0
 47
0.0208333333333333
 47
0.0
 47
0.0
 47
0.0
 47
0.0
 47
0.0208333333333333
 47
0.0
 47
0.0
 47
0.0
 47
0.0
 47
1.0
 47
0.0
 47
0.0
 47
0.0
 47
0.0
 47
1.0
171
     0
 49
0.0208333333333333
 49
0.0
 49
0.0
 49
0.0
 49
0.0
 49
0.0208333333333333
 49
0.0
 49
0.0
 49
0.0
 49
0.0
 49
1.0
 49
0.0
 49
0.0
 49
0.0
 49
0.0
 49
1.0
175
     0
142
0.0208333333333333
142
0.0
142
0.0
142
0.0
142
0.0
142
0.0208333333333333
142
0.0
142
0.0
142
0.0
142
0.0
142
1.0
142
0.0
142
0.0
142
0.0
142
0.0
142
1.0
179
     0
144
0.0208333333333333
144
0.0
144
0.0
144
0.0
144
0.0
144
0.0208333333333333
144
0.0
144
0.0
144
0.0
144
0.0
144
1.0
144
0.0
144
0.0
144
0.0
144
0.0
144
1.0
147
0.0208333333333333
147
0.0
147
0.0
147
0.0
147
0.0
147
0.0208333333333333
147
0.0
147
0.0
147
0.0
147
0.0
147
1.0
147
0.0
147
0.0
147
0.0
147
0.0
147
1.0
  0
MATERIAL
  5
452
102
{ACAD_XDICTIONARY
360
453
102
}
102
{ACAD_REACTORS
330
441
102
}
330
441
100
AcDbMaterial
  1
Global
 72
     0
 43
0.0208333333333333
 43
0.0
 43
0.0
 43
0.0
 43
0.0
 43
0.0208333333333333
 43
0.0
 43
0.0
 43
0.0
 43
0.0
 43
1.0
 43
0.0
 43
0.0
 43
0.0
 43
0.0
 43
1.0
 77
     0
 47
0.0208333333333333
 47
0.0
 47
0.0
 47
0.0
 47
0.0
 47
0.0208333333333333
 47
0.0
 47
0.0
 47
0.0
 47
0.0
 47
1.0
 47
0.0
 47
0.0
 47
0.0
 47
0.0
 47
1.0
171
     0
 49
0.0208333333333333
 49
0.0
 49
0.0
 49
0.0
 49
0.0
 49
0.0208333333333333
 49
0.0
 49
0.0
 49
0.0
 49
0.0
 49
1.0
 49
0.0
 49
0.0
 49
0.0
 49
0.0
 49
1.0
175
     0
142
0.0208333333333333
142
0.0
142
0.0
142
0.0
142
0.0
142
0.0208333333333333
142
0.0
142
0.0
142
0.0
142
0.0
142
1.0
142
0.0
142
0.0
142
0.0
142
0.0
142
1.0
179
     0
144
0.0208333333333333
144
0.0
144
0.0
144
0.0
144
0.0
144
0.0208333333333333
144
0.0
144
0.0
144
0.0
144
0.0
144
1.0
144
0.0
144
0.0
144
0.0
144
0.0
144
1.0
147
0.0208333333333333
147
0.0
147
0.0
147
0.0
147
0.0
147
0.0208333333333333
147
0.0
147
0.0
147
0.0
147
0.0
147
1.0
147
0.0
147
0.0
147
0.0
147
0.0
147
1.0
  0
MLEADERSTYLE
  5
497
102
{ACAD_REACTORS
330
496
102
}
330
496
100
AcDbMLeaderStyle
170
     2
171
     1
172
     0
 90
        2
 40
0.0
 41
0.0
173
     1
 91
-1056964608
340
48B
 92
       -2
290
     1
 42
0.09
291
     1
 43
0.36
  3
Standard
 44
0.18
300

342
486
174
     1
178
     6
175
     1
176
     0
 93
-1056964608
 45
0.18
292
     0
297
     0
 46
0.18
 94
-1056964608
 47
1.0
 49
1.0
140
1.0
293
     1
141
0.0
294
     1
177
     0
142
1.0
295
     0
296
     0
143
0.125
1001
ACAD_MLEADERVER
1070
     2
  0
MLINESTYLE
  5
490
102
{ACAD_REACTORS
330
48F
102
}
330
48F
100
AcDbMlineStyle
  2
STANDARD
 70
     0
  3

 62
   256
 51
90.0
 52
90.0
 71
     2
 49
0.5
 62
   256
  6
BYLAYER
 49
-0.5
 62
   256
  6
BYLAYER
  0
ACDBPLACEHOLDER
  5
440
102
{ACAD_REACTORS
330
43F
102
}
330
43F
  0
SCALE
  5
474
102
{ACAD_REACTORS
330
473
102
}
330
473
100
AcDbScale
 70
     0
300
1:1
140
1.0
141
1.0
290
     1
  0
SCALE
  5
475
102
{ACAD_REACTORS
330
473
102
}
330
473
100
AcDbScale
 70
     0
300
1/128" = 1'-0"
140
0.0078125
141
12.0
290
     0
  0
SCALE
  5
476
102
{ACAD_REACTORS
330
473
102
}
330
473
100
AcDbScale
 70
     0
300
1/64" = 1'-0"
140
0.015625
141
12.0
290
     0
  0
SCALE
  5
477
102
{ACAD_REACTORS
330
473
102
}
330
473
100
AcDbScale
 70
     0
300
1/32" = 1'-0"
140
0.03125
141
12.0
290
     0
  0
SCALE
  5
478
102
{ACAD_REACTORS
330
473
102
}
330
473
100
AcDbScale
 70
     0
300
1/16" = 1'-0"
140
0.0625
141
12.0
290
     0
  0
SCALE
  5
479
102
{ACAD_REACTORS
330
473
102
}
330
473
100
AcDbScale
 70
     0
300
3/32" = 1'-0"
140
0.09375
141
12.0
290
     0
  0
SCALE
  5
47A
102
{ACAD_REACTORS
330
473
102
}
330
473
100
AcDbScale
 70
     0
300
1/8" = 1'-0"
140
0.125
141
12.0
290
     0
  0
SCALE
  5
47B
102
{ACAD_REACTORS
330
473
102
}
330
473
100
AcDbScale
 70
     0
300
3/16" = 1'-0"
140
0.1875
141
12.0
290
     0
  0
SCALE
  5
47C
102
{ACAD_REACTORS
330
473
102
}
330
473
100
AcDbScale
 70
     0
300
1/4" = 1'-0"
140
0.25
141
12.0
290
     0
  0
SCALE
  5
47D
102
{ACAD_REACTORS
330
473
102
}
330
473
100
AcDbScale
 70
     0
300
3/8" = 1'-0"
140
0.375
141
12.0
290
     0
  0
SCALE
  5
47E
102
{ACAD_REACTORS
330
473
102
}
330
473
100
AcDbScale
 70
     0
300
1/2" = 1'-0"
140
0.5
141
12.0
290
     0
  0
SCALE
  5
47F
102
{ACAD_REACTORS
330
473
102
}
330
473
100
AcDbScale
 70
     0
300
3/4" = 1'-0"
140
0.75
141
12.0
290
     0
  0
SCALE
  5
480
102
{ACAD_REACTORS
330
473
102
}
330
473
100
AcDbScale
 70
     0
300
1" = 1'-0"
140
1.0
141
12.0
290
     0
  0
SCALE
  5
481
102
{ACAD_REACTORS
330
473
102
}
330
473
100
AcDbScale
 70
     0
300
1-1/2" = 1'-0"
140
1.5
141
12.0
290
     0
  0
SCALE
  5
482
102
{ACAD_REACTORS
330
473
102
}
330
473
100
AcDbScale
 70
     0
300
3" = 1'-0"
140
3.0
141
12.0
290
     0
  0
SCALE
  5
483
102
{ACAD_REACTORS
330
473
102
}
330
473
100
AcDbScale
 70
     0
300
6" = 1'-0"
140
6.0
141
12.0
290
     0
  0
SCALE
  5
484
102
{ACAD_REACTORS
330
473
102
}
330
473
100
AcDbScale
 70
     0
300
1'-0" = 1'-0"
140
12.0
141
12.0
290
     0
  0
ACDBSECTIONVIEWSTYLE
  5
499
102
{ACAD_XDICTIONARY
360
50E
102
}
102
{ACAD_REACTORS
330
498
102
}
330
498
100
AcDbModelDocViewStyle
 70
     0
  3
Imperial24
290
     0
100
AcDbSectionViewStyle
 70
     0
 71
     0
 90
       78
 71
     1
340
486
 40
0.24
340
0
340
0
 40
0.24
300
I, O, Q, S, X, Z
 40
0.48
 90
        3
 40
0.18
 90
        1
 71
     2
340
48D
 90
       25
340
48D
 90
       50
 40
0.24
 40
0.0
 40
0.24
 71
     3
340
486
 40
0.24
 90
        1
 40
0.75
 90
        1
300
%<\AcVar ViewType \f "%tc1">% %<\AcVar ViewSectionStartId>%-%<\AcVar ViewSectionEndId>%\PSCALE %<\AcVar ViewScale \f "%sn">%
 71
     4
300
ANSI31
 40
1.0
 90
        0
290
     0
290
     0
 90
        6
 40
0.0
 40
1.570796326794896
 40
0.2617993877991494
 40
1.308996938995747
 40
-0.2617993877991494
 40
1.832595714594046
  0
TABLESTYLE
  5
495
102
{ACAD_XDICTIONARY
360
4D5
102
}
102
{ACAD_REACTORS
330
494
102
}
330
494
100
AcDbTableStyle
  3
Standard
 70
     0
 71
     0
 40
0.06
 41
0.06
280
     0
281
     0
  7
STANDARD
140
0.18
170
     2
 62
     0
 63
     7
283
     0
274
    -2
284
     1
 64
     0
275
    -2
285
     1
 65
     0
276
    -2
286
     1
 66
     0
277
    -2
287
     1
 67
     0
278
    -2
288
     1
 68
     0
279
    -2
289
     1
 69
     0
  7
STANDARD
140
0.25
170
     5
 62
     0
 63
     7
283
     0
274
    -2
284
     1
 64
     0
275
    -2
285
     1
 65
     0
276
    -2
286
     1
 66
     0
277
    -2
287
     1
 67
     0
278
    -2
288
     1
 68
     0
279
    -2
289
     1
 69
     0
  7
STANDARD
140
0.18
170
     5
 62
     0
 63
     7
283
     0
274
    -2
284
     1
 64
     0
275
    -2
285
     1
 65
     0
276
    -2
286
     1
 66
     0
277
    -2
287
     1
 67
     0
278
    -2
288
     1
 68
     0
279
    -2
289
     1
 69
     0
  0
VISUALSTYLE
  5
460
102
{ACAD_XDICTIONARY
360
4E6
102
}
102
{ACAD_REACTORS
330
45A
102
}
330
45A
100
AcDbVisualStyle
  2
2dWireframe
 70
     4
 71
     0
 72
     2
 73
     0
 90
        0
 40
-0.6
 41
-30.0
 62
     5
 63
     7
 74
     1
 91
        4
 64
     7
 65
   257
 75
     1
175
     1
 42
1.0
 92
        0
 66
   257
 43
1.0
 76
     1
 77
     6
 78
     2
 67
     7
 79
     5
170
     0
171
     0
290
     0
174
     0
 93
        1
 44
0.0
173
     0
291
     0
 45
0.0
1001
ACAD
1000
AcDbSavedByObjectVersion
1070
     0
  0
VISUALSTYLE
  5
45F
102
{ACAD_XDICTIONARY
360
4E4
102
}
102
{ACAD_REACTORS
330
45A
102
}
330
45A
100
AcDbVisualStyle
  2
Basic
 70
     7
 71
     1
 72
     0
 73
     1
 90
        0
 40
-0.6
 41
-30.0
 62
     5
 63
     7
 74
     0
 91
        4
 64
     7
 65
   257
 75
     1
175
     1
 42
1.0
 92
        8
 66
     7
 43
1.0
 76
     1
 77
     6
 78
     2
 67
     7
 79
     5
170
     0
171
     0
290
     0
174
     0
 93
        1
 44
0.0
173
     0
291
     1
 45
0.0
1001
ACAD
1000
AcDbSavedByObjectVersion
1070
     0
  0
VISUALSTYLE
  5
466
102
{ACAD_XDICTIONARY
360
4F2
102
}
102
{ACAD_REACTORS
330
45A
102
}
330
45A
100
AcDbVisualStyle
  2
Brighten
 70
    12
 71
     2
 72
     2
 73
     0
 90
        0
 40
-0.6
 41
-30.0
 62
     5
 63
     7
 74
     1
 91
        4
 64
     7
 65
   257
 75
     1
175
     1
 42
1.0
 92
        8
 66
     7
 43
1.0
 76
     1
 77
     6
 78
     2
 67
     7
 79
     5
170
     0
171
     0
290
     0
174
     0
 93
        1
 44
50.0
173
     0
291
     1
 45
0.0
1001
ACAD
1000
AcDbSavedByObjectVersion
1070
     0
  0
VISUALSTYLE
  5
46A
102
{ACAD_XDICTIONARY
360
4FA
102
}
102
{ACAD_REACTORS
330
45A
102
}
330
45A
100
AcDbVisualStyle
  2
ColorChange
 70
    16
 71
     2
 72
     2
 73
     3
 90
        0
 40
-0.6
 41
-30.0
 62
     5
 63
     8
 74
     1
 91
        4
 64
     7
 65
   257
 75
     1
175
     1
 42
1.0
 92
        8
 66
     8
 43
1.0
 76
     1
 77
     6
 78
     2
 67
     7
 79
     5
170
     0
171
     0
290
     0
174
     0
 93
        1
 44
0.0
173
     0
291
     1
 45
0.0
1001
ACAD
1000
AcDbSavedByObjectVersion
1070
     0
  0
VISUALSTYLE
  5
463
102
{ACAD_XDICTIONARY
360
4EC
102
}
102
{ACAD_REACTORS
330
45A
102
}
330
45A
100
AcDbVisualStyle
  2
Conceptual
 70
     9
 71
     3
 72
     2
 73
     0
 90
        0
 40
-0.6
 41
-30.0
 62
     5
 63
     7
 74
     2
 91
        2
 64
     7
 65
   257
 75
     1
175
     1
 42
179.0
 92
        8
 66
     7
 43
1.0
 76
     1
 77
     6
 78
     2
 67
     7
 79
     3
170
     0
171
     0
290
     0
174
     0
 93
        1
 44
0.0
173
     0
291
     0
 45
0.0
1001
ACAD
1000
AcDbSavedByObjectVersion
1070
     0
  0
VISUALSTYLE
  5
465
102
{ACAD_XDICTIONARY
360
4F0
102
}
102
{ACAD_REACTORS
330
45A
102
}
330
45A
100
AcDbVisualStyle
  2
Dim
 70
    11
 71
     2
 72
     2
 73
     0
 90
        0
 40
-0.6
 41
-30.0
 62
     5
 63
     7
 74
     1
 91
        4
 64
     7
 65
   257
 75
     1
175
     1
 42
1.0
 92
        8
 66
     7
 43
1.0
 76
     1
 77
     6
 78
     2
 67
     7
 79
     5
170
     0
171
     0
290
     0
174
     0
 93
        1
 44
-50.0
173
     0
291
     1
 45
0.0
1001
ACAD
1000
AcDbSavedByObjectVersion
1070
     0
  0
VISUALSTYLE
  5
472
102
{ACAD_XDICTIONARY
360
50A
102
}
102
{ACAD_REACTORS
330
45A
102
}
330
45A
100
AcDbVisualStyle
  2
EdgeColorOff
 70
    22
 71
     2
 72
     2
 73
     0
 90
        0
 40
-0.6
 41
-30.0
 62
     5
 63
     7
 74
     1
 91
        4
 64
     7
 65
   257
 75
     1
175
     1
 42
1.0
 92
        8
 66
     7
 43
1.0
 76
     1
 77
     6
 78
     2
 67
     7
 79
     5
170
     0
171
     0
290
     0
174
     0
 93
        1
 44
0.0
173
     0
291
     1
 45
0.0
1001
ACAD
1000
AcDbSavedByObjectVersion
1070
     0
  0
VISUALSTYLE
  5
469
102
{ACAD_XDICTIONARY
360
4F8
102
}
102
{ACAD_REACTORS
330
45A
102
}
330
45A
100
AcDbVisualStyle
  2
Facepattern
 70
    15
 71
     2
 72
     2
 73
     0
 90
        0
 40
-0.6
 41
-30.0
 62
     5
 63
     7
 74
     1
 91
        4
 64
     7
 65
   257
 75
     1
175
     1
 42
1.0
 92
        8
 66
     7
 43
1.0
 76
     1
 77
     6
 78
     2
 67
     7
 79
     5
170
     0
171
     0
290
     0
174
     0
 93
        1
 44
0.0
173
     0
291
     1
 45
0.0
1001
ACAD
1000
AcDbSavedByObjectVersion
1070
     0
  0
VISUALSTYLE
  5
45B
102
{ACAD_XDICTIONARY
360
4DC
102
}
102
{ACAD_REACTORS
330
45A
102
}
330
45A
100
AcDbVisualStyle
  2
Flat
 70
     0
 71
     2
 72
     1
 73
     1
 90
        2
 40
-0.6
 41
30.0
 62
     5
 63
     7
 74
     0
 91
        0
 64
     7
 65
   257
 75
     1
175
     1
 42
1.0
 92
        8
 66
     7
 43
1.0
 76
     1
 77
     6
 78
     2
 67
     7
 79
     5
170
     0
171
     0
290
     0
174
     0
 93
       13
 44
0.0
173
     0
291
     1
 45
0.0
1001
ACAD
1000
AcDbSavedByObjectVersion
1070
     0
  0
VISUALSTYLE
  5
45C
102
{ACAD_XDICTIONARY
360
4DE
102
}
102
{ACAD_REACTORS
330
45A
102
}
330
45A
100
AcDbVisualStyle
  2
FlatWithEdges
 70
     1
 71
     2
 72
     1
 73
     1
 90
        2
 40
-0.6
 41
30.0
 62
     5
 63
     7
 74
     1
 91
        0
 64
     7
 65
   257
 75
     1
175
     1
 42
1.0
 92
        0
 66
   257
 43
1.0
 76
     1
 77
     6
 78
     2
 67
     7
 79
     5
170
     0
171
     0
290
     0
174
     0
 93
       13
 44
0.0
173
     0
291
     1
 45
0.0
1001
ACAD
1000
AcDbSavedByObjectVersion
1070
     0
  0
VISUALSTYLE
  5
45D
102
{ACAD_XDICTIONARY
360
4E0
102
}
102
{ACAD_REACTORS
330
45A
102
}
330
45A
100
AcDbVisualStyle
  2
Gouraud
 70
     2
 71
     2
 72
     2
 73
     1
 90
        2
 40
-0.6
 41
30.0
 62
     5
 63
     7
 74
     0
 91
        0
 64
     7
 65
   257
 75
     1
175
     1
 42
1.0
 92
        0
 66
     7
 43
1.0
 76
     1
 77
     6
 78
     2
 67
     7
 79
     5
170
     0
171
     0
290
     0
174
     0
 93
       13
 44
0.0
173
     0
291
     1
 45
0.0
1001
ACAD
1000
AcDbSavedByObjectVersion
1070
     0
  0
VISUALSTYLE
  5
45E
102
{ACAD_XDICTIONARY
360
4E2
102
}
102
{ACAD_REACTORS
330
45A
102
}
330
45A
100
AcDbVisualStyle
  2
GouraudWithEdges
 70
     3
 71
     2
 72
     2
 73
     1
 90
        2
 40
-0.6
 41
30.0
 62
     5
 63
     7
 74
     1
 91
        0
 64
     7
 65
   257
 75
     1
175
     1
 42
1.0
 92
        0
 66
   257
 43
1.0
 76
     1
 77
     6
 78
     2
 67
     7
 79
     5
170
     0
171
     0
290
     0
174
     0
 93
       13
 44
0.0
173
     0
291
     1
 45
0.0
1001
ACAD
1000
AcDbSavedByObjectVersion
1070
     0
  0
VISUALSTYLE
  5
462
102
{ACAD_XDICTIONARY
360
4EA
102
}
102
{ACAD_REACTORS
330
45A
102
}
330
45A
100
AcDbVisualStyle
  2
Hidden
 70
     6
 71
     1
 72
     2
 73
     2
 90
        0
 40
-0.6
 41
-30.0
 62
     5
 63
     7
 74
     2
 91
        2
 64
     7
 65
   257
 75
     2
175
     1
 42
40.0
 92
        0
 66
   257
 43
1.0
 76
     1
 77
     6
 78
     2
 67
     7
 79
     3
170
     0
171
     0
290
     0
174
     0
 93
        1
 44
0.0
173
     0
291
     0
 45
0.0
1001
ACAD
1000
AcDbSavedByObjectVersion
1070
     0
  0
VISUALSTYLE
  5
470
102
{ACAD_XDICTIONARY
360
506
102
}
102
{ACAD_REACTORS
330
45A
102
}
330
45A
100
AcDbVisualStyle
  2
JitterOff
 70
    20
 71
     2
 72
     2
 73
     0
 90
        0
 40
-0.6
 41
-30.0
 62
     5
 63
     7
 74
     1
 91
        4
 64
     7
 65
   257
 75
     1
175
     1
 42
1.0
 92
       10
 66
     7
 43
1.0
 76
     1
 77
     6
 78
     2
 67
     7
 79
     5
170
     0
171
     0
290
     0
174
     0
 93
        1
 44
0.0
173
     0
291
     1
 45
0.0
1001
ACAD
1000
AcDbSavedByObjectVersion
1070
     0
  0
VISUALSTYLE
  5
468
102
{ACAD_XDICTIONARY
360
4F6
102
}
102
{ACAD_REACTORS
330
45A
102
}
330
45A
100
AcDbVisualStyle
  2
Linepattern
 70
    14
 71
     2
 72
     2
 73
     0
 90
        0
 40
-0.6
 41
-30.0
 62
     5
 63
     7
 74
     1
 91
        4
 64
     7
 65
   257
 75
     7
175
     7
 42
1.0
 92
        8
 66
     7
 43
1.0
 76
     1
 77
     6
 78
     2
 67
     7
 79
     5
170
     0
171
     0
290
     0
174
     0
 93
        1
 44
0.0
173
     0
291
     1
 45
0.0
1001
ACAD
1000
AcDbSavedByObjectVersion
1070
     0
  0
VISUALSTYLE
  5
471
102
{ACAD_XDICTIONARY
360
508
102
}
102
{ACAD_REACTORS
330
45A
102
}
330
45A
100
AcDbVisualStyle
  2
OverhangOff
 70
    21
 71
     2
 72
     2
 73
     0
 90
        0
 40
-0.6
 41
-30.0
 62
     5
 63
     7
 74
     1
 91
        4
 64
     7
 65
   257
 75
     1
175
     1
 42
1.0
 92
        9
 66
     7
 43
1.0
 76
     1
 77
     6
 78
     2
 67
     7
 79
     5
170
     0
171
     0
290
     0
174
     0
 93
        1
 44
0.0
173
     0
291
     1
 45
0.0
1001
ACAD
1000
AcDbSavedByObjectVersion
1070
     0
  0
VISUALSTYLE
  5
464
102
{ACAD_XDICTIONARY
360
4EE
102
}
102
{ACAD_REACTORS
330
45A
102
}
330
45A
100
AcDbVisualStyle
  2
Realistic
 70
     8
 71
     2
 72
     3
 73
     0
 90
        2
 40
-0.6
 41
30.0
 62
     5
 63
     7
 74
     0
 91
        0
 64
     7
 65
   257
 75
     1
175
     1
 42
1.0
 92
        8
 66
   257
 43
1.0
 76
     1
 77
     6
 78
     2
 67
     7
 79
     3
170
     0
171
     0
290
     0
174
     0
 93
       13
 44
0.0
173
     0
291
     0
 45
0.0
1001
ACAD
1000
AcDbSavedByObjectVersion
1070
     0
  0
VISUALSTYLE
  5
46F
102
{ACAD_XDICTIONARY
360
504
102
}
102
{ACAD_REACTORS
330
45A
102
}
330
45A
100
AcDbVisualStyle
  2
Shaded
 70
    27
 71
     2
 72
     2
 73
     1
 90
        2
 40
-0.6
 41
30.0
 62
     5
 63
     7
 74
     0
 91
        4
 64
     7
 65
   257
 75
     1
175
     1
 42
1.0
 92
        8
 66
   257
 43
1.0
 76
     1
 77
     6
 78
     2
 67
     8
 79
     3
170
     0
171
     0
290
     0
174
     0
 93
        5
 44
0.0
173
     0
291
     0
 45
0.0
1001
ACAD
1000
AcDbSavedByObjectVersion
1070
     0
  0
VISUALSTYLE
  5
46E
102
{ACAD_XDICTIONARY
360
502
102
}
102
{ACAD_REACTORS
330
45A
102
}
330
45A
100
AcDbVisualStyle
  2
Shaded with edges
 70
    26
 71
     2
 72
     2
 73
     1
 90
        2
 40
-0.6
 41
30.0
 62
     5
 63
     7
 74
     1
 91
       10
 64
     7
 65
   257
 75
     2
175
     1
 42
1.0
 92
        8
 66
   257
 43
1.0
 76
     1
 77
     6
 78
     2
 67
     7
 79
     3
170
     0
171
     0
290
     0
174
     0
 93
        5
 44
0.0
173
     0
291
     0
 45
0.0
1001
ACAD
1000
AcDbSavedByObjectVersion
1070
     0
  0
VISUALSTYLE
  5
46B
102
{ACAD_XDICTIONARY
360
4FC
102
}
102
{ACAD_REACTORS
330
45A
102
}
330
45A
100
AcDbVisualStyle
  2
Shades of Gray
 70
    23
 71
     2
 72
     2
 73
     3
 90
        0
 40
-0.6
 41
-30.0
 62
     5
 63
     7
 74
     2
 91
        2
 64
     7
 65
     7
 75
     1
175
     1
 42
40.0
 92
        8
 66
     7
 43
1.0
 76
     1
 77
     6
 78
     2
 67
     7
 79
     3
170
     0
171
     0
290
     0
174
     0
 93
        1
 44
0.0
173
     0
291
     0
 45
0.0
1001
ACAD
1000
AcDbSavedByObjectVersion
1070
     0
  0
VISUALSTYLE
  5
46C
102
{ACAD_XDICTIONARY
360
4FE
102
}
102
{ACAD_REACTORS
330
45A
102
}
330
45A
100
AcDbVisualStyle
  2
Sketchy
 70
    24
 71
     1
 72
     2
 73
     2
 90
        0
 40
-0.6
 41
-30.0
 62
     5
 63
     7
 74
     2
 91
        2
 64
     7
 65
     7
 75
     1
175
     1
 42
40.0
 92
       11
 66
     7
 43
1.0
 76
     1
 77
     6
 78
     2
 67
     7
 79
     6
170
     0
171
     0
290
     0
174
     0
 93
        1
 44
0.0
173
     0
291
     0
 45
0.0
1001
ACAD
1000
AcDbSavedByObjectVersion
1070
     0
  0
VISUALSTYLE
  5
467
102
{ACAD_XDICTIONARY
360
4F4
102
}
102
{ACAD_REACTORS
330
45A
102
}
330
45A
100
AcDbVisualStyle
  2
Thicken
 70
    13
 71
     2
 72
     2
 73
     0
 90
        0
 40
-0.6
 41
-30.0
 62
     5
 63
     7
 74
     1
 91
        4
 64
     7
 65
   257
 75
     1
175
     1
 42
1.0
 92
       12
 66
     7
 43
1.0
 76
     1
 77
     6
 78
     2
 67
     7
 79
     5
170
     0
171
     0
290
     0
174
     0
 93
        1
 44
0.0
173
     0
291
     1
 45
0.0
1001
ACAD
1000
AcDbSavedByObjectVersion
1070
     0
  0
VISUALSTYLE
  5
461
102
{ACAD_XDICTIONARY
360
4E8
102
}
102
{ACAD_REACTORS
330
45A
102
}
330
45A
100
AcDbVisualStyle
  2
Wireframe
 70
     5
 71
     0
 72
     2
 73
     0
 90
        0
 40
-0.6
 41
-30.0
 62
     5
 63
     7
 74
     1
 91
        4
 64
     7
 65
   257
 75
     1
175
     1
 42
1.0
 92
        0
 66
   257
 43
1.0
 76
     1
 77
     6
 78
     2
 67
     7
 79
     3
170
     0
171
     0
290
     0
174
     0
 93
        1
 44
0.0
173
     0
291
     0
 45
0.0
1001
ACAD
1000
AcDbSavedByObjectVersion
1070
     0
  0
VISUALSTYLE
  5
46D
102
{ACAD_XDICTIONARY
360
500
102
}
102
{ACAD_REACTORS
330
45A
102
}
330
45A
100
AcDbVisualStyle
  2
X-Ray
 70
    25
 71
     2
 72
     2
 73
     1
 90
        1
 40
0.5
 41
-30.0
 62
     5
 63
     7
 74
     1
 91
        0
 64
     7
 65
   257
 75
     1
175
     1
 42
1.0
 92
        8
 66
     7
 43
1.0
 76
     1
 77
     6
 78
     2
 67
     7
 79
     3
170
     0
171
     0
290
     0
174
     0
 93
       13
 44
0.0
173
     0
291
     0
 45
0.0
1001
ACAD
1000
AcDbSavedByObjectVersion
1070
     0
  0
DICTIONARYVAR
  5
4CF
102
{ACAD_REACTORS
330
4CA
102
}
330
4CA
100
DictionaryVariables
280
     0
  1
1:1
  0
DICTIONARYVAR
  5
4CC
102
{ACAD_REACTORS
330
4CA
102
}
330
4CA
100
DictionaryVariables
280
     0
  1
STANDARD
  0
DICTIONARYVAR
  5
4CB
102
{ACAD_REACTORS
330
4CA
102
}
330
4CA
100
DictionaryVariables
280
     0
  1
STANDARD
  0
DICTIONARYVAR
  5
4CD
102
{ACAD_REACTORS
330
4CA
102
}
330
4CA
100
DictionaryVariables
280
     0
  1
Imperial24
  0
DICTIONARYVAR
  5
4CE
102
{ACAD_REACTORS
330
4CA
102
}
330
4CA
100
DictionaryVariables
280
     0
  1
Imperial24
  0
DICTIONARYVAR
  5
4D2
102
{ACAD_REACTORS
330
4CA
102
}
330
4CA
100
DictionaryVariables
280
     0
  1
1
  0
DICTIONARYVAR
  5
4D1
102
{ACAD_REACTORS
330
4CA
102
}
330
4CA
100
DictionaryVariables
280
     0
  1
0
  0
DICTIONARYVAR
  5
4D0
102
{ACAD_REACTORS
330
4CA
102
}
330
4CA
100
DictionaryVariables
280
     0
  1
127
  0
DICTIONARYVAR
  5
4D3
102
{ACAD_REACTORS
330
4CA
102
}
330
4CA
100
DictionaryVariables
280
     0
  1
2
  0
DICTIONARY
  5
510
330
49B
100
AcDbDictionary
280
     1
281
     1
  3
ACAD_XREC_ROUNDTRIP
360
511
  0
DICTIONARY
  5
514
330
4A3
100
AcDbDictionary
280
     1
281
     1
  3
ACAD_XREC_ROUNDTRIP
360
515
  0
DICTIONARY
  5
512
330
49F
100
AcDbDictionary
280
     1
281
     1
  3
ACAD_XREC_ROUNDTRIP
360
513
  0
DICTIONARY
  5
44B
330
44A
100
AcDbDictionary
280
     1
281
     1
  3
ACAD_XREC_ROUNDTRIP
360
4DA
  3
BUMPTILE
360
44D
  3
DIFFUSETILE
360
44C
  3
OPACITYTILE
360
450
  3
REFLECTIONTILE
360
44F
  3
REFRACTIONTILE
360
451
  3
SPECULARTILE
360
44E
  0
DICTIONARY
  5
443
330
442
100
AcDbDictionary
280
     1
281
     1
  3
ACAD_XREC_ROUNDTRIP
360
4D9
  3
BUMPTILE
360
445
  3
DIFFUSETILE
360
444
  3
OPACITYTILE
360
448
  3
REFLECTIONTILE
360
447
  3
REFRACTIONTILE
360
449
  3
SPECULARTILE
360
446
  0
DICTIONARY
  5
453
330
452
100
AcDbDictionary
280
     1
281
     1
  3
ACAD_XREC_ROUNDTRIP
360
4DB
  3
BUMPTILE
360
455
  3
DIFFUSETILE
360
454
  3
OPACITYTILE
360
458
  3
REFLECTIONTILE
360
457
  3
REFRACTIONTILE
360
459
  3
SPECULARTILE
360
456
  0
DICTIONARY
  5
50E
330
499
100
AcDbDictionary
280
     1
281
     1
  3
ACAD_XREC_ROUNDTRIP
360
50F
  0
DICTIONARY
  5
4D5
330
495
100
AcDbDictionary
280
     1
281
     1
  3
ACAD_ROUNDTRIP_2008_TABLESTYLE_CELLSTYLEMAP
360
4D6
  3
ACAD_XREC_ROUNDTRIP
360
50C
  0
DICTIONARY
  5
4E6
330
460
100
AcDbDictionary
280
     1
281
     1
  3
ACAD_XREC_ROUNDTRIP
360
4E7
  0
DICTIONARY
  5
4E4
330
45F
100
AcDbDictionary
280
     1
281
     1
  3
ACAD_XREC_ROUNDTRIP
360
4E5
  0
DICTIONARY
  5
4F2
330
466
100
AcDbDictionary
280
     1
281
     1
  3
ACAD_XREC_ROUNDTRIP
360
4F3
  0
DICTIONARY
  5
4FA
330
46A
100
AcDbDictionary
280
     1
281
     1
  3
ACAD_XREC_ROUNDTRIP
360
4FB
  0
DICTIONARY
  5
4EC
330
463
100
AcDbDictionary
280
     1
281
     1
  3
ACAD_XREC_ROUNDTRIP
360
4ED
  0
DICTIONARY
  5
4F0
330
465
100
AcDbDictionary
280
     1
281
     1
  3
ACAD_XREC_ROUNDTRIP
360
4F1
  0
DICTIONARY
  5
50A
330
472
100
AcDbDictionary
280
     1
281
     1
  3
ACAD_XREC_ROUNDTRIP
360
50B
  0
DICTIONARY
  5
4F8
330
469
100
AcDbDictionary
280
     1
281
     1
  3
ACAD_XREC_ROUNDTRIP
360
4F9
  0
DICTIONARY
  5
4DC
330
45B
100
AcDbDictionary
280
     1
281
     1
  3
ACAD_XREC_ROUNDTRIP
360
4DD
  0
DICTIONARY
  5
4DE
330
45C
100
AcDbDictionary
280
     1
281
     1
  3
ACAD_XREC_ROUNDTRIP
360
4DF
  0
DICTIONARY
  5
4E0
330
45D
100
AcDbDictionary
280
     1
281
     1
  3
ACAD_XREC_ROUNDTRIP
360
4E1
  0
DICTIONARY
  5
4E2
330
45E
100
AcDbDictionary
280
     1
281
     1
  3
ACAD_XREC_ROUNDTRIP
360
4E3
  0
DICTIONARY
  5
4EA
330
462
100
AcDbDictionary
280
     1
281
     1
  3
ACAD_XREC_ROUNDTRIP
360
4EB
  0
DICTIONARY
  5
506
330
470
100
AcDbDictionary
280
     1
281
     1
  3
ACAD_XREC_ROUNDTRIP
360
507
  0
DICTIONARY
  5
4F6
330
468
100
AcDbDictionary
280
     1
281
     1
  3
ACAD_XREC_ROUNDTRIP
360
4F7
  0
DICTIONARY
  5
508
330
471
100
AcDbDictionary
280
     1
281
     1
  3
ACAD_XREC_ROUNDTRIP
360
509
  0
DICTIONARY
  5
4EE
330
464
100
AcDbDictionary
280
     1
281
     1
  3
ACAD_XREC_ROUNDTRIP
360
4EF
  0
DICTIONARY
  5
504
330
46F
100
AcDbDictionary
280
     1
281
     1
  3
ACAD_XREC_ROUNDTRIP
360
505
  0
DICTIONARY
  5
502
330
46E
100
AcDbDictionary
280
     1
281
     1
  3
ACAD_XREC_ROUNDTRIP
360
503
  0
DICTIONARY
  5
4FC
330
46B
100
AcDbDictionary
280
     1
281
     1
  3
ACAD_XREC_ROUNDTRIP
360
4FD
  0
DICTIONARY
  5
4FE
330
46C
100
AcDbDictionary
280
     1
281
     1
  3
ACAD_XREC_ROUNDTRIP
360
4FF
  0
DICTIONARY
  5
4F4
330
467
100
AcDbDictionary
280
     1
281
     1
  3
ACAD_XREC_ROUNDTRIP
360
4F5
  0
DICTIONARY
  5
4E8
330
461
100
AcDbDictionary
280
     1
281
     1
  3
ACAD_XREC_ROUNDTRIP
360
4E9
  0
DICTIONARY
  5
500
330
46D
100
AcDbDictionary
280
     1
281
     1
  3
ACAD_XREC_ROUNDTRIP
360
501
  0
XRECORD
  5
511
102
{ACAD_REACTORS
330
510
102
}
330
510
100
AcDbXrecord
280
     1
102
DISPLAYNAME
  1
Imperial24
102
FLAGS
 90
        0
  0
XRECORD
  5
515
102
{ACAD_REACTORS
330
514
102
}
330
514
100
AcDbXrecord
280
     1
102
SHADEPLOT
 70
     0
102
SHADEPLOTRESLEVEL
 70
     2
102
SHADEPLOTCUSTOMDPI
 70
   300
  0
XRECORD
  5
513
102
{ACAD_REACTORS
330
512
102
}
330
512
100
AcDbXrecord
280
     1
102
SHADEPLOT
 70
     0
102
SHADEPLOTRESLEVEL
 70
     2
102
SHADEPLOTCUSTOMDPI
 70
   300
  0
XRECORD
  5
4DA
102
{ACAD_REACTORS
330
44B
102
}
330
44B
100
AcDbXrecord
280
     1
102
MATERIAL
148
0.0
149
0.0
149
0.0
 93
        0
 94
      127
282
     0
 72
     0
 77
     0
171
     0
175
     0
179
     0
273
     0
  0
XRECORD
  5
44D
102
{ACAD_REACTORS
330
44B
102
}
330
44B
100
AcDbXrecord
280
     1
270
     1
271
     1
  0
XRECORD
  5
44C
102
{ACAD_REACTORS
330
44B
102
}
330
44B
100
AcDbXrecord
280
     1
270
     1
271
     1
  0
XRECORD
  5
450
102
{ACAD_REACTORS
330
44B
102
}
330
44B
100
AcDbXrecord
280
     1
270
     1
271
     1
  0
XRECORD
  5
44F
102
{ACAD_REACTORS
330
44B
102
}
330
44B
100
AcDbXrecord
280
     1
270
     1
271
     1
  0
XRECORD
  5
451
102
{ACAD_REACTORS
330
44B
102
}
330
44B
100
AcDbXrecord
280
     1
270
     1
271
     1
  0
XRECORD
  5
44E
102
{ACAD_REACTORS
330
44B
102
}
330
44B
100
AcDbXrecord
280
     1
270
     1
271
     1
  0
XRECORD
  5
4D9
102
{ACAD_REACTORS
330
443
102
}
330
443
100
AcDbXrecord
280
     1
102
MATERIAL
148
0.0
149
0.0
149
0.0
 93
        0
 94
      127
282
     0
 72
     0
 77
     0
171
     0
175
     0
179
     0
273
     0
  0
XRECORD
  5
445
102
{ACAD_REACTORS
330
443
102
}
330
443
100
AcDbXrecord
280
     1
270
     1
271
     1
  0
XRECORD
  5
444
102
{ACAD_REACTORS
330
443
102
}
330
443
100
AcDbXrecord
280
     1
270
     1
271
     1
  0
XRECORD
  5
448
102
{ACAD_REACTORS
330
443
102
}
330
443
100
AcDbXrecord
280
     1
270
     1
271
     1
  0
XRECORD
  5
447
102
{ACAD_REACTORS
330
443
102
}
330
443
100
AcDbXrecord
280
     1
270
     1
271
     1
  0
XRECORD
  5
449
102
{ACAD_REACTORS
330
443
102
}
330
443
100
AcDbXrecord
280
     1
270
     1
271
     1
  0
XRECORD
  5
446
102
{ACAD_REACTORS
330
443
102
}
330
443
100
AcDbXrecord
280
     1
270
     1
271
     1
  0
XRECORD
  5
4DB
102
{ACAD_REACTORS
330
453
102
}
330
453
100
AcDbXrecord
280
     1
102
MATERIAL
148
0.0
149
0.0
149
0.0
 93
        0
 94
      127
282
     0
 72
     0
 77
     0
171
     0
175
     0
179
     0
273
     0
  0
XRECORD
  5
455
102
{ACAD_REACTORS
330
453
102
}
330
453
100
AcDbXrecord
280
     1
270
     1
271
     1
  0
XRECORD
  5
454
102
{ACAD_REACTORS
330
453
102
}
330
453
100
AcDbXrecord
280
     1
270
     1
271
     1
  0
XRECORD
  5
458
102
{ACAD_REACTORS
330
453
102
}
330
453
100
AcDbXrecord
280
     1
270
     1
271
     1
  0
XRECORD
  5
457
102
{ACAD_REACTORS
330
453
102
}
330
453
100
AcDbXrecord
280
     1
270
     1
271
     1
  0
XRECORD
  5
459
102
{ACAD_REACTORS
330
453
102
}
330
453
100
AcDbXrecord
280
     1
270
     1
271
     1
  0
XRECORD
  5
456
102
{ACAD_REACTORS
330
453
102
}
330
453
100
AcDbXrecord
280
     1
270
     1
271
     1
  0
XRECORD
  5
50F
102
{ACAD_REACTORS
330
50E
102
}
330
50E
100
AcDbXrecord
280
     1
102
DISPLAYNAME
  1
Imperial24
102
FLAGS
 90
        0
  0
CELLSTYLEMAP
  5
4D6
102
{ACAD_REACTORS
330
4D5
102
}
330
4D5
100
AcDbCellStyleMap
 90
        3
300
CELLSTYLE
  1
TABLEFORMAT_BEGIN
 90
        5
170
     1
 91
        0
 92
    32768
 62
   257
 93
        1
300
CONTENTFORMAT
  1
CONTENTFORMAT_BEGIN
 90
        0
 91
        0
 92
      512
 93
        0
300

 40
0.0
140
1.0
 94
        5
 62
     0
340
486
144
0.25
309
CONTENTFORMAT_END
171
     0
 94
        0
309
TABLEFORMAT_END
  1
CELLSTYLE_BEGIN
 90
        1
 91
        1
300
_TITLE
309
CELLSTYLE_END
300
CELLSTYLE
  1
TABLEFORMAT_BEGIN
 90
        5
170
     1
 91
        0
 92
        0
 62
   257
 93
        1
300
CONTENTFORMAT
  1
CONTENTFORMAT_BEGIN
 90
        0
 91
        0
 92
      512
 93
        0
300

 40
0.0
140
1.0
 94
        5
 62
     0
340
486
144
0.18
309
CONTENTFORMAT_END
171
     0
 94
        0
309
TABLEFORMAT_END
  1
CELLSTYLE_BEGIN
 90
        2
 91
        1
300
_HEADER
309
CELLSTYLE_END
300
CELLSTYLE
  1
TABLEFORMAT_BEGIN
 90
        5
170
     1
 91
        0
 92
        0
 62
   257
 93
        1
300
CONTENTFORMAT
  1
CONTENTFORMAT_BEGIN
 90
        0
 91
        0
 92
      512
 93
        0
300

 40
0.0
140
1.0
 94
        2
 62
     0
340
486
144
0.18
309
CONTENTFORMAT_END
171
     0
 94
        0
309
TABLEFORMAT_END
  1
CELLSTYLE_BEGIN
 90
        3
 91
        2
300
_DATA
309
CELLSTYLE_END
  0
XRECORD
  5
50C
102
{ACAD_REACTORS
330
4D5
102
}
330
4D5
100
AcDbXrecord
280
     1
102
ACAD_ROUNDTRIP_PRE2007_TABLESTYLE
 90
      512
 91
        0
  1

 92
      512
 93
        0
  2

 94
      512
 95
        0
  3

  0
XRECORD
  5
4E7
102
{ACAD_REACTORS
330
4E6
102
}
330
4E6
100
AcDbXrecord
280
     1
102
RTVSPost2010Prop28
280
     1
102
RTVSPost2010PropOp28
 70
     1
102
RTVSPost2010Prop29
280
     1
102
RTVSPost2010PropOp29
 70
     1
102
RTVSPost2010Prop30
280
     0
102
RTVSPost2010PropOp30
 70
     1
102
RTVSPost2010Prop31
280
     0
102
RTVSPost2010PropOp31
 70
     1
102
RTVSPost2010Prop32
280
     0
102
RTVSPost2010PropOp32
 70
     1
102
RTVSPost2010Prop33
280
     0
102
RTVSPost2010PropOp33
 70
     1
102
RTVSPost2010Prop34
280
     0
102
RTVSPost2010PropOp34
 70
     1
102
RTVSPost2010Prop35
280
     0
102
RTVSPost2010PropOp35
 70
     1
102
RTVSPost2010Prop36
280
     0
102
RTVSPost2010PropOp36
 70
     1
102
RTVSPost2010Prop37
 90
       50
102
RTVSPost2010PropOp37
 70
     1
102
RTVSPost2010Prop38
140
0.0
102
RTVSPost2010PropOp38
 70
     1
102
RTVSPost2010Prop39
140
1.0
102
RTVSPost2010PropOp39
 70
     1
102
RTVSPost2010Prop40
 90
        0
102
RTVSPost2010PropOp40
 70
     1
102
RTVSPost2010Prop41ColorIndex
 90
       18
102
RTVSPost2010Prop41ColorRGB
 90
        0
102
RTVSPost2010PropOp41
 70
     1
102
RTVSPost2010Prop42
 90
       50
102
RTVSPost2010PropOp42
 70
     1
102
RTVSPost2010Prop43
 90
        3
102
RTVSPost2010PropOp43
 70
     1
102
RTVSPost2010Prop44ColorIndex
 90
        5
102
RTVSPost2010Prop44ColorRGB
 90
      255
102
RTVSPost2010PropOp44
 70
     1
102
RTVSPost2010Prop45
280
     0
102
RTVSPost2010PropOp45
 70
     1
102
RTVSPost2010Prop46
 90
       50
102
RTVSPost2010PropOp46
 70
     1
102
RTVSPost2010Prop47
 90
       50
102
RTVSPost2010PropOp47
 70
     1
102
RTVSPost2010Prop48
 90
       50
102
RTVSPost2010PropOp48
 70
     1
102
RTVSPost2010Prop49
280
     0
102
RTVSPost2010PropOp49
 70
     1
102
RTVSPost2010Prop50
 90
       50
102
RTVSPost2010PropOp50
 70
     1
102
RTVSPost2010Prop51ColorIndex
 90
      256
102
RTVSPost2010Prop51ColorRGB
 90
-16777216
102
RTVSPost2010PropOp51
 70
     0
102
RTVSPost2010Prop52
140
1.0
102
RTVSPost2010PropOp52
 70
     0
102
RTVSPost2010Prop53
 90
        2
102
RTVSPost2010PropOp53
 70
     1
102
RTVSPost2010Prop54
  1
strokes_ogs.tif
102
RTVSPost2010PropOp54
 70
     1
102
RTVSPost2010Prop55
280
     0
102
RTVSPost2010PropOp55
 70
     1
102
RTVSPost2010Prop56
140
1.0
102
RTVSPost2010PropOp56
 70
     1
102
RTVSPost2010Prop57
140
1.0
102
RTVSPost2010PropOp57
 70
     1
102
RTVSPropertyOp0
 70
     1
102
RTVSPropertyOp1
 70
     1
102
RTVSPropertyOp2
 70
     1
102
RTVSPropertyOp3
 70
     1
102
RTVSPropertyOp4
 70
     1
102
RTVSPropertyOp5
 70
     1
102
RTVSPropertyOp6
 70
     1
102
RTVSPropertyOp7
 70
     1
102
RTVSPropertyOp8
 70
     1
102
RTVSPropertyOp9
 70
     1
102
RTVSPropertyOp10
 70
     1
102
RTVSPropertyOp11
 70
     1
102
RTVSPropertyOp12
 70
     1
102
RTVSPropertyOp13
 70
     1
102
RTVSPropertyOp14
 70
     1
102
RTVSPropertyOp15
 70
     1
102
RTVSPropertyOp16
 70
     1
102
RTVSPropertyOp17
 70
     1
102
RTVSPropertyOp18
 70
     1
102
RTVSPropertyOp19
 70
     1
102
RTVSPropertyOp20
 70
     1
102
RTVSPropertyOp21
 70
     1
102
RTVSPropertyOp22
 70
     1
102
RTVSPropertyOp23
 70
     1
102
RTVSPropertyOp24
 70
     1
102
RTVSPropertyOp25
 70
     1
102
RTVSPropertyOp26
 70
     1
102
RTVSPropertyOp27
 70
     1
102
RTVSPropertyOp28
 70
     1
102
RTVSPropertyOp29
 70
     1
102
RTVSPropertyOp30
 70
     1
102
RTVSPropertyOp31
 70
     1
102
RTVSPropertyOp32
 70
     1
102
RTVSPropertyOp33
 70
     1
102
RTVSPropertyOp34
 70
     1
102
RTVSPropertyOp35
 70
     1
102
RTVSPropertyOp36
 70
     1
102
RTVSPropertyOp37
 70
     1
102
RTVSPropertyOp38
 70
     1
102
RTVSPropertyOp39
 70
     1
102
RTVSPropertyOp40
 70
     1
102
RTVSPropertyOp41
 70
     1
102
RTVSPropertyOp42
 70
     1
102
RTVSPropertyOp43
 70
     1
102
RTVSPropertyOp44
 70
     1
102
RTVSPropertyOp45
 70
     1
102
RTVSPropertyOp46
 70
     1
102
RTVSPropertyOp47
 70
     1
102
RTVSPropertyOp48
 70
     1
102
RTVSPropertyOp49
 70
     1
102
RTVSPropertyOp50
 70
     1
102
RTVSPropertyOp51
 70
     0
102
RTVSPropertyOp52
 70
     0
102
RTVSPropertyOp53
 70
     1
102
RTVSPropertyOp54
 70
     1
102
RTVSPropertyOp55
 70
     1
102
RTVSPropertyOp56
 70
     1
102
RTVSPropertyOp57
 70
     1
102
RTVSPropertyOp58
 70
     1
102
RTVSPropertyOp59
 70
     1
102
RTVSPropertyOp60
 70
     1
102
RTVSPropertyOp61
 70
     1
102
RTVSPropertyOp62
 70
     1
  0
XRECORD
  5
4E5
102
{ACAD_REACTORS
330
4E4
102
}
330
4E4
100
AcDbXrecord
280
     1
102
RTVSPost2010Prop28
280
     0
102
RTVSPost2010PropOp28
 70
     1
102
RTVSPost2010Prop29
280
     1
102
RTVSPost2010PropOp29
 70
     1
102
RTVSPost2010Prop30
280
     1
102
RTVSPost2010PropOp30
 70
     1
102
RTVSPost2010Prop31
280
     0
102
RTVSPost2010PropOp31
 70
     1
102
RTVSPost2010Prop32
280
     0
102
RTVSPost2010PropOp32
 70
     1
102
RTVSPost2010Prop33
280
     0
102
RTVSPost2010PropOp33
 70
     1
102
RTVSPost2010Prop34
280
     0
102
RTVSPost2010PropOp34
 70
     1
102
RTVSPost2010Prop35
280
     0
102
RTVSPost2010PropOp35
 70
     1
102
RTVSPost2010Prop36
280
     0
102
RTVSPost2010PropOp36
 70
     1
102
RTVSPost2010Prop37
 90
       50
102
RTVSPost2010PropOp37
 70
     1
102
RTVSPost2010Prop38
140
0.0
102
RTVSPost2010PropOp38
 70
     1
102
RTVSPost2010Prop39
140
1.0
102
RTVSPost2010PropOp39
 70
     1
102
RTVSPost2010Prop40
 90
        0
102
RTVSPost2010PropOp40
 70
     1
102
RTVSPost2010Prop41ColorIndex
 90
       18
102
RTVSPost2010Prop41ColorRGB
 90
        0
102
RTVSPost2010PropOp41
 70
     1
102
RTVSPost2010Prop42
 90
       50
102
RTVSPost2010PropOp42
 70
     1
102
RTVSPost2010Prop43
 90
        3
102
RTVSPost2010PropOp43
 70
     1
102
RTVSPost2010Prop44ColorIndex
 90
        5
102
RTVSPost2010Prop44ColorRGB
 90
      255
102
RTVSPost2010PropOp44
 70
     1
102
RTVSPost2010Prop45
280
     0
102
RTVSPost2010PropOp45
 70
     1
102
RTVSPost2010Prop46
 90
       50
102
RTVSPost2010PropOp46
 70
     1
102
RTVSPost2010Prop47
 90
       50
102
RTVSPost2010PropOp47
 70
     1
102
RTVSPost2010Prop48
 90
       50
102
RTVSPost2010PropOp48
 70
     1
102
RTVSPost2010Prop49
280
     0
102
RTVSPost2010PropOp49
 70
     1
102
RTVSPost2010Prop50
 90
       50
102
RTVSPost2010PropOp50
 70
     1
102
RTVSPost2010Prop51ColorIndex
 90
      256
102
RTVSPost2010Prop51ColorRGB
 90
-16777216
102
RTVSPost2010PropOp51
 70
     0
102
RTVSPost2010Prop52
140
1.0
102
RTVSPost2010PropOp52
 70
     0
102
RTVSPost2010Prop53
 90
        2
102
RTVSPost2010PropOp53
 70
     1
102
RTVSPost2010Prop54
  1
strokes_ogs.tif
102
RTVSPost2010PropOp54
 70
     1
102
RTVSPost2010Prop55
280
     0
102
RTVSPost2010PropOp55
 70
     1
102
RTVSPost2010Prop56
140
1.0
102
RTVSPost2010PropOp56
 70
     1
102
RTVSPost2010Prop57
140
1.0
102
RTVSPost2010PropOp57
 70
     1
102
RTVSPropertyOp0
 70
     1
102
RTVSPropertyOp1
 70
     1
102
RTVSPropertyOp2
 70
     1
102
RTVSPropertyOp3
 70
     1
102
RTVSPropertyOp4
 70
     1
102
RTVSPropertyOp5
 70
     1
102
RTVSPropertyOp6
 70
     1
102
RTVSPropertyOp7
 70
     1
102
RTVSPropertyOp8
 70
     1
102
RTVSPropertyOp9
 70
     1
102
RTVSPropertyOp10
 70
     1
102
RTVSPropertyOp11
 70
     1
102
RTVSPropertyOp12
 70
     1
102
RTVSPropertyOp13
 70
     1
102
RTVSPropertyOp14
 70
     1
102
RTVSPropertyOp15
 70
     1
102
RTVSPropertyOp16
 70
     1
102
RTVSPropertyOp17
 70
     1
102
RTVSPropertyOp18
 70
     1
102
RTVSPropertyOp19
 70
     1
102
RTVSPropertyOp20
 70
     1
102
RTVSPropertyOp21
 70
     1
102
RTVSPropertyOp22
 70
     1
102
RTVSPropertyOp23
 70
     1
102
RTVSPropertyOp24
 70
     1
102
RTVSPropertyOp25
 70
     1
102
RTVSPropertyOp26
 70
     1
102
RTVSPropertyOp27
 70
     1
102
RTVSPropertyOp28
 70
     1
102
RTVSPropertyOp29
 70
     1
102
RTVSPropertyOp30
 70
     1
102
RTVSPropertyOp31
 70
     1
102
RTVSPropertyOp32
 70
     1
102
RTVSPropertyOp33
 70
     1
102
RTVSPropertyOp34
 70
     1
102
RTVSPropertyOp35
 70
     1
102
RTVSPropertyOp36
 70
     1
102
RTVSPropertyOp37
 70
     1
102
RTVSPropertyOp38
 70
     1
102
RTVSPropertyOp39
 70
     1
102
RTVSPropertyOp40
 70
     1
102
RTVSPropertyOp41
 70
     1
102
RTVSPropertyOp42
 70
     1
102
RTVSPropertyOp43
 70
     1
102
RTVSPropertyOp44
 70
     1
102
RTVSPropertyOp45
 70
     1
102
RTVSPropertyOp46
 70
     1
102
RTVSPropertyOp47
 70
     1
102
RTVSPropertyOp48
 70
     1
102
RTVSPropertyOp49
 70
     1
102
RTVSPropertyOp50
 70
     1
102
RTVSPropertyOp51
 70
     0
102
RTVSPropertyOp52
 70
     0
102
RTVSPropertyOp53
 70
     1
102
RTVSPropertyOp54
 70
     1
102
RTVSPropertyOp55
 70
     1
102
RTVSPropertyOp56
 70
     1
102
RTVSPropertyOp57
 70
     1
102
RTVSPropertyOp58
 70
     1
102
RTVSPropertyOp59
 70
     1
102
RTVSPropertyOp60
 70
     1
102
RTVSPropertyOp61
 70
     1
102
RTVSPropertyOp62
 70
     1
  0
XRECORD
  5
4F3
102
{ACAD_REACTORS
330
4F2
102
}
330
4F2
100
AcDbXrecord
280
     1
102
RTVSPost2010Prop28
280
     0
102
RTVSPost2010PropOp28
 70
     1
102
RTVSPost2010Prop29
280
     1
102
RTVSPost2010PropOp29
 70
     1
102
RTVSPost2010Prop30
280
     1
102
RTVSPost2010PropOp30
 70
     1
102
RTVSPost2010Prop31
280
     0
102
RTVSPost2010PropOp31
 70
     1
102
RTVSPost2010Prop32
280
     0
102
RTVSPost2010PropOp32
 70
     1
102
RTVSPost2010Prop33
280
     0
102
RTVSPost2010PropOp33
 70
     1
102
RTVSPost2010Prop34
280
     0
102
RTVSPost2010PropOp34
 70
     1
102
RTVSPost2010Prop35
280
     0
102
RTVSPost2010PropOp35
 70
     1
102
RTVSPost2010Prop36
280
     0
102
RTVSPost2010PropOp36
 70
     1
102
RTVSPost2010Prop37
 90
       50
102
RTVSPost2010PropOp37
 70
     1
102
RTVSPost2010Prop38
140
0.0
102
RTVSPost2010PropOp38
 70
     1
102
RTVSPost2010Prop39
140
1.0
102
RTVSPost2010PropOp39
 70
     1
102
RTVSPost2010Prop40
 90
        0
102
RTVSPost2010PropOp40
 70
     1
102
RTVSPost2010Prop41ColorIndex
 90
       18
102
RTVSPost2010Prop41ColorRGB
 90
        0
102
RTVSPost2010PropOp41
 70
     1
102
RTVSPost2010Prop42
 90
       50
102
RTVSPost2010PropOp42
 70
     1
102
RTVSPost2010Prop43
 90
        3
102
RTVSPost2010PropOp43
 70
     1
102
RTVSPost2010Prop44ColorIndex
 90
        5
102
RTVSPost2010Prop44ColorRGB
 90
      255
102
RTVSPost2010PropOp44
 70
     1
102
RTVSPost2010Prop45
280
     0
102
RTVSPost2010PropOp45
 70
     1
102
RTVSPost2010Prop46
 90
       50
102
RTVSPost2010PropOp46
 70
     1
102
RTVSPost2010Prop47
 90
       50
102
RTVSPost2010PropOp47
 70
     1
102
RTVSPost2010Prop48
 90
       50
102
RTVSPost2010PropOp48
 70
     1
102
RTVSPost2010Prop49
280
     0
102
RTVSPost2010PropOp49
 70
     1
102
RTVSPost2010Prop50
 90
       50
102
RTVSPost2010PropOp50
 70
     1
102
RTVSPost2010Prop51ColorIndex
 90
      256
102
RTVSPost2010Prop51ColorRGB
 90
-16777216
102
RTVSPost2010PropOp51
 70
     0
102
RTVSPost2010Prop52
140
1.0
102
RTVSPost2010PropOp52
 70
     0
102
RTVSPost2010Prop53
 90
        2
102
RTVSPost2010PropOp53
 70
     1
102
RTVSPost2010Prop54
  1
strokes_ogs.tif
102
RTVSPost2010PropOp54
 70
     1
102
RTVSPost2010Prop55
280
     0
102
RTVSPost2010PropOp55
 70
     1
102
RTVSPost2010Prop56
140
1.0
102
RTVSPost2010PropOp56
 70
     1
102
RTVSPost2010Prop57
140
1.0
102
RTVSPost2010PropOp57
 70
     1
102
RTVSPropertyOp0
 70
     1
102
RTVSPropertyOp1
 70
     1
102
RTVSPropertyOp2
 70
     1
102
RTVSPropertyOp3
 70
     1
102
RTVSPropertyOp4
 70
     1
102
RTVSPropertyOp5
 70
     1
102
RTVSPropertyOp6
 70
     1
102
RTVSPropertyOp7
 70
     1
102
RTVSPropertyOp8
 70
     1
102
RTVSPropertyOp9
 70
     1
102
RTVSPropertyOp10
 70
     1
102
RTVSPropertyOp11
 70
     1
102
RTVSPropertyOp12
 70
     1
102
RTVSPropertyOp13
 70
     1
102
RTVSPropertyOp14
 70
     1
102
RTVSPropertyOp15
 70
     1
102
RTVSPropertyOp16
 70
     1
102
RTVSPropertyOp17
 70
     1
102
RTVSPropertyOp18
 70
     1
102
RTVSPropertyOp19
 70
     1
102
RTVSPropertyOp20
 70
     1
102
RTVSPropertyOp21
 70
     1
102
RTVSPropertyOp22
 70
     1
102
RTVSPropertyOp23
 70
     1
102
RTVSPropertyOp24
 70
     1
102
RTVSPropertyOp25
 70
     1
102
RTVSPropertyOp26
 70
     1
102
RTVSPropertyOp27
 70
     1
102
RTVSPropertyOp28
 70
     1
102
RTVSPropertyOp29
 70
     1
102
RTVSPropertyOp30
 70
     1
102
RTVSPropertyOp31
 70
     1
102
RTVSPropertyOp32
 70
     1
102
RTVSPropertyOp33
 70
     1
102
RTVSPropertyOp34
 70
     1
102
RTVSPropertyOp35
 70
     1
102
RTVSPropertyOp36
 70
     1
102
RTVSPropertyOp37
 70
     1
102
RTVSPropertyOp38
 70
     1
102
RTVSPropertyOp39
 70
     1
102
RTVSPropertyOp40
 70
     1
102
RTVSPropertyOp41
 70
     1
102
RTVSPropertyOp42
 70
     1
102
RTVSPropertyOp43
 70
     1
102
RTVSPropertyOp44
 70
     1
102
RTVSPropertyOp45
 70
     1
102
RTVSPropertyOp46
 70
     1
102
RTVSPropertyOp47
 70
     1
102
RTVSPropertyOp48
 70
     1
102
RTVSPropertyOp49
 70
     1
102
RTVSPropertyOp50
 70
     1
102
RTVSPropertyOp51
 70
     0
102
RTVSPropertyOp52
 70
     0
102
RTVSPropertyOp53
 70
     1
102
RTVSPropertyOp54
 70
     1
102
RTVSPropertyOp55
 70
     1
102
RTVSPropertyOp56
 70
     1
102
RTVSPropertyOp57
 70
     1
102
RTVSPropertyOp58
 70
     1
102
RTVSPropertyOp59
 70
     1
102
RTVSPropertyOp60
 70
     1
102
RTVSPropertyOp61
 70
     1
102
RTVSPropertyOp62
 70
     1
  0
XRECORD
  5
4FB
102
{ACAD_REACTORS
330
4FA
102
}
330
4FA
100
AcDbXrecord
280
     1
102
RTVSPost2010Prop28
280
     0
102
RTVSPost2010PropOp28
 70
     1
102
RTVSPost2010Prop29
280
     1
102
RTVSPost2010PropOp29
 70
     1
102
RTVSPost2010Prop30
280
     1
102
RTVSPost2010PropOp30
 70
     1
102
RTVSPost2010Prop31
280
     0
102
RTVSPost2010PropOp31
 70
     1
102
RTVSPost2010Prop32
280
     0
102
RTVSPost2010PropOp32
 70
     1
102
RTVSPost2010Prop33
280
     0
102
RTVSPost2010PropOp33
 70
     1
102
RTVSPost2010Prop34
280
     0
102
RTVSPost2010PropOp34
 70
     1
102
RTVSPost2010Prop35
280
     0
102
RTVSPost2010PropOp35
 70
     1
102
RTVSPost2010Prop36
280
     0
102
RTVSPost2010PropOp36
 70
     1
102
RTVSPost2010Prop37
 90
       50
102
RTVSPost2010PropOp37
 70
     1
102
RTVSPost2010Prop38
140
0.0
102
RTVSPost2010PropOp38
 70
     1
102
RTVSPost2010Prop39
140
1.0
102
RTVSPost2010PropOp39
 70
     1
102
RTVSPost2010Prop40
 90
        0
102
RTVSPost2010PropOp40
 70
     1
102
RTVSPost2010Prop41ColorIndex
 90
       18
102
RTVSPost2010Prop41ColorRGB
 90
        0
102
RTVSPost2010PropOp41
 70
     1
102
RTVSPost2010Prop42
 90
       50
102
RTVSPost2010PropOp42
 70
     1
102
RTVSPost2010Prop43
 90
        3
102
RTVSPost2010PropOp43
 70
     1
102
RTVSPost2010Prop44ColorIndex
 90
        5
102
RTVSPost2010Prop44ColorRGB
 90
      255
102
RTVSPost2010PropOp44
 70
     1
102
RTVSPost2010Prop45
280
     0
102
RTVSPost2010PropOp45
 70
     1
102
RTVSPost2010Prop46
 90
       50
102
RTVSPost2010PropOp46
 70
     1
102
RTVSPost2010Prop47
 90
       50
102
RTVSPost2010PropOp47
 70
     1
102
RTVSPost2010Prop48
 90
       50
102
RTVSPost2010PropOp48
 70
     1
102
RTVSPost2010Prop49
280
     0
102
RTVSPost2010PropOp49
 70
     1
102
RTVSPost2010Prop50
 90
       50
102
RTVSPost2010PropOp50
 70
     1
102
RTVSPost2010Prop51ColorIndex
 90
      256
102
RTVSPost2010Prop51ColorRGB
 90
-16777216
102
RTVSPost2010PropOp51
 70
     0
102
RTVSPost2010Prop52
140
1.0
102
RTVSPost2010PropOp52
 70
     0
102
RTVSPost2010Prop53
 90
        2
102
RTVSPost2010PropOp53
 70
     1
102
RTVSPost2010Prop54
  1
strokes_ogs.tif
102
RTVSPost2010PropOp54
 70
     1
102
RTVSPost2010Prop55
280
     0
102
RTVSPost2010PropOp55
 70
     1
102
RTVSPost2010Prop56
140
1.0
102
RTVSPost2010PropOp56
 70
     1
102
RTVSPost2010Prop57
140
1.0
102
RTVSPost2010PropOp57
 70
     1
102
RTVSPropertyOp0
 70
     1
102
RTVSPropertyOp1
 70
     1
102
RTVSPropertyOp2
 70
     1
102
RTVSPropertyOp3
 70
     1
102
RTVSPropertyOp4
 70
     1
102
RTVSPropertyOp5
 70
     1
102
RTVSPropertyOp6
 70
     1
102
RTVSPropertyOp7
 70
     1
102
RTVSPropertyOp8
 70
     1
102
RTVSPropertyOp9
 70
     1
102
RTVSPropertyOp10
 70
     1
102
RTVSPropertyOp11
 70
     1
102
RTVSPropertyOp12
 70
     1
102
RTVSPropertyOp13
 70
     1
102
RTVSPropertyOp14
 70
     1
102
RTVSPropertyOp15
 70
     1
102
RTVSPropertyOp16
 70
     1
102
RTVSPropertyOp17
 70
     1
102
RTVSPropertyOp18
 70
     1
102
RTVSPropertyOp19
 70
     1
102
RTVSPropertyOp20
 70
     1
102
RTVSPropertyOp21
 70
     1
102
RTVSPropertyOp22
 70
     1
102
RTVSPropertyOp23
 70
     1
102
RTVSPropertyOp24
 70
     1
102
RTVSPropertyOp25
 70
     1
102
RTVSPropertyOp26
 70
     1
102
RTVSPropertyOp27
 70
     1
102
RTVSPropertyOp28
 70
     1
102
RTVSPropertyOp29
 70
     1
102
RTVSPropertyOp30
 70
     1
102
RTVSPropertyOp31
 70
     1
102
RTVSPropertyOp32
 70
     1
102
RTVSPropertyOp33
 70
     1
102
RTVSPropertyOp34
 70
     1
102
RTVSPropertyOp35
 70
     1
102
RTVSPropertyOp36
 70
     1
102
RTVSPropertyOp37
 70
     1
102
RTVSPropertyOp38
 70
     1
102
RTVSPropertyOp39
 70
     1
102
RTVSPropertyOp40
 70
     1
102
RTVSPropertyOp41
 70
     1
102
RTVSPropertyOp42
 70
     1
102
RTVSPropertyOp43
 70
     1
102
RTVSPropertyOp44
 70
     1
102
RTVSPropertyOp45
 70
     1
102
RTVSPropertyOp46
 70
     1
102
RTVSPropertyOp47
 70
     1
102
RTVSPropertyOp48
 70
     1
102
RTVSPropertyOp49
 70
     1
102
RTVSPropertyOp50
 70
     1
102
RTVSPropertyOp51
 70
     0
102
RTVSPropertyOp52
 70
     0
102
RTVSPropertyOp53
 70
     1
102
RTVSPropertyOp54
 70
     1
102
RTVSPropertyOp55
 70
     1
102
RTVSPropertyOp56
 70
     1
102
RTVSPropertyOp57
 70
     1
102
RTVSPropertyOp58
 70
     1
102
RTVSPropertyOp59
 70
     1
102
RTVSPropertyOp60
 70
     1
102
RTVSPropertyOp61
 70
     1
102
RTVSPropertyOp62
 70
     1
  0
XRECORD
  5
4ED
102
{ACAD_REACTORS
330
4EC
102
}
330
4EC
100
AcDbXrecord
280
     1
102
RTVSPost2010Prop28
280
     0
102
RTVSPost2010PropOp28
 70
     1
102
RTVSPost2010Prop29
280
     1
102
RTVSPost2010PropOp29
 70
     1
102
RTVSPost2010Prop30
280
     1
102
RTVSPost2010PropOp30
 70
     1
102
RTVSPost2010Prop31
280
     0
102
RTVSPost2010PropOp31
 70
     1
102
RTVSPost2010Prop32
280
     0
102
RTVSPost2010PropOp32
 70
     1
102
RTVSPost2010Prop33
280
     0
102
RTVSPost2010PropOp33
 70
     1
102
RTVSPost2010Prop34
280
     0
102
RTVSPost2010PropOp34
 70
     1
102
RTVSPost2010Prop35
280
     0
102
RTVSPost2010PropOp35
 70
     1
102
RTVSPost2010Prop36
280
     0
102
RTVSPost2010PropOp36
 70
     1
102
RTVSPost2010Prop37
 90
       50
102
RTVSPost2010PropOp37
 70
     1
102
RTVSPost2010Prop38
140
0.0
102
RTVSPost2010PropOp38
 70
     1
102
RTVSPost2010Prop39
140
1.0
102
RTVSPost2010PropOp39
 70
     1
102
RTVSPost2010Prop40
 90
        0
102
RTVSPost2010PropOp40
 70
     1
102
RTVSPost2010Prop41ColorIndex
 90
       18
102
RTVSPost2010Prop41ColorRGB
 90
        0
102
RTVSPost2010PropOp41
 70
     1
102
RTVSPost2010Prop42
 90
       50
102
RTVSPost2010PropOp42
 70
     1
102
RTVSPost2010Prop43
 90
        3
102
RTVSPost2010PropOp43
 70
     1
102
RTVSPost2010Prop44ColorIndex
 90
        5
102
RTVSPost2010Prop44ColorRGB
 90
      255
102
RTVSPost2010PropOp44
 70
     1
102
RTVSPost2010Prop45
280
     0
102
RTVSPost2010PropOp45
 70
     1
102
RTVSPost2010Prop46
 90
       50
102
RTVSPost2010PropOp46
 70
     1
102
RTVSPost2010Prop47
 90
       50
102
RTVSPost2010PropOp47
 70
     1
102
RTVSPost2010Prop48
 90
       50
102
RTVSPost2010PropOp48
 70
     1
102
RTVSPost2010Prop49
280
     0
102
RTVSPost2010PropOp49
 70
     1
102
RTVSPost2010Prop50
 90
       50
102
RTVSPost2010PropOp50
 70
     1
102
RTVSPost2010Prop51ColorIndex
 90
      256
102
RTVSPost2010Prop51ColorRGB
 90
-16777216
102
RTVSPost2010PropOp51
 70
     0
102
RTVSPost2010Prop52
140
1.0
102
RTVSPost2010PropOp52
 70
     0
102
RTVSPost2010Prop53
 90
        2
102
RTVSPost2010PropOp53
 70
     1
102
RTVSPost2010Prop54
  1
strokes_ogs.tif
102
RTVSPost2010PropOp54
 70
     1
102
RTVSPost2010Prop55
280
     0
102
RTVSPost2010PropOp55
 70
     1
102
RTVSPost2010Prop56
140
1.0
102
RTVSPost2010PropOp56
 70
     1
102
RTVSPost2010Prop57
140
1.0
102
RTVSPost2010PropOp57
 70
     1
102
RTVSPropertyOp0
 70
     1
102
RTVSPropertyOp1
 70
     1
102
RTVSPropertyOp2
 70
     1
102
RTVSPropertyOp3
 70
     1
102
RTVSPropertyOp4
 70
     1
102
RTVSPropertyOp5
 70
     1
102
RTVSPropertyOp6
 70
     1
102
RTVSPropertyOp7
 70
     1
102
RTVSPropertyOp8
 70
     1
102
RTVSPropertyOp9
 70
     1
102
RTVSPropertyOp10
 70
     1
102
RTVSPropertyOp11
 70
     1
102
RTVSPropertyOp12
 70
     1
102
RTVSPropertyOp13
 70
     1
102
RTVSPropertyOp14
 70
     1
102
RTVSPropertyOp15
 70
     1
102
RTVSPropertyOp16
 70
     1
102
RTVSPropertyOp17
 70
     1
102
RTVSPropertyOp18
 70
     1
102
RTVSPropertyOp19
 70
     1
102
RTVSPropertyOp20
 70
     1
102
RTVSPropertyOp21
 70
     1
102
RTVSPropertyOp22
 70
     1
102
RTVSPropertyOp23
 70
     1
102
RTVSPropertyOp24
 70
     1
102
RTVSPropertyOp25
 70
     1
102
RTVSPropertyOp26
 70
     1
102
RTVSPropertyOp27
 70
     1
102
RTVSPropertyOp28
 70
     1
102
RTVSPropertyOp29
 70
     1
102
RTVSPropertyOp30
 70
     1
102
RTVSPropertyOp31
 70
     1
102
RTVSPropertyOp32
 70
     1
102
RTVSPropertyOp33
 70
     1
102
RTVSPropertyOp34
 70
     1
102
RTVSPropertyOp35
 70
     1
102
RTVSPropertyOp36
 70
     1
102
RTVSPropertyOp37
 70
     1
102
RTVSPropertyOp38
 70
     1
102
RTVSPropertyOp39
 70
     1
102
RTVSPropertyOp40
 70
     1
102
RTVSPropertyOp41
 70
     1
102
RTVSPropertyOp42
 70
     1
102
RTVSPropertyOp43
 70
     1
102
RTVSPropertyOp44
 70
     1
102
RTVSPropertyOp45
 70
     1
102
RTVSPropertyOp46
 70
     1
102
RTVSPropertyOp47
 70
     1
102
RTVSPropertyOp48
 70
     1
102
RTVSPropertyOp49
 70
     1
102
RTVSPropertyOp50
 70
     1
102
RTVSPropertyOp51
 70
     0
102
RTVSPropertyOp52
 70
     0
102
RTVSPropertyOp53
 70
     1
102
RTVSPropertyOp54
 70
     1
102
RTVSPropertyOp55
 70
     1
102
RTVSPropertyOp56
 70
     1
102
RTVSPropertyOp57
 70
     1
102
RTVSPropertyOp58
 70
     1
102
RTVSPropertyOp59
 70
     1
102
RTVSPropertyOp60
 70
     1
102
RTVSPropertyOp61
 70
     1
102
RTVSPropertyOp62
 70
     1
  0
XRECORD
  5
4F1
102
{ACAD_REACTORS
330
4F0
102
}
330
4F0
100
AcDbXrecord
280
     1
102
RTVSPost2010Prop28
280
     0
102
RTVSPost2010PropOp28
 70
     1
102
RTVSPost2010Prop29
280
     1
102
RTVSPost2010PropOp29
 70
     1
102
RTVSPost2010Prop30
280
     1
102
RTVSPost2010PropOp30
 70
     1
102
RTVSPost2010Prop31
280
     0
102
RTVSPost2010PropOp31
 70
     1
102
RTVSPost2010Prop32
280
     0
102
RTVSPost2010PropOp32
 70
     1
102
RTVSPost2010Prop33
280
     0
102
RTVSPost2010PropOp33
 70
     1
102
RTVSPost2010Prop34
280
     0
102
RTVSPost2010PropOp34
 70
     1
102
RTVSPost2010Prop35
280
     0
102
RTVSPost2010PropOp35
 70
     1
102
RTVSPost2010Prop36
280
     0
102
RTVSPost2010PropOp36
 70
     1
102
RTVSPost2010Prop37
 90
       50
102
RTVSPost2010PropOp37
 70
     1
102
RTVSPost2010Prop38
140
0.0
102
RTVSPost2010PropOp38
 70
     1
102
RTVSPost2010Prop39
140
1.0
102
RTVSPost2010PropOp39
 70
     1
102
RTVSPost2010Prop40
 90
        0
102
RTVSPost2010PropOp40
 70
     1
102
RTVSPost2010Prop41ColorIndex
 90
       18
102
RTVSPost2010Prop41ColorRGB
 90
        0
102
RTVSPost2010PropOp41
 70
     1
102
RTVSPost2010Prop42
 90
       50
102
RTVSPost2010PropOp42
 70
     1
102
RTVSPost2010Prop43
 90
        3
102
RTVSPost2010PropOp43
 70
     1
102
RTVSPost2010Prop44ColorIndex
 90
        5
102
RTVSPost2010Prop44ColorRGB
 90
      255
102
RTVSPost2010PropOp44
 70
     1
102
RTVSPost2010Prop45
280
     0
102
RTVSPost2010PropOp45
 70
     1
102
RTVSPost2010Prop46
 90
       50
102
RTVSPost2010PropOp46
 70
     1
102
RTVSPost2010Prop47
 90
       50
102
RTVSPost2010PropOp47
 70
     1
102
RTVSPost2010Prop48
 90
       50
102
RTVSPost2010PropOp48
 70
     1
102
RTVSPost2010Prop49
280
     0
102
RTVSPost2010PropOp49
 70
     1
102
RTVSPost2010Prop50
 90
       50
102
RTVSPost2010PropOp50
 70
     1
102
RTVSPost2010Prop51ColorIndex
 90
      256
102
RTVSPost2010Prop51ColorRGB
 90
-16777216
102
RTVSPost2010PropOp51
 70
     0
102
RTVSPost2010Prop52
140
1.0
102
RTVSPost2010PropOp52
 70
     0
102
RTVSPost2010Prop53
 90
        2
102
RTVSPost2010PropOp53
 70
     1
102
RTVSPost2010Prop54
  1
strokes_ogs.tif
102
RTVSPost2010PropOp54
 70
     1
102
RTVSPost2010Prop55
280
     0
102
RTVSPost2010PropOp55
 70
     1
102
RTVSPost2010Prop56
140
1.0
102
RTVSPost2010PropOp56
 70
     1
102
RTVSPost2010Prop57
140
1.0
102
RTVSPost2010PropOp57
 70
     1
102
RTVSPropertyOp0
 70
     1
102
RTVSPropertyOp1
 70
     1
102
RTVSPropertyOp2
 70
     1
102
RTVSPropertyOp3
 70
     1
102
RTVSPropertyOp4
 70
     1
102
RTVSPropertyOp5
 70
     1
102
RTVSPropertyOp6
 70
     1
102
RTVSPropertyOp7
 70
     1
102
RTVSPropertyOp8
 70
     1
102
RTVSPropertyOp9
 70
     1
102
RTVSPropertyOp10
 70
     1
102
RTVSPropertyOp11
 70
     1
102
RTVSPropertyOp12
 70
     1
102
RTVSPropertyOp13
 70
     1
102
RTVSPropertyOp14
 70
     1
102
RTVSPropertyOp15
 70
     1
102
RTVSPropertyOp16
 70
     1
102
RTVSPropertyOp17
 70
     1
102
RTVSPropertyOp18
 70
     1
102
RTVSPropertyOp19
 70
     1
102
RTVSPropertyOp20
 70
     1
102
RTVSPropertyOp21
 70
     1
102
RTVSPropertyOp22
 70
     1
102
RTVSPropertyOp23
 70
     1
102
RTVSPropertyOp24
 70
     1
102
RTVSPropertyOp25
 70
     1
102
RTVSPropertyOp26
 70
     1
102
RTVSPropertyOp27
 70
     1
102
RTVSPropertyOp28
 70
     1
102
RTVSPropertyOp29
 70
     1
102
RTVSPropertyOp30
 70
     1
102
RTVSPropertyOp31
 70
     1
102
RTVSPropertyOp32
 70
     1
102
RTVSPropertyOp33
 70
     1
102
RTVSPropertyOp34
 70
     1
102
RTVSPropertyOp35
 70
     1
102
RTVSPropertyOp36
 70
     1
102
RTVSPropertyOp37
 70
     1
102
RTVSPropertyOp38
 70
     1
102
RTVSPropertyOp39
 70
     1
102
RTVSPropertyOp40
 70
     1
102
RTVSPropertyOp41
 70
     1
102
RTVSPropertyOp42
 70
     1
102
RTVSPropertyOp43
 70
     1
102
RTVSPropertyOp44
 70
     1
102
RTVSPropertyOp45
 70
     1
102
RTVSPropertyOp46
 70
     1
102
RTVSPropertyOp47
 70
     1
102
RTVSPropertyOp48
 70
     1
102
RTVSPropertyOp49
 70
     1
102
RTVSPropertyOp50
 70
     1
102
RTVSPropertyOp51
 70
     0
102
RTVSPropertyOp52
 70
     0
102
RTVSPropertyOp53
 70
     1
102
RTVSPropertyOp54
 70
     1
102
RTVSPropertyOp55
 70
     1
102
RTVSPropertyOp56
 70
     1
102
RTVSPropertyOp57
 70
     1
102
RTVSPropertyOp58
 70
     1
102
RTVSPropertyOp59
 70
     1
102
RTVSPropertyOp60
 70
     1
102
RTVSPropertyOp61
 70
     1
102
RTVSPropertyOp62
 70
     1
  0
XRECORD
  5
50B
102
{ACAD_REACTORS
330
50A
102
}
330
50A
100
AcDbXrecord
280
     1
102
RTVSPost2010Prop28
280
     0
102
RTVSPost2010PropOp28
 70
     1
102
RTVSPost2010Prop29
280
     1
102
RTVSPost2010PropOp29
 70
     1
102
RTVSPost2010Prop30
280
     1
102
RTVSPost2010PropOp30
 70
     1
102
RTVSPost2010Prop31
280
     0
102
RTVSPost2010PropOp31
 70
     1
102
RTVSPost2010Prop32
280
     0
102
RTVSPost2010PropOp32
 70
     1
102
RTVSPost2010Prop33
280
     0
102
RTVSPost2010PropOp33
 70
     1
102
RTVSPost2010Prop34
280
     0
102
RTVSPost2010PropOp34
 70
     1
102
RTVSPost2010Prop35
280
     0
102
RTVSPost2010PropOp35
 70
     1
102
RTVSPost2010Prop36
280
     0
102
RTVSPost2010PropOp36
 70
     1
102
RTVSPost2010Prop37
 90
       50
102
RTVSPost2010PropOp37
 70
     0
102
RTVSPost2010Prop38
140
0.0
102
RTVSPost2010PropOp38
 70
     0
102
RTVSPost2010Prop39
140
1.0
102
RTVSPost2010PropOp39
 70
     0
102
RTVSPost2010Prop40
 90
        0
102
RTVSPost2010PropOp40
 70
     0
102
RTVSPost2010Prop41ColorIndex
 90
       18
102
RTVSPost2010Prop41ColorRGB
 90
        0
102
RTVSPost2010PropOp41
 70
     0
102
RTVSPost2010Prop42
 90
       50
102
RTVSPost2010PropOp42
 70
     0
102
RTVSPost2010Prop43
 90
        3
102
RTVSPost2010PropOp43
 70
     0
102
RTVSPost2010Prop44ColorIndex
 90
        5
102
RTVSPost2010Prop44ColorRGB
 90
      255
102
RTVSPost2010PropOp44
 70
     0
102
RTVSPost2010Prop45
280
     0
102
RTVSPost2010PropOp45
 70
     1
102
RTVSPost2010Prop46
 90
       50
102
RTVSPost2010PropOp46
 70
     0
102
RTVSPost2010Prop47
 90
       50
102
RTVSPost2010PropOp47
 70
     0
102
RTVSPost2010Prop48
 90
       50
102
RTVSPost2010PropOp48
 70
     0
102
RTVSPost2010Prop49
280
     0
102
RTVSPost2010PropOp49
 70
     1
102
RTVSPost2010Prop50
 90
       50
102
RTVSPost2010PropOp50
 70
     0
102
RTVSPost2010Prop51ColorIndex
 90
      256
102
RTVSPost2010Prop51ColorRGB
 90
-16777216
102
RTVSPost2010PropOp51
 70
     0
102
RTVSPost2010Prop52
140
1.0
102
RTVSPost2010PropOp52
 70
     0
102
RTVSPost2010Prop53
 90
        2
102
RTVSPost2010PropOp53
 70
     0
102
RTVSPost2010Prop54
  1
strokes_ogs.tif
102
RTVSPost2010PropOp54
 70
     0
102
RTVSPost2010Prop55
280
     0
102
RTVSPost2010PropOp55
 70
     1
102
RTVSPost2010Prop56
140
1.0
102
RTVSPost2010PropOp56
 70
     0
102
RTVSPost2010Prop57
140
1.0
102
RTVSPost2010PropOp57
 70
     0
102
RTVSPropertyOp0
 70
     0
102
RTVSPropertyOp1
 70
     0
102
RTVSPropertyOp2
 70
     0
102
RTVSPropertyOp3
 70
     0
102
RTVSPropertyOp4
 70
     0
102
RTVSPropertyOp5
 70
     0
102
RTVSPropertyOp6
 70
     0
102
RTVSPropertyOp7
 70
     0
102
RTVSPropertyOp8
 70
     0
102
RTVSPropertyOp9
 70
     0
102
RTVSPropertyOp10
 70
     0
102
RTVSPropertyOp11
 70
     0
102
RTVSPropertyOp12
 70
     0
102
RTVSPropertyOp13
 70
     0
102
RTVSPropertyOp14
 70
     2
102
RTVSPropertyOp15
 70
     0
102
RTVSPropertyOp16
 70
     0
102
RTVSPropertyOp17
 70
     0
102
RTVSPropertyOp18
 70
     0
102
RTVSPropertyOp19
 70
     0
102
RTVSPropertyOp20
 70
     0
102
RTVSPropertyOp21
 70
     0
102
RTVSPropertyOp22
 70
     0
102
RTVSPropertyOp23
 70
     0
102
RTVSPropertyOp24
 70
     0
102
RTVSPropertyOp25
 70
     0
102
RTVSPropertyOp26
 70
     0
102
RTVSPropertyOp27
 70
     0
102
RTVSPropertyOp28
 70
     1
102
RTVSPropertyOp29
 70
     1
102
RTVSPropertyOp30
 70
     1
102
RTVSPropertyOp31
 70
     1
102
RTVSPropertyOp32
 70
     1
102
RTVSPropertyOp33
 70
     1
102
RTVSPropertyOp34
 70
     1
102
RTVSPropertyOp35
 70
     1
102
RTVSPropertyOp36
 70
     1
102
RTVSPropertyOp37
 70
     0
102
RTVSPropertyOp38
 70
     0
102
RTVSPropertyOp39
 70
     0
102
RTVSPropertyOp40
 70
     0
102
RTVSPropertyOp41
 70
     0
102
RTVSPropertyOp42
 70
     0
102
RTVSPropertyOp43
 70
     0
102
RTVSPropertyOp44
 70
     0
102
RTVSPropertyOp45
 70
     1
102
RTVSPropertyOp46
 70
     0
102
RTVSPropertyOp47
 70
     0
102
RTVSPropertyOp48
 70
     0
102
RTVSPropertyOp49
 70
     1
102
RTVSPropertyOp50
 70
     0
102
RTVSPropertyOp51
 70
     0
102
RTVSPropertyOp52
 70
     0
102
RTVSPropertyOp53
 70
     0
102
RTVSPropertyOp54
 70
     0
102
RTVSPropertyOp55
 70
     1
102
RTVSPropertyOp56
 70
     0
102
RTVSPropertyOp57
 70
     0
102
RTVSPropertyOp58
 70
     0
102
RTVSPropertyOp59
 70
     0
102
RTVSPropertyOp60
 70
     0
102
RTVSPropertyOp61
 70
     0
102
RTVSPropertyOp62
 70
     0
  0
XRECORD
  5
4F9
102
{ACAD_REACTORS
330
4F8
102
}
330
4F8
100
AcDbXrecord
280
     1
102
RTVSPost2010Prop28
280
     0
102
RTVSPost2010PropOp28
 70
     1
102
RTVSPost2010Prop29
280
     1
102
RTVSPost2010PropOp29
 70
     1
102
RTVSPost2010Prop30
280
     1
102
RTVSPost2010PropOp30
 70
     1
102
RTVSPost2010Prop31
280
     0
102
RTVSPost2010PropOp31
 70
     1
102
RTVSPost2010Prop32
280
     0
102
RTVSPost2010PropOp32
 70
     1
102
RTVSPost2010Prop33
280
     0
102
RTVSPost2010PropOp33
 70
     1
102
RTVSPost2010Prop34
280
     0
102
RTVSPost2010PropOp34
 70
     1
102
RTVSPost2010Prop35
280
     0
102
RTVSPost2010PropOp35
 70
     1
102
RTVSPost2010Prop36
280
     0
102
RTVSPost2010PropOp36
 70
     1
102
RTVSPost2010Prop37
 90
       50
102
RTVSPost2010PropOp37
 70
     1
102
RTVSPost2010Prop38
140
0.0
102
RTVSPost2010PropOp38
 70
     1
102
RTVSPost2010Prop39
140
1.0
102
RTVSPost2010PropOp39
 70
     1
102
RTVSPost2010Prop40
 90
        0
102
RTVSPost2010PropOp40
 70
     1
102
RTVSPost2010Prop41ColorIndex
 90
       18
102
RTVSPost2010Prop41ColorRGB
 90
        0
102
RTVSPost2010PropOp41
 70
     1
102
RTVSPost2010Prop42
 90
       50
102
RTVSPost2010PropOp42
 70
     1
102
RTVSPost2010Prop43
 90
        3
102
RTVSPost2010PropOp43
 70
     1
102
RTVSPost2010Prop44ColorIndex
 90
        5
102
RTVSPost2010Prop44ColorRGB
 90
      255
102
RTVSPost2010PropOp44
 70
     1
102
RTVSPost2010Prop45
280
     0
102
RTVSPost2010PropOp45
 70
     1
102
RTVSPost2010Prop46
 90
       50
102
RTVSPost2010PropOp46
 70
     1
102
RTVSPost2010Prop47
 90
       50
102
RTVSPost2010PropOp47
 70
     1
102
RTVSPost2010Prop48
 90
       50
102
RTVSPost2010PropOp48
 70
     1
102
RTVSPost2010Prop49
280
     0
102
RTVSPost2010PropOp49
 70
     1
102
RTVSPost2010Prop50
 90
       50
102
RTVSPost2010PropOp50
 70
     1
102
RTVSPost2010Prop51ColorIndex
 90
      256
102
RTVSPost2010Prop51ColorRGB
 90
-16777216
102
RTVSPost2010PropOp51
 70
     0
102
RTVSPost2010Prop52
140
1.0
102
RTVSPost2010PropOp52
 70
     0
102
RTVSPost2010Prop53
 90
        2
102
RTVSPost2010PropOp53
 70
     1
102
RTVSPost2010Prop54
  1
strokes_ogs.tif
102
RTVSPost2010PropOp54
 70
     1
102
RTVSPost2010Prop55
280
     0
102
RTVSPost2010PropOp55
 70
     1
102
RTVSPost2010Prop56
140
1.0
102
RTVSPost2010PropOp56
 70
     1
102
RTVSPost2010Prop57
140
1.0
102
RTVSPost2010PropOp57
 70
     1
102
RTVSPropertyOp0
 70
     1
102
RTVSPropertyOp1
 70
     1
102
RTVSPropertyOp2
 70
     1
102
RTVSPropertyOp3
 70
     1
102
RTVSPropertyOp4
 70
     1
102
RTVSPropertyOp5
 70
     1
102
RTVSPropertyOp6
 70
     1
102
RTVSPropertyOp7
 70
     1
102
RTVSPropertyOp8
 70
     1
102
RTVSPropertyOp9
 70
     1
102
RTVSPropertyOp10
 70
     1
102
RTVSPropertyOp11
 70
     1
102
RTVSPropertyOp12
 70
     1
102
RTVSPropertyOp13
 70
     1
102
RTVSPropertyOp14
 70
     1
102
RTVSPropertyOp15
 70
     1
102
RTVSPropertyOp16
 70
     1
102
RTVSPropertyOp17
 70
     1
102
RTVSPropertyOp18
 70
     1
102
RTVSPropertyOp19
 70
     1
102
RTVSPropertyOp20
 70
     1
102
RTVSPropertyOp21
 70
     1
102
RTVSPropertyOp22
 70
     1
102
RTVSPropertyOp23
 70
     1
102
RTVSPropertyOp24
 70
     1
102
RTVSPropertyOp25
 70
     1
102
RTVSPropertyOp26
 70
     1
102
RTVSPropertyOp27
 70
     1
102
RTVSPropertyOp28
 70
     1
102
RTVSPropertyOp29
 70
     1
102
RTVSPropertyOp30
 70
     1
102
RTVSPropertyOp31
 70
     1
102
RTVSPropertyOp32
 70
     1
102
RTVSPropertyOp33
 70
     1
102
RTVSPropertyOp34
 70
     1
102
RTVSPropertyOp35
 70
     1
102
RTVSPropertyOp36
 70
     1
102
RTVSPropertyOp37
 70
     1
102
RTVSPropertyOp38
 70
     1
102
RTVSPropertyOp39
 70
     1
102
RTVSPropertyOp40
 70
     1
102
RTVSPropertyOp41
 70
     1
102
RTVSPropertyOp42
 70
     1
102
RTVSPropertyOp43
 70
     1
102
RTVSPropertyOp44
 70
     1
102
RTVSPropertyOp45
 70
     1
102
RTVSPropertyOp46
 70
     1
102
RTVSPropertyOp47
 70
     1
102
RTVSPropertyOp48
 70
     1
102
RTVSPropertyOp49
 70
     1
102
RTVSPropertyOp50
 70
     1
102
RTVSPropertyOp51
 70
     0
102
RTVSPropertyOp52
 70
     0
102
RTVSPropertyOp53
 70
     1
102
RTVSPropertyOp54
 70
     1
102
RTVSPropertyOp55
 70
     1
102
RTVSPropertyOp56
 70
     1
102
RTVSPropertyOp57
 70
     1
102
RTVSPropertyOp58
 70
     1
102
RTVSPropertyOp59
 70
     1
102
RTVSPropertyOp60
 70
     1
102
RTVSPropertyOp61
 70
     1
102
RTVSPropertyOp62
 70
     1
  0
XRECORD
  5
4DD
102
{ACAD_REACTORS
330
4DC
102
}
330
4DC
100
AcDbXrecord
280
     1
102
RTVSPost2010Prop28
280
     0
102
RTVSPost2010PropOp28
 70
     1
102
RTVSPost2010Prop29
280
     1
102
RTVSPost2010PropOp29
 70
     1
102
RTVSPost2010Prop30
280
     1
102
RTVSPost2010PropOp30
 70
     1
102
RTVSPost2010Prop31
280
     0
102
RTVSPost2010PropOp31
 70
     1
102
RTVSPost2010Prop32
280
     0
102
RTVSPost2010PropOp32
 70
     1
102
RTVSPost2010Prop33
280
     0
102
RTVSPost2010PropOp33
 70
     1
102
RTVSPost2010Prop34
280
     0
102
RTVSPost2010PropOp34
 70
     1
102
RTVSPost2010Prop35
280
     0
102
RTVSPost2010PropOp35
 70
     1
102
RTVSPost2010Prop36
280
     0
102
RTVSPost2010PropOp36
 70
     1
102
RTVSPost2010Prop37
 90
       50
102
RTVSPost2010PropOp37
 70
     1
102
RTVSPost2010Prop38
140
0.0
102
RTVSPost2010PropOp38
 70
     1
102
RTVSPost2010Prop39
140
1.0
102
RTVSPost2010PropOp39
 70
     1
102
RTVSPost2010Prop40
 90
        0
102
RTVSPost2010PropOp40
 70
     1
102
RTVSPost2010Prop41ColorIndex
 90
       18
102
RTVSPost2010Prop41ColorRGB
 90
        0
102
RTVSPost2010PropOp41
 70
     1
102
RTVSPost2010Prop42
 90
       50
102
RTVSPost2010PropOp42
 70
     1
102
RTVSPost2010Prop43
 90
        3
102
RTVSPost2010PropOp43
 70
     1
102
RTVSPost2010Prop44ColorIndex
 90
        5
102
RTVSPost2010Prop44ColorRGB
 90
      255
102
RTVSPost2010PropOp44
 70
     1
102
RTVSPost2010Prop45
280
     0
102
RTVSPost2010PropOp45
 70
     1
102
RTVSPost2010Prop46
 90
       50
102
RTVSPost2010PropOp46
 70
     1
102
RTVSPost2010Prop47
 90
       50
102
RTVSPost2010PropOp47
 70
     1
102
RTVSPost2010Prop48
 90
       50
102
RTVSPost2010PropOp48
 70
     1
102
RTVSPost2010Prop49
280
     0
102
RTVSPost2010PropOp49
 70
     1
102
RTVSPost2010Prop50
 90
       50
102
RTVSPost2010PropOp50
 70
     1
102
RTVSPost2010Prop51ColorIndex
 90
      256
102
RTVSPost2010Prop51ColorRGB
 90
-16777216
102
RTVSPost2010PropOp51
 70
     0
102
RTVSPost2010Prop52
140
1.0
102
RTVSPost2010PropOp52
 70
     0
102
RTVSPost2010Prop53
 90
        2
102
RTVSPost2010PropOp53
 70
     1
102
RTVSPost2010Prop54
  1
strokes_ogs.tif
102
RTVSPost2010PropOp54
 70
     1
102
RTVSPost2010Prop55
280
     0
102
RTVSPost2010PropOp55
 70
     1
102
RTVSPost2010Prop56
140
1.0
102
RTVSPost2010PropOp56
 70
     1
102
RTVSPost2010Prop57
140
1.0
102
RTVSPost2010PropOp57
 70
     1
102
RTVSPropertyOp0
 70
     1
102
RTVSPropertyOp1
 70
     1
102
RTVSPropertyOp2
 70
     1
102
RTVSPropertyOp3
 70
     1
102
RTVSPropertyOp4
 70
     1
102
RTVSPropertyOp5
 70
     1
102
RTVSPropertyOp6
 70
     1
102
RTVSPropertyOp7
 70
     1
102
RTVSPropertyOp8
 70
     1
102
RTVSPropertyOp9
 70
     1
102
RTVSPropertyOp10
 70
     1
102
RTVSPropertyOp11
 70
     1
102
RTVSPropertyOp12
 70
     1
102
RTVSPropertyOp13
 70
     1
102
RTVSPropertyOp14
 70
     1
102
RTVSPropertyOp15
 70
     1
102
RTVSPropertyOp16
 70
     1
102
RTVSPropertyOp17
 70
     1
102
RTVSPropertyOp18
 70
     1
102
RTVSPropertyOp19
 70
     1
102
RTVSPropertyOp20
 70
     1
102
RTVSPropertyOp21
 70
     1
102
RTVSPropertyOp22
 70
     1
102
RTVSPropertyOp23
 70
     1
102
RTVSPropertyOp24
 70
     1
102
RTVSPropertyOp25
 70
     1
102
RTVSPropertyOp26
 70
     1
102
RTVSPropertyOp27
 70
     1
102
RTVSPropertyOp28
 70
     1
102
RTVSPropertyOp29
 70
     1
102
RTVSPropertyOp30
 70
     1
102
RTVSPropertyOp31
 70
     1
102
RTVSPropertyOp32
 70
     1
102
RTVSPropertyOp33
 70
     1
102
RTVSPropertyOp34
 70
     1
102
RTVSPropertyOp35
 70
     1
102
RTVSPropertyOp36
 70
     1
102
RTVSPropertyOp37
 70
     1
102
RTVSPropertyOp38
 70
     1
102
RTVSPropertyOp39
 70
     1
102
RTVSPropertyOp40
 70
     1
102
RTVSPropertyOp41
 70
     1
102
RTVSPropertyOp42
 70
     1
102
RTVSPropertyOp43
 70
     1
102
RTVSPropertyOp44
 70
     1
102
RTVSPropertyOp45
 70
     1
102
RTVSPropertyOp46
 70
     1
102
RTVSPropertyOp47
 70
     1
102
RTVSPropertyOp48
 70
     1
102
RTVSPropertyOp49
 70
     1
102
RTVSPropertyOp50
 70
     1
102
RTVSPropertyOp51
 70
     0
102
RTVSPropertyOp52
 70
     0
102
RTVSPropertyOp53
 70
     1
102
RTVSPropertyOp54
 70
     1
102
RTVSPropertyOp55
 70
     1
102
RTVSPropertyOp56
 70
     1
102
RTVSPropertyOp57
 70
     1
102
RTVSPropertyOp58
 70
     1
102
RTVSPropertyOp59
 70
     1
102
RTVSPropertyOp60
 70
     1
102
RTVSPropertyOp61
 70
     1
102
RTVSPropertyOp62
 70
     1
  0
XRECORD
  5
4DF
102
{ACAD_REACTORS
330
4DE
102
}
330
4DE
100
AcDbXrecord
280
     1
102
RTVSPost2010Prop28
280
     0
102
RTVSPost2010PropOp28
 70
     1
102
RTVSPost2010Prop29
280
     1
102
RTVSPost2010PropOp29
 70
     1
102
RTVSPost2010Prop30
280
     1
102
RTVSPost2010PropOp30
 70
     1
102
RTVSPost2010Prop31
280
     0
102
RTVSPost2010PropOp31
 70
     1
102
RTVSPost2010Prop32
280
     0
102
RTVSPost2010PropOp32
 70
     1
102
RTVSPost2010Prop33
280
     0
102
RTVSPost2010PropOp33
 70
     1
102
RTVSPost2010Prop34
280
     0
102
RTVSPost2010PropOp34
 70
     1
102
RTVSPost2010Prop35
280
     0
102
RTVSPost2010PropOp35
 70
     1
102
RTVSPost2010Prop36
280
     0
102
RTVSPost2010PropOp36
 70
     1
102
RTVSPost2010Prop37
 90
       50
102
RTVSPost2010PropOp37
 70
     1
102
RTVSPost2010Prop38
140
0.0
102
RTVSPost2010PropOp38
 70
     1
102
RTVSPost2010Prop39
140
1.0
102
RTVSPost2010PropOp39
 70
     1
102
RTVSPost2010Prop40
 90
        0
102
RTVSPost2010PropOp40
 70
     1
102
RTVSPost2010Prop41ColorIndex
 90
       18
102
RTVSPost2010Prop41ColorRGB
 90
        0
102
RTVSPost2010PropOp41
 70
     1
102
RTVSPost2010Prop42
 90
       50
102
RTVSPost2010PropOp42
 70
     1
102
RTVSPost2010Prop43
 90
        3
102
RTVSPost2010PropOp43
 70
     1
102
RTVSPost2010Prop44ColorIndex
 90
        5
102
RTVSPost2010Prop44ColorRGB
 90
      255
102
RTVSPost2010PropOp44
 70
     1
102
RTVSPost2010Prop45
280
     0
102
RTVSPost2010PropOp45
 70
     1
102
RTVSPost2010Prop46
 90
       50
102
RTVSPost2010PropOp46
 70
     1
102
RTVSPost2010Prop47
 90
       50
102
RTVSPost2010PropOp47
 70
     1
102
RTVSPost2010Prop48
 90
       50
102
RTVSPost2010PropOp48
 70
     1
102
RTVSPost2010Prop49
280
     0
102
RTVSPost2010PropOp49
 70
     1
102
RTVSPost2010Prop50
 90
       50
102
RTVSPost2010PropOp50
 70
     1
102
RTVSPost2010Prop51ColorIndex
 90
      256
102
RTVSPost2010Prop51ColorRGB
 90
-16777216
102
RTVSPost2010PropOp51
 70
     0
102
RTVSPost2010Prop52
140
1.0
102
RTVSPost2010PropOp52
 70
     0
102
RTVSPost2010Prop53
 90
        2
102
RTVSPost2010PropOp53
 70
     1
102
RTVSPost2010Prop54
  1
strokes_ogs.tif
102
RTVSPost2010PropOp54
 70
     1
102
RTVSPost2010Prop55
280
     0
102
RTVSPost2010PropOp55
 70
     1
102
RTVSPost2010Prop56
140
1.0
102
RTVSPost2010PropOp56
 70
     1
102
RTVSPost2010Prop57
140
1.0
102
RTVSPost2010PropOp57
 70
     1
102
RTVSPropertyOp0
 70
     1
102
RTVSPropertyOp1
 70
     1
102
RTVSPropertyOp2
 70
     1
102
RTVSPropertyOp3
 70
     1
102
RTVSPropertyOp4
 70
     1
102
RTVSPropertyOp5
 70
     1
102
RTVSPropertyOp6
 70
     1
102
RTVSPropertyOp7
 70
     1
102
RTVSPropertyOp8
 70
     1
102
RTVSPropertyOp9
 70
     1
102
RTVSPropertyOp10
 70
     1
102
RTVSPropertyOp11
 70
     1
102
RTVSPropertyOp12
 70
     1
102
RTVSPropertyOp13
 70
     1
102
RTVSPropertyOp14
 70
     1
102
RTVSPropertyOp15
 70
     1
102
RTVSPropertyOp16
 70
     1
102
RTVSPropertyOp17
 70
     1
102
RTVSPropertyOp18
 70
     1
102
RTVSPropertyOp19
 70
     1
102
RTVSPropertyOp20
 70
     1
102
RTVSPropertyOp21
 70
     1
102
RTVSPropertyOp22
 70
     1
102
RTVSPropertyOp23
 70
     1
102
RTVSPropertyOp24
 70
     1
102
RTVSPropertyOp25
 70
     1
102
RTVSPropertyOp26
 70
     1
102
RTVSPropertyOp27
 70
     1
102
RTVSPropertyOp28
 70
     1
102
RTVSPropertyOp29
 70
     1
102
RTVSPropertyOp30
 70
     1
102
RTVSPropertyOp31
 70
     1
102
RTVSPropertyOp32
 70
     1
102
RTVSPropertyOp33
 70
     1
102
RTVSPropertyOp34
 70
     1
102
RTVSPropertyOp35
 70
     1
102
RTVSPropertyOp36
 70
     1
102
RTVSPropertyOp37
 70
     1
102
RTVSPropertyOp38
 70
     1
102
RTVSPropertyOp39
 70
     1
102
RTVSPropertyOp40
 70
     1
102
RTVSPropertyOp41
 70
     1
102
RTVSPropertyOp42
 70
     1
102
RTVSPropertyOp43
 70
     1
102
RTVSPropertyOp44
 70
     1
102
RTVSPropertyOp45
 70
     1
102
RTVSPropertyOp46
 70
     1
102
RTVSPropertyOp47
 70
     1
102
RTVSPropertyOp48
 70
     1
102
RTVSPropertyOp49
 70
     1
102
RTVSPropertyOp50
 70
     1
102
RTVSPropertyOp51
 70
     0
102
RTVSPropertyOp52
 70
     0
102
RTVSPropertyOp53
 70
     1
102
RTVSPropertyOp54
 70
     1
102
RTVSPropertyOp55
 70
     1
102
RTVSPropertyOp56
 70
     1
102
RTVSPropertyOp57
 70
     1
102
RTVSPropertyOp58
 70
     1
102
RTVSPropertyOp59
 70
     1
102
RTVSPropertyOp60
 70
     1
102
RTVSPropertyOp61
 70
     1
102
RTVSPropertyOp62
 70
     1
  0
XRECORD
  5
4E1
102
{ACAD_REACTORS
330
4E0
102
}
330
4E0
100
AcDbXrecord
280
     1
102
RTVSPost2010Prop28
280
     0
102
RTVSPost2010PropOp28
 70
     1
102
RTVSPost2010Prop29
280
     1
102
RTVSPost2010PropOp29
 70
     1
102
RTVSPost2010Prop30
280
     1
102
RTVSPost2010PropOp30
 70
     1
102
RTVSPost2010Prop31
280
     0
102
RTVSPost2010PropOp31
 70
     1
102
RTVSPost2010Prop32
280
     0
102
RTVSPost2010PropOp32
 70
     1
102
RTVSPost2010Prop33
280
     0
102
RTVSPost2010PropOp33
 70
     1
102
RTVSPost2010Prop34
280
     0
102
RTVSPost2010PropOp34
 70
     1
102
RTVSPost2010Prop35
280
     0
102
RTVSPost2010PropOp35
 70
     1
102
RTVSPost2010Prop36
280
     0
102
RTVSPost2010PropOp36
 70
     1
102
RTVSPost2010Prop37
 90
       50
102
RTVSPost2010PropOp37
 70
     1
102
RTVSPost2010Prop38
140
0.0
102
RTVSPost2010PropOp38
 70
     1
102
RTVSPost2010Prop39
140
1.0
102
RTVSPost2010PropOp39
 70
     1
102
RTVSPost2010Prop40
 90
        0
102
RTVSPost2010PropOp40
 70
     1
102
RTVSPost2010Prop41ColorIndex
 90
       18
102
RTVSPost2010Prop41ColorRGB
 90
        0
102
RTVSPost2010PropOp41
 70
     1
102
RTVSPost2010Prop42
 90
       50
102
RTVSPost2010PropOp42
 70
     1
102
RTVSPost2010Prop43
 90
        3
102
RTVSPost2010PropOp43
 70
     1
102
RTVSPost2010Prop44ColorIndex
 90
        5
102
RTVSPost2010Prop44ColorRGB
 90
      255
102
RTVSPost2010PropOp44
 70
     1
102
RTVSPost2010Prop45
280
     0
102
RTVSPost2010PropOp45
 70
     1
102
RTVSPost2010Prop46
 90
       50
102
RTVSPost2010PropOp46
 70
     1
102
RTVSPost2010Prop47
 90
       50
102
RTVSPost2010PropOp47
 70
     1
102
RTVSPost2010Prop48
 90
       50
102
RTVSPost2010PropOp48
 70
     1
102
RTVSPost2010Prop49
280
     0
102
RTVSPost2010PropOp49
 70
     1
102
RTVSPost2010Prop50
 90
       50
102
RTVSPost2010PropOp50
 70
     1
102
RTVSPost2010Prop51ColorIndex
 90
      256
102
RTVSPost2010Prop51ColorRGB
 90
-16777216
102
RTVSPost2010PropOp51
 70
     0
102
RTVSPost2010Prop52
140
1.0
102
RTVSPost2010PropOp52
 70
     0
102
RTVSPost2010Prop53
 90
        2
102
RTVSPost2010PropOp53
 70
     1
102
RTVSPost2010Prop54
  1
strokes_ogs.tif
102
RTVSPost2010PropOp54
 70
     1
102
RTVSPost2010Prop55
280
     0
102
RTVSPost2010PropOp55
 70
     1
102
RTVSPost2010Prop56
140
1.0
102
RTVSPost2010PropOp56
 70
     1
102
RTVSPost2010Prop57
140
1.0
102
RTVSPost2010PropOp57
 70
     1
102
RTVSPropertyOp0
 70
     1
102
RTVSPropertyOp1
 70
     1
102
RTVSPropertyOp2
 70
     1
102
RTVSPropertyOp3
 70
     1
102
RTVSPropertyOp4
 70
     1
102
RTVSPropertyOp5
 70
     1
102
RTVSPropertyOp6
 70
     1
102
RTVSPropertyOp7
 70
     1
102
RTVSPropertyOp8
 70
     1
102
RTVSPropertyOp9
 70
     1
102
RTVSPropertyOp10
 70
     1
102
RTVSPropertyOp11
 70
     1
102
RTVSPropertyOp12
 70
     1
102
RTVSPropertyOp13
 70
     1
102
RTVSPropertyOp14
 70
     1
102
RTVSPropertyOp15
 70
     1
102
RTVSPropertyOp16
 70
     1
102
RTVSPropertyOp17
 70
     1
102
RTVSPropertyOp18
 70
     1
102
RTVSPropertyOp19
 70
     1
102
RTVSPropertyOp20
 70
     1
102
RTVSPropertyOp21
 70
     1
102
RTVSPropertyOp22
 70
     1
102
RTVSPropertyOp23
 70
     1
102
RTVSPropertyOp24
 70
     1
102
RTVSPropertyOp25
 70
     1
102
RTVSPropertyOp26
 70
     1
102
RTVSPropertyOp27
 70
     1
102
RTVSPropertyOp28
 70
     1
102
RTVSPropertyOp29
 70
     1
102
RTVSPropertyOp30
 70
     1
102
RTVSPropertyOp31
 70
     1
102
RTVSPropertyOp32
 70
     1
102
RTVSPropertyOp33
 70
     1
102
RTVSPropertyOp34
 70
     1
102
RTVSPropertyOp35
 70
     1
102
RTVSPropertyOp36
 70
     1
102
RTVSPropertyOp37
 70
     1
102
RTVSPropertyOp38
 70
     1
102
RTVSPropertyOp39
 70
     1
102
RTVSPropertyOp40
 70
     1
102
RTVSPropertyOp41
 70
     1
102
RTVSPropertyOp42
 70
     1
102
RTVSPropertyOp43
 70
     1
102
RTVSPropertyOp44
 70
     1
102
RTVSPropertyOp45
 70
     1
102
RTVSPropertyOp46
 70
     1
102
RTVSPropertyOp47
 70
     1
102
RTVSPropertyOp48
 70
     1
102
RTVSPropertyOp49
 70
     1
102
RTVSPropertyOp50
 70
     1
102
RTVSPropertyOp51
 70
     0
102
RTVSPropertyOp52
 70
     0
102
RTVSPropertyOp53
 70
     1
102
RTVSPropertyOp54
 70
     1
102
RTVSPropertyOp55
 70
     1
102
RTVSPropertyOp56
 70
     1
102
RTVSPropertyOp57
 70
     1
102
RTVSPropertyOp58
 70
     1
102
RTVSPropertyOp59
 70
     1
102
RTVSPropertyOp60
 70
     1
102
RTVSPropertyOp61
 70
     1
102
RTVSPropertyOp62
 70
     1
  0
XRECORD
  5
4E3
102
{ACAD_REACTORS
330
4E2
102
}
330
4E2
100
AcDbXrecord
280
     1
102
RTVSPost2010Prop28
280
     0
102
RTVSPost2010PropOp28
 70
     1
102
RTVSPost2010Prop29
280
     1
102
RTVSPost2010PropOp29
 70
     1
102
RTVSPost2010Prop30
280
     1
102
RTVSPost2010PropOp30
 70
     1
102
RTVSPost2010Prop31
280
     0
102
RTVSPost2010PropOp31
 70
     1
102
RTVSPost2010Prop32
280
     0
102
RTVSPost2010PropOp32
 70
     1
102
RTVSPost2010Prop33
280
     0
102
RTVSPost2010PropOp33
 70
     1
102
RTVSPost2010Prop34
280
     0
102
RTVSPost2010PropOp34
 70
     1
102
RTVSPost2010Prop35
280
     0
102
RTVSPost2010PropOp35
 70
     1
102
RTVSPost2010Prop36
280
     0
102
RTVSPost2010PropOp36
 70
     1
102
RTVSPost2010Prop37
 90
       50
102
RTVSPost2010PropOp37
 70
     1
102
RTVSPost2010Prop38
140
0.0
102
RTVSPost2010PropOp38
 70
     1
102
RTVSPost2010Prop39
140
1.0
102
RTVSPost2010PropOp39
 70
     1
102
RTVSPost2010Prop40
 90
        0
102
RTVSPost2010PropOp40
 70
     1
102
RTVSPost2010Prop41ColorIndex
 90
       18
102
RTVSPost2010Prop41ColorRGB
 90
        0
102
RTVSPost2010PropOp41
 70
     1
102
RTVSPost2010Prop42
 90
       50
102
RTVSPost2010PropOp42
 70
     1
102
RTVSPost2010Prop43
 90
        3
102
RTVSPost2010PropOp43
 70
     1
102
RTVSPost2010Prop44ColorIndex
 90
        5
102
RTVSPost2010Prop44ColorRGB
 90
      255
102
RTVSPost2010PropOp44
 70
     1
102
RTVSPost2010Prop45
280
     0
102
RTVSPost2010PropOp45
 70
     1
102
RTVSPost2010Prop46
 90
       50
102
RTVSPost2010PropOp46
 70
     1
102
RTVSPost2010Prop47
 90
       50
102
RTVSPost2010PropOp47
 70
     1
102
RTVSPost2010Prop48
 90
       50
102
RTVSPost2010PropOp48
 70
     1
102
RTVSPost2010Prop49
280
     0
102
RTVSPost2010PropOp49
 70
     1
102
RTVSPost2010Prop50
 90
       50
102
RTVSPost2010PropOp50
 70
     1
102
RTVSPost2010Prop51ColorIndex
 90
      256
102
RTVSPost2010Prop51ColorRGB
 90
-16777216
102
RTVSPost2010PropOp51
 70
     0
102
RTVSPost2010Prop52
140
1.0
102
RTVSPost2010PropOp52
 70
     0
102
RTVSPost2010Prop53
 90
        2
102
RTVSPost2010PropOp53
 70
     1
102
RTVSPost2010Prop54
  1
strokes_ogs.tif
102
RTVSPost2010PropOp54
 70
     1
102
RTVSPost2010Prop55
280
     0
102
RTVSPost2010PropOp55
 70
     1
102
RTVSPost2010Prop56
140
1.0
102
RTVSPost2010PropOp56
 70
     1
102
RTVSPost2010Prop57
140
1.0
102
RTVSPost2010PropOp57
 70
     1
102
RTVSPropertyOp0
 70
     1
102
RTVSPropertyOp1
 70
     1
102
RTVSPropertyOp2
 70
     1
102
RTVSPropertyOp3
 70
     1
102
RTVSPropertyOp4
 70
     1
102
RTVSPropertyOp5
 70
     1
102
RTVSPropertyOp6
 70
     1
102
RTVSPropertyOp7
 70
     1
102
RTVSPropertyOp8
 70
     1
102
RTVSPropertyOp9
 70
     1
102
RTVSPropertyOp10
 70
     1
102
RTVSPropertyOp11
 70
     1
102
RTVSPropertyOp12
 70
     1
102
RTVSPropertyOp13
 70
     1
102
RTVSPropertyOp14
 70
     1
102
RTVSPropertyOp15
 70
     1
102
RTVSPropertyOp16
 70
     1
102
RTVSPropertyOp17
 70
     1
102
RTVSPropertyOp18
 70
     1
102
RTVSPropertyOp19
 70
     1
102
RTVSPropertyOp20
 70
     1
102
RTVSPropertyOp21
 70
     1
102
RTVSPropertyOp22
 70
     1
102
RTVSPropertyOp23
 70
     1
102
RTVSPropertyOp24
 70
     1
102
RTVSPropertyOp25
 70
     1
102
RTVSPropertyOp26
 70
     1
102
RTVSPropertyOp27
 70
     1
102
RTVSPropertyOp28
 70
     1
102
RTVSPropertyOp29
 70
     1
102
RTVSPropertyOp30
 70
     1
102
RTVSPropertyOp31
 70
     1
102
RTVSPropertyOp32
 70
     1
102
RTVSPropertyOp33
 70
     1
102
RTVSPropertyOp34
 70
     1
102
RTVSPropertyOp35
 70
     1
102
RTVSPropertyOp36
 70
     1
102
RTVSPropertyOp37
 70
     1
102
RTVSPropertyOp38
 70
     1
102
RTVSPropertyOp39
 70
     1
102
RTVSPropertyOp40
 70
     1
102
RTVSPropertyOp41
 70
     1
102
RTVSPropertyOp42
 70
     1
102
RTVSPropertyOp43
 70
     1
102
RTVSPropertyOp44
 70
     1
102
RTVSPropertyOp45
 70
     1
102
RTVSPropertyOp46
 70
     1
102
RTVSPropertyOp47
 70
     1
102
RTVSPropertyOp48
 70
     1
102
RTVSPropertyOp49
 70
     1
102
RTVSPropertyOp50
 70
     1
102
RTVSPropertyOp51
 70
     0
102
RTVSPropertyOp52
 70
     0
102
RTVSPropertyOp53
 70
     1
102
RTVSPropertyOp54
 70
     1
102
RTVSPropertyOp55
 70
     1
102
RTVSPropertyOp56
 70
     1
102
RTVSPropertyOp57
 70
     1
102
RTVSPropertyOp58
 70
     1
102
RTVSPropertyOp59
 70
     1
102
RTVSPropertyOp60
 70
     1
102
RTVSPropertyOp61
 70
     1
102
RTVSPropertyOp62
 70
     1
  0
XRECORD
  5
4EB
102
{ACAD_REACTORS
330
4EA
102
}
330
4EA
100
AcDbXrecord
280
     1
102
RTVSPost2010Prop28
280
     0
102
RTVSPost2010PropOp28
 70
     1
102
RTVSPost2010Prop29
280
     1
102
RTVSPost2010PropOp29
 70
     1
102
RTVSPost2010Prop30
280
     1
102
RTVSPost2010PropOp30
 70
     1
102
RTVSPost2010Prop31
280
     0
102
RTVSPost2010PropOp31
 70
     1
102
RTVSPost2010Prop32
280
     0
102
RTVSPost2010PropOp32
 70
     1
102
RTVSPost2010Prop33
280
     0
102
RTVSPost2010PropOp33
 70
     1
102
RTVSPost2010Prop34
280
     0
102
RTVSPost2010PropOp34
 70
     1
102
RTVSPost2010Prop35
280
     0
102
RTVSPost2010PropOp35
 70
     1
102
RTVSPost2010Prop36
280
     0
102
RTVSPost2010PropOp36
 70
     1
102
RTVSPost2010Prop37
 90
       50
102
RTVSPost2010PropOp37
 70
     1
102
RTVSPost2010Prop38
140
0.0
102
RTVSPost2010PropOp38
 70
     1
102
RTVSPost2010Prop39
140
1.0
102
RTVSPost2010PropOp39
 70
     1
102
RTVSPost2010Prop40
 90
        0
102
RTVSPost2010PropOp40
 70
     1
102
RTVSPost2010Prop41ColorIndex
 90
       18
102
RTVSPost2010Prop41ColorRGB
 90
        0
102
RTVSPost2010PropOp41
 70
     1
102
RTVSPost2010Prop42
 90
       50
102
RTVSPost2010PropOp42
 70
     1
102
RTVSPost2010Prop43
 90
        3
102
RTVSPost2010PropOp43
 70
     1
102
RTVSPost2010Prop44ColorIndex
 90
        5
102
RTVSPost2010Prop44ColorRGB
 90
      255
102
RTVSPost2010PropOp44
 70
     1
102
RTVSPost2010Prop45
280
     0
102
RTVSPost2010PropOp45
 70
     1
102
RTVSPost2010Prop46
 90
       50
102
RTVSPost2010PropOp46
 70
     1
102
RTVSPost2010Prop47
 90
       50
102
RTVSPost2010PropOp47
 70
     1
102
RTVSPost2010Prop48
 90
       50
102
RTVSPost2010PropOp48
 70
     1
102
RTVSPost2010Prop49
280
     0
102
RTVSPost2010PropOp49
 70
     1
102
RTVSPost2010Prop50
 90
       50
102
RTVSPost2010PropOp50
 70
     1
102
RTVSPost2010Prop51ColorIndex
 90
      256
102
RTVSPost2010Prop51ColorRGB
 90
-16777216
102
RTVSPost2010PropOp51
 70
     0
102
RTVSPost2010Prop52
140
1.0
102
RTVSPost2010PropOp52
 70
     0
102
RTVSPost2010Prop53
 90
        2
102
RTVSPost2010PropOp53
 70
     1
102
RTVSPost2010Prop54
  1
strokes_ogs.tif
102
RTVSPost2010PropOp54
 70
     1
102
RTVSPost2010Prop55
280
     0
102
RTVSPost2010PropOp55
 70
     1
102
RTVSPost2010Prop56
140
1.0
102
RTVSPost2010PropOp56
 70
     1
102
RTVSPost2010Prop57
140
1.0
102
RTVSPost2010PropOp57
 70
     1
102
RTVSPropertyOp0
 70
     1
102
RTVSPropertyOp1
 70
     1
102
RTVSPropertyOp2
 70
     1
102
RTVSPropertyOp3
 70
     1
102
RTVSPropertyOp4
 70
     1
102
RTVSPropertyOp5
 70
     1
102
RTVSPropertyOp6
 70
     1
102
RTVSPropertyOp7
 70
     1
102
RTVSPropertyOp8
 70
     1
102
RTVSPropertyOp9
 70
     1
102
RTVSPropertyOp10
 70
     1
102
RTVSPropertyOp11
 70
     1
102
RTVSPropertyOp12
 70
     1
102
RTVSPropertyOp13
 70
     1
102
RTVSPropertyOp14
 70
     1
102
RTVSPropertyOp15
 70
     1
102
RTVSPropertyOp16
 70
     1
102
RTVSPropertyOp17
 70
     1
102
RTVSPropertyOp18
 70
     1
102
RTVSPropertyOp19
 70
     1
102
RTVSPropertyOp20
 70
     1
102
RTVSPropertyOp21
 70
     1
102
RTVSPropertyOp22
 70
     1
102
RTVSPropertyOp23
 70
     1
102
RTVSPropertyOp24
 70
     1
102
RTVSPropertyOp25
 70
     1
102
RTVSPropertyOp26
 70
     1
102
RTVSPropertyOp27
 70
     1
102
RTVSPropertyOp28
 70
     1
102
RTVSPropertyOp29
 70
     1
102
RTVSPropertyOp30
 70
     1
102
RTVSPropertyOp31
 70
     1
102
RTVSPropertyOp32
 70
     1
102
RTVSPropertyOp33
 70
     1
102
RTVSPropertyOp34
 70
     1
102
RTVSPropertyOp35
 70
     1
102
RTVSPropertyOp36
 70
     1
102
RTVSPropertyOp37
 70
     1
102
RTVSPropertyOp38
 70
     1
102
RTVSPropertyOp39
 70
     1
102
RTVSPropertyOp40
 70
     1
102
RTVSPropertyOp41
 70
     1
102
RTVSPropertyOp42
 70
     1
102
RTVSPropertyOp43
 70
     1
102
RTVSPropertyOp44
 70
     1
102
RTVSPropertyOp45
 70
     1
102
RTVSPropertyOp46
 70
     1
102
RTVSPropertyOp47
 70
     1
102
RTVSPropertyOp48
 70
     1
102
RTVSPropertyOp49
 70
     1
102
RTVSPropertyOp50
 70
     1
102
RTVSPropertyOp51
 70
     0
102
RTVSPropertyOp52
 70
     0
102
RTVSPropertyOp53
 70
     1
102
RTVSPropertyOp54
 70
     1
102
RTVSPropertyOp55
 70
     1
102
RTVSPropertyOp56
 70
     1
102
RTVSPropertyOp57
 70
     1
102
RTVSPropertyOp58
 70
     1
102
RTVSPropertyOp59
 70
     1
102
RTVSPropertyOp60
 70
     1
102
RTVSPropertyOp61
 70
     1
102
RTVSPropertyOp62
 70
     1
  0
XRECORD
  5
507
102
{ACAD_REACTORS
330
506
102
}
330
506
100
AcDbXrecord
280
     1
102
RTVSPost2010Prop28
280
     0
102
RTVSPost2010PropOp28
 70
     1
102
RTVSPost2010Prop29
280
     1
102
RTVSPost2010PropOp29
 70
     1
102
RTVSPost2010Prop30
280
     1
102
RTVSPost2010PropOp30
 70
     1
102
RTVSPost2010Prop31
280
     0
102
RTVSPost2010PropOp31
 70
     1
102
RTVSPost2010Prop32
280
     0
102
RTVSPost2010PropOp32
 70
     1
102
RTVSPost2010Prop33
280
     0
102
RTVSPost2010PropOp33
 70
     1
102
RTVSPost2010Prop34
280
     0
102
RTVSPost2010PropOp34
 70
     1
102
RTVSPost2010Prop35
280
     0
102
RTVSPost2010PropOp35
 70
     1
102
RTVSPost2010Prop36
280
     0
102
RTVSPost2010PropOp36
 70
     1
102
RTVSPost2010Prop37
 90
       50
102
RTVSPost2010PropOp37
 70
     0
102
RTVSPost2010Prop38
140
0.0
102
RTVSPost2010PropOp38
 70
     0
102
RTVSPost2010Prop39
140
1.0
102
RTVSPost2010PropOp39
 70
     0
102
RTVSPost2010Prop40
 90
        0
102
RTVSPost2010PropOp40
 70
     0
102
RTVSPost2010Prop41ColorIndex
 90
       18
102
RTVSPost2010Prop41ColorRGB
 90
        0
102
RTVSPost2010PropOp41
 70
     0
102
RTVSPost2010Prop42
 90
       50
102
RTVSPost2010PropOp42
 70
     0
102
RTVSPost2010Prop43
 90
        3
102
RTVSPost2010PropOp43
 70
     0
102
RTVSPost2010Prop44ColorIndex
 90
        5
102
RTVSPost2010Prop44ColorRGB
 90
      255
102
RTVSPost2010PropOp44
 70
     0
102
RTVSPost2010Prop45
280
     0
102
RTVSPost2010PropOp45
 70
     1
102
RTVSPost2010Prop46
 90
       50
102
RTVSPost2010PropOp46
 70
     0
102
RTVSPost2010Prop47
 90
       50
102
RTVSPost2010PropOp47
 70
     0
102
RTVSPost2010Prop48
 90
       50
102
RTVSPost2010PropOp48
 70
     0
102
RTVSPost2010Prop49
280
     0
102
RTVSPost2010PropOp49
 70
     1
102
RTVSPost2010Prop50
 90
       50
102
RTVSPost2010PropOp50
 70
     0
102
RTVSPost2010Prop51ColorIndex
 90
      256
102
RTVSPost2010Prop51ColorRGB
 90
-16777216
102
RTVSPost2010PropOp51
 70
     0
102
RTVSPost2010Prop52
140
1.0
102
RTVSPost2010PropOp52
 70
     0
102
RTVSPost2010Prop53
 90
        2
102
RTVSPost2010PropOp53
 70
     0
102
RTVSPost2010Prop54
  1
strokes_ogs.tif
102
RTVSPost2010PropOp54
 70
     0
102
RTVSPost2010Prop55
280
     0
102
RTVSPost2010PropOp55
 70
     1
102
RTVSPost2010Prop56
140
1.0
102
RTVSPost2010PropOp56
 70
     0
102
RTVSPost2010Prop57
140
1.0
102
RTVSPost2010PropOp57
 70
     0
102
RTVSPropertyOp0
 70
     0
102
RTVSPropertyOp1
 70
     0
102
RTVSPropertyOp2
 70
     0
102
RTVSPropertyOp3
 70
     0
102
RTVSPropertyOp4
 70
     0
102
RTVSPropertyOp5
 70
     0
102
RTVSPropertyOp6
 70
     0
102
RTVSPropertyOp7
 70
     0
102
RTVSPropertyOp8
 70
     0
102
RTVSPropertyOp9
 70
     0
102
RTVSPropertyOp10
 70
     0
102
RTVSPropertyOp11
 70
     0
102
RTVSPropertyOp12
 70
     0
102
RTVSPropertyOp13
 70
     0
102
RTVSPropertyOp14
 70
     2
102
RTVSPropertyOp15
 70
     0
102
RTVSPropertyOp16
 70
     0
102
RTVSPropertyOp17
 70
     0
102
RTVSPropertyOp18
 70
     0
102
RTVSPropertyOp19
 70
     0
102
RTVSPropertyOp20
 70
     0
102
RTVSPropertyOp21
 70
     0
102
RTVSPropertyOp22
 70
     0
102
RTVSPropertyOp23
 70
     0
102
RTVSPropertyOp24
 70
     0
102
RTVSPropertyOp25
 70
     0
102
RTVSPropertyOp26
 70
     0
102
RTVSPropertyOp27
 70
     0
102
RTVSPropertyOp28
 70
     1
102
RTVSPropertyOp29
 70
     1
102
RTVSPropertyOp30
 70
     1
102
RTVSPropertyOp31
 70
     1
102
RTVSPropertyOp32
 70
     1
102
RTVSPropertyOp33
 70
     1
102
RTVSPropertyOp34
 70
     1
102
RTVSPropertyOp35
 70
     1
102
RTVSPropertyOp36
 70
     1
102
RTVSPropertyOp37
 70
     0
102
RTVSPropertyOp38
 70
     0
102
RTVSPropertyOp39
 70
     0
102
RTVSPropertyOp40
 70
     0
102
RTVSPropertyOp41
 70
     0
102
RTVSPropertyOp42
 70
     0
102
RTVSPropertyOp43
 70
     0
102
RTVSPropertyOp44
 70
     0
102
RTVSPropertyOp45
 70
     1
102
RTVSPropertyOp46
 70
     0
102
RTVSPropertyOp47
 70
     0
102
RTVSPropertyOp48
 70
     0
102
RTVSPropertyOp49
 70
     1
102
RTVSPropertyOp50
 70
     0
102
RTVSPropertyOp51
 70
     0
102
RTVSPropertyOp52
 70
     0
102
RTVSPropertyOp53
 70
     0
102
RTVSPropertyOp54
 70
     0
102
RTVSPropertyOp55
 70
     1
102
RTVSPropertyOp56
 70
     0
102
RTVSPropertyOp57
 70
     0
102
RTVSPropertyOp58
 70
     0
102
RTVSPropertyOp59
 70
     0
102
RTVSPropertyOp60
 70
     0
102
RTVSPropertyOp61
 70
     0
102
RTVSPropertyOp62
 70
     0
  0
XRECORD
  5
4F7
102
{ACAD_REACTORS
330
4F6
102
}
330
4F6
100
AcDbXrecord
280
     1
102
RTVSPost2010Prop28
280
     0
102
RTVSPost2010PropOp28
 70
     1
102
RTVSPost2010Prop29
280
     1
102
RTVSPost2010PropOp29
 70
     1
102
RTVSPost2010Prop30
280
     1
102
RTVSPost2010PropOp30
 70
     1
102
RTVSPost2010Prop31
280
     0
102
RTVSPost2010PropOp31
 70
     1
102
RTVSPost2010Prop32
280
     0
102
RTVSPost2010PropOp32
 70
     1
102
RTVSPost2010Prop33
280
     0
102
RTVSPost2010PropOp33
 70
     1
102
RTVSPost2010Prop34
280
     0
102
RTVSPost2010PropOp34
 70
     1
102
RTVSPost2010Prop35
280
     0
102
RTVSPost2010PropOp35
 70
     1
102
RTVSPost2010Prop36
280
     0
102
RTVSPost2010PropOp36
 70
     1
102
RTVSPost2010Prop37
 90
       50
102
RTVSPost2010PropOp37
 70
     1
102
RTVSPost2010Prop38
140
0.0
102
RTVSPost2010PropOp38
 70
     1
102
RTVSPost2010Prop39
140
1.0
102
RTVSPost2010PropOp39
 70
     1
102
RTVSPost2010Prop40
 90
        0
102
RTVSPost2010PropOp40
 70
     1
102
RTVSPost2010Prop41ColorIndex
 90
       18
102
RTVSPost2010Prop41ColorRGB
 90
        0
102
RTVSPost2010PropOp41
 70
     1
102
RTVSPost2010Prop42
 90
       50
102
RTVSPost2010PropOp42
 70
     1
102
RTVSPost2010Prop43
 90
        3
102
RTVSPost2010PropOp43
 70
     1
102
RTVSPost2010Prop44ColorIndex
 90
        5
102
RTVSPost2010Prop44ColorRGB
 90
      255
102
RTVSPost2010PropOp44
 70
     1
102
RTVSPost2010Prop45
280
     0
102
RTVSPost2010PropOp45
 70
     1
102
RTVSPost2010Prop46
 90
       50
102
RTVSPost2010PropOp46
 70
     1
102
RTVSPost2010Prop47
 90
       50
102
RTVSPost2010PropOp47
 70
     1
102
RTVSPost2010Prop48
 90
       50
102
RTVSPost2010PropOp48
 70
     1
102
RTVSPost2010Prop49
280
     0
102
RTVSPost2010PropOp49
 70
     1
102
RTVSPost2010Prop50
 90
       50
102
RTVSPost2010PropOp50
 70
     1
102
RTVSPost2010Prop51ColorIndex
 90
      256
102
RTVSPost2010Prop51ColorRGB
 90
-16777216
102
RTVSPost2010PropOp51
 70
     0
102
RTVSPost2010Prop52
140
1.0
102
RTVSPost2010PropOp52
 70
     0
102
RTVSPost2010Prop53
 90
        2
102
RTVSPost2010PropOp53
 70
     1
102
RTVSPost2010Prop54
  1
strokes_ogs.tif
102
RTVSPost2010PropOp54
 70
     1
102
RTVSPost2010Prop55
280
     0
102
RTVSPost2010PropOp55
 70
     1
102
RTVSPost2010Prop56
140
1.0
102
RTVSPost2010PropOp56
 70
     1
102
RTVSPost2010Prop57
140
1.0
102
RTVSPost2010PropOp57
 70
     1
102
RTVSPropertyOp0
 70
     1
102
RTVSPropertyOp1
 70
     1
102
RTVSPropertyOp2
 70
     1
102
RTVSPropertyOp3
 70
     1
102
RTVSPropertyOp4
 70
     1
102
RTVSPropertyOp5
 70
     1
102
RTVSPropertyOp6
 70
     1
102
RTVSPropertyOp7
 70
     1
102
RTVSPropertyOp8
 70
     1
102
RTVSPropertyOp9
 70
     1
102
RTVSPropertyOp10
 70
     1
102
RTVSPropertyOp11
 70
     1
102
RTVSPropertyOp12
 70
     1
102
RTVSPropertyOp13
 70
     1
102
RTVSPropertyOp14
 70
     1
102
RTVSPropertyOp15
 70
     1
102
RTVSPropertyOp16
 70
     1
102
RTVSPropertyOp17
 70
     1
102
RTVSPropertyOp18
 70
     1
102
RTVSPropertyOp19
 70
     1
102
RTVSPropertyOp20
 70
     1
102
RTVSPropertyOp21
 70
     1
102
RTVSPropertyOp22
 70
     1
102
RTVSPropertyOp23
 70
     1
102
RTVSPropertyOp24
 70
     1
102
RTVSPropertyOp25
 70
     1
102
RTVSPropertyOp26
 70
     1
102
RTVSPropertyOp27
 70
     1
102
RTVSPropertyOp28
 70
     1
102
RTVSPropertyOp29
 70
     1
102
RTVSPropertyOp30
 70
     1
102
RTVSPropertyOp31
 70
     1
102
RTVSPropertyOp32
 70
     1
102
RTVSPropertyOp33
 70
     1
102
RTVSPropertyOp34
 70
     1
102
RTVSPropertyOp35
 70
     1
102
RTVSPropertyOp36
 70
     1
102
RTVSPropertyOp37
 70
     1
102
RTVSPropertyOp38
 70
     1
102
RTVSPropertyOp39
 70
     1
102
RTVSPropertyOp40
 70
     1
102
RTVSPropertyOp41
 70
     1
102
RTVSPropertyOp42
 70
     1
102
RTVSPropertyOp43
 70
     1
102
RTVSPropertyOp44
 70
     1
102
RTVSPropertyOp45
 70
     1
102
RTVSPropertyOp46
 70
     1
102
RTVSPropertyOp47
 70
     1
102
RTVSPropertyOp48
 70
     1
102
RTVSPropertyOp49
 70
     1
102
RTVSPropertyOp50
 70
     1
102
RTVSPropertyOp51
 70
     0
102
RTVSPropertyOp52
 70
     0
102
RTVSPropertyOp53
 70
     1
102
RTVSPropertyOp54
 70
     1
102
RTVSPropertyOp55
 70
     1
102
RTVSPropertyOp56
 70
     1
102
RTVSPropertyOp57
 70
     1
102
RTVSPropertyOp58
 70
     1
102
RTVSPropertyOp59
 70
     1
102
RTVSPropertyOp60
 70
     1
102
RTVSPropertyOp61
 70
     1
102
RTVSPropertyOp62
 70
     1
  0
XRECORD
  5
509
102
{ACAD_REACTORS
330
508
102
}
330
508
100
AcDbXrecord
280
     1
102
RTVSPost2010Prop28
280
     0
102
RTVSPost2010PropOp28
 70
     1
102
RTVSPost2010Prop29
280
     1
102
RTVSPost2010PropOp29
 70
     1
102
RTVSPost2010Prop30
280
     1
102
RTVSPost2010PropOp30
 70
     1
102
RTVSPost2010Prop31
280
     0
102
RTVSPost2010PropOp31
 70
     1
102
RTVSPost2010Prop32
280
     0
102
RTVSPost2010PropOp32
 70
     1
102
RTVSPost2010Prop33
280
     0
102
RTVSPost2010PropOp33
 70
     1
102
RTVSPost2010Prop34
280
     0
102
RTVSPost2010PropOp34
 70
     1
102
RTVSPost2010Prop35
280
     0
102
RTVSPost2010PropOp35
 70
     1
102
RTVSPost2010Prop36
280
     0
102
RTVSPost2010PropOp36
 70
     1
102
RTVSPost2010Prop37
 90
       50
102
RTVSPost2010PropOp37
 70
     0
102
RTVSPost2010Prop38
140
0.0
102
RTVSPost2010PropOp38
 70
     0
102
RTVSPost2010Prop39
140
1.0
102
RTVSPost2010PropOp39
 70
     0
102
RTVSPost2010Prop40
 90
        0
102
RTVSPost2010PropOp40
 70
     0
102
RTVSPost2010Prop41ColorIndex
 90
       18
102
RTVSPost2010Prop41ColorRGB
 90
        0
102
RTVSPost2010PropOp41
 70
     0
102
RTVSPost2010Prop42
 90
       50
102
RTVSPost2010PropOp42
 70
     0
102
RTVSPost2010Prop43
 90
        3
102
RTVSPost2010PropOp43
 70
     0
102
RTVSPost2010Prop44ColorIndex
 90
        5
102
RTVSPost2010Prop44ColorRGB
 90
      255
102
RTVSPost2010PropOp44
 70
     0
102
RTVSPost2010Prop45
280
     0
102
RTVSPost2010PropOp45
 70
     1
102
RTVSPost2010Prop46
 90
       50
102
RTVSPost2010PropOp46
 70
     0
102
RTVSPost2010Prop47
 90
       50
102
RTVSPost2010PropOp47
 70
     0
102
RTVSPost2010Prop48
 90
       50
102
RTVSPost2010PropOp48
 70
     0
102
RTVSPost2010Prop49
280
     0
102
RTVSPost2010PropOp49
 70
     1
102
RTVSPost2010Prop50
 90
       50
102
RTVSPost2010PropOp50
 70
     0
102
RTVSPost2010Prop51ColorIndex
 90
      256
102
RTVSPost2010Prop51ColorRGB
 90
-16777216
102
RTVSPost2010PropOp51
 70
     0
102
RTVSPost2010Prop52
140
1.0
102
RTVSPost2010PropOp52
 70
     0
102
RTVSPost2010Prop53
 90
        2
102
RTVSPost2010PropOp53
 70
     0
102
RTVSPost2010Prop54
  1
strokes_ogs.tif
102
RTVSPost2010PropOp54
 70
     0
102
RTVSPost2010Prop55
280
     0
102
RTVSPost2010PropOp55
 70
     1
102
RTVSPost2010Prop56
140
1.0
102
RTVSPost2010PropOp56
 70
     0
102
RTVSPost2010Prop57
140
1.0
102
RTVSPost2010PropOp57
 70
     0
102
RTVSPropertyOp0
 70
     0
102
RTVSPropertyOp1
 70
     0
102
RTVSPropertyOp2
 70
     0
102
RTVSPropertyOp3
 70
     0
102
RTVSPropertyOp4
 70
     0
102
RTVSPropertyOp5
 70
     0
102
RTVSPropertyOp6
 70
     0
102
RTVSPropertyOp7
 70
     0
102
RTVSPropertyOp8
 70
     0
102
RTVSPropertyOp9
 70
     0
102
RTVSPropertyOp10
 70
     0
102
RTVSPropertyOp11
 70
     0
102
RTVSPropertyOp12
 70
     0
102
RTVSPropertyOp13
 70
     0
102
RTVSPropertyOp14
 70
     2
102
RTVSPropertyOp15
 70
     0
102
RTVSPropertyOp16
 70
     0
102
RTVSPropertyOp17
 70
     0
102
RTVSPropertyOp18
 70
     0
102
RTVSPropertyOp19
 70
     0
102
RTVSPropertyOp20
 70
     0
102
RTVSPropertyOp21
 70
     0
102
RTVSPropertyOp22
 70
     0
102
RTVSPropertyOp23
 70
     0
102
RTVSPropertyOp24
 70
     0
102
RTVSPropertyOp25
 70
     0
102
RTVSPropertyOp26
 70
     0
102
RTVSPropertyOp27
 70
     0
102
RTVSPropertyOp28
 70
     1
102
RTVSPropertyOp29
 70
     1
102
RTVSPropertyOp30
 70
     1
102
RTVSPropertyOp31
 70
     1
102
RTVSPropertyOp32
 70
     1
102
RTVSPropertyOp33
 70
     1
102
RTVSPropertyOp34
 70
     1
102
RTVSPropertyOp35
 70
     1
102
RTVSPropertyOp36
 70
     1
102
RTVSPropertyOp37
 70
     0
102
RTVSPropertyOp38
 70
     0
102
RTVSPropertyOp39
 70
     0
102
RTVSPropertyOp40
 70
     0
102
RTVSPropertyOp41
 70
     0
102
RTVSPropertyOp42
 70
     0
102
RTVSPropertyOp43
 70
     0
102
RTVSPropertyOp44
 70
     0
102
RTVSPropertyOp45
 70
     1
102
RTVSPropertyOp46
 70
     0
102
RTVSPropertyOp47
 70
     0
102
RTVSPropertyOp48
 70
     0
102
RTVSPropertyOp49
 70
     1
102
RTVSPropertyOp50
 70
     0
102
RTVSPropertyOp51
 70
     0
102
RTVSPropertyOp52
 70
     0
102
RTVSPropertyOp53
 70
     0
102
RTVSPropertyOp54
 70
     0
102
RTVSPropertyOp55
 70
     1
102
RTVSPropertyOp56
 70
     0
102
RTVSPropertyOp57
 70
     0
102
RTVSPropertyOp58
 70
     0
102
RTVSPropertyOp59
 70
     0
102
RTVSPropertyOp60
 70
     0
102
RTVSPropertyOp61
 70
     0
102
RTVSPropertyOp62
 70
     0
  0
XRECORD
  5
4EF
102
{ACAD_REACTORS
330
4EE
102
}
330
4EE
100
AcDbXrecord
280
     1
102
RTVSPost2010Prop28
280
     0
102
RTVSPost2010PropOp28
 70
     1
102
RTVSPost2010Prop29
280
     1
102
RTVSPost2010PropOp29
 70
     1
102
RTVSPost2010Prop30
280
     1
102
RTVSPost2010PropOp30
 70
     1
102
RTVSPost2010Prop31
280
     0
102
RTVSPost2010PropOp31
 70
     1
102
RTVSPost2010Prop32
280
     0
102
RTVSPost2010PropOp32
 70
     1
102
RTVSPost2010Prop33
280
     0
102
RTVSPost2010PropOp33
 70
     1
102
RTVSPost2010Prop34
280
     0
102
RTVSPost2010PropOp34
 70
     1
102
RTVSPost2010Prop35
280
     0
102
RTVSPost2010PropOp35
 70
     1
102
RTVSPost2010Prop36
280
     0
102
RTVSPost2010PropOp36
 70
     1
102
RTVSPost2010Prop37
 90
       50
102
RTVSPost2010PropOp37
 70
     1
102
RTVSPost2010Prop38
140
0.0
102
RTVSPost2010PropOp38
 70
     1
102
RTVSPost2010Prop39
140
1.0
102
RTVSPost2010PropOp39
 70
     1
102
RTVSPost2010Prop40
 90
        0
102
RTVSPost2010PropOp40
 70
     1
102
RTVSPost2010Prop41ColorIndex
 90
       18
102
RTVSPost2010Prop41ColorRGB
 90
        0
102
RTVSPost2010PropOp41
 70
     1
102
RTVSPost2010Prop42
 90
       50
102
RTVSPost2010PropOp42
 70
     1
102
RTVSPost2010Prop43
 90
        3
102
RTVSPost2010PropOp43
 70
     1
102
RTVSPost2010Prop44ColorIndex
 90
        5
102
RTVSPost2010Prop44ColorRGB
 90
      255
102
RTVSPost2010PropOp44
 70
     1
102
RTVSPost2010Prop45
280
     0
102
RTVSPost2010PropOp45
 70
     1
102
RTVSPost2010Prop46
 90
       50
102
RTVSPost2010PropOp46
 70
     1
102
RTVSPost2010Prop47
 90
       50
102
RTVSPost2010PropOp47
 70
     1
102
RTVSPost2010Prop48
 90
       50
102
RTVSPost2010PropOp48
 70
     1
102
RTVSPost2010Prop49
280
     0
102
RTVSPost2010PropOp49
 70
     1
102
RTVSPost2010Prop50
 90
       50
102
RTVSPost2010PropOp50
 70
     1
102
RTVSPost2010Prop51ColorIndex
 90
      256
102
RTVSPost2010Prop51ColorRGB
 90
-16777216
102
RTVSPost2010PropOp51
 70
     0
102
RTVSPost2010Prop52
140
1.0
102
RTVSPost2010PropOp52
 70
     0
102
RTVSPost2010Prop53
 90
        2
102
RTVSPost2010PropOp53
 70
     1
102
RTVSPost2010Prop54
  1
strokes_ogs.tif
102
RTVSPost2010PropOp54
 70
     1
102
RTVSPost2010Prop55
280
     0
102
RTVSPost2010PropOp55
 70
     1
102
RTVSPost2010Prop56
140
1.0
102
RTVSPost2010PropOp56
 70
     1
102
RTVSPost2010Prop57
140
1.0
102
RTVSPost2010PropOp57
 70
     1
102
RTVSPropertyOp0
 70
     1
102
RTVSPropertyOp1
 70
     1
102
RTVSPropertyOp2
 70
     1
102
RTVSPropertyOp3
 70
     1
102
RTVSPropertyOp4
 70
     1
102
RTVSPropertyOp5
 70
     1
102
RTVSPropertyOp6
 70
     1
102
RTVSPropertyOp7
 70
     1
102
RTVSPropertyOp8
 70
     1
102
RTVSPropertyOp9
 70
     1
102
RTVSPropertyOp10
 70
     1
102
RTVSPropertyOp11
 70
     1
102
RTVSPropertyOp12
 70
     1
102
RTVSPropertyOp13
 70
     1
102
RTVSPropertyOp14
 70
     1
102
RTVSPropertyOp15
 70
     1
102
RTVSPropertyOp16
 70
     1
102
RTVSPropertyOp17
 70
     1
102
RTVSPropertyOp18
 70
     1
102
RTVSPropertyOp19
 70
     1
102
RTVSPropertyOp20
 70
     1
102
RTVSPropertyOp21
 70
     1
102
RTVSPropertyOp22
 70
     1
102
RTVSPropertyOp23
 70
     1
102
RTVSPropertyOp24
 70
     1
102
RTVSPropertyOp25
 70
     1
102
RTVSPropertyOp26
 70
     1
102
RTVSPropertyOp27
 70
     1
102
RTVSPropertyOp28
 70
     1
102
RTVSPropertyOp29
 70
     1
102
RTVSPropertyOp30
 70
     1
102
RTVSPropertyOp31
 70
     1
102
RTVSPropertyOp32
 70
     1
102
RTVSPropertyOp33
 70
     1
102
RTVSPropertyOp34
 70
     1
102
RTVSPropertyOp35
 70
     1
102
RTVSPropertyOp36
 70
     1
102
RTVSPropertyOp37
 70
     1
102
RTVSPropertyOp38
 70
     1
102
RTVSPropertyOp39
 70
     1
102
RTVSPropertyOp40
 70
     1
102
RTVSPropertyOp41
 70
     1
102
RTVSPropertyOp42
 70
     1
102
RTVSPropertyOp43
 70
     1
102
RTVSPropertyOp44
 70
     1
102
RTVSPropertyOp45
 70
     1
102
RTVSPropertyOp46
 70
     1
102
RTVSPropertyOp47
 70
     1
102
RTVSPropertyOp48
 70
     1
102
RTVSPropertyOp49
 70
     1
102
RTVSPropertyOp50
 70
     1
102
RTVSPropertyOp51
 70
     0
102
RTVSPropertyOp52
 70
     0
102
RTVSPropertyOp53
 70
     1
102
RTVSPropertyOp54
 70
     1
102
RTVSPropertyOp55
 70
     1
102
RTVSPropertyOp56
 70
     1
102
RTVSPropertyOp57
 70
     1
102
RTVSPropertyOp58
 70
     1
102
RTVSPropertyOp59
 70
     1
102
RTVSPropertyOp60
 70
     1
102
RTVSPropertyOp61
 70
     1
102
RTVSPropertyOp62
 70
     1
  0
XRECORD
  5
505
102
{ACAD_REACTORS
330
504
102
}
330
504
100
AcDbXrecord
280
     1
102
RTVSPost2010Prop28
280
     0
102
RTVSPost2010PropOp28
 70
     1
102
RTVSPost2010Prop29
280
     1
102
RTVSPost2010PropOp29
 70
     1
102
RTVSPost2010Prop30
280
     1
102
RTVSPost2010PropOp30
 70
     1
102
RTVSPost2010Prop31
280
     0
102
RTVSPost2010PropOp31
 70
     1
102
RTVSPost2010Prop32
280
     0
102
RTVSPost2010PropOp32
 70
     1
102
RTVSPost2010Prop33
280
     0
102
RTVSPost2010PropOp33
 70
     1
102
RTVSPost2010Prop34
280
     0
102
RTVSPost2010PropOp34
 70
     1
102
RTVSPost2010Prop35
280
     0
102
RTVSPost2010PropOp35
 70
     1
102
RTVSPost2010Prop36
280
     0
102
RTVSPost2010PropOp36
 70
     1
102
RTVSPost2010Prop37
 90
       50
102
RTVSPost2010PropOp37
 70
     1
102
RTVSPost2010Prop38
140
0.0
102
RTVSPost2010PropOp38
 70
     1
102
RTVSPost2010Prop39
140
1.0
102
RTVSPost2010PropOp39
 70
     1
102
RTVSPost2010Prop40
 90
        0
102
RTVSPost2010PropOp40
 70
     1
102
RTVSPost2010Prop41ColorIndex
 90
       18
102
RTVSPost2010Prop41ColorRGB
 90
        0
102
RTVSPost2010PropOp41
 70
     1
102
RTVSPost2010Prop42
 90
       50
102
RTVSPost2010PropOp42
 70
     1
102
RTVSPost2010Prop43
 90
        3
102
RTVSPost2010PropOp43
 70
     1
102
RTVSPost2010Prop44ColorIndex
 90
        5
102
RTVSPost2010Prop44ColorRGB
 90
      255
102
RTVSPost2010PropOp44
 70
     1
102
RTVSPost2010Prop45
280
     0
102
RTVSPost2010PropOp45
 70
     1
102
RTVSPost2010Prop46
 90
       50
102
RTVSPost2010PropOp46
 70
     1
102
RTVSPost2010Prop47
 90
       50
102
RTVSPost2010PropOp47
 70
     1
102
RTVSPost2010Prop48
 90
       50
102
RTVSPost2010PropOp48
 70
     1
102
RTVSPost2010Prop49
280
     0
102
RTVSPost2010PropOp49
 70
     1
102
RTVSPost2010Prop50
 90
       50
102
RTVSPost2010PropOp50
 70
     1
102
RTVSPost2010Prop51ColorIndex
 90
      256
102
RTVSPost2010Prop51ColorRGB
 90
-16777216
102
RTVSPost2010PropOp51
 70
     0
102
RTVSPost2010Prop52
140
1.0
102
RTVSPost2010PropOp52
 70
     0
102
RTVSPost2010Prop53
 90
        2
102
RTVSPost2010PropOp53
 70
     1
102
RTVSPost2010Prop54
  1
strokes_ogs.tif
102
RTVSPost2010PropOp54
 70
     1
102
RTVSPost2010Prop55
280
     0
102
RTVSPost2010PropOp55
 70
     1
102
RTVSPost2010Prop56
140
1.0
102
RTVSPost2010PropOp56
 70
     1
102
RTVSPost2010Prop57
140
1.0
102
RTVSPost2010PropOp57
 70
     1
102
RTVSPropertyOp0
 70
     1
102
RTVSPropertyOp1
 70
     1
102
RTVSPropertyOp2
 70
     1
102
RTVSPropertyOp3
 70
     1
102
RTVSPropertyOp4
 70
     1
102
RTVSPropertyOp5
 70
     1
102
RTVSPropertyOp6
 70
     1
102
RTVSPropertyOp7
 70
     1
102
RTVSPropertyOp8
 70
     1
102
RTVSPropertyOp9
 70
     1
102
RTVSPropertyOp10
 70
     1
102
RTVSPropertyOp11
 70
     1
102
RTVSPropertyOp12
 70
     1
102
RTVSPropertyOp13
 70
     1
102
RTVSPropertyOp14
 70
     1
102
RTVSPropertyOp15
 70
     1
102
RTVSPropertyOp16
 70
     1
102
RTVSPropertyOp17
 70
     1
102
RTVSPropertyOp18
 70
     1
102
RTVSPropertyOp19
 70
     1
102
RTVSPropertyOp20
 70
     1
102
RTVSPropertyOp21
 70
     1
102
RTVSPropertyOp22
 70
     1
102
RTVSPropertyOp23
 70
     1
102
RTVSPropertyOp24
 70
     1
102
RTVSPropertyOp25
 70
     1
102
RTVSPropertyOp26
 70
     1
102
RTVSPropertyOp27
 70
     1
102
RTVSPropertyOp28
 70
     1
102
RTVSPropertyOp29
 70
     1
102
RTVSPropertyOp30
 70
     1
102
RTVSPropertyOp31
 70
     1
102
RTVSPropertyOp32
 70
     1
102
RTVSPropertyOp33
 70
     1
102
RTVSPropertyOp34
 70
     1
102
RTVSPropertyOp35
 70
     1
102
RTVSPropertyOp36
 70
     1
102
RTVSPropertyOp37
 70
     1
102
RTVSPropertyOp38
 70
     1
102
RTVSPropertyOp39
 70
     1
102
RTVSPropertyOp40
 70
     1
102
RTVSPropertyOp41
 70
     1
102
RTVSPropertyOp42
 70
     1
102
RTVSPropertyOp43
 70
     1
102
RTVSPropertyOp44
 70
     1
102
RTVSPropertyOp45
 70
     1
102
RTVSPropertyOp46
 70
     1
102
RTVSPropertyOp47
 70
     1
102
RTVSPropertyOp48
 70
     1
102
RTVSPropertyOp49
 70
     1
102
RTVSPropertyOp50
 70
     1
102
RTVSPropertyOp51
 70
     0
102
RTVSPropertyOp52
 70
     0
102
RTVSPropertyOp53
 70
     1
102
RTVSPropertyOp54
 70
     1
102
RTVSPropertyOp55
 70
     1
102
RTVSPropertyOp56
 70
     1
102
RTVSPropertyOp57
 70
     1
102
RTVSPropertyOp58
 70
     1
102
RTVSPropertyOp59
 70
     1
102
RTVSPropertyOp60
 70
     1
102
RTVSPropertyOp61
 70
     1
102
RTVSPropertyOp62
 70
     1
  0
XRECORD
  5
503
102
{ACAD_REACTORS
330
502
102
}
330
502
100
AcDbXrecord
280
     1
102
RTVSPost2010Prop28
280
     0
102
RTVSPost2010PropOp28
 70
     1
102
RTVSPost2010Prop29
280
     1
102
RTVSPost2010PropOp29
 70
     1
102
RTVSPost2010Prop30
280
     1
102
RTVSPost2010PropOp30
 70
     1
102
RTVSPost2010Prop31
280
     0
102
RTVSPost2010PropOp31
 70
     1
102
RTVSPost2010Prop32
280
     0
102
RTVSPost2010PropOp32
 70
     1
102
RTVSPost2010Prop33
280
     0
102
RTVSPost2010PropOp33
 70
     1
102
RTVSPost2010Prop34
280
     0
102
RTVSPost2010PropOp34
 70
     1
102
RTVSPost2010Prop35
280
     0
102
RTVSPost2010PropOp35
 70
     1
102
RTVSPost2010Prop36
280
     0
102
RTVSPost2010PropOp36
 70
     1
102
RTVSPost2010Prop37
 90
       50
102
RTVSPost2010PropOp37
 70
     1
102
RTVSPost2010Prop38
140
0.0
102
RTVSPost2010PropOp38
 70
     1
102
RTVSPost2010Prop39
140
1.0
102
RTVSPost2010PropOp39
 70
     1
102
RTVSPost2010Prop40
 90
        0
102
RTVSPost2010PropOp40
 70
     1
102
RTVSPost2010Prop41ColorIndex
 90
       18
102
RTVSPost2010Prop41ColorRGB
 90
        0
102
RTVSPost2010PropOp41
 70
     1
102
RTVSPost2010Prop42
 90
       50
102
RTVSPost2010PropOp42
 70
     1
102
RTVSPost2010Prop43
 90
        3
102
RTVSPost2010PropOp43
 70
     1
102
RTVSPost2010Prop44ColorIndex
 90
        5
102
RTVSPost2010Prop44ColorRGB
 90
      255
102
RTVSPost2010PropOp44
 70
     1
102
RTVSPost2010Prop45
280
     0
102
RTVSPost2010PropOp45
 70
     1
102
RTVSPost2010Prop46
 90
       50
102
RTVSPost2010PropOp46
 70
     1
102
RTVSPost2010Prop47
 90
       50
102
RTVSPost2010PropOp47
 70
     1
102
RTVSPost2010Prop48
 90
       50
102
RTVSPost2010PropOp48
 70
     1
102
RTVSPost2010Prop49
280
     0
102
RTVSPost2010PropOp49
 70
     1
102
RTVSPost2010Prop50
 90
       50
102
RTVSPost2010PropOp50
 70
     1
102
RTVSPost2010Prop51ColorIndex
 90
      256
102
RTVSPost2010Prop51ColorRGB
 90
-16777216
102
RTVSPost2010PropOp51
 70
     0
102
RTVSPost2010Prop52
140
1.0
102
RTVSPost2010PropOp52
 70
     0
102
RTVSPost2010Prop53
 90
        2
102
RTVSPost2010PropOp53
 70
     1
102
RTVSPost2010Prop54
  1
strokes_ogs.tif
102
RTVSPost2010PropOp54
 70
     1
102
RTVSPost2010Prop55
280
     0
102
RTVSPost2010PropOp55
 70
     1
102
RTVSPost2010Prop56
140
1.0
102
RTVSPost2010PropOp56
 70
     1
102
RTVSPost2010Prop57
140
1.0
102
RTVSPost2010PropOp57
 70
     1
102
RTVSPropertyOp0
 70
     1
102
RTVSPropertyOp1
 70
     1
102
RTVSPropertyOp2
 70
     1
102
RTVSPropertyOp3
 70
     1
102
RTVSPropertyOp4
 70
     1
102
RTVSPropertyOp5
 70
     1
102
RTVSPropertyOp6
 70
     1
102
RTVSPropertyOp7
 70
     1
102
RTVSPropertyOp8
 70
     1
102
RTVSPropertyOp9
 70
     1
102
RTVSPropertyOp10
 70
     1
102
RTVSPropertyOp11
 70
     1
102
RTVSPropertyOp12
 70
     1
102
RTVSPropertyOp13
 70
     1
102
RTVSPropertyOp14
 70
     1
102
RTVSPropertyOp15
 70
     1
102
RTVSPropertyOp16
 70
     1
102
RTVSPropertyOp17
 70
     1
102
RTVSPropertyOp18
 70
     1
102
RTVSPropertyOp19
 70
     1
102
RTVSPropertyOp20
 70
     1
102
RTVSPropertyOp21
 70
     1
102
RTVSPropertyOp22
 70
     1
102
RTVSPropertyOp23
 70
     1
102
RTVSPropertyOp24
 70
     1
102
RTVSPropertyOp25
 70
     1
102
RTVSPropertyOp26
 70
     1
102
RTVSPropertyOp27
 70
     1
102
RTVSPropertyOp28
 70
     1
102
RTVSPropertyOp29
 70
     1
102
RTVSPropertyOp30
 70
     1
102
RTVSPropertyOp31
 70
     1
102
RTVSPropertyOp32
 70
     1
102
RTVSPropertyOp33
 70
     1
102
RTVSPropertyOp34
 70
     1
102
RTVSPropertyOp35
 70
     1
102
RTVSPropertyOp36
 70
     1
102
RTVSPropertyOp37
 70
     1
102
RTVSPropertyOp38
 70
     1
102
RTVSPropertyOp39
 70
     1
102
RTVSPropertyOp40
 70
     1
102
RTVSPropertyOp41
 70
     1
102
RTVSPropertyOp42
 70
     1
102
RTVSPropertyOp43
 70
     1
102
RTVSPropertyOp44
 70
     1
102
RTVSPropertyOp45
 70
     1
102
RTVSPropertyOp46
 70
     1
102
RTVSPropertyOp47
 70
     1
102
RTVSPropertyOp48
 70
     1
102
RTVSPropertyOp49
 70
     1
102
RTVSPropertyOp50
 70
     1
102
RTVSPropertyOp51
 70
     0
102
RTVSPropertyOp52
 70
     0
102
RTVSPropertyOp53
 70
     1
102
RTVSPropertyOp54
 70
     1
102
RTVSPropertyOp55
 70
     1
102
RTVSPropertyOp56
 70
     1
102
RTVSPropertyOp57
 70
     1
102
RTVSPropertyOp58
 70
     1
102
RTVSPropertyOp59
 70
     1
102
RTVSPropertyOp60
 70
     1
102
RTVSPropertyOp61
 70
     1
102
RTVSPropertyOp62
 70
     1
  0
XRECORD
  5
4FD
102
{ACAD_REACTORS
330
4FC
102
}
330
4FC
100
AcDbXrecord
280
     1
102
RTVSPost2010Prop28
280
     0
102
RTVSPost2010PropOp28
 70
     1
102
RTVSPost2010Prop29
280
     1
102
RTVSPost2010PropOp29
 70
     1
102
RTVSPost2010Prop30
280
     1
102
RTVSPost2010PropOp30
 70
     1
102
RTVSPost2010Prop31
280
     0
102
RTVSPost2010PropOp31
 70
     1
102
RTVSPost2010Prop32
280
     0
102
RTVSPost2010PropOp32
 70
     1
102
RTVSPost2010Prop33
280
     0
102
RTVSPost2010PropOp33
 70
     1
102
RTVSPost2010Prop34
280
     0
102
RTVSPost2010PropOp34
 70
     1
102
RTVSPost2010Prop35
280
     0
102
RTVSPost2010PropOp35
 70
     1
102
RTVSPost2010Prop36
280
     0
102
RTVSPost2010PropOp36
 70
     1
102
RTVSPost2010Prop37
 90
       50
102
RTVSPost2010PropOp37
 70
     1
102
RTVSPost2010Prop38
140
0.0
102
RTVSPost2010PropOp38
 70
     1
102
RTVSPost2010Prop39
140
1.0
102
RTVSPost2010PropOp39
 70
     1
102
RTVSPost2010Prop40
 90
        0
102
RTVSPost2010PropOp40
 70
     1
102
RTVSPost2010Prop41ColorIndex
 90
       18
102
RTVSPost2010Prop41ColorRGB
 90
        0
102
RTVSPost2010PropOp41
 70
     1
102
RTVSPost2010Prop42
 90
       50
102
RTVSPost2010PropOp42
 70
     1
102
RTVSPost2010Prop43
 90
        3
102
RTVSPost2010PropOp43
 70
     1
102
RTVSPost2010Prop44ColorIndex
 90
        5
102
RTVSPost2010Prop44ColorRGB
 90
      255
102
RTVSPost2010PropOp44
 70
     1
102
RTVSPost2010Prop45
280
     0
102
RTVSPost2010PropOp45
 70
     1
102
RTVSPost2010Prop46
 90
       50
102
RTVSPost2010PropOp46
 70
     1
102
RTVSPost2010Prop47
 90
       50
102
RTVSPost2010PropOp47
 70
     1
102
RTVSPost2010Prop48
 90
       50
102
RTVSPost2010PropOp48
 70
     1
102
RTVSPost2010Prop49
280
     0
102
RTVSPost2010PropOp49
 70
     1
102
RTVSPost2010Prop50
 90
       50
102
RTVSPost2010PropOp50
 70
     1
102
RTVSPost2010Prop51ColorIndex
 90
      256
102
RTVSPost2010Prop51ColorRGB
 90
-16777216
102
RTVSPost2010PropOp51
 70
     0
102
RTVSPost2010Prop52
140
1.0
102
RTVSPost2010PropOp52
 70
     0
102
RTVSPost2010Prop53
 90
        2
102
RTVSPost2010PropOp53
 70
     1
102
RTVSPost2010Prop54
  1
strokes_ogs.tif
102
RTVSPost2010PropOp54
 70
     1
102
RTVSPost2010Prop55
280
     0
102
RTVSPost2010PropOp55
 70
     1
102
RTVSPost2010Prop56
140
1.0
102
RTVSPost2010PropOp56
 70
     1
102
RTVSPost2010Prop57
140
1.0
102
RTVSPost2010PropOp57
 70
     1
102
RTVSPropertyOp0
 70
     1
102
RTVSPropertyOp1
 70
     1
102
RTVSPropertyOp2
 70
     1
102
RTVSPropertyOp3
 70
     1
102
RTVSPropertyOp4
 70
     1
102
RTVSPropertyOp5
 70
     1
102
RTVSPropertyOp6
 70
     1
102
RTVSPropertyOp7
 70
     1
102
RTVSPropertyOp8
 70
     1
102
RTVSPropertyOp9
 70
     1
102
RTVSPropertyOp10
 70
     1
102
RTVSPropertyOp11
 70
     1
102
RTVSPropertyOp12
 70
     1
102
RTVSPropertyOp13
 70
     1
102
RTVSPropertyOp14
 70
     1
102
RTVSPropertyOp15
 70
     1
102
RTVSPropertyOp16
 70
     1
102
RTVSPropertyOp17
 70
     1
102
RTVSPropertyOp18
 70
     1
102
RTVSPropertyOp19
 70
     1
102
RTVSPropertyOp20
 70
     1
102
RTVSPropertyOp21
 70
     1
102
RTVSPropertyOp22
 70
     1
102
RTVSPropertyOp23
 70
     1
102
RTVSPropertyOp24
 70
     1
102
RTVSPropertyOp25
 70
     1
102
RTVSPropertyOp26
 70
     1
102
RTVSPropertyOp27
 70
     1
102
RTVSPropertyOp28
 70
     1
102
RTVSPropertyOp29
 70
     1
102
RTVSPropertyOp30
 70
     1
102
RTVSPropertyOp31
 70
     1
102
RTVSPropertyOp32
 70
     1
102
RTVSPropertyOp33
 70
     1
102
RTVSPropertyOp34
 70
     1
102
RTVSPropertyOp35
 70
     1
102
RTVSPropertyOp36
 70
     1
102
RTVSPropertyOp37
 70
     1
102
RTVSPropertyOp38
 70
     1
102
RTVSPropertyOp39
 70
     1
102
RTVSPropertyOp40
 70
     1
102
RTVSPropertyOp41
 70
     1
102
RTVSPropertyOp42
 70
     1
102
RTVSPropertyOp43
 70
     1
102
RTVSPropertyOp44
 70
     1
102
RTVSPropertyOp45
 70
     1
102
RTVSPropertyOp46
 70
     1
102
RTVSPropertyOp47
 70
     1
102
RTVSPropertyOp48
 70
     1
102
RTVSPropertyOp49
 70
     1
102
RTVSPropertyOp50
 70
     1
102
RTVSPropertyOp51
 70
     0
102
RTVSPropertyOp52
 70
     0
102
RTVSPropertyOp53
 70
     1
102
RTVSPropertyOp54
 70
     1
102
RTVSPropertyOp55
 70
     1
102
RTVSPropertyOp56
 70
     1
102
RTVSPropertyOp57
 70
     1
102
RTVSPropertyOp58
 70
     1
102
RTVSPropertyOp59
 70
     1
102
RTVSPropertyOp60
 70
     1
102
RTVSPropertyOp61
 70
     1
102
RTVSPropertyOp62
 70
     1
  0
XRECORD
  5
4FF
102
{ACAD_REACTORS
330
4FE
102
}
330
4FE
100
AcDbXrecord
280
     1
102
RTVSPost2010Prop28
280
     0
102
RTVSPost2010PropOp28
 70
     1
102
RTVSPost2010Prop29
280
     1
102
RTVSPost2010PropOp29
 70
     1
102
RTVSPost2010Prop30
280
     1
102
RTVSPost2010PropOp30
 70
     1
102
RTVSPost2010Prop31
280
     0
102
RTVSPost2010PropOp31
 70
     1
102
RTVSPost2010Prop32
280
     0
102
RTVSPost2010PropOp32
 70
     1
102
RTVSPost2010Prop33
280
     0
102
RTVSPost2010PropOp33
 70
     1
102
RTVSPost2010Prop34
280
     0
102
RTVSPost2010PropOp34
 70
     1
102
RTVSPost2010Prop35
280
     0
102
RTVSPost2010PropOp35
 70
     1
102
RTVSPost2010Prop36
280
     0
102
RTVSPost2010PropOp36
 70
     1
102
RTVSPost2010Prop37
 90
       50
102
RTVSPost2010PropOp37
 70
     1
102
RTVSPost2010Prop38
140
0.0
102
RTVSPost2010PropOp38
 70
     1
102
RTVSPost2010Prop39
140
1.0
102
RTVSPost2010PropOp39
 70
     1
102
RTVSPost2010Prop40
 90
        0
102
RTVSPost2010PropOp40
 70
     1
102
RTVSPost2010Prop41ColorIndex
 90
       18
102
RTVSPost2010Prop41ColorRGB
 90
        0
102
RTVSPost2010PropOp41
 70
     1
102
RTVSPost2010Prop42
 90
       50
102
RTVSPost2010PropOp42
 70
     1
102
RTVSPost2010Prop43
 90
        3
102
RTVSPost2010PropOp43
 70
     1
102
RTVSPost2010Prop44ColorIndex
 90
        5
102
RTVSPost2010Prop44ColorRGB
 90
      255
102
RTVSPost2010PropOp44
 70
     1
102
RTVSPost2010Prop45
280
     0
102
RTVSPost2010PropOp45
 70
     1
102
RTVSPost2010Prop46
 90
       50
102
RTVSPost2010PropOp46
 70
     1
102
RTVSPost2010Prop47
 90
       50
102
RTVSPost2010PropOp47
 70
     1
102
RTVSPost2010Prop48
 90
       50
102
RTVSPost2010PropOp48
 70
     1
102
RTVSPost2010Prop49
280
     0
102
RTVSPost2010PropOp49
 70
     1
102
RTVSPost2010Prop50
 90
       50
102
RTVSPost2010PropOp50
 70
     1
102
RTVSPost2010Prop51ColorIndex
 90
      256
102
RTVSPost2010Prop51ColorRGB
 90
-16777216
102
RTVSPost2010PropOp51
 70
     0
102
RTVSPost2010Prop52
140
1.0
102
RTVSPost2010PropOp52
 70
     0
102
RTVSPost2010Prop53
 90
        2
102
RTVSPost2010PropOp53
 70
     1
102
RTVSPost2010Prop54
  1
strokes_ogs.tif
102
RTVSPost2010PropOp54
 70
     1
102
RTVSPost2010Prop55
280
     0
102
RTVSPost2010PropOp55
 70
     1
102
RTVSPost2010Prop56
140
1.0
102
RTVSPost2010PropOp56
 70
     1
102
RTVSPost2010Prop57
140
1.0
102
RTVSPost2010PropOp57
 70
     1
102
RTVSPropertyOp0
 70
     1
102
RTVSPropertyOp1
 70
     1
102
RTVSPropertyOp2
 70
     1
102
RTVSPropertyOp3
 70
     1
102
RTVSPropertyOp4
 70
     1
102
RTVSPropertyOp5
 70
     1
102
RTVSPropertyOp6
 70
     1
102
RTVSPropertyOp7
 70
     1
102
RTVSPropertyOp8
 70
     1
102
RTVSPropertyOp9
 70
     1
102
RTVSPropertyOp10
 70
     1
102
RTVSPropertyOp11
 70
     1
102
RTVSPropertyOp12
 70
     1
102
RTVSPropertyOp13
 70
     1
102
RTVSPropertyOp14
 70
     1
102
RTVSPropertyOp15
 70
     1
102
RTVSPropertyOp16
 70
     1
102
RTVSPropertyOp17
 70
     1
102
RTVSPropertyOp18
 70
     1
102
RTVSPropertyOp19
 70
     1
102
RTVSPropertyOp20
 70
     1
102
RTVSPropertyOp21
 70
     1
102
RTVSPropertyOp22
 70
     1
102
RTVSPropertyOp23
 70
     1
102
RTVSPropertyOp24
 70
     1
102
RTVSPropertyOp25
 70
     1
102
RTVSPropertyOp26
 70
     1
102
RTVSPropertyOp27
 70
     1
102
RTVSPropertyOp28
 70
     1
102
RTVSPropertyOp29
 70
     1
102
RTVSPropertyOp30
 70
     1
102
RTVSPropertyOp31
 70
     1
102
RTVSPropertyOp32
 70
     1
102
RTVSPropertyOp33
 70
     1
102
RTVSPropertyOp34
 70
     1
102
RTVSPropertyOp35
 70
     1
102
RTVSPropertyOp36
 70
     1
102
RTVSPropertyOp37
 70
     1
102
RTVSPropertyOp38
 70
     1
102
RTVSPropertyOp39
 70
     1
102
RTVSPropertyOp40
 70
     1
102
RTVSPropertyOp41
 70
     1
102
RTVSPropertyOp42
 70
     1
102
RTVSPropertyOp43
 70
     1
102
RTVSPropertyOp44
 70
     1
102
RTVSPropertyOp45
 70
     1
102
RTVSPropertyOp46
 70
     1
102
RTVSPropertyOp47
 70
     1
102
RTVSPropertyOp48
 70
     1
102
RTVSPropertyOp49
 70
     1
102
RTVSPropertyOp50
 70
     1
102
RTVSPropertyOp51
 70
     0
102
RTVSPropertyOp52
 70
     0
102
RTVSPropertyOp53
 70
     1
102
RTVSPropertyOp54
 70
     1
102
RTVSPropertyOp55
 70
     1
102
RTVSPropertyOp56
 70
     1
102
RTVSPropertyOp57
 70
     1
102
RTVSPropertyOp58
 70
     1
102
RTVSPropertyOp59
 70
     1
102
RTVSPropertyOp60
 70
     1
102
RTVSPropertyOp61
 70
     1
102
RTVSPropertyOp62
 70
     1
  0
XRECORD
  5
4F5
102
{ACAD_REACTORS
330
4F4
102
}
330
4F4
100
AcDbXrecord
280
     1
102
RTVSPost2010Prop28
280
     0
102
RTVSPost2010PropOp28
 70
     1
102
RTVSPost2010Prop29
280
     1
102
RTVSPost2010PropOp29
 70
     1
102
RTVSPost2010Prop30
280
     1
102
RTVSPost2010PropOp30
 70
     1
102
RTVSPost2010Prop31
280
     0
102
RTVSPost2010PropOp31
 70
     1
102
RTVSPost2010Prop32
280
     0
102
RTVSPost2010PropOp32
 70
     1
102
RTVSPost2010Prop33
280
     0
102
RTVSPost2010PropOp33
 70
     1
102
RTVSPost2010Prop34
280
     0
102
RTVSPost2010PropOp34
 70
     1
102
RTVSPost2010Prop35
280
     0
102
RTVSPost2010PropOp35
 70
     1
102
RTVSPost2010Prop36
280
     0
102
RTVSPost2010PropOp36
 70
     1
102
RTVSPost2010Prop37
 90
       50
102
RTVSPost2010PropOp37
 70
     1
102
RTVSPost2010Prop38
140
0.0
102
RTVSPost2010PropOp38
 70
     1
102
RTVSPost2010Prop39
140
1.0
102
RTVSPost2010PropOp39
 70
     1
102
RTVSPost2010Prop40
 90
        0
102
RTVSPost2010PropOp40
 70
     1
102
RTVSPost2010Prop41ColorIndex
 90
       18
102
RTVSPost2010Prop41ColorRGB
 90
        0
102
RTVSPost2010PropOp41
 70
     1
102
RTVSPost2010Prop42
 90
       50
102
RTVSPost2010PropOp42
 70
     1
102
RTVSPost2010Prop43
 90
        3
102
RTVSPost2010PropOp43
 70
     1
102
RTVSPost2010Prop44ColorIndex
 90
        5
102
RTVSPost2010Prop44ColorRGB
 90
      255
102
RTVSPost2010PropOp44
 70
     1
102
RTVSPost2010Prop45
280
     0
102
RTVSPost2010PropOp45
 70
     1
102
RTVSPost2010Prop46
 90
       50
102
RTVSPost2010PropOp46
 70
     1
102
RTVSPost2010Prop47
 90
       50
102
RTVSPost2010PropOp47
 70
     1
102
RTVSPost2010Prop48
 90
       50
102
RTVSPost2010PropOp48
 70
     1
102
RTVSPost2010Prop49
280
     0
102
RTVSPost2010PropOp49
 70
     1
102
RTVSPost2010Prop50
 90
       50
102
RTVSPost2010PropOp50
 70
     1
102
RTVSPost2010Prop51ColorIndex
 90
      256
102
RTVSPost2010Prop51ColorRGB
 90
-16777216
102
RTVSPost2010PropOp51
 70
     0
102
RTVSPost2010Prop52
140
1.0
102
RTVSPost2010PropOp52
 70
     0
102
RTVSPost2010Prop53
 90
        2
102
RTVSPost2010PropOp53
 70
     1
102
RTVSPost2010Prop54
  1
strokes_ogs.tif
102
RTVSPost2010PropOp54
 70
     1
102
RTVSPost2010Prop55
280
     0
102
RTVSPost2010PropOp55
 70
     1
102
RTVSPost2010Prop56
140
1.0
102
RTVSPost2010PropOp56
 70
     1
102
RTVSPost2010Prop57
140
1.0
102
RTVSPost2010PropOp57
 70
     1
102
RTVSPropertyOp0
 70
     1
102
RTVSPropertyOp1
 70
     1
102
RTVSPropertyOp2
 70
     1
102
RTVSPropertyOp3
 70
     1
102
RTVSPropertyOp4
 70
     1
102
RTVSPropertyOp5
 70
     1
102
RTVSPropertyOp6
 70
     1
102
RTVSPropertyOp7
 70
     1
102
RTVSPropertyOp8
 70
     1
102
RTVSPropertyOp9
 70
     1
102
RTVSPropertyOp10
 70
     1
102
RTVSPropertyOp11
 70
     1
102
RTVSPropertyOp12
 70
     1
102
RTVSPropertyOp13
 70
     1
102
RTVSPropertyOp14
 70
     1
102
RTVSPropertyOp15
 70
     1
102
RTVSPropertyOp16
 70
     1
102
RTVSPropertyOp17
 70
     1
102
RTVSPropertyOp18
 70
     1
102
RTVSPropertyOp19
 70
     1
102
RTVSPropertyOp20
 70
     1
102
RTVSPropertyOp21
 70
     1
102
RTVSPropertyOp22
 70
     1
102
RTVSPropertyOp23
 70
     1
102
RTVSPropertyOp24
 70
     1
102
RTVSPropertyOp25
 70
     1
102
RTVSPropertyOp26
 70
     1
102
RTVSPropertyOp27
 70
     1
102
RTVSPropertyOp28
 70
     1
102
RTVSPropertyOp29
 70
     1
102
RTVSPropertyOp30
 70
     1
102
RTVSPropertyOp31
 70
     1
102
RTVSPropertyOp32
 70
     1
102
RTVSPropertyOp33
 70
     1
102
RTVSPropertyOp34
 70
     1
102
RTVSPropertyOp35
 70
     1
102
RTVSPropertyOp36
 70
     1
102
RTVSPropertyOp37
 70
     1
102
RTVSPropertyOp38
 70
     1
102
RTVSPropertyOp39
 70
     1
102
RTVSPropertyOp40
 70
     1
102
RTVSPropertyOp41
 70
     1
102
RTVSPropertyOp42
 70
     1
102
RTVSPropertyOp43
 70
     1
102
RTVSPropertyOp44
 70
     1
102
RTVSPropertyOp45
 70
     1
102
RTVSPropertyOp46
 70
     1
102
RTVSPropertyOp47
 70
     1
102
RTVSPropertyOp48
 70
     1
102
RTVSPropertyOp49
 70
     1
102
RTVSPropertyOp50
 70
     1
102
RTVSPropertyOp51
 70
     0
102
RTVSPropertyOp52
 70
     0
102
RTVSPropertyOp53
 70
     1
102
RTVSPropertyOp54
 70
     1
102
RTVSPropertyOp55
 70
     1
102
RTVSPropertyOp56
 70
     1
102
RTVSPropertyOp57
 70
     1
102
RTVSPropertyOp58
 70
     1
102
RTVSPropertyOp59
 70
     1
102
RTVSPropertyOp60
 70
     1
102
RTVSPropertyOp61
 70
     1
102
RTVSPropertyOp62
 70
     1
  0
XRECORD
  5
4E9
102
{ACAD_REACTORS
330
4E8
102
}
330
4E8
100
AcDbXrecord
280
     1
102
RTVSPost2010Prop28
280
     0
102
RTVSPost2010PropOp28
 70
     1
102
RTVSPost2010Prop29
280
     1
102
RTVSPost2010PropOp29
 70
     1
102
RTVSPost2010Prop30
280
     1
102
RTVSPost2010PropOp30
 70
     1
102
RTVSPost2010Prop31
280
     0
102
RTVSPost2010PropOp31
 70
     1
102
RTVSPost2010Prop32
280
     0
102
RTVSPost2010PropOp32
 70
     1
102
RTVSPost2010Prop33
280
     0
102
RTVSPost2010PropOp33
 70
     1
102
RTVSPost2010Prop34
280
     0
102
RTVSPost2010PropOp34
 70
     1
102
RTVSPost2010Prop35
280
     0
102
RTVSPost2010PropOp35
 70
     1
102
RTVSPost2010Prop36
280
     0
102
RTVSPost2010PropOp36
 70
     1
102
RTVSPost2010Prop37
 90
       50
102
RTVSPost2010PropOp37
 70
     1
102
RTVSPost2010Prop38
140
0.0
102
RTVSPost2010PropOp38
 70
     1
102
RTVSPost2010Prop39
140
1.0
102
RTVSPost2010PropOp39
 70
     1
102
RTVSPost2010Prop40
 90
        0
102
RTVSPost2010PropOp40
 70
     1
102
RTVSPost2010Prop41ColorIndex
 90
       18
102
RTVSPost2010Prop41ColorRGB
 90
        0
102
RTVSPost2010PropOp41
 70
     1
102
RTVSPost2010Prop42
 90
       50
102
RTVSPost2010PropOp42
 70
     1
102
RTVSPost2010Prop43
 90
        3
102
RTVSPost2010PropOp43
 70
     1
102
RTVSPost2010Prop44ColorIndex
 90
        5
102
RTVSPost2010Prop44ColorRGB
 90
      255
102
RTVSPost2010PropOp44
 70
     1
102
RTVSPost2010Prop45
280
     0
102
RTVSPost2010PropOp45
 70
     1
102
RTVSPost2010Prop46
 90
       50
102
RTVSPost2010PropOp46
 70
     1
102
RTVSPost2010Prop47
 90
       50
102
RTVSPost2010PropOp47
 70
     1
102
RTVSPost2010Prop48
 90
       50
102
RTVSPost2010PropOp48
 70
     1
102
RTVSPost2010Prop49
280
     0
102
RTVSPost2010PropOp49
 70
     1
102
RTVSPost2010Prop50
 90
       50
102
RTVSPost2010PropOp50
 70
     1
102
RTVSPost2010Prop51ColorIndex
 90
      256
102
RTVSPost2010Prop51ColorRGB
 90
-16777216
102
RTVSPost2010PropOp51
 70
     0
102
RTVSPost2010Prop52
140
1.0
102
RTVSPost2010PropOp52
 70
     0
102
RTVSPost2010Prop53
 90
        2
102
RTVSPost2010PropOp53
 70
     1
102
RTVSPost2010Prop54
  1
strokes_ogs.tif
102
RTVSPost2010PropOp54
 70
     1
102
RTVSPost2010Prop55
280
     0
102
RTVSPost2010PropOp55
 70
     1
102
RTVSPost2010Prop56
140
1.0
102
RTVSPost2010PropOp56
 70
     1
102
RTVSPost2010Prop57
140
1.0
102
RTVSPost2010PropOp57
 70
     1
102
RTVSPropertyOp0
 70
     1
102
RTVSPropertyOp1
 70
     1
102
RTVSPropertyOp2
 70
     1
102
RTVSPropertyOp3
 70
     1
102
RTVSPropertyOp4
 70
     1
102
RTVSPropertyOp5
 70
     1
102
RTVSPropertyOp6
 70
     1
102
RTVSPropertyOp7
 70
     1
102
RTVSPropertyOp8
 70
     1
102
RTVSPropertyOp9
 70
     1
102
RTVSPropertyOp10
 70
     1
102
RTVSPropertyOp11
 70
     1
102
RTVSPropertyOp12
 70
     1
102
RTVSPropertyOp13
 70
     1
102
RTVSPropertyOp14
 70
     1
102
RTVSPropertyOp15
 70
     1
102
RTVSPropertyOp16
 70
     1
102
RTVSPropertyOp17
 70
     1
102
RTVSPropertyOp18
 70
     1
102
RTVSPropertyOp19
 70
     1
102
RTVSPropertyOp20
 70
     1
102
RTVSPropertyOp21
 70
     1
102
RTVSPropertyOp22
 70
     1
102
RTVSPropertyOp23
 70
     1
102
RTVSPropertyOp24
 70
     1
102
RTVSPropertyOp25
 70
     1
102
RTVSPropertyOp26
 70
     1
102
RTVSPropertyOp27
 70
     1
102
RTVSPropertyOp28
 70
     1
102
RTVSPropertyOp29
 70
     1
102
RTVSPropertyOp30
 70
     1
102
RTVSPropertyOp31
 70
     1
102
RTVSPropertyOp32
 70
     1
102
RTVSPropertyOp33
 70
     1
102
RTVSPropertyOp34
 70
     1
102
RTVSPropertyOp35
 70
     1
102
RTVSPropertyOp36
 70
     1
102
RTVSPropertyOp37
 70
     1
102
RTVSPropertyOp38
 70
     1
102
RTVSPropertyOp39
 70
     1
102
RTVSPropertyOp40
 70
     1
102
RTVSPropertyOp41
 70
     1
102
RTVSPropertyOp42
 70
     1
102
RTVSPropertyOp43
 70
     1
102
RTVSPropertyOp44
 70
     1
102
RTVSPropertyOp45
 70
     1
102
RTVSPropertyOp46
 70
     1
102
RTVSPropertyOp47
 70
     1
102
RTVSPropertyOp48
 70
     1
102
RTVSPropertyOp49
 70
     1
102
RTVSPropertyOp50
 70
     1
102
RTVSPropertyOp51
 70
     0
102
RTVSPropertyOp52
 70
     0
102
RTVSPropertyOp53
 70
     1
102
RTVSPropertyOp54
 70
     1
102
RTVSPropertyOp55
 70
     1
102
RTVSPropertyOp56
 70
     1
102
RTVSPropertyOp57
 70
     1
102
RTVSPropertyOp58
 70
     1
102
RTVSPropertyOp59
 70
     1
102
RTVSPropertyOp60
 70
     1
102
RTVSPropertyOp61
 70
     1
102
RTVSPropertyOp62
 70
     1
  0
XRECORD
  5
501
102
{ACAD_REACTORS
330
500
102
}
330
500
100
AcDbXrecord
280
     1
102
RTVSPost2010Prop28
280
     0
102
RTVSPost2010PropOp28
 70
     1
102
RTVSPost2010Prop29
280
     1
102
RTVSPost2010PropOp29
 70
     1
102
RTVSPost2010Prop30
280
     1
102
RTVSPost2010PropOp30
 70
     1
102
RTVSPost2010Prop31
280
     0
102
RTVSPost2010PropOp31
 70
     1
102
RTVSPost2010Prop32
280
     0
102
RTVSPost2010PropOp32
 70
     1
102
RTVSPost2010Prop33
280
     0
102
RTVSPost2010PropOp33
 70
     1
102
RTVSPost2010Prop34
280
     0
102
RTVSPost2010PropOp34
 70
     1
102
RTVSPost2010Prop35
280
     0
102
RTVSPost2010PropOp35
 70
     1
102
RTVSPost2010Prop36
280
     0
102
RTVSPost2010PropOp36
 70
     1
102
RTVSPost2010Prop37
 90
       50
102
RTVSPost2010PropOp37
 70
     1
102
RTVSPost2010Prop38
140
0.0
102
RTVSPost2010PropOp38
 70
     1
102
RTVSPost2010Prop39
140
1.0
102
RTVSPost2010PropOp39
 70
     1
102
RTVSPost2010Prop40
 90
        0
102
RTVSPost2010PropOp40
 70
     1
102
RTVSPost2010Prop41ColorIndex
 90
       18
102
RTVSPost2010Prop41ColorRGB
 90
        0
102
RTVSPost2010PropOp41
 70
     1
102
RTVSPost2010Prop42
 90
       50
102
RTVSPost2010PropOp42
 70
     1
102
RTVSPost2010Prop43
 90
        3
102
RTVSPost2010PropOp43
 70
     1
102
RTVSPost2010Prop44ColorIndex
 90
        5
102
RTVSPost2010Prop44ColorRGB
 90
      255
102
RTVSPost2010PropOp44
 70
     1
102
RTVSPost2010Prop45
280
     0
102
RTVSPost2010PropOp45
 70
     1
102
RTVSPost2010Prop46
 90
       50
102
RTVSPost2010PropOp46
 70
     1
102
RTVSPost2010Prop47
 90
       50
102
RTVSPost2010PropOp47
 70
     1
102
RTVSPost2010Prop48
 90
       50
102
RTVSPost2010PropOp48
 70
     1
102
RTVSPost2010Prop49
280
     0
102
RTVSPost2010PropOp49
 70
     1
102
RTVSPost2010Prop50
 90
       50
102
RTVSPost2010PropOp50
 70
     1
102
RTVSPost2010Prop51ColorIndex
 90
      256
102
RTVSPost2010Prop51ColorRGB
 90
-16777216
102
RTVSPost2010PropOp51
 70
     0
102
RTVSPost2010Prop52
140
1.0
102
RTVSPost2010PropOp52
 70
     0
102
RTVSPost2010Prop53
 90
        2
102
RTVSPost2010PropOp53
 70
     1
102
RTVSPost2010Prop54
  1
strokes_ogs.tif
102
RTVSPost2010PropOp54
 70
     1
102
RTVSPost2010Prop55
280
     0
102
RTVSPost2010PropOp55
 70
     1
102
RTVSPost2010Prop56
140
1.0
102
RTVSPost2010PropOp56
 70
     1
102
RTVSPost2010Prop57
140
1.0
102
RTVSPost2010PropOp57
 70
     1
102
RTVSPropertyOp0
 70
     1
102
RTVSPropertyOp1
 70
     1
102
RTVSPropertyOp2
 70
     1
102
RTVSPropertyOp3
 70
     1
102
RTVSPropertyOp4
 70
     1
102
RTVSPropertyOp5
 70
     1
102
RTVSPropertyOp6
 70
     1
102
RTVSPropertyOp7
 70
     1
102
RTVSPropertyOp8
 70
     1
102
RTVSPropertyOp9
 70
     1
102
RTVSPropertyOp10
 70
     1
102
RTVSPropertyOp11
 70
     1
102
RTVSPropertyOp12
 70
     1
102
RTVSPropertyOp13
 70
     1
102
RTVSPropertyOp14
 70
     1
102
RTVSPropertyOp15
 70
     1
102
RTVSPropertyOp16
 70
     1
102
RTVSPropertyOp17
 70
     1
102
RTVSPropertyOp18
 70
     1
102
RTVSPropertyOp19
 70
     1
102
RTVSPropertyOp20
 70
     1
102
RTVSPropertyOp21
 70
     1
102
RTVSPropertyOp22
 70
     1
102
RTVSPropertyOp23
 70
     1
102
RTVSPropertyOp24
 70
     1
102
RTVSPropertyOp25
 70
     1
102
RTVSPropertyOp26
 70
     1
102
RTVSPropertyOp27
 70
     1
102
RTVSPropertyOp28
 70
     1
102
RTVSPropertyOp29
 70
     1
102
RTVSPropertyOp30
 70
     1
102
RTVSPropertyOp31
 70
     1
102
RTVSPropertyOp32
 70
     1
102
RTVSPropertyOp33
 70
     1
102
RTVSPropertyOp34
 70
     1
102
RTVSPropertyOp35
 70
     1
102
RTVSPropertyOp36
 70
     1
102
RTVSPropertyOp37
 70
     1
102
RTVSPropertyOp38
 70
     1
102
RTVSPropertyOp39
 70
     1
102
RTVSPropertyOp40
 70
     1
102
RTVSPropertyOp41
 70
     1
102
RTVSPropertyOp42
 70
     1
102
RTVSPropertyOp43
 70
     1
102
RTVSPropertyOp44
 70
     1
102
RTVSPropertyOp45
 70
     1
102
RTVSPropertyOp46
 70
     1
102
RTVSPropertyOp47
 70
     1
102
RTVSPropertyOp48
 70
     1
102
RTVSPropertyOp49
 70
     1
102
RTVSPropertyOp50
 70
     1
102
RTVSPropertyOp51
 70
     0
102
RTVSPropertyOp52
 70
     0
102
RTVSPropertyOp53
 70
     1
102
RTVSPropertyOp54
 70
     1
102
RTVSPropertyOp55
 70
     1
102
RTVSPropertyOp56
 70
     1
102
RTVSPropertyOp57
 70
     1
102
RTVSPropertyOp58
 70
     1
102
RTVSPropertyOp59
 70
     1
102
RTVSPropertyOp60
 70
     1
102
RTVSPropertyOp61
 70
     1
102
RTVSPropertyOp62
 70
     1
  0
ENDSEC
  0
EOF
