  0
SECTION
  2
HEADER
  9
$ACADVER
  1
AC1015
  9
$ACADMAINTVER
 70
    20
  9
$DWGCODEPAGE
  3
ANSI_932
  9
$INSBASE
 10
0.0
 20
0.0
 30
0.0
  9
$EXTMIN
 10
9.9999975266385
 20
10.0
 30
0.0
  9
$EXTMAX
 10
324.3850578288289
 20
258.2099029916459
 30
0.0
  9
$LIMMIN
 10
0.0000015376081137
 20
-0.0000001931532552
  9
$LIMMAX
 10
396.0000015376081
 20
272.9999998068465
  9
$ORTHOMODE
 70
     1
  9
$REGENMODE
 70
     1
  9
$FILLMODE
 70
     1
  9
$QTEXTMODE
 70
     0
  9
$MIRRTEXT
 70
     1
  9
$LTSCALE
 40
1.0
  9
$ATTMODE
 70
     1
  9
$TEXTSIZE
 40
2.5
  9
$TRACEWID
 40
1.0
  9
$TEXTSTYLE
  7
STANDARD
  9
$CLAYER
  8
0
  9
$CELTYPE
  6
BYLAYER
  9
$CECOLOR
 62
   256
  9
$CELTSCALE
 40
1.0
  9
$DISPSILH
 70
     0
  9
$DIMSCALE
 40
1.0
  9
$DIMASZ
 40
3.0
  9
$DIMEXO
 40
1.0
  9
$DIMDLI
 40
10.0
  9
$DIMRND
 40
0.0
  9
$DIMDLE
 40
0.0
  9
$DIMEXE
 40
1.0
  9
$DIMTP
 40
0.0
  9
$DIMTM
 40
0.0
  9
$DIMTXT
 40
3.2
  9
$DIMCEN
 40
0.0
  9
$DIMTSZ
 40
0.0
  9
$DIMTOL
 70
     0
  9
$DIMLIM
 70
     0
  9
$DIMTIH
 70
     0
  9
$DIMTOH
 70
     0
  9
$DIMSE1
 70
     0
  9
$DIMSE2
 70
     0
  9
$DIMTAD
 70
     3
  9
$DIMZIN
 70
     8
  9
$DIMBLK
  1

  9
$DIMASO
 70
     1
  9
$DIMSHO
 70
     1
  9
$DIMPOST
  1

  9
$DIMAPOST
  1

  9
$DIMALT
 70
     0
  9
$DIMALTD
 70
     2
  9
$DIMALTF
 40
25.4
  9
$DIMLFAC
 40
1.0
  9
$DIMTOFL
 70
     1
  9
$DIMTVP
 40
0.0
  9
$DIMTIX
 70
     0
  9
$DIMSOXD
 70
     0
  9
$DIMSAH
 70
     1
  9
$DIMBLK1
  1
OPEN
  9
$DIMBLK2
  1
OPEN
  9
$DIMSTYLE
  2
STANDARD
  9
$DIMCLRD
 70
     0
  9
$DIMCLRE
 70
     0
  9
$DIMCLRT
 70
     0
  9
$DIMTFAC
 40
1.0
  9
$DIMGAP
 40
1.0
  9
$DIMJUST
 70
     0
  9
$DIMSD1
 70
     0
  9
$DIMSD2
 70
     0
  9
$DIMTOLJ
 70
     1
  9
$DIMTZIN
 70
     0
  9
$DIMALTZ
 70
     0
  9
$DIMALTTZ
 70
     0
  9
$DIMUPT
 70
     0
  9
$DIMDEC
 70
     4
  9
$DIMTDEC
 70
     4
  9
$DIMALTU
 70
     2
  9
$DIMALTTD
 70
     2
  9
$DIMTXSTY
  7
STANDARD
  9
$DIMAUNIT
 70
     0
  9
$DIMADEC
 70
     0
  9
$DIMALTRND
 40
0.0
  9
$DIMAZIN
 70
     0
  9
$DIMDSEP
 70
    46
  9
$DIMATFIT
 70
     3
  9
$DIMFRAC
 70
     0
  9
$DIMLDRBLK
  1
OPEN
  9
$DIMLUNIT
 70
     2
  9
$DIMLWD
 70
    -2
  9
$DIMLWE
 70
    -2
  9
$DIMTMOVE
 70
     0
  9
$LUNITS
 70
     2
  9
$LUPREC
 70
     4
  9
$SKETCHINC
 40
1.0
  9
$FILLETRAD
 40
0.0
  9
$AUNITS
 70
     0
  9
$AUPREC
 70
     0
  9
$MENU
  1
.
  9
$ELEVATION
 40
0.0
  9
$PELEVATION
 40
0.0
  9
$THICKNESS
 40
0.0
  9
$LIMCHECK
 70
     0
  9
$CHAMFERA
 40
10.0
  9
$CHAMFERB
 40
10.0
  9
$CHAMFERC
 40
20.0
  9
$CHAMFERD
 40
0.0
  9
$SKPOLY
 70
     0
  9
$TDCREATE
 40
2452051.395592083
  9
$TDUCREATE
 40
2452051.020592084
  9
$TDUPDATE
 40
2457192.616943738
  9
$TDUUPDATE
 40
2457192.241943738
  9
$TDINDWG
 40
0.0999222801
  9
$TDUSRTIMER
 40
0.0999222801
  9
$USRTIMER
 70
     1
  9
$ANGBASE
 50
0.0
  9
$ANGDIR
 70
     0
  9
$PDMODE
 70
     0
  9
$PDSIZE
 40
0.0
  9
$PLINEWID
 40
0.0
  9
$SPLFRAME
 70
     0
  9
$SPLINETYPE
 70
     6
  9
$SPLINESEGS
 70
     8
  9
$HANDSEED
  5
1E1F
  9
$SURFTAB1
 70
     6
  9
$SURFTAB2
 70
     6
  9
$SURFTYPE
 70
     6
  9
$SURFU
 70
     6
  9
$SURFV
 70
     6
  9
$UCSBASE
  2

  9
$UCSNAME
  2

  9
$UCSORG
 10
0.0
 20
0.0
 30
0.0
  9
$UCSXDIR
 10
1.0
 20
0.0
 30
0.0
  9
$UCSYDIR
 10
0.0
 20
1.0
 30
0.0
  9
$UCSORTHOREF
  2

  9
$UCSORTHOVIEW
 70
     0
  9
$UCSORGTOP
 10
0.0
 20
0.0
 30
0.0
  9
$UCSORGBOTTOM
 10
0.0
 20
0.0
 30
0.0
  9
$UCSORGLEFT
 10
0.0
 20
0.0
 30
0.0
  9
$UCSORGRIGHT
 10
0.0
 20
0.0
 30
0.0
  9
$UCSORGFRONT
 10
0.0
 20
0.0
 30
0.0
  9
$UCSORGBACK
 10
0.0
 20
0.0
 30
0.0
  9
$PUCSBASE
  2

  9
$PUCSNAME
  2

  9
$PUCSORG
 10
0.0
 20
0.0
 30
0.0
  9
$PUCSXDIR
 10
1.0
 20
0.0
 30
0.0
  9
$PUCSYDIR
 10
0.0
 20
1.0
 30
0.0
  9
$PUCSORTHOREF
  2

  9
$PUCSORTHOVIEW
 70
     0
  9
$PUCSORGTOP
 10
0.0
 20
0.0
 30
0.0
  9
$PUCSORGBOTTOM
 10
0.0
 20
0.0
 30
0.0
  9
$PUCSORGLEFT
 10
0.0
 20
0.0
 30
0.0
  9
$PUCSORGRIGHT
 10
0.0
 20
0.0
 30
0.0
  9
$PUCSORGFRONT
 10
0.0
 20
0.0
 30
0.0
  9
$PUCSORGBACK
 10
0.0
 20
0.0
 30
0.0
  9
$USERI1
 70
     0
  9
$USERI2
 70
     0
  9
$USERI3
 70
     0
  9
$USERI4
 70
     0
  9
$USERI5
 70
     0
  9
$USERR1
 40
0.0
  9
$USERR2
 40
0.0
  9
$USERR3
 40
0.0
  9
$USERR4
 40
0.0
  9
$USERR5
 40
0.0
  9
$WORLDVIEW
 70
     1
  9
$SHADEDGE
 70
     3
  9
$SHADEDIF
 70
    70
  9
$TILEMODE
 70
     1
  9
$MAXACTVP
 70
    48
  9
$PINSBASE
 10
0.0
 20
0.0
 30
0.0
  9
$PLIMCHECK
 70
     0
  9
$PEXTMIN
 10
1.000000000000000E+20
 20
1.000000000000000E+20
 30
1.000000000000000E+20
  9
$PEXTMAX
 10
-1.000000000000000E+20
 20
-1.000000000000000E+20
 30
-1.000000000000000E+20
  9
$PLIMMIN
 10
0.0
 20
0.0
  9
$PLIMMAX
 10
420.0
 20
297.0
  9
$UNITMODE
 70
     0
  9
$VISRETAIN
 70
     1
  9
$PLINEGEN
 70
     0
  9
$PSLTSCALE
 70
     1
  9
$TREEDEPTH
 70
  3020
  9
$CMLSTYLE
  2
STANDARD
  9
$CMLJUST
 70
     0
  9
$CMLSCALE
 40
20.0
  9
$PROXYGRAPHICS
 70
     1
  9
$MEASUREMENT
 70
     0
  9
$CELWEIGHT
370
    -1
  9
$ENDCAPS
280
     0
  9
$JOINSTYLE
280
     0
  9
$LWDISPLAY
290
     0
  9
$INSUNITS
 70
     0
  9
$HYPERLINKBASE
  1

  9
$STYLESHEET
  1

  9
$XEDIT
290
     1
  9
$CEPSNTYPE
380
     0
  9
$PSTYLEMODE
290
     1
  9
$FINGERPRINTGUID
  2
{7D516276-0DD1-42CE-A283-7D8067CBD6E1}
  9
$VERSIONGUID
  2
{5D1922FC-3FAF-4CC9-A907-2B1F642F163A}
  9
$EXTNAMES
290
     1
  9
$PSVPSCALE
 40
0.0
  9
$OLESTARTUP
290
     0
  0
ENDSEC
  0
SECTION
  2
CLASSES
  0
CLASS
  1
ACDBDICTIONARYWDFLT
  2
AcDbDictionaryWithDefault
  3
ObjectDBX Classes
 90
        0
280
     0
281
     0
  0
CLASS
  1
ACDBPLACEHOLDER
  2
AcDbPlaceHolder
  3
ObjectDBX Classes
 90
        0
280
     0
281
     0
  0
CLASS
  1
LAYOUT
  2
AcDbLayout
  3
ObjectDBX Classes
 90
        0
280
     0
281
     0
  0
CLASS
  1
MATERIAL
  2
AcDbMaterial
  3
ObjectDBX Classes
 90
     1153
280
     0
281
     0
  0
CLASS
  1
VISUALSTYLE
  2
AcDbVisualStyle
  3
ObjectDBX Classes
 90
     4095
280
     0
281
     0
  0
CLASS
  1
TABLESTYLE
  2
AcDbTableStyle
  3
ObjectDBX Classes
 90
     4095
280
     0
281
     0
  0
CLASS
  1
SCALE
  2
AcDbScale
  3
ObjectDBX Classes
 90
     1153
280
     0
281
     0
  0
CLASS
  1
MLEADERSTYLE
  2
AcDbMLeaderStyle
  3
ACDB_MLEADERSTYLE_CLASS
 90
     4095
280
     0
281
     0
  0
CLASS
  1
ACDBSECTIONVIEWSTYLE
  2
AcDbSectionViewStyle
  3
ObjectDBX Classes
 90
     1025
280
     0
281
     0
  0
CLASS
  1
ACDBDETAILVIEWSTYLE
  2
AcDbDetailViewStyle
  3
ObjectDBX Classes
 90
     1025
280
     0
281
     0
  0
CLASS
  1
DICTIONARYVAR
  2
AcDbDictionaryVar
  3
ObjectDBX Classes
 90
        0
280
     0
281
     0
  0
CLASS
  1
CELLSTYLEMAP
  2
AcDbCellStyleMap
  3
ObjectDBX Classes
 90
     1152
280
     0
281
     0
  0
ENDSEC
  0
SECTION
  2
TABLES
  0
TABLE
  2
VPORT
  5
8
330
0
100
AcDbSymbolTable
 70
     1
  0
VPORT
  5
1D69
330
8
100
AcDbSymbolTableRecord
100
AcDbViewportTableRecord
  2
*ACTIVE
 70
     0
 10
0.0
 20
0.0
 11
1.0
 21
1.0
 12
280.8398287612544
 22
142.6545689206784
 13
0.0
 23
0.0
 14
10.0
 24
10.0
 15
10.0
 25
10.0
 16
0.0
 26
0.0
 36
1.0
 17
0.0
 27
0.0
 37
0.0
 40
281.4376188444479
 41
1.899603698811096
 42
50.0
 43
0.0
 44
0.0
 50
0.0
 51
0.0
 71
     0
 72
   100
 73
     1
 74
     0
 75
     0
 76
     0
 77
     0
 78
     0
281
     0
 65
     1
110
0.0
120
0.0
130
0.0
111
1.0
121
0.0
131
0.0
112
0.0
122
1.0
132
0.0
 79
     0
146
0.0
1001
ACAD_NAV_VCDISPLAY
1070
     3
  0
ENDTAB
  0
TABLE
  2
LTYPE
  5
5
330
0
100
AcDbSymbolTable
 70
     4
  0
LTYPE
  5
12
330
5
100
AcDbSymbolTableRecord
100
AcDbLinetypeTableRecord
  2
BYBLOCK
 70
     0
  3

 72
    65
 73
     0
 40
0.0
  0
LTYPE
  5
13
330
5
100
AcDbSymbolTableRecord
100
AcDbLinetypeTableRecord
  2
BYLAYER
 70
     0
  3

 72
    65
 73
     0
 40
0.0
  0
LTYPE
  5
14
330
5
100
AcDbSymbolTableRecord
100
AcDbLinetypeTableRecord
  2
CONTINUOUS
 70
     0
  3
Solid line
 72
    65
 73
     0
 40
0.0
  0
LTYPE
  5
4B
330
5
100
AcDbSymbolTableRecord
100
AcDbLinetypeTableRecord
  2
DASHED
 70
     0
  3
Dashed __ __ __ __ __ __ __ __ __ __ __ __ __ _
 72
    65
 73
     2
 40
19.04999999999999
 49
12.7
 74
     0
 49
-6.349999999999998
 74
     0
  0
LTYPE
  5
4C
330
5
100
AcDbSymbolTableRecord
100
AcDbLinetypeTableRecord
  2
CENTER
 70
     0
  3
Center ____ _ ____ _ ____ _ ____ _ ____ _ ____
 72
    65
 73
     4
 40
50.8
 49
31.75
 74
     0
 49
-6.349999999999998
 74
     0
 49
6.349999999999998
 74
     0
 49
-6.349999999999998
 74
     0
  0
LTYPE
  5
4D
330
5
100
AcDbSymbolTableRecord
100
AcDbLinetypeTableRecord
  2
PHANTOM
 70
     0
  3
Phantom ______  __  __  ______  __  __  ______
 72
    65
 73
     6
 40
63.5
 49
31.75
 74
     0
 49
-6.349999999999998
 74
     0
 49
6.349999999999998
 74
     0
 49
-6.349999999999998
 74
     0
 49
6.349999999999998
 74
     0
 49
-6.349999999999998
 74
     0
  0
ENDTAB
  0
TABLE
  2
LAYER
  5
2
330
0
100
AcDbSymbolTable
 70
     8
  0
LAYER
  5
E
102
{ACAD_XDICTIONARY
360
1DC3
102
}
330
2
100
AcDbSymbolTableRecord
100
AcDbLayerTableRecord
  2
0
 70
     0
 62
     7
  6
CONTINUOUS
370
    -3
390
1D72
  0
LAYER
  5
4E
102
{ACAD_XDICTIONARY
360
1DC5
102
}
330
2
100
AcDbSymbolTableRecord
100
AcDbLayerTableRecord
  2
4
 70
     0
 62
     1
  6
CENTER
370
    -3
390
1D72
  0
LAYER
  5
4F
102
{ACAD_XDICTIONARY
360
1DC7
102
}
330
2
100
AcDbSymbolTableRecord
100
AcDbLayerTableRecord
  2
5
 70
     0
 62
     6
  6
PHANTOM
370
    -3
390
1D72
  0
LAYER
  5
50
102
{ACAD_XDICTIONARY
360
1DC9
102
}
330
2
100
AcDbSymbolTableRecord
100
AcDbLayerTableRecord
  2
1
 70
     0
 62
     7
  6
CONTINUOUS
370
    -3
390
1D72
  0
LAYER
  5
51
102
{ACAD_XDICTIONARY
360
1DCB
102
}
330
2
100
AcDbSymbolTableRecord
100
AcDbLayerTableRecord
  2
2
 70
     0
 62
     4
  6
CONTINUOUS
370
    -3
390
1D72
  0
LAYER
  5
52
102
{ACAD_XDICTIONARY
360
1DCD
102
}
330
2
100
AcDbSymbolTableRecord
100
AcDbLayerTableRecord
  2
3
 70
     0
 62
     2
  6
DASHED
370
    -3
390
1D72
  0
LAYER
  5
53
102
{ACAD_XDICTIONARY
360
1DCF
102
}
330
2
100
AcDbSymbolTableRecord
100
AcDbLayerTableRecord
  2
6
 70
     0
 62
     5
  6
CONTINUOUS
370
    -3
390
1D72
  0
LAYER
  5
54
102
{ACAD_XDICTIONARY
360
1DD1
102
}
330
2
100
AcDbSymbolTableRecord
100
AcDbLayerTableRecord
  2
7
 70
     0
 62
     3
  6
CONTINUOUS
370
    -3
390
1D72
  0
ENDTAB
  0
TABLE
  2
STYLE
  5
3
330
0
100
AcDbSymbolTable
 70
     1
  0
STYLE
  5
F
330
3
100
AcDbSymbolTableRecord
100
AcDbTextStyleTableRecord
  2
STANDARD
 70
     0
 40
0.0
 41
1.0
 50
0.0
 71
     0
 42
2.5
  3
simplex.shx
  4

  0
ENDTAB
  0
TABLE
  2
VIEW
  5
6
330
0
100
AcDbSymbolTable
 70
     0
  0
ENDTAB
  0
TABLE
  2
UCS
  5
7
330
0
100
AcDbSymbolTable
 70
     0
  0
ENDTAB
  0
TABLE
  2
APPID
  5
9
330
0
100
AcDbSymbolTable
 70
     5
  0
APPID
  5
10
330
9
100
AcDbSymbolTableRecord
100
AcDbRegAppTableRecord
  2
ACAD
 70
     0
  0
APPID
  5
3E
330
9
100
AcDbSymbolTableRecord
100
AcDbRegAppTableRecord
  2
CONTENTTABDATA
 70
     0
  0
APPID
  5
3F
330
9
100
AcDbSymbolTableRecord
100
AcDbRegAppTableRecord
  2
CONTENTCURRENTTAB
 70
     0
  0
APPID
  5
1DDD
330
9
100
AcDbSymbolTableRecord
100
AcDbRegAppTableRecord
  2
ACAD_NAV_VCDISPLAY
 70
     0
  0
APPID
  5
1E16
330
9
100
AcDbSymbolTableRecord
100
AcDbRegAppTableRecord
  2
ACAD_MLEADERVER
 70
     0
  0
ENDTAB
  0
TABLE
  2
DIMSTYLE
  5
A
330
0
100
AcDbSymbolTable
 70
     1
100
AcDbDimStyleTable
 71
     0
  0
DIMSTYLE
105
1D
330
A
100
AcDbSymbolTableRecord
100
AcDbDimStyleTableRecord
  2
STANDARD
 70
     0
 41
3.0
 42
1.0
 43
10.0
 44
1.0
 73
     0
 74
     0
 77
     3
 78
     8
140
3.2
141
0.0
147
1.0
172
     1
173
     1
340
F
341
2E
343
2E
344
2E
  0
ENDTAB
  0
TABLE
  2
BLOCK_RECORD
  5
1
330
0
100
AcDbSymbolTable
 70
     1
  0
BLOCK_RECORD
  5
18
102
{ACAD_XDICTIONARY
360
1D6C
102
}
330
1
100
AcDbSymbolTableRecord
100
AcDbBlockTableRecord
  2
*MODEL_SPACE
340
1DC0
  0
BLOCK_RECORD
  5
15
102
{ACAD_XDICTIONARY
360
1D6A
102
}
330
1
100
AcDbSymbolTableRecord
100
AcDbBlockTableRecord
  2
*PAPER_SPACE
340
1DC1
  0
BLOCK_RECORD
  5
2E
330
1
100
AcDbSymbolTableRecord
100
AcDbBlockTableRecord
  2
_OPEN
340
0
  0
ENDTAB
  0
ENDSEC
  0
SECTION
  2
BLOCKS
  0
BLOCK
  5
19
330
18
100
AcDbEntity
  8
0
100
AcDbBlockBegin
  2
*MODEL_SPACE
 70
     0
 10
0.0
 20
0.0
 30
0.0
  3
*MODEL_SPACE
  1

  0
ENDBLK
  5
1A
330
18
100
AcDbEntity
  8
0
100
AcDbBlockEnd
  0
BLOCK
  5
16
330
15
100
AcDbEntity
 67
     1
  8
0
100
AcDbBlockBegin
  2
*PAPER_SPACE
 70
     0
 10
0.0
 20
0.0
 30
0.0
  3
*PAPER_SPACE
  1

  0
ENDBLK
  5
17
330
15
100
AcDbEntity
 67
     1
  8
0
100
AcDbBlockEnd
  0
BLOCK
  5
2F
330
2E
100
AcDbEntity
  8
0
100
AcDbBlockBegin
  2
_OPEN
 70
     0
 10
0.0
 20
0.0
 30
0.0
  3
_OPEN
  1

  0
LINE
  5
30
330
2E
100
AcDbEntity
  8
0
  6
ByBlock
 62
     0
100
AcDbLine
 10
-1.0
 20
0.1666666666666666
 30
0.0
 11
0.0
 21
0.0
 31
0.0
  0
LINE
  5
31
330
2E
100
AcDbEntity
  8
0
  6
ByBlock
 62
     0
100
AcDbLine
 10
0.0
 20
0.0
 30
0.0
 11
-1.0
 21
-0.1666666666666666
 31
0.0
  0
LINE
  5
32
330
2E
100
AcDbEntity
  8
0
  6
ByBlock
 62
     0
100
AcDbLine
 10
0.0
 20
0.0
 30
0.0
 11
-1.0
 21
0.0
 31
0.0
  0
ENDBLK
  5
33
330
2E
100
AcDbEntity
  8
0
100
AcDbBlockEnd
  0
ENDSEC
  0
SECTION
  2
ENTITIES
  0
TEXT
  5
63
330
18
100
AcDbEntity
  8
4
  6
CENTER
 48
0.25
100
AcDbText
 10
23.97950852663849
 20
10.0
 30
0.0
 40
1.399999999999999
  1
4
100
AcDbText
  0
TEXT
  5
64
330
18
100
AcDbEntity
  8
7
  6
Continuous
 48
0.25
100
AcDbText
 10
9.999997526638502
 20
26.0000007607689
 30
0.0
 40
3.0
  1
CODE No.2797
100
AcDbText
  0
TEXT
  5
65
330
18
100
AcDbEntity
  8
7
  6
Continuous
 48
0.25
100
AcDbText
 10
9.999997526638502
 20
18.00000076076889
 30
0.0
 40
3.0
  1
TYPE No.TH-164
100
AcDbText
  0
TEXT
  5
66
330
18
100
AcDbEntity
  8
1
  6
Continuous
 48
0.25
100
AcDbText
 10
9.999997526638502
 20
10.00000076076889
 30
0.0
 40
1.399999999999999
  1
LAYER
100
AcDbText
  0
TEXT
  5
67
330
18
100
AcDbEntity
  8
2
  6
Continuous
 48
0.25
100
AcDbText
 10
19.9795085266385
 20
10.0
 30
0.0
 40
1.399999999999999
  1
2
100
AcDbText
  0
TEXT
  5
68
330
18
100
AcDbEntity
  8
3
  6
DASHED
 48
0.25
100
AcDbText
 10
21.9795085266385
 20
10.0
 30
0.0
 40
1.399999999999999
  1
3
100
AcDbText
  0
TEXT
  5
69
330
18
100
AcDbEntity
  8
1
  6
Continuous
 48
0.25
100
AcDbText
 10
17.9795085266385
 20
10.0
 30
0.0
 40
1.399999999999999
  1
1
100
AcDbText
  0
TEXT
  5
6A
330
18
100
AcDbEntity
  8
5
  6
PHANTOM
 48
0.25
100
AcDbText
 10
25.9795085266385
 20
10.0
 30
0.0
 40
1.399999999999999
  1
5
100
AcDbText
  0
TEXT
  5
6B
330
18
100
AcDbEntity
  8
6
  6
Continuous
 48
0.25
100
AcDbText
 10
27.9795085266385
 20
10.0
 30
0.0
 40
1.399999999999999
  1
6
100
AcDbText
  0
TEXT
  5
6C
330
18
100
AcDbEntity
  8
7
  6
Continuous
 48
0.25
100
AcDbText
 10
29.9795085266385
 20
10.0
 30
0.0
 40
1.399999999999999
  1
7
100
AcDbText
  0
LINE
  5
28F
330
18
100
AcDbEntity
  8
5
  6
PHANTOM
 48
0.25
100
AcDbLine
 10
121.0782502393715
 20
72.02157492583025
 30
0.0
 11
109.5782502393722
 21
52.10299063878796
 31
0.0
  0
ARC
  5
290
330
18
100
AcDbEntity
  8
5
  6
PHANTOM
 48
0.25
100
AcDbCircle
 10
122.1942756431544
 20
71.95458762772358
 30
0.0
 40
0.4999999999999938
100
AcDbArc
 50
60.00000000000006
 51
150.0000000000001
  0
LINE
  5
291
330
18
100
AcDbEntity
  8
5
  6
PHANTOM
 48
0.25
100
AcDbLine
 10
109.578250239372
 20
52.10299063878803
 30
0.0
 11
110.0112629412642
 21
51.85299063878804
 31
0.0
  0
LINE
  5
292
330
18
100
AcDbEntity
  8
5
  6
PHANTOM
 48
0.25
100
AcDbLine
 10
113.5112629412635
 20
57.91516846527946
 30
0.0
 11
113.0782502393715
 21
58.16516846527929
 31
0.0
  0
LINE
  5
293
330
18
100
AcDbEntity
  8
5
  6
PHANTOM
 48
0.25
100
AcDbLine
 10
121.0782502393715
 20
72.02157492583032
 30
0.0
 11
121.5112629412635
 21
71.77157492583045
 31
0.0
  0
LINE
  5
294
330
18
100
AcDbEntity
  8
5
  6
PHANTOM
 48
0.25
100
AcDbLine
 10
118.2612629412635
 20
66.14240980123175
 30
0.0
 11
117.8282502393716
 21
66.39240980123154
 31
0.0
  0
LINE
  5
295
330
18
100
AcDbEntity
  8
5
  6
PHANTOM
 48
0.25
100
AcDbLine
 10
116.3282502393716
 20
63.79433358987821
 30
0.0
 11
116.7612629412635
 21
63.5443335898784
 31
0.0
  0
LINE
  5
296
330
18
100
AcDbEntity
  8
5
  6
PHANTOM
 48
0.25
100
AcDbLine
 10
129.7140814893684
 20
68.19037596734779
 30
0.0
 11
122.4442756431543
 21
72.38760032961581
 31
0.0
  0
ARC
  5
297
330
18
100
AcDbEntity
  8
5
  6
PHANTOM
 48
0.25
100
AcDbCircle
 10
127.7140814893684
 20
64.72627435221004
 30
0.0
 40
3.999999999999963
100
AcDbArc
 50
3.690067525978915
 51
60.00000000000006
  0
ARC
  5
298
330
18
100
AcDbEntity
  8
5
  6
PHANTOM
 48
0.25
100
AcDbCircle
 10
128.6777364297566
 20
49.78427111899891
 30
0.0
 40
3.999999999999879
100
AcDbArc
 50
329.9999999999988
 51
3.690067525980134
  0
LINE
  5
299
330
18
100
AcDbEntity
  8
5
  6
PHANTOM
 48
0.25
100
AcDbLine
 10
132.6694435906985
 20
50.04170837598437
 30
0.0
 11
131.7057886503105
 21
64.98371160919514
 31
0.0
  0
LINE
  5
29A
330
18
100
AcDbEntity
  8
5
  6
PHANTOM
 48
0.25
100
AcDbLine
 10
121.7612629412621
 20
72.20458762772358
 30
0.0
 11
109.011262941262
 21
50.12093983122029
 31
0.0
  0
ARC
  5
29B
330
18
100
AcDbEntity
  8
5
  6
PHANTOM
 48
0.25
100
AcDbCircle
 10
118.1045296809987
 20
44.87093983122031
 30
0.0
 40
10.5
100
AcDbArc
 50
150.0000000000001
 51
240.0
  0
LINE
  5
29C
330
18
100
AcDbEntity
  8
5
  6
PHANTOM
 48
0.25
100
AcDbLine
 10
127.3710015014934
 20
39.52093983121637
 30
0.0
 11
132.1418380448942
 21
47.78427111899893
 31
0.0
  0
ARC
  5
29D
330
18
100
AcDbEntity
  8
5
  6
PHANTOM
 48
0.25
100
AcDbCircle
 10
118.1045296809987
 20
44.87093983122031
 30
0.0
 40
10.69999999999999
100
AcDbArc
 50
240.0
 51
329.9999999999852
  0
LINE
  5
29E
330
18
100
AcDbEntity
  8
4
  6
CENTER
 48
0.25
100
AcDbLine
 10
118.1045296809987
 20
28.87093983122288
 30
0.0
 11
118.1045296809987
 21
60.87093983122269
 31
0.0
  0
LINE
  5
29F
330
18
100
AcDbEntity
  8
4
  6
CENTER
 48
0.25
100
AcDbLine
 10
100.9045296809987
 20
44.87093983122031
 30
0.0
 11
135.3045296809987
 21
44.87093983122031
 31
0.0
  0
LINE
  5
2A0
330
18
100
AcDbEntity
  8
1
  6
Continuous
100
AcDbLine
 10
129.4150035527037
 20
55.19914100857415
 30
0.0
 11
142.3233304659001
 21
46.59358973310783
 31
0.0
  0
LINE
  5
2A1
330
18
100
AcDbEntity
  8
1
  6
Continuous
100
AcDbLine
 10
127.1045296809987
 20
33.87093983122315
 30
0.0
 11
143.1045296809988
 21
33.87093983122315
 31
0.0
  0
LINE
  5
2A2
330
18
100
AcDbEntity
  8
1
  6
Continuous
100
AcDbLine
 10
93.10452968099877
 20
33.87093983122223
 30
0.0
 11
116.1045296809986
 21
33.87093983122287
 31
0.0
  0
LINE
  5
2A3
330
18
100
AcDbEntity
  8
1
  6
Continuous
100
AcDbLine
 10
125.1045296809988
 20
35.77093983123015
 30
0.0
 11
125.1045296809988
 21
36.67093983123005
 31
0.0
  0
ARC
  5
2A4
330
18
100
AcDbEntity
  8
1
  6
Continuous
100
AcDbCircle
 10
125.3045296809988
 20
36.67093983123005
 30
0.0
 40
0.2
100
AcDbArc
 50
90.0
 51
180.0
  0
ARC
  5
2A5
330
18
100
AcDbEntity
  8
1
  6
Continuous
100
AcDbCircle
 10
125.3045296809988
 20
35.77093983123015
 30
0.0
 40
0.2
100
AcDbArc
 50
180.0
 51
270.0
  0
LINE
  5
2A6
330
18
100
AcDbEntity
  8
1
  6
Continuous
100
AcDbLine
 10
127.1045296809987
 20
35.57093983122917
 30
0.0
 11
125.3045296809988
 21
35.5709398312301
 31
0.0
  0
LINE
  5
2A7
330
18
100
AcDbEntity
  8
1
  6
Continuous
100
AcDbLine
 10
128.6045296809987
 20
44.87093983122046
 30
0.0
 11
128.8045296810015
 21
44.87093983122354
 31
0.0
  0
ARC
  5
2A8
330
18
100
AcDbEntity
  8
1
  6
Continuous
100
AcDbCircle
 10
118.1045296809987
 20
44.87093983122031
 30
0.0
 40
10.69999999999999
100
AcDbArc
 50
0.0
 51
89.99999999998534
  0
LINE
  5
2A9
330
18
100
AcDbEntity
  8
1
  6
Continuous
100
AcDbLine
 10
118.1045296810015
 20
55.57093983122334
 30
0.0
 11
108.5628565941946
 21
55.57093983122033
 31
0.0
  0
ARC
  5
2AA
330
18
100
AcDbEntity
  8
1
  6
Continuous
100
AcDbCircle
 10
108.5628565941946
 20
51.57093983122046
 30
0.0
 40
3.999999999999879
100
AcDbArc
 50
89.99999999999836
 51
123.6900675259804
  0
LINE
  5
2AB
330
18
100
AcDbEntity
  8
1
  6
Continuous
100
AcDbLine
 10
106.3440558092936
 20
54.89914100857162
 30
0.0
 11
93.88572889609795
 21
46.59358973310783
 31
0.0
  0
ARC
  5
2AC
330
18
100
AcDbEntity
  8
1
  6
Continuous
100
AcDbCircle
 10
96.10452968099869
 20
43.26538855575631
 30
0.0
 40
3.999999999999963
100
AcDbArc
 50
123.6900675259785
 51
180.0
  0
LINE
  5
2AD
330
18
100
AcDbEntity
  8
1
  6
Continuous
100
AcDbLine
 10
92.10452968099868
 20
43.26538855575631
 30
0.0
 11
92.10452968099868
 21
34.87093983122031
 31
0.0
  0
LINE
  5
2AE
330
18
100
AcDbEntity
  8
1
  6
Continuous
100
AcDbLine
 10
92.60452968099867
 20
34.37093983122031
 30
0.0
 11
118.1045296809987
 21
34.37093983122031
 31
0.0
  0
ARC
  5
2AF
330
18
100
AcDbEntity
  8
1
  6
Continuous
100
AcDbCircle
 10
118.1045296809987
 20
44.87093983122031
 30
0.0
 40
10.5
100
AcDbArc
 50
270.0
 51
0.0
  0
ARC
  5
2B0
330
18
100
AcDbEntity
  8
1
  6
Continuous
100
AcDbCircle
 10
92.60452968099867
 20
34.87093983122031
 30
0.0
 40
0.4999999999999938
100
AcDbArc
 50
180.0
 51
270.0
  0
LINE
  5
2B1
330
18
100
AcDbEntity
  8
1
  6
Continuous
100
AcDbLine
 10
128.8603033564784
 20
54.36709071423614
 30
0.0
 11
132.6045296809987
 21
51.87093983122254
 31
0.0
  0
ARC
  5
2B2
330
18
100
AcDbEntity
  8
1
  6
Continuous
100
AcDbCircle
 10
127.1962027678028
 20
51.87093983122259
 30
0.0
 40
2.999999999999951
100
AcDbArc
 50
56.30993247402134
 51
90.00000000000161
  0
LINE
  5
2B3
330
18
100
AcDbEntity
  8
1
  6
Continuous
100
AcDbLine
 10
121.9111029431336
 20
54.87093983122246
 30
0.0
 11
127.1962027678027
 21
54.87093983122246
 31
0.0
  0
LINE
  5
2B4
330
18
100
AcDbEntity
  8
1
  6
Continuous
100
AcDbLine
 10
132.6045296809987
 20
51.87093983122259
 30
0.0
 11
133.1045296809988
 21
51.53760649788916
 31
0.0
  0
ARC
  5
2B5
330
18
100
AcDbEntity
  8
1
  6
Continuous
100
AcDbCircle
 10
115.6045296809986
 20
55.37093983122271
 30
0.0
 40
0.5000000000000206
100
AcDbArc
 50
90.00000000000813
 51
156.4218215217961
  0
LINE
  5
2B6
330
18
100
AcDbEntity
  8
1
  6
Continuous
100
AcDbLine
 10
127.1045296809989
 20
37.45939709934042
 30
0.0
 11
127.1045296809989
 21
34.37093983122031
 31
0.0
  0
LINE
  5
2B7
330
18
100
AcDbEntity
  8
1
  6
Continuous
100
AcDbLine
 10
127.1045296809989
 20
34.37093983122031
 30
0.0
 11
143.6045296809989
 21
34.37093983122031
 31
0.0
  0
LINE
  5
2B8
330
18
100
AcDbEntity
  8
1
  6
Continuous
100
AcDbLine
 10
144.1045296809991
 20
34.87093983122031
 30
0.0
 11
144.1045296809991
 21
43.26538855575631
 31
0.0
  0
ARC
  5
2B9
330
18
100
AcDbEntity
  8
1
  6
Continuous
100
AcDbCircle
 10
140.1045296809992
 20
43.26538855575631
 30
0.0
 40
3.999999999999981
100
AcDbArc
 50
0.0
 51
56.30993247402134
  0
LINE
  5
2BA
330
18
100
AcDbEntity
  8
1
  6
Continuous
100
AcDbLine
 10
133.1045296809988
 20
51.80519837713109
 30
0.0
 11
133.1045296809988
 21
47.85170194475346
 31
0.0
  0
LINE
  5
2BB
330
18
100
AcDbEntity
  8
1
  6
Continuous
100
AcDbLine
 10
127.196202767803
 20
55.87093983122271
 30
0.0
 11
115.6045296809986
 21
55.87093983122271
 31
0.0
  0
ARC
  5
2BC
330
18
100
AcDbEntity
  8
1
  6
Continuous
100
AcDbCircle
 10
127.1962027678029
 20
51.87093983122245
 30
0.0
 40
4.000000000000198
100
AcDbArc
 50
56.30993247402336
 51
89.99999999999836
  0
ARC
  5
2BD
330
18
100
AcDbEntity
  8
1
  6
Continuous
100
AcDbCircle
 10
133.6045296809988
 20
51.80519837713109
 30
0.0
 40
0.5000000000000126
100
AcDbArc
 50
56.30993247402336
 51
180.0
  0
ARC
  5
2BE
330
18
100
AcDbEntity
  8
1
  6
Continuous
100
AcDbCircle
 10
143.6045296809989
 20
34.87093983122031
 30
0.0
 40
0.4999999999999984
100
AcDbArc
 50
270.0
 51
0.0
  0
LINE
  5
2BF
330
18
100
AcDbEntity
  8
1
  6
Continuous
100
AcDbLine
 10
133.1045296809988
 20
47.85170194475337
 30
0.0
 11
127.1045296809989
 21
37.45939709934042
 31
0.0
  0
LINE
  5
2C0
330
18
100
AcDbEntity
  8
1
  6
Continuous
100
AcDbLine
 10
116.1045296809986
 20
33.8709398312228
 30
0.0
 11
116.1045296809986
 21
34.3709398312228
 31
0.0
  0
LINE
  5
2C1
330
18
100
AcDbEntity
  8
1
  6
Continuous
100
AcDbLine
 10
109.1045296809986
 20
34.3709398312219
 30
0.0
 11
109.1045296809986
 21
33.87093983122223
 31
0.0
  0
LINE
  5
2C2
330
18
100
AcDbEntity
  8
1
  6
Continuous
100
AcDbLine
 10
93.10452968099877
 20
33.87093983122223
 30
0.0
 11
93.10452968099877
 21
34.3709398312219
 31
0.0
  0
LINE
  5
2C3
330
18
100
AcDbEntity
  8
1
  6
Continuous
100
AcDbLine
 10
99.60452968099868
 20
34.3709398312219
 30
0.0
 11
99.60452968099868
 21
33.87093983122223
 31
0.0
  0
LINE
  5
2C4
330
18
100
AcDbEntity
  8
1
  6
Continuous
100
AcDbLine
 10
102.6045296809986
 20
33.87093983122223
 30
0.0
 11
102.6045296809986
 21
34.3709398312219
 31
0.0
  0
LINE
  5
2C5
330
18
100
AcDbEntity
  8
1
  6
Continuous
100
AcDbLine
 10
133.6045296809988
 20
34.3709398312228
 30
0.0
 11
133.6045296809988
 21
33.87093983122315
 31
0.0
  0
LINE
  5
2C6
330
18
100
AcDbEntity
  8
1
  6
Continuous
100
AcDbLine
 10
136.6045296809988
 20
33.87093983122315
 30
0.0
 11
136.6045296809988
 21
34.3709398312228
 31
0.0
  0
LINE
  5
2C7
330
18
100
AcDbEntity
  8
1
  6
Continuous
100
AcDbLine
 10
127.1045296809987
 20
33.87093983122315
 30
0.0
 11
127.1045296809987
 21
34.3709398312228
 31
0.0
  0
LINE
  5
2C8
330
18
100
AcDbEntity
  8
1
  6
Continuous
100
AcDbLine
 10
143.1045296809988
 20
34.3709398312228
 30
0.0
 11
143.1045296809988
 21
33.87093983122315
 31
0.0
  0
ARC
  5
2C9
330
18
100
AcDbEntity
  8
1
  6
Continuous
100
AcDbCircle
 10
127.1962027678028
 20
51.87093983122259
 30
0.0
 40
2.999999999999968
100
AcDbArc
 50
56.30993247401953
 51
90.0
  0
ARC
  5
2CA
330
18
100
AcDbEntity
  8
1
  6
Continuous
100
AcDbCircle
 10
126.1045296809988
 20
35.87093983122259
 30
0.0
 40
1.0
100
AcDbArc
 50
0.0
 51
90.0
  0
LINE
  5
2CB
330
18
100
AcDbEntity
  8
1
  6
Continuous
100
AcDbLine
 10
132.6045296809988
 20
51.87093983122245
 30
0.0
 11
128.8603033564785
 21
54.36709071423606
 31
0.0
  0
LINE
  5
2CC
330
18
100
AcDbEntity
  8
1
  6
Continuous
100
AcDbLine
 10
124.9052649353665
 20
36.87093983122259
 30
0.0
 11
126.1045296809988
 21
36.87093983122259
 31
0.0
  0
LINE
  5
2CD
330
18
100
AcDbEntity
  8
1
  6
Continuous
100
AcDbLine
 10
127.1962027678028
 20
54.87093983122246
 30
0.0
 11
121.9111029431336
 21
54.87093983122246
 31
0.0
  0
LINE
  5
2CE
330
18
100
AcDbEntity
  8
1
  6
Continuous
100
AcDbLine
 10
195.2447937549158
 20
118.0404214114346
 30
0.0
 11
198.1338798052945
 21
118.0404214114346
 31
0.0
  0
LINE
  5
2CF
330
18
100
AcDbEntity
  8
1
  6
Continuous
100
AcDbLine
 10
195.5447937549132
 20
110.0404214114348
 30
0.0
 11
215.7447937549205
 21
110.0404214114346
 31
0.0
  0
LINE
  5
2D0
330
18
100
AcDbEntity
  8
1
  6
Continuous
100
AcDbLine
 10
216.7447937549105
 20
117.0404214114346
 30
0.0
 11
216.7447937549105
 21
170.0404214114343
 31
0.0
  0
LINE
  5
2D1
330
18
100
AcDbEntity
  8
1
  6
Continuous
100
AcDbLine
 10
195.2447937549158
 20
169.0404214114346
 30
0.0
 11
198.1337296549003
 21
169.0404214114346
 31
0.0
  0
LINE
  5
2D2
330
18
100
AcDbEntity
  8
1
  6
Continuous
100
AcDbLine
 10
195.5447937549132
 20
177.0404214114346
 30
0.0
 11
215.7447937549207
 21
177.0404214114346
 31
0.0
  0
LINE
  5
2D3
330
18
100
AcDbEntity
  8
4
  6
CENTER
 48
0.25
100
AcDbLine
 10
189.7447937549158
 20
143.5404214114344
 30
0.0
 11
221.7447937549105
 21
143.5404214114344
 31
0.0
  0
LINE
  5
2D4
330
18
100
AcDbEntity
  8
1
  6
Continuous
100
AcDbLine
 10
195.0447937549131
 20
170.0404214114346
 30
0.0
 11
195.0447937549131
 21
176.5404214114346
 31
0.0
  0
LINE
  5
2D5
330
18
100
AcDbEntity
  8
1
  6
Continuous
100
AcDbLine
 10
198.3049196175004
 20
117.6459492295179
 30
0.0
 11
198.3049196174995
 21
117.0404214114347
 31
0.0
  0
LINE
  5
2D6
330
18
100
AcDbEntity
  8
1
  6
Continuous
100
AcDbLine
 10
198.3049196175004
 20
170.0404214114346
 30
0.0
 11
198.3049196175004
 21
169.4349015947351
 31
0.0
  0
LINE
  5
2D7
330
18
100
AcDbEntity
  8
1
  6
Continuous
100
AcDbLine
 10
198.3105352090046
 20
170.0404214114346
 30
0.0
 11
195.0447937549131
 21
170.0404214114346
 31
0.0
  0
LINE
  5
2D8
330
18
100
AcDbEntity
  8
1
  6
Continuous
100
AcDbLine
 10
195.0447937549101
 20
117.0404214114346
 30
0.0
 11
198.3105352090046
 21
117.0404214114346
 31
0.0
  0
LINE
  5
2D9
330
18
100
AcDbEntity
  8
1
  6
Continuous
100
AcDbLine
 10
195.0447937549102
 20
110.5404214114348
 30
0.0
 11
195.0447937549102
 21
117.0404214114346
 31
0.0
  0
ARC
  5
2DA
330
18
100
AcDbEntity
  8
1
  6
Continuous
100
AcDbCircle
 10
195.5447937549132
 20
110.5404214114348
 30
0.0
 40
0.5000000000000249
100
AcDbArc
 50
180.0
 51
270.0
  0
ARC
  5
2DB
330
18
100
AcDbEntity
  8
1
  6
Continuous
100
AcDbCircle
 10
195.5447937549132
 20
176.5404214114348
 30
0.0
 40
0.4999999999999849
100
AcDbArc
 50
90.0
 51
180.0
  0
LINE
  5
2DC
330
18
100
AcDbEntity
  8
1
  6
Continuous
100
AcDbLine
 10
194.7447937549158
 20
168.5404214114344
 30
0.0
 11
194.7447937549158
 21
118.5404214114346
 31
0.0
  0
LINE
  5
2DD
330
18
100
AcDbEntity
  8
1
  6
Continuous
100
AcDbLine
 10
198.310535209007
 20
169.5404214114347
 30
0.0
 11
198.310535209007
 21
176.5404214114346
 31
0.0
  0
ARC
  5
2DF
330
18
100
AcDbEntity
  8
1
  6
Continuous
100
AcDbCircle
 10
198.8105352090069
 20
176.5404214114346
 30
0.0
 40
0.5000000000000016
100
AcDbArc
 50
90.0
 51
180.0
  0
LINE
  5
2E1
330
18
100
AcDbEntity
  8
1
  6
Continuous
100
AcDbLine
 10
198.310535209007
 20
117.5404214114346
 30
0.0
 11
198.310535209007
 21
110.5404214114346
 31
0.0
  0
ARC
  5
2E2
330
18
100
AcDbEntity
  8
1
  6
Continuous
100
AcDbCircle
 10
198.8105352090069
 20
110.5404214114346
 30
0.0
 40
0.5000000000000006
100
AcDbArc
 50
180.0
 51
270.0
  0
ARC
  5
2E3
330
18
100
AcDbEntity
  8
1
  6
Continuous
100
AcDbCircle
 10
195.2447937549158
 20
168.5404214114344
 30
0.0
 40
0.5000000000000071
100
AcDbArc
 50
90.0
 51
180.0
  0
ARC
  5
2E4
330
18
100
AcDbEntity
  8
1
  6
Continuous
100
AcDbCircle
 10
195.2447937549158
 20
118.5404214114344
 30
0.0
 40
0.4999999999999896
100
AcDbArc
 50
180.0
 51
270.0
  0
LINE
  5
2E5
330
18
100
AcDbEntity
  8
1
  6
Continuous
100
AcDbLine
 10
216.2447937549207
 20
110.5404214114346
 30
0.0
 11
216.2447937549207
 21
176.5404214114346
 31
0.0
  0
ARC
  5
2E6
330
18
100
AcDbEntity
  8
1
  6
Continuous
100
AcDbCircle
 10
215.7447937549205
 20
110.5404214114346
 30
0.0
 40
0.5000000000000249
100
AcDbArc
 50
270.0
 51
0.0
  0
ARC
  5
2E7
330
18
100
AcDbEntity
  8
1
  6
Continuous
100
AcDbCircle
 10
215.7447937549207
 20
176.5404214114346
 30
0.0
 40
0.4999999999999984
100
AcDbArc
 50
0.0
 51
90.0
  0
LINE
  5
2E8
330
18
100
AcDbEntity
  8
1
  6
Continuous
100
AcDbLine
 10
202.4928691964268
 20
136.0404214114345
 30
0.0
 11
196.9458672341721
 21
136.0404214114345
 31
0.0
  0
LINE
  5
2E9
330
18
100
AcDbEntity
  8
1
  6
Continuous
100
AcDbLine
 10
196.9458672341721
 20
136.0404214114345
 30
0.0
 11
196.9458672341721
 21
151.0404214114346
 31
0.0
  0
LINE
  5
2EA
330
18
100
AcDbEntity
  8
1
  6
Continuous
100
AcDbLine
 10
196.9458672341721
 20
151.0404214114346
 30
0.0
 11
202.4928691964268
 21
151.0404214114346
 31
0.0
  0
LINE
  5
2EB
330
18
100
AcDbEntity
  8
1
  6
Continuous
100
AcDbLine
 10
202.4928691964268
 20
151.0404214114346
 30
0.0
 11
202.4928691964268
 21
136.0404214114345
 31
0.0
  0
LINE
  5
2EC
330
18
100
AcDbEntity
  8
1
  6
Continuous
100
AcDbLine
 10
197.1954823224734
 20
151.0404214114346
 30
0.0
 11
197.1954823224734
 21
136.0404214114345
 31
0.0
  0
LINE
  5
39F
330
18
100
AcDbEntity
  8
1
  6
Continuous
100
AcDbLine
 10
216.7447937549122
 20
169.0404214114346
 30
0.0
 11
216.2447937549123
 21
169.0404214114346
 31
0.0
  0
LINE
  5
3A0
330
18
100
AcDbEntity
  8
1
  6
Continuous
100
AcDbLine
 10
216.2447937549123
 20
118.0404214114344
 30
0.0
 11
216.7447937549122
 21
118.0404214114344
 31
0.0
  0
ARC
  5
3A1
330
18
100
AcDbEntity
  8
1
  6
Continuous
100
AcDbCircle
 10
214.7447937549106
 20
117.0404214114346
 30
0.0
 40
1.999999999999985
100
AcDbArc
 50
318.590377890729
 51
0.0
  0
ARC
  5
3A2
330
18
100
AcDbEntity
  8
1
  6
Continuous
100
AcDbCircle
 10
214.7447937549104
 20
170.0404214114343
 30
0.0
 40
1.999999999999999
100
AcDbArc
 50
0.0
 51
41.40962210927066
  0
ARC
  5
3A3
330
18
100
AcDbEntity
  8
1
  6
Continuous
100
AcDbCircle
 10
214.7447937549205
 20
167.0404214114346
 30
0.0
 40
1.999999999999987
100
AcDbArc
 50
0.0
 51
41.40962210927066
  0
ARC
  5
3A4
330
18
100
AcDbEntity
  8
1
  6
Continuous
100
AcDbCircle
 10
214.7447937549205
 20
120.0404214114346
 30
0.0
 40
1.999999999999995
100
AcDbArc
 50
318.5903778907293
 51
0.0
  0
LINE
  5
3A5
330
18
100
AcDbEntity
  8
1
  6
Continuous
100
AcDbLine
 10
109.6045296809974
 20
118.0404214114344
 30
0.0
 11
132.6045296809977
 21
118.0404214114344
 31
0.0
  0
LINE
  5
3A6
330
18
100
AcDbEntity
  8
1
  6
Continuous
100
AcDbLine
 10
110.1045296809978
 20
120.0404214114344
 30
0.0
 11
115.1045296809974
 21
120.0404214114344
 31
0.0
  0
LINE
  5
3A7
330
18
100
AcDbEntity
  8
1
  6
Continuous
100
AcDbLine
 10
110.1045296809978
 20
167.0404214114343
 30
0.0
 11
115.1045296809975
 21
167.0404214114343
 31
0.0
  0
LINE
  5
3A8
330
18
100
AcDbEntity
  8
1
  6
Continuous
100
AcDbLine
 10
110.1045296809978
 20
118.0404214114344
 30
0.0
 11
110.1045296809978
 21
169.0404214114343
 31
0.0
  0
LINE
  5
3A9
330
18
100
AcDbEntity
  8
1
  6
Continuous
100
AcDbLine
 10
109.6045296809976
 20
169.0404214114343
 30
0.0
 11
132.6045296809977
 21
169.0404214114343
 31
0.0
  0
LINE
  5
3AA
330
18
100
AcDbEntity
  8
1
  6
Continuous
100
AcDbLine
 10
102.4615652493775
 20
170.0404214114343
 30
0.0
 11
128.8045296809975
 21
170.0404214114343
 31
0.0
  0
LINE
  5
3AB
330
18
100
AcDbEntity
  8
1
  6
Continuous
100
AcDbLine
 10
102.4615652493771
 20
117.0404214114344
 30
0.0
 11
128.8045296810004
 21
117.0404214114344
 31
0.0
  0
LINE
  5
3AC
330
18
100
AcDbEntity
  8
1
  6
Continuous
100
AcDbLine
 10
92.60452968099745
 20
110.0404214114344
 30
0.0
 11
143.6045296809979
 21
110.0404214114344
 31
0.0
  0
LINE
  5
3AD
330
18
100
AcDbEntity
  8
1
  6
Continuous
100
AcDbLine
 10
92.60452968099745
 20
177.0404214114344
 30
0.0
 11
143.6045296809979
 21
177.0404214114344
 31
0.0
  0
LINE
  5
3AE
330
18
100
AcDbEntity
  8
4
  6
CENTER
 48
0.25
100
AcDbLine
 10
149.1045296809979
 20
143.5404214114344
 30
0.0
 11
87.10452968099749
 21
143.5404214114344
 31
0.0
  0
LINE
  5
3AF
330
18
100
AcDbEntity
  8
4
  6
CENTER
 48
0.25
100
AcDbLine
 10
118.1045296809973
 20
182.0404214114345
 30
0.0
 11
118.1045296810002
 21
105.0404214114344
 31
0.0
  0
LINE
  5
3B0
330
18
100
AcDbEntity
  8
1
  6
Continuous
100
AcDbLine
 10
128.8045296809975
 20
170.0404214114343
 30
0.0
 11
128.8045296809976
 21
176.5404214114344
 31
0.0
  0
LINE
  5
3B1
330
18
100
AcDbEntity
  8
1
  6
Continuous
100
AcDbLine
 10
128.8045296810004
 20
110.5404214114344
 30
0.0
 11
128.8045296810004
 21
117.0404214114344
 31
0.0
  0
LINE
  5
3B2
330
18
100
AcDbEntity
  8
1
  6
Continuous
100
AcDbLine
 10
109.1045296809978
 20
170.0404214114343
 30
0.0
 11
109.1045296809978
 21
117.0404214114344
 31
0.0
  0
LINE
  5
3B3
330
18
100
AcDbEntity
  8
1
  6
Continuous
100
AcDbLine
 10
102.4615652493775
 20
170.0404214114343
 30
0.0
 11
102.4615652493771
 21
117.0404214114344
 31
0.0
  0
LINE
  5
3B4
330
18
100
AcDbEntity
  8
1
  6
Continuous
100
AcDbLine
 10
92.10452968099749
 20
176.5404214114344
 30
0.0
 11
92.10452968099749
 21
110.5404214114346
 31
0.0
  0
ARC
  5
3B6
330
18
100
AcDbEntity
  8
1
  6
Continuous
100
AcDbCircle
 10
92.60452968099755
 20
110.5404214114346
 30
0.0
 40
0.5000000000000249
100
AcDbArc
 50
180.0
 51
269.999999999995
  0
ARC
  5
3B7
330
18
100
AcDbEntity
  8
1
  6
Continuous
100
AcDbCircle
 10
92.60452968099745
 20
176.5404214114344
 30
0.0
 40
0.4999999999999984
100
AcDbArc
 50
90.0
 51
180.0
  0
LINE
  5
3B9
330
18
100
AcDbEntity
  8
1
  6
Continuous
100
AcDbLine
 10
133.1045296809977
 20
176.0404214114344
 30
0.0
 11
128.8045296809975
 21
176.0404214114344
 31
0.0
  0
LINE
  5
3BA
330
18
100
AcDbEntity
  8
1
  6
Continuous
100
AcDbLine
 10
133.1045296809977
 20
111.0404214114344
 30
0.0
 11
128.8045296810004
 21
111.0404214114344
 31
0.0
  0
LINE
  5
3BB
330
18
100
AcDbEntity
  8
1
  6
Continuous
100
AcDbLine
 10
144.1045296809979
 20
176.5404214114344
 30
0.0
 11
144.1045296809979
 21
110.5404214114344
 31
0.0
  0
ARC
  5
3BC
330
18
100
AcDbEntity
  8
1
  6
Continuous
100
AcDbCircle
 10
115.6045296809974
 20
168.5404214114344
 30
0.0
 40
0.5000000000000116
100
AcDbArc
 50
90.0
 51
180.0
  0
ARC
  5
3BD
330
18
100
AcDbEntity
  8
1
  6
Continuous
100
AcDbCircle
 10
115.6045296809974
 20
118.5404214114344
 30
0.0
 40
0.4999999999999849
100
AcDbArc
 50
180.0
 51
270.0
  0
LINE
  5
3BE
330
18
100
AcDbEntity
  8
1
  6
Continuous
100
AcDbLine
 10
115.1045296809974
 20
168.5404214114344
 30
0.0
 11
115.1045296809974
 21
118.5404214114344
 31
0.0
  0
ARC
  5
3BF
330
18
100
AcDbEntity
  8
1
  6
Continuous
100
AcDbCircle
 10
143.6045296809979
 20
176.5404214114344
 30
0.0
 40
0.5000000000000027
100
AcDbArc
 50
0.0
 51
90.0
  0
LINE
  5
3C0
330
18
100
AcDbEntity
  8
1
  6
Continuous
100
AcDbLine
 10
133.1045296809977
 20
176.5404214114344
 30
0.0
 11
133.1045296809977
 21
169.5404214114343
 31
0.0
  0
ARC
  5
3C1
330
18
100
AcDbEntity
  8
1
  6
Continuous
100
AcDbCircle
 10
132.6045296809977
 20
169.5404214114343
 30
0.0
 40
0.5000000000000006
100
AcDbArc
 50
270.0
 51
0.0
  0
ARC
  5
3C2
330
18
100
AcDbEntity
  8
1
  6
Continuous
100
AcDbCircle
 10
133.6045296809975
 20
176.5404214114344
 30
0.0
 40
0.5000000000000049
100
AcDbArc
 50
90.0
 51
180.0
  0
ARC
  5
3C3
330
18
100
AcDbEntity
  8
1
  6
Continuous
100
AcDbCircle
 10
143.6045296809979
 20
110.5404214114344
 30
0.0
 40
0.5000000000000249
100
AcDbArc
 50
270.0
 51
0.0
  0
ARC
  5
3C4
330
18
100
AcDbEntity
  8
1
  6
Continuous
100
AcDbCircle
 10
132.6045296809977
 20
117.5404214114344
 30
0.0
 40
0.5000000000000006
100
AcDbArc
 50
0.0
 51
90.0
  0
LINE
  5
3C5
330
18
100
AcDbEntity
  8
1
  6
Continuous
100
AcDbLine
 10
133.1045296809977
 20
117.5404214114344
 30
0.0
 11
133.1045296809977
 21
110.5404214114344
 31
0.0
  0
ARC
  5
3C6
330
18
100
AcDbEntity
  8
1
  6
Continuous
100
AcDbCircle
 10
133.6045296809975
 20
110.5404214114344
 30
0.0
 40
0.5000000000000227
100
AcDbArc
 50
180.0
 51
269.9999999999918
  0
LINE
  5
3C7
330
18
100
AcDbEntity
  8
1
  6
Continuous
100
AcDbLine
 10
140.0294184809906
 20
136.0404214114344
 30
0.0
 11
131.7089155376121
 21
136.0404214114344
 31
0.0
  0
LINE
  5
3C8
330
18
100
AcDbEntity
  8
1
  6
Continuous
100
AcDbLine
 10
131.7089155376121
 20
136.0404214114344
 30
0.0
 11
131.7089155376121
 21
151.0404214114344
 31
0.0
  0
LINE
  5
3C9
330
18
100
AcDbEntity
  8
1
  6
Continuous
100
AcDbLine
 10
131.7089155376121
 20
151.0404214114344
 30
0.0
 11
140.0294184809906
 21
151.0404214114344
 31
0.0
  0
LINE
  5
3CA
330
18
100
AcDbEntity
  8
1
  6
Continuous
100
AcDbLine
 10
140.0294184809906
 20
151.0404214114344
 30
0.0
 11
140.0294184809906
 21
136.0404214114344
 31
0.0
  0
LINE
  5
3CB
330
18
100
AcDbEntity
  8
1
  6
Continuous
100
AcDbLine
 10
139.863008422123
 20
136.0404214114344
 30
0.0
 11
139.863008422123
 21
151.0404214114344
 31
0.0
  0
ARC
  5
474
330
18
100
AcDbEntity
  8
1
  6
Continuous
100
AcDbCircle
 10
109.6045296809974
 20
117.5404214114344
 30
0.0
 40
0.4999999999999896
100
AcDbArc
 50
90.0
 51
180.0
  0
ARC
  5
475
330
18
100
AcDbEntity
  8
1
  6
Continuous
100
AcDbCircle
 10
109.6045296809976
 20
169.5404214114343
 30
0.0
 40
0.5000000000000027
100
AcDbArc
 50
180.0
 51
270.0
  0
LINE
  5
476
330
18
100
AcDbEntity
  8
1
  6
Continuous
100
AcDbLine
 10
111.1545296809975
 20
170.0404214114343
 30
0.0
 11
111.1545296809975
 21
169.0404214114343
 31
0.0
  0
LINE
  5
477
330
18
100
AcDbEntity
  8
1
  6
Continuous
100
AcDbLine
 10
125.0545296809975
 20
170.0404214114343
 30
0.0
 11
125.0545296809975
 21
169.0404214114343
 31
0.0
  0
LINE
  5
478
330
18
100
AcDbEntity
  8
1
  6
Continuous
100
AcDbLine
 10
125.0545296809976
 20
117.0404214114344
 30
0.0
 11
125.0545296809976
 21
118.0404214114344
 31
0.0
  0
LINE
  5
479
330
18
100
AcDbEntity
  8
1
  6
Continuous
100
AcDbLine
 10
111.1545296809977
 20
117.0404214114344
 30
0.0
 11
111.1545296809977
 21
118.0404214114344
 31
0.0
  0
LINE
  5
154B
330
18
100
AcDbEntity
  8
5
  6
PHANTOM
 48
0.25
100
AcDbLine
 10
112.8545296809987
 20
35.77767309148371
 30
0.0
 11
112.7545296809987
 21
35.60446801072682
 31
0.0
  0
LINE
  5
16B5
330
18
100
AcDbEntity
  8
4
  6
CENTER
 48
0.25
100
AcDbLine
 10
100.9045296809987
 20
242.2099029916485
 30
0.0
 11
135.3045296809987
 21
242.2099029916485
 31
0.0
  0
LINE
  5
16B6
330
18
100
AcDbEntity
  8
1
  6
Continuous
100
AcDbLine
 10
132.6045296809988
 20
235.2099029916463
 30
0.0
 11
128.8603033564785
 21
232.7137521086328
 31
0.0
  0
LINE
  5
16B7
330
18
100
AcDbEntity
  8
1
  6
Continuous
100
AcDbLine
 10
133.1045296809988
 20
239.2291408781154
 30
0.0
 11
127.1045296809989
 21
249.6214457235284
 31
0.0
  0
LINE
  5
16B8
330
18
100
AcDbEntity
  8
1
  6
Continuous
100
AcDbLine
 10
127.1045296809989
 20
252.7099029916485
 30
0.0
 11
143.6045296809989
 21
252.7099029916485
 31
0.0
  0
LINE
  5
16B9
330
18
100
AcDbEntity
  8
1
  6
Continuous
100
AcDbLine
 10
128.8603033564784
 20
232.7137521086327
 30
0.0
 11
132.6045296809987
 21
235.2099029916463
 31
0.0
  0
LINE
  5
16BA
330
18
100
AcDbEntity
  8
1
  6
Continuous
100
AcDbLine
 10
127.1045296809987
 20
253.2099029916457
 30
0.0
 11
143.1045296809988
 21
253.2099029916457
 31
0.0
  0
LINE
  5
16BB
330
18
100
AcDbEntity
  8
1
  6
Continuous
100
AcDbLine
 10
129.4150035527037
 20
231.8817018142947
 30
0.0
 11
142.3233304659001
 21
240.487253089761
 31
0.0
  0
LINE
  5
16C1
330
18
100
AcDbEntity
  8
1
  6
Continuous
100
AcDbLine
 10
92.60452968099867
 20
252.7099029916485
 30
0.0
 11
118.1045296809987
 21
252.7099029916485
 31
0.0
  0
LINE
  5
16C2
330
18
100
AcDbEntity
  8
1
  6
Continuous
100
AcDbLine
 10
106.3440558092936
 20
232.1817018142972
 30
0.0
 11
93.88572889609795
 21
240.487253089761
 31
0.0
  0
LINE
  5
16C3
330
18
100
AcDbEntity
  8
1
  6
Continuous
100
AcDbLine
 10
93.10452968099877
 20
253.2099029916466
 30
0.0
 11
116.1045296809986
 21
253.209902991646
 31
0.0
  0
ARC
  5
16C4
330
18
100
AcDbEntity
  8
1
  6
Continuous
100
AcDbCircle
 10
96.10452968099869
 20
243.8154542671125
 30
0.0
 40
3.999999999999963
100
AcDbArc
 50
180.0
 51
236.3099324740213
  0
ARC
  5
16C5
330
18
100
AcDbEntity
  8
1
  6
Continuous
100
AcDbCircle
 10
92.60452968099867
 20
252.2099029916485
 30
0.0
 40
0.4999999999999938
100
AcDbArc
 50
90.00000000000005
 51
180.0
  0
LINE
  5
16C6
330
18
100
AcDbEntity
  8
1
  6
Continuous
100
AcDbLine
 10
99.60452968099868
 20
252.7099029916469
 30
0.0
 11
99.60452968099868
 21
253.2099029916466
 31
0.0
  0
LINE
  5
16C7
330
18
100
AcDbEntity
  8
1
  6
Continuous
100
AcDbLine
 10
93.10452968099877
 20
253.2099029916466
 30
0.0
 11
93.10452968099877
 21
252.7099029916469
 31
0.0
  0
LINE
  5
16C8
330
18
100
AcDbEntity
  8
1
  6
Continuous
100
AcDbLine
 10
92.10452968099868
 20
243.8154542671125
 30
0.0
 11
92.10452968099868
 21
252.2099029916485
 31
0.0
  0
LINE
  5
16CA
330
18
100
AcDbEntity
  8
4
  6
CENTER
 48
0.25
100
AcDbLine
 10
118.1045296809987
 20
258.2099029916459
 30
0.0
 11
118.1045296809987
 21
226.2099029916461
 31
0.0
  0
ARC
  5
16CB
330
18
100
AcDbEntity
  8
1
  6
Continuous
100
AcDbCircle
 10
118.1045296809987
 20
242.2099029916485
 30
0.0
 40
10.5
100
AcDbArc
 50
0.0
 51
90.00000000000005
  0
LINE
  5
16CD
330
18
100
AcDbEntity
  8
1
  6
Continuous
100
AcDbLine
 10
102.6045296809986
 20
253.2099029916466
 30
0.0
 11
102.6045296809986
 21
252.7099029916469
 31
0.0
  0
LINE
  5
16CF
330
18
100
AcDbEntity
  8
1
  6
Continuous
100
AcDbLine
 10
109.1045296809986
 20
252.7099029916469
 30
0.0
 11
109.1045296809986
 21
253.2099029916466
 31
0.0
  0
LINE
  5
16D0
330
18
100
AcDbEntity
  8
1
  6
Continuous
100
AcDbLine
 10
116.1045296809986
 20
253.209902991646
 30
0.0
 11
116.1045296809986
 21
252.709902991646
 31
0.0
  0
LINE
  5
16D1
330
18
100
AcDbEntity
  8
1
  6
Continuous
100
AcDbLine
 10
124.9052649353665
 20
250.2099029916462
 30
0.0
 11
126.1045296809988
 21
250.2099029916462
 31
0.0
  0
ARC
  5
16D2
330
18
100
AcDbEntity
  8
1
  6
Continuous
100
AcDbCircle
 10
126.1045296809988
 20
251.2099029916462
 30
0.0
 40
1.0
100
AcDbArc
 50
270.0
 51
0.0
  0
LINE
  5
16D3
330
18
100
AcDbEntity
  8
1
  6
Continuous
100
AcDbLine
 10
127.1045296809987
 20
253.2099029916457
 30
0.0
 11
127.1045296809987
 21
252.709902991646
 31
0.0
  0
LINE
  5
16D4
330
18
100
AcDbEntity
  8
1
  6
Continuous
100
AcDbLine
 10
127.1045296809989
 20
249.6214457235284
 30
0.0
 11
127.1045296809989
 21
252.7099029916485
 31
0.0
  0
LINE
  5
16D5
330
18
100
AcDbEntity
  8
1
  6
Continuous
100
AcDbLine
 10
127.1045296809987
 20
251.5099029916397
 30
0.0
 11
125.3045296809988
 21
251.5099029916388
 31
0.0
  0
ARC
  5
16D6
330
18
100
AcDbEntity
  8
1
  6
Continuous
100
AcDbCircle
 10
125.3045296809988
 20
251.3099029916387
 30
0.0
 40
0.2
100
AcDbArc
 50
90.00000000000005
 51
180.0
  0
ARC
  5
16D7
330
18
100
AcDbEntity
  8
1
  6
Continuous
100
AcDbCircle
 10
125.3045296809988
 20
250.4099029916388
 30
0.0
 40
0.2
100
AcDbArc
 50
180.0
 51
270.0
  0
LINE
  5
16D8
330
18
100
AcDbEntity
  8
1
  6
Continuous
100
AcDbLine
 10
125.1045296809988
 20
251.3099029916387
 30
0.0
 11
125.1045296809988
 21
250.4099029916388
 31
0.0
  0
LINE
  5
16D9
330
18
100
AcDbEntity
  8
1
  6
Continuous
100
AcDbLine
 10
127.196202767803
 20
231.2099029916461
 30
0.0
 11
115.6045296809986
 21
231.2099029916461
 31
0.0
  0
LINE
  5
16DA
330
18
100
AcDbEntity
  8
1
  6
Continuous
100
AcDbLine
 10
118.1045296810015
 20
231.5099029916455
 30
0.0
 11
108.5628565941946
 21
231.5099029916485
 31
0.0
  0
ARC
  5
16DB
330
18
100
AcDbEntity
  8
1
  6
Continuous
100
AcDbCircle
 10
108.5628565941946
 20
235.5099029916484
 30
0.0
 40
3.999999999999879
100
AcDbArc
 50
236.3099324740195
 51
270.0000000000016
  0
ARC
  5
16DD
330
18
100
AcDbEntity
  8
1
  6
Continuous
100
AcDbCircle
 10
115.6045296809986
 20
231.7099029916461
 30
0.0
 40
0.5000000000000206
100
AcDbArc
 50
203.5781784782038
 51
269.9999999999918
  0
LINE
  5
16DF
330
18
100
AcDbEntity
  8
1
  6
Continuous
100
AcDbLine
 10
127.1962027678028
 20
232.2099029916464
 30
0.0
 11
121.9111029431336
 21
232.2099029916464
 31
0.0
  0
LINE
  5
16E0
330
18
100
AcDbEntity
  8
1
  6
Continuous
100
AcDbLine
 10
121.9111029431336
 20
232.2099029916464
 30
0.0
 11
127.1962027678027
 21
232.2099029916464
 31
0.0
  0
ARC
  5
16E1
330
18
100
AcDbEntity
  8
1
  6
Continuous
100
AcDbCircle
 10
118.1045296809987
 20
242.2099029916485
 30
0.0
 40
10.69999999999999
100
AcDbArc
 50
270.0000000000146
 51
0.0
  0
ARC
  5
16E2
330
18
100
AcDbEntity
  8
1
  6
Continuous
100
AcDbCircle
 10
127.1962027678028
 20
235.2099029916463
 30
0.0
 40
2.999999999999968
100
AcDbArc
 50
270.0
 51
303.6900675259804
  0
ARC
  5
16E3
330
18
100
AcDbEntity
  8
1
  6
Continuous
100
AcDbCircle
 10
127.1962027678029
 20
235.2099029916463
 30
0.0
 40
4.000000000000198
100
AcDbArc
 50
270.0000000000016
 51
303.6900675259766
  0
ARC
  5
16E4
330
18
100
AcDbEntity
  8
1
  6
Continuous
100
AcDbCircle
 10
127.1962027678028
 20
235.2099029916463
 30
0.0
 40
2.999999999999951
100
AcDbArc
 50
269.9999999999983
 51
303.6900675259786
  0
LINE
  5
16E5
330
18
100
AcDbEntity
  8
1
  6
Continuous
100
AcDbLine
 10
128.6045296809987
 20
242.2099029916484
 30
0.0
 11
128.8045296810015
 21
242.2099029916453
 31
0.0
  0
ARC
  5
16EA
330
18
100
AcDbEntity
  8
1
  6
Continuous
100
AcDbCircle
 10
140.1045296809992
 20
243.8154542671125
 30
0.0
 40
3.999999999999981
100
AcDbArc
 50
303.6900675259786
 51
0.0
  0
LINE
  5
16EB
330
18
100
AcDbEntity
  8
1
  6
Continuous
100
AcDbLine
 10
136.6045296809988
 20
253.2099029916457
 30
0.0
 11
136.6045296809988
 21
252.709902991646
 31
0.0
  0
LINE
  5
16EC
330
18
100
AcDbEntity
  8
1
  6
Continuous
100
AcDbLine
 10
133.6045296809988
 20
252.709902991646
 30
0.0
 11
133.6045296809988
 21
253.2099029916457
 31
0.0
  0
LINE
  5
16ED
330
18
100
AcDbEntity
  8
1
  6
Continuous
100
AcDbLine
 10
143.1045296809988
 20
252.709902991646
 30
0.0
 11
143.1045296809988
 21
253.2099029916457
 31
0.0
  0
ARC
  5
16EE
330
18
100
AcDbEntity
  8
1
  6
Continuous
100
AcDbCircle
 10
143.6045296809989
 20
252.2099029916485
 30
0.0
 40
0.4999999999999984
100
AcDbArc
 50
0.0
 51
90.00000000000005
  0
LINE
  5
16EF
330
18
100
AcDbEntity
  8
1
  6
Continuous
100
AcDbLine
 10
144.1045296809991
 20
252.2099029916485
 30
0.0
 11
144.1045296809991
 21
243.8154542671125
 31
0.0
  0
ARC
  5
16F2
330
18
100
AcDbEntity
  8
1
  6
Continuous
100
AcDbCircle
 10
133.6045296809988
 20
235.2756444457377
 30
0.0
 40
0.5000000000000126
100
AcDbArc
 50
180.0
 51
303.6900675259766
  0
LINE
  5
16F3
330
18
100
AcDbEntity
  8
1
  6
Continuous
100
AcDbLine
 10
133.1045296809988
 20
235.2756444457377
 30
0.0
 11
133.1045296809988
 21
239.2291408781153
 31
0.0
  0
LINE
  5
16F4
330
18
100
AcDbEntity
  8
1
  6
Continuous
100
AcDbLine
 10
132.6045296809987
 20
235.2099029916463
 30
0.0
 11
133.1045296809988
 21
235.5432363249797
 31
0.0
  0
LINE
  5
1761
330
18
100
AcDbEntity
  8
4
  6
CENTER
 48
0.25
100
AcDbLine
 10
46.4642656070788
 20
143.5404214114344
 30
0.0
 11
14.46426560708414
 21
143.5404214114344
 31
0.0
  0
ARC
  5
1762
330
18
100
AcDbEntity
  8
1
  6
Continuous
100
AcDbCircle
 10
40.96426560707885
 20
118.5404214114344
 30
0.0
 40
0.4999999999999896
100
AcDbArc
 50
270.0
 51
0.000000000000007
  0
ARC
  5
1763
330
18
100
AcDbEntity
  8
1
  6
Continuous
100
AcDbCircle
 10
40.96426560707885
 20
168.5404214114344
 30
0.0
 40
0.5000000000000071
100
AcDbArc
 50
0.000000000000007
 51
90.0
  0
LINE
  5
1766
330
18
100
AcDbEntity
  8
1
  6
Continuous
100
AcDbLine
 10
41.46426560707886
 20
168.5404214114344
 30
0.0
 11
41.46426560707886
 21
118.5404214114346
 31
0.0
  0
LINE
  5
1767
330
18
100
AcDbEntity
  8
1
  6
Continuous
100
AcDbLine
 10
19.46426560708414
 20
117.0404214114346
 30
0.0
 11
19.46426560708414
 21
170.0404214114343
 31
0.0
  0
LINE
  5
1768
330
18
100
AcDbEntity
  8
1
  6
Continuous
100
AcDbLine
 10
19.96426560707396
 20
110.5404214114346
 30
0.0
 11
19.96426560707396
 21
176.5404214114346
 31
0.0
  0
LINE
  5
176A
330
18
100
AcDbEntity
  8
1
  6
Continuous
100
AcDbLine
 10
40.66426560708146
 20
110.0404214114348
 30
0.0
 11
20.46426560707415
 21
110.0404214114346
 31
0.0
  0
LINE
  5
176B
330
18
100
AcDbEntity
  8
1
  6
Continuous
100
AcDbLine
 10
41.16426560708446
 20
110.5404214114348
 30
0.0
 11
41.16426560708446
 21
117.0404214114346
 31
0.0
  0
ARC
  5
176D
330
18
100
AcDbEntity
  8
1
  6
Continuous
100
AcDbCircle
 10
40.66426560708146
 20
110.5404214114348
 30
0.0
 40
0.5000000000000249
100
AcDbArc
 50
270.0
 51
0.000000000000007
  0
ARC
  5
1773
330
18
100
AcDbEntity
  8
1
  6
Continuous
100
AcDbCircle
 10
20.46426560707415
 20
110.5404214114346
 30
0.0
 40
0.5000000000000249
100
AcDbArc
 50
180.0
 51
270.0
  0
ARC
  5
1776
330
18
100
AcDbEntity
  8
1
  6
Continuous
100
AcDbCircle
 10
21.46426560708414
 20
117.0404214114346
 30
0.0
 40
1.999999999999985
100
AcDbArc
 50
180.0
 51
221.4096221092709
  0
LINE
  5
177C
330
18
100
AcDbEntity
  8
1
  6
Continuous
100
AcDbLine
 10
40.66426560708146
 20
177.0404214114346
 30
0.0
 11
20.46426560707396
 21
177.0404214114346
 31
0.0
  0
ARC
  5
177D
330
18
100
AcDbEntity
  8
1
  6
Continuous
100
AcDbCircle
 10
40.66426560708146
 20
176.5404214114348
 30
0.0
 40
0.4999999999999849
100
AcDbArc
 50
0.000000000000007
 51
90.0
  0
LINE
  5
177F
330
18
100
AcDbEntity
  8
1
  6
Continuous
100
AcDbLine
 10
40.96426560707885
 20
169.0404214114346
 30
0.0
 11
38.07532970709435
 21
169.0404214114346
 31
0.0
  0
LINE
  5
1780
330
18
100
AcDbEntity
  8
1
  6
Continuous
100
AcDbLine
 10
37.90413974449006
 20
170.0404214114346
 30
0.0
 11
41.16426560708146
 21
170.0404214114346
 31
0.0
  0
LINE
  5
1783
330
18
100
AcDbEntity
  8
1
  6
Continuous
100
AcDbLine
 10
41.16426560708146
 20
170.0404214114346
 30
0.0
 11
41.16426560708146
 21
176.5404214114346
 31
0.0
  0
ARC
  5
1785
330
18
100
AcDbEntity
  8
1
  6
Continuous
100
AcDbCircle
 10
20.46426560707396
 20
176.5404214114346
 30
0.0
 40
0.4999999999999984
100
AcDbArc
 50
90.0
 51
180.0
  0
ARC
  5
1788
330
18
100
AcDbEntity
  8
1
  6
Continuous
100
AcDbCircle
 10
21.46426560708431
 20
170.0404214114343
 30
0.0
 40
1.999999999999999
100
AcDbArc
 50
138.5903778907293
 51
180.0
  0
LINE
  5
17E4
330
18
100
AcDbEntity
  8
1
  6
Continuous
100
AcDbLine
 10
37.90413974449006
 20
170.0404214114346
 30
0.0
 11
37.90413974449006
 21
117.0404214114342
 31
0.0
  0
LINE
  5
17E6
330
18
100
AcDbEntity
  8
1
  6
Continuous
100
AcDbLine
 10
37.90413974449006
 20
117.0404214114342
 30
0.0
 11
41.16426560708146
 21
117.0404214114342
 31
0.0
  0
LINE
  5
17E8
330
18
100
AcDbEntity
  8
1
  6
Continuous
100
AcDbLine
 10
40.96426560707885
 20
118.0404214114342
 30
0.0
 11
38.07532970709435
 21
118.0404214114342
 31
0.0
  0
LINE
  5
17EA
330
18
100
AcDbEntity
  8
1
  6
Continuous
100
AcDbLine
 10
40.46426560707884
 20
169.0404214114346
 30
0.0
 11
40.46426560707884
 21
118.0404214114342
 31
0.0
  0
LINE
  5
17EB
330
18
100
AcDbEntity
  8
1
  6
Continuous
100
AcDbLine
 10
37.90413974449006
 20
167.0404214114343
 30
0.0
 11
40.46426560707884
 21
167.0404214114343
 31
0.0
  0
LINE
  5
17EC
330
18
100
AcDbEntity
  8
1
  6
Continuous
100
AcDbLine
 10
37.90413974449006
 20
120.0404214114344
 30
0.0
 11
40.46426560707884
 21
120.0404214114344
 31
0.0
  0
ARC
  5
17ED
330
18
100
AcDbEntity
  8
1
  6
Continuous
100
AcDbCircle
 10
197.5466555566305
 20
169.5292775378901
 30
0.0
 40
0.7639609343627
100
AcDbArc
 50
320.2158784367028
 51
0.8358013324600459
  0
ARC
  5
17EE
330
18
100
AcDbEntity
  8
1
  6
Continuous
100
AcDbCircle
 10
197.5466555566305
 20
117.5515652849787
 30
0.0
 40
0.7639609343627
100
AcDbArc
 50
359.1641986675399
 51
39.78412156329722
  0
ARC
  5
17EF
330
18
100
AcDbEntity
  8
1
  6
Continuous
100
AcDbCircle
 10
38.66240380536413
 20
117.5515652849787
 30
0.0
 40
0.7639609343627
100
AcDbArc
 50
140.2158784367027
 51
172.998508102879
  0
ARC
  5
17F0
330
18
100
AcDbEntity
  8
1
  6
Continuous
100
AcDbCircle
 10
38.66240380536413
 20
169.5292775378901
 30
0.0
 40
0.7639609343627
100
AcDbArc
 50
187.0014918971273
 51
219.7841215632972
  0
ARC
  5
17F1
330
18
100
AcDbEntity
  8
1
  6
Continuous
100
AcDbCircle
 10
128.3045296809976
 20
176.5404214114344
 30
0.0
 40
0.5
100
AcDbArc
 50
359.9999999999988
 51
90.0
  0
ARC
  5
17F2
330
18
100
AcDbEntity
  8
1
  6
Continuous
100
AcDbCircle
 10
128.3045296810004
 20
110.5404214114344
 30
0.0
 40
0.5
100
AcDbArc
 50
270.0
 51
0.0
  0
LINE
  5
1802
330
18
100
AcDbEntity
  8
4
  6
CENTER
 48
0.25
100
AcDbLine
 10
293.385057828829
 20
182.0404214114345
 30
0.0
 11
293.3850578288261
 21
105.0404214114344
 31
0.0
  0
LINE
  5
1803
330
18
100
AcDbEntity
  8
1
  6
Continuous
100
AcDbLine
 10
318.8850578288289
 20
110.0404214114344
 30
0.0
 11
267.8850578288284
 21
110.0404214114344
 31
0.0
  0
LINE
  5
1804
330
18
100
AcDbEntity
  8
1
  6
Continuous
100
AcDbLine
 10
318.8850578288289
 20
177.0404214114344
 30
0.0
 11
267.8850578288284
 21
177.0404214114344
 31
0.0
  0
LINE
  5
1805
330
18
100
AcDbEntity
  8
4
  6
CENTER
 48
0.25
100
AcDbLine
 10
262.3850578288284
 20
143.5404214114344
 30
0.0
 11
324.3850578288289
 21
143.5404214114344
 31
0.0
  0
LINE
  5
1806
330
18
100
AcDbEntity
  8
1
  6
Continuous
100
AcDbLine
 10
268.3850578288284
 20
111.0404214114344
 30
0.0
 11
318.3850578288289
 21
111.0404214114344
 31
0.0
  0
LINE
  5
1807
330
18
100
AcDbEntity
  8
1
  6
Continuous
100
AcDbLine
 10
268.3850578288284
 20
176.0404214114345
 30
0.0
 11
318.3850578288289
 21
176.0404214114344
 31
0.0
  0
LINE
  5
180C
330
18
100
AcDbEntity
  8
1
  6
Continuous
100
AcDbLine
 10
319.3850578288289
 20
176.5404214114344
 30
0.0
 11
319.3850578288289
 21
110.5404214114346
 31
0.0
  0
ARC
  5
1810
330
18
100
AcDbEntity
  8
1
  6
Continuous
100
AcDbCircle
 10
318.8850578288288
 20
110.5404214114346
 30
0.0
 40
0.5000000000000249
100
AcDbArc
 50
270.0000000000049
 51
0.000000000000007
  0
LINE
  5
1816
330
18
100
AcDbEntity
  8
1
  6
Continuous
100
AcDbLine
 10
282.6850578288258
 20
111.0404214114344
 30
0.0
 11
282.6850578288258
 21
117.0404214114344
 31
0.0
  0
ARC
  5
1819
330
18
100
AcDbEntity
  8
1
  6
Continuous
100
AcDbCircle
 10
318.8850578288289
 20
176.5404214114344
 30
0.0
 40
0.4999999999999984
100
AcDbArc
 50
0.000000000000007
 51
90.0
  0
LINE
  5
181F
330
18
100
AcDbEntity
  8
1
  6
Continuous
100
AcDbLine
 10
282.6850578288288
 20
170.0404214114343
 30
0.0
 11
282.6850578288288
 21
176.0404214114345
 31
0.0
  0
LINE
  5
1822
330
18
100
AcDbEntity
  8
1
  6
Continuous
100
AcDbLine
 10
267.3850578288284
 20
176.5404214114344
 30
0.0
 11
267.3850578288284
 21
110.5404214114344
 31
0.0
  0
LINE
  5
1824
330
18
100
AcDbEntity
  8
1
  6
Continuous
100
AcDbLine
 10
278.3850578288287
 20
117.5404214114344
 30
0.0
 11
278.3850578288286
 21
111.0404214114344
 31
0.0
  0
ARC
  5
1826
330
18
100
AcDbEntity
  8
1
  6
Continuous
100
AcDbCircle
 10
267.8850578288284
 20
110.5404214114344
 30
0.0
 40
0.5000000000000249
100
AcDbArc
 50
180.0
 51
270.0
  0
ARC
  5
1827
330
18
100
AcDbEntity
  8
1
  6
Continuous
100
AcDbCircle
 10
278.8850578288286
 20
117.5404214114344
 30
0.0
 40
0.5000000000000006
100
AcDbArc
 50
90.0
 51
180.0
  0
ARC
  5
182E
330
18
100
AcDbEntity
  8
1
  6
Continuous
100
AcDbCircle
 10
278.8850578288286
 20
169.5404214114343
 30
0.0
 40
0.5000000000000006
100
AcDbArc
 50
180.0
 51
270.0
  0
LINE
  5
182F
330
18
100
AcDbEntity
  8
1
  6
Continuous
100
AcDbLine
 10
278.3850578288288
 20
176.0404214114345
 30
0.0
 11
278.3850578288287
 21
169.5404214114343
 31
0.0
  0
ARC
  5
1830
330
18
100
AcDbEntity
  8
1
  6
Continuous
100
AcDbCircle
 10
267.8850578288284
 20
176.5404214114344
 30
0.0
 40
0.5000000000000027
100
AcDbArc
 50
90.0
 51
180.0
  0
LINE
  5
185C
330
18
100
AcDbEntity
  8
4
  6
CENTER
100
AcDbLine
 10
319.8850578288277
 20
143.5404214114344
 30
0.0
 11
266.8850578288275
 21
143.5404214114344
 31
0.0
  0
LINE
  5
185D
330
18
100
AcDbEntity
  8
1
  6
Continuous
100
AcDbLine
 10
288.3850578288275
 20
126.2404214114346
 30
0.0
 11
295.3850578288276
 21
126.2404214114346
 31
0.0
  0
LINE
  5
185E
330
18
100
AcDbEntity
  8
1
  6
Continuous
100
AcDbLine
 10
295.3850578288276
 20
126.7404214114346
 30
0.0
 11
288.8850578288275
 21
126.7404214114346
 31
0.0
  0
LINE
  5
185F
330
18
100
AcDbEntity
  8
1
  6
Continuous
100
AcDbLine
 10
295.3850578288276
 20
160.8404214114346
 30
0.0
 11
288.3850578288278
 21
160.8404214114346
 31
0.0
  0
LINE
  5
1860
330
18
100
AcDbEntity
  8
1
  6
Continuous
100
AcDbLine
 10
288.8850578288277
 20
160.3404214114345
 30
0.0
 11
295.3850578288276
 21
160.3404214114345
 31
0.0
  0
LINE
  5
1862
330
18
100
AcDbEntity
  8
1
  6
Continuous
100
AcDbLine
 10
302.3850578288275
 20
174.0404214114344
 30
0.0
 11
284.3850578288277
 21
174.0404214114344
 31
0.0
  0
LINE
  5
1863
330
18
100
AcDbEntity
  8
1
  6
Continuous
100
AcDbLine
 10
302.3850578288275
 20
175.2404214114346
 30
0.0
 11
284.3850578288277
 21
175.2404214114346
 31
0.0
  0
LINE
  5
1864
330
18
100
AcDbEntity
  8
1
  6
Continuous
100
AcDbLine
 10
302.3850578288275
 20
174.2404214114347
 30
0.0
 11
284.3850578288277
 21
174.2404214114347
 31
0.0
  0
LINE
  5
1867
330
18
100
AcDbEntity
  8
1
  6
Continuous
100
AcDbLine
 10
312.0850578288277
 20
173.5404214114344
 30
0.0
 11
284.2850578288277
 21
173.5404214114344
 31
0.0
  0
LINE
  5
1868
330
18
100
AcDbEntity
  8
1
  6
Continuous
100
AcDbLine
 10
312.3850578288277
 20
173.2404214114346
 30
0.0
 11
283.9850578288277
 21
173.2404214114346
 31
0.0
  0
LINE
  5
1869
330
18
100
AcDbEntity
  8
1
  6
Continuous
100
AcDbLine
 10
318.3850578288277
 20
172.0404214114346
 30
0.0
 11
283.3850578288277
 21
172.0404214114346
 31
0.0
  0
LINE
  5
186A
330
18
100
AcDbEntity
  8
1
  6
Continuous
100
AcDbLine
 10
311.8850578288277
 20
170.0404214114346
 30
0.0
 11
308.8850578288277
 21
170.0404214114346
 31
0.0
  0
LINE
  5
186B
330
18
100
AcDbEntity
  8
1
  6
Continuous
100
AcDbLine
 10
301.8850578288277
 20
169.0404214114346
 30
0.0
 11
268.3850578288276
 21
169.0404214114346
 31
0.0
  0
LINE
  5
186C
330
18
100
AcDbEntity
  8
1
  6
Continuous
100
AcDbLine
 10
295.3850578288276
 20
167.0404214114346
 30
0.0
 11
284.3850578288275
 21
167.0404214114346
 31
0.0
  0
LINE
  5
186D
330
18
100
AcDbEntity
  8
1
  6
Continuous
100
AcDbLine
 10
295.3850578288276
 20
156.0404214114346
 30
0.0
 11
284.3850578288275
 21
156.0404214114346
 31
0.0
  0
LINE
  5
186E
330
18
100
AcDbEntity
  8
1
  6
Continuous
100
AcDbLine
 10
295.3850578288276
 20
131.0404214114344
 30
0.0
 11
284.3850578288275
 21
131.0404214114344
 31
0.0
  0
LINE
  5
1870
330
18
100
AcDbEntity
  8
1
  6
Continuous
100
AcDbLine
 10
301.8850578288277
 20
118.0404214114346
 30
0.0
 11
268.3850578288276
 21
118.0404214114344
 31
0.0
  0
LINE
  5
1875
330
18
100
AcDbEntity
  8
4
  6
CENTER
100
AcDbLine
 10
293.3850578288276
 20
177.7404214114346
 30
0.0
 11
293.3850578288275
 21
109.3404214114342
 31
0.0
  0
LINE
  5
1896
330
18
100
AcDbEntity
  8
4
  6
CENTER
100
AcDbLine
 10
310.3850578288277
 20
129.7904214114344
 30
0.0
 11
310.3850578288277
 21
122.2904214114344
 31
0.0
  0
LINE
  5
1897
330
18
100
AcDbEntity
  8
4
  6
CENTER
100
AcDbLine
 10
306.6350578288277
 20
126.0404214114344
 30
0.0
 11
314.1350578288277
 21
126.0404214114344
 31
0.0
  0
CIRCLE
  5
1898
330
18
100
AcDbEntity
  8
1
  6
Continuous
100
AcDbCircle
 10
310.3850578288277
 20
126.0404214114344
 30
0.0
 40
2.25
  0
LINE
  5
189C
330
18
100
AcDbEntity
  8
1
  6
Continuous
100
AcDbLine
 10
302.3850578288275
 20
174.2404214114347
 30
0.0
 11
302.3850578288275
 21
175.2404214114346
 31
0.0
  0
LINE
  5
189D
330
18
100
AcDbEntity
  8
1
  6
Continuous
100
AcDbLine
 10
309.3850578288277
 20
174.0404214114344
 30
0.0
 11
309.3850578288277
 21
175.5404214114344
 31
0.0
  0
LINE
  5
189E
330
18
100
AcDbEntity
  8
1
  6
Continuous
100
AcDbLine
 10
305.3850578288276
 20
174.0404214114344
 30
0.0
 11
305.3850578288276
 21
175.5404214114344
 31
0.0
  0
LINE
  5
189F
330
18
100
AcDbEntity
  8
1
  6
Continuous
100
AcDbLine
 10
309.8850578288277
 20
174.0404214114344
 30
0.0
 11
304.8850578288277
 21
174.0404214114344
 31
0.0
  0
LINE
  5
18A0
330
18
100
AcDbEntity
  8
4
  6
CENTER
100
AcDbLine
 10
310.3850578288277
 20
164.7904214114344
 30
0.0
 11
310.3850578288277
 21
157.2904214114344
 31
0.0
  0
CIRCLE
  5
18A1
330
18
100
AcDbEntity
  8
1
  6
Continuous
100
AcDbCircle
 10
310.3850578288277
 20
161.0404214114344
 30
0.0
 40
2.25
  0
LINE
  5
18A2
330
18
100
AcDbEntity
  8
4
  6
CENTER
100
AcDbLine
 10
306.6350578288277
 20
161.0404214114344
 30
0.0
 11
314.1350578288277
 21
161.0404214114344
 31
0.0
  0
LINE
  5
18A3
330
18
100
AcDbEntity
  8
1
  6
Continuous
100
AcDbLine
 10
308.8850578288277
 20
169.5404214114345
 30
0.0
 11
308.8850578288277
 21
172.0404214114346
 31
0.0
  0
LINE
  5
18A4
330
18
100
AcDbEntity
  8
1
  6
Continuous
100
AcDbLine
 10
311.3850578288277
 20
169.0404214114346
 30
0.0
 11
309.3850578288277
 21
169.0404214114346
 31
0.0
  0
LINE
  5
18A5
330
18
100
AcDbEntity
  8
1
  6
Continuous
100
AcDbLine
 10
311.8850578288277
 20
172.0404214114346
 30
0.0
 11
311.8850578288277
 21
169.5404214114345
 31
0.0
  0
ARC
  5
18A6
330
18
100
AcDbEntity
  8
1
  6
Continuous
100
AcDbCircle
 10
309.3850578288277
 20
169.5404214114345
 30
0.0
 40
0.4999999999999988
100
AcDbArc
 50
180.0
 51
270.0
  0
ARC
  5
18A7
330
18
100
AcDbEntity
  8
1
  6
Continuous
100
AcDbCircle
 10
311.3850578288277
 20
169.5404214114345
 30
0.0
 40
0.4999999999999993
100
AcDbArc
 50
270.0
 51
0.000000000000007
  0
LINE
  5
18A8
330
18
100
AcDbEntity
  8
1
  6
Continuous
100
AcDbLine
 10
312.0850578288277
 20
173.5404214114344
 30
0.0
 11
312.3850578288277
 21
173.2404214114346
 31
0.0
  0
LINE
  5
18A9
330
18
100
AcDbEntity
  8
1
  6
Continuous
100
AcDbLine
 10
312.3850578288277
 20
173.2404214114346
 30
0.0
 11
312.3850578288277
 21
172.0404214114346
 31
0.0
  0
LINE
  5
18AA
330
18
100
AcDbEntity
  8
1
  6
Continuous
100
AcDbLine
 10
309.8850578288277
 20
173.5404214114344
 30
0.0
 11
309.8850578288277
 21
174.0404214114344
 31
0.0
  0
LINE
  5
18B0
330
18
100
AcDbEntity
  8
1
  6
Continuous
100
AcDbLine
 10
300.3350578288277
 20
170.0404214114344
 30
0.0
 11
300.3350578288277
 21
169.0404214114346
 31
0.0
  0
LINE
  5
18B1
330
18
100
AcDbEntity
  8
1
  6
Continuous
100
AcDbLine
 10
302.3850578288271
 20
172.0404214114346
 30
0.0
 11
302.3850578288277
 21
169.5404214114345
 31
0.0
  0
ARC
  5
18B2
330
18
100
AcDbEntity
  8
1
  6
Continuous
100
AcDbCircle
 10
301.8850578288277
 20
169.5404214114345
 30
0.0
 40
0.5000000000000027
100
AcDbArc
 50
270.0
 51
0.000000000000007
  0
LINE
  5
18B3
330
18
100
AcDbEntity
  8
1
  6
Continuous
100
AcDbLine
 10
302.3850578288275
 20
173.5404214114344
 30
0.0
 11
302.3850578288275
 21
174.0404214114344
 31
0.0
  0
LINE
  5
18B4
330
18
100
AcDbEntity
  8
1
  6
Continuous
100
AcDbLine
 10
304.8850578288277
 20
173.5404214114344
 30
0.0
 11
304.8850578288277
 21
174.0404214114346
 31
0.0
  0
LINE
  5
18B5
330
18
100
AcDbEntity
  8
1
  6
Continuous
100
AcDbLine
 10
291.5850578288275
 20
174.2404214114347
 30
0.0
 11
291.3850578288274
 21
174.0404214114349
 31
0.0
  0
LINE
  5
18B6
330
18
100
AcDbEntity
  8
1
  6
Continuous
100
AcDbLine
 10
295.1850578288276
 20
174.2404214114345
 30
0.0
 11
295.3850578288276
 21
174.0404214114344
 31
0.0
  0
LINE
  5
18B7
330
18
100
AcDbEntity
  8
1
  6
Continuous
100
AcDbLine
 10
305.3850578288276
 20
175.5404214114344
 30
0.0
 11
309.3850578288277
 21
175.5404214114344
 31
0.0
  0
LINE
  5
18BC
330
18
100
AcDbEntity
  8
1
  6
Continuous
100
AcDbLine
 10
294.4850578288276
 20
175.2404214114346
 30
0.0
 11
294.4850578288276
 21
176.0404214114346
 31
0.0
  0
LINE
  5
18BD
330
18
100
AcDbEntity
  8
1
  6
Continuous
100
AcDbLine
 10
292.2850578288276
 20
175.2404214114346
 30
0.0
 11
292.2850578288276
 21
176.0404214114346
 31
0.0
  0
LINE
  5
18C2
330
18
100
AcDbEntity
  8
1
  6
Continuous
100
AcDbLine
 10
284.3850578288275
 20
118.0404214114345
 30
0.0
 11
284.3850578288275
 21
135.0404214114344
 31
0.0
  0
LINE
  5
18C5
330
18
100
AcDbEntity
  8
1
  6
Continuous
100
AcDbLine
 10
288.3850578288275
 20
120.0404214114346
 30
0.0
 11
288.3850578288275
 21
126.2404214114346
 31
0.0
  0
CIRCLE
  5
18CE
330
18
100
AcDbEntity
  8
1
  6
Continuous
100
AcDbCircle
 10
276.3850578288276
 20
126.0404214114344
 30
0.0
 40
2.25
  0
LINE
  5
18CF
330
18
100
AcDbEntity
  8
4
  6
CENTER
100
AcDbLine
 10
272.6350578288275
 20
126.0404214114344
 30
0.0
 11
280.1350578288275
 21
126.0404214114344
 31
0.0
  0
LINE
  5
18D1
330
18
100
AcDbEntity
  8
1
  6
Continuous
100
AcDbLine
 10
288.8850578288275
 20
126.7404214114345
 30
0.0
 11
288.3850578288275
 21
126.2404214114345
 31
0.0
  0
LINE
  5
18D2
330
18
100
AcDbEntity
  8
1
  6
Continuous
100
AcDbLine
 10
290.3850578288277
 20
131.0404214114345
 30
0.0
 11
290.3850578288275
 21
126.7404214114346
 31
0.0
  0
LINE
  5
18D3
330
18
100
AcDbEntity
  8
4
  6
CENTER
100
AcDbLine
 10
276.3850578288276
 20
129.7904214114344
 30
0.0
 11
276.3850578288276
 21
122.2904214114344
 31
0.0
  0
LINE
  5
18DB
330
18
100
AcDbEntity
  8
1
  6
Continuous
100
AcDbLine
 10
284.3850578288277
 20
174.2404214114347
 30
0.0
 11
284.3850578288277
 21
175.2404214114346
 31
0.0
  0
LINE
  5
18DC
330
18
100
AcDbEntity
  8
4
  6
CENTER
100
AcDbLine
 10
272.6350578288275
 20
161.0404214114344
 30
0.0
 11
280.1350578288275
 21
161.0404214114344
 31
0.0
  0
CIRCLE
  5
18DD
330
18
100
AcDbEntity
  8
1
  6
Continuous
100
AcDbCircle
 10
276.3850578288276
 20
161.0404214114344
 30
0.0
 40
2.25
  0
LINE
  5
18DF
330
18
100
AcDbEntity
  8
4
  6
CENTER
100
AcDbLine
 10
276.3850578288276
 20
164.7904214114344
 30
0.0
 11
276.3850578288276
 21
157.2904214114344
 31
0.0
  0
LINE
  5
18E0
330
18
100
AcDbEntity
  8
1
  6
Continuous
100
AcDbLine
 10
284.3850578288275
 20
152.0404214114344
 30
0.0
 11
284.3850578288275
 21
169.0404214114346
 31
0.0
  0
LINE
  5
18E1
330
18
100
AcDbEntity
  8
1
  6
Continuous
100
AcDbLine
 10
288.3850578288278
 20
167.0404214114346
 30
0.0
 11
288.3850578288278
 21
160.8404214114346
 31
0.0
  0
LINE
  5
18E2
330
18
100
AcDbEntity
  8
1
  6
Continuous
100
AcDbLine
 10
288.8850578288277
 20
160.3404214114344
 30
0.0
 11
288.3850578288278
 21
160.8404214114345
 31
0.0
  0
LINE
  5
18E3
330
18
100
AcDbEntity
  8
1
  6
Continuous
100
AcDbLine
 10
290.3850578288277
 20
160.3404214114345
 30
0.0
 11
290.3850578288277
 21
156.0404214114346
 31
0.0
  0
LINE
  5
18E5
330
18
100
AcDbEntity
  8
1
  6
Continuous
100
AcDbLine
 10
286.4350578288277
 20
170.0404214114344
 30
0.0
 11
286.4350578288277
 21
169.0404214114346
 31
0.0
  0
LINE
  5
18E6
330
18
100
AcDbEntity
  8
1
  6
Continuous
100
AcDbLine
 10
283.3850578288277
 20
172.0404214114346
 30
0.0
 11
283.3850578288277
 21
170.0404214114346
 31
0.0
  0
LINE
  5
18E7
330
18
100
AcDbEntity
  8
1
  6
Continuous
100
AcDbLine
 10
284.2850578288277
 20
173.5404214114343
 30
0.0
 11
283.9850578288276
 21
173.2404214114344
 31
0.0
  0
LINE
  5
18E8
330
18
100
AcDbEntity
  8
1
  6
Continuous
100
AcDbLine
 10
283.9850578288277
 20
173.2404214114346
 30
0.0
 11
283.9850578288277
 21
172.0404214114346
 31
0.0
  0
LINE
  5
18E9
330
18
100
AcDbEntity
  8
1
  6
Continuous
100
AcDbLine
 10
284.3850578288277
 20
173.5404214114344
 30
0.0
 11
284.3850578288277
 21
174.0404214114344
 31
0.0
  0
LINE
  5
18EA
330
18
100
AcDbEntity
  8
1
  6
Continuous
100
AcDbLine
 10
277.8850578288275
 20
169.0404214114346
 30
0.0
 11
277.8850578288275
 21
166.5404214114346
 31
0.0
  0
LINE
  5
18EB
330
18
100
AcDbEntity
  8
1
  6
Continuous
100
AcDbLine
 10
274.8850578288275
 20
166.5404214114346
 30
0.0
 11
274.8850578288275
 21
169.0404214114346
 31
0.0
  0
LINE
  5
18EC
330
18
100
AcDbEntity
  8
1
  6
Continuous
100
AcDbLine
 10
277.3850578288275
 20
166.0404214114344
 30
0.0
 11
275.3850578288275
 21
166.0404214114344
 31
0.0
  0
ARC
  5
18ED
330
18
100
AcDbEntity
  8
1
  6
Continuous
100
AcDbCircle
 10
277.3850578288275
 20
166.5404214114346
 30
0.0
 40
0.4999999999999961
100
AcDbArc
 50
270.0
 51
0.000000000000007
  0
ARC
  5
18EE
330
18
100
AcDbEntity
  8
1
  6
Continuous
100
AcDbCircle
 10
275.3850578288275
 20
166.5404214114346
 30
0.0
 40
0.4999999999999984
100
AcDbArc
 50
180.0
 51
270.0
  0
LINE
  5
195A
330
18
100
AcDbEntity
  8
1
  6
Continuous
100
AcDbLine
 10
302.3850578288275
 20
170.0404214114346
 30
0.0
 11
282.6850578288288
 21
170.0404214114346
 31
0.0
  0
LINE
  5
195B
330
18
100
AcDbEntity
  8
1
  6
Continuous
100
AcDbLine
 10
295.3850578288276
 20
118.0404214114345
 30
0.0
 11
295.3850578288276
 21
169.0404214114346
 31
0.0
  0
LINE
  5
195C
330
18
100
AcDbEntity
  8
1
  6
Continuous
100
AcDbLine
 10
289.0261588852871
 20
172.0404214114346
 30
0.0
 11
289.0261588852871
 21
170.0404214114346
 31
0.0
  0
LINE
  5
195D
330
18
100
AcDbEntity
  8
1
  6
Continuous
100
AcDbLine
 10
297.7439567723683
 20
172.0404214114346
 30
0.0
 11
297.7439567723683
 21
170.0404214114346
 31
0.0
  0
LINE
  5
195E
330
18
100
AcDbEntity
  8
1
  6
Continuous
100
AcDbLine
 10
277.8850578288275
 20
167.0404214114346
 30
0.0
 11
274.8850578288275
 21
167.0404214114346
 31
0.0
  0
LINE
  5
195F
330
18
100
AcDbEntity
  8
1
  6
Continuous
100
AcDbLine
 10
277.8850578288275
 20
120.0404214114342
 30
0.0
 11
274.8850578288275
 21
120.0404214114342
 31
0.0
  0
LINE
  5
1960
330
18
100
AcDbEntity
  8
1
  6
Continuous
100
AcDbLine
 10
274.8850578288275
 20
120.5404214114342
 30
0.0
 11
274.8850578288275
 21
118.0404214114342
 31
0.0
  0
LINE
  5
1961
330
18
100
AcDbEntity
  8
1
  6
Continuous
100
AcDbLine
 10
277.8850578288275
 20
118.0404214114342
 30
0.0
 11
277.8850578288275
 21
120.5404214114342
 31
0.0
  0
ARC
  5
1962
330
18
100
AcDbEntity
  8
1
  6
Continuous
100
AcDbCircle
 10
275.3850578288275
 20
120.5404214114342
 30
0.0
 40
0.4999999999999984
100
AcDbArc
 50
90.00000000000005
 51
180.0
  0
ARC
  5
1963
330
18
100
AcDbEntity
  8
1
  6
Continuous
100
AcDbCircle
 10
277.3850578288275
 20
120.5404214114342
 30
0.0
 40
0.4999999999999961
100
AcDbArc
 50
0.0
 51
90.00000000000005
  0
LINE
  5
1964
330
18
100
AcDbEntity
  8
1
  6
Continuous
100
AcDbLine
 10
277.3850578288275
 20
121.0404214114344
 30
0.0
 11
275.3850578288275
 21
121.0404214114344
 31
0.0
  0
LINE
  5
1965
330
18
100
AcDbEntity
  8
1
  6
Continuous
100
AcDbLine
 10
295.3850578288276
 20
120.0404214114342
 30
0.0
 11
284.3850578288275
 21
120.0404214114342
 31
0.0
  0
LINE
  5
1966
330
18
100
AcDbEntity
  8
1
  6
Continuous
100
AcDbLine
 10
302.3850578288275
 20
117.0404214114342
 30
0.0
 11
282.6850578288258
 21
117.0404214114342
 31
0.0
  0
LINE
  5
1967
330
18
100
AcDbEntity
  8
1
  6
Continuous
100
AcDbLine
 10
318.3850578288277
 20
115.0404214114342
 30
0.0
 11
283.3850578288277
 21
115.0404214114342
 31
0.0
  0
LINE
  5
1968
330
18
100
AcDbEntity
  8
1
  6
Continuous
100
AcDbLine
 10
312.3850578288277
 20
113.8404214114342
 30
0.0
 11
283.9850578288277
 21
113.8404214114342
 31
0.0
  0
LINE
  5
1969
330
18
100
AcDbEntity
  8
1
  6
Continuous
100
AcDbLine
 10
312.0850578288277
 20
113.5404214114344
 30
0.0
 11
284.2850578288277
 21
113.5404214114344
 31
0.0
  0
LINE
  5
196A
330
18
100
AcDbEntity
  8
1
  6
Continuous
100
AcDbLine
 10
302.3850578288275
 20
112.8404214114341
 30
0.0
 11
284.3850578288277
 21
112.8404214114341
 31
0.0
  0
LINE
  5
196B
330
18
100
AcDbEntity
  8
1
  6
Continuous
100
AcDbLine
 10
302.3850578288275
 20
111.8404214114341
 30
0.0
 11
284.3850578288277
 21
111.8404214114341
 31
0.0
  0
LINE
  5
196C
330
18
100
AcDbEntity
  8
1
  6
Continuous
100
AcDbLine
 10
302.3850578288275
 20
113.0404214114344
 30
0.0
 11
284.3850578288277
 21
113.0404214114344
 31
0.0
  0
LINE
  5
196D
330
18
100
AcDbEntity
  8
1
  6
Continuous
100
AcDbLine
 10
284.3850578288277
 20
112.8404214114341
 30
0.0
 11
284.3850578288277
 21
111.8404214114341
 31
0.0
  0
LINE
  5
196E
330
18
100
AcDbEntity
  8
1
  6
Continuous
100
AcDbLine
 10
284.3850578288277
 20
113.5404214114344
 30
0.0
 11
284.3850578288277
 21
113.0404214114344
 31
0.0
  0
LINE
  5
196F
330
18
100
AcDbEntity
  8
1
  6
Continuous
100
AcDbLine
 10
283.9850578288277
 20
113.8404214114342
 30
0.0
 11
283.9850578288277
 21
115.0404214114342
 31
0.0
  0
LINE
  5
1970
330
18
100
AcDbEntity
  8
1
  6
Continuous
100
AcDbLine
 10
284.2850578288277
 20
113.5404214114345
 30
0.0
 11
283.9850578288276
 21
113.8404214114344
 31
0.0
  0
LINE
  5
1971
330
18
100
AcDbEntity
  8
1
  6
Continuous
100
AcDbLine
 10
283.3850578288277
 20
115.0404214114342
 30
0.0
 11
283.3850578288277
 21
117.0404214114342
 31
0.0
  0
LINE
  5
1972
330
18
100
AcDbEntity
  8
1
  6
Continuous
100
AcDbLine
 10
286.4350578288277
 20
117.0404214114344
 30
0.0
 11
286.4350578288277
 21
118.0404214114342
 31
0.0
  0
LINE
  5
1973
330
18
100
AcDbEntity
  8
1
  6
Continuous
100
AcDbLine
 10
305.3850578288276
 20
113.0404214114344
 30
0.0
 11
305.3850578288276
 21
111.5404214114344
 31
0.0
  0
LINE
  5
1974
330
18
100
AcDbEntity
  8
1
  6
Continuous
100
AcDbLine
 10
309.3850578288277
 20
113.0404214114344
 30
0.0
 11
309.3850578288277
 21
111.5404214114344
 31
0.0
  0
LINE
  5
1975
330
18
100
AcDbEntity
  8
1
  6
Continuous
100
AcDbLine
 10
302.3850578288275
 20
112.8404214114341
 30
0.0
 11
302.3850578288275
 21
111.8404214114341
 31
0.0
  0
LINE
  5
1976
330
18
100
AcDbEntity
  8
1
  6
Continuous
100
AcDbLine
 10
289.0261588852871
 20
115.0404214114342
 30
0.0
 11
289.0261588852871
 21
117.0404214114342
 31
0.0
  0
LINE
  5
1977
330
18
100
AcDbEntity
  8
1
  6
Continuous
100
AcDbLine
 10
295.1850578288276
 20
112.8404214114343
 30
0.0
 11
295.3850578288276
 21
113.0404214114343
 31
0.0
  0
LINE
  5
1978
330
18
100
AcDbEntity
  8
1
  6
Continuous
100
AcDbLine
 10
291.5850578288275
 20
112.8404214114341
 30
0.0
 11
291.3850578288274
 21
113.0404214114339
 31
0.0
  0
LINE
  5
1979
330
18
100
AcDbEntity
  8
1
  6
Continuous
100
AcDbLine
 10
297.7439567723683
 20
115.0404214114342
 30
0.0
 11
297.7439567723683
 21
117.0404214114342
 31
0.0
  0
ARC
  5
197A
330
18
100
AcDbEntity
  8
1
  6
Continuous
100
AcDbCircle
 10
301.8850578288277
 20
117.5404214114342
 30
0.0
 40
0.5000000000000027
100
AcDbArc
 50
0.0
 51
90.00000000000005
  0
LINE
  5
197B
330
18
100
AcDbEntity
  8
1
  6
Continuous
100
AcDbLine
 10
302.3850578288271
 20
115.0404214114342
 30
0.0
 11
302.3850578288277
 21
117.5404214114342
 31
0.0
  0
LINE
  5
197C
330
18
100
AcDbEntity
  8
1
  6
Continuous
100
AcDbLine
 10
302.3850578288275
 20
113.5404214114344
 30
0.0
 11
302.3850578288275
 21
113.0404214114344
 31
0.0
  0
LINE
  5
197D
330
18
100
AcDbEntity
  8
1
  6
Continuous
100
AcDbLine
 10
300.3350578288277
 20
117.0404214114344
 30
0.0
 11
300.3350578288277
 21
118.0404214114342
 31
0.0
  0
LINE
  5
197E
330
18
100
AcDbEntity
  8
1
  6
Continuous
100
AcDbLine
 10
311.8850578288277
 20
117.0404214114342
 30
0.0
 11
308.8850578288277
 21
117.0404214114342
 31
0.0
  0
ARC
  5
197F
330
18
100
AcDbEntity
  8
1
  6
Continuous
100
AcDbCircle
 10
311.3850578288277
 20
117.5404214114342
 30
0.0
 40
0.4999999999999993
100
AcDbArc
 50
0.0
 51
90.00000000000005
  0
LINE
  5
1980
330
18
100
AcDbEntity
  8
1
  6
Continuous
100
AcDbLine
 10
308.8850578288277
 20
117.5404214114342
 30
0.0
 11
308.8850578288277
 21
115.0404214114342
 31
0.0
  0
LINE
  5
1981
330
18
100
AcDbEntity
  8
1
  6
Continuous
100
AcDbLine
 10
304.8850578288277
 20
113.5404214114344
 30
0.0
 11
304.8850578288277
 21
113.0404214114342
 31
0.0
  0
LINE
  5
1982
330
18
100
AcDbEntity
  8
1
  6
Continuous
100
AcDbLine
 10
309.8850578288277
 20
113.5404214114344
 30
0.0
 11
309.8850578288277
 21
113.0404214114344
 31
0.0
  0
ARC
  5
1983
330
18
100
AcDbEntity
  8
1
  6
Continuous
100
AcDbCircle
 10
309.3850578288277
 20
117.5404214114342
 30
0.0
 40
0.4999999999999988
100
AcDbArc
 50
90.00000000000005
 51
180.0
  0
LINE
  5
1984
330
18
100
AcDbEntity
  8
1
  6
Continuous
100
AcDbLine
 10
311.3850578288277
 20
118.0404214114342
 30
0.0
 11
309.3850578288277
 21
118.0404214114342
 31
0.0
  0
LINE
  5
1985
330
18
100
AcDbEntity
  8
1
  6
Continuous
100
AcDbLine
 10
309.8850578288277
 20
113.0404214114344
 30
0.0
 11
304.8850578288277
 21
113.0404214114344
 31
0.0
  0
LINE
  5
1986
330
18
100
AcDbEntity
  8
1
  6
Continuous
100
AcDbLine
 10
311.8850578288277
 20
115.0404214114342
 30
0.0
 11
311.8850578288277
 21
117.5404214114342
 31
0.0
  0
LINE
  5
1987
330
18
100
AcDbEntity
  8
1
  6
Continuous
100
AcDbLine
 10
312.3850578288277
 20
113.8404214114342
 30
0.0
 11
312.3850578288277
 21
115.0404214114342
 31
0.0
  0
LINE
  5
1988
330
18
100
AcDbEntity
  8
1
  6
Continuous
100
AcDbLine
 10
312.0850578288277
 20
113.5404214114343
 30
0.0
 11
312.3850578288277
 21
113.8404214114342
 31
0.0
  0
LINE
  5
1989
330
18
100
AcDbEntity
  8
1
  6
Continuous
100
AcDbLine
 10
292.2850578288276
 20
111.8404214114341
 30
0.0
 11
292.2850578288276
 21
111.0404214114342
 31
0.0
  0
LINE
  5
198A
330
18
100
AcDbEntity
  8
1
  6
Continuous
100
AcDbLine
 10
294.4850578288276
 20
111.8404214114341
 30
0.0
 11
294.4850578288276
 21
111.0404214114342
 31
0.0
  0
LINE
  5
198F
330
18
100
AcDbEntity
  8
1
  6
Continuous
100
AcDbLine
 10
305.3850578288276
 20
111.5404214114344
 30
0.0
 11
309.3850578288277
 21
111.5404214114344
 31
0.0
  0
LINE
  5
1990
330
18
100
AcDbEntity
  8
1
  6
Continuous
100
AcDbLine
 10
294.3850578288273
 20
136.0404214114344
 30
0.0
 11
285.3850578288273
 21
136.0404214114344
 31
0.0
  0
LINE
  5
1991
330
18
100
AcDbEntity
  8
1
  6
Continuous
100
AcDbLine
 10
285.3850578288273
 20
151.0404214114344
 30
0.0
 11
294.3850578288273
 21
151.0404214114344
 31
0.0
  0
LINE
  5
19A5
330
18
100
AcDbEntity
  8
1
  6
Continuous
100
AcDbLine
 10
275.3850578288273
 20
135.5404214114344
 30
0.0
 11
275.3850578288273
 21
151.5404214114344
 31
0.0
  0
LINE
  5
19A7
330
18
100
AcDbEntity
  8
1
  6
Continuous
100
AcDbLine
 10
276.3850578288273
 20
152.5404214114344
 30
0.0
 11
284.3850578288273
 21
152.5404214114344
 31
0.0
  0
ARC
  5
19A8
330
18
100
AcDbEntity
  8
1
  6
Continuous
100
AcDbCircle
 10
276.3850578288273
 20
151.5404214114344
 30
0.0
 40
0.9999999999999998
100
AcDbArc
 50
89.99999999999998
 51
180.0
  0
ARC
  5
19AA
330
18
100
AcDbEntity
  8
1
  6
Continuous
100
AcDbCircle
 10
285.3850578288273
 20
152.0404214114344
 30
0.0
 40
1.0
100
AcDbArc
 50
180.0
 51
270.0
  0
LINE
  5
19AC
330
18
100
AcDbEntity
  8
1
  6
Continuous
100
AcDbLine
 10
284.3850578288273
 20
134.5404214114344
 30
0.0
 11
276.3850578288273
 21
134.5404214114344
 31
0.0
  0
ARC
  5
19AF
330
18
100
AcDbEntity
  8
1
  6
Continuous
100
AcDbCircle
 10
276.3850578288273
 20
135.5404214114344
 30
0.0
 40
0.9999999999999998
100
AcDbArc
 50
180.0
 51
270.0
  0
ARC
  5
19B3
330
18
100
AcDbEntity
  8
1
  6
Continuous
100
AcDbCircle
 10
285.3850578288273
 20
135.0404214114344
 30
0.0
 40
1.0
100
AcDbArc
 50
89.99999999999998
 51
180.0
  0
ARC
  5
19BA
330
18
100
AcDbEntity
  8
1
  6
Continuous
100
AcDbCircle
 10
294.3850578288273
 20
138.0404214114344
 30
0.0
 40
1.999999999999999
100
AcDbArc
 50
270.0
 51
300.0000000000094
  0
ARC
  5
19BC
330
18
100
AcDbEntity
  8
1
  6
Continuous
100
AcDbCircle
 10
294.3850578288273
 20
149.0404214114344
 30
0.0
 40
1.999999999999999
100
AcDbArc
 50
59.99999999999058
 51
89.99999999999998
  0
CIRCLE
  5
19BF
330
18
100
AcDbEntity
  8
1
  6
Continuous
100
AcDbCircle
 10
282.3850578288276
 20
143.5404214114344
 30
0.0
 40
4.0
  0
LINE
  5
1A11
330
18
100
AcDbEntity
  8
1
  6
Continuous
100
AcDbLine
 10
284.3850578288258
 20
111.0404214114344
 30
0.0
 11
284.3850578288258
 21
110.0404214114344
 31
0.0
  0
LINE
  5
1A12
330
18
100
AcDbEntity
  8
1
  6
Continuous
100
AcDbLine
 10
268.3850578288284
 20
176.0404214114345
 30
0.0
 11
268.3850578288284
 21
111.0404214114344
 31
0.0
  0
LINE
  5
1A13
330
18
100
AcDbEntity
  8
1
  6
Continuous
100
AcDbLine
 10
284.3850578288258
 20
176.0404214114344
 30
0.0
 11
284.3850578288258
 21
177.0404214114344
 31
0.0
  0
LINE
  5
1A14
330
18
100
AcDbEntity
  8
1
  6
Continuous
100
AcDbLine
 10
318.3850578288289
 20
176.0404214114344
 30
0.0
 11
318.3850578288289
 21
111.0404214114344
 31
0.0
  0
LINE
  5
1D57
330
18
100
AcDbEntity
  8
1
  6
Continuous
100
AcDbLine
 10
283.6850578288292
 20
176.0404214114344
 30
0.0
 11
283.6850578288292
 21
172.0404214114346
 31
0.0
  0
LINE
  5
1D58
330
18
100
AcDbEntity
  8
1
  6
Continuous
100
AcDbLine
 10
283.6850578288292
 20
111.0404214114344
 30
0.0
 11
283.6850578288292
 21
115.0404214114342
 31
0.0
  0
ENDSEC
  0
SECTION
  2
OBJECTS
  0
DICTIONARY
  5
C
330
0
100
AcDbDictionary
281
     1
  3
ACAD_CIP_PREVIOUS_PRODUCT_INFO
350
1DC2
  3
ACAD_COLOR
350
1DA5
  3
ACAD_DETAILVIEWSTYLE
350
1DBE
  3
ACAD_GROUP
350
D
  3
ACAD_LAYOUT
350
94
  3
ACAD_MATERIAL
350
1D73
  3
ACAD_MLEADERSTYLE
350
1DBA
  3
ACAD_MLINESTYLE
350
1B
  3
ACAD_PLOTSETTINGS
350
95
  3
ACAD_PLOTSTYLENAME
350
1D71
  3
ACAD_SCALELIST
350
1DA8
  3
ACAD_SECTIONVIEWSTYLE
350
1DBC
  3
ACAD_TABLESTYLE
350
1DA6
  3
ACAD_VISUALSTYLE
350
1D8C
  3
ACDB_RECOMPOSE_DATA
350
1DE0
  3
AcDbVariableDictionary
350
1DD3
  3
CONTENTDICTIONARY
350
3D
  3
DWGPROPS
350
1DE1
  0
DICTIONARY
  5
1DC3
330
E
100
AcDbDictionary
280
     1
281
     1
  3
ADSK_XREC_LAYER_RECONCILED
360
1DC4
  0
DICTIONARY
  5
1DC5
330
4E
100
AcDbDictionary
280
     1
281
     1
  3
ADSK_XREC_LAYER_RECONCILED
360
1DC6
  0
DICTIONARY
  5
1DC7
330
4F
100
AcDbDictionary
280
     1
281
     1
  3
ADSK_XREC_LAYER_RECONCILED
360
1DC8
  0
DICTIONARY
  5
1DC9
330
50
100
AcDbDictionary
280
     1
281
     1
  3
ADSK_XREC_LAYER_RECONCILED
360
1DCA
  0
DICTIONARY
  5
1DCB
330
51
100
AcDbDictionary
280
     1
281
     1
  3
ADSK_XREC_LAYER_RECONCILED
360
1DCC
  0
DICTIONARY
  5
1DCD
330
52
100
AcDbDictionary
280
     1
281
     1
  3
ADSK_XREC_LAYER_RECONCILED
360
1DCE
  0
DICTIONARY
  5
1DCF
330
53
100
AcDbDictionary
280
     1
281
     1
  3
ADSK_XREC_LAYER_RECONCILED
360
1DD0
  0
DICTIONARY
  5
1DD1
330
54
100
AcDbDictionary
280
     1
281
     1
  3
ADSK_XREC_LAYER_RECONCILED
360
1DD2
  0
DICTIONARY
  5
1D6C
330
18
100
AcDbDictionary
281
     1
  3
ACAD_LAYOUTSELFREF
350
1D6D
  0
DICTIONARY
  5
1D6A
330
15
100
AcDbDictionary
281
     1
  3
ACAD_LAYOUTSELFREF
350
1D6B
  0
XRECORD
  5
1DC2
102
{ACAD_REACTORS
330
C
102
}
330
C
100
AcDbXrecord
280
     1
300
ACDLT
300
2014
300
ACDLT_F_S
  0
DICTIONARY
  5
1DA5
102
{ACAD_REACTORS
330
C
102
}
330
C
100
AcDbDictionary
281
     1
  0
DICTIONARY
  5
1DBE
102
{ACAD_REACTORS
330
C
102
}
330
C
100
AcDbDictionary
281
     1
  3
Imperial24
350
1DBF
  0
DICTIONARY
  5
D
102
{ACAD_REACTORS
330
C
102
}
330
C
100
AcDbDictionary
281
     1
  0
DICTIONARY
  5
94
102
{ACAD_REACTORS
330
C
102
}
330
C
100
AcDbDictionary
281
     1
  3
Model
350
1DC0
  3
レイアウト1
350
1DC1
  0
DICTIONARY
  5
1D73
102
{ACAD_REACTORS
330
C
102
}
330
C
100
AcDbDictionary
281
     1
  3
ByBlock
350
1D7C
  3
ByLayer
350
1D74
  3
Global
350
1D84
  0
DICTIONARY
  5
1DBA
102
{ACAD_REACTORS
330
C
102
}
330
C
100
AcDbDictionary
281
     1
  3
Standard
350
1DBB
  0
DICTIONARY
  5
1B
102
{ACAD_REACTORS
330
C
102
}
330
C
100
AcDbDictionary
281
     1
  3
STANDARD
350
1C
  0
DICTIONARY
  5
95
102
{ACAD_REACTORS
330
C
102
}
330
C
100
AcDbDictionary
281
     1
  0
ACDBDICTIONARYWDFLT
  5
1D71
102
{ACAD_REACTORS
330
C
102
}
330
C
100
AcDbDictionary
281
     1
  3
Normal
350
1D72
100
AcDbDictionaryWithDefault
340
1D72
  0
DICTIONARY
  5
1DA8
102
{ACAD_REACTORS
330
C
102
}
330
C
100
AcDbDictionary
281
     1
  3
A0
350
1DA9
  3
A1
350
1DAA
  3
A2
350
1DAB
  3
A3
350
1DAC
  3
A4
350
1DAD
  3
A5
350
1DAE
  3
A6
350
1DAF
  3
A7
350
1DB0
  3
A8
350
1DB1
  3
A9
350
1DB2
  3
B0
350
1DB3
  3
B1
350
1DB4
  3
B2
350
1DB5
  3
B3
350
1DB6
  3
B4
350
1DB7
  3
B5
350
1DB8
  3
B6
350
1DB9
  0
DICTIONARY
  5
1DBC
102
{ACAD_REACTORS
330
C
102
}
330
C
100
AcDbDictionary
281
     1
  3
Imperial24
350
1DBD
  0
DICTIONARY
  5
1DA6
102
{ACAD_REACTORS
330
C
102
}
330
C
100
AcDbDictionary
281
     1
  3
Standard
350
1DA7
  0
DICTIONARY
  5
1D8C
102
{ACAD_REACTORS
330
C
102
}
330
C
100
AcDbDictionary
281
     1
  3
2dWireframe
350
1D92
  3
Basic
350
1D91
  3
Brighten
350
1D98
  3
ColorChange
350
1D9C
  3
Conceptual
350
1D95
  3
Dim
350
1D97
  3
EdgeColorOff
350
1DA4
  3
Facepattern
350
1D9B
  3
Flat
350
1D8D
  3
FlatWithEdges
350
1D8E
  3
Gouraud
350
1D8F
  3
GouraudWithEdges
350
1D90
  3
Hidden
350
1D94
  3
JitterOff
350
1DA2
  3
Linepattern
350
1D9A
  3
OverhangOff
350
1DA3
  3
Realistic
350
1D96
  3
Shaded
350
1DA1
  3
Shaded with edges
350
1DA0
  3
Shades of Gray
350
1D9D
  3
Sketchy
350
1D9E
  3
Thicken
350
1D99
  3
Wireframe
350
1D93
  3
X-Ray
350
1D9F
  0
XRECORD
  5
1DE0
102
{ACAD_REACTORS
330
C
102
}
330
C
100
AcDbXrecord
280
     1
 90
        1
330
1DA7
  0
DICTIONARY
  5
1DD3
102
{ACAD_REACTORS
330
C
102
}
330
C
100
AcDbDictionary
281
     1
  3
CANNOSCALE
350
1DD8
  3
CMLEADERSTYLE
350
1DD5
  3
CTABLESTYLE
350
1DD4
  3
CVIEWDETAILSTYLE
350
1DD6
  3
CVIEWSECTIONSTYLE
350
1DD7
  3
DIMASSOC
350
1DDB
  3
INDEXCTL
350
1DDA
  3
SORTENTS
350
1DD9
  3
XCLIPFRAME
350
1DDC
  0
DICTIONARY
  5
3D
102
{ACAD_REACTORS
330
C
102
}
330
C
100
AcDbDictionary
281
     1
  0
XRECORD
  5
1DE1
102
{ACAD_REACTORS
330
C
102
}
330
C
100
AcDbXrecord
280
     1
  1
DWGPROPS COOKIE
  2

  3

  4

  6

  7

  8
Yoshitsune
  9

300
=
301
=
302
=
303
=
304
=
305
=
306
=
307
=
308
=
309
=
 40
0.0999217361111111
 41
2452051.395592083
 42
2457192.616943738
  1

 90
        0
  0
XRECORD
  5
1DC4
102
{ACAD_REACTORS
330
1DC3
102
}
330
1DC3
100
AcDbXrecord
280
     1
290
     1
  0
XRECORD
  5
1DC6
102
{ACAD_REACTORS
330
1DC5
102
}
330
1DC5
100
AcDbXrecord
280
     1
290
     1
  0
XRECORD
  5
1DC8
102
{ACAD_REACTORS
330
1DC7
102
}
330
1DC7
100
AcDbXrecord
280
     1
290
     1
  0
XRECORD
  5
1DCA
102
{ACAD_REACTORS
330
1DC9
102
}
330
1DC9
100
AcDbXrecord
280
     1
290
     1
  0
XRECORD
  5
1DCC
102
{ACAD_REACTORS
330
1DCB
102
}
330
1DCB
100
AcDbXrecord
280
     1
290
     1
  0
XRECORD
  5
1DCE
102
{ACAD_REACTORS
330
1DCD
102
}
330
1DCD
100
AcDbXrecord
280
     1
290
     1
  0
XRECORD
  5
1DD0
102
{ACAD_REACTORS
330
1DCF
102
}
330
1DCF
100
AcDbXrecord
280
     1
290
     1
  0
XRECORD
  5
1DD2
102
{ACAD_REACTORS
330
1DD1
102
}
330
1DD1
100
AcDbXrecord
280
     1
290
     1
  0
XRECORD
  5
1D6D
102
{ACAD_REACTORS
330
1D6C
102
}
330
1D6C
100
AcDbXrecord
280
     1
340
18
  0
XRECORD
  5
1D6B
102
{ACAD_REACTORS
330
1D6A
102
}
330
1D6A
100
AcDbXrecord
280
     1
340
15
  0
ACDBDETAILVIEWSTYLE
  5
1DBF
102
{ACAD_XDICTIONARY
360
1E19
102
}
102
{ACAD_REACTORS
330
1DBE
102
}
330
1DBE
100
AcDbModelDocViewStyle
 70
     0
  3
Imperial24
290
     0
100
AcDbDetailViewStyle
 70
     0
 71
     0
 90
        3
 71
     1
340
F
 40
0.24
340
0
 40
0.24
300

 40
0.36
280
     3
 71
     2
340
14
 90
       25
 71
     3
340
F
 40
0.24
 90
        1
 40
0.75
 90
        1
300
%<\AcVar ViewType \f "%tc1">% %<\AcVar ViewDetailId>%\PSCALE %<\AcVar ViewScale \f "%sn">%
 71
     4
340
14
 90
       25
340
14
 90
       25
280
     0
  0
LAYOUT
  5
1DC0
102
{ACAD_XDICTIONARY
360
1E1B
102
}
102
{ACAD_REACTORS
330
94
102
}
330
94
100
AcDbPlotSettings
  1

  2
Canon LBP9100C
  4

  6

 40
0.0
 41
0.0
 42
0.0
 43
0.0
 44
0.0
 45
0.0
 46
0.0
 47
0.0
 48
0.0
 49
0.0
140
0.0
141
0.0
142
1.0
143
1.0
 70
  1712
 72
     0
 73
     0
 74
     0
  7

 75
     0
147
1.0
148
0.0
149
0.0
100
AcDbLayout
  1
Model
 70
     1
 71
     0
 10
0.0
 20
0.0
 11
12.0
 21
9.0
 12
0.0
 22
0.0
 32
0.0
 14
0.0
 24
0.0
 34
0.0
 15
0.0
 25
0.0
 35
0.0
146
0.0
 13
0.0
 23
0.0
 33
0.0
 16
1.0
 26
0.0
 36
0.0
 17
0.0
 27
1.0
 37
0.0
 76
     0
330
18
331
1D69
  0
LAYOUT
  5
1DC1
102
{ACAD_XDICTIONARY
360
1E1D
102
}
102
{ACAD_REACTORS
330
94
102
}
330
94
100
AcDbPlotSettings
  1

  2
Canon LBP9100C
  4

  6

 40
0.0
 41
0.0
 42
0.0
 43
0.0
 44
0.0
 45
0.0
 46
0.0
 47
0.0
 48
0.0
 49
0.0
140
0.0
141
0.0
142
1.0
143
1.0
 70
   688
 72
     0
 73
     0
 74
     5
  7

 75
    16
147
1.0
148
0.0
149
0.0
100
AcDbLayout
  1
レイアウト1
 70
     1
 71
     1
 10
0.0
 20
0.0
 11
420.0
 21
297.0
 12
0.0
 22
0.0
 32
0.0
 14
1.000000000000000E+20
 24
1.000000000000000E+20
 34
1.000000000000000E+20
 15
-1.000000000000000E+20
 25
-1.000000000000000E+20
 35
-1.000000000000000E+20
146
0.0
 13
0.0
 23
0.0
 33
0.0
 16
1.0
 26
0.0
 36
0.0
 17
0.0
 27
1.0
 37
0.0
 76
     0
330
15
  0
MATERIAL
  5
1D7C
102
{ACAD_XDICTIONARY
360
1D7D
102
}
102
{ACAD_REACTORS
330
1D73
102
}
330
1D73
100
AcDbMaterial
  1
ByBlock
 72
     0
 43
0.0208333333333333
 43
0.0
 43
0.0
 43
0.0
 43
0.0
 43
0.0208333333333333
 43
0.0
 43
0.0
 43
0.0
 43
0.0
 43
1.0
 43
0.0
 43
0.0
 43
0.0
 43
0.0
 43
1.0
 77
     0
 47
0.0208333333333333
 47
0.0
 47
0.0
 47
0.0
 47
0.0
 47
0.0208333333333333
 47
0.0
 47
0.0
 47
0.0
 47
0.0
 47
1.0
 47
0.0
 47
0.0
 47
0.0
 47
0.0
 47
1.0
171
     0
 49
0.0208333333333333
 49
0.0
 49
0.0
 49
0.0
 49
0.0
 49
0.0208333333333333
 49
0.0
 49
0.0
 49
0.0
 49
0.0
 49
1.0
 49
0.0
 49
0.0
 49
0.0
 49
0.0
 49
1.0
175
     0
142
0.0208333333333333
142
0.0
142
0.0
142
0.0
142
0.0
142
0.0208333333333333
142
0.0
142
0.0
142
0.0
142
0.0
142
1.0
142
0.0
142
0.0
142
0.0
142
0.0
142
1.0
179
     0
144
0.0208333333333333
144
0.0
144
0.0
144
0.0
144
0.0
144
0.0208333333333333
144
0.0
144
0.0
144
0.0
144
0.0
144
1.0
144
0.0
144
0.0
144
0.0
144
0.0
144
1.0
147
0.0208333333333333
147
0.0
147
0.0
147
0.0
147
0.0
147
0.0208333333333333
147
0.0
147
0.0
147
0.0
147
0.0
147
1.0
147
0.0
147
0.0
147
0.0
147
0.0
147
1.0
  0
MATERIAL
  5
1D74
102
{ACAD_XDICTIONARY
360
1D75
102
}
102
{ACAD_REACTORS
330
1D73
102
}
330
1D73
100
AcDbMaterial
  1
ByLayer
 72
     0
 43
0.0208333333333333
 43
0.0
 43
0.0
 43
0.0
 43
0.0
 43
0.0208333333333333
 43
0.0
 43
0.0
 43
0.0
 43
0.0
 43
1.0
 43
0.0
 43
0.0
 43
0.0
 43
0.0
 43
1.0
 77
     0
 47
0.0208333333333333
 47
0.0
 47
0.0
 47
0.0
 47
0.0
 47
0.0208333333333333
 47
0.0
 47
0.0
 47
0.0
 47
0.0
 47
1.0
 47
0.0
 47
0.0
 47
0.0
 47
0.0
 47
1.0
171
     0
 49
0.0208333333333333
 49
0.0
 49
0.0
 49
0.0
 49
0.0
 49
0.0208333333333333
 49
0.0
 49
0.0
 49
0.0
 49
0.0
 49
1.0
 49
0.0
 49
0.0
 49
0.0
 49
0.0
 49
1.0
175
     0
142
0.0208333333333333
142
0.0
142
0.0
142
0.0
142
0.0
142
0.0208333333333333
142
0.0
142
0.0
142
0.0
142
0.0
142
1.0
142
0.0
142
0.0
142
0.0
142
0.0
142
1.0
179
     0
144
0.0208333333333333
144
0.0
144
0.0
144
0.0
144
0.0
144
0.0208333333333333
144
0.0
144
0.0
144
0.0
144
0.0
144
1.0
144
0.0
144
0.0
144
0.0
144
0.0
144
1.0
147
0.0208333333333333
147
0.0
147
0.0
147
0.0
147
0.0
147
0.0208333333333333
147
0.0
147
0.0
147
0.0
147
0.0
147
1.0
147
0.0
147
0.0
147
0.0
147
0.0
147
1.0
  0
MATERIAL
  5
1D84
102
{ACAD_XDICTIONARY
360
1D85
102
}
102
{ACAD_REACTORS
330
1D73
102
}
330
1D73
100
AcDbMaterial
  1
Global
 72
     0
 43
0.0208333333333333
 43
0.0
 43
0.0
 43
0.0
 43
0.0
 43
0.0208333333333333
 43
0.0
 43
0.0
 43
0.0
 43
0.0
 43
1.0
 43
0.0
 43
0.0
 43
0.0
 43
0.0
 43
1.0
 77
     0
 47
0.0208333333333333
 47
0.0
 47
0.0
 47
0.0
 47
0.0
 47
0.0208333333333333
 47
0.0
 47
0.0
 47
0.0
 47
0.0
 47
1.0
 47
0.0
 47
0.0
 47
0.0
 47
0.0
 47
1.0
171
     0
 49
0.0208333333333333
 49
0.0
 49
0.0
 49
0.0
 49
0.0
 49
0.0208333333333333
 49
0.0
 49
0.0
 49
0.0
 49
0.0
 49
1.0
 49
0.0
 49
0.0
 49
0.0
 49
0.0
 49
1.0
175
     0
142
0.0208333333333333
142
0.0
142
0.0
142
0.0
142
0.0
142
0.0208333333333333
142
0.0
142
0.0
142
0.0
142
0.0
142
1.0
142
0.0
142
0.0
142
0.0
142
0.0
142
1.0
179
     0
144
0.0208333333333333
144
0.0
144
0.0
144
0.0
144
0.0
144
0.0208333333333333
144
0.0
144
0.0
144
0.0
144
0.0
144
1.0
144
0.0
144
0.0
144
0.0
144
0.0
144
1.0
147
0.0208333333333333
147
0.0
147
0.0
147
0.0
147
0.0
147
0.0208333333333333
147
0.0
147
0.0
147
0.0
147
0.0
147
1.0
147
0.0
147
0.0
147
0.0
147
0.0
147
1.0
  0
MLEADERSTYLE
  5
1DBB
102
{ACAD_REACTORS
330
1DBA
102
}
330
1DBA
100
AcDbMLeaderStyle
170
     2
171
     1
172
     0
 90
        2
 40
0.0
 41
0.0
173
     1
 91
-1056964608
340
12
 92
       -2
290
     1
 42
0.09
291
     1
 43
0.36
  3
Standard
 44
0.18
300

342
F
174
     1
178
     6
175
     1
176
     0
 93
-1056964608
 45
0.18
292
     0
297
     0
 46
0.18
 94
-1056964608
 47
1.0
 49
1.0
140
1.0
293
     1
141
0.0
294
     1
177
     0
142
1.0
295
     0
296
     0
143
0.125
1001
ACAD_MLEADERVER
1070
     2
  0
MLINESTYLE
  5
1C
102
{ACAD_REACTORS
330
1B
102
}
330
1B
100
AcDbMlineStyle
  2
STANDARD
 70
     0
  3

 62
   256
 51
90.0
 52
90.0
 71
     2
 49
0.5
 62
   256
  6
BYLAYER
 49
-0.5
 62
   256
  6
BYLAYER
  0
ACDBPLACEHOLDER
  5
1D72
102
{ACAD_REACTORS
330
1D71
102
}
330
1D71
  0
SCALE
  5
1DA9
102
{ACAD_REACTORS
330
1DA8
102
}
330
1DA8
100
AcDbScale
 70
     0
300
1:1
140
1.0
141
1.0
290
     1
  0
SCALE
  5
1DAA
102
{ACAD_REACTORS
330
1DA8
102
}
330
1DA8
100
AcDbScale
 70
     0
300
1/128" = 1'-0"
140
0.0078125
141
12.0
290
     0
  0
SCALE
  5
1DAB
102
{ACAD_REACTORS
330
1DA8
102
}
330
1DA8
100
AcDbScale
 70
     0
300
1/64" = 1'-0"
140
0.015625
141
12.0
290
     0
  0
SCALE
  5
1DAC
102
{ACAD_REACTORS
330
1DA8
102
}
330
1DA8
100
AcDbScale
 70
     0
300
1/32" = 1'-0"
140
0.03125
141
12.0
290
     0
  0
SCALE
  5
1DAD
102
{ACAD_REACTORS
330
1DA8
102
}
330
1DA8
100
AcDbScale
 70
     0
300
1/16" = 1'-0"
140
0.0625
141
12.0
290
     0
  0
SCALE
  5
1DAE
102
{ACAD_REACTORS
330
1DA8
102
}
330
1DA8
100
AcDbScale
 70
     0
300
3/32" = 1'-0"
140
0.09375
141
12.0
290
     0
  0
SCALE
  5
1DAF
102
{ACAD_REACTORS
330
1DA8
102
}
330
1DA8
100
AcDbScale
 70
     0
300
1/8" = 1'-0"
140
0.125
141
12.0
290
     0
  0
SCALE
  5
1DB0
102
{ACAD_REACTORS
330
1DA8
102
}
330
1DA8
100
AcDbScale
 70
     0
300
3/16" = 1'-0"
140
0.1875
141
12.0
290
     0
  0
SCALE
  5
1DB1
102
{ACAD_REACTORS
330
1DA8
102
}
330
1DA8
100
AcDbScale
 70
     0
300
1/4" = 1'-0"
140
0.25
141
12.0
290
     0
  0
SCALE
  5
1DB2
102
{ACAD_REACTORS
330
1DA8
102
}
330
1DA8
100
AcDbScale
 70
     0
300
3/8" = 1'-0"
140
0.375
141
12.0
290
     0
  0
SCALE
  5
1DB3
102
{ACAD_REACTORS
330
1DA8
102
}
330
1DA8
100
AcDbScale
 70
     0
300
1/2" = 1'-0"
140
0.5
141
12.0
290
     0
  0
SCALE
  5
1DB4
102
{ACAD_REACTORS
330
1DA8
102
}
330
1DA8
100
AcDbScale
 70
     0
300
3/4" = 1'-0"
140
0.75
141
12.0
290
     0
  0
SCALE
  5
1DB5
102
{ACAD_REACTORS
330
1DA8
102
}
330
1DA8
100
AcDbScale
 70
     0
300
1" = 1'-0"
140
1.0
141
12.0
290
     0
  0
SCALE
  5
1DB6
102
{ACAD_REACTORS
330
1DA8
102
}
330
1DA8
100
AcDbScale
 70
     0
300
1-1/2" = 1'-0"
140
1.5
141
12.0
290
     0
  0
SCALE
  5
1DB7
102
{ACAD_REACTORS
330
1DA8
102
}
330
1DA8
100
AcDbScale
 70
     0
300
3" = 1'-0"
140
3.0
141
12.0
290
     0
  0
SCALE
  5
1DB8
102
{ACAD_REACTORS
330
1DA8
102
}
330
1DA8
100
AcDbScale
 70
     0
300
6" = 1'-0"
140
6.0
141
12.0
290
     0
  0
SCALE
  5
1DB9
102
{ACAD_REACTORS
330
1DA8
102
}
330
1DA8
100
AcDbScale
 70
     0
300
1'-0" = 1'-0"
140
12.0
141
12.0
290
     0
  0
ACDBSECTIONVIEWSTYLE
  5
1DBD
102
{ACAD_XDICTIONARY
360
1E17
102
}
102
{ACAD_REACTORS
330
1DBC
102
}
330
1DBC
100
AcDbModelDocViewStyle
 70
     0
  3
Imperial24
290
     0
100
AcDbSectionViewStyle
 70
     0
 71
     0
 90
       78
 71
     1
340
F
 40
0.24
340
0
340
0
 40
0.24
300
I, O, Q, S, X, Z
 40
0.48
 90
        3
 40
0.18
 90
        1
 71
     2
340
14
 90
       25
340
14
 90
       50
 40
0.24
 40
0.0
 40
0.24
 71
     3
340
F
 40
0.24
 90
        1
 40
0.75
 90
        1
300
%<\AcVar ViewType \f "%tc1">% %<\AcVar ViewSectionStartId>%-%<\AcVar ViewSectionEndId>%\PSCALE %<\AcVar ViewScale \f "%sn">%
 71
     4
300
ANSI31
 40
1.0
 90
        0
290
     0
290
     0
 90
        6
 40
0.0
 40
1.570796326794896
 40
0.2617993877991494
 40
1.308996938995747
 40
-0.2617993877991494
 40
1.832595714594046
  0
TABLESTYLE
  5
1DA7
102
{ACAD_XDICTIONARY
360
1DDE
102
}
102
{ACAD_REACTORS
330
1DA6
102
}
330
1DA6
100
AcDbTableStyle
  3
Standard
 70
     0
 71
     0
 40
0.06
 41
0.06
280
     0
281
     0
  7
STANDARD
140
0.18
170
     2
 62
     0
 63
     7
283
     0
274
    -2
284
     1
 64
     0
275
    -2
285
     1
 65
     0
276
    -2
286
     1
 66
     0
277
    -2
287
     1
 67
     0
278
    -2
288
     1
 68
     0
279
    -2
289
     1
 69
     0
  7
STANDARD
140
0.25
170
     5
 62
     0
 63
     7
283
     0
274
    -2
284
     1
 64
     0
275
    -2
285
     1
 65
     0
276
    -2
286
     1
 66
     0
277
    -2
287
     1
 67
     0
278
    -2
288
     1
 68
     0
279
    -2
289
     1
 69
     0
  7
STANDARD
140
0.18
170
     5
 62
     0
 63
     7
283
     0
274
    -2
284
     1
 64
     0
275
    -2
285
     1
 65
     0
276
    -2
286
     1
 66
     0
277
    -2
287
     1
 67
     0
278
    -2
288
     1
 68
     0
279
    -2
289
     1
 69
     0
  0
VISUALSTYLE
  5
1D92
102
{ACAD_XDICTIONARY
360
1DEF
102
}
102
{ACAD_REACTORS
330
1D8C
102
}
330
1D8C
100
AcDbVisualStyle
  2
2dWireframe
 70
     4
 71
     0
 72
     2
 73
     0
 90
        0
 40
-0.6
 41
-30.0
 62
     5
 63
     7
 74
     1
 91
        4
 64
     7
 65
   257
 75
     1
175
     1
 42
1.0
 92
        0
 66
   257
 43
1.0
 76
     1
 77
     6
 78
     2
 67
     7
 79
     5
170
     0
171
     0
290
     0
174
     0
 93
        1
 44
0.0
173
     0
291
     0
 45
0.0
1001
ACAD
1000
AcDbSavedByObjectVersion
1070
     0
  0
VISUALSTYLE
  5
1D91
102
{ACAD_XDICTIONARY
360
1DED
102
}
102
{ACAD_REACTORS
330
1D8C
102
}
330
1D8C
100
AcDbVisualStyle
  2
Basic
 70
     7
 71
     1
 72
     0
 73
     1
 90
        0
 40
-0.6
 41
-30.0
 62
     5
 63
     7
 74
     0
 91
        4
 64
     7
 65
   257
 75
     1
175
     1
 42
1.0
 92
        8
 66
     7
 43
1.0
 76
     1
 77
     6
 78
     2
 67
     7
 79
     5
170
     0
171
     0
290
     0
174
     0
 93
        1
 44
0.0
173
     0
291
     1
 45
0.0
1001
ACAD
1000
AcDbSavedByObjectVersion
1070
     0
  0
VISUALSTYLE
  5
1D98
102
{ACAD_XDICTIONARY
360
1DFB
102
}
102
{ACAD_REACTORS
330
1D8C
102
}
330
1D8C
100
AcDbVisualStyle
  2
Brighten
 70
    12
 71
     2
 72
     2
 73
     0
 90
        0
 40
-0.6
 41
-30.0
 62
     5
 63
     7
 74
     1
 91
        4
 64
     7
 65
   257
 75
     1
175
     1
 42
1.0
 92
        8
 66
     7
 43
1.0
 76
     1
 77
     6
 78
     2
 67
     7
 79
     5
170
     0
171
     0
290
     0
174
     0
 93
        1
 44
50.0
173
     0
291
     1
 45
0.0
1001
ACAD
1000
AcDbSavedByObjectVersion
1070
     0
  0
VISUALSTYLE
  5
1D9C
102
{ACAD_XDICTIONARY
360
1E03
102
}
102
{ACAD_REACTORS
330
1D8C
102
}
330
1D8C
100
AcDbVisualStyle
  2
ColorChange
 70
    16
 71
     2
 72
     2
 73
     3
 90
        0
 40
-0.6
 41
-30.0
 62
     5
 63
     8
 74
     1
 91
        4
 64
     7
 65
   257
 75
     1
175
     1
 42
1.0
 92
        8
 66
     8
 43
1.0
 76
     1
 77
     6
 78
     2
 67
     7
 79
     5
170
     0
171
     0
290
     0
174
     0
 93
        1
 44
0.0
173
     0
291
     1
 45
0.0
1001
ACAD
1000
AcDbSavedByObjectVersion
1070
     0
  0
VISUALSTYLE
  5
1D95
102
{ACAD_XDICTIONARY
360
1DF5
102
}
102
{ACAD_REACTORS
330
1D8C
102
}
330
1D8C
100
AcDbVisualStyle
  2
Conceptual
 70
     9
 71
     3
 72
     2
 73
     0
 90
        0
 40
-0.6
 41
-30.0
 62
     5
 63
     7
 74
     2
 91
        2
 64
     7
 65
   257
 75
     1
175
     1
 42
179.0
 92
        8
 66
     7
 43
1.0
 76
     1
 77
     6
 78
     2
 67
     7
 79
     3
170
     0
171
     0
290
     0
174
     0
 93
        1
 44
0.0
173
     0
291
     0
 45
0.0
1001
ACAD
1000
AcDbSavedByObjectVersion
1070
     0
  0
VISUALSTYLE
  5
1D97
102
{ACAD_XDICTIONARY
360
1DF9
102
}
102
{ACAD_REACTORS
330
1D8C
102
}
330
1D8C
100
AcDbVisualStyle
  2
Dim
 70
    11
 71
     2
 72
     2
 73
     0
 90
        0
 40
-0.6
 41
-30.0
 62
     5
 63
     7
 74
     1
 91
        4
 64
     7
 65
   257
 75
     1
175
     1
 42
1.0
 92
        8
 66
     7
 43
1.0
 76
     1
 77
     6
 78
     2
 67
     7
 79
     5
170
     0
171
     0
290
     0
174
     0
 93
        1
 44
-50.0
173
     0
291
     1
 45
0.0
1001
ACAD
1000
AcDbSavedByObjectVersion
1070
     0
  0
VISUALSTYLE
  5
1DA4
102
{ACAD_XDICTIONARY
360
1E13
102
}
102
{ACAD_REACTORS
330
1D8C
102
}
330
1D8C
100
AcDbVisualStyle
  2
EdgeColorOff
 70
    22
 71
     2
 72
     2
 73
     0
 90
        0
 40
-0.6
 41
-30.0
 62
     5
 63
     7
 74
     1
 91
        4
 64
     7
 65
   257
 75
     1
175
     1
 42
1.0
 92
        8
 66
     7
 43
1.0
 76
     1
 77
     6
 78
     2
 67
     7
 79
     5
170
     0
171
     0
290
     0
174
     0
 93
        1
 44
0.0
173
     0
291
     1
 45
0.0
1001
ACAD
1000
AcDbSavedByObjectVersion
1070
     0
  0
VISUALSTYLE
  5
1D9B
102
{ACAD_XDICTIONARY
360
1E01
102
}
102
{ACAD_REACTORS
330
1D8C
102
}
330
1D8C
100
AcDbVisualStyle
  2
Facepattern
 70
    15
 71
     2
 72
     2
 73
     0
 90
        0
 40
-0.6
 41
-30.0
 62
     5
 63
     7
 74
     1
 91
        4
 64
     7
 65
   257
 75
     1
175
     1
 42
1.0
 92
        8
 66
     7
 43
1.0
 76
     1
 77
     6
 78
     2
 67
     7
 79
     5
170
     0
171
     0
290
     0
174
     0
 93
        1
 44
0.0
173
     0
291
     1
 45
0.0
1001
ACAD
1000
AcDbSavedByObjectVersion
1070
     0
  0
VISUALSTYLE
  5
1D8D
102
{ACAD_XDICTIONARY
360
1DE5
102
}
102
{ACAD_REACTORS
330
1D8C
102
}
330
1D8C
100
AcDbVisualStyle
  2
Flat
 70
     0
 71
     2
 72
     1
 73
     1
 90
        2
 40
-0.6
 41
30.0
 62
     5
 63
     7
 74
     0
 91
        0
 64
     7
 65
   257
 75
     1
175
     1
 42
1.0
 92
        8
 66
     7
 43
1.0
 76
     1
 77
     6
 78
     2
 67
     7
 79
     5
170
     0
171
     0
290
     0
174
     0
 93
       13
 44
0.0
173
     0
291
     1
 45
0.0
1001
ACAD
1000
AcDbSavedByObjectVersion
1070
     0
  0
VISUALSTYLE
  5
1D8E
102
{ACAD_XDICTIONARY
360
1DE7
102
}
102
{ACAD_REACTORS
330
1D8C
102
}
330
1D8C
100
AcDbVisualStyle
  2
FlatWithEdges
 70
     1
 71
     2
 72
     1
 73
     1
 90
        2
 40
-0.6
 41
30.0
 62
     5
 63
     7
 74
     1
 91
        0
 64
     7
 65
   257
 75
     1
175
     1
 42
1.0
 92
        0
 66
   257
 43
1.0
 76
     1
 77
     6
 78
     2
 67
     7
 79
     5
170
     0
171
     0
290
     0
174
     0
 93
       13
 44
0.0
173
     0
291
     1
 45
0.0
1001
ACAD
1000
AcDbSavedByObjectVersion
1070
     0
  0
VISUALSTYLE
  5
1D8F
102
{ACAD_XDICTIONARY
360
1DE9
102
}
102
{ACAD_REACTORS
330
1D8C
102
}
330
1D8C
100
AcDbVisualStyle
  2
Gouraud
 70
     2
 71
     2
 72
     2
 73
     1
 90
        2
 40
-0.6
 41
30.0
 62
     5
 63
     7
 74
     0
 91
        0
 64
     7
 65
   257
 75
     1
175
     1
 42
1.0
 92
        0
 66
     7
 43
1.0
 76
     1
 77
     6
 78
     2
 67
     7
 79
     5
170
     0
171
     0
290
     0
174
     0
 93
       13
 44
0.0
173
     0
291
     1
 45
0.0
1001
ACAD
1000
AcDbSavedByObjectVersion
1070
     0
  0
VISUALSTYLE
  5
1D90
102
{ACAD_XDICTIONARY
360
1DEB
102
}
102
{ACAD_REACTORS
330
1D8C
102
}
330
1D8C
100
AcDbVisualStyle
  2
GouraudWithEdges
 70
     3
 71
     2
 72
     2
 73
     1
 90
        2
 40
-0.6
 41
30.0
 62
     5
 63
     7
 74
     1
 91
        0
 64
     7
 65
   257
 75
     1
175
     1
 42
1.0
 92
        0
 66
   257
 43
1.0
 76
     1
 77
     6
 78
     2
 67
     7
 79
     5
170
     0
171
     0
290
     0
174
     0
 93
       13
 44
0.0
173
     0
291
     1
 45
0.0
1001
ACAD
1000
AcDbSavedByObjectVersion
1070
     0
  0
VISUALSTYLE
  5
1D94
102
{ACAD_XDICTIONARY
360
1DF3
102
}
102
{ACAD_REACTORS
330
1D8C
102
}
330
1D8C
100
AcDbVisualStyle
  2
Hidden
 70
     6
 71
     1
 72
     2
 73
     2
 90
        0
 40
-0.6
 41
-30.0
 62
     5
 63
     7
 74
     2
 91
        2
 64
     7
 65
   257
 75
     2
175
     1
 42
40.0
 92
        0
 66
   257
 43
1.0
 76
     1
 77
     6
 78
     2
 67
     7
 79
     3
170
     0
171
     0
290
     0
174
     0
 93
        1
 44
0.0
173
     0
291
     0
 45
0.0
1001
ACAD
1000
AcDbSavedByObjectVersion
1070
     0
  0
VISUALSTYLE
  5
1DA2
102
{ACAD_XDICTIONARY
360
1E0F
102
}
102
{ACAD_REACTORS
330
1D8C
102
}
330
1D8C
100
AcDbVisualStyle
  2
JitterOff
 70
    20
 71
     2
 72
     2
 73
     0
 90
        0
 40
-0.6
 41
-30.0
 62
     5
 63
     7
 74
     1
 91
        4
 64
     7
 65
   257
 75
     1
175
     1
 42
1.0
 92
       10
 66
     7
 43
1.0
 76
     1
 77
     6
 78
     2
 67
     7
 79
     5
170
     0
171
     0
290
     0
174
     0
 93
        1
 44
0.0
173
     0
291
     1
 45
0.0
1001
ACAD
1000
AcDbSavedByObjectVersion
1070
     0
  0
VISUALSTYLE
  5
1D9A
102
{ACAD_XDICTIONARY
360
1DFF
102
}
102
{ACAD_REACTORS
330
1D8C
102
}
330
1D8C
100
AcDbVisualStyle
  2
Linepattern
 70
    14
 71
     2
 72
     2
 73
     0
 90
        0
 40
-0.6
 41
-30.0
 62
     5
 63
     7
 74
     1
 91
        4
 64
     7
 65
   257
 75
     7
175
     7
 42
1.0
 92
        8
 66
     7
 43
1.0
 76
     1
 77
     6
 78
     2
 67
     7
 79
     5
170
     0
171
     0
290
     0
174
     0
 93
        1
 44
0.0
173
     0
291
     1
 45
0.0
1001
ACAD
1000
AcDbSavedByObjectVersion
1070
     0
  0
VISUALSTYLE
  5
1DA3
102
{ACAD_XDICTIONARY
360
1E11
102
}
102
{ACAD_REACTORS
330
1D8C
102
}
330
1D8C
100
AcDbVisualStyle
  2
OverhangOff
 70
    21
 71
     2
 72
     2
 73
     0
 90
        0
 40
-0.6
 41
-30.0
 62
     5
 63
     7
 74
     1
 91
        4
 64
     7
 65
   257
 75
     1
175
     1
 42
1.0
 92
        9
 66
     7
 43
1.0
 76
     1
 77
     6
 78
     2
 67
     7
 79
     5
170
     0
171
     0
290
     0
174
     0
 93
        1
 44
0.0
173
     0
291
     1
 45
0.0
1001
ACAD
1000
AcDbSavedByObjectVersion
1070
     0
  0
VISUALSTYLE
  5
1D96
102
{ACAD_XDICTIONARY
360
1DF7
102
}
102
{ACAD_REACTORS
330
1D8C
102
}
330
1D8C
100
AcDbVisualStyle
  2
Realistic
 70
     8
 71
     2
 72
     3
 73
     0
 90
        2
 40
-0.6
 41
30.0
 62
     5
 63
     7
 74
     0
 91
        0
 64
     7
 65
   257
 75
     1
175
     1
 42
1.0
 92
        8
 66
   257
 43
1.0
 76
     1
 77
     6
 78
     2
 67
     7
 79
     3
170
     0
171
     0
290
     0
174
     0
 93
       13
 44
0.0
173
     0
291
     0
 45
0.0
1001
ACAD
1000
AcDbSavedByObjectVersion
1070
     0
  0
VISUALSTYLE
  5
1DA1
102
{ACAD_XDICTIONARY
360
1E0D
102
}
102
{ACAD_REACTORS
330
1D8C
102
}
330
1D8C
100
AcDbVisualStyle
  2
Shaded
 70
    27
 71
     2
 72
     2
 73
     1
 90
        2
 40
-0.6
 41
30.0
 62
     5
 63
     7
 74
     0
 91
        4
 64
     7
 65
   257
 75
     1
175
     1
 42
1.0
 92
        8
 66
   257
 43
1.0
 76
     1
 77
     6
 78
     2
 67
     8
 79
     3
170
     0
171
     0
290
     0
174
     0
 93
        5
 44
0.0
173
     0
291
     0
 45
0.0
1001
ACAD
1000
AcDbSavedByObjectVersion
1070
     0
  0
VISUALSTYLE
  5
1DA0
102
{ACAD_XDICTIONARY
360
1E0B
102
}
102
{ACAD_REACTORS
330
1D8C
102
}
330
1D8C
100
AcDbVisualStyle
  2
Shaded with edges
 70
    26
 71
     2
 72
     2
 73
     1
 90
        2
 40
-0.6
 41
30.0
 62
     5
 63
     7
 74
     1
 91
       10
 64
     7
 65
   257
 75
     2
175
     1
 42
1.0
 92
        8
 66
   257
 43
1.0
 76
     1
 77
     6
 78
     2
 67
     7
 79
     3
170
     0
171
     0
290
     0
174
     0
 93
        5
 44
0.0
173
     0
291
     0
 45
0.0
1001
ACAD
1000
AcDbSavedByObjectVersion
1070
     0
  0
VISUALSTYLE
  5
1D9D
102
{ACAD_XDICTIONARY
360
1E05
102
}
102
{ACAD_REACTORS
330
1D8C
102
}
330
1D8C
100
AcDbVisualStyle
  2
Shades of Gray
 70
    23
 71
     2
 72
     2
 73
     3
 90
        0
 40
-0.6
 41
-30.0
 62
     5
 63
     7
 74
     2
 91
        2
 64
     7
 65
     7
 75
     1
175
     1
 42
40.0
 92
        8
 66
     7
 43
1.0
 76
     1
 77
     6
 78
     2
 67
     7
 79
     3
170
     0
171
     0
290
     0
174
     0
 93
        1
 44
0.0
173
     0
291
     0
 45
0.0
1001
ACAD
1000
AcDbSavedByObjectVersion
1070
     0
  0
VISUALSTYLE
  5
1D9E
102
{ACAD_XDICTIONARY
360
1E07
102
}
102
{ACAD_REACTORS
330
1D8C
102
}
330
1D8C
100
AcDbVisualStyle
  2
Sketchy
 70
    24
 71
     1
 72
     2
 73
     2
 90
        0
 40
-0.6
 41
-30.0
 62
     5
 63
     7
 74
     2
 91
        2
 64
     7
 65
     7
 75
     1
175
     1
 42
40.0
 92
       11
 66
     7
 43
1.0
 76
     1
 77
     6
 78
     2
 67
     7
 79
     6
170
     0
171
     0
290
     0
174
     0
 93
        1
 44
0.0
173
     0
291
     0
 45
0.0
1001
ACAD
1000
AcDbSavedByObjectVersion
1070
     0
  0
VISUALSTYLE
  5
1D99
102
{ACAD_XDICTIONARY
360
1DFD
102
}
102
{ACAD_REACTORS
330
1D8C
102
}
330
1D8C
100
AcDbVisualStyle
  2
Thicken
 70
    13
 71
     2
 72
     2
 73
     0
 90
        0
 40
-0.6
 41
-30.0
 62
     5
 63
     7
 74
     1
 91
        4
 64
     7
 65
   257
 75
     1
175
     1
 42
1.0
 92
       12
 66
     7
 43
1.0
 76
     1
 77
     6
 78
     2
 67
     7
 79
     5
170
     0
171
     0
290
     0
174
     0
 93
        1
 44
0.0
173
     0
291
     1
 45
0.0
1001
ACAD
1000
AcDbSavedByObjectVersion
1070
     0
  0
VISUALSTYLE
  5
1D93
102
{ACAD_XDICTIONARY
360
1DF1
102
}
102
{ACAD_REACTORS
330
1D8C
102
}
330
1D8C
100
AcDbVisualStyle
  2
Wireframe
 70
     5
 71
     0
 72
     2
 73
     0
 90
        0
 40
-0.6
 41
-30.0
 62
     5
 63
     7
 74
     1
 91
        4
 64
     7
 65
   257
 75
     1
175
     1
 42
1.0
 92
        0
 66
   257
 43
1.0
 76
     1
 77
     6
 78
     2
 67
     7
 79
     3
170
     0
171
     0
290
     0
174
     0
 93
        1
 44
0.0
173
     0
291
     0
 45
0.0
1001
ACAD
1000
AcDbSavedByObjectVersion
1070
     0
  0
VISUALSTYLE
  5
1D9F
102
{ACAD_XDICTIONARY
360
1E09
102
}
102
{ACAD_REACTORS
330
1D8C
102
}
330
1D8C
100
AcDbVisualStyle
  2
X-Ray
 70
    25
 71
     2
 72
     2
 73
     1
 90
        1
 40
0.5
 41
-30.0
 62
     5
 63
     7
 74
     1
 91
        0
 64
     7
 65
   257
 75
     1
175
     1
 42
1.0
 92
        8
 66
     7
 43
1.0
 76
     1
 77
     6
 78
     2
 67
     7
 79
     3
170
     0
171
     0
290
     0
174
     0
 93
       13
 44
0.0
173
     0
291
     0
 45
0.0
1001
ACAD
1000
AcDbSavedByObjectVersion
1070
     0
  0
DICTIONARYVAR
  5
1DD8
102
{ACAD_REACTORS
330
1DD3
102
}
330
1DD3
100
DictionaryVariables
280
     0
  1
1:1
  0
DICTIONARYVAR
  5
1DD5
102
{ACAD_REACTORS
330
1DD3
102
}
330
1DD3
100
DictionaryVariables
280
     0
  1
STANDARD
  0
DICTIONARYVAR
  5
1DD4
102
{ACAD_REACTORS
330
1DD3
102
}
330
1DD3
100
DictionaryVariables
280
     0
  1
STANDARD
  0
DICTIONARYVAR
  5
1DD6
102
{ACAD_REACTORS
330
1DD3
102
}
330
1DD3
100
DictionaryVariables
280
     0
  1
Imperial24
  0
DICTIONARYVAR
  5
1DD7
102
{ACAD_REACTORS
330
1DD3
102
}
330
1DD3
100
DictionaryVariables
280
     0
  1
Imperial24
  0
DICTIONARYVAR
  5
1DDB
102
{ACAD_REACTORS
330
1DD3
102
}
330
1DD3
100
DictionaryVariables
280
     0
  1
1
  0
DICTIONARYVAR
  5
1DDA
102
{ACAD_REACTORS
330
1DD3
102
}
330
1DD3
100
DictionaryVariables
280
     0
  1
0
  0
DICTIONARYVAR
  5
1DD9
102
{ACAD_REACTORS
330
1DD3
102
}
330
1DD3
100
DictionaryVariables
280
     0
  1
127
  0
DICTIONARYVAR
  5
1DDC
102
{ACAD_REACTORS
330
1DD3
102
}
330
1DD3
100
DictionaryVariables
280
     0
  1
2
  0
DICTIONARY
  5
1E19
330
1DBF
100
AcDbDictionary
280
     1
281
     1
  3
ACAD_XREC_ROUNDTRIP
360
1E1A
  0
DICTIONARY
  5
1E1B
330
1DC0
100
AcDbDictionary
280
     1
281
     1
  3
ACAD_XREC_ROUNDTRIP
360
1E1C
  0
DICTIONARY
  5
1E1D
330
1DC1
100
AcDbDictionary
280
     1
281
     1
  3
ACAD_XREC_ROUNDTRIP
360
1E1E
  0
DICTIONARY
  5
1D7D
330
1D7C
100
AcDbDictionary
280
     1
281
     1
  3
ACAD_XREC_ROUNDTRIP
360
1DE3
  3
BUMPTILE
360
1D7F
  3
DIFFUSETILE
360
1D7E
  3
OPACITYTILE
360
1D82
  3
REFLECTIONTILE
360
1D81
  3
REFRACTIONTILE
360
1D83
  3
SPECULARTILE
360
1D80
  0
DICTIONARY
  5
1D75
330
1D74
100
AcDbDictionary
280
     1
281
     1
  3
ACAD_XREC_ROUNDTRIP
360
1DE2
  3
BUMPTILE
360
1D77
  3
DIFFUSETILE
360
1D76
  3
OPACITYTILE
360
1D7A
  3
REFLECTIONTILE
360
1D79
  3
REFRACTIONTILE
360
1D7B
  3
SPECULARTILE
360
1D78
  0
DICTIONARY
  5
1D85
330
1D84
100
AcDbDictionary
280
     1
281
     1
  3
ACAD_XREC_ROUNDTRIP
360
1DE4
  3
BUMPTILE
360
1D87
  3
DIFFUSETILE
360
1D86
  3
OPACITYTILE
360
1D8A
  3
REFLECTIONTILE
360
1D89
  3
REFRACTIONTILE
360
1D8B
  3
SPECULARTILE
360
1D88
  0
DICTIONARY
  5
1E17
330
1DBD
100
AcDbDictionary
280
     1
281
     1
  3
ACAD_XREC_ROUNDTRIP
360
1E18
  0
DICTIONARY
  5
1DDE
330
1DA7
100
AcDbDictionary
280
     1
281
     1
  3
ACAD_ROUNDTRIP_2008_TABLESTYLE_CELLSTYLEMAP
360
1DDF
  3
ACAD_XREC_ROUNDTRIP
360
1E15
  0
DICTIONARY
  5
1DEF
330
1D92
100
AcDbDictionary
280
     1
281
     1
  3
ACAD_XREC_ROUNDTRIP
360
1DF0
  0
DICTIONARY
  5
1DED
330
1D91
100
AcDbDictionary
280
     1
281
     1
  3
ACAD_XREC_ROUNDTRIP
360
1DEE
  0
DICTIONARY
  5
1DFB
330
1D98
100
AcDbDictionary
280
     1
281
     1
  3
ACAD_XREC_ROUNDTRIP
360
1DFC
  0
DICTIONARY
  5
1E03
330
1D9C
100
AcDbDictionary
280
     1
281
     1
  3
ACAD_XREC_ROUNDTRIP
360
1E04
  0
DICTIONARY
  5
1DF5
330
1D95
100
AcDbDictionary
280
     1
281
     1
  3
ACAD_XREC_ROUNDTRIP
360
1DF6
  0
DICTIONARY
  5
1DF9
330
1D97
100
AcDbDictionary
280
     1
281
     1
  3
ACAD_XREC_ROUNDTRIP
360
1DFA
  0
DICTIONARY
  5
1E13
330
1DA4
100
AcDbDictionary
280
     1
281
     1
  3
ACAD_XREC_ROUNDTRIP
360
1E14
  0
DICTIONARY
  5
1E01
330
1D9B
100
AcDbDictionary
280
     1
281
     1
  3
ACAD_XREC_ROUNDTRIP
360
1E02
  0
DICTIONARY
  5
1DE5
330
1D8D
100
AcDbDictionary
280
     1
281
     1
  3
ACAD_XREC_ROUNDTRIP
360
1DE6
  0
DICTIONARY
  5
1DE7
330
1D8E
100
AcDbDictionary
280
     1
281
     1
  3
ACAD_XREC_ROUNDTRIP
360
1DE8
  0
DICTIONARY
  5
1DE9
330
1D8F
100
AcDbDictionary
280
     1
281
     1
  3
ACAD_XREC_ROUNDTRIP
360
1DEA
  0
DICTIONARY
  5
1DEB
330
1D90
100
AcDbDictionary
280
     1
281
     1
  3
ACAD_XREC_ROUNDTRIP
360
1DEC
  0
DICTIONARY
  5
1DF3
330
1D94
100
AcDbDictionary
280
     1
281
     1
  3
ACAD_XREC_ROUNDTRIP
360
1DF4
  0
DICTIONARY
  5
1E0F
330
1DA2
100
AcDbDictionary
280
     1
281
     1
  3
ACAD_XREC_ROUNDTRIP
360
1E10
  0
DICTIONARY
  5
1DFF
330
1D9A
100
AcDbDictionary
280
     1
281
     1
  3
ACAD_XREC_ROUNDTRIP
360
1E00
  0
DICTIONARY
  5
1E11
330
1DA3
100
AcDbDictionary
280
     1
281
     1
  3
ACAD_XREC_ROUNDTRIP
360
1E12
  0
DICTIONARY
  5
1DF7
330
1D96
100
AcDbDictionary
280
     1
281
     1
  3
ACAD_XREC_ROUNDTRIP
360
1DF8
  0
DICTIONARY
  5
1E0D
330
1DA1
100
AcDbDictionary
280
     1
281
     1
  3
ACAD_XREC_ROUNDTRIP
360
1E0E
  0
DICTIONARY
  5
1E0B
330
1DA0
100
AcDbDictionary
280
     1
281
     1
  3
ACAD_XREC_ROUNDTRIP
360
1E0C
  0
DICTIONARY
  5
1E05
330
1D9D
100
AcDbDictionary
280
     1
281
     1
  3
ACAD_XREC_ROUNDTRIP
360
1E06
  0
DICTIONARY
  5
1E07
330
1D9E
100
AcDbDictionary
280
     1
281
     1
  3
ACAD_XREC_ROUNDTRIP
360
1E08
  0
DICTIONARY
  5
1DFD
330
1D99
100
AcDbDictionary
280
     1
281
     1
  3
ACAD_XREC_ROUNDTRIP
360
1DFE
  0
DICTIONARY
  5
1DF1
330
1D93
100
AcDbDictionary
280
     1
281
     1
  3
ACAD_XREC_ROUNDTRIP
360
1DF2
  0
DICTIONARY
  5
1E09
330
1D9F
100
AcDbDictionary
280
     1
281
     1
  3
ACAD_XREC_ROUNDTRIP
360
1E0A
  0
XRECORD
  5
1E1A
102
{ACAD_REACTORS
330
1E19
102
}
330
1E19
100
AcDbXrecord
280
     1
102
DISPLAYNAME
  1
Imperial24
102
FLAGS
 90
        0
  0
XRECORD
  5
1E1C
102
{ACAD_REACTORS
330
1E1B
102
}
330
1E1B
100
AcDbXrecord
280
     1
102
SHADEPLOT
 70
     0
102
SHADEPLOTRESLEVEL
 70
     2
102
SHADEPLOTCUSTOMDPI
 70
   300
  0
XRECORD
  5
1E1E
102
{ACAD_REACTORS
330
1E1D
102
}
330
1E1D
100
AcDbXrecord
280
     1
102
SHADEPLOT
 70
     0
102
SHADEPLOTRESLEVEL
 70
     2
102
SHADEPLOTCUSTOMDPI
 70
   300
  0
XRECORD
  5
1DE3
102
{ACAD_REACTORS
330
1D7D
102
}
330
1D7D
100
AcDbXrecord
280
     1
102
MATERIAL
148
0.0
149
0.0
149
0.0
 93
        0
 94
      127
282
     0
 72
     0
 77
     0
171
     0
175
     0
179
     0
273
     0
  0
XRECORD
  5
1D7F
102
{ACAD_REACTORS
330
1D7D
102
}
330
1D7D
100
AcDbXrecord
280
     1
270
     1
271
     1
  0
XRECORD
  5
1D7E
102
{ACAD_REACTORS
330
1D7D
102
}
330
1D7D
100
AcDbXrecord
280
     1
270
     1
271
     1
  0
XRECORD
  5
1D82
102
{ACAD_REACTORS
330
1D7D
102
}
330
1D7D
100
AcDbXrecord
280
     1
270
     1
271
     1
  0
XRECORD
  5
1D81
102
{ACAD_REACTORS
330
1D7D
102
}
330
1D7D
100
AcDbXrecord
280
     1
270
     1
271
     1
  0
XRECORD
  5
1D83
102
{ACAD_REACTORS
330
1D7D
102
}
330
1D7D
100
AcDbXrecord
280
     1
270
     1
271
     1
  0
XRECORD
  5
1D80
102
{ACAD_REACTORS
330
1D7D
102
}
330
1D7D
100
AcDbXrecord
280
     1
270
     1
271
     1
  0
XRECORD
  5
1DE2
102
{ACAD_REACTORS
330
1D75
102
}
330
1D75
100
AcDbXrecord
280
     1
102
MATERIAL
148
0.0
149
0.0
149
0.0
 93
        0
 94
      127
282
     0
 72
     0
 77
     0
171
     0
175
     0
179
     0
273
     0
  0
XRECORD
  5
1D77
102
{ACAD_REACTORS
330
1D75
102
}
330
1D75
100
AcDbXrecord
280
     1
270
     1
271
     1
  0
XRECORD
  5
1D76
102
{ACAD_REACTORS
330
1D75
102
}
330
1D75
100
AcDbXrecord
280
     1
270
     1
271
     1
  0
XRECORD
  5
1D7A
102
{ACAD_REACTORS
330
1D75
102
}
330
1D75
100
AcDbXrecord
280
     1
270
     1
271
     1
  0
XRECORD
  5
1D79
102
{ACAD_REACTORS
330
1D75
102
}
330
1D75
100
AcDbXrecord
280
     1
270
     1
271
     1
  0
XRECORD
  5
1D7B
102
{ACAD_REACTORS
330
1D75
102
}
330
1D75
100
AcDbXrecord
280
     1
270
     1
271
     1
  0
XRECORD
  5
1D78
102
{ACAD_REACTORS
330
1D75
102
}
330
1D75
100
AcDbXrecord
280
     1
270
     1
271
     1
  0
XRECORD
  5
1DE4
102
{ACAD_REACTORS
330
1D85
102
}
330
1D85
100
AcDbXrecord
280
     1
102
MATERIAL
148
0.0
149
0.0
149
0.0
 93
        0
 94
      127
282
     0
 72
     0
 77
     0
171
     0
175
     0
179
     0
273
     0
  0
XRECORD
  5
1D87
102
{ACAD_REACTORS
330
1D85
102
}
330
1D85
100
AcDbXrecord
280
     1
270
     1
271
     1
  0
XRECORD
  5
1D86
102
{ACAD_REACTORS
330
1D85
102
}
330
1D85
100
AcDbXrecord
280
     1
270
     1
271
     1
  0
XRECORD
  5
1D8A
102
{ACAD_REACTORS
330
1D85
102
}
330
1D85
100
AcDbXrecord
280
     1
270
     1
271
     1
  0
XRECORD
  5
1D89
102
{ACAD_REACTORS
330
1D85
102
}
330
1D85
100
AcDbXrecord
280
     1
270
     1
271
     1
  0
XRECORD
  5
1D8B
102
{ACAD_REACTORS
330
1D85
102
}
330
1D85
100
AcDbXrecord
280
     1
270
     1
271
     1
  0
XRECORD
  5
1D88
102
{ACAD_REACTORS
330
1D85
102
}
330
1D85
100
AcDbXrecord
280
     1
270
     1
271
     1
  0
XRECORD
  5
1E18
102
{ACAD_REACTORS
330
1E17
102
}
330
1E17
100
AcDbXrecord
280
     1
102
DISPLAYNAME
  1
Imperial24
102
FLAGS
 90
        0
  0
CELLSTYLEMAP
  5
1DDF
102
{ACAD_REACTORS
330
1DDE
102
}
330
1DDE
100
AcDbCellStyleMap
 90
        3
300
CELLSTYLE
  1
TABLEFORMAT_BEGIN
 90
        5
170
     1
 91
        0
 92
    32768
 62
   257
 93
        1
300
CONTENTFORMAT
  1
CONTENTFORMAT_BEGIN
 90
        0
 91
        0
 92
      512
 93
        0
300

 40
0.0
140
1.0
 94
        5
 62
     0
340
F
144
0.25
309
CONTENTFORMAT_END
171
     0
 94
        0
309
TABLEFORMAT_END
  1
CELLSTYLE_BEGIN
 90
        1
 91
        1
300
_TITLE
309
CELLSTYLE_END
300
CELLSTYLE
  1
TABLEFORMAT_BEGIN
 90
        5
170
     1
 91
        0
 92
        0
 62
   257
 93
        1
300
CONTENTFORMAT
  1
CONTENTFORMAT_BEGIN
 90
        0
 91
        0
 92
      512
 93
        0
300

 40
0.0
140
1.0
 94
        5
 62
     0
340
F
144
0.18
309
CONTENTFORMAT_END
171
     0
 94
        0
309
TABLEFORMAT_END
  1
CELLSTYLE_BEGIN
 90
        2
 91
        1
300
_HEADER
309
CELLSTYLE_END
300
CELLSTYLE
  1
TABLEFORMAT_BEGIN
 90
        5
170
     1
 91
        0
 92
        0
 62
   257
 93
        1
300
CONTENTFORMAT
  1
CONTENTFORMAT_BEGIN
 90
        0
 91
        0
 92
      512
 93
        0
300

 40
0.0
140
1.0
 94
        2
 62
     0
340
F
144
0.18
309
CONTENTFORMAT_END
171
     0
 94
        0
309
TABLEFORMAT_END
  1
CELLSTYLE_BEGIN
 90
        3
 91
        2
300
_DATA
309
CELLSTYLE_END
  0
XRECORD
  5
1E15
102
{ACAD_REACTORS
330
1DDE
102
}
330
1DDE
100
AcDbXrecord
280
     1
102
ACAD_ROUNDTRIP_PRE2007_TABLESTYLE
 90
      512
 91
        0
  1

 92
      512
 93
        0
  2

 94
      512
 95
        0
  3

  0
XRECORD
  5
1DF0
102
{ACAD_REACTORS
330
1DEF
102
}
330
1DEF
100
AcDbXrecord
280
     1
102
RTVSPost2010Prop28
280
     1
102
RTVSPost2010PropOp28
 70
     1
102
RTVSPost2010Prop29
280
     1
102
RTVSPost2010PropOp29
 70
     1
102
RTVSPost2010Prop30
280
     0
102
RTVSPost2010PropOp30
 70
     1
102
RTVSPost2010Prop31
280
     0
102
RTVSPost2010PropOp31
 70
     1
102
RTVSPost2010Prop32
280
     0
102
RTVSPost2010PropOp32
 70
     1
102
RTVSPost2010Prop33
280
     0
102
RTVSPost2010PropOp33
 70
     1
102
RTVSPost2010Prop34
280
     0
102
RTVSPost2010PropOp34
 70
     1
102
RTVSPost2010Prop35
280
     0
102
RTVSPost2010PropOp35
 70
     1
102
RTVSPost2010Prop36
280
     0
102
RTVSPost2010PropOp36
 70
     1
102
RTVSPost2010Prop37
 90
       50
102
RTVSPost2010PropOp37
 70
     1
102
RTVSPost2010Prop38
140
0.0
102
RTVSPost2010PropOp38
 70
     1
102
RTVSPost2010Prop39
140
1.0
102
RTVSPost2010PropOp39
 70
     1
102
RTVSPost2010Prop40
 90
        0
102
RTVSPost2010PropOp40
 70
     1
102
RTVSPost2010Prop41ColorIndex
 90
       18
102
RTVSPost2010Prop41ColorRGB
 90
        0
102
RTVSPost2010PropOp41
 70
     1
102
RTVSPost2010Prop42
 90
       50
102
RTVSPost2010PropOp42
 70
     1
102
RTVSPost2010Prop43
 90
        3
102
RTVSPost2010PropOp43
 70
     1
102
RTVSPost2010Prop44ColorIndex
 90
        5
102
RTVSPost2010Prop44ColorRGB
 90
      255
102
RTVSPost2010PropOp44
 70
     1
102
RTVSPost2010Prop45
280
     0
102
RTVSPost2010PropOp45
 70
     1
102
RTVSPost2010Prop46
 90
       50
102
RTVSPost2010PropOp46
 70
     1
102
RTVSPost2010Prop47
 90
       50
102
RTVSPost2010PropOp47
 70
     1
102
RTVSPost2010Prop48
 90
       50
102
RTVSPost2010PropOp48
 70
     1
102
RTVSPost2010Prop49
280
     0
102
RTVSPost2010PropOp49
 70
     1
102
RTVSPost2010Prop50
 90
       50
102
RTVSPost2010PropOp50
 70
     1
102
RTVSPost2010Prop51ColorIndex
 90
      256
102
RTVSPost2010Prop51ColorRGB
 90
-16777216
102
RTVSPost2010PropOp51
 70
     0
102
RTVSPost2010Prop52
140
1.0
102
RTVSPost2010PropOp52
 70
     0
102
RTVSPost2010Prop53
 90
        2
102
RTVSPost2010PropOp53
 70
     1
102
RTVSPost2010Prop54
  1
strokes_ogs.tif
102
RTVSPost2010PropOp54
 70
     1
102
RTVSPost2010Prop55
280
     0
102
RTVSPost2010PropOp55
 70
     1
102
RTVSPost2010Prop56
140
1.0
102
RTVSPost2010PropOp56
 70
     1
102
RTVSPost2010Prop57
140
1.0
102
RTVSPost2010PropOp57
 70
     1
102
RTVSPropertyOp0
 70
     1
102
RTVSPropertyOp1
 70
     1
102
RTVSPropertyOp2
 70
     1
102
RTVSPropertyOp3
 70
     1
102
RTVSPropertyOp4
 70
     1
102
RTVSPropertyOp5
 70
     1
102
RTVSPropertyOp6
 70
     1
102
RTVSPropertyOp7
 70
     1
102
RTVSPropertyOp8
 70
     1
102
RTVSPropertyOp9
 70
     1
102
RTVSPropertyOp10
 70
     1
102
RTVSPropertyOp11
 70
     1
102
RTVSPropertyOp12
 70
     1
102
RTVSPropertyOp13
 70
     1
102
RTVSPropertyOp14
 70
     1
102
RTVSPropertyOp15
 70
     1
102
RTVSPropertyOp16
 70
     1
102
RTVSPropertyOp17
 70
     1
102
RTVSPropertyOp18
 70
     1
102
RTVSPropertyOp19
 70
     1
102
RTVSPropertyOp20
 70
     1
102
RTVSPropertyOp21
 70
     1
102
RTVSPropertyOp22
 70
     1
102
RTVSPropertyOp23
 70
     1
102
RTVSPropertyOp24
 70
     1
102
RTVSPropertyOp25
 70
     1
102
RTVSPropertyOp26
 70
     1
102
RTVSPropertyOp27
 70
     1
102
RTVSPropertyOp28
 70
     1
102
RTVSPropertyOp29
 70
     1
102
RTVSPropertyOp30
 70
     1
102
RTVSPropertyOp31
 70
     1
102
RTVSPropertyOp32
 70
     1
102
RTVSPropertyOp33
 70
     1
102
RTVSPropertyOp34
 70
     1
102
RTVSPropertyOp35
 70
     1
102
RTVSPropertyOp36
 70
     1
102
RTVSPropertyOp37
 70
     1
102
RTVSPropertyOp38
 70
     1
102
RTVSPropertyOp39
 70
     1
102
RTVSPropertyOp40
 70
     1
102
RTVSPropertyOp41
 70
     1
102
RTVSPropertyOp42
 70
     1
102
RTVSPropertyOp43
 70
     1
102
RTVSPropertyOp44
 70
     1
102
RTVSPropertyOp45
 70
     1
102
RTVSPropertyOp46
 70
     1
102
RTVSPropertyOp47
 70
     1
102
RTVSPropertyOp48
 70
     1
102
RTVSPropertyOp49
 70
     1
102
RTVSPropertyOp50
 70
     1
102
RTVSPropertyOp51
 70
     0
102
RTVSPropertyOp52
 70
     0
102
RTVSPropertyOp53
 70
     1
102
RTVSPropertyOp54
 70
     1
102
RTVSPropertyOp55
 70
     1
102
RTVSPropertyOp56
 70
     1
102
RTVSPropertyOp57
 70
     1
102
RTVSPropertyOp58
 70
     1
102
RTVSPropertyOp59
 70
     1
102
RTVSPropertyOp60
 70
     1
102
RTVSPropertyOp61
 70
     1
102
RTVSPropertyOp62
 70
     1
  0
XRECORD
  5
1DEE
102
{ACAD_REACTORS
330
1DED
102
}
330
1DED
100
AcDbXrecord
280
     1
102
RTVSPost2010Prop28
280
     0
102
RTVSPost2010PropOp28
 70
     1
102
RTVSPost2010Prop29
280
     1
102
RTVSPost2010PropOp29
 70
     1
102
RTVSPost2010Prop30
280
     1
102
RTVSPost2010PropOp30
 70
     1
102
RTVSPost2010Prop31
280
     0
102
RTVSPost2010PropOp31
 70
     1
102
RTVSPost2010Prop32
280
     0
102
RTVSPost2010PropOp32
 70
     1
102
RTVSPost2010Prop33
280
     0
102
RTVSPost2010PropOp33
 70
     1
102
RTVSPost2010Prop34
280
     0
102
RTVSPost2010PropOp34
 70
     1
102
RTVSPost2010Prop35
280
     0
102
RTVSPost2010PropOp35
 70
     1
102
RTVSPost2010Prop36
280
     0
102
RTVSPost2010PropOp36
 70
     1
102
RTVSPost2010Prop37
 90
       50
102
RTVSPost2010PropOp37
 70
     1
102
RTVSPost2010Prop38
140
0.0
102
RTVSPost2010PropOp38
 70
     1
102
RTVSPost2010Prop39
140
1.0
102
RTVSPost2010PropOp39
 70
     1
102
RTVSPost2010Prop40
 90
        0
102
RTVSPost2010PropOp40
 70
     1
102
RTVSPost2010Prop41ColorIndex
 90
       18
102
RTVSPost2010Prop41ColorRGB
 90
        0
102
RTVSPost2010PropOp41
 70
     1
102
RTVSPost2010Prop42
 90
       50
102
RTVSPost2010PropOp42
 70
     1
102
RTVSPost2010Prop43
 90
        3
102
RTVSPost2010PropOp43
 70
     1
102
RTVSPost2010Prop44ColorIndex
 90
        5
102
RTVSPost2010Prop44ColorRGB
 90
      255
102
RTVSPost2010PropOp44
 70
     1
102
RTVSPost2010Prop45
280
     0
102
RTVSPost2010PropOp45
 70
     1
102
RTVSPost2010Prop46
 90
       50
102
RTVSPost2010PropOp46
 70
     1
102
RTVSPost2010Prop47
 90
       50
102
RTVSPost2010PropOp47
 70
     1
102
RTVSPost2010Prop48
 90
       50
102
RTVSPost2010PropOp48
 70
     1
102
RTVSPost2010Prop49
280
     0
102
RTVSPost2010PropOp49
 70
     1
102
RTVSPost2010Prop50
 90
       50
102
RTVSPost2010PropOp50
 70
     1
102
RTVSPost2010Prop51ColorIndex
 90
      256
102
RTVSPost2010Prop51ColorRGB
 90
-16777216
102
RTVSPost2010PropOp51
 70
     0
102
RTVSPost2010Prop52
140
1.0
102
RTVSPost2010PropOp52
 70
     0
102
RTVSPost2010Prop53
 90
        2
102
RTVSPost2010PropOp53
 70
     1
102
RTVSPost2010Prop54
  1
strokes_ogs.tif
102
RTVSPost2010PropOp54
 70
     1
102
RTVSPost2010Prop55
280
     0
102
RTVSPost2010PropOp55
 70
     1
102
RTVSPost2010Prop56
140
1.0
102
RTVSPost2010PropOp56
 70
     1
102
RTVSPost2010Prop57
140
1.0
102
RTVSPost2010PropOp57
 70
     1
102
RTVSPropertyOp0
 70
     1
102
RTVSPropertyOp1
 70
     1
102
RTVSPropertyOp2
 70
     1
102
RTVSPropertyOp3
 70
     1
102
RTVSPropertyOp4
 70
     1
102
RTVSPropertyOp5
 70
     1
102
RTVSPropertyOp6
 70
     1
102
RTVSPropertyOp7
 70
     1
102
RTVSPropertyOp8
 70
     1
102
RTVSPropertyOp9
 70
     1
102
RTVSPropertyOp10
 70
     1
102
RTVSPropertyOp11
 70
     1
102
RTVSPropertyOp12
 70
     1
102
RTVSPropertyOp13
 70
     1
102
RTVSPropertyOp14
 70
     1
102
RTVSPropertyOp15
 70
     1
102
RTVSPropertyOp16
 70
     1
102
RTVSPropertyOp17
 70
     1
102
RTVSPropertyOp18
 70
     1
102
RTVSPropertyOp19
 70
     1
102
RTVSPropertyOp20
 70
     1
102
RTVSPropertyOp21
 70
     1
102
RTVSPropertyOp22
 70
     1
102
RTVSPropertyOp23
 70
     1
102
RTVSPropertyOp24
 70
     1
102
RTVSPropertyOp25
 70
     1
102
RTVSPropertyOp26
 70
     1
102
RTVSPropertyOp27
 70
     1
102
RTVSPropertyOp28
 70
     1
102
RTVSPropertyOp29
 70
     1
102
RTVSPropertyOp30
 70
     1
102
RTVSPropertyOp31
 70
     1
102
RTVSPropertyOp32
 70
     1
102
RTVSPropertyOp33
 70
     1
102
RTVSPropertyOp34
 70
     1
102
RTVSPropertyOp35
 70
     1
102
RTVSPropertyOp36
 70
     1
102
RTVSPropertyOp37
 70
     1
102
RTVSPropertyOp38
 70
     1
102
RTVSPropertyOp39
 70
     1
102
RTVSPropertyOp40
 70
     1
102
RTVSPropertyOp41
 70
     1
102
RTVSPropertyOp42
 70
     1
102
RTVSPropertyOp43
 70
     1
102
RTVSPropertyOp44
 70
     1
102
RTVSPropertyOp45
 70
     1
102
RTVSPropertyOp46
 70
     1
102
RTVSPropertyOp47
 70
     1
102
RTVSPropertyOp48
 70
     1
102
RTVSPropertyOp49
 70
     1
102
RTVSPropertyOp50
 70
     1
102
RTVSPropertyOp51
 70
     0
102
RTVSPropertyOp52
 70
     0
102
RTVSPropertyOp53
 70
     1
102
RTVSPropertyOp54
 70
     1
102
RTVSPropertyOp55
 70
     1
102
RTVSPropertyOp56
 70
     1
102
RTVSPropertyOp57
 70
     1
102
RTVSPropertyOp58
 70
     1
102
RTVSPropertyOp59
 70
     1
102
RTVSPropertyOp60
 70
     1
102
RTVSPropertyOp61
 70
     1
102
RTVSPropertyOp62
 70
     1
  0
XRECORD
  5
1DFC
102
{ACAD_REACTORS
330
1DFB
102
}
330
1DFB
100
AcDbXrecord
280
     1
102
RTVSPost2010Prop28
280
     0
102
RTVSPost2010PropOp28
 70
     1
102
RTVSPost2010Prop29
280
     1
102
RTVSPost2010PropOp29
 70
     1
102
RTVSPost2010Prop30
280
     1
102
RTVSPost2010PropOp30
 70
     1
102
RTVSPost2010Prop31
280
     0
102
RTVSPost2010PropOp31
 70
     1
102
RTVSPost2010Prop32
280
     0
102
RTVSPost2010PropOp32
 70
     1
102
RTVSPost2010Prop33
280
     0
102
RTVSPost2010PropOp33
 70
     1
102
RTVSPost2010Prop34
280
     0
102
RTVSPost2010PropOp34
 70
     1
102
RTVSPost2010Prop35
280
     0
102
RTVSPost2010PropOp35
 70
     1
102
RTVSPost2010Prop36
280
     0
102
RTVSPost2010PropOp36
 70
     1
102
RTVSPost2010Prop37
 90
       50
102
RTVSPost2010PropOp37
 70
     1
102
RTVSPost2010Prop38
140
0.0
102
RTVSPost2010PropOp38
 70
     1
102
RTVSPost2010Prop39
140
1.0
102
RTVSPost2010PropOp39
 70
     1
102
RTVSPost2010Prop40
 90
        0
102
RTVSPost2010PropOp40
 70
     1
102
RTVSPost2010Prop41ColorIndex
 90
       18
102
RTVSPost2010Prop41ColorRGB
 90
        0
102
RTVSPost2010PropOp41
 70
     1
102
RTVSPost2010Prop42
 90
       50
102
RTVSPost2010PropOp42
 70
     1
102
RTVSPost2010Prop43
 90
        3
102
RTVSPost2010PropOp43
 70
     1
102
RTVSPost2010Prop44ColorIndex
 90
        5
102
RTVSPost2010Prop44ColorRGB
 90
      255
102
RTVSPost2010PropOp44
 70
     1
102
RTVSPost2010Prop45
280
     0
102
RTVSPost2010PropOp45
 70
     1
102
RTVSPost2010Prop46
 90
       50
102
RTVSPost2010PropOp46
 70
     1
102
RTVSPost2010Prop47
 90
       50
102
RTVSPost2010PropOp47
 70
     1
102
RTVSPost2010Prop48
 90
       50
102
RTVSPost2010PropOp48
 70
     1
102
RTVSPost2010Prop49
280
     0
102
RTVSPost2010PropOp49
 70
     1
102
RTVSPost2010Prop50
 90
       50
102
RTVSPost2010PropOp50
 70
     1
102
RTVSPost2010Prop51ColorIndex
 90
      256
102
RTVSPost2010Prop51ColorRGB
 90
-16777216
102
RTVSPost2010PropOp51
 70
     0
102
RTVSPost2010Prop52
140
1.0
102
RTVSPost2010PropOp52
 70
     0
102
RTVSPost2010Prop53
 90
        2
102
RTVSPost2010PropOp53
 70
     1
102
RTVSPost2010Prop54
  1
strokes_ogs.tif
102
RTVSPost2010PropOp54
 70
     1
102
RTVSPost2010Prop55
280
     0
102
RTVSPost2010PropOp55
 70
     1
102
RTVSPost2010Prop56
140
1.0
102
RTVSPost2010PropOp56
 70
     1
102
RTVSPost2010Prop57
140
1.0
102
RTVSPost2010PropOp57
 70
     1
102
RTVSPropertyOp0
 70
     1
102
RTVSPropertyOp1
 70
     1
102
RTVSPropertyOp2
 70
     1
102
RTVSPropertyOp3
 70
     1
102
RTVSPropertyOp4
 70
     1
102
RTVSPropertyOp5
 70
     1
102
RTVSPropertyOp6
 70
     1
102
RTVSPropertyOp7
 70
     1
102
RTVSPropertyOp8
 70
     1
102
RTVSPropertyOp9
 70
     1
102
RTVSPropertyOp10
 70
     1
102
RTVSPropertyOp11
 70
     1
102
RTVSPropertyOp12
 70
     1
102
RTVSPropertyOp13
 70
     1
102
RTVSPropertyOp14
 70
     1
102
RTVSPropertyOp15
 70
     1
102
RTVSPropertyOp16
 70
     1
102
RTVSPropertyOp17
 70
     1
102
RTVSPropertyOp18
 70
     1
102
RTVSPropertyOp19
 70
     1
102
RTVSPropertyOp20
 70
     1
102
RTVSPropertyOp21
 70
     1
102
RTVSPropertyOp22
 70
     1
102
RTVSPropertyOp23
 70
     1
102
RTVSPropertyOp24
 70
     1
102
RTVSPropertyOp25
 70
     1
102
RTVSPropertyOp26
 70
     1
102
RTVSPropertyOp27
 70
     1
102
RTVSPropertyOp28
 70
     1
102
RTVSPropertyOp29
 70
     1
102
RTVSPropertyOp30
 70
     1
102
RTVSPropertyOp31
 70
     1
102
RTVSPropertyOp32
 70
     1
102
RTVSPropertyOp33
 70
     1
102
RTVSPropertyOp34
 70
     1
102
RTVSPropertyOp35
 70
     1
102
RTVSPropertyOp36
 70
     1
102
RTVSPropertyOp37
 70
     1
102
RTVSPropertyOp38
 70
     1
102
RTVSPropertyOp39
 70
     1
102
RTVSPropertyOp40
 70
     1
102
RTVSPropertyOp41
 70
     1
102
RTVSPropertyOp42
 70
     1
102
RTVSPropertyOp43
 70
     1
102
RTVSPropertyOp44
 70
     1
102
RTVSPropertyOp45
 70
     1
102
RTVSPropertyOp46
 70
     1
102
RTVSPropertyOp47
 70
     1
102
RTVSPropertyOp48
 70
     1
102
RTVSPropertyOp49
 70
     1
102
RTVSPropertyOp50
 70
     1
102
RTVSPropertyOp51
 70
     0
102
RTVSPropertyOp52
 70
     0
102
RTVSPropertyOp53
 70
     1
102
RTVSPropertyOp54
 70
     1
102
RTVSPropertyOp55
 70
     1
102
RTVSPropertyOp56
 70
     1
102
RTVSPropertyOp57
 70
     1
102
RTVSPropertyOp58
 70
     1
102
RTVSPropertyOp59
 70
     1
102
RTVSPropertyOp60
 70
     1
102
RTVSPropertyOp61
 70
     1
102
RTVSPropertyOp62
 70
     1
  0
XRECORD
  5
1E04
102
{ACAD_REACTORS
330
1E03
102
}
330
1E03
100
AcDbXrecord
280
     1
102
RTVSPost2010Prop28
280
     0
102
RTVSPost2010PropOp28
 70
     1
102
RTVSPost2010Prop29
280
     1
102
RTVSPost2010PropOp29
 70
     1
102
RTVSPost2010Prop30
280
     1
102
RTVSPost2010PropOp30
 70
     1
102
RTVSPost2010Prop31
280
     0
102
RTVSPost2010PropOp31
 70
     1
102
RTVSPost2010Prop32
280
     0
102
RTVSPost2010PropOp32
 70
     1
102
RTVSPost2010Prop33
280
     0
102
RTVSPost2010PropOp33
 70
     1
102
RTVSPost2010Prop34
280
     0
102
RTVSPost2010PropOp34
 70
     1
102
RTVSPost2010Prop35
280
     0
102
RTVSPost2010PropOp35
 70
     1
102
RTVSPost2010Prop36
280
     0
102
RTVSPost2010PropOp36
 70
     1
102
RTVSPost2010Prop37
 90
       50
102
RTVSPost2010PropOp37
 70
     1
102
RTVSPost2010Prop38
140
0.0
102
RTVSPost2010PropOp38
 70
     1
102
RTVSPost2010Prop39
140
1.0
102
RTVSPost2010PropOp39
 70
     1
102
RTVSPost2010Prop40
 90
        0
102
RTVSPost2010PropOp40
 70
     1
102
RTVSPost2010Prop41ColorIndex
 90
       18
102
RTVSPost2010Prop41ColorRGB
 90
        0
102
RTVSPost2010PropOp41
 70
     1
102
RTVSPost2010Prop42
 90
       50
102
RTVSPost2010PropOp42
 70
     1
102
RTVSPost2010Prop43
 90
        3
102
RTVSPost2010PropOp43
 70
     1
102
RTVSPost2010Prop44ColorIndex
 90
        5
102
RTVSPost2010Prop44ColorRGB
 90
      255
102
RTVSPost2010PropOp44
 70
     1
102
RTVSPost2010Prop45
280
     0
102
RTVSPost2010PropOp45
 70
     1
102
RTVSPost2010Prop46
 90
       50
102
RTVSPost2010PropOp46
 70
     1
102
RTVSPost2010Prop47
 90
       50
102
RTVSPost2010PropOp47
 70
     1
102
RTVSPost2010Prop48
 90
       50
102
RTVSPost2010PropOp48
 70
     1
102
RTVSPost2010Prop49
280
     0
102
RTVSPost2010PropOp49
 70
     1
102
RTVSPost2010Prop50
 90
       50
102
RTVSPost2010PropOp50
 70
     1
102
RTVSPost2010Prop51ColorIndex
 90
      256
102
RTVSPost2010Prop51ColorRGB
 90
-16777216
102
RTVSPost2010PropOp51
 70
     0
102
RTVSPost2010Prop52
140
1.0
102
RTVSPost2010PropOp52
 70
     0
102
RTVSPost2010Prop53
 90
        2
102
RTVSPost2010PropOp53
 70
     1
102
RTVSPost2010Prop54
  1
strokes_ogs.tif
102
RTVSPost2010PropOp54
 70
     1
102
RTVSPost2010Prop55
280
     0
102
RTVSPost2010PropOp55
 70
     1
102
RTVSPost2010Prop56
140
1.0
102
RTVSPost2010PropOp56
 70
     1
102
RTVSPost2010Prop57
140
1.0
102
RTVSPost2010PropOp57
 70
     1
102
RTVSPropertyOp0
 70
     1
102
RTVSPropertyOp1
 70
     1
102
RTVSPropertyOp2
 70
     1
102
RTVSPropertyOp3
 70
     1
102
RTVSPropertyOp4
 70
     1
102
RTVSPropertyOp5
 70
     1
102
RTVSPropertyOp6
 70
     1
102
RTVSPropertyOp7
 70
     1
102
RTVSPropertyOp8
 70
     1
102
RTVSPropertyOp9
 70
     1
102
RTVSPropertyOp10
 70
     1
102
RTVSPropertyOp11
 70
     1
102
RTVSPropertyOp12
 70
     1
102
RTVSPropertyOp13
 70
     1
102
RTVSPropertyOp14
 70
     1
102
RTVSPropertyOp15
 70
     1
102
RTVSPropertyOp16
 70
     1
102
RTVSPropertyOp17
 70
     1
102
RTVSPropertyOp18
 70
     1
102
RTVSPropertyOp19
 70
     1
102
RTVSPropertyOp20
 70
     1
102
RTVSPropertyOp21
 70
     1
102
RTVSPropertyOp22
 70
     1
102
RTVSPropertyOp23
 70
     1
102
RTVSPropertyOp24
 70
     1
102
RTVSPropertyOp25
 70
     1
102
RTVSPropertyOp26
 70
     1
102
RTVSPropertyOp27
 70
     1
102
RTVSPropertyOp28
 70
     1
102
RTVSPropertyOp29
 70
     1
102
RTVSPropertyOp30
 70
     1
102
RTVSPropertyOp31
 70
     1
102
RTVSPropertyOp32
 70
     1
102
RTVSPropertyOp33
 70
     1
102
RTVSPropertyOp34
 70
     1
102
RTVSPropertyOp35
 70
     1
102
RTVSPropertyOp36
 70
     1
102
RTVSPropertyOp37
 70
     1
102
RTVSPropertyOp38
 70
     1
102
RTVSPropertyOp39
 70
     1
102
RTVSPropertyOp40
 70
     1
102
RTVSPropertyOp41
 70
     1
102
RTVSPropertyOp42
 70
     1
102
RTVSPropertyOp43
 70
     1
102
RTVSPropertyOp44
 70
     1
102
RTVSPropertyOp45
 70
     1
102
RTVSPropertyOp46
 70
     1
102
RTVSPropertyOp47
 70
     1
102
RTVSPropertyOp48
 70
     1
102
RTVSPropertyOp49
 70
     1
102
RTVSPropertyOp50
 70
     1
102
RTVSPropertyOp51
 70
     0
102
RTVSPropertyOp52
 70
     0
102
RTVSPropertyOp53
 70
     1
102
RTVSPropertyOp54
 70
     1
102
RTVSPropertyOp55
 70
     1
102
RTVSPropertyOp56
 70
     1
102
RTVSPropertyOp57
 70
     1
102
RTVSPropertyOp58
 70
     1
102
RTVSPropertyOp59
 70
     1
102
RTVSPropertyOp60
 70
     1
102
RTVSPropertyOp61
 70
     1
102
RTVSPropertyOp62
 70
     1
  0
XRECORD
  5
1DF6
102
{ACAD_REACTORS
330
1DF5
102
}
330
1DF5
100
AcDbXrecord
280
     1
102
RTVSPost2010Prop28
280
     0
102
RTVSPost2010PropOp28
 70
     1
102
RTVSPost2010Prop29
280
     1
102
RTVSPost2010PropOp29
 70
     1
102
RTVSPost2010Prop30
280
     1
102
RTVSPost2010PropOp30
 70
     1
102
RTVSPost2010Prop31
280
     0
102
RTVSPost2010PropOp31
 70
     1
102
RTVSPost2010Prop32
280
     0
102
RTVSPost2010PropOp32
 70
     1
102
RTVSPost2010Prop33
280
     0
102
RTVSPost2010PropOp33
 70
     1
102
RTVSPost2010Prop34
280
     0
102
RTVSPost2010PropOp34
 70
     1
102
RTVSPost2010Prop35
280
     0
102
RTVSPost2010PropOp35
 70
     1
102
RTVSPost2010Prop36
280
     0
102
RTVSPost2010PropOp36
 70
     1
102
RTVSPost2010Prop37
 90
       50
102
RTVSPost2010PropOp37
 70
     1
102
RTVSPost2010Prop38
140
0.0
102
RTVSPost2010PropOp38
 70
     1
102
RTVSPost2010Prop39
140
1.0
102
RTVSPost2010PropOp39
 70
     1
102
RTVSPost2010Prop40
 90
        0
102
RTVSPost2010PropOp40
 70
     1
102
RTVSPost2010Prop41ColorIndex
 90
       18
102
RTVSPost2010Prop41ColorRGB
 90
        0
102
RTVSPost2010PropOp41
 70
     1
102
RTVSPost2010Prop42
 90
       50
102
RTVSPost2010PropOp42
 70
     1
102
RTVSPost2010Prop43
 90
        3
102
RTVSPost2010PropOp43
 70
     1
102
RTVSPost2010Prop44ColorIndex
 90
        5
102
RTVSPost2010Prop44ColorRGB
 90
      255
102
RTVSPost2010PropOp44
 70
     1
102
RTVSPost2010Prop45
280
     0
102
RTVSPost2010PropOp45
 70
     1
102
RTVSPost2010Prop46
 90
       50
102
RTVSPost2010PropOp46
 70
     1
102
RTVSPost2010Prop47
 90
       50
102
RTVSPost2010PropOp47
 70
     1
102
RTVSPost2010Prop48
 90
       50
102
RTVSPost2010PropOp48
 70
     1
102
RTVSPost2010Prop49
280
     0
102
RTVSPost2010PropOp49
 70
     1
102
RTVSPost2010Prop50
 90
       50
102
RTVSPost2010PropOp50
 70
     1
102
RTVSPost2010Prop51ColorIndex
 90
      256
102
RTVSPost2010Prop51ColorRGB
 90
-16777216
102
RTVSPost2010PropOp51
 70
     0
102
RTVSPost2010Prop52
140
1.0
102
RTVSPost2010PropOp52
 70
     0
102
RTVSPost2010Prop53
 90
        2
102
RTVSPost2010PropOp53
 70
     1
102
RTVSPost2010Prop54
  1
strokes_ogs.tif
102
RTVSPost2010PropOp54
 70
     1
102
RTVSPost2010Prop55
280
     0
102
RTVSPost2010PropOp55
 70
     1
102
RTVSPost2010Prop56
140
1.0
102
RTVSPost2010PropOp56
 70
     1
102
RTVSPost2010Prop57
140
1.0
102
RTVSPost2010PropOp57
 70
     1
102
RTVSPropertyOp0
 70
     1
102
RTVSPropertyOp1
 70
     1
102
RTVSPropertyOp2
 70
     1
102
RTVSPropertyOp3
 70
     1
102
RTVSPropertyOp4
 70
     1
102
RTVSPropertyOp5
 70
     1
102
RTVSPropertyOp6
 70
     1
102
RTVSPropertyOp7
 70
     1
102
RTVSPropertyOp8
 70
     1
102
RTVSPropertyOp9
 70
     1
102
RTVSPropertyOp10
 70
     1
102
RTVSPropertyOp11
 70
     1
102
RTVSPropertyOp12
 70
     1
102
RTVSPropertyOp13
 70
     1
102
RTVSPropertyOp14
 70
     1
102
RTVSPropertyOp15
 70
     1
102
RTVSPropertyOp16
 70
     1
102
RTVSPropertyOp17
 70
     1
102
RTVSPropertyOp18
 70
     1
102
RTVSPropertyOp19
 70
     1
102
RTVSPropertyOp20
 70
     1
102
RTVSPropertyOp21
 70
     1
102
RTVSPropertyOp22
 70
     1
102
RTVSPropertyOp23
 70
     1
102
RTVSPropertyOp24
 70
     1
102
RTVSPropertyOp25
 70
     1
102
RTVSPropertyOp26
 70
     1
102
RTVSPropertyOp27
 70
     1
102
RTVSPropertyOp28
 70
     1
102
RTVSPropertyOp29
 70
     1
102
RTVSPropertyOp30
 70
     1
102
RTVSPropertyOp31
 70
     1
102
RTVSPropertyOp32
 70
     1
102
RTVSPropertyOp33
 70
     1
102
RTVSPropertyOp34
 70
     1
102
RTVSPropertyOp35
 70
     1
102
RTVSPropertyOp36
 70
     1
102
RTVSPropertyOp37
 70
     1
102
RTVSPropertyOp38
 70
     1
102
RTVSPropertyOp39
 70
     1
102
RTVSPropertyOp40
 70
     1
102
RTVSPropertyOp41
 70
     1
102
RTVSPropertyOp42
 70
     1
102
RTVSPropertyOp43
 70
     1
102
RTVSPropertyOp44
 70
     1
102
RTVSPropertyOp45
 70
     1
102
RTVSPropertyOp46
 70
     1
102
RTVSPropertyOp47
 70
     1
102
RTVSPropertyOp48
 70
     1
102
RTVSPropertyOp49
 70
     1
102
RTVSPropertyOp50
 70
     1
102
RTVSPropertyOp51
 70
     0
102
RTVSPropertyOp52
 70
     0
102
RTVSPropertyOp53
 70
     1
102
RTVSPropertyOp54
 70
     1
102
RTVSPropertyOp55
 70
     1
102
RTVSPropertyOp56
 70
     1
102
RTVSPropertyOp57
 70
     1
102
RTVSPropertyOp58
 70
     1
102
RTVSPropertyOp59
 70
     1
102
RTVSPropertyOp60
 70
     1
102
RTVSPropertyOp61
 70
     1
102
RTVSPropertyOp62
 70
     1
  0
XRECORD
  5
1DFA
102
{ACAD_REACTORS
330
1DF9
102
}
330
1DF9
100
AcDbXrecord
280
     1
102
RTVSPost2010Prop28
280
     0
102
RTVSPost2010PropOp28
 70
     1
102
RTVSPost2010Prop29
280
     1
102
RTVSPost2010PropOp29
 70
     1
102
RTVSPost2010Prop30
280
     1
102
RTVSPost2010PropOp30
 70
     1
102
RTVSPost2010Prop31
280
     0
102
RTVSPost2010PropOp31
 70
     1
102
RTVSPost2010Prop32
280
     0
102
RTVSPost2010PropOp32
 70
     1
102
RTVSPost2010Prop33
280
     0
102
RTVSPost2010PropOp33
 70
     1
102
RTVSPost2010Prop34
280
     0
102
RTVSPost2010PropOp34
 70
     1
102
RTVSPost2010Prop35
280
     0
102
RTVSPost2010PropOp35
 70
     1
102
RTVSPost2010Prop36
280
     0
102
RTVSPost2010PropOp36
 70
     1
102
RTVSPost2010Prop37
 90
       50
102
RTVSPost2010PropOp37
 70
     1
102
RTVSPost2010Prop38
140
0.0
102
RTVSPost2010PropOp38
 70
     1
102
RTVSPost2010Prop39
140
1.0
102
RTVSPost2010PropOp39
 70
     1
102
RTVSPost2010Prop40
 90
        0
102
RTVSPost2010PropOp40
 70
     1
102
RTVSPost2010Prop41ColorIndex
 90
       18
102
RTVSPost2010Prop41ColorRGB
 90
        0
102
RTVSPost2010PropOp41
 70
     1
102
RTVSPost2010Prop42
 90
       50
102
RTVSPost2010PropOp42
 70
     1
102
RTVSPost2010Prop43
 90
        3
102
RTVSPost2010PropOp43
 70
     1
102
RTVSPost2010Prop44ColorIndex
 90
        5
102
RTVSPost2010Prop44ColorRGB
 90
      255
102
RTVSPost2010PropOp44
 70
     1
102
RTVSPost2010Prop45
280
     0
102
RTVSPost2010PropOp45
 70
     1
102
RTVSPost2010Prop46
 90
       50
102
RTVSPost2010PropOp46
 70
     1
102
RTVSPost2010Prop47
 90
       50
102
RTVSPost2010PropOp47
 70
     1
102
RTVSPost2010Prop48
 90
       50
102
RTVSPost2010PropOp48
 70
     1
102
RTVSPost2010Prop49
280
     0
102
RTVSPost2010PropOp49
 70
     1
102
RTVSPost2010Prop50
 90
       50
102
RTVSPost2010PropOp50
 70
     1
102
RTVSPost2010Prop51ColorIndex
 90
      256
102
RTVSPost2010Prop51ColorRGB
 90
-16777216
102
RTVSPost2010PropOp51
 70
     0
102
RTVSPost2010Prop52
140
1.0
102
RTVSPost2010PropOp52
 70
     0
102
RTVSPost2010Prop53
 90
        2
102
RTVSPost2010PropOp53
 70
     1
102
RTVSPost2010Prop54
  1
strokes_ogs.tif
102
RTVSPost2010PropOp54
 70
     1
102
RTVSPost2010Prop55
280
     0
102
RTVSPost2010PropOp55
 70
     1
102
RTVSPost2010Prop56
140
1.0
102
RTVSPost2010PropOp56
 70
     1
102
RTVSPost2010Prop57
140
1.0
102
RTVSPost2010PropOp57
 70
     1
102
RTVSPropertyOp0
 70
     1
102
RTVSPropertyOp1
 70
     1
102
RTVSPropertyOp2
 70
     1
102
RTVSPropertyOp3
 70
     1
102
RTVSPropertyOp4
 70
     1
102
RTVSPropertyOp5
 70
     1
102
RTVSPropertyOp6
 70
     1
102
RTVSPropertyOp7
 70
     1
102
RTVSPropertyOp8
 70
     1
102
RTVSPropertyOp9
 70
     1
102
RTVSPropertyOp10
 70
     1
102
RTVSPropertyOp11
 70
     1
102
RTVSPropertyOp12
 70
     1
102
RTVSPropertyOp13
 70
     1
102
RTVSPropertyOp14
 70
     1
102
RTVSPropertyOp15
 70
     1
102
RTVSPropertyOp16
 70
     1
102
RTVSPropertyOp17
 70
     1
102
RTVSPropertyOp18
 70
     1
102
RTVSPropertyOp19
 70
     1
102
RTVSPropertyOp20
 70
     1
102
RTVSPropertyOp21
 70
     1
102
RTVSPropertyOp22
 70
     1
102
RTVSPropertyOp23
 70
     1
102
RTVSPropertyOp24
 70
     1
102
RTVSPropertyOp25
 70
     1
102
RTVSPropertyOp26
 70
     1
102
RTVSPropertyOp27
 70
     1
102
RTVSPropertyOp28
 70
     1
102
RTVSPropertyOp29
 70
     1
102
RTVSPropertyOp30
 70
     1
102
RTVSPropertyOp31
 70
     1
102
RTVSPropertyOp32
 70
     1
102
RTVSPropertyOp33
 70
     1
102
RTVSPropertyOp34
 70
     1
102
RTVSPropertyOp35
 70
     1
102
RTVSPropertyOp36
 70
     1
102
RTVSPropertyOp37
 70
     1
102
RTVSPropertyOp38
 70
     1
102
RTVSPropertyOp39
 70
     1
102
RTVSPropertyOp40
 70
     1
102
RTVSPropertyOp41
 70
     1
102
RTVSPropertyOp42
 70
     1
102
RTVSPropertyOp43
 70
     1
102
RTVSPropertyOp44
 70
     1
102
RTVSPropertyOp45
 70
     1
102
RTVSPropertyOp46
 70
     1
102
RTVSPropertyOp47
 70
     1
102
RTVSPropertyOp48
 70
     1
102
RTVSPropertyOp49
 70
     1
102
RTVSPropertyOp50
 70
     1
102
RTVSPropertyOp51
 70
     0
102
RTVSPropertyOp52
 70
     0
102
RTVSPropertyOp53
 70
     1
102
RTVSPropertyOp54
 70
     1
102
RTVSPropertyOp55
 70
     1
102
RTVSPropertyOp56
 70
     1
102
RTVSPropertyOp57
 70
     1
102
RTVSPropertyOp58
 70
     1
102
RTVSPropertyOp59
 70
     1
102
RTVSPropertyOp60
 70
     1
102
RTVSPropertyOp61
 70
     1
102
RTVSPropertyOp62
 70
     1
  0
XRECORD
  5
1E14
102
{ACAD_REACTORS
330
1E13
102
}
330
1E13
100
AcDbXrecord
280
     1
102
RTVSPost2010Prop28
280
     0
102
RTVSPost2010PropOp28
 70
     1
102
RTVSPost2010Prop29
280
     1
102
RTVSPost2010PropOp29
 70
     1
102
RTVSPost2010Prop30
280
     1
102
RTVSPost2010PropOp30
 70
     1
102
RTVSPost2010Prop31
280
     0
102
RTVSPost2010PropOp31
 70
     1
102
RTVSPost2010Prop32
280
     0
102
RTVSPost2010PropOp32
 70
     1
102
RTVSPost2010Prop33
280
     0
102
RTVSPost2010PropOp33
 70
     1
102
RTVSPost2010Prop34
280
     0
102
RTVSPost2010PropOp34
 70
     1
102
RTVSPost2010Prop35
280
     0
102
RTVSPost2010PropOp35
 70
     1
102
RTVSPost2010Prop36
280
     0
102
RTVSPost2010PropOp36
 70
     1
102
RTVSPost2010Prop37
 90
       50
102
RTVSPost2010PropOp37
 70
     0
102
RTVSPost2010Prop38
140
0.0
102
RTVSPost2010PropOp38
 70
     0
102
RTVSPost2010Prop39
140
1.0
102
RTVSPost2010PropOp39
 70
     0
102
RTVSPost2010Prop40
 90
        0
102
RTVSPost2010PropOp40
 70
     0
102
RTVSPost2010Prop41ColorIndex
 90
       18
102
RTVSPost2010Prop41ColorRGB
 90
        0
102
RTVSPost2010PropOp41
 70
     0
102
RTVSPost2010Prop42
 90
       50
102
RTVSPost2010PropOp42
 70
     0
102
RTVSPost2010Prop43
 90
        3
102
RTVSPost2010PropOp43
 70
     0
102
RTVSPost2010Prop44ColorIndex
 90
        5
102
RTVSPost2010Prop44ColorRGB
 90
      255
102
RTVSPost2010PropOp44
 70
     0
102
RTVSPost2010Prop45
280
     0
102
RTVSPost2010PropOp45
 70
     1
102
RTVSPost2010Prop46
 90
       50
102
RTVSPost2010PropOp46
 70
     0
102
RTVSPost2010Prop47
 90
       50
102
RTVSPost2010PropOp47
 70
     0
102
RTVSPost2010Prop48
 90
       50
102
RTVSPost2010PropOp48
 70
     0
102
RTVSPost2010Prop49
280
     0
102
RTVSPost2010PropOp49
 70
     1
102
RTVSPost2010Prop50
 90
       50
102
RTVSPost2010PropOp50
 70
     0
102
RTVSPost2010Prop51ColorIndex
 90
      256
102
RTVSPost2010Prop51ColorRGB
 90
-16777216
102
RTVSPost2010PropOp51
 70
     0
102
RTVSPost2010Prop52
140
1.0
102
RTVSPost2010PropOp52
 70
     0
102
RTVSPost2010Prop53
 90
        2
102
RTVSPost2010PropOp53
 70
     0
102
RTVSPost2010Prop54
  1
strokes_ogs.tif
102
RTVSPost2010PropOp54
 70
     0
102
RTVSPost2010Prop55
280
     0
102
RTVSPost2010PropOp55
 70
     1
102
RTVSPost2010Prop56
140
1.0
102
RTVSPost2010PropOp56
 70
     0
102
RTVSPost2010Prop57
140
1.0
102
RTVSPost2010PropOp57
 70
     0
102
RTVSPropertyOp0
 70
     0
102
RTVSPropertyOp1
 70
     0
102
RTVSPropertyOp2
 70
     0
102
RTVSPropertyOp3
 70
     0
102
RTVSPropertyOp4
 70
     0
102
RTVSPropertyOp5
 70
     0
102
RTVSPropertyOp6
 70
     0
102
RTVSPropertyOp7
 70
     0
102
RTVSPropertyOp8
 70
     0
102
RTVSPropertyOp9
 70
     0
102
RTVSPropertyOp10
 70
     0
102
RTVSPropertyOp11
 70
     0
102
RTVSPropertyOp12
 70
     0
102
RTVSPropertyOp13
 70
     0
102
RTVSPropertyOp14
 70
     2
102
RTVSPropertyOp15
 70
     0
102
RTVSPropertyOp16
 70
     0
102
RTVSPropertyOp17
 70
     0
102
RTVSPropertyOp18
 70
     0
102
RTVSPropertyOp19
 70
     0
102
RTVSPropertyOp20
 70
     0
102
RTVSPropertyOp21
 70
     0
102
RTVSPropertyOp22
 70
     0
102
RTVSPropertyOp23
 70
     0
102
RTVSPropertyOp24
 70
     0
102
RTVSPropertyOp25
 70
     0
102
RTVSPropertyOp26
 70
     0
102
RTVSPropertyOp27
 70
     0
102
RTVSPropertyOp28
 70
     1
102
RTVSPropertyOp29
 70
     1
102
RTVSPropertyOp30
 70
     1
102
RTVSPropertyOp31
 70
     1
102
RTVSPropertyOp32
 70
     1
102
RTVSPropertyOp33
 70
     1
102
RTVSPropertyOp34
 70
     1
102
RTVSPropertyOp35
 70
     1
102
RTVSPropertyOp36
 70
     1
102
RTVSPropertyOp37
 70
     0
102
RTVSPropertyOp38
 70
     0
102
RTVSPropertyOp39
 70
     0
102
RTVSPropertyOp40
 70
     0
102
RTVSPropertyOp41
 70
     0
102
RTVSPropertyOp42
 70
     0
102
RTVSPropertyOp43
 70
     0
102
RTVSPropertyOp44
 70
     0
102
RTVSPropertyOp45
 70
     1
102
RTVSPropertyOp46
 70
     0
102
RTVSPropertyOp47
 70
     0
102
RTVSPropertyOp48
 70
     0
102
RTVSPropertyOp49
 70
     1
102
RTVSPropertyOp50
 70
     0
102
RTVSPropertyOp51
 70
     0
102
RTVSPropertyOp52
 70
     0
102
RTVSPropertyOp53
 70
     0
102
RTVSPropertyOp54
 70
     0
102
RTVSPropertyOp55
 70
     1
102
RTVSPropertyOp56
 70
     0
102
RTVSPropertyOp57
 70
     0
102
RTVSPropertyOp58
 70
     0
102
RTVSPropertyOp59
 70
     0
102
RTVSPropertyOp60
 70
     0
102
RTVSPropertyOp61
 70
     0
102
RTVSPropertyOp62
 70
     0
  0
XRECORD
  5
1E02
102
{ACAD_REACTORS
330
1E01
102
}
330
1E01
100
AcDbXrecord
280
     1
102
RTVSPost2010Prop28
280
     0
102
RTVSPost2010PropOp28
 70
     1
102
RTVSPost2010Prop29
280
     1
102
RTVSPost2010PropOp29
 70
     1
102
RTVSPost2010Prop30
280
     1
102
RTVSPost2010PropOp30
 70
     1
102
RTVSPost2010Prop31
280
     0
102
RTVSPost2010PropOp31
 70
     1
102
RTVSPost2010Prop32
280
     0
102
RTVSPost2010PropOp32
 70
     1
102
RTVSPost2010Prop33
280
     0
102
RTVSPost2010PropOp33
 70
     1
102
RTVSPost2010Prop34
280
     0
102
RTVSPost2010PropOp34
 70
     1
102
RTVSPost2010Prop35
280
     0
102
RTVSPost2010PropOp35
 70
     1
102
RTVSPost2010Prop36
280
     0
102
RTVSPost2010PropOp36
 70
     1
102
RTVSPost2010Prop37
 90
       50
102
RTVSPost2010PropOp37
 70
     1
102
RTVSPost2010Prop38
140
0.0
102
RTVSPost2010PropOp38
 70
     1
102
RTVSPost2010Prop39
140
1.0
102
RTVSPost2010PropOp39
 70
     1
102
RTVSPost2010Prop40
 90
        0
102
RTVSPost2010PropOp40
 70
     1
102
RTVSPost2010Prop41ColorIndex
 90
       18
102
RTVSPost2010Prop41ColorRGB
 90
        0
102
RTVSPost2010PropOp41
 70
     1
102
RTVSPost2010Prop42
 90
       50
102
RTVSPost2010PropOp42
 70
     1
102
RTVSPost2010Prop43
 90
        3
102
RTVSPost2010PropOp43
 70
     1
102
RTVSPost2010Prop44ColorIndex
 90
        5
102
RTVSPost2010Prop44ColorRGB
 90
      255
102
RTVSPost2010PropOp44
 70
     1
102
RTVSPost2010Prop45
280
     0
102
RTVSPost2010PropOp45
 70
     1
102
RTVSPost2010Prop46
 90
       50
102
RTVSPost2010PropOp46
 70
     1
102
RTVSPost2010Prop47
 90
       50
102
RTVSPost2010PropOp47
 70
     1
102
RTVSPost2010Prop48
 90
       50
102
RTVSPost2010PropOp48
 70
     1
102
RTVSPost2010Prop49
280
     0
102
RTVSPost2010PropOp49
 70
     1
102
RTVSPost2010Prop50
 90
       50
102
RTVSPost2010PropOp50
 70
     1
102
RTVSPost2010Prop51ColorIndex
 90
      256
102
RTVSPost2010Prop51ColorRGB
 90
-16777216
102
RTVSPost2010PropOp51
 70
     0
102
RTVSPost2010Prop52
140
1.0
102
RTVSPost2010PropOp52
 70
     0
102
RTVSPost2010Prop53
 90
        2
102
RTVSPost2010PropOp53
 70
     1
102
RTVSPost2010Prop54
  1
strokes_ogs.tif
102
RTVSPost2010PropOp54
 70
     1
102
RTVSPost2010Prop55
280
     0
102
RTVSPost2010PropOp55
 70
     1
102
RTVSPost2010Prop56
140
1.0
102
RTVSPost2010PropOp56
 70
     1
102
RTVSPost2010Prop57
140
1.0
102
RTVSPost2010PropOp57
 70
     1
102
RTVSPropertyOp0
 70
     1
102
RTVSPropertyOp1
 70
     1
102
RTVSPropertyOp2
 70
     1
102
RTVSPropertyOp3
 70
     1
102
RTVSPropertyOp4
 70
     1
102
RTVSPropertyOp5
 70
     1
102
RTVSPropertyOp6
 70
     1
102
RTVSPropertyOp7
 70
     1
102
RTVSPropertyOp8
 70
     1
102
RTVSPropertyOp9
 70
     1
102
RTVSPropertyOp10
 70
     1
102
RTVSPropertyOp11
 70
     1
102
RTVSPropertyOp12
 70
     1
102
RTVSPropertyOp13
 70
     1
102
RTVSPropertyOp14
 70
     1
102
RTVSPropertyOp15
 70
     1
102
RTVSPropertyOp16
 70
     1
102
RTVSPropertyOp17
 70
     1
102
RTVSPropertyOp18
 70
     1
102
RTVSPropertyOp19
 70
     1
102
RTVSPropertyOp20
 70
     1
102
RTVSPropertyOp21
 70
     1
102
RTVSPropertyOp22
 70
     1
102
RTVSPropertyOp23
 70
     1
102
RTVSPropertyOp24
 70
     1
102
RTVSPropertyOp25
 70
     1
102
RTVSPropertyOp26
 70
     1
102
RTVSPropertyOp27
 70
     1
102
RTVSPropertyOp28
 70
     1
102
RTVSPropertyOp29
 70
     1
102
RTVSPropertyOp30
 70
     1
102
RTVSPropertyOp31
 70
     1
102
RTVSPropertyOp32
 70
     1
102
RTVSPropertyOp33
 70
     1
102
RTVSPropertyOp34
 70
     1
102
RTVSPropertyOp35
 70
     1
102
RTVSPropertyOp36
 70
     1
102
RTVSPropertyOp37
 70
     1
102
RTVSPropertyOp38
 70
     1
102
RTVSPropertyOp39
 70
     1
102
RTVSPropertyOp40
 70
     1
102
RTVSPropertyOp41
 70
     1
102
RTVSPropertyOp42
 70
     1
102
RTVSPropertyOp43
 70
     1
102
RTVSPropertyOp44
 70
     1
102
RTVSPropertyOp45
 70
     1
102
RTVSPropertyOp46
 70
     1
102
RTVSPropertyOp47
 70
     1
102
RTVSPropertyOp48
 70
     1
102
RTVSPropertyOp49
 70
     1
102
RTVSPropertyOp50
 70
     1
102
RTVSPropertyOp51
 70
     0
102
RTVSPropertyOp52
 70
     0
102
RTVSPropertyOp53
 70
     1
102
RTVSPropertyOp54
 70
     1
102
RTVSPropertyOp55
 70
     1
102
RTVSPropertyOp56
 70
     1
102
RTVSPropertyOp57
 70
     1
102
RTVSPropertyOp58
 70
     1
102
RTVSPropertyOp59
 70
     1
102
RTVSPropertyOp60
 70
     1
102
RTVSPropertyOp61
 70
     1
102
RTVSPropertyOp62
 70
     1
  0
XRECORD
  5
1DE6
102
{ACAD_REACTORS
330
1DE5
102
}
330
1DE5
100
AcDbXrecord
280
     1
102
RTVSPost2010Prop28
280
     0
102
RTVSPost2010PropOp28
 70
     1
102
RTVSPost2010Prop29
280
     1
102
RTVSPost2010PropOp29
 70
     1
102
RTVSPost2010Prop30
280
     1
102
RTVSPost2010PropOp30
 70
     1
102
RTVSPost2010Prop31
280
     0
102
RTVSPost2010PropOp31
 70
     1
102
RTVSPost2010Prop32
280
     0
102
RTVSPost2010PropOp32
 70
     1
102
RTVSPost2010Prop33
280
     0
102
RTVSPost2010PropOp33
 70
     1
102
RTVSPost2010Prop34
280
     0
102
RTVSPost2010PropOp34
 70
     1
102
RTVSPost2010Prop35
280
     0
102
RTVSPost2010PropOp35
 70
     1
102
RTVSPost2010Prop36
280
     0
102
RTVSPost2010PropOp36
 70
     1
102
RTVSPost2010Prop37
 90
       50
102
RTVSPost2010PropOp37
 70
     1
102
RTVSPost2010Prop38
140
0.0
102
RTVSPost2010PropOp38
 70
     1
102
RTVSPost2010Prop39
140
1.0
102
RTVSPost2010PropOp39
 70
     1
102
RTVSPost2010Prop40
 90
        0
102
RTVSPost2010PropOp40
 70
     1
102
RTVSPost2010Prop41ColorIndex
 90
       18
102
RTVSPost2010Prop41ColorRGB
 90
        0
102
RTVSPost2010PropOp41
 70
     1
102
RTVSPost2010Prop42
 90
       50
102
RTVSPost2010PropOp42
 70
     1
102
RTVSPost2010Prop43
 90
        3
102
RTVSPost2010PropOp43
 70
     1
102
RTVSPost2010Prop44ColorIndex
 90
        5
102
RTVSPost2010Prop44ColorRGB
 90
      255
102
RTVSPost2010PropOp44
 70
     1
102
RTVSPost2010Prop45
280
     0
102
RTVSPost2010PropOp45
 70
     1
102
RTVSPost2010Prop46
 90
       50
102
RTVSPost2010PropOp46
 70
     1
102
RTVSPost2010Prop47
 90
       50
102
RTVSPost2010PropOp47
 70
     1
102
RTVSPost2010Prop48
 90
       50
102
RTVSPost2010PropOp48
 70
     1
102
RTVSPost2010Prop49
280
     0
102
RTVSPost2010PropOp49
 70
     1
102
RTVSPost2010Prop50
 90
       50
102
RTVSPost2010PropOp50
 70
     1
102
RTVSPost2010Prop51ColorIndex
 90
      256
102
RTVSPost2010Prop51ColorRGB
 90
-16777216
102
RTVSPost2010PropOp51
 70
     0
102
RTVSPost2010Prop52
140
1.0
102
RTVSPost2010PropOp52
 70
     0
102
RTVSPost2010Prop53
 90
        2
102
RTVSPost2010PropOp53
 70
     1
102
RTVSPost2010Prop54
  1
strokes_ogs.tif
102
RTVSPost2010PropOp54
 70
     1
102
RTVSPost2010Prop55
280
     0
102
RTVSPost2010PropOp55
 70
     1
102
RTVSPost2010Prop56
140
1.0
102
RTVSPost2010PropOp56
 70
     1
102
RTVSPost2010Prop57
140
1.0
102
RTVSPost2010PropOp57
 70
     1
102
RTVSPropertyOp0
 70
     1
102
RTVSPropertyOp1
 70
     1
102
RTVSPropertyOp2
 70
     1
102
RTVSPropertyOp3
 70
     1
102
RTVSPropertyOp4
 70
     1
102
RTVSPropertyOp5
 70
     1
102
RTVSPropertyOp6
 70
     1
102
RTVSPropertyOp7
 70
     1
102
RTVSPropertyOp8
 70
     1
102
RTVSPropertyOp9
 70
     1
102
RTVSPropertyOp10
 70
     1
102
RTVSPropertyOp11
 70
     1
102
RTVSPropertyOp12
 70
     1
102
RTVSPropertyOp13
 70
     1
102
RTVSPropertyOp14
 70
     1
102
RTVSPropertyOp15
 70
     1
102
RTVSPropertyOp16
 70
     1
102
RTVSPropertyOp17
 70
     1
102
RTVSPropertyOp18
 70
     1
102
RTVSPropertyOp19
 70
     1
102
RTVSPropertyOp20
 70
     1
102
RTVSPropertyOp21
 70
     1
102
RTVSPropertyOp22
 70
     1
102
RTVSPropertyOp23
 70
     1
102
RTVSPropertyOp24
 70
     1
102
RTVSPropertyOp25
 70
     1
102
RTVSPropertyOp26
 70
     1
102
RTVSPropertyOp27
 70
     1
102
RTVSPropertyOp28
 70
     1
102
RTVSPropertyOp29
 70
     1
102
RTVSPropertyOp30
 70
     1
102
RTVSPropertyOp31
 70
     1
102
RTVSPropertyOp32
 70
     1
102
RTVSPropertyOp33
 70
     1
102
RTVSPropertyOp34
 70
     1
102
RTVSPropertyOp35
 70
     1
102
RTVSPropertyOp36
 70
     1
102
RTVSPropertyOp37
 70
     1
102
RTVSPropertyOp38
 70
     1
102
RTVSPropertyOp39
 70
     1
102
RTVSPropertyOp40
 70
     1
102
RTVSPropertyOp41
 70
     1
102
RTVSPropertyOp42
 70
     1
102
RTVSPropertyOp43
 70
     1
102
RTVSPropertyOp44
 70
     1
102
RTVSPropertyOp45
 70
     1
102
RTVSPropertyOp46
 70
     1
102
RTVSPropertyOp47
 70
     1
102
RTVSPropertyOp48
 70
     1
102
RTVSPropertyOp49
 70
     1
102
RTVSPropertyOp50
 70
     1
102
RTVSPropertyOp51
 70
     0
102
RTVSPropertyOp52
 70
     0
102
RTVSPropertyOp53
 70
     1
102
RTVSPropertyOp54
 70
     1
102
RTVSPropertyOp55
 70
     1
102
RTVSPropertyOp56
 70
     1
102
RTVSPropertyOp57
 70
     1
102
RTVSPropertyOp58
 70
     1
102
RTVSPropertyOp59
 70
     1
102
RTVSPropertyOp60
 70
     1
102
RTVSPropertyOp61
 70
     1
102
RTVSPropertyOp62
 70
     1
  0
XRECORD
  5
1DE8
102
{ACAD_REACTORS
330
1DE7
102
}
330
1DE7
100
AcDbXrecord
280
     1
102
RTVSPost2010Prop28
280
     0
102
RTVSPost2010PropOp28
 70
     1
102
RTVSPost2010Prop29
280
     1
102
RTVSPost2010PropOp29
 70
     1
102
RTVSPost2010Prop30
280
     1
102
RTVSPost2010PropOp30
 70
     1
102
RTVSPost2010Prop31
280
     0
102
RTVSPost2010PropOp31
 70
     1
102
RTVSPost2010Prop32
280
     0
102
RTVSPost2010PropOp32
 70
     1
102
RTVSPost2010Prop33
280
     0
102
RTVSPost2010PropOp33
 70
     1
102
RTVSPost2010Prop34
280
     0
102
RTVSPost2010PropOp34
 70
     1
102
RTVSPost2010Prop35
280
     0
102
RTVSPost2010PropOp35
 70
     1
102
RTVSPost2010Prop36
280
     0
102
RTVSPost2010PropOp36
 70
     1
102
RTVSPost2010Prop37
 90
       50
102
RTVSPost2010PropOp37
 70
     1
102
RTVSPost2010Prop38
140
0.0
102
RTVSPost2010PropOp38
 70
     1
102
RTVSPost2010Prop39
140
1.0
102
RTVSPost2010PropOp39
 70
     1
102
RTVSPost2010Prop40
 90
        0
102
RTVSPost2010PropOp40
 70
     1
102
RTVSPost2010Prop41ColorIndex
 90
       18
102
RTVSPost2010Prop41ColorRGB
 90
        0
102
RTVSPost2010PropOp41
 70
     1
102
RTVSPost2010Prop42
 90
       50
102
RTVSPost2010PropOp42
 70
     1
102
RTVSPost2010Prop43
 90
        3
102
RTVSPost2010PropOp43
 70
     1
102
RTVSPost2010Prop44ColorIndex
 90
        5
102
RTVSPost2010Prop44ColorRGB
 90
      255
102
RTVSPost2010PropOp44
 70
     1
102
RTVSPost2010Prop45
280
     0
102
RTVSPost2010PropOp45
 70
     1
102
RTVSPost2010Prop46
 90
       50
102
RTVSPost2010PropOp46
 70
     1
102
RTVSPost2010Prop47
 90
       50
102
RTVSPost2010PropOp47
 70
     1
102
RTVSPost2010Prop48
 90
       50
102
RTVSPost2010PropOp48
 70
     1
102
RTVSPost2010Prop49
280
     0
102
RTVSPost2010PropOp49
 70
     1
102
RTVSPost2010Prop50
 90
       50
102
RTVSPost2010PropOp50
 70
     1
102
RTVSPost2010Prop51ColorIndex
 90
      256
102
RTVSPost2010Prop51ColorRGB
 90
-16777216
102
RTVSPost2010PropOp51
 70
     0
102
RTVSPost2010Prop52
140
1.0
102
RTVSPost2010PropOp52
 70
     0
102
RTVSPost2010Prop53
 90
        2
102
RTVSPost2010PropOp53
 70
     1
102
RTVSPost2010Prop54
  1
strokes_ogs.tif
102
RTVSPost2010PropOp54
 70
     1
102
RTVSPost2010Prop55
280
     0
102
RTVSPost2010PropOp55
 70
     1
102
RTVSPost2010Prop56
140
1.0
102
RTVSPost2010PropOp56
 70
     1
102
RTVSPost2010Prop57
140
1.0
102
RTVSPost2010PropOp57
 70
     1
102
RTVSPropertyOp0
 70
     1
102
RTVSPropertyOp1
 70
     1
102
RTVSPropertyOp2
 70
     1
102
RTVSPropertyOp3
 70
     1
102
RTVSPropertyOp4
 70
     1
102
RTVSPropertyOp5
 70
     1
102
RTVSPropertyOp6
 70
     1
102
RTVSPropertyOp7
 70
     1
102
RTVSPropertyOp8
 70
     1
102
RTVSPropertyOp9
 70
     1
102
RTVSPropertyOp10
 70
     1
102
RTVSPropertyOp11
 70
     1
102
RTVSPropertyOp12
 70
     1
102
RTVSPropertyOp13
 70
     1
102
RTVSPropertyOp14
 70
     1
102
RTVSPropertyOp15
 70
     1
102
RTVSPropertyOp16
 70
     1
102
RTVSPropertyOp17
 70
     1
102
RTVSPropertyOp18
 70
     1
102
RTVSPropertyOp19
 70
     1
102
RTVSPropertyOp20
 70
     1
102
RTVSPropertyOp21
 70
     1
102
RTVSPropertyOp22
 70
     1
102
RTVSPropertyOp23
 70
     1
102
RTVSPropertyOp24
 70
     1
102
RTVSPropertyOp25
 70
     1
102
RTVSPropertyOp26
 70
     1
102
RTVSPropertyOp27
 70
     1
102
RTVSPropertyOp28
 70
     1
102
RTVSPropertyOp29
 70
     1
102
RTVSPropertyOp30
 70
     1
102
RTVSPropertyOp31
 70
     1
102
RTVSPropertyOp32
 70
     1
102
RTVSPropertyOp33
 70
     1
102
RTVSPropertyOp34
 70
     1
102
RTVSPropertyOp35
 70
     1
102
RTVSPropertyOp36
 70
     1
102
RTVSPropertyOp37
 70
     1
102
RTVSPropertyOp38
 70
     1
102
RTVSPropertyOp39
 70
     1
102
RTVSPropertyOp40
 70
     1
102
RTVSPropertyOp41
 70
     1
102
RTVSPropertyOp42
 70
     1
102
RTVSPropertyOp43
 70
     1
102
RTVSPropertyOp44
 70
     1
102
RTVSPropertyOp45
 70
     1
102
RTVSPropertyOp46
 70
     1
102
RTVSPropertyOp47
 70
     1
102
RTVSPropertyOp48
 70
     1
102
RTVSPropertyOp49
 70
     1
102
RTVSPropertyOp50
 70
     1
102
RTVSPropertyOp51
 70
     0
102
RTVSPropertyOp52
 70
     0
102
RTVSPropertyOp53
 70
     1
102
RTVSPropertyOp54
 70
     1
102
RTVSPropertyOp55
 70
     1
102
RTVSPropertyOp56
 70
     1
102
RTVSPropertyOp57
 70
     1
102
RTVSPropertyOp58
 70
     1
102
RTVSPropertyOp59
 70
     1
102
RTVSPropertyOp60
 70
     1
102
RTVSPropertyOp61
 70
     1
102
RTVSPropertyOp62
 70
     1
  0
XRECORD
  5
1DEA
102
{ACAD_REACTORS
330
1DE9
102
}
330
1DE9
100
AcDbXrecord
280
     1
102
RTVSPost2010Prop28
280
     0
102
RTVSPost2010PropOp28
 70
     1
102
RTVSPost2010Prop29
280
     1
102
RTVSPost2010PropOp29
 70
     1
102
RTVSPost2010Prop30
280
     1
102
RTVSPost2010PropOp30
 70
     1
102
RTVSPost2010Prop31
280
     0
102
RTVSPost2010PropOp31
 70
     1
102
RTVSPost2010Prop32
280
     0
102
RTVSPost2010PropOp32
 70
     1
102
RTVSPost2010Prop33
280
     0
102
RTVSPost2010PropOp33
 70
     1
102
RTVSPost2010Prop34
280
     0
102
RTVSPost2010PropOp34
 70
     1
102
RTVSPost2010Prop35
280
     0
102
RTVSPost2010PropOp35
 70
     1
102
RTVSPost2010Prop36
280
     0
102
RTVSPost2010PropOp36
 70
     1
102
RTVSPost2010Prop37
 90
       50
102
RTVSPost2010PropOp37
 70
     1
102
RTVSPost2010Prop38
140
0.0
102
RTVSPost2010PropOp38
 70
     1
102
RTVSPost2010Prop39
140
1.0
102
RTVSPost2010PropOp39
 70
     1
102
RTVSPost2010Prop40
 90
        0
102
RTVSPost2010PropOp40
 70
     1
102
RTVSPost2010Prop41ColorIndex
 90
       18
102
RTVSPost2010Prop41ColorRGB
 90
        0
102
RTVSPost2010PropOp41
 70
     1
102
RTVSPost2010Prop42
 90
       50
102
RTVSPost2010PropOp42
 70
     1
102
RTVSPost2010Prop43
 90
        3
102
RTVSPost2010PropOp43
 70
     1
102
RTVSPost2010Prop44ColorIndex
 90
        5
102
RTVSPost2010Prop44ColorRGB
 90
      255
102
RTVSPost2010PropOp44
 70
     1
102
RTVSPost2010Prop45
280
     0
102
RTVSPost2010PropOp45
 70
     1
102
RTVSPost2010Prop46
 90
       50
102
RTVSPost2010PropOp46
 70
     1
102
RTVSPost2010Prop47
 90
       50
102
RTVSPost2010PropOp47
 70
     1
102
RTVSPost2010Prop48
 90
       50
102
RTVSPost2010PropOp48
 70
     1
102
RTVSPost2010Prop49
280
     0
102
RTVSPost2010PropOp49
 70
     1
102
RTVSPost2010Prop50
 90
       50
102
RTVSPost2010PropOp50
 70
     1
102
RTVSPost2010Prop51ColorIndex
 90
      256
102
RTVSPost2010Prop51ColorRGB
 90
-16777216
102
RTVSPost2010PropOp51
 70
     0
102
RTVSPost2010Prop52
140
1.0
102
RTVSPost2010PropOp52
 70
     0
102
RTVSPost2010Prop53
 90
        2
102
RTVSPost2010PropOp53
 70
     1
102
RTVSPost2010Prop54
  1
strokes_ogs.tif
102
RTVSPost2010PropOp54
 70
     1
102
RTVSPost2010Prop55
280
     0
102
RTVSPost2010PropOp55
 70
     1
102
RTVSPost2010Prop56
140
1.0
102
RTVSPost2010PropOp56
 70
     1
102
RTVSPost2010Prop57
140
1.0
102
RTVSPost2010PropOp57
 70
     1
102
RTVSPropertyOp0
 70
     1
102
RTVSPropertyOp1
 70
     1
102
RTVSPropertyOp2
 70
     1
102
RTVSPropertyOp3
 70
     1
102
RTVSPropertyOp4
 70
     1
102
RTVSPropertyOp5
 70
     1
102
RTVSPropertyOp6
 70
     1
102
RTVSPropertyOp7
 70
     1
102
RTVSPropertyOp8
 70
     1
102
RTVSPropertyOp9
 70
     1
102
RTVSPropertyOp10
 70
     1
102
RTVSPropertyOp11
 70
     1
102
RTVSPropertyOp12
 70
     1
102
RTVSPropertyOp13
 70
     1
102
RTVSPropertyOp14
 70
     1
102
RTVSPropertyOp15
 70
     1
102
RTVSPropertyOp16
 70
     1
102
RTVSPropertyOp17
 70
     1
102
RTVSPropertyOp18
 70
     1
102
RTVSPropertyOp19
 70
     1
102
RTVSPropertyOp20
 70
     1
102
RTVSPropertyOp21
 70
     1
102
RTVSPropertyOp22
 70
     1
102
RTVSPropertyOp23
 70
     1
102
RTVSPropertyOp24
 70
     1
102
RTVSPropertyOp25
 70
     1
102
RTVSPropertyOp26
 70
     1
102
RTVSPropertyOp27
 70
     1
102
RTVSPropertyOp28
 70
     1
102
RTVSPropertyOp29
 70
     1
102
RTVSPropertyOp30
 70
     1
102
RTVSPropertyOp31
 70
     1
102
RTVSPropertyOp32
 70
     1
102
RTVSPropertyOp33
 70
     1
102
RTVSPropertyOp34
 70
     1
102
RTVSPropertyOp35
 70
     1
102
RTVSPropertyOp36
 70
     1
102
RTVSPropertyOp37
 70
     1
102
RTVSPropertyOp38
 70
     1
102
RTVSPropertyOp39
 70
     1
102
RTVSPropertyOp40
 70
     1
102
RTVSPropertyOp41
 70
     1
102
RTVSPropertyOp42
 70
     1
102
RTVSPropertyOp43
 70
     1
102
RTVSPropertyOp44
 70
     1
102
RTVSPropertyOp45
 70
     1
102
RTVSPropertyOp46
 70
     1
102
RTVSPropertyOp47
 70
     1
102
RTVSPropertyOp48
 70
     1
102
RTVSPropertyOp49
 70
     1
102
RTVSPropertyOp50
 70
     1
102
RTVSPropertyOp51
 70
     0
102
RTVSPropertyOp52
 70
     0
102
RTVSPropertyOp53
 70
     1
102
RTVSPropertyOp54
 70
     1
102
RTVSPropertyOp55
 70
     1
102
RTVSPropertyOp56
 70
     1
102
RTVSPropertyOp57
 70
     1
102
RTVSPropertyOp58
 70
     1
102
RTVSPropertyOp59
 70
     1
102
RTVSPropertyOp60
 70
     1
102
RTVSPropertyOp61
 70
     1
102
RTVSPropertyOp62
 70
     1
  0
XRECORD
  5
1DEC
102
{ACAD_REACTORS
330
1DEB
102
}
330
1DEB
100
AcDbXrecord
280
     1
102
RTVSPost2010Prop28
280
     0
102
RTVSPost2010PropOp28
 70
     1
102
RTVSPost2010Prop29
280
     1
102
RTVSPost2010PropOp29
 70
     1
102
RTVSPost2010Prop30
280
     1
102
RTVSPost2010PropOp30
 70
     1
102
RTVSPost2010Prop31
280
     0
102
RTVSPost2010PropOp31
 70
     1
102
RTVSPost2010Prop32
280
     0
102
RTVSPost2010PropOp32
 70
     1
102
RTVSPost2010Prop33
280
     0
102
RTVSPost2010PropOp33
 70
     1
102
RTVSPost2010Prop34
280
     0
102
RTVSPost2010PropOp34
 70
     1
102
RTVSPost2010Prop35
280
     0
102
RTVSPost2010PropOp35
 70
     1
102
RTVSPost2010Prop36
280
     0
102
RTVSPost2010PropOp36
 70
     1
102
RTVSPost2010Prop37
 90
       50
102
RTVSPost2010PropOp37
 70
     1
102
RTVSPost2010Prop38
140
0.0
102
RTVSPost2010PropOp38
 70
     1
102
RTVSPost2010Prop39
140
1.0
102
RTVSPost2010PropOp39
 70
     1
102
RTVSPost2010Prop40
 90
        0
102
RTVSPost2010PropOp40
 70
     1
102
RTVSPost2010Prop41ColorIndex
 90
       18
102
RTVSPost2010Prop41ColorRGB
 90
        0
102
RTVSPost2010PropOp41
 70
     1
102
RTVSPost2010Prop42
 90
       50
102
RTVSPost2010PropOp42
 70
     1
102
RTVSPost2010Prop43
 90
        3
102
RTVSPost2010PropOp43
 70
     1
102
RTVSPost2010Prop44ColorIndex
 90
        5
102
RTVSPost2010Prop44ColorRGB
 90
      255
102
RTVSPost2010PropOp44
 70
     1
102
RTVSPost2010Prop45
280
     0
102
RTVSPost2010PropOp45
 70
     1
102
RTVSPost2010Prop46
 90
       50
102
RTVSPost2010PropOp46
 70
     1
102
RTVSPost2010Prop47
 90
       50
102
RTVSPost2010PropOp47
 70
     1
102
RTVSPost2010Prop48
 90
       50
102
RTVSPost2010PropOp48
 70
     1
102
RTVSPost2010Prop49
280
     0
102
RTVSPost2010PropOp49
 70
     1
102
RTVSPost2010Prop50
 90
       50
102
RTVSPost2010PropOp50
 70
     1
102
RTVSPost2010Prop51ColorIndex
 90
      256
102
RTVSPost2010Prop51ColorRGB
 90
-16777216
102
RTVSPost2010PropOp51
 70
     0
102
RTVSPost2010Prop52
140
1.0
102
RTVSPost2010PropOp52
 70
     0
102
RTVSPost2010Prop53
 90
        2
102
RTVSPost2010PropOp53
 70
     1
102
RTVSPost2010Prop54
  1
strokes_ogs.tif
102
RTVSPost2010PropOp54
 70
     1
102
RTVSPost2010Prop55
280
     0
102
RTVSPost2010PropOp55
 70
     1
102
RTVSPost2010Prop56
140
1.0
102
RTVSPost2010PropOp56
 70
     1
102
RTVSPost2010Prop57
140
1.0
102
RTVSPost2010PropOp57
 70
     1
102
RTVSPropertyOp0
 70
     1
102
RTVSPropertyOp1
 70
     1
102
RTVSPropertyOp2
 70
     1
102
RTVSPropertyOp3
 70
     1
102
RTVSPropertyOp4
 70
     1
102
RTVSPropertyOp5
 70
     1
102
RTVSPropertyOp6
 70
     1
102
RTVSPropertyOp7
 70
     1
102
RTVSPropertyOp8
 70
     1
102
RTVSPropertyOp9
 70
     1
102
RTVSPropertyOp10
 70
     1
102
RTVSPropertyOp11
 70
     1
102
RTVSPropertyOp12
 70
     1
102
RTVSPropertyOp13
 70
     1
102
RTVSPropertyOp14
 70
     1
102
RTVSPropertyOp15
 70
     1
102
RTVSPropertyOp16
 70
     1
102
RTVSPropertyOp17
 70
     1
102
RTVSPropertyOp18
 70
     1
102
RTVSPropertyOp19
 70
     1
102
RTVSPropertyOp20
 70
     1
102
RTVSPropertyOp21
 70
     1
102
RTVSPropertyOp22
 70
     1
102
RTVSPropertyOp23
 70
     1
102
RTVSPropertyOp24
 70
     1
102
RTVSPropertyOp25
 70
     1
102
RTVSPropertyOp26
 70
     1
102
RTVSPropertyOp27
 70
     1
102
RTVSPropertyOp28
 70
     1
102
RTVSPropertyOp29
 70
     1
102
RTVSPropertyOp30
 70
     1
102
RTVSPropertyOp31
 70
     1
102
RTVSPropertyOp32
 70
     1
102
RTVSPropertyOp33
 70
     1
102
RTVSPropertyOp34
 70
     1
102
RTVSPropertyOp35
 70
     1
102
RTVSPropertyOp36
 70
     1
102
RTVSPropertyOp37
 70
     1
102
RTVSPropertyOp38
 70
     1
102
RTVSPropertyOp39
 70
     1
102
RTVSPropertyOp40
 70
     1
102
RTVSPropertyOp41
 70
     1
102
RTVSPropertyOp42
 70
     1
102
RTVSPropertyOp43
 70
     1
102
RTVSPropertyOp44
 70
     1
102
RTVSPropertyOp45
 70
     1
102
RTVSPropertyOp46
 70
     1
102
RTVSPropertyOp47
 70
     1
102
RTVSPropertyOp48
 70
     1
102
RTVSPropertyOp49
 70
     1
102
RTVSPropertyOp50
 70
     1
102
RTVSPropertyOp51
 70
     0
102
RTVSPropertyOp52
 70
     0
102
RTVSPropertyOp53
 70
     1
102
RTVSPropertyOp54
 70
     1
102
RTVSPropertyOp55
 70
     1
102
RTVSPropertyOp56
 70
     1
102
RTVSPropertyOp57
 70
     1
102
RTVSPropertyOp58
 70
     1
102
RTVSPropertyOp59
 70
     1
102
RTVSPropertyOp60
 70
     1
102
RTVSPropertyOp61
 70
     1
102
RTVSPropertyOp62
 70
     1
  0
XRECORD
  5
1DF4
102
{ACAD_REACTORS
330
1DF3
102
}
330
1DF3
100
AcDbXrecord
280
     1
102
RTVSPost2010Prop28
280
     0
102
RTVSPost2010PropOp28
 70
     1
102
RTVSPost2010Prop29
280
     1
102
RTVSPost2010PropOp29
 70
     1
102
RTVSPost2010Prop30
280
     1
102
RTVSPost2010PropOp30
 70
     1
102
RTVSPost2010Prop31
280
     0
102
RTVSPost2010PropOp31
 70
     1
102
RTVSPost2010Prop32
280
     0
102
RTVSPost2010PropOp32
 70
     1
102
RTVSPost2010Prop33
280
     0
102
RTVSPost2010PropOp33
 70
     1
102
RTVSPost2010Prop34
280
     0
102
RTVSPost2010PropOp34
 70
     1
102
RTVSPost2010Prop35
280
     0
102
RTVSPost2010PropOp35
 70
     1
102
RTVSPost2010Prop36
280
     0
102
RTVSPost2010PropOp36
 70
     1
102
RTVSPost2010Prop37
 90
       50
102
RTVSPost2010PropOp37
 70
     1
102
RTVSPost2010Prop38
140
0.0
102
RTVSPost2010PropOp38
 70
     1
102
RTVSPost2010Prop39
140
1.0
102
RTVSPost2010PropOp39
 70
     1
102
RTVSPost2010Prop40
 90
        0
102
RTVSPost2010PropOp40
 70
     1
102
RTVSPost2010Prop41ColorIndex
 90
       18
102
RTVSPost2010Prop41ColorRGB
 90
        0
102
RTVSPost2010PropOp41
 70
     1
102
RTVSPost2010Prop42
 90
       50
102
RTVSPost2010PropOp42
 70
     1
102
RTVSPost2010Prop43
 90
        3
102
RTVSPost2010PropOp43
 70
     1
102
RTVSPost2010Prop44ColorIndex
 90
        5
102
RTVSPost2010Prop44ColorRGB
 90
      255
102
RTVSPost2010PropOp44
 70
     1
102
RTVSPost2010Prop45
280
     0
102
RTVSPost2010PropOp45
 70
     1
102
RTVSPost2010Prop46
 90
       50
102
RTVSPost2010PropOp46
 70
     1
102
RTVSPost2010Prop47
 90
       50
102
RTVSPost2010PropOp47
 70
     1
102
RTVSPost2010Prop48
 90
       50
102
RTVSPost2010PropOp48
 70
     1
102
RTVSPost2010Prop49
280
     0
102
RTVSPost2010PropOp49
 70
     1
102
RTVSPost2010Prop50
 90
       50
102
RTVSPost2010PropOp50
 70
     1
102
RTVSPost2010Prop51ColorIndex
 90
      256
102
RTVSPost2010Prop51ColorRGB
 90
-16777216
102
RTVSPost2010PropOp51
 70
     0
102
RTVSPost2010Prop52
140
1.0
102
RTVSPost2010PropOp52
 70
     0
102
RTVSPost2010Prop53
 90
        2
102
RTVSPost2010PropOp53
 70
     1
102
RTVSPost2010Prop54
  1
strokes_ogs.tif
102
RTVSPost2010PropOp54
 70
     1
102
RTVSPost2010Prop55
280
     0
102
RTVSPost2010PropOp55
 70
     1
102
RTVSPost2010Prop56
140
1.0
102
RTVSPost2010PropOp56
 70
     1
102
RTVSPost2010Prop57
140
1.0
102
RTVSPost2010PropOp57
 70
     1
102
RTVSPropertyOp0
 70
     1
102
RTVSPropertyOp1
 70
     1
102
RTVSPropertyOp2
 70
     1
102
RTVSPropertyOp3
 70
     1
102
RTVSPropertyOp4
 70
     1
102
RTVSPropertyOp5
 70
     1
102
RTVSPropertyOp6
 70
     1
102
RTVSPropertyOp7
 70
     1
102
RTVSPropertyOp8
 70
     1
102
RTVSPropertyOp9
 70
     1
102
RTVSPropertyOp10
 70
     1
102
RTVSPropertyOp11
 70
     1
102
RTVSPropertyOp12
 70
     1
102
RTVSPropertyOp13
 70
     1
102
RTVSPropertyOp14
 70
     1
102
RTVSPropertyOp15
 70
     1
102
RTVSPropertyOp16
 70
     1
102
RTVSPropertyOp17
 70
     1
102
RTVSPropertyOp18
 70
     1
102
RTVSPropertyOp19
 70
     1
102
RTVSPropertyOp20
 70
     1
102
RTVSPropertyOp21
 70
     1
102
RTVSPropertyOp22
 70
     1
102
RTVSPropertyOp23
 70
     1
102
RTVSPropertyOp24
 70
     1
102
RTVSPropertyOp25
 70
     1
102
RTVSPropertyOp26
 70
     1
102
RTVSPropertyOp27
 70
     1
102
RTVSPropertyOp28
 70
     1
102
RTVSPropertyOp29
 70
     1
102
RTVSPropertyOp30
 70
     1
102
RTVSPropertyOp31
 70
     1
102
RTVSPropertyOp32
 70
     1
102
RTVSPropertyOp33
 70
     1
102
RTVSPropertyOp34
 70
     1
102
RTVSPropertyOp35
 70
     1
102
RTVSPropertyOp36
 70
     1
102
RTVSPropertyOp37
 70
     1
102
RTVSPropertyOp38
 70
     1
102
RTVSPropertyOp39
 70
     1
102
RTVSPropertyOp40
 70
     1
102
RTVSPropertyOp41
 70
     1
102
RTVSPropertyOp42
 70
     1
102
RTVSPropertyOp43
 70
     1
102
RTVSPropertyOp44
 70
     1
102
RTVSPropertyOp45
 70
     1
102
RTVSPropertyOp46
 70
     1
102
RTVSPropertyOp47
 70
     1
102
RTVSPropertyOp48
 70
     1
102
RTVSPropertyOp49
 70
     1
102
RTVSPropertyOp50
 70
     1
102
RTVSPropertyOp51
 70
     0
102
RTVSPropertyOp52
 70
     0
102
RTVSPropertyOp53
 70
     1
102
RTVSPropertyOp54
 70
     1
102
RTVSPropertyOp55
 70
     1
102
RTVSPropertyOp56
 70
     1
102
RTVSPropertyOp57
 70
     1
102
RTVSPropertyOp58
 70
     1
102
RTVSPropertyOp59
 70
     1
102
RTVSPropertyOp60
 70
     1
102
RTVSPropertyOp61
 70
     1
102
RTVSPropertyOp62
 70
     1
  0
XRECORD
  5
1E10
102
{ACAD_REACTORS
330
1E0F
102
}
330
1E0F
100
AcDbXrecord
280
     1
102
RTVSPost2010Prop28
280
     0
102
RTVSPost2010PropOp28
 70
     1
102
RTVSPost2010Prop29
280
     1
102
RTVSPost2010PropOp29
 70
     1
102
RTVSPost2010Prop30
280
     1
102
RTVSPost2010PropOp30
 70
     1
102
RTVSPost2010Prop31
280
     0
102
RTVSPost2010PropOp31
 70
     1
102
RTVSPost2010Prop32
280
     0
102
RTVSPost2010PropOp32
 70
     1
102
RTVSPost2010Prop33
280
     0
102
RTVSPost2010PropOp33
 70
     1
102
RTVSPost2010Prop34
280
     0
102
RTVSPost2010PropOp34
 70
     1
102
RTVSPost2010Prop35
280
     0
102
RTVSPost2010PropOp35
 70
     1
102
RTVSPost2010Prop36
280
     0
102
RTVSPost2010PropOp36
 70
     1
102
RTVSPost2010Prop37
 90
       50
102
RTVSPost2010PropOp37
 70
     0
102
RTVSPost2010Prop38
140
0.0
102
RTVSPost2010PropOp38
 70
     0
102
RTVSPost2010Prop39
140
1.0
102
RTVSPost2010PropOp39
 70
     0
102
RTVSPost2010Prop40
 90
        0
102
RTVSPost2010PropOp40
 70
     0
102
RTVSPost2010Prop41ColorIndex
 90
       18
102
RTVSPost2010Prop41ColorRGB
 90
        0
102
RTVSPost2010PropOp41
 70
     0
102
RTVSPost2010Prop42
 90
       50
102
RTVSPost2010PropOp42
 70
     0
102
RTVSPost2010Prop43
 90
        3
102
RTVSPost2010PropOp43
 70
     0
102
RTVSPost2010Prop44ColorIndex
 90
        5
102
RTVSPost2010Prop44ColorRGB
 90
      255
102
RTVSPost2010PropOp44
 70
     0
102
RTVSPost2010Prop45
280
     0
102
RTVSPost2010PropOp45
 70
     1
102
RTVSPost2010Prop46
 90
       50
102
RTVSPost2010PropOp46
 70
     0
102
RTVSPost2010Prop47
 90
       50
102
RTVSPost2010PropOp47
 70
     0
102
RTVSPost2010Prop48
 90
       50
102
RTVSPost2010PropOp48
 70
     0
102
RTVSPost2010Prop49
280
     0
102
RTVSPost2010PropOp49
 70
     1
102
RTVSPost2010Prop50
 90
       50
102
RTVSPost2010PropOp50
 70
     0
102
RTVSPost2010Prop51ColorIndex
 90
      256
102
RTVSPost2010Prop51ColorRGB
 90
-16777216
102
RTVSPost2010PropOp51
 70
     0
102
RTVSPost2010Prop52
140
1.0
102
RTVSPost2010PropOp52
 70
     0
102
RTVSPost2010Prop53
 90
        2
102
RTVSPost2010PropOp53
 70
     0
102
RTVSPost2010Prop54
  1
strokes_ogs.tif
102
RTVSPost2010PropOp54
 70
     0
102
RTVSPost2010Prop55
280
     0
102
RTVSPost2010PropOp55
 70
     1
102
RTVSPost2010Prop56
140
1.0
102
RTVSPost2010PropOp56
 70
     0
102
RTVSPost2010Prop57
140
1.0
102
RTVSPost2010PropOp57
 70
     0
102
RTVSPropertyOp0
 70
     0
102
RTVSPropertyOp1
 70
     0
102
RTVSPropertyOp2
 70
     0
102
RTVSPropertyOp3
 70
     0
102
RTVSPropertyOp4
 70
     0
102
RTVSPropertyOp5
 70
     0
102
RTVSPropertyOp6
 70
     0
102
RTVSPropertyOp7
 70
     0
102
RTVSPropertyOp8
 70
     0
102
RTVSPropertyOp9
 70
     0
102
RTVSPropertyOp10
 70
     0
102
RTVSPropertyOp11
 70
     0
102
RTVSPropertyOp12
 70
     0
102
RTVSPropertyOp13
 70
     0
102
RTVSPropertyOp14
 70
     2
102
RTVSPropertyOp15
 70
     0
102
RTVSPropertyOp16
 70
     0
102
RTVSPropertyOp17
 70
     0
102
RTVSPropertyOp18
 70
     0
102
RTVSPropertyOp19
 70
     0
102
RTVSPropertyOp20
 70
     0
102
RTVSPropertyOp21
 70
     0
102
RTVSPropertyOp22
 70
     0
102
RTVSPropertyOp23
 70
     0
102
RTVSPropertyOp24
 70
     0
102
RTVSPropertyOp25
 70
     0
102
RTVSPropertyOp26
 70
     0
102
RTVSPropertyOp27
 70
     0
102
RTVSPropertyOp28
 70
     1
102
RTVSPropertyOp29
 70
     1
102
RTVSPropertyOp30
 70
     1
102
RTVSPropertyOp31
 70
     1
102
RTVSPropertyOp32
 70
     1
102
RTVSPropertyOp33
 70
     1
102
RTVSPropertyOp34
 70
     1
102
RTVSPropertyOp35
 70
     1
102
RTVSPropertyOp36
 70
     1
102
RTVSPropertyOp37
 70
     0
102
RTVSPropertyOp38
 70
     0
102
RTVSPropertyOp39
 70
     0
102
RTVSPropertyOp40
 70
     0
102
RTVSPropertyOp41
 70
     0
102
RTVSPropertyOp42
 70
     0
102
RTVSPropertyOp43
 70
     0
102
RTVSPropertyOp44
 70
     0
102
RTVSPropertyOp45
 70
     1
102
RTVSPropertyOp46
 70
     0
102
RTVSPropertyOp47
 70
     0
102
RTVSPropertyOp48
 70
     0
102
RTVSPropertyOp49
 70
     1
102
RTVSPropertyOp50
 70
     0
102
RTVSPropertyOp51
 70
     0
102
RTVSPropertyOp52
 70
     0
102
RTVSPropertyOp53
 70
     0
102
RTVSPropertyOp54
 70
     0
102
RTVSPropertyOp55
 70
     1
102
RTVSPropertyOp56
 70
     0
102
RTVSPropertyOp57
 70
     0
102
RTVSPropertyOp58
 70
     0
102
RTVSPropertyOp59
 70
     0
102
RTVSPropertyOp60
 70
     0
102
RTVSPropertyOp61
 70
     0
102
RTVSPropertyOp62
 70
     0
  0
XRECORD
  5
1E00
102
{ACAD_REACTORS
330
1DFF
102
}
330
1DFF
100
AcDbXrecord
280
     1
102
RTVSPost2010Prop28
280
     0
102
RTVSPost2010PropOp28
 70
     1
102
RTVSPost2010Prop29
280
     1
102
RTVSPost2010PropOp29
 70
     1
102
RTVSPost2010Prop30
280
     1
102
RTVSPost2010PropOp30
 70
     1
102
RTVSPost2010Prop31
280
     0
102
RTVSPost2010PropOp31
 70
     1
102
RTVSPost2010Prop32
280
     0
102
RTVSPost2010PropOp32
 70
     1
102
RTVSPost2010Prop33
280
     0
102
RTVSPost2010PropOp33
 70
     1
102
RTVSPost2010Prop34
280
     0
102
RTVSPost2010PropOp34
 70
     1
102
RTVSPost2010Prop35
280
     0
102
RTVSPost2010PropOp35
 70
     1
102
RTVSPost2010Prop36
280
     0
102
RTVSPost2010PropOp36
 70
     1
102
RTVSPost2010Prop37
 90
       50
102
RTVSPost2010PropOp37
 70
     1
102
RTVSPost2010Prop38
140
0.0
102
RTVSPost2010PropOp38
 70
     1
102
RTVSPost2010Prop39
140
1.0
102
RTVSPost2010PropOp39
 70
     1
102
RTVSPost2010Prop40
 90
        0
102
RTVSPost2010PropOp40
 70
     1
102
RTVSPost2010Prop41ColorIndex
 90
       18
102
RTVSPost2010Prop41ColorRGB
 90
        0
102
RTVSPost2010PropOp41
 70
     1
102
RTVSPost2010Prop42
 90
       50
102
RTVSPost2010PropOp42
 70
     1
102
RTVSPost2010Prop43
 90
        3
102
RTVSPost2010PropOp43
 70
     1
102
RTVSPost2010Prop44ColorIndex
 90
        5
102
RTVSPost2010Prop44ColorRGB
 90
      255
102
RTVSPost2010PropOp44
 70
     1
102
RTVSPost2010Prop45
280
     0
102
RTVSPost2010PropOp45
 70
     1
102
RTVSPost2010Prop46
 90
       50
102
RTVSPost2010PropOp46
 70
     1
102
RTVSPost2010Prop47
 90
       50
102
RTVSPost2010PropOp47
 70
     1
102
RTVSPost2010Prop48
 90
       50
102
RTVSPost2010PropOp48
 70
     1
102
RTVSPost2010Prop49
280
     0
102
RTVSPost2010PropOp49
 70
     1
102
RTVSPost2010Prop50
 90
       50
102
RTVSPost2010PropOp50
 70
     1
102
RTVSPost2010Prop51ColorIndex
 90
      256
102
RTVSPost2010Prop51ColorRGB
 90
-16777216
102
RTVSPost2010PropOp51
 70
     0
102
RTVSPost2010Prop52
140
1.0
102
RTVSPost2010PropOp52
 70
     0
102
RTVSPost2010Prop53
 90
        2
102
RTVSPost2010PropOp53
 70
     1
102
RTVSPost2010Prop54
  1
strokes_ogs.tif
102
RTVSPost2010PropOp54
 70
     1
102
RTVSPost2010Prop55
280
     0
102
RTVSPost2010PropOp55
 70
     1
102
RTVSPost2010Prop56
140
1.0
102
RTVSPost2010PropOp56
 70
     1
102
RTVSPost2010Prop57
140
1.0
102
RTVSPost2010PropOp57
 70
     1
102
RTVSPropertyOp0
 70
     1
102
RTVSPropertyOp1
 70
     1
102
RTVSPropertyOp2
 70
     1
102
RTVSPropertyOp3
 70
     1
102
RTVSPropertyOp4
 70
     1
102
RTVSPropertyOp5
 70
     1
102
RTVSPropertyOp6
 70
     1
102
RTVSPropertyOp7
 70
     1
102
RTVSPropertyOp8
 70
     1
102
RTVSPropertyOp9
 70
     1
102
RTVSPropertyOp10
 70
     1
102
RTVSPropertyOp11
 70
     1
102
RTVSPropertyOp12
 70
     1
102
RTVSPropertyOp13
 70
     1
102
RTVSPropertyOp14
 70
     1
102
RTVSPropertyOp15
 70
     1
102
RTVSPropertyOp16
 70
     1
102
RTVSPropertyOp17
 70
     1
102
RTVSPropertyOp18
 70
     1
102
RTVSPropertyOp19
 70
     1
102
RTVSPropertyOp20
 70
     1
102
RTVSPropertyOp21
 70
     1
102
RTVSPropertyOp22
 70
     1
102
RTVSPropertyOp23
 70
     1
102
RTVSPropertyOp24
 70
     1
102
RTVSPropertyOp25
 70
     1
102
RTVSPropertyOp26
 70
     1
102
RTVSPropertyOp27
 70
     1
102
RTVSPropertyOp28
 70
     1
102
RTVSPropertyOp29
 70
     1
102
RTVSPropertyOp30
 70
     1
102
RTVSPropertyOp31
 70
     1
102
RTVSPropertyOp32
 70
     1
102
RTVSPropertyOp33
 70
     1
102
RTVSPropertyOp34
 70
     1
102
RTVSPropertyOp35
 70
     1
102
RTVSPropertyOp36
 70
     1
102
RTVSPropertyOp37
 70
     1
102
RTVSPropertyOp38
 70
     1
102
RTVSPropertyOp39
 70
     1
102
RTVSPropertyOp40
 70
     1
102
RTVSPropertyOp41
 70
     1
102
RTVSPropertyOp42
 70
     1
102
RTVSPropertyOp43
 70
     1
102
RTVSPropertyOp44
 70
     1
102
RTVSPropertyOp45
 70
     1
102
RTVSPropertyOp46
 70
     1
102
RTVSPropertyOp47
 70
     1
102
RTVSPropertyOp48
 70
     1
102
RTVSPropertyOp49
 70
     1
102
RTVSPropertyOp50
 70
     1
102
RTVSPropertyOp51
 70
     0
102
RTVSPropertyOp52
 70
     0
102
RTVSPropertyOp53
 70
     1
102
RTVSPropertyOp54
 70
     1
102
RTVSPropertyOp55
 70
     1
102
RTVSPropertyOp56
 70
     1
102
RTVSPropertyOp57
 70
     1
102
RTVSPropertyOp58
 70
     1
102
RTVSPropertyOp59
 70
     1
102
RTVSPropertyOp60
 70
     1
102
RTVSPropertyOp61
 70
     1
102
RTVSPropertyOp62
 70
     1
  0
XRECORD
  5
1E12
102
{ACAD_REACTORS
330
1E11
102
}
330
1E11
100
AcDbXrecord
280
     1
102
RTVSPost2010Prop28
280
     0
102
RTVSPost2010PropOp28
 70
     1
102
RTVSPost2010Prop29
280
     1
102
RTVSPost2010PropOp29
 70
     1
102
RTVSPost2010Prop30
280
     1
102
RTVSPost2010PropOp30
 70
     1
102
RTVSPost2010Prop31
280
     0
102
RTVSPost2010PropOp31
 70
     1
102
RTVSPost2010Prop32
280
     0
102
RTVSPost2010PropOp32
 70
     1
102
RTVSPost2010Prop33
280
     0
102
RTVSPost2010PropOp33
 70
     1
102
RTVSPost2010Prop34
280
     0
102
RTVSPost2010PropOp34
 70
     1
102
RTVSPost2010Prop35
280
     0
102
RTVSPost2010PropOp35
 70
     1
102
RTVSPost2010Prop36
280
     0
102
RTVSPost2010PropOp36
 70
     1
102
RTVSPost2010Prop37
 90
       50
102
RTVSPost2010PropOp37
 70
     0
102
RTVSPost2010Prop38
140
0.0
102
RTVSPost2010PropOp38
 70
     0
102
RTVSPost2010Prop39
140
1.0
102
RTVSPost2010PropOp39
 70
     0
102
RTVSPost2010Prop40
 90
        0
102
RTVSPost2010PropOp40
 70
     0
102
RTVSPost2010Prop41ColorIndex
 90
       18
102
RTVSPost2010Prop41ColorRGB
 90
        0
102
RTVSPost2010PropOp41
 70
     0
102
RTVSPost2010Prop42
 90
       50
102
RTVSPost2010PropOp42
 70
     0
102
RTVSPost2010Prop43
 90
        3
102
RTVSPost2010PropOp43
 70
     0
102
RTVSPost2010Prop44ColorIndex
 90
        5
102
RTVSPost2010Prop44ColorRGB
 90
      255
102
RTVSPost2010PropOp44
 70
     0
102
RTVSPost2010Prop45
280
     0
102
RTVSPost2010PropOp45
 70
     1
102
RTVSPost2010Prop46
 90
       50
102
RTVSPost2010PropOp46
 70
     0
102
RTVSPost2010Prop47
 90
       50
102
RTVSPost2010PropOp47
 70
     0
102
RTVSPost2010Prop48
 90
       50
102
RTVSPost2010PropOp48
 70
     0
102
RTVSPost2010Prop49
280
     0
102
RTVSPost2010PropOp49
 70
     1
102
RTVSPost2010Prop50
 90
       50
102
RTVSPost2010PropOp50
 70
     0
102
RTVSPost2010Prop51ColorIndex
 90
      256
102
RTVSPost2010Prop51ColorRGB
 90
-16777216
102
RTVSPost2010PropOp51
 70
     0
102
RTVSPost2010Prop52
140
1.0
102
RTVSPost2010PropOp52
 70
     0
102
RTVSPost2010Prop53
 90
        2
102
RTVSPost2010PropOp53
 70
     0
102
RTVSPost2010Prop54
  1
strokes_ogs.tif
102
RTVSPost2010PropOp54
 70
     0
102
RTVSPost2010Prop55
280
     0
102
RTVSPost2010PropOp55
 70
     1
102
RTVSPost2010Prop56
140
1.0
102
RTVSPost2010PropOp56
 70
     0
102
RTVSPost2010Prop57
140
1.0
102
RTVSPost2010PropOp57
 70
     0
102
RTVSPropertyOp0
 70
     0
102
RTVSPropertyOp1
 70
     0
102
RTVSPropertyOp2
 70
     0
102
RTVSPropertyOp3
 70
     0
102
RTVSPropertyOp4
 70
     0
102
RTVSPropertyOp5
 70
     0
102
RTVSPropertyOp6
 70
     0
102
RTVSPropertyOp7
 70
     0
102
RTVSPropertyOp8
 70
     0
102
RTVSPropertyOp9
 70
     0
102
RTVSPropertyOp10
 70
     0
102
RTVSPropertyOp11
 70
     0
102
RTVSPropertyOp12
 70
     0
102
RTVSPropertyOp13
 70
     0
102
RTVSPropertyOp14
 70
     2
102
RTVSPropertyOp15
 70
     0
102
RTVSPropertyOp16
 70
     0
102
RTVSPropertyOp17
 70
     0
102
RTVSPropertyOp18
 70
     0
102
RTVSPropertyOp19
 70
     0
102
RTVSPropertyOp20
 70
     0
102
RTVSPropertyOp21
 70
     0
102
RTVSPropertyOp22
 70
     0
102
RTVSPropertyOp23
 70
     0
102
RTVSPropertyOp24
 70
     0
102
RTVSPropertyOp25
 70
     0
102
RTVSPropertyOp26
 70
     0
102
RTVSPropertyOp27
 70
     0
102
RTVSPropertyOp28
 70
     1
102
RTVSPropertyOp29
 70
     1
102
RTVSPropertyOp30
 70
     1
102
RTVSPropertyOp31
 70
     1
102
RTVSPropertyOp32
 70
     1
102
RTVSPropertyOp33
 70
     1
102
RTVSPropertyOp34
 70
     1
102
RTVSPropertyOp35
 70
     1
102
RTVSPropertyOp36
 70
     1
102
RTVSPropertyOp37
 70
     0
102
RTVSPropertyOp38
 70
     0
102
RTVSPropertyOp39
 70
     0
102
RTVSPropertyOp40
 70
     0
102
RTVSPropertyOp41
 70
     0
102
RTVSPropertyOp42
 70
     0
102
RTVSPropertyOp43
 70
     0
102
RTVSPropertyOp44
 70
     0
102
RTVSPropertyOp45
 70
     1
102
RTVSPropertyOp46
 70
     0
102
RTVSPropertyOp47
 70
     0
102
RTVSPropertyOp48
 70
     0
102
RTVSPropertyOp49
 70
     1
102
RTVSPropertyOp50
 70
     0
102
RTVSPropertyOp51
 70
     0
102
RTVSPropertyOp52
 70
     0
102
RTVSPropertyOp53
 70
     0
102
RTVSPropertyOp54
 70
     0
102
RTVSPropertyOp55
 70
     1
102
RTVSPropertyOp56
 70
     0
102
RTVSPropertyOp57
 70
     0
102
RTVSPropertyOp58
 70
     0
102
RTVSPropertyOp59
 70
     0
102
RTVSPropertyOp60
 70
     0
102
RTVSPropertyOp61
 70
     0
102
RTVSPropertyOp62
 70
     0
  0
XRECORD
  5
1DF8
102
{ACAD_REACTORS
330
1DF7
102
}
330
1DF7
100
AcDbXrecord
280
     1
102
RTVSPost2010Prop28
280
     0
102
RTVSPost2010PropOp28
 70
     1
102
RTVSPost2010Prop29
280
     1
102
RTVSPost2010PropOp29
 70
     1
102
RTVSPost2010Prop30
280
     1
102
RTVSPost2010PropOp30
 70
     1
102
RTVSPost2010Prop31
280
     0
102
RTVSPost2010PropOp31
 70
     1
102
RTVSPost2010Prop32
280
     0
102
RTVSPost2010PropOp32
 70
     1
102
RTVSPost2010Prop33
280
     0
102
RTVSPost2010PropOp33
 70
     1
102
RTVSPost2010Prop34
280
     0
102
RTVSPost2010PropOp34
 70
     1
102
RTVSPost2010Prop35
280
     0
102
RTVSPost2010PropOp35
 70
     1
102
RTVSPost2010Prop36
280
     0
102
RTVSPost2010PropOp36
 70
     1
102
RTVSPost2010Prop37
 90
       50
102
RTVSPost2010PropOp37
 70
     1
102
RTVSPost2010Prop38
140
0.0
102
RTVSPost2010PropOp38
 70
     1
102
RTVSPost2010Prop39
140
1.0
102
RTVSPost2010PropOp39
 70
     1
102
RTVSPost2010Prop40
 90
        0
102
RTVSPost2010PropOp40
 70
     1
102
RTVSPost2010Prop41ColorIndex
 90
       18
102
RTVSPost2010Prop41ColorRGB
 90
        0
102
RTVSPost2010PropOp41
 70
     1
102
RTVSPost2010Prop42
 90
       50
102
RTVSPost2010PropOp42
 70
     1
102
RTVSPost2010Prop43
 90
        3
102
RTVSPost2010PropOp43
 70
     1
102
RTVSPost2010Prop44ColorIndex
 90
        5
102
RTVSPost2010Prop44ColorRGB
 90
      255
102
RTVSPost2010PropOp44
 70
     1
102
RTVSPost2010Prop45
280
     0
102
RTVSPost2010PropOp45
 70
     1
102
RTVSPost2010Prop46
 90
       50
102
RTVSPost2010PropOp46
 70
     1
102
RTVSPost2010Prop47
 90
       50
102
RTVSPost2010PropOp47
 70
     1
102
RTVSPost2010Prop48
 90
       50
102
RTVSPost2010PropOp48
 70
     1
102
RTVSPost2010Prop49
280
     0
102
RTVSPost2010PropOp49
 70
     1
102
RTVSPost2010Prop50
 90
       50
102
RTVSPost2010PropOp50
 70
     1
102
RTVSPost2010Prop51ColorIndex
 90
      256
102
RTVSPost2010Prop51ColorRGB
 90
-16777216
102
RTVSPost2010PropOp51
 70
     0
102
RTVSPost2010Prop52
140
1.0
102
RTVSPost2010PropOp52
 70
     0
102
RTVSPost2010Prop53
 90
        2
102
RTVSPost2010PropOp53
 70
     1
102
RTVSPost2010Prop54
  1
strokes_ogs.tif
102
RTVSPost2010PropOp54
 70
     1
102
RTVSPost2010Prop55
280
     0
102
RTVSPost2010PropOp55
 70
     1
102
RTVSPost2010Prop56
140
1.0
102
RTVSPost2010PropOp56
 70
     1
102
RTVSPost2010Prop57
140
1.0
102
RTVSPost2010PropOp57
 70
     1
102
RTVSPropertyOp0
 70
     1
102
RTVSPropertyOp1
 70
     1
102
RTVSPropertyOp2
 70
     1
102
RTVSPropertyOp3
 70
     1
102
RTVSPropertyOp4
 70
     1
102
RTVSPropertyOp5
 70
     1
102
RTVSPropertyOp6
 70
     1
102
RTVSPropertyOp7
 70
     1
102
RTVSPropertyOp8
 70
     1
102
RTVSPropertyOp9
 70
     1
102
RTVSPropertyOp10
 70
     1
102
RTVSPropertyOp11
 70
     1
102
RTVSPropertyOp12
 70
     1
102
RTVSPropertyOp13
 70
     1
102
RTVSPropertyOp14
 70
     1
102
RTVSPropertyOp15
 70
     1
102
RTVSPropertyOp16
 70
     1
102
RTVSPropertyOp17
 70
     1
102
RTVSPropertyOp18
 70
     1
102
RTVSPropertyOp19
 70
     1
102
RTVSPropertyOp20
 70
     1
102
RTVSPropertyOp21
 70
     1
102
RTVSPropertyOp22
 70
     1
102
RTVSPropertyOp23
 70
     1
102
RTVSPropertyOp24
 70
     1
102
RTVSPropertyOp25
 70
     1
102
RTVSPropertyOp26
 70
     1
102
RTVSPropertyOp27
 70
     1
102
RTVSPropertyOp28
 70
     1
102
RTVSPropertyOp29
 70
     1
102
RTVSPropertyOp30
 70
     1
102
RTVSPropertyOp31
 70
     1
102
RTVSPropertyOp32
 70
     1
102
RTVSPropertyOp33
 70
     1
102
RTVSPropertyOp34
 70
     1
102
RTVSPropertyOp35
 70
     1
102
RTVSPropertyOp36
 70
     1
102
RTVSPropertyOp37
 70
     1
102
RTVSPropertyOp38
 70
     1
102
RTVSPropertyOp39
 70
     1
102
RTVSPropertyOp40
 70
     1
102
RTVSPropertyOp41
 70
     1
102
RTVSPropertyOp42
 70
     1
102
RTVSPropertyOp43
 70
     1
102
RTVSPropertyOp44
 70
     1
102
RTVSPropertyOp45
 70
     1
102
RTVSPropertyOp46
 70
     1
102
RTVSPropertyOp47
 70
     1
102
RTVSPropertyOp48
 70
     1
102
RTVSPropertyOp49
 70
     1
102
RTVSPropertyOp50
 70
     1
102
RTVSPropertyOp51
 70
     0
102
RTVSPropertyOp52
 70
     0
102
RTVSPropertyOp53
 70
     1
102
RTVSPropertyOp54
 70
     1
102
RTVSPropertyOp55
 70
     1
102
RTVSPropertyOp56
 70
     1
102
RTVSPropertyOp57
 70
     1
102
RTVSPropertyOp58
 70
     1
102
RTVSPropertyOp59
 70
     1
102
RTVSPropertyOp60
 70
     1
102
RTVSPropertyOp61
 70
     1
102
RTVSPropertyOp62
 70
     1
  0
XRECORD
  5
1E0E
102
{ACAD_REACTORS
330
1E0D
102
}
330
1E0D
100
AcDbXrecord
280
     1
102
RTVSPost2010Prop28
280
     0
102
RTVSPost2010PropOp28
 70
     1
102
RTVSPost2010Prop29
280
     1
102
RTVSPost2010PropOp29
 70
     1
102
RTVSPost2010Prop30
280
     1
102
RTVSPost2010PropOp30
 70
     1
102
RTVSPost2010Prop31
280
     0
102
RTVSPost2010PropOp31
 70
     1
102
RTVSPost2010Prop32
280
     0
102
RTVSPost2010PropOp32
 70
     1
102
RTVSPost2010Prop33
280
     0
102
RTVSPost2010PropOp33
 70
     1
102
RTVSPost2010Prop34
280
     0
102
RTVSPost2010PropOp34
 70
     1
102
RTVSPost2010Prop35
280
     0
102
RTVSPost2010PropOp35
 70
     1
102
RTVSPost2010Prop36
280
     0
102
RTVSPost2010PropOp36
 70
     1
102
RTVSPost2010Prop37
 90
       50
102
RTVSPost2010PropOp37
 70
     1
102
RTVSPost2010Prop38
140
0.0
102
RTVSPost2010PropOp38
 70
     1
102
RTVSPost2010Prop39
140
1.0
102
RTVSPost2010PropOp39
 70
     1
102
RTVSPost2010Prop40
 90
        0
102
RTVSPost2010PropOp40
 70
     1
102
RTVSPost2010Prop41ColorIndex
 90
       18
102
RTVSPost2010Prop41ColorRGB
 90
        0
102
RTVSPost2010PropOp41
 70
     1
102
RTVSPost2010Prop42
 90
       50
102
RTVSPost2010PropOp42
 70
     1
102
RTVSPost2010Prop43
 90
        3
102
RTVSPost2010PropOp43
 70
     1
102
RTVSPost2010Prop44ColorIndex
 90
        5
102
RTVSPost2010Prop44ColorRGB
 90
      255
102
RTVSPost2010PropOp44
 70
     1
102
RTVSPost2010Prop45
280
     0
102
RTVSPost2010PropOp45
 70
     1
102
RTVSPost2010Prop46
 90
       50
102
RTVSPost2010PropOp46
 70
     1
102
RTVSPost2010Prop47
 90
       50
102
RTVSPost2010PropOp47
 70
     1
102
RTVSPost2010Prop48
 90
       50
102
RTVSPost2010PropOp48
 70
     1
102
RTVSPost2010Prop49
280
     0
102
RTVSPost2010PropOp49
 70
     1
102
RTVSPost2010Prop50
 90
       50
102
RTVSPost2010PropOp50
 70
     1
102
RTVSPost2010Prop51ColorIndex
 90
      256
102
RTVSPost2010Prop51ColorRGB
 90
-16777216
102
RTVSPost2010PropOp51
 70
     0
102
RTVSPost2010Prop52
140
1.0
102
RTVSPost2010PropOp52
 70
     0
102
RTVSPost2010Prop53
 90
        2
102
RTVSPost2010PropOp53
 70
     1
102
RTVSPost2010Prop54
  1
strokes_ogs.tif
102
RTVSPost2010PropOp54
 70
     1
102
RTVSPost2010Prop55
280
     0
102
RTVSPost2010PropOp55
 70
     1
102
RTVSPost2010Prop56
140
1.0
102
RTVSPost2010PropOp56
 70
     1
102
RTVSPost2010Prop57
140
1.0
102
RTVSPost2010PropOp57
 70
     1
102
RTVSPropertyOp0
 70
     1
102
RTVSPropertyOp1
 70
     1
102
RTVSPropertyOp2
 70
     1
102
RTVSPropertyOp3
 70
     1
102
RTVSPropertyOp4
 70
     1
102
RTVSPropertyOp5
 70
     1
102
RTVSPropertyOp6
 70
     1
102
RTVSPropertyOp7
 70
     1
102
RTVSPropertyOp8
 70
     1
102
RTVSPropertyOp9
 70
     1
102
RTVSPropertyOp10
 70
     1
102
RTVSPropertyOp11
 70
     1
102
RTVSPropertyOp12
 70
     1
102
RTVSPropertyOp13
 70
     1
102
RTVSPropertyOp14
 70
     1
102
RTVSPropertyOp15
 70
     1
102
RTVSPropertyOp16
 70
     1
102
RTVSPropertyOp17
 70
     1
102
RTVSPropertyOp18
 70
     1
102
RTVSPropertyOp19
 70
     1
102
RTVSPropertyOp20
 70
     1
102
RTVSPropertyOp21
 70
     1
102
RTVSPropertyOp22
 70
     1
102
RTVSPropertyOp23
 70
     1
102
RTVSPropertyOp24
 70
     1
102
RTVSPropertyOp25
 70
     1
102
RTVSPropertyOp26
 70
     1
102
RTVSPropertyOp27
 70
     1
102
RTVSPropertyOp28
 70
     1
102
RTVSPropertyOp29
 70
     1
102
RTVSPropertyOp30
 70
     1
102
RTVSPropertyOp31
 70
     1
102
RTVSPropertyOp32
 70
     1
102
RTVSPropertyOp33
 70
     1
102
RTVSPropertyOp34
 70
     1
102
RTVSPropertyOp35
 70
     1
102
RTVSPropertyOp36
 70
     1
102
RTVSPropertyOp37
 70
     1
102
RTVSPropertyOp38
 70
     1
102
RTVSPropertyOp39
 70
     1
102
RTVSPropertyOp40
 70
     1
102
RTVSPropertyOp41
 70
     1
102
RTVSPropertyOp42
 70
     1
102
RTVSPropertyOp43
 70
     1
102
RTVSPropertyOp44
 70
     1
102
RTVSPropertyOp45
 70
     1
102
RTVSPropertyOp46
 70
     1
102
RTVSPropertyOp47
 70
     1
102
RTVSPropertyOp48
 70
     1
102
RTVSPropertyOp49
 70
     1
102
RTVSPropertyOp50
 70
     1
102
RTVSPropertyOp51
 70
     0
102
RTVSPropertyOp52
 70
     0
102
RTVSPropertyOp53
 70
     1
102
RTVSPropertyOp54
 70
     1
102
RTVSPropertyOp55
 70
     1
102
RTVSPropertyOp56
 70
     1
102
RTVSPropertyOp57
 70
     1
102
RTVSPropertyOp58
 70
     1
102
RTVSPropertyOp59
 70
     1
102
RTVSPropertyOp60
 70
     1
102
RTVSPropertyOp61
 70
     1
102
RTVSPropertyOp62
 70
     1
  0
XRECORD
  5
1E0C
102
{ACAD_REACTORS
330
1E0B
102
}
330
1E0B
100
AcDbXrecord
280
     1
102
RTVSPost2010Prop28
280
     0
102
RTVSPost2010PropOp28
 70
     1
102
RTVSPost2010Prop29
280
     1
102
RTVSPost2010PropOp29
 70
     1
102
RTVSPost2010Prop30
280
     1
102
RTVSPost2010PropOp30
 70
     1
102
RTVSPost2010Prop31
280
     0
102
RTVSPost2010PropOp31
 70
     1
102
RTVSPost2010Prop32
280
     0
102
RTVSPost2010PropOp32
 70
     1
102
RTVSPost2010Prop33
280
     0
102
RTVSPost2010PropOp33
 70
     1
102
RTVSPost2010Prop34
280
     0
102
RTVSPost2010PropOp34
 70
     1
102
RTVSPost2010Prop35
280
     0
102
RTVSPost2010PropOp35
 70
     1
102
RTVSPost2010Prop36
280
     0
102
RTVSPost2010PropOp36
 70
     1
102
RTVSPost2010Prop37
 90
       50
102
RTVSPost2010PropOp37
 70
     1
102
RTVSPost2010Prop38
140
0.0
102
RTVSPost2010PropOp38
 70
     1
102
RTVSPost2010Prop39
140
1.0
102
RTVSPost2010PropOp39
 70
     1
102
RTVSPost2010Prop40
 90
        0
102
RTVSPost2010PropOp40
 70
     1
102
RTVSPost2010Prop41ColorIndex
 90
       18
102
RTVSPost2010Prop41ColorRGB
 90
        0
102
RTVSPost2010PropOp41
 70
     1
102
RTVSPost2010Prop42
 90
       50
102
RTVSPost2010PropOp42
 70
     1
102
RTVSPost2010Prop43
 90
        3
102
RTVSPost2010PropOp43
 70
     1
102
RTVSPost2010Prop44ColorIndex
 90
        5
102
RTVSPost2010Prop44ColorRGB
 90
      255
102
RTVSPost2010PropOp44
 70
     1
102
RTVSPost2010Prop45
280
     0
102
RTVSPost2010PropOp45
 70
     1
102
RTVSPost2010Prop46
 90
       50
102
RTVSPost2010PropOp46
 70
     1
102
RTVSPost2010Prop47
 90
       50
102
RTVSPost2010PropOp47
 70
     1
102
RTVSPost2010Prop48
 90
       50
102
RTVSPost2010PropOp48
 70
     1
102
RTVSPost2010Prop49
280
     0
102
RTVSPost2010PropOp49
 70
     1
102
RTVSPost2010Prop50
 90
       50
102
RTVSPost2010PropOp50
 70
     1
102
RTVSPost2010Prop51ColorIndex
 90
      256
102
RTVSPost2010Prop51ColorRGB
 90
-16777216
102
RTVSPost2010PropOp51
 70
     0
102
RTVSPost2010Prop52
140
1.0
102
RTVSPost2010PropOp52
 70
     0
102
RTVSPost2010Prop53
 90
        2
102
RTVSPost2010PropOp53
 70
     1
102
RTVSPost2010Prop54
  1
strokes_ogs.tif
102
RTVSPost2010PropOp54
 70
     1
102
RTVSPost2010Prop55
280
     0
102
RTVSPost2010PropOp55
 70
     1
102
RTVSPost2010Prop56
140
1.0
102
RTVSPost2010PropOp56
 70
     1
102
RTVSPost2010Prop57
140
1.0
102
RTVSPost2010PropOp57
 70
     1
102
RTVSPropertyOp0
 70
     1
102
RTVSPropertyOp1
 70
     1
102
RTVSPropertyOp2
 70
     1
102
RTVSPropertyOp3
 70
     1
102
RTVSPropertyOp4
 70
     1
102
RTVSPropertyOp5
 70
     1
102
RTVSPropertyOp6
 70
     1
102
RTVSPropertyOp7
 70
     1
102
RTVSPropertyOp8
 70
     1
102
RTVSPropertyOp9
 70
     1
102
RTVSPropertyOp10
 70
     1
102
RTVSPropertyOp11
 70
     1
102
RTVSPropertyOp12
 70
     1
102
RTVSPropertyOp13
 70
     1
102
RTVSPropertyOp14
 70
     1
102
RTVSPropertyOp15
 70
     1
102
RTVSPropertyOp16
 70
     1
102
RTVSPropertyOp17
 70
     1
102
RTVSPropertyOp18
 70
     1
102
RTVSPropertyOp19
 70
     1
102
RTVSPropertyOp20
 70
     1
102
RTVSPropertyOp21
 70
     1
102
RTVSPropertyOp22
 70
     1
102
RTVSPropertyOp23
 70
     1
102
RTVSPropertyOp24
 70
     1
102
RTVSPropertyOp25
 70
     1
102
RTVSPropertyOp26
 70
     1
102
RTVSPropertyOp27
 70
     1
102
RTVSPropertyOp28
 70
     1
102
RTVSPropertyOp29
 70
     1
102
RTVSPropertyOp30
 70
     1
102
RTVSPropertyOp31
 70
     1
102
RTVSPropertyOp32
 70
     1
102
RTVSPropertyOp33
 70
     1
102
RTVSPropertyOp34
 70
     1
102
RTVSPropertyOp35
 70
     1
102
RTVSPropertyOp36
 70
     1
102
RTVSPropertyOp37
 70
     1
102
RTVSPropertyOp38
 70
     1
102
RTVSPropertyOp39
 70
     1
102
RTVSPropertyOp40
 70
     1
102
RTVSPropertyOp41
 70
     1
102
RTVSPropertyOp42
 70
     1
102
RTVSPropertyOp43
 70
     1
102
RTVSPropertyOp44
 70
     1
102
RTVSPropertyOp45
 70
     1
102
RTVSPropertyOp46
 70
     1
102
RTVSPropertyOp47
 70
     1
102
RTVSPropertyOp48
 70
     1
102
RTVSPropertyOp49
 70
     1
102
RTVSPropertyOp50
 70
     1
102
RTVSPropertyOp51
 70
     0
102
RTVSPropertyOp52
 70
     0
102
RTVSPropertyOp53
 70
     1
102
RTVSPropertyOp54
 70
     1
102
RTVSPropertyOp55
 70
     1
102
RTVSPropertyOp56
 70
     1
102
RTVSPropertyOp57
 70
     1
102
RTVSPropertyOp58
 70
     1
102
RTVSPropertyOp59
 70
     1
102
RTVSPropertyOp60
 70
     1
102
RTVSPropertyOp61
 70
     1
102
RTVSPropertyOp62
 70
     1
  0
XRECORD
  5
1E06
102
{ACAD_REACTORS
330
1E05
102
}
330
1E05
100
AcDbXrecord
280
     1
102
RTVSPost2010Prop28
280
     0
102
RTVSPost2010PropOp28
 70
     1
102
RTVSPost2010Prop29
280
     1
102
RTVSPost2010PropOp29
 70
     1
102
RTVSPost2010Prop30
280
     1
102
RTVSPost2010PropOp30
 70
     1
102
RTVSPost2010Prop31
280
     0
102
RTVSPost2010PropOp31
 70
     1
102
RTVSPost2010Prop32
280
     0
102
RTVSPost2010PropOp32
 70
     1
102
RTVSPost2010Prop33
280
     0
102
RTVSPost2010PropOp33
 70
     1
102
RTVSPost2010Prop34
280
     0
102
RTVSPost2010PropOp34
 70
     1
102
RTVSPost2010Prop35
280
     0
102
RTVSPost2010PropOp35
 70
     1
102
RTVSPost2010Prop36
280
     0
102
RTVSPost2010PropOp36
 70
     1
102
RTVSPost2010Prop37
 90
       50
102
RTVSPost2010PropOp37
 70
     1
102
RTVSPost2010Prop38
140
0.0
102
RTVSPost2010PropOp38
 70
     1
102
RTVSPost2010Prop39
140
1.0
102
RTVSPost2010PropOp39
 70
     1
102
RTVSPost2010Prop40
 90
        0
102
RTVSPost2010PropOp40
 70
     1
102
RTVSPost2010Prop41ColorIndex
 90
       18
102
RTVSPost2010Prop41ColorRGB
 90
        0
102
RTVSPost2010PropOp41
 70
     1
102
RTVSPost2010Prop42
 90
       50
102
RTVSPost2010PropOp42
 70
     1
102
RTVSPost2010Prop43
 90
        3
102
RTVSPost2010PropOp43
 70
     1
102
RTVSPost2010Prop44ColorIndex
 90
        5
102
RTVSPost2010Prop44ColorRGB
 90
      255
102
RTVSPost2010PropOp44
 70
     1
102
RTVSPost2010Prop45
280
     0
102
RTVSPost2010PropOp45
 70
     1
102
RTVSPost2010Prop46
 90
       50
102
RTVSPost2010PropOp46
 70
     1
102
RTVSPost2010Prop47
 90
       50
102
RTVSPost2010PropOp47
 70
     1
102
RTVSPost2010Prop48
 90
       50
102
RTVSPost2010PropOp48
 70
     1
102
RTVSPost2010Prop49
280
     0
102
RTVSPost2010PropOp49
 70
     1
102
RTVSPost2010Prop50
 90
       50
102
RTVSPost2010PropOp50
 70
     1
102
RTVSPost2010Prop51ColorIndex
 90
      256
102
RTVSPost2010Prop51ColorRGB
 90
-16777216
102
RTVSPost2010PropOp51
 70
     0
102
RTVSPost2010Prop52
140
1.0
102
RTVSPost2010PropOp52
 70
     0
102
RTVSPost2010Prop53
 90
        2
102
RTVSPost2010PropOp53
 70
     1
102
RTVSPost2010Prop54
  1
strokes_ogs.tif
102
RTVSPost2010PropOp54
 70
     1
102
RTVSPost2010Prop55
280
     0
102
RTVSPost2010PropOp55
 70
     1
102
RTVSPost2010Prop56
140
1.0
102
RTVSPost2010PropOp56
 70
     1
102
RTVSPost2010Prop57
140
1.0
102
RTVSPost2010PropOp57
 70
     1
102
RTVSPropertyOp0
 70
     1
102
RTVSPropertyOp1
 70
     1
102
RTVSPropertyOp2
 70
     1
102
RTVSPropertyOp3
 70
     1
102
RTVSPropertyOp4
 70
     1
102
RTVSPropertyOp5
 70
     1
102
RTVSPropertyOp6
 70
     1
102
RTVSPropertyOp7
 70
     1
102
RTVSPropertyOp8
 70
     1
102
RTVSPropertyOp9
 70
     1
102
RTVSPropertyOp10
 70
     1
102
RTVSPropertyOp11
 70
     1
102
RTVSPropertyOp12
 70
     1
102
RTVSPropertyOp13
 70
     1
102
RTVSPropertyOp14
 70
     1
102
RTVSPropertyOp15
 70
     1
102
RTVSPropertyOp16
 70
     1
102
RTVSPropertyOp17
 70
     1
102
RTVSPropertyOp18
 70
     1
102
RTVSPropertyOp19
 70
     1
102
RTVSPropertyOp20
 70
     1
102
RTVSPropertyOp21
 70
     1
102
RTVSPropertyOp22
 70
     1
102
RTVSPropertyOp23
 70
     1
102
RTVSPropertyOp24
 70
     1
102
RTVSPropertyOp25
 70
     1
102
RTVSPropertyOp26
 70
     1
102
RTVSPropertyOp27
 70
     1
102
RTVSPropertyOp28
 70
     1
102
RTVSPropertyOp29
 70
     1
102
RTVSPropertyOp30
 70
     1
102
RTVSPropertyOp31
 70
     1
102
RTVSPropertyOp32
 70
     1
102
RTVSPropertyOp33
 70
     1
102
RTVSPropertyOp34
 70
     1
102
RTVSPropertyOp35
 70
     1
102
RTVSPropertyOp36
 70
     1
102
RTVSPropertyOp37
 70
     1
102
RTVSPropertyOp38
 70
     1
102
RTVSPropertyOp39
 70
     1
102
RTVSPropertyOp40
 70
     1
102
RTVSPropertyOp41
 70
     1
102
RTVSPropertyOp42
 70
     1
102
RTVSPropertyOp43
 70
     1
102
RTVSPropertyOp44
 70
     1
102
RTVSPropertyOp45
 70
     1
102
RTVSPropertyOp46
 70
     1
102
RTVSPropertyOp47
 70
     1
102
RTVSPropertyOp48
 70
     1
102
RTVSPropertyOp49
 70
     1
102
RTVSPropertyOp50
 70
     1
102
RTVSPropertyOp51
 70
     0
102
RTVSPropertyOp52
 70
     0
102
RTVSPropertyOp53
 70
     1
102
RTVSPropertyOp54
 70
     1
102
RTVSPropertyOp55
 70
     1
102
RTVSPropertyOp56
 70
     1
102
RTVSPropertyOp57
 70
     1
102
RTVSPropertyOp58
 70
     1
102
RTVSPropertyOp59
 70
     1
102
RTVSPropertyOp60
 70
     1
102
RTVSPropertyOp61
 70
     1
102
RTVSPropertyOp62
 70
     1
  0
XRECORD
  5
1E08
102
{ACAD_REACTORS
330
1E07
102
}
330
1E07
100
AcDbXrecord
280
     1
102
RTVSPost2010Prop28
280
     0
102
RTVSPost2010PropOp28
 70
     1
102
RTVSPost2010Prop29
280
     1
102
RTVSPost2010PropOp29
 70
     1
102
RTVSPost2010Prop30
280
     1
102
RTVSPost2010PropOp30
 70
     1
102
RTVSPost2010Prop31
280
     0
102
RTVSPost2010PropOp31
 70
     1
102
RTVSPost2010Prop32
280
     0
102
RTVSPost2010PropOp32
 70
     1
102
RTVSPost2010Prop33
280
     0
102
RTVSPost2010PropOp33
 70
     1
102
RTVSPost2010Prop34
280
     0
102
RTVSPost2010PropOp34
 70
     1
102
RTVSPost2010Prop35
280
     0
102
RTVSPost2010PropOp35
 70
     1
102
RTVSPost2010Prop36
280
     0
102
RTVSPost2010PropOp36
 70
     1
102
RTVSPost2010Prop37
 90
       50
102
RTVSPost2010PropOp37
 70
     1
102
RTVSPost2010Prop38
140
0.0
102
RTVSPost2010PropOp38
 70
     1
102
RTVSPost2010Prop39
140
1.0
102
RTVSPost2010PropOp39
 70
     1
102
RTVSPost2010Prop40
 90
        0
102
RTVSPost2010PropOp40
 70
     1
102
RTVSPost2010Prop41ColorIndex
 90
       18
102
RTVSPost2010Prop41ColorRGB
 90
        0
102
RTVSPost2010PropOp41
 70
     1
102
RTVSPost2010Prop42
 90
       50
102
RTVSPost2010PropOp42
 70
     1
102
RTVSPost2010Prop43
 90
        3
102
RTVSPost2010PropOp43
 70
     1
102
RTVSPost2010Prop44ColorIndex
 90
        5
102
RTVSPost2010Prop44ColorRGB
 90
      255
102
RTVSPost2010PropOp44
 70
     1
102
RTVSPost2010Prop45
280
     0
102
RTVSPost2010PropOp45
 70
     1
102
RTVSPost2010Prop46
 90
       50
102
RTVSPost2010PropOp46
 70
     1
102
RTVSPost2010Prop47
 90
       50
102
RTVSPost2010PropOp47
 70
     1
102
RTVSPost2010Prop48
 90
       50
102
RTVSPost2010PropOp48
 70
     1
102
RTVSPost2010Prop49
280
     0
102
RTVSPost2010PropOp49
 70
     1
102
RTVSPost2010Prop50
 90
       50
102
RTVSPost2010PropOp50
 70
     1
102
RTVSPost2010Prop51ColorIndex
 90
      256
102
RTVSPost2010Prop51ColorRGB
 90
-16777216
102
RTVSPost2010PropOp51
 70
     0
102
RTVSPost2010Prop52
140
1.0
102
RTVSPost2010PropOp52
 70
     0
102
RTVSPost2010Prop53
 90
        2
102
RTVSPost2010PropOp53
 70
     1
102
RTVSPost2010Prop54
  1
strokes_ogs.tif
102
RTVSPost2010PropOp54
 70
     1
102
RTVSPost2010Prop55
280
     0
102
RTVSPost2010PropOp55
 70
     1
102
RTVSPost2010Prop56
140
1.0
102
RTVSPost2010PropOp56
 70
     1
102
RTVSPost2010Prop57
140
1.0
102
RTVSPost2010PropOp57
 70
     1
102
RTVSPropertyOp0
 70
     1
102
RTVSPropertyOp1
 70
     1
102
RTVSPropertyOp2
 70
     1
102
RTVSPropertyOp3
 70
     1
102
RTVSPropertyOp4
 70
     1
102
RTVSPropertyOp5
 70
     1
102
RTVSPropertyOp6
 70
     1
102
RTVSPropertyOp7
 70
     1
102
RTVSPropertyOp8
 70
     1
102
RTVSPropertyOp9
 70
     1
102
RTVSPropertyOp10
 70
     1
102
RTVSPropertyOp11
 70
     1
102
RTVSPropertyOp12
 70
     1
102
RTVSPropertyOp13
 70
     1
102
RTVSPropertyOp14
 70
     1
102
RTVSPropertyOp15
 70
     1
102
RTVSPropertyOp16
 70
     1
102
RTVSPropertyOp17
 70
     1
102
RTVSPropertyOp18
 70
     1
102
RTVSPropertyOp19
 70
     1
102
RTVSPropertyOp20
 70
     1
102
RTVSPropertyOp21
 70
     1
102
RTVSPropertyOp22
 70
     1
102
RTVSPropertyOp23
 70
     1
102
RTVSPropertyOp24
 70
     1
102
RTVSPropertyOp25
 70
     1
102
RTVSPropertyOp26
 70
     1
102
RTVSPropertyOp27
 70
     1
102
RTVSPropertyOp28
 70
     1
102
RTVSPropertyOp29
 70
     1
102
RTVSPropertyOp30
 70
     1
102
RTVSPropertyOp31
 70
     1
102
RTVSPropertyOp32
 70
     1
102
RTVSPropertyOp33
 70
     1
102
RTVSPropertyOp34
 70
     1
102
RTVSPropertyOp35
 70
     1
102
RTVSPropertyOp36
 70
     1
102
RTVSPropertyOp37
 70
     1
102
RTVSPropertyOp38
 70
     1
102
RTVSPropertyOp39
 70
     1
102
RTVSPropertyOp40
 70
     1
102
RTVSPropertyOp41
 70
     1
102
RTVSPropertyOp42
 70
     1
102
RTVSPropertyOp43
 70
     1
102
RTVSPropertyOp44
 70
     1
102
RTVSPropertyOp45
 70
     1
102
RTVSPropertyOp46
 70
     1
102
RTVSPropertyOp47
 70
     1
102
RTVSPropertyOp48
 70
     1
102
RTVSPropertyOp49
 70
     1
102
RTVSPropertyOp50
 70
     1
102
RTVSPropertyOp51
 70
     0
102
RTVSPropertyOp52
 70
     0
102
RTVSPropertyOp53
 70
     1
102
RTVSPropertyOp54
 70
     1
102
RTVSPropertyOp55
 70
     1
102
RTVSPropertyOp56
 70
     1
102
RTVSPropertyOp57
 70
     1
102
RTVSPropertyOp58
 70
     1
102
RTVSPropertyOp59
 70
     1
102
RTVSPropertyOp60
 70
     1
102
RTVSPropertyOp61
 70
     1
102
RTVSPropertyOp62
 70
     1
  0
XRECORD
  5
1DFE
102
{ACAD_REACTORS
330
1DFD
102
}
330
1DFD
100
AcDbXrecord
280
     1
102
RTVSPost2010Prop28
280
     0
102
RTVSPost2010PropOp28
 70
     1
102
RTVSPost2010Prop29
280
     1
102
RTVSPost2010PropOp29
 70
     1
102
RTVSPost2010Prop30
280
     1
102
RTVSPost2010PropOp30
 70
     1
102
RTVSPost2010Prop31
280
     0
102
RTVSPost2010PropOp31
 70
     1
102
RTVSPost2010Prop32
280
     0
102
RTVSPost2010PropOp32
 70
     1
102
RTVSPost2010Prop33
280
     0
102
RTVSPost2010PropOp33
 70
     1
102
RTVSPost2010Prop34
280
     0
102
RTVSPost2010PropOp34
 70
     1
102
RTVSPost2010Prop35
280
     0
102
RTVSPost2010PropOp35
 70
     1
102
RTVSPost2010Prop36
280
     0
102
RTVSPost2010PropOp36
 70
     1
102
RTVSPost2010Prop37
 90
       50
102
RTVSPost2010PropOp37
 70
     1
102
RTVSPost2010Prop38
140
0.0
102
RTVSPost2010PropOp38
 70
     1
102
RTVSPost2010Prop39
140
1.0
102
RTVSPost2010PropOp39
 70
     1
102
RTVSPost2010Prop40
 90
        0
102
RTVSPost2010PropOp40
 70
     1
102
RTVSPost2010Prop41ColorIndex
 90
       18
102
RTVSPost2010Prop41ColorRGB
 90
        0
102
RTVSPost2010PropOp41
 70
     1
102
RTVSPost2010Prop42
 90
       50
102
RTVSPost2010PropOp42
 70
     1
102
RTVSPost2010Prop43
 90
        3
102
RTVSPost2010PropOp43
 70
     1
102
RTVSPost2010Prop44ColorIndex
 90
        5
102
RTVSPost2010Prop44ColorRGB
 90
      255
102
RTVSPost2010PropOp44
 70
     1
102
RTVSPost2010Prop45
280
     0
102
RTVSPost2010PropOp45
 70
     1
102
RTVSPost2010Prop46
 90
       50
102
RTVSPost2010PropOp46
 70
     1
102
RTVSPost2010Prop47
 90
       50
102
RTVSPost2010PropOp47
 70
     1
102
RTVSPost2010Prop48
 90
       50
102
RTVSPost2010PropOp48
 70
     1
102
RTVSPost2010Prop49
280
     0
102
RTVSPost2010PropOp49
 70
     1
102
RTVSPost2010Prop50
 90
       50
102
RTVSPost2010PropOp50
 70
     1
102
RTVSPost2010Prop51ColorIndex
 90
      256
102
RTVSPost2010Prop51ColorRGB
 90
-16777216
102
RTVSPost2010PropOp51
 70
     0
102
RTVSPost2010Prop52
140
1.0
102
RTVSPost2010PropOp52
 70
     0
102
RTVSPost2010Prop53
 90
        2
102
RTVSPost2010PropOp53
 70
     1
102
RTVSPost2010Prop54
  1
strokes_ogs.tif
102
RTVSPost2010PropOp54
 70
     1
102
RTVSPost2010Prop55
280
     0
102
RTVSPost2010PropOp55
 70
     1
102
RTVSPost2010Prop56
140
1.0
102
RTVSPost2010PropOp56
 70
     1
102
RTVSPost2010Prop57
140
1.0
102
RTVSPost2010PropOp57
 70
     1
102
RTVSPropertyOp0
 70
     1
102
RTVSPropertyOp1
 70
     1
102
RTVSPropertyOp2
 70
     1
102
RTVSPropertyOp3
 70
     1
102
RTVSPropertyOp4
 70
     1
102
RTVSPropertyOp5
 70
     1
102
RTVSPropertyOp6
 70
     1
102
RTVSPropertyOp7
 70
     1
102
RTVSPropertyOp8
 70
     1
102
RTVSPropertyOp9
 70
     1
102
RTVSPropertyOp10
 70
     1
102
RTVSPropertyOp11
 70
     1
102
RTVSPropertyOp12
 70
     1
102
RTVSPropertyOp13
 70
     1
102
RTVSPropertyOp14
 70
     1
102
RTVSPropertyOp15
 70
     1
102
RTVSPropertyOp16
 70
     1
102
RTVSPropertyOp17
 70
     1
102
RTVSPropertyOp18
 70
     1
102
RTVSPropertyOp19
 70
     1
102
RTVSPropertyOp20
 70
     1
102
RTVSPropertyOp21
 70
     1
102
RTVSPropertyOp22
 70
     1
102
RTVSPropertyOp23
 70
     1
102
RTVSPropertyOp24
 70
     1
102
RTVSPropertyOp25
 70
     1
102
RTVSPropertyOp26
 70
     1
102
RTVSPropertyOp27
 70
     1
102
RTVSPropertyOp28
 70
     1
102
RTVSPropertyOp29
 70
     1
102
RTVSPropertyOp30
 70
     1
102
RTVSPropertyOp31
 70
     1
102
RTVSPropertyOp32
 70
     1
102
RTVSPropertyOp33
 70
     1
102
RTVSPropertyOp34
 70
     1
102
RTVSPropertyOp35
 70
     1
102
RTVSPropertyOp36
 70
     1
102
RTVSPropertyOp37
 70
     1
102
RTVSPropertyOp38
 70
     1
102
RTVSPropertyOp39
 70
     1
102
RTVSPropertyOp40
 70
     1
102
RTVSPropertyOp41
 70
     1
102
RTVSPropertyOp42
 70
     1
102
RTVSPropertyOp43
 70
     1
102
RTVSPropertyOp44
 70
     1
102
RTVSPropertyOp45
 70
     1
102
RTVSPropertyOp46
 70
     1
102
RTVSPropertyOp47
 70
     1
102
RTVSPropertyOp48
 70
     1
102
RTVSPropertyOp49
 70
     1
102
RTVSPropertyOp50
 70
     1
102
RTVSPropertyOp51
 70
     0
102
RTVSPropertyOp52
 70
     0
102
RTVSPropertyOp53
 70
     1
102
RTVSPropertyOp54
 70
     1
102
RTVSPropertyOp55
 70
     1
102
RTVSPropertyOp56
 70
     1
102
RTVSPropertyOp57
 70
     1
102
RTVSPropertyOp58
 70
     1
102
RTVSPropertyOp59
 70
     1
102
RTVSPropertyOp60
 70
     1
102
RTVSPropertyOp61
 70
     1
102
RTVSPropertyOp62
 70
     1
  0
XRECORD
  5
1DF2
102
{ACAD_REACTORS
330
1DF1
102
}
330
1DF1
100
AcDbXrecord
280
     1
102
RTVSPost2010Prop28
280
     0
102
RTVSPost2010PropOp28
 70
     1
102
RTVSPost2010Prop29
280
     1
102
RTVSPost2010PropOp29
 70
     1
102
RTVSPost2010Prop30
280
     1
102
RTVSPost2010PropOp30
 70
     1
102
RTVSPost2010Prop31
280
     0
102
RTVSPost2010PropOp31
 70
     1
102
RTVSPost2010Prop32
280
     0
102
RTVSPost2010PropOp32
 70
     1
102
RTVSPost2010Prop33
280
     0
102
RTVSPost2010PropOp33
 70
     1
102
RTVSPost2010Prop34
280
     0
102
RTVSPost2010PropOp34
 70
     1
102
RTVSPost2010Prop35
280
     0
102
RTVSPost2010PropOp35
 70
     1
102
RTVSPost2010Prop36
280
     0
102
RTVSPost2010PropOp36
 70
     1
102
RTVSPost2010Prop37
 90
       50
102
RTVSPost2010PropOp37
 70
     1
102
RTVSPost2010Prop38
140
0.0
102
RTVSPost2010PropOp38
 70
     1
102
RTVSPost2010Prop39
140
1.0
102
RTVSPost2010PropOp39
 70
     1
102
RTVSPost2010Prop40
 90
        0
102
RTVSPost2010PropOp40
 70
     1
102
RTVSPost2010Prop41ColorIndex
 90
       18
102
RTVSPost2010Prop41ColorRGB
 90
        0
102
RTVSPost2010PropOp41
 70
     1
102
RTVSPost2010Prop42
 90
       50
102
RTVSPost2010PropOp42
 70
     1
102
RTVSPost2010Prop43
 90
        3
102
RTVSPost2010PropOp43
 70
     1
102
RTVSPost2010Prop44ColorIndex
 90
        5
102
RTVSPost2010Prop44ColorRGB
 90
      255
102
RTVSPost2010PropOp44
 70
     1
102
RTVSPost2010Prop45
280
     0
102
RTVSPost2010PropOp45
 70
     1
102
RTVSPost2010Prop46
 90
       50
102
RTVSPost2010PropOp46
 70
     1
102
RTVSPost2010Prop47
 90
       50
102
RTVSPost2010PropOp47
 70
     1
102
RTVSPost2010Prop48
 90
       50
102
RTVSPost2010PropOp48
 70
     1
102
RTVSPost2010Prop49
280
     0
102
RTVSPost2010PropOp49
 70
     1
102
RTVSPost2010Prop50
 90
       50
102
RTVSPost2010PropOp50
 70
     1
102
RTVSPost2010Prop51ColorIndex
 90
      256
102
RTVSPost2010Prop51ColorRGB
 90
-16777216
102
RTVSPost2010PropOp51
 70
     0
102
RTVSPost2010Prop52
140
1.0
102
RTVSPost2010PropOp52
 70
     0
102
RTVSPost2010Prop53
 90
        2
102
RTVSPost2010PropOp53
 70
     1
102
RTVSPost2010Prop54
  1
strokes_ogs.tif
102
RTVSPost2010PropOp54
 70
     1
102
RTVSPost2010Prop55
280
     0
102
RTVSPost2010PropOp55
 70
     1
102
RTVSPost2010Prop56
140
1.0
102
RTVSPost2010PropOp56
 70
     1
102
RTVSPost2010Prop57
140
1.0
102
RTVSPost2010PropOp57
 70
     1
102
RTVSPropertyOp0
 70
     1
102
RTVSPropertyOp1
 70
     1
102
RTVSPropertyOp2
 70
     1
102
RTVSPropertyOp3
 70
     1
102
RTVSPropertyOp4
 70
     1
102
RTVSPropertyOp5
 70
     1
102
RTVSPropertyOp6
 70
     1
102
RTVSPropertyOp7
 70
     1
102
RTVSPropertyOp8
 70
     1
102
RTVSPropertyOp9
 70
     1
102
RTVSPropertyOp10
 70
     1
102
RTVSPropertyOp11
 70
     1
102
RTVSPropertyOp12
 70
     1
102
RTVSPropertyOp13
 70
     1
102
RTVSPropertyOp14
 70
     1
102
RTVSPropertyOp15
 70
     1
102
RTVSPropertyOp16
 70
     1
102
RTVSPropertyOp17
 70
     1
102
RTVSPropertyOp18
 70
     1
102
RTVSPropertyOp19
 70
     1
102
RTVSPropertyOp20
 70
     1
102
RTVSPropertyOp21
 70
     1
102
RTVSPropertyOp22
 70
     1
102
RTVSPropertyOp23
 70
     1
102
RTVSPropertyOp24
 70
     1
102
RTVSPropertyOp25
 70
     1
102
RTVSPropertyOp26
 70
     1
102
RTVSPropertyOp27
 70
     1
102
RTVSPropertyOp28
 70
     1
102
RTVSPropertyOp29
 70
     1
102
RTVSPropertyOp30
 70
     1
102
RTVSPropertyOp31
 70
     1
102
RTVSPropertyOp32
 70
     1
102
RTVSPropertyOp33
 70
     1
102
RTVSPropertyOp34
 70
     1
102
RTVSPropertyOp35
 70
     1
102
RTVSPropertyOp36
 70
     1
102
RTVSPropertyOp37
 70
     1
102
RTVSPropertyOp38
 70
     1
102
RTVSPropertyOp39
 70
     1
102
RTVSPropertyOp40
 70
     1
102
RTVSPropertyOp41
 70
     1
102
RTVSPropertyOp42
 70
     1
102
RTVSPropertyOp43
 70
     1
102
RTVSPropertyOp44
 70
     1
102
RTVSPropertyOp45
 70
     1
102
RTVSPropertyOp46
 70
     1
102
RTVSPropertyOp47
 70
     1
102
RTVSPropertyOp48
 70
     1
102
RTVSPropertyOp49
 70
     1
102
RTVSPropertyOp50
 70
     1
102
RTVSPropertyOp51
 70
     0
102
RTVSPropertyOp52
 70
     0
102
RTVSPropertyOp53
 70
     1
102
RTVSPropertyOp54
 70
     1
102
RTVSPropertyOp55
 70
     1
102
RTVSPropertyOp56
 70
     1
102
RTVSPropertyOp57
 70
     1
102
RTVSPropertyOp58
 70
     1
102
RTVSPropertyOp59
 70
     1
102
RTVSPropertyOp60
 70
     1
102
RTVSPropertyOp61
 70
     1
102
RTVSPropertyOp62
 70
     1
  0
XRECORD
  5
1E0A
102
{ACAD_REACTORS
330
1E09
102
}
330
1E09
100
AcDbXrecord
280
     1
102
RTVSPost2010Prop28
280
     0
102
RTVSPost2010PropOp28
 70
     1
102
RTVSPost2010Prop29
280
     1
102
RTVSPost2010PropOp29
 70
     1
102
RTVSPost2010Prop30
280
     1
102
RTVSPost2010PropOp30
 70
     1
102
RTVSPost2010Prop31
280
     0
102
RTVSPost2010PropOp31
 70
     1
102
RTVSPost2010Prop32
280
     0
102
RTVSPost2010PropOp32
 70
     1
102
RTVSPost2010Prop33
280
     0
102
RTVSPost2010PropOp33
 70
     1
102
RTVSPost2010Prop34
280
     0
102
RTVSPost2010PropOp34
 70
     1
102
RTVSPost2010Prop35
280
     0
102
RTVSPost2010PropOp35
 70
     1
102
RTVSPost2010Prop36
280
     0
102
RTVSPost2010PropOp36
 70
     1
102
RTVSPost2010Prop37
 90
       50
102
RTVSPost2010PropOp37
 70
     1
102
RTVSPost2010Prop38
140
0.0
102
RTVSPost2010PropOp38
 70
     1
102
RTVSPost2010Prop39
140
1.0
102
RTVSPost2010PropOp39
 70
     1
102
RTVSPost2010Prop40
 90
        0
102
RTVSPost2010PropOp40
 70
     1
102
RTVSPost2010Prop41ColorIndex
 90
       18
102
RTVSPost2010Prop41ColorRGB
 90
        0
102
RTVSPost2010PropOp41
 70
     1
102
RTVSPost2010Prop42
 90
       50
102
RTVSPost2010PropOp42
 70
     1
102
RTVSPost2010Prop43
 90
        3
102
RTVSPost2010PropOp43
 70
     1
102
RTVSPost2010Prop44ColorIndex
 90
        5
102
RTVSPost2010Prop44ColorRGB
 90
      255
102
RTVSPost2010PropOp44
 70
     1
102
RTVSPost2010Prop45
280
     0
102
RTVSPost2010PropOp45
 70
     1
102
RTVSPost2010Prop46
 90
       50
102
RTVSPost2010PropOp46
 70
     1
102
RTVSPost2010Prop47
 90
       50
102
RTVSPost2010PropOp47
 70
     1
102
RTVSPost2010Prop48
 90
       50
102
RTVSPost2010PropOp48
 70
     1
102
RTVSPost2010Prop49
280
     0
102
RTVSPost2010PropOp49
 70
     1
102
RTVSPost2010Prop50
 90
       50
102
RTVSPost2010PropOp50
 70
     1
102
RTVSPost2010Prop51ColorIndex
 90
      256
102
RTVSPost2010Prop51ColorRGB
 90
-16777216
102
RTVSPost2010PropOp51
 70
     0
102
RTVSPost2010Prop52
140
1.0
102
RTVSPost2010PropOp52
 70
     0
102
RTVSPost2010Prop53
 90
        2
102
RTVSPost2010PropOp53
 70
     1
102
RTVSPost2010Prop54
  1
strokes_ogs.tif
102
RTVSPost2010PropOp54
 70
     1
102
RTVSPost2010Prop55
280
     0
102
RTVSPost2010PropOp55
 70
     1
102
RTVSPost2010Prop56
140
1.0
102
RTVSPost2010PropOp56
 70
     1
102
RTVSPost2010Prop57
140
1.0
102
RTVSPost2010PropOp57
 70
     1
102
RTVSPropertyOp0
 70
     1
102
RTVSPropertyOp1
 70
     1
102
RTVSPropertyOp2
 70
     1
102
RTVSPropertyOp3
 70
     1
102
RTVSPropertyOp4
 70
     1
102
RTVSPropertyOp5
 70
     1
102
RTVSPropertyOp6
 70
     1
102
RTVSPropertyOp7
 70
     1
102
RTVSPropertyOp8
 70
     1
102
RTVSPropertyOp9
 70
     1
102
RTVSPropertyOp10
 70
     1
102
RTVSPropertyOp11
 70
     1
102
RTVSPropertyOp12
 70
     1
102
RTVSPropertyOp13
 70
     1
102
RTVSPropertyOp14
 70
     1
102
RTVSPropertyOp15
 70
     1
102
RTVSPropertyOp16
 70
     1
102
RTVSPropertyOp17
 70
     1
102
RTVSPropertyOp18
 70
     1
102
RTVSPropertyOp19
 70
     1
102
RTVSPropertyOp20
 70
     1
102
RTVSPropertyOp21
 70
     1
102
RTVSPropertyOp22
 70
     1
102
RTVSPropertyOp23
 70
     1
102
RTVSPropertyOp24
 70
     1
102
RTVSPropertyOp25
 70
     1
102
RTVSPropertyOp26
 70
     1
102
RTVSPropertyOp27
 70
     1
102
RTVSPropertyOp28
 70
     1
102
RTVSPropertyOp29
 70
     1
102
RTVSPropertyOp30
 70
     1
102
RTVSPropertyOp31
 70
     1
102
RTVSPropertyOp32
 70
     1
102
RTVSPropertyOp33
 70
     1
102
RTVSPropertyOp34
 70
     1
102
RTVSPropertyOp35
 70
     1
102
RTVSPropertyOp36
 70
     1
102
RTVSPropertyOp37
 70
     1
102
RTVSPropertyOp38
 70
     1
102
RTVSPropertyOp39
 70
     1
102
RTVSPropertyOp40
 70
     1
102
RTVSPropertyOp41
 70
     1
102
RTVSPropertyOp42
 70
     1
102
RTVSPropertyOp43
 70
     1
102
RTVSPropertyOp44
 70
     1
102
RTVSPropertyOp45
 70
     1
102
RTVSPropertyOp46
 70
     1
102
RTVSPropertyOp47
 70
     1
102
RTVSPropertyOp48
 70
     1
102
RTVSPropertyOp49
 70
     1
102
RTVSPropertyOp50
 70
     1
102
RTVSPropertyOp51
 70
     0
102
RTVSPropertyOp52
 70
     0
102
RTVSPropertyOp53
 70
     1
102
RTVSPropertyOp54
 70
     1
102
RTVSPropertyOp55
 70
     1
102
RTVSPropertyOp56
 70
     1
102
RTVSPropertyOp57
 70
     1
102
RTVSPropertyOp58
 70
     1
102
RTVSPropertyOp59
 70
     1
102
RTVSPropertyOp60
 70
     1
102
RTVSPropertyOp61
 70
     1
102
RTVSPropertyOp62
 70
     1
  0
ENDSEC
  0
EOF
