  0
SECTION
  2
HEADER
  9
$ACADVER
  1
AC1015
  9
$ACADMAINTVER
 70
    20
  9
$DWGCODEPAGE
  3
ANSI_932
  9
$INSBASE
 10
0.0
 20
0.0
 30
0.0
  9
$EXTMIN
 10
9.9999975266385
 20
10.0
 30
0.0
  9
$EXTMAX
 10
470.3994550527375
 20
325.813188650934
 30
0.0
  9
$LIMMIN
 10
0.0000015376081137
 20
-0.0000001931532552
  9
$LIMMAX
 10
545.0000015376081
 20
375.7196967765435
  9
$ORTHOMODE
 70
     1
  9
$REGENMODE
 70
     1
  9
$FILLMODE
 70
     1
  9
$QTEXTMODE
 70
     0
  9
$MIRRTEXT
 70
     1
  9
$LTSCALE
 40
1.0
  9
$ATTMODE
 70
     1
  9
$TEXTSIZE
 40
2.5
  9
$TRACEWID
 40
1.0
  9
$TEXTSTYLE
  7
STANDARD
  9
$CLAYER
  8
0
  9
$CELTYPE
  6
BYLAYER
  9
$CECOLOR
 62
   256
  9
$CELTSCALE
 40
1.0
  9
$DISPSILH
 70
     0
  9
$DIMSCALE
 40
1.0
  9
$DIMASZ
 40
3.0
  9
$DIMEXO
 40
1.0
  9
$DIMDLI
 40
10.0
  9
$DIMRND
 40
0.0
  9
$DIMDLE
 40
0.0
  9
$DIMEXE
 40
1.0
  9
$DIMTP
 40
0.0
  9
$DIMTM
 40
0.0
  9
$DIMTXT
 40
3.2
  9
$DIMCEN
 40
0.0
  9
$DIMTSZ
 40
0.0
  9
$DIMTOL
 70
     0
  9
$DIMLIM
 70
     0
  9
$DIMTIH
 70
     0
  9
$DIMTOH
 70
     0
  9
$DIMSE1
 70
     0
  9
$DIMSE2
 70
     0
  9
$DIMTAD
 70
     3
  9
$DIMZIN
 70
     8
  9
$DIMBLK
  1

  9
$DIMASO
 70
     1
  9
$DIMSHO
 70
     1
  9
$DIMPOST
  1

  9
$DIMAPOST
  1

  9
$DIMALT
 70
     0
  9
$DIMALTD
 70
     2
  9
$DIMALTF
 40
25.4
  9
$DIMLFAC
 40
1.0
  9
$DIMTOFL
 70
     1
  9
$DIMTVP
 40
0.0
  9
$DIMTIX
 70
     0
  9
$DIMSOXD
 70
     0
  9
$DIMSAH
 70
     1
  9
$DIMBLK1
  1
OPEN
  9
$DIMBLK2
  1
OPEN
  9
$DIMSTYLE
  2
STANDARD
  9
$DIMCLRD
 70
     0
  9
$DIMCLRE
 70
     0
  9
$DIMCLRT
 70
     0
  9
$DIMTFAC
 40
1.0
  9
$DIMGAP
 40
1.0
  9
$DIMJUST
 70
     0
  9
$DIMSD1
 70
     0
  9
$DIMSD2
 70
     0
  9
$DIMTOLJ
 70
     1
  9
$DIMTZIN
 70
     0
  9
$DIMALTZ
 70
     0
  9
$DIMALTTZ
 70
     0
  9
$DIMUPT
 70
     0
  9
$DIMDEC
 70
     4
  9
$DIMTDEC
 70
     4
  9
$DIMALTU
 70
     2
  9
$DIMALTTD
 70
     2
  9
$DIMTXSTY
  7
STANDARD
  9
$DIMAUNIT
 70
     0
  9
$DIMADEC
 70
     0
  9
$DIMALTRND
 40
0.0
  9
$DIMAZIN
 70
     0
  9
$DIMDSEP
 70
    46
  9
$DIMATFIT
 70
     3
  9
$DIMFRAC
 70
     0
  9
$DIMLDRBLK
  1
OPEN
  9
$DIMLUNIT
 70
     2
  9
$DIMLWD
 70
    -2
  9
$DIMLWE
 70
    -2
  9
$DIMTMOVE
 70
     0
  9
$LUNITS
 70
     2
  9
$LUPREC
 70
     4
  9
$SKETCHINC
 40
1.0
  9
$FILLETRAD
 40
10.0
  9
$AUNITS
 70
     0
  9
$AUPREC
 70
     0
  9
$MENU
  1
.
  9
$ELEVATION
 40
0.0
  9
$PELEVATION
 40
0.0
  9
$THICKNESS
 40
0.0
  9
$LIMCHECK
 70
     0
  9
$CHAMFERA
 40
10.0
  9
$CHAMFERB
 40
10.0
  9
$CHAMFERC
 40
20.0
  9
$CHAMFERD
 40
0.0
  9
$SKPOLY
 70
     0
  9
$TDCREATE
 40
2456413.610478021
  9
$TDUCREATE
 40
2456413.235478021
  9
$TDUPDATE
 40
2457192.616994503
  9
$TDUUPDATE
 40
2457192.241994503
  9
$TDINDWG
 40
0.1036148727
  9
$TDUSRTIMER
 40
0.1036148611
  9
$USRTIMER
 70
     1
  9
$ANGBASE
 50
0.0
  9
$ANGDIR
 70
     0
  9
$PDMODE
 70
     0
  9
$PDSIZE
 40
0.0
  9
$PLINEWID
 40
0.0
  9
$SPLFRAME
 70
     0
  9
$SPLINETYPE
 70
     6
  9
$SPLINESEGS
 70
     8
  9
$HANDSEED
  5
1D80
  9
$SURFTAB1
 70
     6
  9
$SURFTAB2
 70
     6
  9
$SURFTYPE
 70
     6
  9
$SURFU
 70
     6
  9
$SURFV
 70
     6
  9
$UCSBASE
  2

  9
$UCSNAME
  2

  9
$UCSORG
 10
0.0
 20
0.0
 30
0.0
  9
$UCSXDIR
 10
1.0
 20
0.0
 30
0.0
  9
$UCSYDIR
 10
0.0
 20
1.0
 30
0.0
  9
$UCSORTHOREF
  2

  9
$UCSORTHOVIEW
 70
     0
  9
$UCSORGTOP
 10
0.0
 20
0.0
 30
0.0
  9
$UCSORGBOTTOM
 10
0.0
 20
0.0
 30
0.0
  9
$UCSORGLEFT
 10
0.0
 20
0.0
 30
0.0
  9
$UCSORGRIGHT
 10
0.0
 20
0.0
 30
0.0
  9
$UCSORGFRONT
 10
0.0
 20
0.0
 30
0.0
  9
$UCSORGBACK
 10
0.0
 20
0.0
 30
0.0
  9
$PUCSBASE
  2

  9
$PUCSNAME
  2

  9
$PUCSORG
 10
0.0
 20
0.0
 30
0.0
  9
$PUCSXDIR
 10
1.0
 20
0.0
 30
0.0
  9
$PUCSYDIR
 10
0.0
 20
1.0
 30
0.0
  9
$PUCSORTHOREF
  2

  9
$PUCSORTHOVIEW
 70
     0
  9
$PUCSORGTOP
 10
0.0
 20
0.0
 30
0.0
  9
$PUCSORGBOTTOM
 10
0.0
 20
0.0
 30
0.0
  9
$PUCSORGLEFT
 10
0.0
 20
0.0
 30
0.0
  9
$PUCSORGRIGHT
 10
0.0
 20
0.0
 30
0.0
  9
$PUCSORGFRONT
 10
0.0
 20
0.0
 30
0.0
  9
$PUCSORGBACK
 10
0.0
 20
0.0
 30
0.0
  9
$USERI1
 70
     0
  9
$USERI2
 70
     0
  9
$USERI3
 70
     0
  9
$USERI4
 70
     0
  9
$USERI5
 70
     0
  9
$USERR1
 40
0.0
  9
$USERR2
 40
0.0
  9
$USERR3
 40
0.0
  9
$USERR4
 40
0.0
  9
$USERR5
 40
0.0
  9
$WORLDVIEW
 70
     1
  9
$SHADEDGE
 70
     3
  9
$SHADEDIF
 70
    70
  9
$TILEMODE
 70
     1
  9
$MAXACTVP
 70
    48
  9
$PINSBASE
 10
0.0
 20
0.0
 30
0.0
  9
$PLIMCHECK
 70
     0
  9
$PEXTMIN
 10
1.000000000000000E+20
 20
1.000000000000000E+20
 30
1.000000000000000E+20
  9
$PEXTMAX
 10
-1.000000000000000E+20
 20
-1.000000000000000E+20
 30
-1.000000000000000E+20
  9
$PLIMMIN
 10
0.0
 20
0.0
  9
$PLIMMAX
 10
420.0
 20
297.0
  9
$UNITMODE
 70
     0
  9
$VISRETAIN
 70
     1
  9
$PLINEGEN
 70
     0
  9
$PSLTSCALE
 70
     1
  9
$TREEDEPTH
 70
  3020
  9
$CMLSTYLE
  2
STANDARD
  9
$CMLJUST
 70
     0
  9
$CMLSCALE
 40
20.0
  9
$PROXYGRAPHICS
 70
     1
  9
$MEASUREMENT
 70
     0
  9
$CELWEIGHT
370
    -1
  9
$ENDCAPS
280
     0
  9
$JOINSTYLE
280
     0
  9
$LWDISPLAY
290
     0
  9
$INSUNITS
 70
     0
  9
$HYPERLINKBASE
  1

  9
$STYLESHEET
  1

  9
$XEDIT
290
     1
  9
$CEPSNTYPE
380
     0
  9
$PSTYLEMODE
290
     1
  9
$FINGERPRINTGUID
  2
{7A967AA3-273B-43B5-AFB5-8CB17B8C713D}
  9
$VERSIONGUID
  2
{AFDDEAEC-6212-4012-B95E-DCBDFBEDA583}
  9
$EXTNAMES
290
     1
  9
$PSVPSCALE
 40
0.0
  9
$OLESTARTUP
290
     0
  0
ENDSEC
  0
SECTION
  2
CLASSES
  0
CLASS
  1
ACDBDICTIONARYWDFLT
  2
AcDbDictionaryWithDefault
  3
ObjectDBX Classes
 90
        0
280
     0
281
     0
  0
CLASS
  1
ACDBPLACEHOLDER
  2
AcDbPlaceHolder
  3
ObjectDBX Classes
 90
        0
280
     0
281
     0
  0
CLASS
  1
LAYOUT
  2
AcDbLayout
  3
ObjectDBX Classes
 90
        0
280
     0
281
     0
  0
CLASS
  1
MATERIAL
  2
AcDbMaterial
  3
ObjectDBX Classes
 90
     1153
280
     0
281
     0
  0
CLASS
  1
VISUALSTYLE
  2
AcDbVisualStyle
  3
ObjectDBX Classes
 90
     4095
280
     0
281
     0
  0
CLASS
  1
TABLESTYLE
  2
AcDbTableStyle
  3
ObjectDBX Classes
 90
     4095
280
     0
281
     0
  0
CLASS
  1
SCALE
  2
AcDbScale
  3
ObjectDBX Classes
 90
     1153
280
     0
281
     0
  0
CLASS
  1
MLEADERSTYLE
  2
AcDbMLeaderStyle
  3
ACDB_MLEADERSTYLE_CLASS
 90
     4095
280
     0
281
     0
  0
CLASS
  1
ACDBSECTIONVIEWSTYLE
  2
AcDbSectionViewStyle
  3
ObjectDBX Classes
 90
     1025
280
     0
281
     0
  0
CLASS
  1
ACDBDETAILVIEWSTYLE
  2
AcDbDetailViewStyle
  3
ObjectDBX Classes
 90
     1025
280
     0
281
     0
  0
CLASS
  1
DICTIONARYVAR
  2
AcDbDictionaryVar
  3
ObjectDBX Classes
 90
        0
280
     0
281
     0
  0
CLASS
  1
CELLSTYLEMAP
  2
AcDbCellStyleMap
  3
ObjectDBX Classes
 90
     1152
280
     0
281
     0
  0
ENDSEC
  0
SECTION
  2
TABLES
  0
TABLE
  2
VPORT
  5
8
330
0
100
AcDbSymbolTable
 70
     1
  0
VPORT
  5
1CCA
330
8
100
AcDbSymbolTableRecord
100
AcDbViewportTableRecord
  2
*ACTIVE
 70
     0
 10
0.0
 20
0.0
 11
1.0
 21
1.0
 12
434.9420376082472
 22
209.8868240060657
 13
0.0
 23
0.0
 14
10.0
 24
10.0
 15
10.0
 25
10.0
 16
0.0
 26
0.0
 36
1.0
 17
0.0
 27
0.0
 37
0.0
 40
416.8520553229708
 41
1.899603698811096
 42
50.0
 43
0.0
 44
0.0
 50
0.0
 51
0.0
 71
     0
 72
   100
 73
     1
 74
     0
 75
     0
 76
     0
 77
     0
 78
     0
281
     0
 65
     1
110
0.0
120
0.0
130
0.0
111
1.0
121
0.0
131
0.0
112
0.0
122
1.0
132
0.0
 79
     0
146
0.0
1001
ACAD_NAV_VCDISPLAY
1070
     3
  0
ENDTAB
  0
TABLE
  2
LTYPE
  5
5
330
0
100
AcDbSymbolTable
 70
     4
  0
LTYPE
  5
12
330
5
100
AcDbSymbolTableRecord
100
AcDbLinetypeTableRecord
  2
BYBLOCK
 70
     0
  3

 72
    65
 73
     0
 40
0.0
  0
LTYPE
  5
13
330
5
100
AcDbSymbolTableRecord
100
AcDbLinetypeTableRecord
  2
BYLAYER
 70
     0
  3

 72
    65
 73
     0
 40
0.0
  0
LTYPE
  5
14
330
5
100
AcDbSymbolTableRecord
100
AcDbLinetypeTableRecord
  2
CONTINUOUS
 70
     0
  3
Solid line
 72
    65
 73
     0
 40
0.0
  0
LTYPE
  5
4B
330
5
100
AcDbSymbolTableRecord
100
AcDbLinetypeTableRecord
  2
DASHED
 70
     0
  3
Dashed __ __ __ __ __ __ __ __ __ __ __ __ __ _
 72
    65
 73
     2
 40
19.04999999999999
 49
12.7
 74
     0
 49
-6.349999999999998
 74
     0
  0
LTYPE
  5
4C
330
5
100
AcDbSymbolTableRecord
100
AcDbLinetypeTableRecord
  2
CENTER
 70
     0
  3
Center ____ _ ____ _ ____ _ ____ _ ____ _ ____
 72
    65
 73
     4
 40
50.8
 49
31.75
 74
     0
 49
-6.349999999999998
 74
     0
 49
6.349999999999998
 74
     0
 49
-6.349999999999998
 74
     0
  0
LTYPE
  5
4D
330
5
100
AcDbSymbolTableRecord
100
AcDbLinetypeTableRecord
  2
PHANTOM
 70
     0
  3
Phantom ______  __  __  ______  __  __  ______
 72
    65
 73
     6
 40
63.5
 49
31.75
 74
     0
 49
-6.349999999999998
 74
     0
 49
6.349999999999998
 74
     0
 49
-6.349999999999998
 74
     0
 49
6.349999999999998
 74
     0
 49
-6.349999999999998
 74
     0
  0
ENDTAB
  0
TABLE
  2
LAYER
  5
2
330
0
100
AcDbSymbolTable
 70
     8
  0
LAYER
  5
E
102
{ACAD_XDICTIONARY
360
1D24
102
}
330
2
100
AcDbSymbolTableRecord
100
AcDbLayerTableRecord
  2
0
 70
     0
 62
     7
  6
CONTINUOUS
370
    -3
390
1CD3
  0
LAYER
  5
4E
102
{ACAD_XDICTIONARY
360
1D26
102
}
330
2
100
AcDbSymbolTableRecord
100
AcDbLayerTableRecord
  2
4
 70
     0
 62
     1
  6
CENTER
370
    -3
390
1CD3
  0
LAYER
  5
4F
102
{ACAD_XDICTIONARY
360
1D28
102
}
330
2
100
AcDbSymbolTableRecord
100
AcDbLayerTableRecord
  2
5
 70
     0
 62
     6
  6
PHANTOM
370
    -3
390
1CD3
  0
LAYER
  5
50
102
{ACAD_XDICTIONARY
360
1D2A
102
}
330
2
100
AcDbSymbolTableRecord
100
AcDbLayerTableRecord
  2
1
 70
     0
 62
     7
  6
CONTINUOUS
370
    -3
390
1CD3
  0
LAYER
  5
51
102
{ACAD_XDICTIONARY
360
1D2C
102
}
330
2
100
AcDbSymbolTableRecord
100
AcDbLayerTableRecord
  2
2
 70
     0
 62
     4
  6
CONTINUOUS
370
    -3
390
1CD3
  0
LAYER
  5
52
102
{ACAD_XDICTIONARY
360
1D2E
102
}
330
2
100
AcDbSymbolTableRecord
100
AcDbLayerTableRecord
  2
3
 70
     0
 62
     2
  6
DASHED
370
    -3
390
1CD3
  0
LAYER
  5
53
102
{ACAD_XDICTIONARY
360
1D30
102
}
330
2
100
AcDbSymbolTableRecord
100
AcDbLayerTableRecord
  2
6
 70
     0
 62
     5
  6
CONTINUOUS
370
    -3
390
1CD3
  0
LAYER
  5
54
102
{ACAD_XDICTIONARY
360
1D32
102
}
330
2
100
AcDbSymbolTableRecord
100
AcDbLayerTableRecord
  2
7
 70
     0
 62
     3
  6
CONTINUOUS
370
    -3
390
1CD3
  0
ENDTAB
  0
TABLE
  2
STYLE
  5
3
330
0
100
AcDbSymbolTable
 70
     1
  0
STYLE
  5
F
330
3
100
AcDbSymbolTableRecord
100
AcDbTextStyleTableRecord
  2
STANDARD
 70
     0
 40
0.0
 41
1.0
 50
0.0
 71
     0
 42
2.5
  3
simplex.shx
  4

  0
ENDTAB
  0
TABLE
  2
VIEW
  5
6
330
0
100
AcDbSymbolTable
 70
     0
  0
ENDTAB
  0
TABLE
  2
UCS
  5
7
330
0
100
AcDbSymbolTable
 70
     0
  0
ENDTAB
  0
TABLE
  2
APPID
  5
9
330
0
100
AcDbSymbolTable
 70
     5
  0
APPID
  5
10
330
9
100
AcDbSymbolTableRecord
100
AcDbRegAppTableRecord
  2
ACAD
 70
     0
  0
APPID
  5
3E
330
9
100
AcDbSymbolTableRecord
100
AcDbRegAppTableRecord
  2
CONTENTTABDATA
 70
     0
  0
APPID
  5
3F
330
9
100
AcDbSymbolTableRecord
100
AcDbRegAppTableRecord
  2
CONTENTCURRENTTAB
 70
     0
  0
APPID
  5
1D3E
330
9
100
AcDbSymbolTableRecord
100
AcDbRegAppTableRecord
  2
ACAD_NAV_VCDISPLAY
 70
     0
  0
APPID
  5
1D77
330
9
100
AcDbSymbolTableRecord
100
AcDbRegAppTableRecord
  2
ACAD_MLEADERVER
 70
     0
  0
ENDTAB
  0
TABLE
  2
DIMSTYLE
  5
A
330
0
100
AcDbSymbolTable
 70
     1
100
AcDbDimStyleTable
 71
     0
  0
DIMSTYLE
105
1D
330
A
100
AcDbSymbolTableRecord
100
AcDbDimStyleTableRecord
  2
STANDARD
 70
     0
 41
3.0
 42
1.0
 43
10.0
 44
1.0
 73
     0
 74
     0
 77
     3
 78
     8
140
3.2
141
0.0
147
1.0
172
     1
173
     1
340
F
341
2E
343
2E
344
2E
  0
ENDTAB
  0
TABLE
  2
BLOCK_RECORD
  5
1
330
0
100
AcDbSymbolTable
 70
     1
  0
BLOCK_RECORD
  5
18
102
{ACAD_XDICTIONARY
360
1CCD
102
}
330
1
100
AcDbSymbolTableRecord
100
AcDbBlockTableRecord
  2
*MODEL_SPACE
340
1D21
  0
BLOCK_RECORD
  5
15
102
{ACAD_XDICTIONARY
360
1CCB
102
}
330
1
100
AcDbSymbolTableRecord
100
AcDbBlockTableRecord
  2
*PAPER_SPACE
340
1D22
  0
BLOCK_RECORD
  5
2E
330
1
100
AcDbSymbolTableRecord
100
AcDbBlockTableRecord
  2
_OPEN
340
0
  0
ENDTAB
  0
ENDSEC
  0
SECTION
  2
BLOCKS
  0
BLOCK
  5
19
330
18
100
AcDbEntity
  8
0
100
AcDbBlockBegin
  2
*MODEL_SPACE
 70
     0
 10
0.0
 20
0.0
 30
0.0
  3
*MODEL_SPACE
  1

  0
ENDBLK
  5
1A
330
18
100
AcDbEntity
  8
0
100
AcDbBlockEnd
  0
BLOCK
  5
16
330
15
100
AcDbEntity
 67
     1
  8
0
100
AcDbBlockBegin
  2
*PAPER_SPACE
 70
     0
 10
0.0
 20
0.0
 30
0.0
  3
*PAPER_SPACE
  1

  0
ENDBLK
  5
17
330
15
100
AcDbEntity
 67
     1
  8
0
100
AcDbBlockEnd
  0
BLOCK
  5
2F
330
2E
100
AcDbEntity
  8
0
100
AcDbBlockBegin
  2
_OPEN
 70
     0
 10
0.0
 20
0.0
 30
0.0
  3
_OPEN
  1

  0
LINE
  5
30
330
2E
100
AcDbEntity
  8
0
  6
ByBlock
 62
     0
100
AcDbLine
 10
-1.0
 20
0.1666666666666666
 30
0.0
 11
0.0
 21
0.0
 31
0.0
  0
LINE
  5
31
330
2E
100
AcDbEntity
  8
0
  6
ByBlock
 62
     0
100
AcDbLine
 10
0.0
 20
0.0
 30
0.0
 11
-1.0
 21
-0.1666666666666666
 31
0.0
  0
LINE
  5
32
330
2E
100
AcDbEntity
  8
0
  6
ByBlock
 62
     0
100
AcDbLine
 10
0.0
 20
0.0
 30
0.0
 11
-1.0
 21
0.0
 31
0.0
  0
ENDBLK
  5
33
330
2E
100
AcDbEntity
  8
0
100
AcDbBlockEnd
  0
ENDSEC
  0
SECTION
  2
ENTITIES
  0
TEXT
  5
63
330
18
100
AcDbEntity
  8
4
  6
CENTER
 48
0.25
100
AcDbText
 10
23.97950852663849
 20
10.0
 30
0.0
 40
1.399999999999999
  1
4
100
AcDbText
  0
TEXT
  5
64
330
18
100
AcDbEntity
  8
7
  6
Continuous
 48
0.25
100
AcDbText
 10
9.999997526638502
 20
26.0000007607689
 30
0.0
 40
3.0
  1
CODE No.2799
100
AcDbText
  0
TEXT
  5
65
330
18
100
AcDbEntity
  8
7
  6
Continuous
 48
0.25
100
AcDbText
 10
9.999997526638502
 20
18.00000076076889
 30
0.0
 40
3.0
  1
TYPE No.TH-167
100
AcDbText
  0
TEXT
  5
66
330
18
100
AcDbEntity
  8
1
  6
Continuous
 48
0.25
100
AcDbText
 10
9.999997526638502
 20
10.00000076076889
 30
0.0
 40
1.399999999999999
  1
LAYER
100
AcDbText
  0
TEXT
  5
67
330
18
100
AcDbEntity
  8
2
  6
Continuous
 48
0.25
100
AcDbText
 10
19.9795085266385
 20
10.0
 30
0.0
 40
1.399999999999999
  1
2
100
AcDbText
  0
TEXT
  5
68
330
18
100
AcDbEntity
  8
3
  6
DASHED
 48
0.25
100
AcDbText
 10
21.9795085266385
 20
10.0
 30
0.0
 40
1.399999999999999
  1
3
100
AcDbText
  0
TEXT
  5
69
330
18
100
AcDbEntity
  8
1
  6
Continuous
 48
0.25
100
AcDbText
 10
17.9795085266385
 20
10.0
 30
0.0
 40
1.399999999999999
  1
1
100
AcDbText
  0
TEXT
  5
6A
330
18
100
AcDbEntity
  8
5
  6
PHANTOM
 48
0.25
100
AcDbText
 10
25.9795085266385
 20
10.0
 30
0.0
 40
1.399999999999999
  1
5
100
AcDbText
  0
TEXT
  5
6B
330
18
100
AcDbEntity
  8
6
  6
Continuous
 48
0.25
100
AcDbText
 10
27.9795085266385
 20
10.0
 30
0.0
 40
1.399999999999999
  1
6
100
AcDbText
  0
TEXT
  5
6C
330
18
100
AcDbEntity
  8
7
  6
Continuous
 48
0.25
100
AcDbText
 10
29.9795085266385
 20
10.0
 30
0.0
 40
1.399999999999999
  1
7
100
AcDbText
  0
LINE
  5
37C
330
18
100
AcDbEntity
  8
1
  6
Continuous
100
AcDbLine
 10
158.0756670455536
 20
191.3494747337761
 30
0.0
 11
158.0756670455536
 21
192.7272093574107
 31
0.0
  0
LINE
  5
37D
330
18
100
AcDbEntity
  8
1
  6
Continuous
100
AcDbLine
 10
156.8281380434168
 20
193.0614837460687
 30
0.0
 11
159.6387377818216
 21
192.3083858159136
 31
0.0
  0
LINE
  5
37E
330
18
100
AcDbEntity
  8
1
  6
Continuous
100
AcDbLine
 10
158.0756670455536
 20
193.7342524647436
 30
0.0
 11
156.476612289916
 21
193.7342524647436
 31
0.0
  0
LINE
  5
37F
330
18
100
AcDbEntity
  8
1
  6
Continuous
100
AcDbLine
 10
158.4089963642958
 20
193.4009231460015
 30
0.0
 11
159.8331816975667
 21
193.4009231460015
 31
0.0
  0
ARC
  5
380
330
18
100
AcDbEntity
  8
1
  6
Continuous
100
AcDbCircle
 10
158.4089963642958
 20
193.7342524647436
 30
0.0
 40
0.3333293187420467
100
AcDbArc
 50
90.0
 51
270.0
  0
LINE
  5
381
330
18
100
AcDbEntity
  8
1
  6
Continuous
100
AcDbLine
 10
159.9530177110654
 20
194.0675817834856
 30
0.0
 11
158.4089963642958
 21
194.0675817834856
 31
0.0
  0
LINE
  5
382
330
18
100
AcDbEntity
  8
1
  6
Continuous
100
AcDbLine
 10
160.267088955787
 20
194.7342404209696
 30
0.0
 11
156.0932550772412
 21
194.7342404209696
 31
0.0
  0
LINE
  5
383
330
18
100
AcDbEntity
  8
1
  6
Continuous
100
AcDbLine
 10
158.0756670455536
 20
195.4008990584538
 30
0.0
 11
158.0756670455536
 21
195.7342283771957
 31
0.0
  0
LINE
  5
384
330
18
100
AcDbEntity
  8
1
  6
Continuous
100
AcDbLine
 10
156.1935628619504
 20
195.4008990584538
 30
0.0
 11
158.0756670455536
 21
195.4008990584538
 31
0.0
  0
ARC
  5
385
330
18
100
AcDbEntity
  8
1
  6
Continuous
100
AcDbCircle
 10
156.1935628619503
 20
195.7342283771959
 30
0.0
 40
0.3333293187420452
100
AcDbArc
 50
190.1041827161253
 51
270.0
  0
ARC
  5
386
330
18
100
AcDbEntity
  8
1
  6
Continuous
100
AcDbCircle
 10
163.6755996004254
 20
197.067545652164
 30
0.0
 40
7.933237786060675
100
AcDbArc
 50
187.7929243354227
 51
190.1041827161253
  0
ARC
  5
387
330
18
100
AcDbEntity
  8
1
  6
Continuous
100
AcDbCircle
 10
155.8816786720836
 20
196.0008918321895
 30
0.0
 40
0.066665863748409
100
AcDbArc
 50
90.0
 51
187.7929243354227
  0
LINE
  5
388
330
18
100
AcDbEntity
  8
1
  6
Continuous
100
AcDbLine
 10
160.2696554190347
 20
196.0675576959379
 30
0.0
 11
155.8816786720837
 21
196.0675576959379
 31
0.0
  0
ARC
  5
389
330
18
100
AcDbEntity
  8
1
  6
Continuous
100
AcDbCircle
 10
160.2696554190347
 20
196.0008918321895
 30
0.0
 40
0.066665863748409
100
AcDbArc
 50
352.2070756645772
 51
90.0
  0
ARC
  5
38A
330
18
100
AcDbEntity
  8
1
  6
Continuous
100
AcDbCircle
 10
152.4757344906929
 20
197.067545652164
 30
0.0
 40
7.933237786060675
100
AcDbArc
 50
349.8958172838746
 51
352.2070756645772
  0
ARC
  5
38B
330
18
100
AcDbEntity
  8
1
  6
Continuous
100
AcDbCircle
 10
159.957771229168
 20
195.7342283771959
 30
0.0
 40
0.3333293187420452
100
AcDbArc
 50
270.0
 51
349.8958172838746
  0
LINE
  5
38C
330
18
100
AcDbEntity
  8
1
  6
Continuous
100
AcDbLine
 10
158.8756574105346
 20
195.4008990584538
 30
0.0
 11
159.9577712291681
 21
195.4008990584538
 31
0.0
  0
LINE
  5
38D
330
18
100
AcDbEntity
  8
1
  6
Continuous
100
AcDbLine
 10
160.4019664665719
 20
196.7342163334221
 30
0.0
 11
155.7493676245465
 21
196.7342163334221
 31
0.0
  0
LINE
  5
38E
330
18
100
AcDbEntity
  8
1
  6
Continuous
100
AcDbLine
 10
158.0756670455536
 20
197.400874970906
 30
0.0
 11
158.0756670455536
 21
198.0675336083902
 31
0.0
  0
LINE
  5
38F
330
18
100
AcDbEntity
  8
1
  6
Continuous
100
AcDbLine
 10
160.4019664665719
 20
197.400874970906
 30
0.0
 11
155.7493676245465
 21
197.400874970906
 31
0.0
  0
LINE
  5
390
330
18
100
AcDbEntity
  8
1
  6
Continuous
100
AcDbLine
 10
160.3456954726536
 20
198.0675336083902
 30
0.0
 11
155.805638618465
 21
198.0675336083902
 31
0.0
  0
LINE
  5
391
330
18
100
AcDbEntity
  8
1
  6
Continuous
100
AcDbLine
 10
156.0023615789817
 20
198.7341922458741
 30
0.0
 11
157.2756766805728
 21
198.7341922458741
 31
0.0
  0
ARC
  5
392
330
18
100
AcDbEntity
  8
1
  6
Continuous
100
AcDbCircle
 10
156.0023615789817
 20
198.8008581096228
 30
0.0
 40
0.066665863748409
100
AcDbArc
 50
167.2710561268771
 51
270.0
  0
ARC
  5
393
330
18
100
AcDbEntity
  8
1
  6
Continuous
100
AcDbCircle
 10
163.6755996004254
 20
197.067545652164
 30
0.0
 40
7.933237786060675
100
AcDbArc
 50
164.7937121239421
 51
167.2710561268771
  0
ARC
  5
394
330
18
100
AcDbEntity
  8
1
  6
Continuous
100
AcDbCircle
 10
163.6755996004254
 20
197.067545652164
 30
0.0
 40
7.933237786060675
100
AcDbArc
 50
164.7424767095431
 51
164.7937121239421
  0
ARC
  5
395
330
18
100
AcDbEntity
  8
1
  6
Continuous
100
AcDbCircle
 10
156.3435667949048
 20
199.0675215646163
 30
0.0
 40
0.3333293187420452
100
AcDbArc
 50
90.0
 51
164.7424767095431
  0
LINE
  5
396
330
18
100
AcDbEntity
  8
1
  6
Continuous
100
AcDbLine
 10
159.8077672962135
 20
199.4008508833584
 30
0.0
 11
156.3435667949048
 21
199.4008508833584
 31
0.0
  0
ARC
  5
397
330
18
100
AcDbEntity
  8
1
  6
Continuous
100
AcDbCircle
 10
159.8077672962135
 20
199.0675215646163
 30
0.0
 40
0.3333293187420452
100
AcDbArc
 50
15.25752329045683
 51
90.0
  0
ARC
  5
398
330
18
100
AcDbEntity
  8
1
  6
Continuous
100
AcDbCircle
 10
152.4757344906929
 20
197.067545652164
 30
0.0
 40
7.933237786060675
100
AcDbArc
 50
13.26811897055542
 51
15.25752329045683
  0
ARC
  5
399
330
18
100
AcDbEntity
  8
1
  6
Continuous
100
AcDbCircle
 10
152.4757344906929
 20
197.067545652164
 30
0.0
 40
7.933237786060675
100
AcDbArc
 50
12.72894387312289
 51
13.26811897055542
  0
ARC
  5
39A
330
18
100
AcDbEntity
  8
1
  6
Continuous
100
AcDbCircle
 10
160.1489725121366
 20
198.8008581096228
 30
0.0
 40
0.066665863748409
100
AcDbArc
 50
270.0
 51
12.72894387312289
  0
LINE
  5
39B
330
18
100
AcDbEntity
  8
1
  6
Continuous
100
AcDbLine
 10
158.8756574105346
 20
198.7341922458741
 30
0.0
 11
160.1489725121366
 21
198.7341922458741
 31
0.0
  0
ARC
  5
39C
330
18
100
AcDbEntity
  8
1
  6
Continuous
100
AcDbCircle
 10
156.8456826727963
 20
200.4008388395845
 30
0.0
 40
0.3333293187420452
100
AcDbArc
 50
90.0
 51
153.9856340003628
  0
ARC
  5
39D
330
18
100
AcDbEntity
  8
1
  6
Continuous
100
AcDbCircle
 10
163.6755996004254
 20
197.067545652164
 30
0.0
 40
7.933237786060675
100
AcDbArc
 50
153.9856340003628
 51
157.0560464434622
  0
ARC
  5
39E
330
18
100
AcDbEntity
  8
1
  6
Continuous
100
AcDbCircle
 10
156.4313787387242
 20
200.1341753845909
 30
0.0
 40
0.066665863748409
100
AcDbArc
 50
157.0560464434622
 51
270.0
  0
LINE
  5
39F
330
18
100
AcDbEntity
  8
1
  6
Continuous
100
AcDbLine
 10
159.7199553523941
 20
200.0675095208424
 30
0.0
 11
156.4313787387242
 21
200.0675095208424
 31
0.0
  0
ARC
  5
3A0
330
18
100
AcDbEntity
  8
1
  6
Continuous
100
AcDbCircle
 10
159.719955352394
 20
200.1341753845909
 30
0.0
 40
0.066665863748409
100
AcDbArc
 50
270.0
 51
22.94395355653777
  0
ARC
  5
3A1
330
18
100
AcDbEntity
  8
1
  6
Continuous
100
AcDbCircle
 10
152.4757344906929
 20
197.067545652164
 30
0.0
 40
7.933237786060675
100
AcDbArc
 50
22.94395355653777
 51
26.01436599963719
  0
ARC
  5
3A2
330
18
100
AcDbEntity
  8
1
  6
Continuous
100
AcDbCircle
 10
159.3056514183221
 20
200.4008388395845
 30
0.0
 40
0.3333293187420452
100
AcDbArc
 50
26.01436599963719
 51
90.0
  0
LINE
  5
3A3
330
18
100
AcDbEntity
  8
1
  6
Continuous
100
AcDbLine
 10
156.8456826727963
 20
200.7341681583265
 30
0.0
 11
159.3056514183221
 21
200.7341681583265
 31
0.0
  0
LINE
  5
3A4
330
18
100
AcDbEntity
  8
1
  6
Continuous
100
AcDbLine
 10
159.9041187716665
 20
201.4008267958106
 30
0.0
 11
157.0303805445707
 21
201.4008267958106
 31
0.0
  0
ARC
  5
3A5
330
18
100
AcDbEntity
  8
1
  6
Continuous
100
AcDbCircle
 10
158.0756670455536
 20
193.0675938272595
 30
0.0
 40
1.718119093483293
100
AcDbArc
 50
215.5376777919479
 51
225.6988392796176
  0
ARC
  5
3A6
330
18
100
AcDbEntity
  8
1
  6
Continuous
100
AcDbCircle
 10
163.6755996004254
 20
197.067545652164
 30
0.0
 40
8.599896423544768
100
AcDbArc
 50
144.4623222080521
 51
215.5376777919479
  0
ARC
  5
3A7
330
18
100
AcDbEntity
  8
1
  6
Continuous
100
AcDbCircle
 10
158.0756670455536
 20
201.0674974770686
 30
0.0
 40
1.718119093483293
100
AcDbArc
 50
90.0
 51
144.4623222080521
  0
ARC
  5
3A8
330
18
100
AcDbEntity
  8
1
  6
Continuous
100
AcDbCircle
 10
158.0756670455536
 20
193.0675938272595
 30
0.0
 40
1.718119093483293
100
AcDbArc
 50
242.2496545546284
 51
324.4623222079983
  0
ARC
  5
3A9
330
18
100
AcDbEntity
  8
1
  6
Continuous
100
AcDbCircle
 10
152.4757344906929
 20
197.067545652164
 30
0.0
 40
8.599896423544768
100
AcDbArc
 50
324.4623222079983
 51
35.53767779200164
  0
ARC
  5
3AA
330
18
100
AcDbEntity
  8
1
  6
Continuous
100
AcDbCircle
 10
158.0756670455536
 20
201.0674974770686
 30
0.0
 40
1.718119093483293
100
AcDbArc
 50
35.53767779200164
 51
76.53743939173323
  0
ARC
  5
3B1
330
18
100
AcDbEntity
  8
1
  6
Continuous
100
AcDbCircle
 10
203.6256670455537
 20
91.82190265339407
 30
0.0
 40
4.5
100
AcDbArc
 50
0.0
 51
90.0
  0
ARC
  5
3B2
330
18
100
AcDbEntity
  8
1
  6
Continuous
100
AcDbCircle
 10
210.6256670455537
 20
76.82190265339411
 30
0.0
 40
4.5
100
AcDbArc
 50
180.0
 51
270.0
  0
ARC
  5
3B3
330
18
100
AcDbEntity
  8
1
  6
Continuous
100
AcDbCircle
 10
203.6256670455537
 20
91.82190265339407
 30
0.0
 40
2.5
100
AcDbArc
 50
0.0
 51
90.0
  0
ARC
  5
3B4
330
18
100
AcDbEntity
  8
1
  6
Continuous
100
AcDbCircle
 10
210.6256670455537
 20
76.82190265339411
 30
0.0
 40
2.5
100
AcDbArc
 50
180.0
 51
270.0
  0
LINE
  5
3E0
330
18
100
AcDbEntity
  8
5
  6
PHANTOM
 48
0.25
100
AcDbLine
 10
167.1256670455641
 20
47.3219026533941
 30
0.0
 11
167.1256670455537
 21
29.32190265339409
 31
0.0
  0
ARC
  5
3E1
330
18
100
AcDbEntity
  8
5
  6
PHANTOM
 48
0.25
100
AcDbCircle
 10
171.1256670455537
 20
47.3219026533941
 30
0.0
 40
2.0
100
AcDbArc
 50
90.0
 51
180.0
  0
LINE
  5
3E2
330
18
100
AcDbEntity
  8
5
  6
PHANTOM
 48
0.25
100
AcDbLine
 10
169.1256670455537
 20
29.32190265339409
 30
0.0
 11
167.1256670455537
 21
29.32190265339409
 31
0.0
  0
ARC
  5
3E3
330
18
100
AcDbEntity
  8
5
  6
PHANTOM
 48
0.25
100
AcDbCircle
 10
171.1256670455537
 20
47.3219026533941
 30
0.0
 40
4.0
100
AcDbArc
 50
90.0
 51
180.0
  0
LINE
  5
3E4
330
18
100
AcDbEntity
  8
5
  6
PHANTOM
 48
0.25
100
AcDbLine
 10
169.1256670455537
 20
47.3219026533941
 30
0.0
 11
169.1256670455537
 21
29.32190265339409
 31
0.0
  0
ARC
  5
3E5
330
18
100
AcDbEntity
  8
5
  6
PHANTOM
 48
0.25
100
AcDbCircle
 10
187.1256670455537
 20
53.32190265339409
 30
0.0
 40
2.0
100
AcDbArc
 50
270.0
 51
0.0
  0
LINE
  5
3E6
330
18
100
AcDbEntity
  8
5
  6
PHANTOM
 48
0.25
100
AcDbLine
 10
187.1256670455537
 20
49.3219026533941
 30
0.0
 11
171.1256670455537
 21
49.3219026533941
 31
0.0
  0
LINE
  5
3E7
330
18
100
AcDbEntity
  8
5
  6
PHANTOM
 48
0.25
100
AcDbLine
 10
171.1256670455537
 20
51.3219026533941
 30
0.0
 11
187.1256670455537
 21
51.3219026533941
 31
0.0
  0
ARC
  5
3E8
330
18
100
AcDbEntity
  8
5
  6
PHANTOM
 48
0.25
100
AcDbCircle
 10
187.1256670455537
 20
53.32190265339409
 30
0.0
 40
4.0
100
AcDbArc
 50
270.0
 51
0.0
  0
LINE
  5
3E9
330
18
100
AcDbEntity
  8
5
  6
PHANTOM
 48
0.25
100
AcDbLine
 10
191.1256670455537
 20
72.27190265339408
 30
0.0
 11
191.1256670455537
 21
53.32190265339409
 31
0.0
  0
LINE
  5
3EA
330
18
100
AcDbEntity
  8
5
  6
PHANTOM
 48
0.25
100
AcDbLine
 10
189.1256670455537
 20
53.32190265339409
 30
0.0
 11
189.1256670455537
 21
72.27190265339408
 31
0.0
  0
ARC
  5
3EB
330
18
100
AcDbEntity
  8
5
  6
PHANTOM
 48
0.25
100
AcDbCircle
 10
187.1256670455537
 20
72.27190265339395
 30
0.0
 40
2.0
100
AcDbArc
 50
0.0
 51
90.0
  0
ARC
  5
3EC
330
18
100
AcDbEntity
  8
5
  6
PHANTOM
 48
0.25
100
AcDbCircle
 10
187.1256670455537
 20
72.27190265339395
 30
0.0
 40
4.0
100
AcDbArc
 50
0.0
 51
90.0
  0
LINE
  5
3ED
330
18
100
AcDbEntity
  8
5
  6
PHANTOM
 48
0.25
100
AcDbLine
 10
181.0450160455537
 20
76.27190265339407
 30
0.0
 11
187.1256670455537
 21
76.27190265339407
 31
0.0
  0
LINE
  5
3EE
330
18
100
AcDbEntity
  8
5
  6
PHANTOM
 48
0.25
100
AcDbLine
 10
176.1256670455537
 20
74.27190265339408
 30
0.0
 11
187.1256670455537
 21
74.27190265339408
 31
0.0
  0
LINE
  5
434
330
18
100
AcDbEntity
  8
4
  6
CENTER
 48
0.25
100
AcDbLine
 10
133.5756670455537
 20
197.067545652164
 30
0.0
 11
233.1256670455537
 21
197.0675456521641
 31
0.0
  0
LINE
  5
437
330
18
100
AcDbEntity
  8
1
  6
Continuous
100
AcDbLine
 10
169.0756670455536
 20
147.067545652164
 30
0.0
 11
226.1256670455537
 21
147.067545652164
 31
0.0
  0
CIRCLE
  5
438
330
18
100
AcDbEntity
  8
1
  6
Continuous
100
AcDbCircle
 10
218.1256670455537
 20
161.067545652164
 30
0.0
 40
2.1
  0
CIRCLE
  5
439
330
18
100
AcDbEntity
  8
1
  6
Continuous
100
AcDbCircle
 10
218.1256670455537
 20
197.067545652164
 30
0.0
 40
2.1
  0
CIRCLE
  5
43A
330
18
100
AcDbEntity
  8
1
  6
Continuous
100
AcDbCircle
 10
218.1256670455537
 20
233.0675456521641
 30
0.0
 40
2.1
  0
CIRCLE
  5
43B
330
18
100
AcDbEntity
  8
1
  6
Continuous
100
AcDbCircle
 10
151.0756670455537
 20
187.0675456516965
 30
0.0
 40
5.0
  0
CIRCLE
  5
43C
330
18
100
AcDbEntity
  8
1
  6
Continuous
100
AcDbCircle
 10
151.0756670455537
 20
207.0675456516967
 30
0.0
 40
4.999999999999943
  0
LINE
  5
43D
330
18
100
AcDbEntity
  8
1
  6
Continuous
100
AcDbLine
 10
55.06377304198617
 20
211.3175456521545
 30
0.0
 11
54.56377304198604
 21
210.8175456521545
 31
0.0
  0
LINE
  5
43E
330
18
100
AcDbEntity
  8
1
  6
Continuous
100
AcDbLine
 10
55.06377304198604
 20
202.8175456521543
 30
0.0
 11
54.56377304198617
 21
203.3175456521543
 31
0.0
  0
LINE
  5
43F
330
18
100
AcDbEntity
  8
1
  6
Continuous
100
AcDbLine
 10
55.06377304198625
 20
211.3175456521545
 30
0.0
 11
55.06377304198604
 21
202.8175456521544
 31
0.0
  0
LINE
  5
447
330
18
100
AcDbEntity
  8
1
  6
Continuous
100
AcDbLine
 10
59.06377304198617
 20
202.8175456521544
 30
0.0
 11
59.56377304198617
 21
203.3175456521543
 31
0.0
  0
LINE
  5
448
330
18
100
AcDbEntity
  8
1
  6
Continuous
100
AcDbLine
 10
59.06377304198599
 20
211.3175456521545
 30
0.0
 11
59.56377304198604
 21
210.8175456521544
 31
0.0
  0
LINE
  5
449
330
18
100
AcDbEntity
  8
1
  6
Continuous
100
AcDbLine
 10
59.56377304198625
 20
210.8175456521544
 30
0.0
 11
59.56377304198625
 21
203.3175456521544
 31
0.0
  0
LINE
  5
44A
330
18
100
AcDbEntity
  8
1
  6
Continuous
100
AcDbLine
 10
59.06377304198617
 20
211.3175456521545
 30
0.0
 11
59.06377304198617
 21
202.8175456521545
 31
0.0
  0
LINE
  5
44B
330
18
100
AcDbEntity
  8
1
  6
Continuous
100
AcDbLine
 10
59.06377304198638
 20
202.8175456521544
 30
0.0
 11
55.06377304198617
 21
202.8175456521544
 31
0.0
  0
LINE
  5
44C
330
18
100
AcDbEntity
  8
1
  6
Continuous
100
AcDbLine
 10
59.06377304198617
 20
211.3175456521545
 30
0.0
 11
55.0637730419864
 21
211.3175456521545
 31
0.0
  0
LINE
  5
44E
330
18
100
AcDbEntity
  8
1
  6
Continuous
100
AcDbLine
 10
55.06377304198617
 20
191.3175456521543
 30
0.0
 11
54.56377304198604
 21
190.8175456521543
 31
0.0
  0
LINE
  5
44F
330
18
100
AcDbEntity
  8
1
  6
Continuous
100
AcDbLine
 10
55.06377304198617
 20
182.8175456521542
 30
0.0
 11
54.56377304198625
 21
183.317545652154
 31
0.0
  0
LINE
  5
450
330
18
100
AcDbEntity
  8
1
  6
Continuous
100
AcDbLine
 10
55.06377304198625
 20
191.3175456521543
 30
0.0
 11
55.06377304198604
 21
182.8175456521543
 31
0.0
  0
LINE
  5
458
330
18
100
AcDbEntity
  8
1
  6
Continuous
100
AcDbLine
 10
59.06377304198617
 20
182.8175456521543
 30
0.0
 11
59.56377304198617
 21
183.3175456521541
 31
0.0
  0
LINE
  5
459
330
18
100
AcDbEntity
  8
1
  6
Continuous
100
AcDbLine
 10
59.06377304198599
 20
191.3175456521543
 30
0.0
 11
59.56377304198617
 21
190.8175456521543
 31
0.0
  0
LINE
  5
45A
330
18
100
AcDbEntity
  8
1
  6
Continuous
100
AcDbLine
 10
59.56377304198625
 20
190.8175456521543
 30
0.0
 11
59.56377304198625
 21
183.3175456521543
 31
0.0
  0
LINE
  5
45B
330
18
100
AcDbEntity
  8
1
  6
Continuous
100
AcDbLine
 10
59.06377304198617
 20
191.3175456521543
 30
0.0
 11
59.06377304198617
 21
182.8175456521543
 31
0.0
  0
LINE
  5
45C
330
18
100
AcDbEntity
  8
1
  6
Continuous
100
AcDbLine
 10
59.06377304198638
 20
182.8175456521543
 30
0.0
 11
55.06377304198617
 21
182.8175456521543
 31
0.0
  0
LINE
  5
45D
330
18
100
AcDbEntity
  8
1
  6
Continuous
100
AcDbLine
 10
59.06377304198617
 20
191.3175456521543
 30
0.0
 11
55.0637730419864
 21
191.3175456521543
 31
0.0
  0
LINE
  5
45F
330
18
100
AcDbEntity
  8
1
  6
Continuous
100
AcDbLine
 10
146.8256670455535
 20
86.12190265341837
 30
0.0
 11
147.3256670455536
 21
85.62190265341826
 31
0.0
  0
LINE
  5
460
330
18
100
AcDbEntity
  8
1
  6
Continuous
100
AcDbLine
 10
155.3256670455537
 20
86.12190265341828
 30
0.0
 11
154.8256670455538
 21
85.62190265341838
 31
0.0
  0
LINE
  5
461
330
18
100
AcDbEntity
  8
1
  6
Continuous
100
AcDbLine
 10
146.8256670455536
 20
86.12190265341844
 30
0.0
 11
155.3256670455537
 21
86.12190265341828
 31
0.0
  0
LINE
  5
469
330
18
100
AcDbEntity
  8
1
  6
Continuous
100
AcDbLine
 10
155.3256670455537
 20
90.12190265341834
 30
0.0
 11
154.8256670455538
 21
90.62190265341838
 31
0.0
  0
LINE
  5
46A
330
18
100
AcDbEntity
  8
1
  6
Continuous
100
AcDbLine
 10
146.8256670455536
 20
90.12190265341819
 30
0.0
 11
147.3256670455536
 21
90.62190265341827
 31
0.0
  0
LINE
  5
46B
330
18
100
AcDbEntity
  8
1
  6
Continuous
100
AcDbLine
 10
147.3256670455536
 20
90.62190265341845
 30
0.0
 11
154.8256670455536
 21
90.62190265341845
 31
0.0
  0
LINE
  5
46C
330
18
100
AcDbEntity
  8
1
  6
Continuous
100
AcDbLine
 10
146.8256670455536
 20
90.12190265341834
 30
0.0
 11
155.3256670455536
 21
90.1219026534186
 31
0.0
  0
LINE
  5
46D
330
18
100
AcDbEntity
  8
1
  6
Continuous
100
AcDbLine
 10
155.3256670455537
 20
90.1219026534186
 30
0.0
 11
155.3256670455537
 21
86.12190265341837
 31
0.0
  0
LINE
  5
46E
330
18
100
AcDbEntity
  8
1
  6
Continuous
100
AcDbLine
 10
146.8256670455536
 20
90.12190265341834
 30
0.0
 11
146.8256670455536
 21
86.1219026534186
 31
0.0
  0
LINE
  5
470
330
18
100
AcDbEntity
  8
1
  6
Continuous
100
AcDbLine
 10
173.8756670464162
 20
106.5719026533329
 30
0.0
 11
173.3756670464161
 21
106.0719026533329
 31
0.0
  0
LINE
  5
471
330
18
100
AcDbEntity
  8
1
  6
Continuous
100
AcDbLine
 10
173.8756670464162
 20
98.07190265333298
 30
0.0
 11
173.3756670464162
 21
98.5719026533329
 31
0.0
  0
LINE
  5
472
330
18
100
AcDbEntity
  8
1
  6
Continuous
100
AcDbLine
 10
173.8756670464163
 20
106.5719026533329
 30
0.0
 11
173.8756670464161
 21
98.07190265333298
 31
0.0
  0
LINE
  5
47A
330
18
100
AcDbEntity
  8
1
  6
Continuous
100
AcDbLine
 10
177.8756670464162
 20
98.07190265333298
 30
0.0
 11
178.3756670464162
 21
98.5719026533329
 31
0.0
  0
LINE
  5
47B
330
18
100
AcDbEntity
  8
1
  6
Continuous
100
AcDbLine
 10
177.8756670464161
 20
106.5719026533329
 30
0.0
 11
178.3756670464162
 21
106.0719026533329
 31
0.0
  0
LINE
  5
47C
330
18
100
AcDbEntity
  8
1
  6
Continuous
100
AcDbLine
 10
178.3756670464163
 20
106.0719026533329
 30
0.0
 11
178.3756670464163
 21
98.57190265333301
 31
0.0
  0
LINE
  5
47D
330
18
100
AcDbEntity
  8
1
  6
Continuous
100
AcDbLine
 10
177.8756670464162
 20
106.5719026533329
 30
0.0
 11
177.8756670464162
 21
98.07190265333298
 31
0.0
  0
LINE
  5
47E
330
18
100
AcDbEntity
  8
1
  6
Continuous
100
AcDbLine
 10
177.8756670464164
 20
98.07190265333298
 30
0.0
 11
173.8756670464162
 21
98.07190265333298
 31
0.0
  0
LINE
  5
47F
330
18
100
AcDbEntity
  8
1
  6
Continuous
100
AcDbLine
 10
177.8756670464162
 20
106.5719026533329
 30
0.0
 11
173.8756670464164
 21
106.5719026533329
 31
0.0
  0
LINE
  5
481
330
18
100
AcDbEntity
  8
1
  6
Continuous
100
AcDbLine
 10
173.8756670455537
 20
211.3175456516966
 30
0.0
 11
173.3756670455537
 21
210.8175456516965
 31
0.0
  0
LINE
  5
482
330
18
100
AcDbEntity
  8
1
  6
Continuous
100
AcDbLine
 10
173.8756670455537
 20
202.8175456516966
 30
0.0
 11
173.3756670455537
 21
203.3175456516965
 31
0.0
  0
LINE
  5
483
330
18
100
AcDbEntity
  8
1
  6
Continuous
100
AcDbLine
 10
173.8756670455537
 20
211.3175456516966
 30
0.0
 11
173.8756670455536
 21
202.8175456516966
 31
0.0
  0
LINE
  5
48B
330
18
100
AcDbEntity
  8
1
  6
Continuous
100
AcDbLine
 10
177.8756670455538
 20
202.8175456516966
 30
0.0
 11
178.3756670455537
 21
203.3175456516965
 31
0.0
  0
LINE
  5
48C
330
18
100
AcDbEntity
  8
1
  6
Continuous
100
AcDbLine
 10
177.8756670455535
 20
211.3175456516966
 30
0.0
 11
178.3756670455536
 21
210.8175456516965
 31
0.0
  0
LINE
  5
48D
330
18
100
AcDbEntity
  8
1
  6
Continuous
100
AcDbLine
 10
178.3756670455537
 20
210.8175456516965
 30
0.0
 11
178.3756670455537
 21
203.3175456516965
 31
0.0
  0
LINE
  5
48E
330
18
100
AcDbEntity
  8
1
  6
Continuous
100
AcDbLine
 10
177.8756670455536
 20
211.3175456516966
 30
0.0
 11
177.8756670455538
 21
202.8175456516966
 31
0.0
  0
LINE
  5
48F
330
18
100
AcDbEntity
  8
1
  6
Continuous
100
AcDbLine
 10
177.8756670455538
 20
202.8175456516966
 30
0.0
 11
173.8756670455536
 21
202.8175456516966
 31
0.0
  0
LINE
  5
490
330
18
100
AcDbEntity
  8
1
  6
Continuous
100
AcDbLine
 10
177.8756670455536
 20
211.3175456516966
 30
0.0
 11
173.8756670455538
 21
211.3175456516966
 31
0.0
  0
LINE
  5
494
330
18
100
AcDbEntity
  8
1
  6
Continuous
100
AcDbLine
 10
173.8756670455537
 20
191.3175456526317
 30
0.0
 11
173.3756670455537
 21
190.8175456526317
 31
0.0
  0
LINE
  5
495
330
18
100
AcDbEntity
  8
1
  6
Continuous
100
AcDbLine
 10
173.8756670455536
 20
182.8175456526317
 30
0.0
 11
173.3756670455537
 21
183.3175456526316
 31
0.0
  0
LINE
  5
496
330
18
100
AcDbEntity
  8
1
  6
Continuous
100
AcDbLine
 10
173.8756670455537
 20
191.3175456526317
 30
0.0
 11
173.8756670455536
 21
182.8175456526317
 31
0.0
  0
LINE
  5
49E
330
18
100
AcDbEntity
  8
1
  6
Continuous
100
AcDbLine
 10
177.8756670455538
 20
182.8175456526317
 30
0.0
 11
178.3756670455537
 21
183.3175456526316
 31
0.0
  0
LINE
  5
49F
330
18
100
AcDbEntity
  8
1
  6
Continuous
100
AcDbLine
 10
177.8756670455535
 20
191.3175456526317
 30
0.0
 11
178.3756670455536
 21
190.8175456526317
 31
0.0
  0
LINE
  5
4A0
330
18
100
AcDbEntity
  8
1
  6
Continuous
100
AcDbLine
 10
178.3756670455537
 20
190.8175456526317
 30
0.0
 11
178.3756670455537
 21
183.3175456526316
 31
0.0
  0
LINE
  5
4A1
330
18
100
AcDbEntity
  8
1
  6
Continuous
100
AcDbLine
 10
177.8756670455536
 20
191.3175456526317
 30
0.0
 11
177.8756670455538
 21
182.8175456526317
 31
0.0
  0
LINE
  5
4A2
330
18
100
AcDbEntity
  8
1
  6
Continuous
100
AcDbLine
 10
177.8756670455538
 20
182.8175456526317
 30
0.0
 11
173.8756670455536
 21
182.8175456526317
 31
0.0
  0
LINE
  5
4A3
330
18
100
AcDbEntity
  8
1
  6
Continuous
100
AcDbLine
 10
177.8756670455536
 20
191.3175456526317
 30
0.0
 11
173.8756670455538
 21
191.3175456526317
 31
0.0
  0
CIRCLE
  5
4A5
330
18
100
AcDbEntity
  8
1
  6
Continuous
100
AcDbCircle
 10
151.0756670455537
 20
187.0675456516965
 30
0.0
 40
3.75
  0
LINE
  5
4A6
330
18
100
AcDbEntity
  8
1
  6
Continuous
100
AcDbLine
 10
148.7662659687951
 20
187.0675456516965
 30
0.0
 11
149.9209665071744
 21
189.0675456516965
 31
0.0
  0
LINE
  5
4A7
330
18
100
AcDbEntity
  8
1
  6
Continuous
100
AcDbLine
 10
149.9209665071743
 20
185.0675456516966
 30
0.0
 11
148.7662659687952
 21
187.0675456516965
 31
0.0
  0
LINE
  5
4A8
330
18
100
AcDbEntity
  8
1
  6
Continuous
100
AcDbLine
 10
152.2303675839328
 20
185.0675456516964
 30
0.0
 11
149.9209665071743
 21
185.0675456516966
 31
0.0
  0
LINE
  5
4A9
330
18
100
AcDbEntity
  8
1
  6
Continuous
100
AcDbLine
 10
153.3850681223122
 20
187.0675456516966
 30
0.0
 11
152.2303675839328
 21
185.0675456516965
 31
0.0
  0
LINE
  5
4AA
330
18
100
AcDbEntity
  8
1
  6
Continuous
100
AcDbLine
 10
152.230367583933
 20
189.0675456516965
 30
0.0
 11
153.3850681223122
 21
187.0675456516965
 31
0.0
  0
LINE
  5
4AB
330
18
100
AcDbEntity
  8
1
  6
Continuous
100
AcDbLine
 10
149.9209665071744
 20
189.0675456516966
 30
0.0
 11
152.230367583933
 21
189.0675456516965
 31
0.0
  0
CIRCLE
  5
4AC
330
18
100
AcDbEntity
  8
1
  6
Continuous
100
AcDbCircle
 10
151.0756670455537
 20
187.0675456516965
 30
0.0
 40
4.25
  0
CIRCLE
  5
4AE
330
18
100
AcDbEntity
  8
1
  6
Continuous
100
AcDbCircle
 10
151.0756670455537
 20
207.0675456516967
 30
0.0
 40
3.75
  0
LINE
  5
4AF
330
18
100
AcDbEntity
  8
1
  6
Continuous
100
AcDbLine
 10
148.7662659687951
 20
207.0675456516966
 30
0.0
 11
149.9209665071744
 21
209.0675456516966
 31
0.0
  0
LINE
  5
4B0
330
18
100
AcDbEntity
  8
1
  6
Continuous
100
AcDbLine
 10
149.9209665071743
 20
205.0675456516968
 30
0.0
 11
148.7662659687952
 21
207.0675456516967
 31
0.0
  0
LINE
  5
4B1
330
18
100
AcDbEntity
  8
1
  6
Continuous
100
AcDbLine
 10
152.2303675839328
 20
205.0675456516966
 30
0.0
 11
149.9209665071743
 21
205.0675456516968
 31
0.0
  0
LINE
  5
4B2
330
18
100
AcDbEntity
  8
1
  6
Continuous
100
AcDbLine
 10
153.3850681223122
 20
207.0675456516968
 30
0.0
 11
152.2303675839328
 21
205.0675456516966
 31
0.0
  0
LINE
  5
4B3
330
18
100
AcDbEntity
  8
1
  6
Continuous
100
AcDbLine
 10
152.230367583933
 20
209.0675456516967
 30
0.0
 11
153.3850681223122
 21
207.0675456516967
 31
0.0
  0
LINE
  5
4B4
330
18
100
AcDbEntity
  8
1
  6
Continuous
100
AcDbLine
 10
149.9209665071744
 20
209.0675456516968
 30
0.0
 11
152.230367583933
 21
209.0675456516967
 31
0.0
  0
CIRCLE
  5
4B5
330
18
100
AcDbEntity
  8
1
  6
Continuous
100
AcDbCircle
 10
151.0756670455537
 20
207.0675456516967
 30
0.0
 40
4.25
  0
CIRCLE
  5
4B7
330
18
100
AcDbEntity
  8
1
  6
Continuous
100
AcDbCircle
 10
176.1256670455537
 20
81.32190265339408
 30
0.0
 40
4.0
  0
LINE
  5
4B8
330
18
100
AcDbEntity
  8
1
  6
Continuous
100
AcDbLine
 10
176.1256670455538
 20
79.01250157663546
 30
0.0
 11
178.1256670455538
 21
80.16720211501469
 31
0.0
  0
LINE
  5
4B9
330
18
100
AcDbEntity
  8
1
  6
Continuous
100
AcDbLine
 10
174.1256670455536
 20
82.47660319177311
 30
0.0
 11
176.1256670455537
 21
83.63130373015238
 31
0.0
  0
LINE
  5
4BA
330
18
100
AcDbEntity
  8
1
  6
Continuous
100
AcDbLine
 10
174.1256670455537
 20
80.16720211501459
 30
0.0
 11
176.1256670455537
 21
79.01250157663546
 31
0.0
  0
LINE
  5
4BB
330
18
100
AcDbEntity
  8
1
  6
Continuous
100
AcDbLine
 10
176.1256670455537
 20
83.63130373015238
 30
0.0
 11
178.1256670455537
 21
82.47660319177319
 31
0.0
  0
LINE
  5
4BC
330
18
100
AcDbEntity
  8
1
  6
Continuous
100
AcDbLine
 10
178.1256670455537
 20
82.47660319177319
 30
0.0
 11
178.1256670455537
 21
80.16720211501469
 31
0.0
  0
LINE
  5
4BD
330
18
100
AcDbEntity
  8
1
  6
Continuous
100
AcDbLine
 10
174.1256670455537
 20
82.47660319177319
 30
0.0
 11
174.1256670455537
 21
80.16720211501459
 31
0.0
  0
LINE
  5
4BE
330
18
100
AcDbEntity
  8
1
  6
Continuous
100
AcDbLine
 10
44.2637730415729
 20
213.0675456521247
 30
0.0
 11
44.2637730415729
 21
181.0675456521246
 31
0.0
  0
LINE
  5
4C0
330
18
100
AcDbEntity
  8
1
  6
Continuous
100
AcDbLine
 10
171.3647050455537
 20
195.5675456521641
 30
0.0
 11
171.3647050455537
 21
192.0675456516965
 31
0.0
  0
LINE
  5
4C1
330
18
100
AcDbEntity
  8
1
  6
Continuous
100
AcDbLine
 10
171.3647050455537
 20
182.0675456516965
 30
0.0
 11
171.3647050455537
 21
147.067545652164
 31
0.0
  0
LINE
  5
4C2
330
18
100
AcDbEntity
  8
1
  6
Continuous
100
AcDbLine
 10
161.3756670464162
 20
99.82190265333301
 30
0.0
 11
161.3756670464162
 21
104.8219026533329
 31
0.0
  0
LINE
  5
4C3
330
18
100
AcDbEntity
  8
2
  6
Continuous
100
AcDbLine
 10
161.3756670456682
 20
185.000545651697
 30
0.0
 11
163.075667045592
 21
185.0005456516972
 31
0.0
  0
LINE
  5
4C4
330
18
100
AcDbEntity
  8
1
  6
Continuous
100
AcDbLine
 10
163.0756670458125
 20
184.5675456516965
 30
0.0
 11
161.3756670456683
 21
184.5675456516965
 31
0.0
  0
LINE
  5
4C5
330
18
100
AcDbEntity
  8
1
  6
Continuous
100
AcDbLine
 10
161.3756670456683
 20
189.5675456516965
 30
0.0
 11
163.0756670457785
 21
189.5675456516965
 31
0.0
  0
LINE
  5
4C6
330
18
100
AcDbEntity
  8
2
  6
Continuous
100
AcDbLine
 10
161.3756670456683
 20
189.1345456516907
 30
0.0
 11
163.075667045592
 21
189.1345456516882
 31
0.0
  0
LINE
  5
4C7
330
18
100
AcDbEntity
  8
1
  6
Continuous
100
AcDbLine
 10
161.3756670456683
 20
184.5675456516965
 30
0.0
 11
161.3756670456683
 21
189.5675456516965
 31
0.0
  0
LINE
  5
4C8
330
18
100
AcDbEntity
  8
2
  6
Continuous
100
AcDbLine
 10
161.3756670456682
 20
205.0005456516972
 30
0.0
 11
163.0756670454396
 21
205.0005456516974
 31
0.0
  0
LINE
  5
4C9
330
18
100
AcDbEntity
  8
1
  6
Continuous
100
AcDbLine
 10
163.0756670456641
 20
204.5675456516966
 30
0.0
 11
161.3756670456683
 21
204.5675456516966
 31
0.0
  0
LINE
  5
4CA
330
18
100
AcDbEntity
  8
1
  6
Continuous
100
AcDbLine
 10
161.3756670456683
 20
209.5675456516965
 30
0.0
 11
163.0756670456219
 21
209.5675456516965
 31
0.0
  0
LINE
  5
4CB
330
18
100
AcDbEntity
  8
1
  6
Continuous
100
AcDbLine
 10
161.3756670456683
 20
204.5675456516966
 30
0.0
 11
161.3756670456683
 21
209.5675456516965
 31
0.0
  0
LINE
  5
4CC
330
18
100
AcDbEntity
  8
2
  6
Continuous
100
AcDbLine
 10
161.3756670456683
 20
209.1345456516908
 30
0.0
 11
163.0756670454396
 21
209.1345456516882
 31
0.0
  0
LINE
  5
4CD
330
18
100
AcDbEntity
  8
1
  6
Continuous
100
AcDbLine
 10
163.0756670455537
 20
213.0675456516967
 30
0.0
 11
167.0756670455537
 21
213.0675456517272
 31
0.0
  0
LINE
  5
4CE
330
18
100
AcDbEntity
  8
1
  6
Continuous
100
AcDbLine
 10
163.0756670456376
 20
181.0675456516966
 30
0.0
 11
163.0756670453936
 21
213.0675456516966
 31
0.0
  0
LINE
  5
4CF
330
18
100
AcDbEntity
  8
1
  6
Continuous
100
AcDbLine
 10
167.0756670457975
 20
181.0675456517271
 30
0.0
 11
163.0756670457975
 21
181.0675456516967
 31
0.0
  0
LINE
  5
4D1
330
18
100
AcDbEntity
  8
1
  6
Continuous
100
AcDbLine
 10
172.0756670455537
 20
192.0675456516965
 30
0.0
 11
171.0756670455537
 21
192.0675456516965
 31
0.0
  0
LINE
  5
4D2
330
18
100
AcDbEntity
  8
1
  6
Continuous
100
AcDbLine
 10
172.0756670455537
 20
182.0675456516965
 30
0.0
 11
171.0756670455537
 21
182.0675456516965
 31
0.0
  0
LINE
  5
4D3
330
18
100
AcDbEntity
  8
1
  6
Continuous
100
AcDbLine
 10
172.0756670455537
 20
182.0675456516965
 30
0.0
 11
172.0756670455537
 21
192.0675456516965
 31
0.0
  0
LINE
  5
4D5
330
18
100
AcDbEntity
  8
1
  6
Continuous
100
AcDbLine
 10
173.3756670455537
 20
191.6675456516964
 30
0.0
 11
172.0756670455537
 21
191.6675456516964
 31
0.0
  0
LINE
  5
4D6
330
18
100
AcDbEntity
  8
1
  6
Continuous
100
AcDbLine
 10
173.3756670455537
 20
182.4675456516965
 30
0.0
 11
172.0756670455537
 21
182.4675456516965
 31
0.0
  0
LINE
  5
4D7
330
18
100
AcDbEntity
  8
1
  6
Continuous
100
AcDbLine
 10
173.3756670455537
 20
182.4675456516965
 30
0.0
 11
173.3756670455537
 21
191.6675456516964
 31
0.0
  0
LINE
  5
4D9
330
18
100
AcDbEntity
  8
1
  6
Continuous
100
AcDbLine
 10
172.0756670455537
 20
212.0675456516965
 30
0.0
 11
171.0756670455537
 21
212.0675456516965
 31
0.0
  0
LINE
  5
4DA
330
18
100
AcDbEntity
  8
1
  6
Continuous
100
AcDbLine
 10
172.0756670455537
 20
202.0675456516966
 30
0.0
 11
171.0756670455537
 21
202.0675456516966
 31
0.0
  0
LINE
  5
4DB
330
18
100
AcDbEntity
  8
1
  6
Continuous
100
AcDbLine
 10
172.0756670455537
 20
202.0675456516966
 30
0.0
 11
172.0756670455537
 21
212.0675456516965
 31
0.0
  0
LINE
  5
4DD
330
18
100
AcDbEntity
  8
1
  6
Continuous
100
AcDbLine
 10
173.3756670455537
 20
211.6675456516965
 30
0.0
 11
172.0756670455537
 21
211.6675456516965
 31
0.0
  0
LINE
  5
4DE
330
18
100
AcDbEntity
  8
1
  6
Continuous
100
AcDbLine
 10
173.3756670455537
 20
202.4675456516966
 30
0.0
 11
172.0756670455537
 21
202.4675456516966
 31
0.0
  0
LINE
  5
4DF
330
18
100
AcDbEntity
  8
1
  6
Continuous
100
AcDbLine
 10
173.3756670455537
 20
202.4675456516966
 30
0.0
 11
173.3756670455537
 21
211.6675456516965
 31
0.0
  0
LINE
  5
4E1
330
18
100
AcDbEntity
  8
4
  6
CENTER
 48
0.25
100
AcDbLine
 10
151.0756670455537
 20
178.9675456516964
 30
0.0
 11
151.0756670455537
 21
215.1675456516966
 31
0.0
  0
LINE
  5
4E6
330
18
100
AcDbEntity
  8
1
  6
Continuous
100
AcDbLine
 10
148.2756670453166
 20
173.7995964593039
 30
0.0
 11
148.2756670453396
 21
177.0675456517387
 31
0.0
  0
LINE
  5
4E7
330
18
100
AcDbEntity
  8
1
  6
Continuous
100
AcDbLine
 10
148.0756670453166
 20
173.7995964593052
 30
0.0
 11
148.2756670453166
 21
173.7995964593038
 31
0.0
  0
LINE
  5
4E8
330
18
100
AcDbEntity
  8
1
  6
Continuous
100
AcDbLine
 10
148.0756670453398
 20
177.06754565174
 30
0.0
 11
148.0756670453165
 21
173.7995964593052
 31
0.0
  0
LINE
  5
4E9
330
18
100
AcDbEntity
  8
1
  6
Continuous
100
AcDbLine
 10
150.2756670453083
 20
172.6448959209128
 30
0.0
 11
150.27566704534
 21
177.0675456517244
 31
0.0
  0
LINE
  5
4EA
330
18
100
AcDbEntity
  8
1
  6
Continuous
100
AcDbLine
 10
150.0756670453083
 20
172.6448959209142
 30
0.0
 11
150.2756670453084
 21
172.6448959209129
 31
0.0
  0
LINE
  5
4EB
330
18
100
AcDbEntity
  8
1
  6
Continuous
100
AcDbLine
 10
150.0756670453399
 20
177.0675456517258
 30
0.0
 11
150.0756670453083
 21
172.6448959209142
 31
0.0
  0
LINE
  5
4EC
330
18
100
AcDbEntity
  8
1
  6
Continuous
100
AcDbLine
 10
151.2756670453037
 20
172.0675456517172
 30
0.0
 11
151.0756670453042
 21
172.0675456517185
 31
0.0
  0
LINE
  5
4ED
330
18
100
AcDbEntity
  8
1
  6
Continuous
100
AcDbLine
 10
151.0756670453042
 20
172.0675456517186
 30
0.0
 11
151.0756670453399
 21
177.0675456517185
 31
0.0
  0
LINE
  5
4EE
330
18
100
AcDbEntity
  8
1
  6
Continuous
100
AcDbLine
 10
151.2756670453397
 20
177.0675456517172
 30
0.0
 11
151.2756670453036
 21
172.0675456517175
 31
0.0
  0
LINE
  5
4EF
330
18
100
AcDbEntity
  8
1
  6
Continuous
100
AcDbLine
 10
152.2756670453096
 20
172.6448959208987
 30
0.0
 11
152.0756670453083
 21
172.6448959209
 31
0.0
  0
LINE
  5
4F0
330
18
100
AcDbEntity
  8
1
  6
Continuous
100
AcDbLine
 10
152.0756670453083
 20
172.6448959209
 30
0.0
 11
152.0756670453399
 21
177.0675456517114
 31
0.0
  0
LINE
  5
4F1
330
18
100
AcDbEntity
  8
1
  6
Continuous
100
AcDbLine
 10
152.27566704534
 20
177.0675456517099
 30
0.0
 11
152.2756670453096
 21
172.6448959208986
 31
0.0
  0
LINE
  5
4F2
330
18
100
AcDbEntity
  8
1
  6
Continuous
100
AcDbLine
 10
154.2756670453166
 20
173.7995964592611
 30
0.0
 11
154.0756670453165
 21
173.7995964592625
 31
0.0
  0
LINE
  5
4F3
330
18
100
AcDbEntity
  8
1
  6
Continuous
100
AcDbLine
 10
154.0756670453165
 20
173.7995964592625
 30
0.0
 11
154.0756670453399
 21
177.067545651697
 31
0.0
  0
LINE
  5
4F4
330
18
100
AcDbEntity
  8
1
  6
Continuous
100
AcDbLine
 10
154.2756670453483
 20
177.0675456516956
 30
0.0
 11
154.2756670453166
 21
173.7995964592611
 31
0.0
  0
LINE
  5
4F5
330
18
100
AcDbEntity
  8
1
  6
Continuous
100
AcDbLine
 10
153.2756670453119
 20
173.22224619008
 30
0.0
 11
153.27566704534
 21
177.067545651703
 31
0.0
  0
LINE
  5
4F6
330
18
100
AcDbEntity
  8
1
  6
Continuous
100
AcDbLine
 10
153.0756670453124
 20
173.2222461900814
 30
0.0
 11
153.2756670453118
 21
173.2222461900797
 31
0.0
  0
LINE
  5
4F7
330
18
100
AcDbEntity
  8
1
  6
Continuous
100
AcDbLine
 10
153.0756670453399
 20
177.0675456517041
 30
0.0
 11
153.0756670453124
 21
173.2222461900813
 31
0.0
  0
LINE
  5
4F8
330
18
100
AcDbEntity
  8
1
  6
Continuous
100
AcDbLine
 10
149.2756670453125
 20
173.2222461901085
 30
0.0
 11
149.27566704534
 21
177.0675456517316
 31
0.0
  0
LINE
  5
4F9
330
18
100
AcDbEntity
  8
1
  6
Continuous
100
AcDbLine
 10
149.0756670453124
 20
173.2222461901099
 30
0.0
 11
149.2756670453124
 21
173.2222461901085
 31
0.0
  0
LINE
  5
4FA
330
18
100
AcDbEntity
  8
1
  6
Continuous
100
AcDbLine
 10
149.0756670453398
 20
177.0675456517329
 30
0.0
 11
149.0756670453124
 21
173.2222461901098
 31
0.0
  0
LINE
  5
4FB
330
18
100
AcDbEntity
  8
1
  6
Continuous
100
AcDbLine
 10
151.1756670455537
 20
182.167545651748
 30
0.0
 11
150.9756670455536
 21
182.167545651748
 31
0.0
  0
LINE
  5
4FC
330
18
100
AcDbEntity
  8
1
  6
Continuous
100
AcDbLine
 10
149.9787015340638
 20
179.0675456517483
 30
0.0
 11
151.0756670455538
 21
177.1675456516964
 31
0.0
  0
LINE
  5
4FD
330
18
100
AcDbEntity
  8
1
  6
Continuous
100
AcDbLine
 10
150.1519066148209
 20
179.1675456517482
 30
0.0
 11
149.9787015340638
 21
179.0675456517483
 31
0.0
  0
LINE
  5
4FE
330
18
100
AcDbEntity
  8
1
  6
Continuous
100
AcDbLine
 10
150.9756670455536
 20
182.167545651748
 30
0.0
 11
150.9756670455536
 21
177.7407507324535
 31
0.0
  0
LINE
  5
4FF
330
18
100
AcDbEntity
  8
1
  6
Continuous
100
AcDbLine
 10
151.1756670455542
 20
177.7407507324537
 30
0.0
 11
151.1756670455538
 21
182.167545651748
 31
0.0
  0
LINE
  5
500
330
18
100
AcDbEntity
  8
1
  6
Continuous
100
AcDbLine
 10
151.0756670455539
 20
177.1675456516966
 30
0.0
 11
152.1726325570441
 21
179.067545651748
 31
0.0
  0
LINE
  5
501
330
18
100
AcDbEntity
  8
1
  6
Continuous
100
AcDbLine
 10
152.1726325570438
 20
179.0675456517479
 30
0.0
 11
151.9994274762871
 21
179.1675456517477
 31
0.0
  0
LINE
  5
502
330
18
100
AcDbEntity
  8
1
  6
Continuous
100
AcDbLine
 10
150.9756670455536
 20
177.7407507324535
 30
0.0
 11
150.1519066148209
 21
179.1675456517483
 31
0.0
  0
LINE
  5
503
330
18
100
AcDbEntity
  8
1
  6
Continuous
100
AcDbLine
 10
151.9994274762873
 20
179.1675456517477
 30
0.0
 11
151.1756670455542
 21
177.7407507324535
 31
0.0
  0
LINE
  5
504
330
18
100
AcDbEntity
  8
1
  6
Continuous
100
AcDbLine
 10
148.2756670456484
 20
220.3354948441736
 30
0.0
 11
148.2756670456251
 21
217.0675456517387
 31
0.0
  0
LINE
  5
505
330
18
100
AcDbEntity
  8
1
  6
Continuous
100
AcDbLine
 10
148.075667045625
 20
217.0675456517404
 30
0.0
 11
148.0756670456482
 21
220.335494844175
 31
0.0
  0
LINE
  5
506
330
18
100
AcDbEntity
  8
1
  6
Continuous
100
AcDbLine
 10
148.0756670456482
 20
220.335494844175
 30
0.0
 11
148.2756670456483
 21
220.3354948441736
 31
0.0
  0
LINE
  5
507
330
18
100
AcDbEntity
  8
1
  6
Continuous
100
AcDbLine
 10
149.2756670456525
 20
220.9128451133547
 30
0.0
 11
149.2756670456251
 21
217.0675456517317
 31
0.0
  0
LINE
  5
508
330
18
100
AcDbEntity
  8
1
  6
Continuous
100
AcDbLine
 10
149.0756670456252
 20
217.0675456517332
 30
0.0
 11
149.0756670456524
 21
220.9128451133562
 31
0.0
  0
LINE
  5
509
330
18
100
AcDbEntity
  8
1
  6
Continuous
100
AcDbLine
 10
149.0756670456524
 20
220.9128451133563
 30
0.0
 11
149.2756670456525
 21
220.9128451133549
 31
0.0
  0
LINE
  5
50A
330
18
100
AcDbEntity
  8
1
  6
Continuous
100
AcDbLine
 10
150.2756670456566
 20
221.4901953825359
 30
0.0
 11
150.2756670456251
 21
217.0675456517244
 31
0.0
  0
LINE
  5
50B
330
18
100
AcDbEntity
  8
1
  6
Continuous
100
AcDbLine
 10
150.0756670456252
 20
217.0675456517261
 30
0.0
 11
150.0756670456565
 21
221.4901953825375
 31
0.0
  0
LINE
  5
50C
330
18
100
AcDbEntity
  8
1
  6
Continuous
100
AcDbLine
 10
150.0756670456566
 20
221.4901953825375
 30
0.0
 11
150.2756670456567
 21
221.4901953825361
 31
0.0
  0
LINE
  5
50D
330
18
100
AcDbEntity
  8
1
  6
Continuous
100
AcDbLine
 10
151.2756670456607
 20
222.0675456517172
 30
0.0
 11
151.275667045625
 21
217.0675456517173
 31
0.0
  0
LINE
  5
50E
330
18
100
AcDbEntity
  8
1
  6
Continuous
100
AcDbLine
 10
151.0756670456252
 20
217.0675456517191
 30
0.0
 11
151.0756670456608
 21
222.0675456517189
 31
0.0
  0
LINE
  5
50F
330
18
100
AcDbEntity
  8
1
  6
Continuous
100
AcDbLine
 10
151.0756670456608
 20
222.0675456517189
 30
0.0
 11
151.2756670456609
 21
222.0675456517174
 31
0.0
  0
LINE
  5
510
330
18
100
AcDbEntity
  8
1
  6
Continuous
100
AcDbLine
 10
152.2756670456566
 20
221.4901953825219
 30
0.0
 11
152.275667045625
 21
217.0675456517102
 31
0.0
  0
LINE
  5
511
330
18
100
AcDbEntity
  8
1
  6
Continuous
100
AcDbLine
 10
152.0756670456252
 20
217.067545651712
 30
0.0
 11
152.0756670456566
 21
221.4901953825233
 31
0.0
  0
LINE
  5
512
330
18
100
AcDbEntity
  8
1
  6
Continuous
100
AcDbLine
 10
152.0756670456566
 20
221.4901953825233
 30
0.0
 11
152.2756670456566
 21
221.4901953825219
 31
0.0
  0
LINE
  5
513
330
18
100
AcDbEntity
  8
1
  6
Continuous
100
AcDbLine
 10
153.2756670456525
 20
220.9128451133262
 30
0.0
 11
153.275667045625
 21
217.067545651703
 31
0.0
  0
LINE
  5
514
330
18
100
AcDbEntity
  8
1
  6
Continuous
100
AcDbLine
 10
153.0756670456252
 20
217.0675456517048
 30
0.0
 11
153.0756670456525
 21
220.9128451133277
 31
0.0
  0
LINE
  5
515
330
18
100
AcDbEntity
  8
1
  6
Continuous
100
AcDbLine
 10
153.0756670456525
 20
220.9128451133277
 30
0.0
 11
153.2756670456525
 21
220.9128451133262
 31
0.0
  0
LINE
  5
516
330
18
100
AcDbEntity
  8
1
  6
Continuous
100
AcDbLine
 10
154.2756670456483
 20
220.3354948441309
 30
0.0
 11
154.2756670456251
 21
217.0675456516961
 31
0.0
  0
LINE
  5
517
330
18
100
AcDbEntity
  8
1
  6
Continuous
100
AcDbLine
 10
154.0756670456252
 20
217.067545651698
 30
0.0
 11
154.0756670456485
 21
220.3354948441323
 31
0.0
  0
LINE
  5
518
330
18
100
AcDbEntity
  8
1
  6
Continuous
100
AcDbLine
 10
154.0756670456483
 20
220.3354948441323
 30
0.0
 11
154.2756670456483
 21
220.3354948441308
 31
0.0
  0
LINE
  5
519
330
18
100
AcDbEntity
  8
1
  6
Continuous
100
AcDbLine
 10
150.9756670455536
 20
216.3943405709394
 30
0.0
 11
150.151906614821
 21
214.9675456516447
 31
0.0
  0
LINE
  5
51A
330
18
100
AcDbEntity
  8
1
  6
Continuous
100
AcDbLine
 10
151.0756670455541
 20
216.9675456516962
 30
0.0
 11
152.1726325570442
 21
215.0675456516449
 31
0.0
  0
LINE
  5
51B
330
18
100
AcDbEntity
  8
1
  6
Continuous
100
AcDbLine
 10
150.9756670455536
 20
211.9675456516448
 30
0.0
 11
150.9756670455536
 21
216.3943405709394
 31
0.0
  0
LINE
  5
51C
330
18
100
AcDbEntity
  8
1
  6
Continuous
100
AcDbLine
 10
152.1726325570439
 20
215.0675456516449
 30
0.0
 11
151.999427476287
 21
214.9675456516452
 31
0.0
  0
LINE
  5
51D
330
18
100
AcDbEntity
  8
1
  6
Continuous
100
AcDbLine
 10
149.9787015340638
 20
215.0675456516446
 30
0.0
 11
151.0756670455539
 21
216.9675456516962
 31
0.0
  0
LINE
  5
51E
330
18
100
AcDbEntity
  8
1
  6
Continuous
100
AcDbLine
 10
150.1519066148209
 20
214.9675456516447
 30
0.0
 11
149.9787015340638
 21
215.0675456516445
 31
0.0
  0
LINE
  5
51F
330
18
100
AcDbEntity
  8
1
  6
Continuous
100
AcDbLine
 10
151.1756670455538
 20
211.9675456516448
 30
0.0
 11
150.9756670455536
 21
211.9675456516448
 31
0.0
  0
LINE
  5
520
330
18
100
AcDbEntity
  8
1
  6
Continuous
100
AcDbLine
 10
151.9994274762871
 20
214.9675456516451
 30
0.0
 11
151.1756670455537
 21
216.3943405709392
 31
0.0
  0
LINE
  5
521
330
18
100
AcDbEntity
  8
1
  6
Continuous
100
AcDbLine
 10
151.1756670455537
 20
216.3943405709394
 30
0.0
 11
151.1756670455537
 21
211.9675456516449
 31
0.0
  0
LINE
  5
522
330
18
100
AcDbEntity
  8
1
  6
Continuous
100
AcDbLine
 10
163.5756670455537
 20
217.0675456521641
 30
0.0
 11
163.5756670455537
 21
236.0675456521641
 31
0.0
  0
LINE
  5
523
330
18
100
AcDbEntity
  8
1
  6
Continuous
100
AcDbLine
 10
138.5756670455537
 20
199.067545652164
 30
0.0
 11
138.5756670455537
 21
236.0675456521641
 31
0.0
  0
LINE
  5
524
330
18
100
AcDbEntity
  8
1
  6
Continuous
100
AcDbLine
 10
167.0756670455537
 20
177.067545652164
 30
0.0
 11
167.0756670455537
 21
217.0675456521641
 31
0.0
  0
LINE
  5
525
330
18
100
AcDbEntity
  8
4
  6
CENTER
 48
0.25
100
AcDbLine
 10
38.76377304111179
 20
161.0675456521554
 30
0.0
 11
45.55066956118753
 21
161.0675456521567
 31
0.0
  0
LINE
  5
526
330
18
100
AcDbEntity
  8
4
  6
CENTER
 48
0.25
100
AcDbLine
 10
38.7637730410985
 20
233.0675456521554
 30
0.0
 11
45.55066956117417
 21
233.0675456521567
 31
0.0
  0
LINE
  5
527
330
18
100
AcDbEntity
  8
1
  6
Continuous
100
AcDbLine
 10
156.075667045489
 20
84.32190265341839
 30
0.0
 11
156.075667045489
 21
83.32190265341839
 31
0.0
  0
LINE
  5
528
330
18
100
AcDbEntity
  8
1
  6
Continuous
100
AcDbLine
 10
146.075667045489
 20
84.32190265341839
 30
0.0
 11
146.075667045489
 21
83.32190265341839
 31
0.0
  0
LINE
  5
529
330
18
100
AcDbEntity
  8
1
  6
Continuous
100
AcDbLine
 10
146.075667045489
 20
84.32190265341839
 30
0.0
 11
156.075667045489
 21
84.32190265341839
 31
0.0
  0
LINE
  5
52B
330
18
100
AcDbEntity
  8
1
  6
Continuous
100
AcDbLine
 10
155.6756670454889
 20
85.62190265341838
 30
0.0
 11
155.6756670454889
 21
84.32190265341839
 31
0.0
  0
LINE
  5
52C
330
18
100
AcDbEntity
  8
1
  6
Continuous
100
AcDbLine
 10
146.475667045489
 20
85.62190265341838
 30
0.0
 11
146.475667045489
 21
84.32190265341839
 31
0.0
  0
LINE
  5
52D
330
18
100
AcDbEntity
  8
1
  6
Continuous
100
AcDbLine
 10
146.475667045489
 20
85.62190265341838
 30
0.0
 11
155.6756670454889
 21
85.62190265341838
 31
0.0
  0
LINE
  5
52F
330
18
100
AcDbEntity
  8
1
  6
Continuous
100
AcDbLine
 10
41.26377304196188
 20
247.0675456521632
 30
0.0
 11
41.26377304196188
 21
147.0675456521632
 31
0.0
  0
LINE
  5
530
330
18
100
AcDbEntity
  8
1
  6
Continuous
100
AcDbLine
 10
42.56377304196165
 20
204.5675456521544
 30
0.0
 11
42.56377304196165
 21
209.5675456521544
 31
0.0
  0
LINE
  5
531
330
18
100
AcDbEntity
  8
1
  6
Continuous
100
AcDbLine
 10
42.56377304196165
 20
189.5675456521543
 30
0.0
 11
42.56377304196165
 21
184.5675456521543
 31
0.0
  0
LINE
  5
532
330
18
100
AcDbEntity
  8
4
  6
CENTER
 48
0.25
100
AcDbLine
 10
36.26377304195256
 20
197.0675456521548
 30
0.0
 11
85.26377304196131
 21
197.067545652164
 31
0.0
  0
LINE
  5
533
330
18
100
AcDbEntity
  8
4
  6
CENTER
 48
0.25
100
AcDbLine
 10
38.76377304110701
 20
207.0675456521544
 30
0.0
 11
61.57794439641907
 21
207.0675456521544
 31
0.0
  0
LINE
  5
534
330
18
100
AcDbEntity
  8
4
  6
CENTER
 48
0.25
100
AcDbLine
 10
38.76377304110701
 20
187.0675456521543
 30
0.0
 11
61.57794439641907
 21
187.0675456521543
 31
0.0
  0
LINE
  5
535
330
18
100
AcDbEntity
  8
1
  6
Continuous
100
AcDbLine
 10
48.26377304136679
 20
213.0675456521247
 30
0.0
 11
48.26377304137547
 21
181.0675456522205
 31
0.0
  0
LINE
  5
536
330
18
100
AcDbEntity
  8
1
  6
Continuous
100
AcDbLine
 10
53.26377304196189
 20
212.0675456530283
 30
0.0
 11
52.26377304196187
 21
212.0675456530283
 31
0.0
  0
LINE
  5
537
330
18
100
AcDbEntity
  8
1
  6
Continuous
100
AcDbLine
 10
53.26377304196189
 20
202.0675456530282
 30
0.0
 11
52.26377304196187
 21
202.0675456530282
 31
0.0
  0
LINE
  5
538
330
18
100
AcDbEntity
  8
1
  6
Continuous
100
AcDbLine
 10
53.26377304196189
 20
202.0675456530282
 30
0.0
 11
53.26377304196189
 21
212.0675456530283
 31
0.0
  0
LINE
  5
53A
330
18
100
AcDbEntity
  8
1
  6
Continuous
100
AcDbLine
 10
54.56377304196174
 20
211.6675456530283
 30
0.0
 11
53.26377304196189
 21
211.6675456530283
 31
0.0
  0
LINE
  5
53B
330
18
100
AcDbEntity
  8
1
  6
Continuous
100
AcDbLine
 10
54.56377304196174
 20
202.4675456530283
 30
0.0
 11
53.26377304196189
 21
202.4675456530283
 31
0.0
  0
LINE
  5
53C
330
18
100
AcDbEntity
  8
1
  6
Continuous
100
AcDbLine
 10
54.56377304196174
 20
202.4675456530283
 30
0.0
 11
54.56377304196174
 21
211.6675456530283
 31
0.0
  0
LINE
  5
53E
330
18
100
AcDbEntity
  8
1
  6
Continuous
100
AcDbLine
 10
53.26377304196189
 20
182.0675456522152
 30
0.0
 11
52.26377304196187
 21
182.0675456522152
 31
0.0
  0
LINE
  5
53F
330
18
100
AcDbEntity
  8
1
  6
Continuous
100
AcDbLine
 10
53.26377304196189
 20
192.0675456522153
 30
0.0
 11
52.26377304196187
 21
192.0675456522153
 31
0.0
  0
LINE
  5
540
330
18
100
AcDbEntity
  8
1
  6
Continuous
100
AcDbLine
 10
53.26377304196189
 20
192.0675456522153
 30
0.0
 11
53.26377304196189
 21
182.0675456522152
 31
0.0
  0
LINE
  5
542
330
18
100
AcDbEntity
  8
1
  6
Continuous
100
AcDbLine
 10
54.56377304196174
 20
182.4675456522153
 30
0.0
 11
53.26377304196189
 21
182.4675456522153
 31
0.0
  0
LINE
  5
543
330
18
100
AcDbEntity
  8
1
  6
Continuous
100
AcDbLine
 10
54.56377304196174
 20
191.6675456522152
 30
0.0
 11
53.26377304196189
 21
191.6675456522152
 31
0.0
  0
LINE
  5
544
330
18
100
AcDbEntity
  8
1
  6
Continuous
100
AcDbLine
 10
54.56377304196174
 20
191.6675456522152
 30
0.0
 11
54.56377304196174
 21
182.4675456522153
 31
0.0
  0
LINE
  5
546
330
18
100
AcDbEntity
  8
2
  6
Continuous
100
AcDbLine
 10
42.56377304196165
 20
209.1345456521539
 30
0.0
 11
44.26377304157306
 21
209.1345456521537
 31
0.0
  0
LINE
  5
547
330
18
100
AcDbEntity
  8
2
  6
Continuous
100
AcDbLine
 10
42.56377304196165
 20
205.0005456521601
 30
0.0
 11
44.26377304157306
 21
205.0005456521627
 31
0.0
  0
LINE
  5
548
330
18
100
AcDbEntity
  8
2
  6
Continuous
100
AcDbLine
 10
42.56377304196165
 20
185.00054565216
 30
0.0
 11
44.26377304157306
 21
185.0005456521626
 31
0.0
  0
LINE
  5
549
330
18
100
AcDbEntity
  8
2
  6
Continuous
100
AcDbLine
 10
42.56377304196165
 20
189.1345456521538
 30
0.0
 11
44.26377304157306
 21
189.1345456521535
 31
0.0
  0
LINE
  5
54A
330
18
100
AcDbEntity
  8
1
  6
Continuous
100
AcDbLine
 10
44.26377304132097
 20
198.567545652622
 30
0.0
 11
43.21377304109915
 21
198.567545652622
 31
0.0
  0
LINE
  5
54B
330
18
100
AcDbEntity
  8
1
  6
Continuous
100
AcDbLine
 10
43.21377304109915
 20
204.5675456521544
 30
0.0
 11
43.21377304109915
 21
198.567545652622
 31
0.0
  0
LINE
  5
54C
330
18
100
AcDbEntity
  8
1
  6
Continuous
100
AcDbLine
 10
44.26377304136667
 20
181.0675456521246
 30
0.0
 11
48.26377304136679
 21
181.0675456521246
 31
0.0
  0
LINE
  5
54D
330
18
100
AcDbEntity
  8
1
  6
Continuous
100
AcDbLine
 10
48.26377304136679
 20
213.0675456521247
 30
0.0
 11
44.26377304136678
 21
213.0675456521247
 31
0.0
  0
LINE
  5
54E
330
18
100
AcDbEntity
  8
1
  6
Continuous
100
AcDbLine
 10
43.21377304109939
 20
195.5675456523727
 30
0.0
 11
43.21377304109939
 21
189.5675456521543
 31
0.0
  0
LINE
  5
54F
330
18
100
AcDbEntity
  8
1
  6
Continuous
100
AcDbLine
 10
44.26377304132097
 20
195.5675456523728
 30
0.0
 11
43.21377304109939
 21
195.5675456523727
 31
0.0
  0
LINE
  5
550
330
18
100
AcDbEntity
  8
1
  6
Continuous
100
AcDbLine
 10
44.26377304132516
 20
209.5675456521544
 30
0.0
 11
42.56377304196165
 21
209.5675456521544
 31
0.0
  0
LINE
  5
551
330
18
100
AcDbEntity
  8
1
  6
Continuous
100
AcDbLine
 10
42.56377304196165
 20
204.5675456521544
 30
0.0
 11
44.2637730415729
 21
204.5675456521544
 31
0.0
  0
LINE
  5
552
330
18
100
AcDbEntity
  8
1
  6
Continuous
100
AcDbLine
 10
44.26377304132097
 20
189.5675456521543
 30
0.0
 11
42.56377304196165
 21
189.5675456521543
 31
0.0
  0
LINE
  5
553
330
18
100
AcDbEntity
  8
1
  6
Continuous
100
AcDbLine
 10
42.56377304196165
 20
184.5675456521543
 30
0.0
 11
44.26377304132516
 21
184.5675456521543
 31
0.0
  0
CIRCLE
  5
554
330
18
100
AcDbEntity
  8
1
  6
Continuous
100
AcDbCircle
 10
71.26377304196188
 20
207.0675456521633
 30
0.0
 40
2.5
  0
CIRCLE
  5
555
330
18
100
AcDbEntity
  8
1
  6
Continuous
100
AcDbCircle
 10
71.26377304196188
 20
187.0675456521633
 30
0.0
 40
2.5
  0
CIRCLE
  5
556
330
18
100
AcDbEntity
  8
2
  6
Continuous
100
AcDbCircle
 10
71.26377304196188
 20
207.0675456521633
 30
0.0
 40
2.067000000109175
  0
CIRCLE
  5
557
330
18
100
AcDbEntity
  8
2
  6
Continuous
100
AcDbCircle
 10
71.26377304196188
 20
187.0675456521633
 30
0.0
 40
2.067000000079048
  0
ARC
  5
558
330
18
100
AcDbEntity
  8
1
  6
Continuous
100
AcDbCircle
 10
71.26377304196188
 20
187.0675456521633
 30
0.0
 40
6.0
100
AcDbArc
 50
180.0
 51
0.0
  0
ARC
  5
559
330
18
100
AcDbEntity
  8
1
  6
Continuous
100
AcDbCircle
 10
71.26377304196188
 20
207.0675456521633
 30
0.0
 40
6.0
100
AcDbArc
 50
0.0
 51
180.0
  0
LINE
  5
55A
330
18
100
AcDbEntity
  8
1
  6
Continuous
100
AcDbLine
 10
77.26377304196188
 20
207.0675456521632
 30
0.0
 11
77.26377304196188
 21
187.0675456521633
 31
0.0
  0
LINE
  5
55B
330
18
100
AcDbEntity
  8
1
  6
Continuous
100
AcDbLine
 10
65.26377304196188
 20
207.0675456521632
 30
0.0
 11
65.26377304196188
 21
187.0675456521633
 31
0.0
  0
LINE
  5
55C
330
18
100
AcDbEntity
  8
1
  6
Continuous
100
AcDbLine
 10
74.26377304200677
 20
217.0675456516549
 30
0.0
 11
74.26377304200688
 21
220.3354948440895
 31
0.0
  0
LINE
  5
55D
330
18
100
AcDbEntity
  8
1
  6
Continuous
100
AcDbLine
 10
74.46377304200689
 20
220.3354948440895
 30
0.0
 11
74.46377304200689
 21
217.0675456516547
 31
0.0
  0
LINE
  5
55E
330
18
100
AcDbEntity
  8
1
  6
Continuous
100
AcDbLine
 10
74.26377304200677
 20
220.3354948440895
 30
0.0
 11
74.46377304200678
 21
220.3354948440896
 31
0.0
  0
LINE
  5
55F
330
18
100
AcDbEntity
  8
1
  6
Continuous
100
AcDbLine
 10
72.26377304200664
 20
217.067545651655
 30
0.0
 11
72.26377304200664
 21
221.4901953824662
 31
0.0
  0
LINE
  5
560
330
18
100
AcDbEntity
  8
1
  6
Continuous
100
AcDbLine
 10
72.46377304200689
 20
221.4901953824662
 30
0.0
 11
72.46377304200689
 21
217.0675456516547
 31
0.0
  0
LINE
  5
561
330
18
100
AcDbEntity
  8
1
  6
Continuous
100
AcDbLine
 10
72.26377304200688
 20
221.4901953824662
 30
0.0
 11
72.46377304200689
 21
221.4901953824662
 31
0.0
  0
LINE
  5
562
330
18
100
AcDbEntity
  8
1
  6
Continuous
100
AcDbLine
 10
69.26377304200676
 20
217.0675456516547
 30
0.0
 11
69.26377304200676
 21
220.9128451132778
 31
0.0
  0
LINE
  5
563
330
18
100
AcDbEntity
  8
1
  6
Continuous
100
AcDbLine
 10
69.46377304200689
 20
220.9128451132778
 30
0.0
 11
69.46377304200689
 21
217.0675456516547
 31
0.0
  0
LINE
  5
564
330
18
100
AcDbEntity
  8
1
  6
Continuous
100
AcDbLine
 10
69.26377304200676
 20
220.9128451132778
 30
0.0
 11
69.46377304200689
 21
220.9128451132778
 31
0.0
  0
LINE
  5
565
330
18
100
AcDbEntity
  8
1
  6
Continuous
100
AcDbLine
 10
68.26377304200676
 20
217.0675456516546
 30
0.0
 11
68.26377304200686
 21
220.3354948440894
 31
0.0
  0
LINE
  5
566
330
18
100
AcDbEntity
  8
1
  6
Continuous
100
AcDbLine
 10
68.46377304200689
 20
220.3354948440895
 30
0.0
 11
68.46377304200689
 21
217.0675456516547
 31
0.0
  0
LINE
  5
567
330
18
100
AcDbEntity
  8
1
  6
Continuous
100
AcDbLine
 10
68.26377304200676
 20
220.3354948440895
 30
0.0
 11
68.46377304200678
 21
220.3354948440896
 31
0.0
  0
LINE
  5
568
330
18
100
AcDbEntity
  8
1
  6
Continuous
100
AcDbLine
 10
70.46377304200689
 20
221.4901953824662
 30
0.0
 11
70.26377304200686
 21
221.4901953824662
 31
0.0
  0
LINE
  5
569
330
18
100
AcDbEntity
  8
1
  6
Continuous
100
AcDbLine
 10
70.26377304200686
 20
221.4901953824662
 30
0.0
 11
70.26377304200686
 21
217.0675456516547
 31
0.0
  0
LINE
  5
56A
330
18
100
AcDbEntity
  8
1
  6
Continuous
100
AcDbLine
 10
70.46377304200689
 20
217.0675456516547
 30
0.0
 11
70.46377304200689
 21
221.4901953824662
 31
0.0
  0
LINE
  5
56B
330
18
100
AcDbEntity
  8
1
  6
Continuous
100
AcDbLine
 10
71.26377304200659
 20
217.067545651655
 30
0.0
 11
71.26377304200677
 21
222.0675456516547
 31
0.0
  0
LINE
  5
56C
330
18
100
AcDbEntity
  8
1
  6
Continuous
100
AcDbLine
 10
71.46377304200696
 20
222.0675456516547
 30
0.0
 11
71.46377304200696
 21
217.0675456516547
 31
0.0
  0
LINE
  5
56D
330
18
100
AcDbEntity
  8
1
  6
Continuous
100
AcDbLine
 10
71.26377304200677
 20
222.0675456516546
 30
0.0
 11
71.46377304200678
 21
222.0675456516547
 31
0.0
  0
LINE
  5
56E
330
18
100
AcDbEntity
  8
1
  6
Continuous
100
AcDbLine
 10
73.26377304200666
 20
217.067545651655
 30
0.0
 11
73.26377304200666
 21
220.9128451132778
 31
0.0
  0
LINE
  5
56F
330
18
100
AcDbEntity
  8
1
  6
Continuous
100
AcDbLine
 10
73.46377304200689
 20
220.9128451132778
 30
0.0
 11
73.46377304200689
 21
217.0675456516547
 31
0.0
  0
LINE
  5
570
330
18
100
AcDbEntity
  8
1
  6
Continuous
100
AcDbLine
 10
73.26377304200666
 20
220.9128451132779
 30
0.0
 11
73.46377304200689
 21
220.9128451132778
 31
0.0
  0
LINE
  5
571
330
18
100
AcDbEntity
  8
1
  6
Continuous
100
AcDbLine
 10
72.36073855345186
 20
215.0675456516029
 30
0.0
 11
72.18753347269506
 21
214.9675456516031
 31
0.0
  0
LINE
  5
572
330
18
100
AcDbEntity
  8
1
  6
Continuous
100
AcDbLine
 10
71.26377304196177
 20
216.9675456516544
 30
0.0
 11
72.36073855345177
 21
215.0675456516029
 31
0.0
  0
LINE
  5
573
330
18
100
AcDbEntity
  8
1
  6
Continuous
100
AcDbLine
 10
70.16680753047165
 20
215.0675456516029
 30
0.0
 11
71.26377304196177
 21
216.9675456516546
 31
0.0
  0
LINE
  5
574
330
18
100
AcDbEntity
  8
1
  6
Continuous
100
AcDbLine
 10
70.34001261122859
 20
214.9675456516032
 30
0.0
 11
70.16680753047165
 21
215.0675456516029
 31
0.0
  0
LINE
  5
575
330
18
100
AcDbEntity
  8
1
  6
Continuous
100
AcDbLine
 10
71.16377304196149
 20
216.3943405708977
 30
0.0
 11
70.3400126112285
 21
214.9675456516032
 31
0.0
  0
LINE
  5
576
330
18
100
AcDbEntity
  8
1
  6
Continuous
100
AcDbLine
 10
71.36377304196219
 20
216.3943405708974
 30
0.0
 11
71.36377304196177
 21
213.0667122609515
 31
0.0
  0
LINE
  5
577
330
18
100
AcDbEntity
  8
1
  6
Continuous
100
AcDbLine
 10
72.1875334726949
 20
214.9675456516032
 30
0.0
 11
71.36377304196219
 21
216.3943405708974
 31
0.0
  0
LINE
  5
578
330
18
100
AcDbEntity
  8
1
  6
Continuous
100
AcDbLine
 10
71.16377304196173
 20
213.0667122609515
 30
0.0
 11
71.16377304196173
 21
216.3943405708976
 31
0.0
  0
LINE
  5
579
330
18
100
AcDbEntity
  8
1
  6
Continuous
100
AcDbLine
 10
68.26377304200696
 20
177.0675456516546
 30
0.0
 11
68.26377304200696
 21
173.7995964592197
 31
0.0
  0
LINE
  5
57A
330
18
100
AcDbEntity
  8
1
  6
Continuous
100
AcDbLine
 10
68.26377304200696
 20
173.7995964592197
 30
0.0
 11
68.46377304200697
 21
173.7995964592197
 31
0.0
  0
LINE
  5
57B
330
18
100
AcDbEntity
  8
1
  6
Continuous
100
AcDbLine
 10
68.46377304200697
 20
173.7995964592197
 30
0.0
 11
68.46377304200697
 21
177.0675456516545
 31
0.0
  0
LINE
  5
57C
330
18
100
AcDbEntity
  8
1
  6
Continuous
100
AcDbLine
 10
69.26377304200696
 20
177.0675456516544
 30
0.0
 11
69.26377304200696
 21
173.2222461900315
 31
0.0
  0
LINE
  5
57D
330
18
100
AcDbEntity
  8
1
  6
Continuous
100
AcDbLine
 10
69.26377304200696
 20
173.2222461900315
 30
0.0
 11
69.46377304200698
 21
173.2222461900315
 31
0.0
  0
LINE
  5
57E
330
18
100
AcDbEntity
  8
1
  6
Continuous
100
AcDbLine
 10
69.46377304200698
 20
173.2222461900315
 30
0.0
 11
69.46377304200698
 21
177.0675456516545
 31
0.0
  0
LINE
  5
57F
330
18
100
AcDbEntity
  8
1
  6
Continuous
100
AcDbLine
 10
70.26377304200696
 20
177.0675456516544
 30
0.0
 11
70.26377304200696
 21
172.6448959208429
 31
0.0
  0
LINE
  5
580
330
18
100
AcDbEntity
  8
1
  6
Continuous
100
AcDbLine
 10
70.26377304200696
 20
172.6448959208429
 30
0.0
 11
70.46377304200699
 21
172.6448959208429
 31
0.0
  0
LINE
  5
581
330
18
100
AcDbEntity
  8
1
  6
Continuous
100
AcDbLine
 10
70.46377304200699
 20
172.6448959208429
 30
0.0
 11
70.46377304200699
 21
177.0675456516545
 31
0.0
  0
LINE
  5
582
330
18
100
AcDbEntity
  8
1
  6
Continuous
100
AcDbLine
 10
71.26377304200687
 20
177.0675456516542
 30
0.0
 11
71.26377304200687
 21
172.0675456516545
 31
0.0
  0
LINE
  5
583
330
18
100
AcDbEntity
  8
1
  6
Continuous
100
AcDbLine
 10
71.26377304200687
 20
172.0675456516545
 30
0.0
 11
71.46377304200709
 21
172.0675456516545
 31
0.0
  0
LINE
  5
584
330
18
100
AcDbEntity
  8
1
  6
Continuous
100
AcDbLine
 10
71.46377304200709
 20
172.0675456516545
 30
0.0
 11
71.46377304200709
 21
177.0675456516545
 31
0.0
  0
LINE
  5
585
330
18
100
AcDbEntity
  8
1
  6
Continuous
100
AcDbLine
 10
72.26377304200688
 20
177.0675456516542
 30
0.0
 11
72.26377304200688
 21
172.6448959208429
 31
0.0
  0
LINE
  5
586
330
18
100
AcDbEntity
  8
1
  6
Continuous
100
AcDbLine
 10
72.26377304200688
 20
172.6448959208429
 30
0.0
 11
72.46377304200699
 21
172.6448959208429
 31
0.0
  0
LINE
  5
587
330
18
100
AcDbEntity
  8
1
  6
Continuous
100
AcDbLine
 10
72.46377304200699
 20
172.6448959208429
 30
0.0
 11
72.46377304200699
 21
177.0675456516545
 31
0.0
  0
LINE
  5
588
330
18
100
AcDbEntity
  8
1
  6
Continuous
100
AcDbLine
 10
73.26377304200694
 20
177.0675456516542
 30
0.0
 11
73.26377304200694
 21
173.2222461900315
 31
0.0
  0
LINE
  5
589
330
18
100
AcDbEntity
  8
1
  6
Continuous
100
AcDbLine
 10
73.26377304200694
 20
173.2222461900315
 30
0.0
 11
73.46377304200697
 21
173.2222461900316
 31
0.0
  0
LINE
  5
58A
330
18
100
AcDbEntity
  8
1
  6
Continuous
100
AcDbLine
 10
73.46377304200697
 20
173.2222461900316
 30
0.0
 11
73.46377304200697
 21
177.0675456516545
 31
0.0
  0
LINE
  5
58B
330
18
100
AcDbEntity
  8
1
  6
Continuous
100
AcDbLine
 10
74.26377304200695
 20
177.0675456516542
 30
0.0
 11
74.26377304200695
 21
173.7995964592197
 31
0.0
  0
LINE
  5
58C
330
18
100
AcDbEntity
  8
1
  6
Continuous
100
AcDbLine
 10
74.26377304200695
 20
173.7995964592197
 30
0.0
 11
74.46377304200699
 21
173.7995964592197
 31
0.0
  0
LINE
  5
58D
330
18
100
AcDbEntity
  8
1
  6
Continuous
100
AcDbLine
 10
74.46377304200699
 20
173.7995964592197
 30
0.0
 11
74.46377304200699
 21
177.0675456516545
 31
0.0
  0
LINE
  5
58E
330
18
100
AcDbEntity
  8
1
  6
Continuous
100
AcDbLine
 10
70.34001261122876
 20
179.1675456517067
 30
0.0
 11
70.16680753047189
 21
179.0675456517067
 31
0.0
  0
LINE
  5
58F
330
18
100
AcDbEntity
  8
1
  6
Continuous
100
AcDbLine
 10
72.18753347269519
 20
179.1675456517064
 30
0.0
 11
71.36377304196225
 21
177.7407507324119
 31
0.0
  0
LINE
  5
590
330
18
100
AcDbEntity
  8
1
  6
Continuous
100
AcDbLine
 10
71.36377304196225
 20
177.7407507324121
 30
0.0
 11
71.36377304196187
 21
181.0683790433751
 31
0.0
  0
LINE
  5
591
330
18
100
AcDbEntity
  8
1
  6
Continuous
100
AcDbLine
 10
71.16377304196173
 20
177.7407507324119
 30
0.0
 11
70.34001261122876
 21
179.1675456517066
 31
0.0
  0
LINE
  5
592
330
18
100
AcDbEntity
  8
1
  6
Continuous
100
AcDbLine
 10
71.16377304196186
 20
181.0683790433751
 30
0.0
 11
71.16377304196186
 21
177.7407507324119
 31
0.0
  0
LINE
  5
593
330
18
100
AcDbEntity
  8
1
  6
Continuous
100
AcDbLine
 10
72.36073855345186
 20
179.0675456517063
 30
0.0
 11
72.18753347269519
 21
179.1675456517064
 31
0.0
  0
LINE
  5
594
330
18
100
AcDbEntity
  8
1
  6
Continuous
100
AcDbLine
 10
70.16680753047189
 20
179.0675456517069
 30
0.0
 11
71.263773041962
 21
177.167545651655
 31
0.0
  0
LINE
  5
595
330
18
100
AcDbEntity
  8
1
  6
Continuous
100
AcDbLine
 10
71.26377304196188
 20
177.1675456516549
 30
0.0
 11
72.36073855345208
 21
179.0675456517062
 31
0.0
  0
LINE
  5
596
330
18
100
AcDbEntity
  8
4
  6
CENTER
 48
0.25
100
AcDbLine
 10
71.26377304196188
 20
211.1675456521633
 30
0.0
 11
71.26377304196188
 21
182.9675456521632
 31
0.0
  0
LINE
  5
597
330
18
100
AcDbEntity
  8
4
  6
CENTER
 48
0.25
100
AcDbLine
 10
157.3756670464162
 20
102.3219026533329
 30
0.0
 11
182.3756670464163
 21
102.3219026533329
 31
0.0
  0
LINE
  5
59A
330
18
100
AcDbEntity
  8
1
  6
Continuous
100
AcDbLine
 10
172.0756670464163
 20
107.3219026533331
 30
0.0
 11
171.0756670464163
 21
107.3219026533331
 31
0.0
  0
LINE
  5
59B
330
18
100
AcDbEntity
  8
1
  6
Continuous
100
AcDbLine
 10
172.0756670464163
 20
97.3219026533331
 30
0.0
 11
171.0756670464163
 21
97.3219026533331
 31
0.0
  0
LINE
  5
59C
330
18
100
AcDbEntity
  8
1
  6
Continuous
100
AcDbLine
 10
172.0756670464163
 20
97.3219026533331
 30
0.0
 11
172.0756670464163
 21
107.3219026533331
 31
0.0
  0
LINE
  5
59E
330
18
100
AcDbEntity
  8
1
  6
Continuous
100
AcDbLine
 10
173.3756670464162
 20
106.9219026533329
 30
0.0
 11
172.0756670464163
 21
106.9219026533329
 31
0.0
  0
LINE
  5
59F
330
18
100
AcDbEntity
  8
1
  6
Continuous
100
AcDbLine
 10
173.3756670464162
 20
97.72190265333296
 30
0.0
 11
172.0756670464163
 21
97.72190265333296
 31
0.0
  0
LINE
  5
5A0
330
18
100
AcDbEntity
  8
1
  6
Continuous
100
AcDbLine
 10
173.3756670464162
 20
97.72190265333296
 30
0.0
 11
173.3756670464162
 21
106.9219026533329
 31
0.0
  0
LINE
  5
5A2
330
18
100
AcDbEntity
  8
2
  6
Continuous
100
AcDbLine
 10
161.3756670464162
 20
100.2549026533342
 30
0.0
 11
163.0756670457971
 21
100.2549026533343
 31
0.0
  0
LINE
  5
5A3
330
18
100
AcDbEntity
  8
2
  6
Continuous
100
AcDbLine
 10
161.3756670464162
 20
104.3889026533211
 30
0.0
 11
163.0756670458286
 21
104.3889026533187
 31
0.0
  0
LINE
  5
5A4
330
18
100
AcDbEntity
  8
1
  6
Continuous
100
AcDbLine
 10
163.0756670457938
 20
99.82190265333301
 30
0.0
 11
161.3756670464162
 21
99.82190265333301
 31
0.0
  0
LINE
  5
5A5
330
18
100
AcDbEntity
  8
1
  6
Continuous
100
AcDbLine
 10
161.3756670464162
 20
104.8219026533329
 30
0.0
 11
163.0756670458318
 21
104.8219026533329
 31
0.0
  0
LINE
  5
5A6
330
18
100
AcDbEntity
  8
1
  6
Continuous
100
AcDbLine
 10
167.0756670454395
 20
96.3219026533331
 30
0.0
 11
163.0756670454395
 21
96.3219026533636
 31
0.0
  0
LINE
  5
5A7
330
18
100
AcDbEntity
  8
1
  6
Continuous
100
AcDbLine
 10
167.0756670455309
 20
108.3219026533331
 30
0.0
 11
163.0756670455309
 21
108.3219026533635
 31
0.0
  0
LINE
  5
5A8
330
18
100
AcDbEntity
  8
1
  6
Continuous
100
AcDbLine
 10
163.0756670458585
 20
108.3219026533635
 30
0.0
 11
163.0756670457671
 21
96.3219026533636
 31
0.0
  0
LINE
  5
5A9
330
18
100
AcDbEntity
  8
4
  6
CENTER
 48
0.25
100
AcDbLine
 10
218.1256670455537
 20
78.3219026533941
 30
0.0
 11
218.1256670455537
 21
68.3219026533941
 31
0.0
  0
LINE
  5
5AA
330
18
100
AcDbEntity
  8
4
  6
CENTER
 48
0.25
100
AcDbLine
 10
151.0756670455537
 20
94.62190265341844
 30
0.0
 11
151.0756670455537
 21
68.3219026533941
 31
0.0
  0
LINE
  5
5AB
330
18
100
AcDbEntity
  8
4
  6
CENTER
 48
0.25
100
AcDbLine
 10
50.26377304196188
 20
252.0675456521633
 30
0.0
 11
50.26377304196188
 21
139.0675456521632
 31
0.0
  0
LINE
  5
5AC
330
18
100
AcDbEntity
  8
1
  6
Continuous
100
AcDbLine
 10
80.26377304196188
 20
194.0675456521632
 30
0.0
 11
80.26377304196188
 21
149.0675456521632
 31
0.0
  0
LINE
  5
5AD
330
18
100
AcDbEntity
  8
1
  6
Continuous
100
AcDbLine
 10
80.26377304196188
 20
245.0675456521632
 30
0.0
 11
80.26377304196188
 21
200.0675456521633
 31
0.0
  0
LINE
  5
5AE
330
18
100
AcDbEntity
  8
1
  6
Continuous
100
AcDbLine
 10
43.26377304196188
 20
169.3175456521633
 30
0.0
 11
43.26377304196188
 21
156.0675456521632
 31
0.0
  0
LINE
  5
5AF
330
18
100
AcDbEntity
  8
1
  6
Continuous
100
AcDbLine
 10
48.26377304196189
 20
195.0675456521632
 30
0.0
 11
52.26377304196187
 21
195.0675456521632
 31
0.0
  0
LINE
  5
5B0
330
18
100
AcDbEntity
  8
1
  6
Continuous
100
AcDbLine
 10
48.26377304196189
 20
199.0675456521632
 30
0.0
 11
52.26377304196187
 21
199.0675456521632
 31
0.0
  0
LINE
  5
5B1
330
18
100
AcDbEntity
  8
1
  6
Continuous
100
AcDbLine
 10
41.26377304196188
 20
247.0675456521632
 30
0.0
 11
78.26377304196189
 21
247.0675456521632
 31
0.0
  0
LINE
  5
5B2
330
18
100
AcDbEntity
  8
1
  6
Continuous
100
AcDbLine
 10
41.26377304196188
 20
147.0675456521632
 30
0.0
 11
78.26377304196189
 21
147.0675456521632
 31
0.0
  0
LINE
  5
5B3
330
18
100
AcDbEntity
  8
1
  6
Continuous
100
AcDbLine
 10
52.26377304196187
 20
217.0675456521633
 30
0.0
 11
52.26377304196187
 21
177.0675456521632
 31
0.0
  0
LINE
  5
5B4
330
18
100
AcDbEntity
  8
1
  6
Continuous
100
AcDbLine
 10
50.26377304196188
 20
177.0675456521632
 30
0.0
 11
78.26377304196189
 21
177.0675456521632
 31
0.0
  0
LINE
  5
5B5
330
18
100
AcDbEntity
  8
1
  6
Continuous
100
AcDbLine
 10
50.26377304196188
 20
217.0675456521633
 30
0.0
 11
78.26377304196189
 21
217.0675456521633
 31
0.0
  0
LINE
  5
5B6
330
18
100
AcDbEntity
  8
1
  6
Continuous
100
AcDbLine
 10
48.26377304196189
 20
222.8175456521632
 30
0.0
 11
48.26377304196189
 21
171.3175456521631
 31
0.0
  0
LINE
  5
5B7
330
18
100
AcDbEntity
  8
1
  6
Continuous
100
AcDbLine
 10
43.26377304196188
 20
238.0675456521633
 30
0.0
 11
43.26377304196188
 21
224.8175456521632
 31
0.0
  0
LINE
  5
5B9
330
18
100
AcDbEntity
  8
1
  6
Continuous
100
AcDbLine
 10
138.5756670455537
 20
72.32190265339411
 30
0.0
 11
138.5756670455537
 21
83.32190265339411
 31
0.0
  0
LINE
  5
5BA
330
18
100
AcDbEntity
  8
1
  6
Continuous
100
AcDbLine
 10
138.5756670455537
 20
74.32190265339411
 30
0.0
 11
163.5756670455537
 21
74.32190265339411
 31
0.0
  0
LINE
  5
5BB
330
18
100
AcDbEntity
  8
1
  6
Continuous
100
AcDbLine
 10
138.5756670455537
 20
72.32190265339411
 30
0.0
 11
163.5756670455537
 21
72.32190265339411
 31
0.0
  0
LINE
  5
5BC
330
18
100
AcDbEntity
  8
1
  6
Continuous
100
AcDbLine
 10
163.5756670455537
 20
72.32190265339411
 30
0.0
 11
163.5756670455537
 21
81.32190265339408
 31
0.0
  0
LINE
  5
5BD
330
18
100
AcDbEntity
  8
1
  6
Continuous
100
AcDbLine
 10
138.5756670455537
 20
83.32190265339411
 30
0.0
 11
165.0756670455536
 21
83.32190265339411
 31
0.0
  0
LINE
  5
5BE
330
18
100
AcDbEntity
  8
1
  6
Continuous
100
AcDbLine
 10
138.5756670455537
 20
81.32190265339408
 30
0.0
 11
165.0756670455536
 21
81.32190265339408
 31
0.0
  0
LINE
  5
5BF
330
18
100
AcDbEntity
  8
1
  6
Continuous
100
AcDbLine
 10
167.0756670455537
 20
85.3219026533941
 30
0.0
 11
167.0756670455537
 21
111.3219026533941
 31
0.0
  0
LINE
  5
5C0
330
18
100
AcDbEntity
  8
1
  6
Continuous
100
AcDbLine
 10
169.0756670455536
 20
81.32190265339408
 30
0.0
 11
169.0756670455536
 21
111.3219026533941
 31
0.0
  0
LINE
  5
5C1
330
18
100
AcDbEntity
  8
1
  6
Continuous
100
AcDbLine
 10
171.0756670455537
 20
84.56188665339388
 30
0.0
 11
171.0756670455537
 21
111.3219026533941
 31
0.0
  0
LINE
  5
5C2
330
18
100
AcDbEntity
  8
1
  6
Continuous
100
AcDbLine
 10
183.1756670455537
 20
81.32190265339408
 30
0.0
 11
183.1756670455537
 21
92.3219026533941
 31
0.0
  0
LINE
  5
5C3
330
18
100
AcDbEntity
  8
1
  6
Continuous
100
AcDbLine
 10
181.1756670455537
 20
86.24125165339396
 30
0.0
 11
181.1756670455537
 21
92.3219026533941
 31
0.0
  0
LINE
  5
5C4
330
18
100
AcDbEntity
  8
1
  6
Continuous
100
AcDbLine
 10
210.6256670455537
 20
72.32190265339411
 30
0.0
 11
228.1256670455537
 21
72.32190265339411
 31
0.0
  0
LINE
  5
5C5
330
18
100
AcDbEntity
  8
1
  6
Continuous
100
AcDbLine
 10
210.6256670455537
 20
74.32190265339411
 30
0.0
 11
228.1256670455537
 21
74.32190265339411
 31
0.0
  0
LINE
  5
5C6
330
18
100
AcDbEntity
  8
1
  6
Continuous
100
AcDbLine
 10
138.5756670455537
 20
158.0675456521641
 30
0.0
 11
138.5756670455537
 21
195.067545652164
 31
0.0
  0
LINE
  5
5C7
330
18
100
AcDbEntity
  8
1
  6
Continuous
100
AcDbLine
 10
163.5756670455537
 20
158.0675456521641
 30
0.0
 11
163.5756670455537
 21
177.067545652164
 31
0.0
  0
LINE
  5
5C8
330
18
100
AcDbEntity
  8
1
  6
Continuous
100
AcDbLine
 10
140.5756670455537
 20
177.067545652164
 30
0.0
 11
169.0756670455536
 21
177.067545652164
 31
0.0
  0
LINE
  5
5C9
330
18
100
AcDbEntity
  8
1
  6
Continuous
100
AcDbLine
 10
140.5756670455537
 20
217.0675456521641
 30
0.0
 11
169.0756670455536
 21
217.0675456521641
 31
0.0
  0
LINE
  5
5CA
330
18
100
AcDbEntity
  8
1
  6
Continuous
100
AcDbLine
 10
169.0756670455536
 20
147.067545652164
 30
0.0
 11
169.0756670455536
 21
247.0675456521641
 31
0.0
  0
LINE
  5
5CB
330
18
100
AcDbEntity
  8
1
  6
Continuous
100
AcDbLine
 10
171.0756670455537
 20
147.067545652164
 30
0.0
 11
171.0756670455537
 21
247.0675456521641
 31
0.0
  0
LINE
  5
5CC
330
18
100
AcDbEntity
  8
1
  6
Continuous
100
AcDbLine
 10
169.0756670455536
 20
247.0675456521641
 30
0.0
 11
226.1256670455537
 21
247.0675456521641
 31
0.0
  0
LINE
  5
5CD
330
18
100
AcDbEntity
  8
4
  6
CENTER
 48
0.25
100
AcDbLine
 10
176.1256670455537
 20
139.067545652164
 30
0.0
 11
176.1256670455537
 21
252.0675456521641
 31
0.0
  0
LINE
  5
5CE
330
18
100
AcDbEntity
  8
4
  6
CENTER
 48
0.25
100
AcDbLine
 10
151.0756670455537
 20
164.6675456521641
 30
0.0
 11
151.0756670455537
 21
157.4675456521641
 31
0.0
  0
LINE
  5
5CF
330
18
100
AcDbEntity
  8
4
  6
CENTER
 48
0.25
100
AcDbLine
 10
154.6756670455537
 20
161.067545652164
 30
0.0
 11
147.4756670455537
 21
161.067545652164
 31
0.0
  0
LINE
  5
5D0
330
18
100
AcDbEntity
  8
4
  6
CENTER
 48
0.25
100
AcDbLine
 10
151.0756670455537
 20
236.6675456521641
 30
0.0
 11
151.0756670455537
 21
229.4675456521641
 31
0.0
  0
LINE
  5
5D1
330
18
100
AcDbEntity
  8
4
  6
CENTER
 48
0.25
100
AcDbLine
 10
154.6756670455537
 20
233.0675456521641
 30
0.0
 11
147.4756670455537
 21
233.0675456521641
 31
0.0
  0
LINE
  5
5D2
330
18
100
AcDbEntity
  8
4
  6
CENTER
 48
0.25
100
AcDbLine
 10
158.0756670455536
 20
207.067545652164
 30
0.0
 11
144.0756670455538
 21
207.067545652164
 31
0.0
  0
LINE
  5
5D3
330
18
100
AcDbEntity
  8
4
  6
CENTER
 48
0.25
100
AcDbLine
 10
158.0756670455536
 20
187.067545652164
 30
0.0
 11
144.0756670455536
 21
187.067545652164
 31
0.0
  0
LINE
  5
5D4
330
18
100
AcDbEntity
  8
4
  6
CENTER
 48
0.25
100
AcDbLine
 10
218.1256670455537
 20
167.6675456521641
 30
0.0
 11
218.1256670455537
 21
154.4675456521641
 31
0.0
  0
LINE
  5
5D5
330
18
100
AcDbEntity
  8
4
  6
CENTER
 48
0.25
100
AcDbLine
 10
224.7256670455537
 20
161.067545652164
 30
0.0
 11
211.5256670455538
 21
161.067545652164
 31
0.0
  0
LINE
  5
5D6
330
18
100
AcDbEntity
  8
4
  6
CENTER
 48
0.25
100
AcDbLine
 10
218.1256670455537
 20
203.6675456521641
 30
0.0
 11
218.1256670455537
 21
190.4675456521641
 31
0.0
  0
LINE
  5
5D7
330
18
100
AcDbEntity
  8
4
  6
CENTER
 48
0.25
100
AcDbLine
 10
218.1256670455537
 20
239.6675456521641
 30
0.0
 11
218.1256670455537
 21
226.4675456521641
 31
0.0
  0
LINE
  5
5D8
330
18
100
AcDbEntity
  8
4
  6
CENTER
 48
0.25
100
AcDbLine
 10
224.7256670455537
 20
233.0675456521641
 30
0.0
 11
211.5256670455538
 21
233.0675456521641
 31
0.0
  0
LINE
  5
5D9
330
18
100
AcDbEntity
  8
4
  6
CENTER
 48
0.25
100
AcDbLine
 10
176.1256670455537
 20
91.37190265339407
 30
0.0
 11
176.1256670455537
 21
71.27190265339409
 31
0.0
  0
LINE
  5
5DA
330
18
100
AcDbEntity
  8
4
  6
CENTER
 48
0.25
100
AcDbLine
 10
186.1756670455537
 20
81.32190265339408
 30
0.0
 11
166.0756670455536
 21
81.32190265339408
 31
0.0
  0
LINE
  5
5DB
330
18
100
AcDbEntity
  8
4
  6
CENTER
 48
0.25
100
AcDbLine
 10
75.36377304196188
 20
207.0675456521632
 30
0.0
 11
67.16377304196186
 21
207.0675456521632
 31
0.0
  0
LINE
  5
5DC
330
18
100
AcDbEntity
  8
4
  6
CENTER
 48
0.25
100
AcDbLine
 10
75.36377304196188
 20
187.0675456521633
 30
0.0
 11
67.16377304196186
 21
187.0675456521633
 31
0.0
  0
LINE
  5
5DD
330
18
100
AcDbEntity
  8
1
  6
Continuous
100
AcDbLine
 10
62.26377304196187
 20
245.0675456521632
 30
0.0
 11
62.26377304196187
 21
217.0675456521633
 31
0.0
  0
LINE
  5
5DE
330
18
100
AcDbEntity
  8
1
  6
Continuous
100
AcDbLine
 10
43.21377304196174
 20
184.5675456521543
 30
0.0
 11
43.21377304196174
 21
171.3175456521631
 31
0.0
  0
LINE
  5
5DF
330
18
100
AcDbEntity
  8
1
  6
Continuous
100
AcDbLine
 10
43.21377304196174
 20
156.0675456521632
 30
0.0
 11
43.21377304196174
 21
147.0675456521632
 31
0.0
  0
LINE
  5
5E0
330
18
100
AcDbEntity
  8
1
  6
Continuous
100
AcDbLine
 10
44.2637730415729
 20
195.5675456521633
 30
0.0
 11
43.21377304196174
 21
195.5675456521633
 31
0.0
  0
LINE
  5
5E1
330
18
100
AcDbEntity
  8
1
  6
Continuous
100
AcDbLine
 10
56.26377304196187
 20
144.0675456521631
 30
0.0
 11
44.26377304196187
 21
144.0675456521633
 31
0.0
  0
LINE
  5
5E2
330
18
100
AcDbEntity
  8
1
  6
Continuous
100
AcDbLine
 10
56.26377304196187
 20
144.0675456521631
 30
0.0
 11
56.26377304196187
 21
147.0675456521632
 31
0.0
  0
LINE
  5
5E3
330
18
100
AcDbEntity
  8
1
  6
Continuous
100
AcDbLine
 10
44.26377304196187
 20
147.0675456521632
 30
0.0
 11
44.26377304196187
 21
144.0675456521633
 31
0.0
  0
ARC
  5
5E5
330
18
100
AcDbEntity
  8
1
  6
Continuous
100
AcDbCircle
 10
64.26377304196188
 20
245.0675456521632
 30
0.0
 40
2.0
100
AcDbArc
 50
89.99999999999998
 51
180.0
  0
ARC
  5
5E6
330
18
100
AcDbEntity
  8
1
  6
Continuous
100
AcDbCircle
 10
78.26377304196189
 20
245.0675456521632
 30
0.0
 40
2.0
100
AcDbArc
 50
0.0
 51
89.99999999999998
  0
ARC
  5
5E7
330
18
100
AcDbEntity
  8
1
  6
Continuous
100
AcDbCircle
 10
78.26377304196189
 20
149.0675456521632
 30
0.0
 40
2.0
100
AcDbArc
 50
270.0
 51
0.0
  0
LINE
  5
5E8
330
18
100
AcDbEntity
  8
1
  6
Continuous
100
AcDbLine
 10
44.2637730415729
 20
198.5675456521633
 30
0.0
 11
43.21377304196174
 21
198.5675456521633
 31
0.0
  0
LINE
  5
5E9
330
18
100
AcDbEntity
  8
1
  6
Continuous
100
AcDbLine
 10
57.31377304196168
 20
217.0675456521633
 30
0.0
 11
57.31377304196172
 21
247.0675456521632
 31
0.0
  0
LINE
  5
5EA
330
18
100
AcDbEntity
  8
1
  6
Continuous
100
AcDbLine
 10
43.21377304196174
 20
247.0675456521632
 30
0.0
 11
43.21377304196174
 21
238.0675456521633
 31
0.0
  0
LINE
  5
5EB
330
18
100
AcDbEntity
  8
1
  6
Continuous
100
AcDbLine
 10
43.21377304196174
 20
222.8175456521632
 30
0.0
 11
43.21377304196174
 21
209.5675456521544
 31
0.0
  0
LINE
  5
5EC
330
18
100
AcDbEntity
  8
1
  6
Continuous
100
AcDbLine
 10
80.26377304196188
 20
194.0675456521632
 30
0.0
 11
78.53172204196177
 21
197.0675456521632
 31
0.0
  0
LINE
  5
5ED
330
18
100
AcDbEntity
  8
1
  6
Continuous
100
AcDbLine
 10
78.53172204196188
 20
197.0675456521632
 30
0.0
 11
80.26377304196188
 21
200.0675456521633
 31
0.0
  0
ARC
  5
5EE
330
18
100
AcDbEntity
  8
1
  6
Continuous
100
AcDbCircle
 10
78.26377304196189
 20
215.0675456521633
 30
0.0
 40
2.0
100
AcDbArc
 50
0.0
 51
89.99999999999998
  0
ARC
  5
5EF
330
18
100
AcDbEntity
  8
1
  6
Continuous
100
AcDbCircle
 10
78.26377304196189
 20
179.0675456521633
 30
0.0
 40
2.0
100
AcDbArc
 50
270.0
 51
0.0
  0
LINE
  5
5F0
330
18
100
AcDbEntity
  8
1
  6
Continuous
100
AcDbLine
 10
41.26377304196188
 20
238.0675456521633
 30
0.0
 11
43.26377304196188
 21
238.0675456521633
 31
0.0
  0
LINE
  5
5F1
330
18
100
AcDbEntity
  8
1
  6
Continuous
100
AcDbLine
 10
43.26377304196188
 20
224.8175456521632
 30
0.0
 11
48.26377304196189
 21
224.8175456521632
 31
0.0
  0
LINE
  5
5F2
330
18
100
AcDbEntity
  8
1
  6
Continuous
100
AcDbLine
 10
50.26377304196188
 20
222.8175456521632
 30
0.0
 11
50.26377304196188
 21
171.3175456521631
 31
0.0
  0
LINE
  5
5F3
330
18
100
AcDbEntity
  8
1
  6
Continuous
100
AcDbLine
 10
48.26377304196189
 20
222.8175456521632
 30
0.0
 11
43.26377304196188
 21
222.8175456521632
 31
0.0
  0
LINE
  5
5F5
330
18
100
AcDbEntity
  8
1
  6
Continuous
100
AcDbLine
 10
43.26377304196188
 20
171.3175456521631
 30
0.0
 11
48.26377304196189
 21
171.3175456521631
 31
0.0
  0
LINE
  5
5F6
330
18
100
AcDbEntity
  8
1
  6
Continuous
100
AcDbLine
 10
48.26377304196189
 20
169.3175456521633
 30
0.0
 11
43.26377304196188
 21
169.3175456521633
 31
0.0
  0
LINE
  5
5F8
330
18
100
AcDbEntity
  8
1
  6
Continuous
100
AcDbLine
 10
43.26377304196188
 20
156.0675456521632
 30
0.0
 11
41.26377304196188
 21
156.0675456521632
 31
0.0
  0
ARC
  5
5F9
330
18
100
AcDbEntity
  8
1
  6
Continuous
100
AcDbCircle
 10
48.26377304196189
 20
222.8175456521632
 30
0.0
 40
2.0
100
AcDbArc
 50
0.0
 51
89.99999999999998
  0
ARC
  5
5FA
330
18
100
AcDbEntity
  8
1
  6
Continuous
100
AcDbCircle
 10
43.26377304196188
 20
224.8175456521632
 30
0.0
 40
2.0
100
AcDbArc
 50
180.0
 51
270.0
  0
ARC
  5
5FB
330
18
100
AcDbEntity
  8
1
  6
Continuous
100
AcDbCircle
 10
43.26377304196188
 20
169.3175456521633
 30
0.0
 40
2.0
100
AcDbArc
 50
89.99999999999998
 51
180.0
  0
ARC
  5
5FC
330
18
100
AcDbEntity
  8
1
  6
Continuous
100
AcDbCircle
 10
48.26377304196189
 20
171.3175456521631
 30
0.0
 40
2.0
100
AcDbArc
 50
270.0
 51
0.0
  0
LINE
  5
601
330
18
100
AcDbEntity
  8
1
  6
Continuous
100
AcDbLine
 10
181.1756670455537
 20
195.5675456521641
 30
0.0
 11
171.3647050455537
 21
195.5675456521641
 31
0.0
  0
LINE
  5
602
330
18
100
AcDbEntity
  8
1
  6
Continuous
100
AcDbLine
 10
182.1256670455537
 20
144.067545652164
 30
0.0
 11
170.1256670455537
 21
144.067545652164
 31
0.0
  0
LINE
  5
603
330
18
100
AcDbEntity
  8
1
  6
Continuous
100
AcDbLine
 10
177.175667045439
 20
198.567545652164
 30
0.0
 11
176.8549090454391
 21
198.567545652164
 31
0.0
  0
LINE
  5
604
330
18
100
AcDbEntity
  8
1
  6
Continuous
100
AcDbLine
 10
182.1256670455537
 20
144.067545652164
 30
0.0
 11
182.1256670455537
 21
147.067545652164
 31
0.0
  0
LINE
  5
605
330
18
100
AcDbEntity
  8
1
  6
Continuous
100
AcDbLine
 10
170.1256670455537
 20
147.067545652164
 30
0.0
 11
170.1256670455537
 21
144.067545652164
 31
0.0
  0
LINE
  5
606
330
18
100
AcDbEntity
  8
1
  6
Continuous
100
AcDbLine
 10
181.1756670455537
 20
247.0675456521641
 30
0.0
 11
181.1756670455537
 21
147.067545652164
 31
0.0
  0
LINE
  5
607
330
18
100
AcDbEntity
  8
1
  6
Continuous
100
AcDbLine
 10
208.1256670455537
 20
247.0675456521641
 30
0.0
 11
208.1256670455537
 21
147.067545652164
 31
0.0
  0
LINE
  5
608
330
18
100
AcDbEntity
  8
1
  6
Continuous
100
AcDbLine
 10
180.8549090455537
 20
247.0675456521641
 30
0.0
 11
180.8549090455537
 21
198.567545652164
 31
0.0
  0
LINE
  5
609
330
18
100
AcDbEntity
  8
1
  6
Continuous
100
AcDbLine
 10
180.8549090455537
 20
198.567545652164
 30
0.0
 11
171.0756670455537
 21
198.567545652164
 31
0.0
  0
LINE
  5
60A
330
18
100
AcDbEntity
  8
1
  6
Continuous
100
AcDbLine
 10
228.1256670455537
 20
245.0675456521641
 30
0.0
 11
228.1256670455537
 21
149.067545652164
 31
0.0
  0
ARC
  5
60B
330
18
100
AcDbEntity
  8
1
  6
Continuous
100
AcDbCircle
 10
226.1256670455537
 20
149.067545652164
 30
0.0
 40
2.0
100
AcDbArc
 50
270.0
 51
0.0
  0
ARC
  5
60C
330
18
100
AcDbEntity
  8
1
  6
Continuous
100
AcDbCircle
 10
226.1256670455537
 20
245.0675456521641
 30
0.0
 40
2.0
100
AcDbArc
 50
0.0
 51
90.0
  0
LINE
  5
60D
330
18
100
AcDbEntity
  8
1
  6
Continuous
100
AcDbLine
 10
171.0756670455537
 20
200.067545652164
 30
0.0
 11
167.0756670455537
 21
200.067545652164
 31
0.0
  0
LINE
  5
60F
330
18
100
AcDbEntity
  8
1
  6
Continuous
100
AcDbLine
 10
171.0756670455537
 20
197.067545652164
 30
0.0
 11
167.0756670455537
 21
197.067545652164
 31
0.0
  0
LINE
  5
610
330
18
100
AcDbEntity
  8
1
  6
Continuous
100
AcDbLine
 10
171.0756670455537
 20
194.067545652164
 30
0.0
 11
167.0756670455537
 21
194.067545652164
 31
0.0
  0
ARC
  5
613
330
18
100
AcDbEntity
  8
1
  6
Continuous
100
AcDbCircle
 10
140.5756670455537
 20
179.067545652164
 30
0.0
 40
2.0
100
AcDbArc
 50
180.0
 51
270.0
  0
ARC
  5
614
330
18
100
AcDbEntity
  8
1
  6
Continuous
100
AcDbCircle
 10
140.5756670455537
 20
215.0675456521641
 30
0.0
 40
2.0
100
AcDbArc
 50
90.0
 51
180.0
  0
ARC
  5
615
330
18
100
AcDbEntity
  8
1
  6
Continuous
100
AcDbCircle
 10
138.5756670455537
 20
197.067545652164
 30
0.0
 40
2.0
100
AcDbArc
 50
270.0
 51
90.0
  0
LINE
  5
617
330
18
100
AcDbEntity
  8
1
  6
Continuous
100
AcDbLine
 10
163.5756670455537
 20
169.317545652164
 30
0.0
 11
138.5756670455537
 21
169.317545652164
 31
0.0
  0
LINE
  5
619
330
18
100
AcDbEntity
  8
1
  6
Continuous
100
AcDbLine
 10
163.5756670455537
 20
224.817545652164
 30
0.0
 11
138.5756670455537
 21
224.817545652164
 31
0.0
  0
LINE
  5
61A
330
18
100
AcDbEntity
  8
1
  6
Continuous
100
AcDbLine
 10
161.5756670455537
 20
238.0675456521641
 30
0.0
 11
140.5756670455537
 21
238.0675456521641
 31
0.0
  0
LINE
  5
61B
330
18
100
AcDbEntity
  8
1
  6
Continuous
100
AcDbLine
 10
161.5756670455537
 20
156.067545652164
 30
0.0
 11
140.5756670455537
 21
156.067545652164
 31
0.0
  0
ARC
  5
61C
330
18
100
AcDbEntity
  8
1
  6
Continuous
100
AcDbCircle
 10
161.5756670455537
 20
236.0675456521641
 30
0.0
 40
2.0
100
AcDbArc
 50
0.0
 51
90.0
  0
ARC
  5
61D
330
18
100
AcDbEntity
  8
1
  6
Continuous
100
AcDbCircle
 10
140.5756670455537
 20
236.0675456521641
 30
0.0
 40
2.0
100
AcDbArc
 50
90.0
 51
180.0
  0
ARC
  5
61E
330
18
100
AcDbEntity
  8
1
  6
Continuous
100
AcDbCircle
 10
161.5756670455537
 20
158.0675456521641
 30
0.0
 40
2.0
100
AcDbArc
 50
270.0
 51
0.0
  0
ARC
  5
61F
330
18
100
AcDbEntity
  8
1
  6
Continuous
100
AcDbCircle
 10
140.5756670455537
 20
158.0675456521641
 30
0.0
 40
2.0
100
AcDbArc
 50
180.0
 51
270.0
  0
CIRCLE
  5
620
330
18
100
AcDbEntity
  8
1
  6
Continuous
100
AcDbCircle
 10
151.0756670455537
 20
233.0675456521641
 30
0.0
 40
2.1
  0
CIRCLE
  5
621
330
18
100
AcDbEntity
  8
1
  6
Continuous
100
AcDbCircle
 10
151.0756670455537
 20
161.067545652164
 30
0.0
 40
2.1
  0
LINE
  5
622
330
18
100
AcDbEntity
  8
1
  6
Continuous
100
AcDbLine
 10
171.3647050455537
 20
86.52149265339406
 30
0.0
 11
172.0737840455537
 21
85.7470856533941
 31
0.0
  0
ARC
  5
624
330
18
100
AcDbEntity
  8
1
  6
Continuous
100
AcDbCircle
 10
176.1256670455537
 20
81.32190265339408
 30
0.0
 40
7.049999999999998
100
AcDbArc
 50
180.0
 51
132.4785290000005
  0
CIRCLE
  5
625
330
18
100
AcDbEntity
  8
1
  6
Continuous
100
AcDbCircle
 10
176.1256670455537
 20
81.32190265339408
 30
0.0
 40
6.0
  0
LINE
  5
626
330
18
100
AcDbEntity
  8
1
  6
Continuous
100
AcDbLine
 10
228.1256670455537
 20
74.32190265339411
 30
0.0
 11
228.1256670455537
 21
72.32190265339411
 31
0.0
  0
LINE
  5
628
330
18
100
AcDbEntity
  8
1
  6
Continuous
100
AcDbLine
 10
208.1256670455537
 20
91.82190265339407
 30
0.0
 11
208.1256670455537
 21
76.82190265339411
 31
0.0
  0
LINE
  5
629
330
18
100
AcDbEntity
  8
1
  6
Continuous
100
AcDbLine
 10
203.6256670455537
 20
94.32190265339407
 30
0.0
 11
185.1756670455537
 21
94.32190265339407
 31
0.0
  0
LINE
  5
62A
330
18
100
AcDbEntity
  8
1
  6
Continuous
100
AcDbLine
 10
206.1256670455537
 20
76.82190265339411
 30
0.0
 11
206.1256670455537
 21
91.82190265339407
 31
0.0
  0
LINE
  5
62B
330
18
100
AcDbEntity
  8
1
  6
Continuous
100
AcDbLine
 10
185.1756670455537
 20
96.3219026533941
 30
0.0
 11
203.6256670455537
 21
96.3219026533941
 31
0.0
  0
LINE
  5
62C
330
18
100
AcDbEntity
  8
1
  6
Continuous
100
AcDbLine
 10
183.1756670455537
 20
89.32190265339409
 30
0.0
 11
181.1756670455537
 21
89.32190265339409
 31
0.0
  0
ARC
  5
62D
330
18
100
AcDbEntity
  8
1
  6
Continuous
100
AcDbCircle
 10
185.1756670455537
 20
92.3219026533941
 30
0.0
 40
4.0
100
AcDbArc
 50
90.0
 51
180.0
  0
ARC
  5
62E
330
18
100
AcDbEntity
  8
1
  6
Continuous
100
AcDbCircle
 10
185.1756670455537
 20
92.3219026533941
 30
0.0
 40
2.0
100
AcDbArc
 50
90.0
 51
180.0
  0
ARC
  5
62F
330
18
100
AcDbEntity
  8
1
  6
Continuous
100
AcDbCircle
 10
176.1256670455537
 20
81.32190265339408
 30
0.0
 40
7.049999999999998
100
AcDbArc
 50
132.4785290000005
 51
135.7508300000001
  0
LINE
  5
630
330
18
100
AcDbEntity
  8
1
  6
Continuous
100
AcDbLine
 10
167.0756670455537
 20
111.3219026533941
 30
0.0
 11
171.0756670455537
 21
111.3219026533941
 31
0.0
  0
ARC
  5
631
330
18
100
AcDbEntity
  8
1
  6
Continuous
100
AcDbCircle
 10
165.0756670455536
 20
85.3219026533941
 30
0.0
 40
2.0
100
AcDbArc
 50
270.0
 51
0.0
  0
ARC
  5
632
330
18
100
AcDbEntity
  8
1
  6
Continuous
100
AcDbCircle
 10
165.0756670455536
 20
85.3219026533941
 30
0.0
 40
4.0
100
AcDbArc
 50
270.0
 51
0.0
  0
LINE
  5
8FA
330
18
100
AcDbEntity
  8
1
  6
Continuous
100
AcDbLine
 10
173.3756670455537
 20
208.3675456516965
 30
0.0
 11
172.0756670455537
 21
207.0675456516965
 31
0.0
  0
LINE
  5
8FD
330
18
100
AcDbEntity
  8
1
  6
Continuous
100
AcDbLine
 10
173.3756670455537
 20
207.0675456516965
 30
0.0
 11
172.0756670455537
 21
205.7675456516965
 31
0.0
  0
LINE
  5
8FF
330
18
100
AcDbEntity
  8
1
  6
Continuous
100
AcDbLine
 10
173.3756670455537
 20
187.0675456516963
 30
0.0
 11
172.0756670455537
 21
185.7675456516964
 31
0.0
  0
LINE
  5
900
330
18
100
AcDbEntity
  8
1
  6
Continuous
100
AcDbLine
 10
173.3756670455537
 20
188.3675456516963
 30
0.0
 11
172.0756670455537
 21
187.0675456516963
 31
0.0
  0
LINE
  5
901
330
18
100
AcDbEntity
  8
1
  6
Continuous
100
AcDbLine
 10
173.3756670464162
 20
102.3219026533329
 30
0.0
 11
172.0756670464162
 21
101.0219026533329
 31
0.0
  0
LINE
  5
902
330
18
100
AcDbEntity
  8
1
  6
Continuous
100
AcDbLine
 10
173.3756670464162
 20
103.6219026533329
 30
0.0
 11
172.0756670464162
 21
102.3219026533329
 31
0.0
  0
LINE
  5
904
330
18
100
AcDbEntity
  8
1
  6
Continuous
100
AcDbLine
 10
149.7756670455538
 20
85.62190265341838
 30
0.0
 11
151.0756670455537
 21
84.32190265341834
 31
0.0
  0
LINE
  5
905
330
18
100
AcDbEntity
  8
1
  6
Continuous
100
AcDbLine
 10
151.0756670455537
 20
85.62190265341838
 30
0.0
 11
152.3756670455537
 21
84.32190265341834
 31
0.0
  0
LINE
  5
907
330
18
100
AcDbEntity
  8
1
  6
Continuous
100
AcDbLine
 10
54.56377304196174
 20
187.0675456521543
 30
0.0
 11
53.26377304196174
 21
185.7675456521542
 31
0.0
  0
LINE
  5
908
330
18
100
AcDbEntity
  8
1
  6
Continuous
100
AcDbLine
 10
54.56377304196174
 20
188.3675456521542
 30
0.0
 11
53.26377304196174
 21
187.0675456521543
 31
0.0
  0
LINE
  5
909
330
18
100
AcDbEntity
  8
1
  6
Continuous
100
AcDbLine
 10
54.56377304196174
 20
207.0675456521544
 30
0.0
 11
53.26377304196174
 21
205.7675456521544
 31
0.0
  0
LINE
  5
90A
330
18
100
AcDbEntity
  8
1
  6
Continuous
100
AcDbLine
 10
54.56377304196174
 20
208.3675456521544
 30
0.0
 11
53.26377304196174
 21
207.0675456521544
 31
0.0
  0
LINE
  5
974
330
18
100
AcDbEntity
  8
1
  6
Continuous
100
AcDbLine
 10
145.5756670455536
 20
195.8978025541655
 30
0.0
 11
144.7907814783323
 21
196.2638007049361
 31
0.0
  0
LINE
  5
975
330
18
100
AcDbEntity
  8
1
  6
Continuous
100
AcDbLine
 10
145.5756670455536
 20
195.8978025541655
 30
0.0
 11
142.5756670455536
 21
195.8978025541655
 31
0.0
  0
CIRCLE
  5
982
330
18
100
AcDbEntity
  8
1
  6
Continuous
100
AcDbCircle
 10
143.3256670455536
 20
193.2340567657177
 30
0.0
 40
0.7499999999999997
  0
LINE
  5
983
330
18
100
AcDbEntity
  8
1
  6
Continuous
100
AcDbLine
 10
145.5756670455536
 20
193.2340567657176
 30
0.0
 11
143.5756670455536
 21
193.9411635469042
 31
0.0
  0
LINE
  5
984
330
18
100
AcDbEntity
  8
1
  6
Continuous
100
AcDbLine
 10
145.5756670455536
 20
189.9920737276888
 30
0.0
 11
145.5756670455536
 21
191.4920737276888
 31
0.0
  0
LINE
  5
985
330
18
100
AcDbEntity
  8
1
  6
Continuous
100
AcDbLine
 10
145.5756670455536
 20
189.9920737276888
 30
0.0
 11
142.5756670455536
 21
191.1170737276888
 31
0.0
  0
LINE
  5
99D
330
18
100
AcDbEntity
  8
1
  6
Continuous
100
AcDbLine
 10
144.0756670455536
 20
197.8169491360791
 30
0.0
 11
144.0756670455536
 21
199.2256269527771
 31
0.0
  0
LINE
  5
9AA
330
18
100
AcDbEntity
  8
1
  6
Continuous
100
AcDbLine
 10
145.5756670455536
 20
203.2675456521661
 30
0.0
 11
145.5756670455536
 21
205.0675456521661
 31
0.0
  0
LINE
  5
9AC
330
18
100
AcDbEntity
  8
1
  6
Continuous
100
AcDbLine
 10
145.5756670455536
 20
204.1675456521661
 30
0.0
 11
142.5756670455536
 21
204.1675456521661
 31
0.0
  0
LINE
  5
9AD
330
18
100
AcDbEntity
  8
1
  6
Continuous
100
AcDbLine
 10
144.0756670455536
 20
202.4248577847679
 30
0.0
 11
144.0756670455536
 21
200.6998577847679
 31
0.0
  0
LINE
  5
9AE
330
18
100
AcDbEntity
  8
1
  6
Continuous
100
AcDbLine
 10
145.5756670455536
 20
202.4248577847679
 30
0.0
 11
142.5756670455536
 21
202.4248577847679
 31
0.0
  0
LINE
  5
9AF
330
18
100
AcDbEntity
  8
1
  6
Continuous
100
AcDbLine
 10
145.5756670455536
 20
200.6998577847679
 30
0.0
 11
142.5756670455536
 21
200.6998577847679
 31
0.0
  0
LINE
  5
1396
330
18
100
AcDbEntity
  8
1
  6
Continuous
100
AcDbLine
 10
271.9875610491456
 20
194.0675456521632
 30
0.0
 11
271.9875610491456
 21
149.0675456521632
 31
0.0
  0
LINE
  5
1397
330
18
100
AcDbEntity
  8
1
  6
Continuous
100
AcDbLine
 10
310.9875610491456
 20
247.0675456521632
 30
0.0
 11
310.9875610491456
 21
147.0675456521632
 31
0.0
  0
LINE
  5
1399
330
18
100
AcDbEntity
  8
4
  6
CENTER
 48
0.25
100
AcDbLine
 10
301.9875610491456
 20
252.0675456521633
 30
0.0
 11
301.9875610491456
 21
139.0675456521632
 31
0.0
  0
LINE
  5
139B
330
18
100
AcDbEntity
  8
1
  6
Continuous
100
AcDbLine
 10
310.9875610491456
 20
147.0675456521632
 30
0.0
 11
273.9875610491456
 21
147.0675456521632
 31
0.0
  0
LINE
  5
139C
330
18
100
AcDbEntity
  8
1
  6
Continuous
100
AcDbLine
 10
295.9875610491456
 20
144.0675456521631
 30
0.0
 11
307.9875610491456
 21
144.0675456521633
 31
0.0
  0
LINE
  5
139F
330
18
100
AcDbEntity
  8
1
  6
Continuous
100
AcDbLine
 10
307.9875610491456
 20
147.0675456521632
 30
0.0
 11
307.9875610491456
 21
144.0675456521633
 31
0.0
  0
LINE
  5
13A1
330
18
100
AcDbEntity
  8
4
  6
CENTER
 48
0.25
100
AcDbLine
 10
313.4875610499957
 20
161.0675456521554
 30
0.0
 11
306.7006645299199
 21
161.0675456521567
 31
0.0
  0
LINE
  5
13A8
330
18
100
AcDbEntity
  8
1
  6
Continuous
100
AcDbLine
 10
295.9875610491456
 20
144.0675456521631
 30
0.0
 11
295.9875610491456
 21
147.0675456521632
 31
0.0
  0
ARC
  5
13A9
330
18
100
AcDbEntity
  8
1
  6
Continuous
100
AcDbCircle
 10
273.9875610491456
 20
149.0675456521632
 30
0.0
 40
2.0
100
AcDbArc
 50
180.0
 51
270.0
  0
LINE
  5
13CC
330
18
100
AcDbEntity
  8
1
  6
Continuous
100
AcDbLine
 10
308.9875610491456
 20
247.0675456521632
 30
0.0
 11
308.9875610491456
 21
147.0675456521632
 31
0.0
  0
LINE
  5
13CD
330
18
100
AcDbEntity
  8
1
  6
Continuous
100
AcDbLine
 10
271.9875610491456
 20
245.0675456521632
 30
0.0
 11
271.9875610491456
 21
200.0675456521633
 31
0.0
  0
LINE
  5
13D1
330
18
100
AcDbEntity
  8
4
  6
CENTER
 48
0.25
100
AcDbLine
 10
315.9875610491549
 20
197.0675456521548
 30
0.0
 11
266.9875610491462
 21
197.067545652164
 31
0.0
  0
LINE
  5
1411
330
18
100
AcDbEntity
  8
1
  6
Continuous
100
AcDbLine
 10
271.9875610491456
 20
194.0675456521632
 30
0.0
 11
273.7196120491457
 21
197.0675456521632
 31
0.0
  0
LINE
  5
1412
330
18
100
AcDbEntity
  8
1
  6
Continuous
100
AcDbLine
 10
273.7196120491456
 20
197.0675456521632
 30
0.0
 11
271.9875610491456
 21
200.0675456521633
 31
0.0
  0
LINE
  5
1436
330
18
100
AcDbEntity
  8
1
  6
Continuous
100
AcDbLine
 10
310.9875610491456
 20
247.0675456521632
 30
0.0
 11
273.9875610491456
 21
247.0675456521632
 31
0.0
  0
LINE
  5
1438
330
18
100
AcDbEntity
  8
4
  6
CENTER
 48
0.25
100
AcDbLine
 10
313.487561050009
 20
233.0675456521554
 30
0.0
 11
306.7006645299333
 21
233.0675456521567
 31
0.0
  0
ARC
  5
143A
330
18
100
AcDbEntity
  8
1
  6
Continuous
100
AcDbCircle
 10
273.9875610491456
 20
245.0675456521632
 30
0.0
 40
2.0
100
AcDbArc
 50
90.00000000000005
 51
180.0
  0
LINE
  5
14BE
330
18
100
AcDbEntity
  8
1
  6
Continuous
100
AcDbLine
 10
146.8256670455536
 20
308.0131886509096
 30
0.0
 11
155.3256670455537
 21
308.0131886509099
 31
0.0
  0
LINE
  5
14BF
330
18
100
AcDbEntity
  8
1
  6
Continuous
100
AcDbLine
 10
146.075667045489
 20
309.8131886509097
 30
0.0
 11
156.075667045489
 21
309.8131886509097
 31
0.0
  0
LINE
  5
14C0
330
18
100
AcDbEntity
  8
1
  6
Continuous
100
AcDbLine
 10
146.475667045489
 20
308.5131886509098
 30
0.0
 11
155.6756670454889
 21
308.5131886509098
 31
0.0
  0
LINE
  5
14C1
330
18
100
AcDbEntity
  8
1
  6
Continuous
100
AcDbLine
 10
147.3256670455536
 20
303.5131886509097
 30
0.0
 11
154.8256670455536
 21
303.5131886509097
 31
0.0
  0
LINE
  5
14C2
330
18
100
AcDbEntity
  8
1
  6
Continuous
100
AcDbLine
 10
146.8256670455536
 20
304.0131886509097
 30
0.0
 11
155.3256670455536
 21
304.0131886509095
 31
0.0
  0
LINE
  5
14C3
330
18
100
AcDbEntity
  8
1
  6
Continuous
100
AcDbLine
 10
138.5756670455537
 20
319.813188650934
 30
0.0
 11
163.5756670455537
 21
319.813188650934
 31
0.0
  0
LINE
  5
14C4
330
18
100
AcDbEntity
  8
1
  6
Continuous
100
AcDbLine
 10
138.5756670455537
 20
321.813188650934
 30
0.0
 11
163.5756670455537
 21
321.813188650934
 31
0.0
  0
LINE
  5
14C5
330
18
100
AcDbEntity
  8
1
  6
Continuous
100
AcDbLine
 10
138.5756670455537
 20
310.813188650934
 30
0.0
 11
165.0756670455536
 21
310.813188650934
 31
0.0
  0
LINE
  5
14C6
330
18
100
AcDbEntity
  8
1
  6
Continuous
100
AcDbLine
 10
138.5756670455537
 20
312.813188650934
 30
0.0
 11
165.0756670455536
 21
312.813188650934
 31
0.0
  0
LINE
  5
14CB
330
18
100
AcDbEntity
  8
1
  6
Continuous
100
AcDbLine
 10
138.5756670455537
 20
321.813188650934
 30
0.0
 11
138.5756670455537
 21
310.813188650934
 31
0.0
  0
LINE
  5
14CD
330
18
100
AcDbEntity
  8
1
  6
Continuous
100
AcDbLine
 10
146.8256670455536
 20
304.0131886509097
 30
0.0
 11
146.8256670455536
 21
308.0131886509095
 31
0.0
  0
LINE
  5
14CE
330
18
100
AcDbEntity
  8
1
  6
Continuous
100
AcDbLine
 10
146.075667045489
 20
309.8131886509097
 30
0.0
 11
146.075667045489
 21
310.8131886509097
 31
0.0
  0
LINE
  5
14CF
330
18
100
AcDbEntity
  8
1
  6
Continuous
100
AcDbLine
 10
146.475667045489
 20
308.5131886509098
 30
0.0
 11
146.475667045489
 21
309.8131886509097
 31
0.0
  0
LINE
  5
14D0
330
18
100
AcDbEntity
  8
1
  6
Continuous
100
AcDbLine
 10
146.8256670455535
 20
308.0131886509097
 30
0.0
 11
147.3256670455536
 21
308.5131886509099
 31
0.0
  0
LINE
  5
14D1
330
18
100
AcDbEntity
  8
1
  6
Continuous
100
AcDbLine
 10
146.8256670455536
 20
304.0131886509099
 30
0.0
 11
147.3256670455536
 21
303.5131886509099
 31
0.0
  0
LINE
  5
14D2
330
18
100
AcDbEntity
  8
1
  6
Continuous
100
AcDbLine
 10
163.0756670458585
 20
285.8131886509645
 30
0.0
 11
163.0756670457671
 21
297.8131886509645
 31
0.0
  0
LINE
  5
14D3
330
18
100
AcDbEntity
  8
1
  6
Continuous
100
AcDbLine
 10
167.0756670455537
 20
308.813188650934
 30
0.0
 11
167.0756670455537
 21
282.8131886509341
 31
0.0
  0
LINE
  5
14D4
330
18
100
AcDbEntity
  8
1
  6
Continuous
100
AcDbLine
 10
169.0756670455536
 20
312.813188650934
 30
0.0
 11
169.0756670455536
 21
282.8131886509341
 31
0.0
  0
LINE
  5
14D5
330
18
100
AcDbEntity
  8
1
  6
Continuous
100
AcDbLine
 10
171.0756670455537
 20
307.8938391004345
 30
0.0
 11
171.0756670455537
 21
282.8131886509341
 31
0.0
  0
ARC
  5
14D6
330
18
100
AcDbEntity
  8
1
  6
Continuous
100
AcDbCircle
 10
203.6256670455537
 20
302.313188650934
 30
0.0
 40
4.5
100
AcDbArc
 50
270.0
 51
0.0
  0
ARC
  5
14D7
330
18
100
AcDbEntity
  8
1
  6
Continuous
100
AcDbCircle
 10
185.1756670455537
 20
301.813188650934
 30
0.0
 40
4.0
100
AcDbArc
 50
180.0
 51
270.0
  0
ARC
  5
14D8
330
18
100
AcDbEntity
  8
1
  6
Continuous
100
AcDbCircle
 10
210.6256670455537
 20
317.313188650934
 30
0.0
 40
4.5
100
AcDbArc
 50
90.00000000000005
 51
180.0
  0
ARC
  5
14D9
330
18
100
AcDbEntity
  8
1
  6
Continuous
100
AcDbCircle
 10
210.6256670455537
 20
317.313188650934
 30
0.0
 40
2.5
100
AcDbArc
 50
90.00000000000005
 51
180.0
  0
LINE
  5
14EB
330
18
100
AcDbEntity
  8
4
  6
CENTER
 48
0.25
100
AcDbLine
 10
186.1756670455537
 20
312.813188650934
 30
0.0
 11
166.0756670455536
 21
312.813188650934
 31
0.0
  0
ARC
  5
14EE
330
18
100
AcDbEntity
  8
1
  6
Continuous
100
AcDbCircle
 10
176.1256670455537
 20
312.813188650934
 30
0.0
 40
7.049999999999998
100
AcDbArc
 50
0.0
 51
315.7508304132714
  0
LINE
  5
14F1
330
18
100
AcDbEntity
  8
1
  6
Continuous
100
AcDbLine
 10
163.5756670455537
 20
321.813188650934
 30
0.0
 11
163.5756670455537
 21
312.813188650934
 31
0.0
  0
LINE
  5
14F2
330
18
100
AcDbEntity
  8
4
  6
CENTER
 48
0.25
100
AcDbLine
 10
176.1256670455537
 20
302.763188650934
 30
0.0
 11
176.1256670455537
 21
322.8631886509341
 31
0.0
  0
LINE
  5
14F3
330
18
100
AcDbEntity
  8
4
  6
CENTER
 48
0.25
100
AcDbLine
 10
151.0756670455537
 20
299.5131886509097
 30
0.0
 11
151.0756670455537
 21
325.813188650934
 31
0.0
  0
LINE
  5
14F4
330
18
100
AcDbEntity
  8
1
  6
Continuous
100
AcDbLine
 10
167.0756670454395
 20
297.813188650995
 30
0.0
 11
163.0756670454395
 21
297.8131886509645
 31
0.0
  0
LINE
  5
14F5
330
18
100
AcDbEntity
  8
1
  6
Continuous
100
AcDbLine
 10
155.3256670455537
 20
304.0131886509095
 30
0.0
 11
155.3256670455537
 21
308.0131886509097
 31
0.0
  0
LINE
  5
14F6
330
18
100
AcDbEntity
  8
1
  6
Continuous
100
AcDbLine
 10
156.075667045489
 20
309.8131886509097
 30
0.0
 11
156.075667045489
 21
310.8131886509097
 31
0.0
  0
LINE
  5
14F7
330
18
100
AcDbEntity
  8
1
  6
Continuous
100
AcDbLine
 10
151.0756670455537
 20
308.5131886509098
 30
0.0
 11
149.7756670455537
 21
309.8131886509098
 31
0.0
  0
LINE
  5
14F8
330
18
100
AcDbEntity
  8
1
  6
Continuous
100
AcDbLine
 10
152.3756670455537
 20
308.5131886509098
 30
0.0
 11
151.0756670455537
 21
309.8131886509098
 31
0.0
  0
LINE
  5
14F9
330
18
100
AcDbEntity
  8
1
  6
Continuous
100
AcDbLine
 10
155.3256670455537
 20
308.0131886509099
 30
0.0
 11
154.8256670455538
 21
308.5131886509098
 31
0.0
  0
LINE
  5
14FA
330
18
100
AcDbEntity
  8
1
  6
Continuous
100
AcDbLine
 10
155.6756670454889
 20
308.5131886509098
 30
0.0
 11
155.6756670454889
 21
309.8131886509097
 31
0.0
  0
LINE
  5
14FB
330
18
100
AcDbEntity
  8
1
  6
Continuous
100
AcDbLine
 10
155.3256670455537
 20
304.0131886509097
 30
0.0
 11
154.8256670455538
 21
303.5131886509097
 31
0.0
  0
ARC
  5
14FD
330
18
100
AcDbEntity
  8
1
  6
Continuous
100
AcDbCircle
 10
176.1256670455537
 20
312.813188650934
 30
0.0
 40
7.049999999999998
100
AcDbArc
 50
224.2491699999998
 51
227.5214709999995
  0
ARC
  5
14FE
330
18
100
AcDbEntity
  8
1
  6
Continuous
100
AcDbCircle
 10
165.0756670455536
 20
308.813188650934
 30
0.0
 40
4.0
100
AcDbArc
 50
0.0
 51
90.00000000000005
  0
ARC
  5
14FF
330
18
100
AcDbEntity
  8
1
  6
Continuous
100
AcDbCircle
 10
165.0756670455536
 20
308.813188650934
 30
0.0
 40
2.0
100
AcDbArc
 50
0.0
 51
90.00000000000005
  0
LINE
  5
1508
330
18
100
AcDbEntity
  8
1
  6
Continuous
100
AcDbLine
 10
203.6256670455537
 20
299.8131886509341
 30
0.0
 11
185.1756670455537
 21
299.8131886509341
 31
0.0
  0
LINE
  5
1509
330
18
100
AcDbEntity
  8
1
  6
Continuous
100
AcDbLine
 10
185.1756670455537
 20
297.813188650934
 30
0.0
 11
203.6256670455537
 21
297.813188650934
 31
0.0
  0
LINE
  5
150A
330
18
100
AcDbEntity
  8
1
  6
Continuous
100
AcDbLine
 10
183.1756670455537
 20
312.813188650934
 30
0.0
 11
183.1756670455537
 21
301.813188650934
 31
0.0
  0
LINE
  5
150B
330
18
100
AcDbEntity
  8
1
  6
Continuous
100
AcDbLine
 10
181.1756670455537
 20
312.813188650934
 30
0.0
 11
181.1756670455537
 21
301.813188650934
 31
0.0
  0
ARC
  5
150E
330
18
100
AcDbEntity
  8
1
  6
Continuous
100
AcDbCircle
 10
185.1756670455537
 20
301.813188650934
 30
0.0
 40
2.0
100
AcDbArc
 50
180.0
 51
270.0
  0
LINE
  5
150F
330
18
100
AcDbEntity
  8
1
  6
Continuous
100
AcDbLine
 10
206.1256670455537
 20
317.313188650934
 30
0.0
 11
206.1256670455537
 21
302.313188650934
 31
0.0
  0
LINE
  5
1510
330
18
100
AcDbEntity
  8
1
  6
Continuous
100
AcDbLine
 10
208.1256670455537
 20
302.313188650934
 30
0.0
 11
208.1256670455537
 21
317.313188650934
 31
0.0
  0
ARC
  5
1511
330
18
100
AcDbEntity
  8
1
  6
Continuous
100
AcDbCircle
 10
203.6256670455537
 20
302.313188650934
 30
0.0
 40
2.5
100
AcDbArc
 50
270.0
 51
0.0
  0
LINE
  5
1513
330
18
100
AcDbEntity
  8
4
  6
CENTER
 48
0.25
100
AcDbLine
 10
218.1256670455537
 20
315.8131886509341
 30
0.0
 11
218.1256670455537
 21
325.813188650934
 31
0.0
  0
LINE
  5
1514
330
18
100
AcDbEntity
  8
1
  6
Continuous
100
AcDbLine
 10
210.6256670455537
 20
321.813188650934
 30
0.0
 11
228.1256670455537
 21
321.813188650934
 31
0.0
  0
LINE
  5
1515
330
18
100
AcDbEntity
  8
1
  6
Continuous
100
AcDbLine
 10
210.6256670455537
 20
319.813188650934
 30
0.0
 11
228.1256670455537
 21
319.813188650934
 31
0.0
  0
LINE
  5
1516
330
18
100
AcDbEntity
  8
1
  6
Continuous
100
AcDbLine
 10
228.1256670455537
 20
319.813188650934
 30
0.0
 11
228.1256670455537
 21
321.813188650934
 31
0.0
  0
LINE
  5
1517
330
18
100
AcDbEntity
  8
4
  6
CENTER
 48
0.25
100
AcDbLine
 10
157.3756670464162
 20
291.8131886509952
 30
0.0
 11
182.3756670464163
 21
291.8131886509952
 31
0.0
  0
LINE
  5
1518
330
18
100
AcDbEntity
  8
1
  6
Continuous
100
AcDbLine
 10
167.0756670455309
 20
285.813188650995
 30
0.0
 11
163.0756670455309
 21
285.8131886509645
 31
0.0
  0
LINE
  5
1519
330
18
100
AcDbEntity
  8
1
  6
Continuous
100
AcDbLine
 10
161.3756670464162
 20
294.3131886509951
 30
0.0
 11
161.3756670464162
 21
289.3131886509952
 31
0.0
  0
LINE
  5
151A
330
18
100
AcDbEntity
  8
2
  6
Continuous
100
AcDbLine
 10
161.3756670464162
 20
293.8801886509939
 30
0.0
 11
163.0756670457971
 21
293.8801886509937
 31
0.0
  0
LINE
  5
151B
330
18
100
AcDbEntity
  8
1
  6
Continuous
100
AcDbLine
 10
163.0756670457938
 20
294.3131886509951
 30
0.0
 11
161.3756670464162
 21
294.3131886509951
 31
0.0
  0
LINE
  5
151C
330
18
100
AcDbEntity
  8
2
  6
Continuous
100
AcDbLine
 10
161.3756670464162
 20
289.7461886510069
 30
0.0
 11
163.0756670458286
 21
289.7461886510094
 31
0.0
  0
LINE
  5
151D
330
18
100
AcDbEntity
  8
1
  6
Continuous
100
AcDbLine
 10
161.3756670464162
 20
289.3131886509952
 30
0.0
 11
163.0756670458318
 21
289.3131886509952
 31
0.0
  0
LINE
  5
151E
330
18
100
AcDbEntity
  8
1
  6
Continuous
100
AcDbLine
 10
172.0756670464163
 20
296.8131886509949
 30
0.0
 11
171.0756670464163
 21
296.8131886509949
 31
0.0
  0
LINE
  5
151F
330
18
100
AcDbEntity
  8
1
  6
Continuous
100
AcDbLine
 10
172.0756670464163
 20
286.8131886509949
 30
0.0
 11
171.0756670464163
 21
286.8131886509949
 31
0.0
  0
LINE
  5
1520
330
18
100
AcDbEntity
  8
1
  6
Continuous
100
AcDbLine
 10
173.8756670464163
 20
287.5631886509951
 30
0.0
 11
173.8756670464161
 21
296.0631886509951
 31
0.0
  0
LINE
  5
1521
330
18
100
AcDbEntity
  8
1
  6
Continuous
100
AcDbLine
 10
178.3756670464163
 20
288.0631886509951
 30
0.0
 11
178.3756670464163
 21
295.5631886509952
 31
0.0
  0
LINE
  5
1522
330
18
100
AcDbEntity
  8
1
  6
Continuous
100
AcDbLine
 10
177.8756670464162
 20
287.5631886509951
 30
0.0
 11
177.8756670464162
 21
296.0631886509951
 31
0.0
  0
LINE
  5
1523
330
18
100
AcDbEntity
  8
1
  6
Continuous
100
AcDbLine
 10
172.0756670464163
 20
296.8131886509949
 30
0.0
 11
172.0756670464163
 21
286.8131886509949
 31
0.0
  0
LINE
  5
1524
330
18
100
AcDbEntity
  8
1
  6
Continuous
100
AcDbLine
 10
173.3756670464162
 20
296.4131886509952
 30
0.0
 11
173.3756670464162
 21
287.2131886509952
 31
0.0
  0
LINE
  5
1525
330
18
100
AcDbEntity
  8
1
  6
Continuous
100
AcDbLine
 10
177.8756670464164
 20
296.0631886509951
 30
0.0
 11
173.8756670464162
 21
296.0631886509951
 31
0.0
  0
LINE
  5
1526
330
18
100
AcDbEntity
  8
1
  6
Continuous
100
AcDbLine
 10
173.8756670464162
 20
296.0631886509951
 30
0.0
 11
173.3756670464162
 21
295.5631886509952
 31
0.0
  0
LINE
  5
1527
330
18
100
AcDbEntity
  8
1
  6
Continuous
100
AcDbLine
 10
173.3756670464162
 20
296.4131886509952
 30
0.0
 11
172.0756670464163
 21
296.4131886509952
 31
0.0
  0
LINE
  5
1528
330
18
100
AcDbEntity
  8
1
  6
Continuous
100
AcDbLine
 10
177.8756670464162
 20
296.0631886509951
 30
0.0
 11
178.3756670464162
 21
295.5631886509952
 31
0.0
  0
LINE
  5
1529
330
18
100
AcDbEntity
  8
1
  6
Continuous
100
AcDbLine
 10
177.8756670464162
 20
287.5631886509951
 30
0.0
 11
173.8756670464164
 21
287.5631886509951
 31
0.0
  0
LINE
  5
152A
330
18
100
AcDbEntity
  8
1
  6
Continuous
100
AcDbLine
 10
173.8756670464162
 20
287.5631886509951
 30
0.0
 11
173.3756670464161
 21
288.0631886509952
 31
0.0
  0
LINE
  5
152B
330
18
100
AcDbEntity
  8
1
  6
Continuous
100
AcDbLine
 10
173.3756670464162
 20
287.2131886509952
 30
0.0
 11
172.0756670464163
 21
287.2131886509952
 31
0.0
  0
LINE
  5
152C
330
18
100
AcDbEntity
  8
1
  6
Continuous
100
AcDbLine
 10
173.3756670464162
 20
291.8131886509952
 30
0.0
 11
172.0756670464162
 21
290.5131886509952
 31
0.0
  0
LINE
  5
152D
330
18
100
AcDbEntity
  8
1
  6
Continuous
100
AcDbLine
 10
173.3756670464162
 20
293.1131886509951
 30
0.0
 11
172.0756670464162
 21
291.8131886509952
 31
0.0
  0
LINE
  5
152E
330
18
100
AcDbEntity
  8
1
  6
Continuous
100
AcDbLine
 10
177.8756670464161
 20
287.5631886509951
 30
0.0
 11
178.3756670464162
 21
288.0631886509952
 31
0.0
  0
LINE
  5
152F
330
18
100
AcDbEntity
  8
1
  6
Continuous
100
AcDbLine
 10
167.0756670455537
 20
282.8131886509341
 30
0.0
 11
171.0756670455537
 21
282.8131886509341
 31
0.0
  0
LINE
  5
1654
330
18
100
AcDbEntity
  8
4
  6
CENTER
 48
0.25
100
AcDbLine
 10
449.2994550527375
 20
161.067545652164
 30
0.0
 11
456.4994550527375
 21
161.067545652164
 31
0.0
  0
LINE
  5
1655
330
18
100
AcDbEntity
  8
1
  6
Continuous
100
AcDbLine
 10
442.3994550527375
 20
156.067545652164
 30
0.0
 11
463.3994550527375
 21
156.067545652164
 31
0.0
  0
LINE
  5
1656
330
18
100
AcDbEntity
  8
4
  6
CENTER
 48
0.25
100
AcDbLine
 10
470.3994550527375
 20
197.067545652164
 30
0.0
 11
370.8494550527375
 21
197.0675456521641
 31
0.0
  0
LINE
  5
165A
330
18
100
AcDbEntity
  8
1
  6
Continuous
100
AcDbLine
 10
440.3994550527376
 20
177.0675456521641
 30
0.0
 11
434.8994550527375
 21
177.067545652164
 31
0.0
  0
LINE
  5
1661
330
18
100
AcDbEntity
  8
1
  6
Continuous
100
AcDbLine
 10
440.3994550527374
 20
217.0675456521641
 30
0.0
 11
434.8994550527375
 21
217.0675456521641
 31
0.0
  0
LINE
  5
1662
330
18
100
AcDbEntity
  8
1
  6
Continuous
100
AcDbLine
 10
440.3994550527374
 20
222.8175456521632
 30
0.0
 11
465.3994550527374
 21
222.8175456521632
 31
0.0
  0
LINE
  5
1663
330
18
100
AcDbEntity
  8
4
  6
CENTER
 48
0.25
100
AcDbLine
 10
449.2994550527375
 20
233.0675456521641
 30
0.0
 11
456.4994550527375
 21
233.0675456521641
 31
0.0
  0
LINE
  5
1664
330
18
100
AcDbEntity
  8
1
  6
Continuous
100
AcDbLine
 10
442.3994550527375
 20
238.0675456521641
 30
0.0
 11
463.3994550527375
 21
238.0675456521641
 31
0.0
  0
LINE
  5
1667
330
18
100
AcDbEntity
  8
1
  6
Continuous
100
AcDbLine
 10
465.3994550527374
 20
158.0675456521641
 30
0.0
 11
465.3994550527374
 21
195.067545652164
 31
0.0
  0
ARC
  5
1668
330
18
100
AcDbEntity
  8
1
  6
Continuous
100
AcDbCircle
 10
463.3994550527375
 20
158.0675456521641
 30
0.0
 40
2.0
100
AcDbArc
 50
270.0
 51
0.000000000000007
  0
LINE
  5
166D
330
18
100
AcDbEntity
  8
1
  6
Continuous
100
AcDbLine
 10
465.3994550527374
 20
199.067545652164
 30
0.0
 11
465.3994550527374
 21
236.0675456521641
 31
0.0
  0
ARC
  5
1672
330
18
100
AcDbEntity
  8
1
  6
Continuous
100
AcDbCircle
 10
465.3994550527374
 20
197.067545652164
 30
0.0
 40
2.0
100
AcDbArc
 50
90.0
 51
270.0
  0
ARC
  5
167F
330
18
100
AcDbEntity
  8
1
  6
Continuous
100
AcDbCircle
 10
463.3994550527375
 20
236.0675456521641
 30
0.0
 40
2.0
100
AcDbArc
 50
0.000000000000007
 51
90.0
  0
LINE
  5
1684
330
18
100
AcDbEntity
  8
1
  6
Continuous
100
AcDbLine
 10
397.8494550527375
 20
247.0675456521641
 30
0.0
 11
397.8494550527375
 21
147.067545652164
 31
0.0
  0
LINE
  5
1685
330
18
100
AcDbEntity
  8
1
  6
Continuous
100
AcDbLine
 10
375.8494550527375
 20
245.0675456521641
 30
0.0
 11
375.8494550527375
 21
149.067545652164
 31
0.0
  0
LINE
  5
1688
330
18
100
AcDbEntity
  8
1
  6
Continuous
100
AcDbLine
 10
434.8994550527375
 20
147.067545652164
 30
0.0
 11
434.8994550527375
 21
247.0675456521641
 31
0.0
  0
LINE
  5
168A
330
18
100
AcDbEntity
  8
1
  6
Continuous
100
AcDbLine
 10
420.7994550527375
 20
247.0675456521641
 30
0.0
 11
420.7994550527375
 21
147.067545652164
 31
0.0
  0
LINE
  5
168B
330
18
100
AcDbEntity
  8
4
  6
CENTER
 48
0.25
100
AcDbLine
 10
427.8494550527375
 20
139.067545652164
 30
0.0
 11
427.8494550527375
 21
252.0675456521641
 31
0.0
  0
LINE
  5
168C
330
18
100
AcDbEntity
  8
1
  6
Continuous
100
AcDbLine
 10
434.8994550527375
 20
147.067545652164
 30
0.0
 11
377.8494550527375
 21
147.067545652164
 31
0.0
  0
LINE
  5
168D
330
18
100
AcDbEntity
  8
1
  6
Continuous
100
AcDbLine
 10
421.8494550527374
 20
144.067545652164
 30
0.0
 11
433.8494550527374
 21
144.067545652164
 31
0.0
  0
CIRCLE
  5
168E
330
18
100
AcDbEntity
  8
1
  6
Continuous
100
AcDbCircle
 10
452.8994550527374
 20
161.067545652164
 30
0.0
 40
2.1
  0
LINE
  5
168F
330
18
100
AcDbEntity
  8
4
  6
CENTER
 48
0.25
100
AcDbLine
 10
452.8994550527374
 20
164.6675456521641
 30
0.0
 11
452.8994550527374
 21
157.4675456521641
 31
0.0
  0
LINE
  5
1691
330
18
100
AcDbEntity
  8
1
  6
Continuous
100
AcDbLine
 10
440.3994550527374
 20
158.0675456521641
 30
0.0
 11
440.3994550527374
 21
236.0675456521641
 31
0.0
  0
ARC
  5
1692
330
18
100
AcDbEntity
  8
1
  6
Continuous
100
AcDbCircle
 10
442.3994550527375
 20
158.0675456521641
 30
0.0
 40
2.0
100
AcDbArc
 50
180.0
 51
270.0
  0
LINE
  5
1693
330
18
100
AcDbEntity
  8
1
  6
Continuous
100
AcDbLine
 10
433.8494550527374
 20
147.067545652164
 30
0.0
 11
433.8494550527374
 21
144.067545652164
 31
0.0
  0
LINE
  5
16B1
330
18
100
AcDbEntity
  8
1
  6
Continuous
100
AcDbLine
 10
421.8494550527374
 20
144.067545652164
 30
0.0
 11
421.8494550527374
 21
147.067545652164
 31
0.0
  0
CIRCLE
  5
16B3
330
18
100
AcDbEntity
  8
1
  6
Continuous
100
AcDbCircle
 10
385.8494550527375
 20
161.067545652164
 30
0.0
 40
2.1
  0
LINE
  5
16B4
330
18
100
AcDbEntity
  8
4
  6
CENTER
 48
0.25
100
AcDbLine
 10
385.8494550527375
 20
167.6675456521641
 30
0.0
 11
385.8494550527375
 21
154.4675456521641
 31
0.0
  0
ARC
  5
16B5
330
18
100
AcDbEntity
  8
1
  6
Continuous
100
AcDbCircle
 10
377.8494550527375
 20
149.067545652164
 30
0.0
 40
2.0
100
AcDbArc
 50
180.0
 51
270.0
  0
LINE
  5
16B6
330
18
100
AcDbEntity
  8
4
  6
CENTER
 48
0.25
100
AcDbLine
 10
379.2494550527375
 20
161.067545652164
 30
0.0
 11
392.4494550527374
 21
161.067545652164
 31
0.0
  0
LINE
  5
16B7
330
18
100
AcDbEntity
  8
1
  6
Continuous
100
AcDbLine
 10
434.8994550527375
 20
247.0675456521641
 30
0.0
 11
377.8494550527375
 21
247.0675456521641
 31
0.0
  0
LINE
  5
16BA
330
18
100
AcDbEntity
  8
1
  6
Continuous
100
AcDbLine
 10
420.7994550527375
 20
195.5675456521641
 30
0.0
 11
434.8994550527375
 21
195.5675456521641
 31
0.0
  0
LINE
  5
16BB
330
18
100
AcDbEntity
  8
1
  6
Continuous
100
AcDbLine
 10
420.7994550527375
 20
198.567545652164
 30
0.0
 11
434.8994550527375
 21
198.567545652164
 31
0.0
  0
LINE
  5
1714
330
18
100
AcDbEntity
  8
1
  6
Continuous
100
AcDbLine
 10
426.7994550528522
 20
198.567545652164
 30
0.0
 11
427.1202130528521
 21
198.567545652164
 31
0.0
  0
ARC
  5
1744
330
18
100
AcDbEntity
  8
1
  6
Continuous
100
AcDbCircle
 10
442.3994550527375
 20
236.0675456521641
 30
0.0
 40
2.0
100
AcDbArc
 50
90.0
 51
180.0
  0
LINE
  5
1745
330
18
100
AcDbEntity
  8
4
  6
CENTER
 48
0.25
100
AcDbLine
 10
452.8994550527374
 20
236.6675456521641
 30
0.0
 11
452.8994550527374
 21
229.4675456521641
 31
0.0
  0
CIRCLE
  5
1746
330
18
100
AcDbEntity
  8
1
  6
Continuous
100
AcDbCircle
 10
452.8994550527374
 20
233.0675456521641
 30
0.0
 40
2.1
  0
LINE
  5
1748
330
18
100
AcDbEntity
  8
4
  6
CENTER
 48
0.25
100
AcDbLine
 10
385.8494550527375
 20
203.6675456521641
 30
0.0
 11
385.8494550527375
 21
190.4675456521641
 31
0.0
  0
CIRCLE
  5
1749
330
18
100
AcDbEntity
  8
1
  6
Continuous
100
AcDbCircle
 10
385.8494550527375
 20
197.067545652164
 30
0.0
 40
2.1
  0
ARC
  5
174A
330
18
100
AcDbEntity
  8
1
  6
Continuous
100
AcDbCircle
 10
377.8494550527375
 20
245.0675456521641
 30
0.0
 40
2.0
100
AcDbArc
 50
90.0
 51
180.0
  0
LINE
  5
174C
330
18
100
AcDbEntity
  8
4
  6
CENTER
 48
0.25
100
AcDbLine
 10
385.8494550527375
 20
239.6675456521641
 30
0.0
 11
385.8494550527375
 21
226.4675456521641
 31
0.0
  0
LINE
  5
174D
330
18
100
AcDbEntity
  8
4
  6
CENTER
 48
0.25
100
AcDbLine
 10
379.2494550527375
 20
233.0675456521641
 30
0.0
 11
392.4494550527374
 21
233.0675456521641
 31
0.0
  0
CIRCLE
  5
174E
330
18
100
AcDbEntity
  8
1
  6
Continuous
100
AcDbCircle
 10
385.8494550527375
 20
233.0675456521641
 30
0.0
 40
2.1
  0
LINE
  5
18BA
330
18
100
AcDbEntity
  8
1
  6
Continuous
100
AcDbLine
 10
286.9875610491456
 20
247.0675456521632
 30
0.0
 11
286.9875610491456
 21
147.0675456521632
 31
0.0
  0
CIRCLE
  5
1931
330
18
100
AcDbEntity
  8
1
  6
Continuous
100
AcDbCircle
 10
280.9875610491456
 20
207.0675456516959
 30
0.0
 40
3.75
  0
CIRCLE
  5
1932
330
18
100
AcDbEntity
  8
1
  6
Continuous
100
AcDbCircle
 10
280.9875610491456
 20
207.0675456516959
 30
0.0
 40
4.25
  0
CIRCLE
  5
1933
330
18
100
AcDbEntity
  8
1
  6
Continuous
100
AcDbCircle
 10
280.9875610491456
 20
207.0675456516959
 30
0.0
 40
4.999999999999943
  0
LINE
  5
1934
330
18
100
AcDbEntity
  8
4
  6
CENTER
 48
0.25
100
AcDbLine
 10
287.9875610491456
 20
207.0675456521632
 30
0.0
 11
273.9875610491457
 21
207.0675456521632
 31
0.0
  0
LINE
  5
1935
330
18
100
AcDbEntity
  8
1
  6
Continuous
100
AcDbLine
 10
279.8328605107664
 20
209.067545651696
 30
0.0
 11
282.1422615875249
 21
209.0675456516959
 31
0.0
  0
LINE
  5
1936
330
18
100
AcDbEntity
  8
1
  6
Continuous
100
AcDbLine
 10
282.1422615875249
 20
209.0675456516959
 30
0.0
 11
283.2969621259041
 21
207.0675456516959
 31
0.0
  0
LINE
  5
1937
330
18
100
AcDbEntity
  8
1
  6
Continuous
100
AcDbLine
 10
283.2969621259041
 20
207.067545651696
 30
0.0
 11
282.1422615875247
 21
205.0675456516958
 31
0.0
  0
LINE
  5
1938
330
18
100
AcDbEntity
  8
1
  6
Continuous
100
AcDbLine
 10
278.678159972387
 20
207.0675456516958
 30
0.0
 11
279.8328605107664
 21
209.0675456516958
 31
0.0
  0
LINE
  5
1939
330
18
100
AcDbEntity
  8
1
  6
Continuous
100
AcDbLine
 10
282.1422615875247
 20
205.0675456516958
 30
0.0
 11
279.8328605107662
 21
205.067545651696
 31
0.0
  0
LINE
  5
193A
330
18
100
AcDbEntity
  8
1
  6
Continuous
100
AcDbLine
 10
279.8328605107662
 20
205.067545651696
 30
0.0
 11
278.6781599723871
 21
207.0675456516959
 31
0.0
  0
LINE
  5
193B
330
18
100
AcDbEntity
  8
4
  6
CENTER
 48
0.25
100
AcDbLine
 10
280.9875610491456
 20
178.9675456516956
 30
0.0
 11
280.9875610491456
 21
215.1675456516958
 31
0.0
  0
CIRCLE
  5
193C
330
18
100
AcDbEntity
  8
1
  6
Continuous
100
AcDbCircle
 10
280.9875610491456
 20
187.0675456516956
 30
0.0
 40
3.75
  0
CIRCLE
  5
193D
330
18
100
AcDbEntity
  8
1
  6
Continuous
100
AcDbCircle
 10
280.9875610491456
 20
187.0675456516956
 30
0.0
 40
4.25
  0
CIRCLE
  5
193E
330
18
100
AcDbEntity
  8
1
  6
Continuous
100
AcDbCircle
 10
280.9875610491456
 20
187.0675456516956
 30
0.0
 40
5.0
  0
LINE
  5
193F
330
18
100
AcDbEntity
  8
1
  6
Continuous
100
AcDbLine
 10
279.8328605107664
 20
189.0675456516958
 30
0.0
 11
282.1422615875249
 21
189.0675456516957
 31
0.0
  0
LINE
  5
1940
330
18
100
AcDbEntity
  8
1
  6
Continuous
100
AcDbLine
 10
282.1422615875249
 20
189.0675456516957
 30
0.0
 11
283.2969621259041
 21
187.0675456516956
 31
0.0
  0
LINE
  5
1941
330
18
100
AcDbEntity
  8
1
  6
Continuous
100
AcDbLine
 10
278.678159972387
 20
187.0675456516956
 30
0.0
 11
279.8328605107663
 21
189.0675456516957
 31
0.0
  0
LINE
  5
1942
330
18
100
AcDbEntity
  8
1
  6
Continuous
100
AcDbLine
 10
279.8328605107662
 20
185.0675456516958
 30
0.0
 11
278.6781599723871
 21
187.0675456516956
 31
0.0
  0
LINE
  5
1943
330
18
100
AcDbEntity
  8
1
  6
Continuous
100
AcDbLine
 10
282.1422615875247
 20
185.0675456516956
 30
0.0
 11
279.8328605107662
 21
185.0675456516958
 31
0.0
  0
LINE
  5
1944
330
18
100
AcDbEntity
  8
1
  6
Continuous
100
AcDbLine
 10
283.2969621259041
 20
187.0675456516958
 30
0.0
 11
282.1422615875247
 21
185.0675456516956
 31
0.0
  0
LINE
  5
1945
330
18
100
AcDbEntity
  8
4
  6
CENTER
 48
0.25
100
AcDbLine
 10
287.9875610491456
 20
187.0675456521633
 30
0.0
 11
273.9875610491456
 21
187.0675456521632
 31
0.0
  0
LINE
  5
1947
330
18
100
AcDbEntity
  8
4
  6
CENTER
 48
0.25
100
AcDbLine
 10
159.5756670446744
 20
207.0675456526318
 30
0.0
 11
180.3898383999865
 21
207.0675456526318
 31
0.0
  0
LINE
  5
1948
330
18
100
AcDbEntity
  8
4
  6
CENTER
 48
0.25
100
AcDbLine
 10
159.5756670446744
 20
187.0675456526316
 30
0.0
 11
180.3898383999865
 21
187.0675456526316
 31
0.0
  0
LINE
  5
194B
330
18
100
AcDbEntity
  8
1
  6
Continuous
100
AcDbLine
 10
440.3994550527374
 20
171.3175456521648
 30
0.0
 11
465.3994550527374
 21
171.3175456521648
 31
0.0
  0
ARC
  5
194D
330
18
100
AcDbEntity
  8
1
  6
Continuous
100
AcDbCircle
 10
452.8994550527374
 20
207.067545652164
 30
0.0
 40
6.0
100
AcDbArc
 50
0.0
 51
180.0
  0
CIRCLE
  5
194E
330
18
100
AcDbEntity
  8
2
  6
Continuous
100
AcDbCircle
 10
452.8994550527374
 20
207.067545652164
 30
0.0
 40
2.067000000109175
  0
CIRCLE
  5
194F
330
18
100
AcDbEntity
  8
1
  6
Continuous
100
AcDbCircle
 10
452.8994550527374
 20
207.067545652164
 30
0.0
 40
2.5
  0
LINE
  5
1950
330
18
100
AcDbEntity
  8
1
  6
Continuous
100
AcDbLine
 10
446.8994550527376
 20
207.067545652164
 30
0.0
 11
446.8994550527376
 21
187.067545652164
 31
0.0
  0
LINE
  5
1951
330
18
100
AcDbEntity
  8
4
  6
CENTER
 48
0.25
100
AcDbLine
 10
456.9994550527375
 20
207.067545652164
 30
0.0
 11
448.7994550527375
 21
207.067545652164
 31
0.0
  0
LINE
  5
1952
330
18
100
AcDbEntity
  8
4
  6
CENTER
 48
0.25
100
AcDbLine
 10
452.8994550527374
 20
211.167545652164
 30
0.0
 11
452.8994550527374
 21
182.967545652164
 31
0.0
  0
CIRCLE
  5
1953
330
18
100
AcDbEntity
  8
2
  6
Continuous
100
AcDbCircle
 10
452.8994550527374
 20
187.067545652164
 30
0.0
 40
2.067000000079048
  0
LINE
  5
1954
330
18
100
AcDbEntity
  8
4
  6
CENTER
 48
0.25
100
AcDbLine
 10
456.9994550527375
 20
187.067545652164
 30
0.0
 11
448.7994550527375
 21
187.067545652164
 31
0.0
  0
CIRCLE
  5
1955
330
18
100
AcDbEntity
  8
1
  6
Continuous
100
AcDbCircle
 10
452.8994550527374
 20
187.067545652164
 30
0.0
 40
2.5
  0
ARC
  5
1956
330
18
100
AcDbEntity
  8
1
  6
Continuous
100
AcDbCircle
 10
452.8994550527374
 20
187.067545652164
 30
0.0
 40
6.0
100
AcDbArc
 50
180.0
 51
0.0
  0
LINE
  5
1957
330
18
100
AcDbEntity
  8
1
  6
Continuous
100
AcDbLine
 10
458.8994550527375
 20
207.067545652164
 30
0.0
 11
458.8994550527375
 21
187.067545652164
 31
0.0
  0
CIRCLE
  5
1C6A
330
18
100
AcDbEntity
  8
1
  6
Continuous
100
AcDbCircle
 10
176.1256670455537
 20
312.813188650934
 30
0.0
 40
5.049999999999997
  0
LINE
  5
1C6B
330
18
100
AcDbEntity
  8
1
  6
Continuous
100
AcDbLine
 10
180.8866290455537
 20
307.613598650934
 30
0.0
 11
179.5360021306699
 21
309.0886598744007
 31
0.0
  0
CIRCLE
  5
1C86
330
18
100
AcDbEntity
  8
1
  6
Continuous
100
AcDbCircle
 10
176.1256670455537
 20
312.813188650934
 30
0.0
 40
4.049999999999997
  0
ENDSEC
  0
SECTION
  2
OBJECTS
  0
DICTIONARY
  5
C
330
0
100
AcDbDictionary
281
     1
  3
ACAD_CIP_PREVIOUS_PRODUCT_INFO
350
1D23
  3
ACAD_COLOR
350
1D06
  3
ACAD_DETAILVIEWSTYLE
350
1D1F
  3
ACAD_GROUP
350
D
  3
ACAD_LAYOUT
350
94
  3
ACAD_MATERIAL
350
1CD4
  3
ACAD_MLEADERSTYLE
350
1D1B
  3
ACAD_MLINESTYLE
350
1B
  3
ACAD_PLOTSETTINGS
350
95
  3
ACAD_PLOTSTYLENAME
350
1CD2
  3
ACAD_SCALELIST
350
1D09
  3
ACAD_SECTIONVIEWSTYLE
350
1D1D
  3
ACAD_TABLESTYLE
350
1D07
  3
ACAD_VISUALSTYLE
350
1CED
  3
ACDB_RECOMPOSE_DATA
350
1D41
  3
AcDbVariableDictionary
350
1D34
  3
CONTENTDICTIONARY
350
3D
  3
DWGPROPS
350
1D42
  0
DICTIONARY
  5
1D24
330
E
100
AcDbDictionary
280
     1
281
     1
  3
ADSK_XREC_LAYER_RECONCILED
360
1D25
  0
DICTIONARY
  5
1D26
330
4E
100
AcDbDictionary
280
     1
281
     1
  3
ADSK_XREC_LAYER_RECONCILED
360
1D27
  0
DICTIONARY
  5
1D28
330
4F
100
AcDbDictionary
280
     1
281
     1
  3
ADSK_XREC_LAYER_RECONCILED
360
1D29
  0
DICTIONARY
  5
1D2A
330
50
100
AcDbDictionary
280
     1
281
     1
  3
ADSK_XREC_LAYER_RECONCILED
360
1D2B
  0
DICTIONARY
  5
1D2C
330
51
100
AcDbDictionary
280
     1
281
     1
  3
ADSK_XREC_LAYER_RECONCILED
360
1D2D
  0
DICTIONARY
  5
1D2E
330
52
100
AcDbDictionary
280
     1
281
     1
  3
ADSK_XREC_LAYER_RECONCILED
360
1D2F
  0
DICTIONARY
  5
1D30
330
53
100
AcDbDictionary
280
     1
281
     1
  3
ADSK_XREC_LAYER_RECONCILED
360
1D31
  0
DICTIONARY
  5
1D32
330
54
100
AcDbDictionary
280
     1
281
     1
  3
ADSK_XREC_LAYER_RECONCILED
360
1D33
  0
DICTIONARY
  5
1CCD
330
18
100
AcDbDictionary
281
     1
  3
ACAD_LAYOUTSELFREF
350
1CCE
  0
DICTIONARY
  5
1CCB
330
15
100
AcDbDictionary
281
     1
  3
ACAD_LAYOUTSELFREF
350
1CCC
  0
XRECORD
  5
1D23
102
{ACAD_REACTORS
330
C
102
}
330
C
100
AcDbXrecord
280
     1
300
ACDLT
300
2014
300
ACDLT_F_S
  0
DICTIONARY
  5
1D06
102
{ACAD_REACTORS
330
C
102
}
330
C
100
AcDbDictionary
281
     1
  0
DICTIONARY
  5
1D1F
102
{ACAD_REACTORS
330
C
102
}
330
C
100
AcDbDictionary
281
     1
  3
Imperial24
350
1D20
  0
DICTIONARY
  5
D
102
{ACAD_REACTORS
330
C
102
}
330
C
100
AcDbDictionary
281
     1
  0
DICTIONARY
  5
94
102
{ACAD_REACTORS
330
C
102
}
330
C
100
AcDbDictionary
281
     1
  3
Model
350
1D21
  3
レイアウト1
350
1D22
  0
DICTIONARY
  5
1CD4
102
{ACAD_REACTORS
330
C
102
}
330
C
100
AcDbDictionary
281
     1
  3
ByBlock
350
1CDD
  3
ByLayer
350
1CD5
  3
Global
350
1CE5
  0
DICTIONARY
  5
1D1B
102
{ACAD_REACTORS
330
C
102
}
330
C
100
AcDbDictionary
281
     1
  3
Standard
350
1D1C
  0
DICTIONARY
  5
1B
102
{ACAD_REACTORS
330
C
102
}
330
C
100
AcDbDictionary
281
     1
  3
STANDARD
350
1C
  0
DICTIONARY
  5
95
102
{ACAD_REACTORS
330
C
102
}
330
C
100
AcDbDictionary
281
     1
  0
ACDBDICTIONARYWDFLT
  5
1CD2
102
{ACAD_REACTORS
330
C
102
}
330
C
100
AcDbDictionary
281
     1
  3
Normal
350
1CD3
100
AcDbDictionaryWithDefault
340
1CD3
  0
DICTIONARY
  5
1D09
102
{ACAD_REACTORS
330
C
102
}
330
C
100
AcDbDictionary
281
     1
  3
A0
350
1D0A
  3
A1
350
1D0B
  3
A2
350
1D0C
  3
A3
350
1D0D
  3
A4
350
1D0E
  3
A5
350
1D0F
  3
A6
350
1D10
  3
A7
350
1D11
  3
A8
350
1D12
  3
A9
350
1D13
  3
B0
350
1D14
  3
B1
350
1D15
  3
B2
350
1D16
  3
B3
350
1D17
  3
B4
350
1D18
  3
B5
350
1D19
  3
B6
350
1D1A
  0
DICTIONARY
  5
1D1D
102
{ACAD_REACTORS
330
C
102
}
330
C
100
AcDbDictionary
281
     1
  3
Imperial24
350
1D1E
  0
DICTIONARY
  5
1D07
102
{ACAD_REACTORS
330
C
102
}
330
C
100
AcDbDictionary
281
     1
  3
Standard
350
1D08
  0
DICTIONARY
  5
1CED
102
{ACAD_REACTORS
330
C
102
}
330
C
100
AcDbDictionary
281
     1
  3
2dWireframe
350
1CF3
  3
Basic
350
1CF2
  3
Brighten
350
1CF9
  3
ColorChange
350
1CFD
  3
Conceptual
350
1CF6
  3
Dim
350
1CF8
  3
EdgeColorOff
350
1D05
  3
Facepattern
350
1CFC
  3
Flat
350
1CEE
  3
FlatWithEdges
350
1CEF
  3
Gouraud
350
1CF0
  3
GouraudWithEdges
350
1CF1
  3
Hidden
350
1CF5
  3
JitterOff
350
1D03
  3
Linepattern
350
1CFB
  3
OverhangOff
350
1D04
  3
Realistic
350
1CF7
  3
Shaded
350
1D02
  3
Shaded with edges
350
1D01
  3
Shades of Gray
350
1CFE
  3
Sketchy
350
1CFF
  3
Thicken
350
1CFA
  3
Wireframe
350
1CF4
  3
X-Ray
350
1D00
  0
XRECORD
  5
1D41
102
{ACAD_REACTORS
330
C
102
}
330
C
100
AcDbXrecord
280
     1
 90
        1
330
1D08
  0
DICTIONARY
  5
1D34
102
{ACAD_REACTORS
330
C
102
}
330
C
100
AcDbDictionary
281
     1
  3
CANNOSCALE
350
1D39
  3
CMLEADERSTYLE
350
1D36
  3
CTABLESTYLE
350
1D35
  3
CVIEWDETAILSTYLE
350
1D37
  3
CVIEWSECTIONSTYLE
350
1D38
  3
DIMASSOC
350
1D3C
  3
INDEXCTL
350
1D3B
  3
SORTENTS
350
1D3A
  3
XCLIPFRAME
350
1D3D
  0
DICTIONARY
  5
3D
102
{ACAD_REACTORS
330
C
102
}
330
C
100
AcDbDictionary
281
     1
  0
XRECORD
  5
1D42
102
{ACAD_REACTORS
330
C
102
}
330
C
100
AcDbXrecord
280
     1
  1
DWGPROPS COOKIE
  2

  3

  4

  6

  7

  8
Yoshitsune
  9

300
=
301
=
302
=
303
=
304
=
305
=
306
=
307
=
308
=
309
=
 40
0.103614212962963
 41
2456413.610478021
 42
2457192.616994503
  1

 90
        0
  0
XRECORD
  5
1D25
102
{ACAD_REACTORS
330
1D24
102
}
330
1D24
100
AcDbXrecord
280
     1
290
     1
  0
XRECORD
  5
1D27
102
{ACAD_REACTORS
330
1D26
102
}
330
1D26
100
AcDbXrecord
280
     1
290
     1
  0
XRECORD
  5
1D29
102
{ACAD_REACTORS
330
1D28
102
}
330
1D28
100
AcDbXrecord
280
     1
290
     1
  0
XRECORD
  5
1D2B
102
{ACAD_REACTORS
330
1D2A
102
}
330
1D2A
100
AcDbXrecord
280
     1
290
     1
  0
XRECORD
  5
1D2D
102
{ACAD_REACTORS
330
1D2C
102
}
330
1D2C
100
AcDbXrecord
280
     1
290
     1
  0
XRECORD
  5
1D2F
102
{ACAD_REACTORS
330
1D2E
102
}
330
1D2E
100
AcDbXrecord
280
     1
290
     1
  0
XRECORD
  5
1D31
102
{ACAD_REACTORS
330
1D30
102
}
330
1D30
100
AcDbXrecord
280
     1
290
     1
  0
XRECORD
  5
1D33
102
{ACAD_REACTORS
330
1D32
102
}
330
1D32
100
AcDbXrecord
280
     1
290
     1
  0
XRECORD
  5
1CCE
102
{ACAD_REACTORS
330
1CCD
102
}
330
1CCD
100
AcDbXrecord
280
     1
340
18
  0
XRECORD
  5
1CCC
102
{ACAD_REACTORS
330
1CCB
102
}
330
1CCB
100
AcDbXrecord
280
     1
340
15
  0
ACDBDETAILVIEWSTYLE
  5
1D20
102
{ACAD_XDICTIONARY
360
1D7A
102
}
102
{ACAD_REACTORS
330
1D1F
102
}
330
1D1F
100
AcDbModelDocViewStyle
 70
     0
  3
Imperial24
290
     0
100
AcDbDetailViewStyle
 70
     0
 71
     0
 90
        3
 71
     1
340
F
 40
0.24
340
0
 40
0.24
300

 40
0.36
280
     3
 71
     2
340
14
 90
       25
 71
     3
340
F
 40
0.24
 90
        1
 40
0.75
 90
        1
300
%<\AcVar ViewType \f "%tc1">% %<\AcVar ViewDetailId>%\PSCALE %<\AcVar ViewScale \f "%sn">%
 71
     4
340
14
 90
       25
340
14
 90
       25
280
     0
  0
LAYOUT
  5
1D21
102
{ACAD_XDICTIONARY
360
1D7C
102
}
102
{ACAD_REACTORS
330
94
102
}
330
94
100
AcDbPlotSettings
  1

  2
Canon LBP9100C
  4

  6

 40
0.0
 41
0.0
 42
0.0
 43
0.0
 44
0.0
 45
0.0
 46
0.0
 47
0.0
 48
0.0
 49
0.0
140
0.0
141
0.0
142
1.0
143
1.0
 70
  1712
 72
     0
 73
     0
 74
     0
  7

 75
     0
147
1.0
148
0.0
149
0.0
100
AcDbLayout
  1
Model
 70
     1
 71
     0
 10
0.0
 20
0.0
 11
12.0
 21
9.0
 12
0.0
 22
0.0
 32
0.0
 14
0.0
 24
0.0
 34
0.0
 15
0.0
 25
0.0
 35
0.0
146
0.0
 13
0.0
 23
0.0
 33
0.0
 16
1.0
 26
0.0
 36
0.0
 17
0.0
 27
1.0
 37
0.0
 76
     0
330
18
331
1CCA
  0
LAYOUT
  5
1D22
102
{ACAD_XDICTIONARY
360
1D7E
102
}
102
{ACAD_REACTORS
330
94
102
}
330
94
100
AcDbPlotSettings
  1

  2
Canon LBP9100C
  4

  6

 40
0.0
 41
0.0
 42
0.0
 43
0.0
 44
0.0
 45
0.0
 46
0.0
 47
0.0
 48
0.0
 49
0.0
140
0.0
141
0.0
142
1.0
143
1.0
 70
   688
 72
     0
 73
     0
 74
     5
  7

 75
    16
147
1.0
148
0.0
149
0.0
100
AcDbLayout
  1
レイアウト1
 70
     1
 71
     1
 10
0.0
 20
0.0
 11
420.0
 21
297.0
 12
0.0
 22
0.0
 32
0.0
 14
1.000000000000000E+20
 24
1.000000000000000E+20
 34
1.000000000000000E+20
 15
-1.000000000000000E+20
 25
-1.000000000000000E+20
 35
-1.000000000000000E+20
146
0.0
 13
0.0
 23
0.0
 33
0.0
 16
1.0
 26
0.0
 36
0.0
 17
0.0
 27
1.0
 37
0.0
 76
     0
330
15
  0
MATERIAL
  5
1CDD
102
{ACAD_XDICTIONARY
360
1CDE
102
}
102
{ACAD_REACTORS
330
1CD4
102
}
330
1CD4
100
AcDbMaterial
  1
ByBlock
 72
     0
 43
0.0208333333333333
 43
0.0
 43
0.0
 43
0.0
 43
0.0
 43
0.0208333333333333
 43
0.0
 43
0.0
 43
0.0
 43
0.0
 43
1.0
 43
0.0
 43
0.0
 43
0.0
 43
0.0
 43
1.0
 77
     0
 47
0.0208333333333333
 47
0.0
 47
0.0
 47
0.0
 47
0.0
 47
0.0208333333333333
 47
0.0
 47
0.0
 47
0.0
 47
0.0
 47
1.0
 47
0.0
 47
0.0
 47
0.0
 47
0.0
 47
1.0
171
     0
 49
0.0208333333333333
 49
0.0
 49
0.0
 49
0.0
 49
0.0
 49
0.0208333333333333
 49
0.0
 49
0.0
 49
0.0
 49
0.0
 49
1.0
 49
0.0
 49
0.0
 49
0.0
 49
0.0
 49
1.0
175
     0
142
0.0208333333333333
142
0.0
142
0.0
142
0.0
142
0.0
142
0.0208333333333333
142
0.0
142
0.0
142
0.0
142
0.0
142
1.0
142
0.0
142
0.0
142
0.0
142
0.0
142
1.0
179
     0
144
0.0208333333333333
144
0.0
144
0.0
144
0.0
144
0.0
144
0.0208333333333333
144
0.0
144
0.0
144
0.0
144
0.0
144
1.0
144
0.0
144
0.0
144
0.0
144
0.0
144
1.0
147
0.0208333333333333
147
0.0
147
0.0
147
0.0
147
0.0
147
0.0208333333333333
147
0.0
147
0.0
147
0.0
147
0.0
147
1.0
147
0.0
147
0.0
147
0.0
147
0.0
147
1.0
  0
MATERIAL
  5
1CD5
102
{ACAD_XDICTIONARY
360
1CD6
102
}
102
{ACAD_REACTORS
330
1CD4
102
}
330
1CD4
100
AcDbMaterial
  1
ByLayer
 72
     0
 43
0.0208333333333333
 43
0.0
 43
0.0
 43
0.0
 43
0.0
 43
0.0208333333333333
 43
0.0
 43
0.0
 43
0.0
 43
0.0
 43
1.0
 43
0.0
 43
0.0
 43
0.0
 43
0.0
 43
1.0
 77
     0
 47
0.0208333333333333
 47
0.0
 47
0.0
 47
0.0
 47
0.0
 47
0.0208333333333333
 47
0.0
 47
0.0
 47
0.0
 47
0.0
 47
1.0
 47
0.0
 47
0.0
 47
0.0
 47
0.0
 47
1.0
171
     0
 49
0.0208333333333333
 49
0.0
 49
0.0
 49
0.0
 49
0.0
 49
0.0208333333333333
 49
0.0
 49
0.0
 49
0.0
 49
0.0
 49
1.0
 49
0.0
 49
0.0
 49
0.0
 49
0.0
 49
1.0
175
     0
142
0.0208333333333333
142
0.0
142
0.0
142
0.0
142
0.0
142
0.0208333333333333
142
0.0
142
0.0
142
0.0
142
0.0
142
1.0
142
0.0
142
0.0
142
0.0
142
0.0
142
1.0
179
     0
144
0.0208333333333333
144
0.0
144
0.0
144
0.0
144
0.0
144
0.0208333333333333
144
0.0
144
0.0
144
0.0
144
0.0
144
1.0
144
0.0
144
0.0
144
0.0
144
0.0
144
1.0
147
0.0208333333333333
147
0.0
147
0.0
147
0.0
147
0.0
147
0.0208333333333333
147
0.0
147
0.0
147
0.0
147
0.0
147
1.0
147
0.0
147
0.0
147
0.0
147
0.0
147
1.0
  0
MATERIAL
  5
1CE5
102
{ACAD_XDICTIONARY
360
1CE6
102
}
102
{ACAD_REACTORS
330
1CD4
102
}
330
1CD4
100
AcDbMaterial
  1
Global
 72
     0
 43
0.0208333333333333
 43
0.0
 43
0.0
 43
0.0
 43
0.0
 43
0.0208333333333333
 43
0.0
 43
0.0
 43
0.0
 43
0.0
 43
1.0
 43
0.0
 43
0.0
 43
0.0
 43
0.0
 43
1.0
 77
     0
 47
0.0208333333333333
 47
0.0
 47
0.0
 47
0.0
 47
0.0
 47
0.0208333333333333
 47
0.0
 47
0.0
 47
0.0
 47
0.0
 47
1.0
 47
0.0
 47
0.0
 47
0.0
 47
0.0
 47
1.0
171
     0
 49
0.0208333333333333
 49
0.0
 49
0.0
 49
0.0
 49
0.0
 49
0.0208333333333333
 49
0.0
 49
0.0
 49
0.0
 49
0.0
 49
1.0
 49
0.0
 49
0.0
 49
0.0
 49
0.0
 49
1.0
175
     0
142
0.0208333333333333
142
0.0
142
0.0
142
0.0
142
0.0
142
0.0208333333333333
142
0.0
142
0.0
142
0.0
142
0.0
142
1.0
142
0.0
142
0.0
142
0.0
142
0.0
142
1.0
179
     0
144
0.0208333333333333
144
0.0
144
0.0
144
0.0
144
0.0
144
0.0208333333333333
144
0.0
144
0.0
144
0.0
144
0.0
144
1.0
144
0.0
144
0.0
144
0.0
144
0.0
144
1.0
147
0.0208333333333333
147
0.0
147
0.0
147
0.0
147
0.0
147
0.0208333333333333
147
0.0
147
0.0
147
0.0
147
0.0
147
1.0
147
0.0
147
0.0
147
0.0
147
0.0
147
1.0
  0
MLEADERSTYLE
  5
1D1C
102
{ACAD_REACTORS
330
1D1B
102
}
330
1D1B
100
AcDbMLeaderStyle
170
     2
171
     1
172
     0
 90
        2
 40
0.0
 41
0.0
173
     1
 91
-1056964608
340
12
 92
       -2
290
     1
 42
0.09
291
     1
 43
0.36
  3
Standard
 44
0.18
300

342
F
174
     1
178
     6
175
     1
176
     0
 93
-1056964608
 45
0.18
292
     0
297
     0
 46
0.18
 94
-1056964608
 47
1.0
 49
1.0
140
1.0
293
     1
141
0.0
294
     1
177
     0
142
1.0
295
     0
296
     0
143
0.125
1001
ACAD_MLEADERVER
1070
     2
  0
MLINESTYLE
  5
1C
102
{ACAD_REACTORS
330
1B
102
}
330
1B
100
AcDbMlineStyle
  2
STANDARD
 70
     0
  3

 62
   256
 51
90.0
 52
90.0
 71
     2
 49
0.5
 62
   256
  6
BYLAYER
 49
-0.5
 62
   256
  6
BYLAYER
  0
ACDBPLACEHOLDER
  5
1CD3
102
{ACAD_REACTORS
330
1CD2
102
}
330
1CD2
  0
SCALE
  5
1D0A
102
{ACAD_REACTORS
330
1D09
102
}
330
1D09
100
AcDbScale
 70
     0
300
1:1
140
1.0
141
1.0
290
     1
  0
SCALE
  5
1D0B
102
{ACAD_REACTORS
330
1D09
102
}
330
1D09
100
AcDbScale
 70
     0
300
1/128" = 1'-0"
140
0.0078125
141
12.0
290
     0
  0
SCALE
  5
1D0C
102
{ACAD_REACTORS
330
1D09
102
}
330
1D09
100
AcDbScale
 70
     0
300
1/64" = 1'-0"
140
0.015625
141
12.0
290
     0
  0
SCALE
  5
1D0D
102
{ACAD_REACTORS
330
1D09
102
}
330
1D09
100
AcDbScale
 70
     0
300
1/32" = 1'-0"
140
0.03125
141
12.0
290
     0
  0
SCALE
  5
1D0E
102
{ACAD_REACTORS
330
1D09
102
}
330
1D09
100
AcDbScale
 70
     0
300
1/16" = 1'-0"
140
0.0625
141
12.0
290
     0
  0
SCALE
  5
1D0F
102
{ACAD_REACTORS
330
1D09
102
}
330
1D09
100
AcDbScale
 70
     0
300
3/32" = 1'-0"
140
0.09375
141
12.0
290
     0
  0
SCALE
  5
1D10
102
{ACAD_REACTORS
330
1D09
102
}
330
1D09
100
AcDbScale
 70
     0
300
1/8" = 1'-0"
140
0.125
141
12.0
290
     0
  0
SCALE
  5
1D11
102
{ACAD_REACTORS
330
1D09
102
}
330
1D09
100
AcDbScale
 70
     0
300
3/16" = 1'-0"
140
0.1875
141
12.0
290
     0
  0
SCALE
  5
1D12
102
{ACAD_REACTORS
330
1D09
102
}
330
1D09
100
AcDbScale
 70
     0
300
1/4" = 1'-0"
140
0.25
141
12.0
290
     0
  0
SCALE
  5
1D13
102
{ACAD_REACTORS
330
1D09
102
}
330
1D09
100
AcDbScale
 70
     0
300
3/8" = 1'-0"
140
0.375
141
12.0
290
     0
  0
SCALE
  5
1D14
102
{ACAD_REACTORS
330
1D09
102
}
330
1D09
100
AcDbScale
 70
     0
300
1/2" = 1'-0"
140
0.5
141
12.0
290
     0
  0
SCALE
  5
1D15
102
{ACAD_REACTORS
330
1D09
102
}
330
1D09
100
AcDbScale
 70
     0
300
3/4" = 1'-0"
140
0.75
141
12.0
290
     0
  0
SCALE
  5
1D16
102
{ACAD_REACTORS
330
1D09
102
}
330
1D09
100
AcDbScale
 70
     0
300
1" = 1'-0"
140
1.0
141
12.0
290
     0
  0
SCALE
  5
1D17
102
{ACAD_REACTORS
330
1D09
102
}
330
1D09
100
AcDbScale
 70
     0
300
1-1/2" = 1'-0"
140
1.5
141
12.0
290
     0
  0
SCALE
  5
1D18
102
{ACAD_REACTORS
330
1D09
102
}
330
1D09
100
AcDbScale
 70
     0
300
3" = 1'-0"
140
3.0
141
12.0
290
     0
  0
SCALE
  5
1D19
102
{ACAD_REACTORS
330
1D09
102
}
330
1D09
100
AcDbScale
 70
     0
300
6" = 1'-0"
140
6.0
141
12.0
290
     0
  0
SCALE
  5
1D1A
102
{ACAD_REACTORS
330
1D09
102
}
330
1D09
100
AcDbScale
 70
     0
300
1'-0" = 1'-0"
140
12.0
141
12.0
290
     0
  0
ACDBSECTIONVIEWSTYLE
  5
1D1E
102
{ACAD_XDICTIONARY
360
1D78
102
}
102
{ACAD_REACTORS
330
1D1D
102
}
330
1D1D
100
AcDbModelDocViewStyle
 70
     0
  3
Imperial24
290
     0
100
AcDbSectionViewStyle
 70
     0
 71
     0
 90
       78
 71
     1
340
F
 40
0.24
340
0
340
0
 40
0.24
300
I, O, Q, S, X, Z
 40
0.48
 90
        3
 40
0.18
 90
        1
 71
     2
340
14
 90
       25
340
14
 90
       50
 40
0.24
 40
0.0
 40
0.24
 71
     3
340
F
 40
0.24
 90
        1
 40
0.75
 90
        1
300
%<\AcVar ViewType \f "%tc1">% %<\AcVar ViewSectionStartId>%-%<\AcVar ViewSectionEndId>%\PSCALE %<\AcVar ViewScale \f "%sn">%
 71
     4
300
ANSI31
 40
1.0
 90
        0
290
     0
290
     0
 90
        6
 40
0.0
 40
1.570796326794896
 40
0.2617993877991494
 40
1.308996938995747
 40
-0.2617993877991494
 40
1.832595714594046
  0
TABLESTYLE
  5
1D08
102
{ACAD_XDICTIONARY
360
1D3F
102
}
102
{ACAD_REACTORS
330
1D07
102
}
330
1D07
100
AcDbTableStyle
  3
Standard
 70
     0
 71
     0
 40
0.06
 41
0.06
280
     0
281
     0
  7
STANDARD
140
0.18
170
     2
 62
     0
 63
     7
283
     0
274
    -2
284
     1
 64
     0
275
    -2
285
     1
 65
     0
276
    -2
286
     1
 66
     0
277
    -2
287
     1
 67
     0
278
    -2
288
     1
 68
     0
279
    -2
289
     1
 69
     0
  7
STANDARD
140
0.25
170
     5
 62
     0
 63
     7
283
     0
274
    -2
284
     1
 64
     0
275
    -2
285
     1
 65
     0
276
    -2
286
     1
 66
     0
277
    -2
287
     1
 67
     0
278
    -2
288
     1
 68
     0
279
    -2
289
     1
 69
     0
  7
STANDARD
140
0.18
170
     5
 62
     0
 63
     7
283
     0
274
    -2
284
     1
 64
     0
275
    -2
285
     1
 65
     0
276
    -2
286
     1
 66
     0
277
    -2
287
     1
 67
     0
278
    -2
288
     1
 68
     0
279
    -2
289
     1
 69
     0
  0
VISUALSTYLE
  5
1CF3
102
{ACAD_XDICTIONARY
360
1D50
102
}
102
{ACAD_REACTORS
330
1CED
102
}
330
1CED
100
AcDbVisualStyle
  2
2dWireframe
 70
     4
 71
     0
 72
     2
 73
     0
 90
        0
 40
-0.6
 41
-30.0
 62
     5
 63
     7
 74
     1
 91
        4
 64
     7
 65
   257
 75
     1
175
     1
 42
1.0
 92
        0
 66
   257
 43
1.0
 76
     1
 77
     6
 78
     2
 67
     7
 79
     5
170
     0
171
     0
290
     0
174
     0
 93
        1
 44
0.0
173
     0
291
     0
 45
0.0
1001
ACAD
1000
AcDbSavedByObjectVersion
1070
     0
  0
VISUALSTYLE
  5
1CF2
102
{ACAD_XDICTIONARY
360
1D4E
102
}
102
{ACAD_REACTORS
330
1CED
102
}
330
1CED
100
AcDbVisualStyle
  2
Basic
 70
     7
 71
     1
 72
     0
 73
     1
 90
        0
 40
-0.6
 41
-30.0
 62
     5
 63
     7
 74
     0
 91
        4
 64
     7
 65
   257
 75
     1
175
     1
 42
1.0
 92
        8
 66
     7
 43
1.0
 76
     1
 77
     6
 78
     2
 67
     7
 79
     5
170
     0
171
     0
290
     0
174
     0
 93
        1
 44
0.0
173
     0
291
     1
 45
0.0
1001
ACAD
1000
AcDbSavedByObjectVersion
1070
     0
  0
VISUALSTYLE
  5
1CF9
102
{ACAD_XDICTIONARY
360
1D5C
102
}
102
{ACAD_REACTORS
330
1CED
102
}
330
1CED
100
AcDbVisualStyle
  2
Brighten
 70
    12
 71
     2
 72
     2
 73
     0
 90
        0
 40
-0.6
 41
-30.0
 62
     5
 63
     7
 74
     1
 91
        4
 64
     7
 65
   257
 75
     1
175
     1
 42
1.0
 92
        8
 66
     7
 43
1.0
 76
     1
 77
     6
 78
     2
 67
     7
 79
     5
170
     0
171
     0
290
     0
174
     0
 93
        1
 44
50.0
173
     0
291
     1
 45
0.0
1001
ACAD
1000
AcDbSavedByObjectVersion
1070
     0
  0
VISUALSTYLE
  5
1CFD
102
{ACAD_XDICTIONARY
360
1D64
102
}
102
{ACAD_REACTORS
330
1CED
102
}
330
1CED
100
AcDbVisualStyle
  2
ColorChange
 70
    16
 71
     2
 72
     2
 73
     3
 90
        0
 40
-0.6
 41
-30.0
 62
     5
 63
     8
 74
     1
 91
        4
 64
     7
 65
   257
 75
     1
175
     1
 42
1.0
 92
        8
 66
     8
 43
1.0
 76
     1
 77
     6
 78
     2
 67
     7
 79
     5
170
     0
171
     0
290
     0
174
     0
 93
        1
 44
0.0
173
     0
291
     1
 45
0.0
1001
ACAD
1000
AcDbSavedByObjectVersion
1070
     0
  0
VISUALSTYLE
  5
1CF6
102
{ACAD_XDICTIONARY
360
1D56
102
}
102
{ACAD_REACTORS
330
1CED
102
}
330
1CED
100
AcDbVisualStyle
  2
Conceptual
 70
     9
 71
     3
 72
     2
 73
     0
 90
        0
 40
-0.6
 41
-30.0
 62
     5
 63
     7
 74
     2
 91
        2
 64
     7
 65
   257
 75
     1
175
     1
 42
179.0
 92
        8
 66
     7
 43
1.0
 76
     1
 77
     6
 78
     2
 67
     7
 79
     3
170
     0
171
     0
290
     0
174
     0
 93
        1
 44
0.0
173
     0
291
     0
 45
0.0
1001
ACAD
1000
AcDbSavedByObjectVersion
1070
     0
  0
VISUALSTYLE
  5
1CF8
102
{ACAD_XDICTIONARY
360
1D5A
102
}
102
{ACAD_REACTORS
330
1CED
102
}
330
1CED
100
AcDbVisualStyle
  2
Dim
 70
    11
 71
     2
 72
     2
 73
     0
 90
        0
 40
-0.6
 41
-30.0
 62
     5
 63
     7
 74
     1
 91
        4
 64
     7
 65
   257
 75
     1
175
     1
 42
1.0
 92
        8
 66
     7
 43
1.0
 76
     1
 77
     6
 78
     2
 67
     7
 79
     5
170
     0
171
     0
290
     0
174
     0
 93
        1
 44
-50.0
173
     0
291
     1
 45
0.0
1001
ACAD
1000
AcDbSavedByObjectVersion
1070
     0
  0
VISUALSTYLE
  5
1D05
102
{ACAD_XDICTIONARY
360
1D74
102
}
102
{ACAD_REACTORS
330
1CED
102
}
330
1CED
100
AcDbVisualStyle
  2
EdgeColorOff
 70
    22
 71
     2
 72
     2
 73
     0
 90
        0
 40
-0.6
 41
-30.0
 62
     5
 63
     7
 74
     1
 91
        4
 64
     7
 65
   257
 75
     1
175
     1
 42
1.0
 92
        8
 66
     7
 43
1.0
 76
     1
 77
     6
 78
     2
 67
     7
 79
     5
170
     0
171
     0
290
     0
174
     0
 93
        1
 44
0.0
173
     0
291
     1
 45
0.0
1001
ACAD
1000
AcDbSavedByObjectVersion
1070
     0
  0
VISUALSTYLE
  5
1CFC
102
{ACAD_XDICTIONARY
360
1D62
102
}
102
{ACAD_REACTORS
330
1CED
102
}
330
1CED
100
AcDbVisualStyle
  2
Facepattern
 70
    15
 71
     2
 72
     2
 73
     0
 90
        0
 40
-0.6
 41
-30.0
 62
     5
 63
     7
 74
     1
 91
        4
 64
     7
 65
   257
 75
     1
175
     1
 42
1.0
 92
        8
 66
     7
 43
1.0
 76
     1
 77
     6
 78
     2
 67
     7
 79
     5
170
     0
171
     0
290
     0
174
     0
 93
        1
 44
0.0
173
     0
291
     1
 45
0.0
1001
ACAD
1000
AcDbSavedByObjectVersion
1070
     0
  0
VISUALSTYLE
  5
1CEE
102
{ACAD_XDICTIONARY
360
1D46
102
}
102
{ACAD_REACTORS
330
1CED
102
}
330
1CED
100
AcDbVisualStyle
  2
Flat
 70
     0
 71
     2
 72
     1
 73
     1
 90
        2
 40
-0.6
 41
30.0
 62
     5
 63
     7
 74
     0
 91
        0
 64
     7
 65
   257
 75
     1
175
     1
 42
1.0
 92
        8
 66
     7
 43
1.0
 76
     1
 77
     6
 78
     2
 67
     7
 79
     5
170
     0
171
     0
290
     0
174
     0
 93
       13
 44
0.0
173
     0
291
     1
 45
0.0
1001
ACAD
1000
AcDbSavedByObjectVersion
1070
     0
  0
VISUALSTYLE
  5
1CEF
102
{ACAD_XDICTIONARY
360
1D48
102
}
102
{ACAD_REACTORS
330
1CED
102
}
330
1CED
100
AcDbVisualStyle
  2
FlatWithEdges
 70
     1
 71
     2
 72
     1
 73
     1
 90
        2
 40
-0.6
 41
30.0
 62
     5
 63
     7
 74
     1
 91
        0
 64
     7
 65
   257
 75
     1
175
     1
 42
1.0
 92
        0
 66
   257
 43
1.0
 76
     1
 77
     6
 78
     2
 67
     7
 79
     5
170
     0
171
     0
290
     0
174
     0
 93
       13
 44
0.0
173
     0
291
     1
 45
0.0
1001
ACAD
1000
AcDbSavedByObjectVersion
1070
     0
  0
VISUALSTYLE
  5
1CF0
102
{ACAD_XDICTIONARY
360
1D4A
102
}
102
{ACAD_REACTORS
330
1CED
102
}
330
1CED
100
AcDbVisualStyle
  2
Gouraud
 70
     2
 71
     2
 72
     2
 73
     1
 90
        2
 40
-0.6
 41
30.0
 62
     5
 63
     7
 74
     0
 91
        0
 64
     7
 65
   257
 75
     1
175
     1
 42
1.0
 92
        0
 66
     7
 43
1.0
 76
     1
 77
     6
 78
     2
 67
     7
 79
     5
170
     0
171
     0
290
     0
174
     0
 93
       13
 44
0.0
173
     0
291
     1
 45
0.0
1001
ACAD
1000
AcDbSavedByObjectVersion
1070
     0
  0
VISUALSTYLE
  5
1CF1
102
{ACAD_XDICTIONARY
360
1D4C
102
}
102
{ACAD_REACTORS
330
1CED
102
}
330
1CED
100
AcDbVisualStyle
  2
GouraudWithEdges
 70
     3
 71
     2
 72
     2
 73
     1
 90
        2
 40
-0.6
 41
30.0
 62
     5
 63
     7
 74
     1
 91
        0
 64
     7
 65
   257
 75
     1
175
     1
 42
1.0
 92
        0
 66
   257
 43
1.0
 76
     1
 77
     6
 78
     2
 67
     7
 79
     5
170
     0
171
     0
290
     0
174
     0
 93
       13
 44
0.0
173
     0
291
     1
 45
0.0
1001
ACAD
1000
AcDbSavedByObjectVersion
1070
     0
  0
VISUALSTYLE
  5
1CF5
102
{ACAD_XDICTIONARY
360
1D54
102
}
102
{ACAD_REACTORS
330
1CED
102
}
330
1CED
100
AcDbVisualStyle
  2
Hidden
 70
     6
 71
     1
 72
     2
 73
     2
 90
        0
 40
-0.6
 41
-30.0
 62
     5
 63
     7
 74
     2
 91
        2
 64
     7
 65
   257
 75
     2
175
     1
 42
40.0
 92
        0
 66
   257
 43
1.0
 76
     1
 77
     6
 78
     2
 67
     7
 79
     3
170
     0
171
     0
290
     0
174
     0
 93
        1
 44
0.0
173
     0
291
     0
 45
0.0
1001
ACAD
1000
AcDbSavedByObjectVersion
1070
     0
  0
VISUALSTYLE
  5
1D03
102
{ACAD_XDICTIONARY
360
1D70
102
}
102
{ACAD_REACTORS
330
1CED
102
}
330
1CED
100
AcDbVisualStyle
  2
JitterOff
 70
    20
 71
     2
 72
     2
 73
     0
 90
        0
 40
-0.6
 41
-30.0
 62
     5
 63
     7
 74
     1
 91
        4
 64
     7
 65
   257
 75
     1
175
     1
 42
1.0
 92
       10
 66
     7
 43
1.0
 76
     1
 77
     6
 78
     2
 67
     7
 79
     5
170
     0
171
     0
290
     0
174
     0
 93
        1
 44
0.0
173
     0
291
     1
 45
0.0
1001
ACAD
1000
AcDbSavedByObjectVersion
1070
     0
  0
VISUALSTYLE
  5
1CFB
102
{ACAD_XDICTIONARY
360
1D60
102
}
102
{ACAD_REACTORS
330
1CED
102
}
330
1CED
100
AcDbVisualStyle
  2
Linepattern
 70
    14
 71
     2
 72
     2
 73
     0
 90
        0
 40
-0.6
 41
-30.0
 62
     5
 63
     7
 74
     1
 91
        4
 64
     7
 65
   257
 75
     7
175
     7
 42
1.0
 92
        8
 66
     7
 43
1.0
 76
     1
 77
     6
 78
     2
 67
     7
 79
     5
170
     0
171
     0
290
     0
174
     0
 93
        1
 44
0.0
173
     0
291
     1
 45
0.0
1001
ACAD
1000
AcDbSavedByObjectVersion
1070
     0
  0
VISUALSTYLE
  5
1D04
102
{ACAD_XDICTIONARY
360
1D72
102
}
102
{ACAD_REACTORS
330
1CED
102
}
330
1CED
100
AcDbVisualStyle
  2
OverhangOff
 70
    21
 71
     2
 72
     2
 73
     0
 90
        0
 40
-0.6
 41
-30.0
 62
     5
 63
     7
 74
     1
 91
        4
 64
     7
 65
   257
 75
     1
175
     1
 42
1.0
 92
        9
 66
     7
 43
1.0
 76
     1
 77
     6
 78
     2
 67
     7
 79
     5
170
     0
171
     0
290
     0
174
     0
 93
        1
 44
0.0
173
     0
291
     1
 45
0.0
1001
ACAD
1000
AcDbSavedByObjectVersion
1070
     0
  0
VISUALSTYLE
  5
1CF7
102
{ACAD_XDICTIONARY
360
1D58
102
}
102
{ACAD_REACTORS
330
1CED
102
}
330
1CED
100
AcDbVisualStyle
  2
Realistic
 70
     8
 71
     2
 72
     3
 73
     0
 90
        2
 40
-0.6
 41
30.0
 62
     5
 63
     7
 74
     0
 91
        0
 64
     7
 65
   257
 75
     1
175
     1
 42
1.0
 92
        8
 66
   257
 43
1.0
 76
     1
 77
     6
 78
     2
 67
     7
 79
     3
170
     0
171
     0
290
     0
174
     0
 93
       13
 44
0.0
173
     0
291
     0
 45
0.0
1001
ACAD
1000
AcDbSavedByObjectVersion
1070
     0
  0
VISUALSTYLE
  5
1D02
102
{ACAD_XDICTIONARY
360
1D6E
102
}
102
{ACAD_REACTORS
330
1CED
102
}
330
1CED
100
AcDbVisualStyle
  2
Shaded
 70
    27
 71
     2
 72
     2
 73
     1
 90
        2
 40
-0.6
 41
30.0
 62
     5
 63
     7
 74
     0
 91
        4
 64
     7
 65
   257
 75
     1
175
     1
 42
1.0
 92
        8
 66
   257
 43
1.0
 76
     1
 77
     6
 78
     2
 67
     8
 79
     3
170
     0
171
     0
290
     0
174
     0
 93
        5
 44
0.0
173
     0
291
     0
 45
0.0
1001
ACAD
1000
AcDbSavedByObjectVersion
1070
     0
  0
VISUALSTYLE
  5
1D01
102
{ACAD_XDICTIONARY
360
1D6C
102
}
102
{ACAD_REACTORS
330
1CED
102
}
330
1CED
100
AcDbVisualStyle
  2
Shaded with edges
 70
    26
 71
     2
 72
     2
 73
     1
 90
        2
 40
-0.6
 41
30.0
 62
     5
 63
     7
 74
     1
 91
       10
 64
     7
 65
   257
 75
     2
175
     1
 42
1.0
 92
        8
 66
   257
 43
1.0
 76
     1
 77
     6
 78
     2
 67
     7
 79
     3
170
     0
171
     0
290
     0
174
     0
 93
        5
 44
0.0
173
     0
291
     0
 45
0.0
1001
ACAD
1000
AcDbSavedByObjectVersion
1070
     0
  0
VISUALSTYLE
  5
1CFE
102
{ACAD_XDICTIONARY
360
1D66
102
}
102
{ACAD_REACTORS
330
1CED
102
}
330
1CED
100
AcDbVisualStyle
  2
Shades of Gray
 70
    23
 71
     2
 72
     2
 73
     3
 90
        0
 40
-0.6
 41
-30.0
 62
     5
 63
     7
 74
     2
 91
        2
 64
     7
 65
     7
 75
     1
175
     1
 42
40.0
 92
        8
 66
     7
 43
1.0
 76
     1
 77
     6
 78
     2
 67
     7
 79
     3
170
     0
171
     0
290
     0
174
     0
 93
        1
 44
0.0
173
     0
291
     0
 45
0.0
1001
ACAD
1000
AcDbSavedByObjectVersion
1070
     0
  0
VISUALSTYLE
  5
1CFF
102
{ACAD_XDICTIONARY
360
1D68
102
}
102
{ACAD_REACTORS
330
1CED
102
}
330
1CED
100
AcDbVisualStyle
  2
Sketchy
 70
    24
 71
     1
 72
     2
 73
     2
 90
        0
 40
-0.6
 41
-30.0
 62
     5
 63
     7
 74
     2
 91
        2
 64
     7
 65
     7
 75
     1
175
     1
 42
40.0
 92
       11
 66
     7
 43
1.0
 76
     1
 77
     6
 78
     2
 67
     7
 79
     6
170
     0
171
     0
290
     0
174
     0
 93
        1
 44
0.0
173
     0
291
     0
 45
0.0
1001
ACAD
1000
AcDbSavedByObjectVersion
1070
     0
  0
VISUALSTYLE
  5
1CFA
102
{ACAD_XDICTIONARY
360
1D5E
102
}
102
{ACAD_REACTORS
330
1CED
102
}
330
1CED
100
AcDbVisualStyle
  2
Thicken
 70
    13
 71
     2
 72
     2
 73
     0
 90
        0
 40
-0.6
 41
-30.0
 62
     5
 63
     7
 74
     1
 91
        4
 64
     7
 65
   257
 75
     1
175
     1
 42
1.0
 92
       12
 66
     7
 43
1.0
 76
     1
 77
     6
 78
     2
 67
     7
 79
     5
170
     0
171
     0
290
     0
174
     0
 93
        1
 44
0.0
173
     0
291
     1
 45
0.0
1001
ACAD
1000
AcDbSavedByObjectVersion
1070
     0
  0
VISUALSTYLE
  5
1CF4
102
{ACAD_XDICTIONARY
360
1D52
102
}
102
{ACAD_REACTORS
330
1CED
102
}
330
1CED
100
AcDbVisualStyle
  2
Wireframe
 70
     5
 71
     0
 72
     2
 73
     0
 90
        0
 40
-0.6
 41
-30.0
 62
     5
 63
     7
 74
     1
 91
        4
 64
     7
 65
   257
 75
     1
175
     1
 42
1.0
 92
        0
 66
   257
 43
1.0
 76
     1
 77
     6
 78
     2
 67
     7
 79
     3
170
     0
171
     0
290
     0
174
     0
 93
        1
 44
0.0
173
     0
291
     0
 45
0.0
1001
ACAD
1000
AcDbSavedByObjectVersion
1070
     0
  0
VISUALSTYLE
  5
1D00
102
{ACAD_XDICTIONARY
360
1D6A
102
}
102
{ACAD_REACTORS
330
1CED
102
}
330
1CED
100
AcDbVisualStyle
  2
X-Ray
 70
    25
 71
     2
 72
     2
 73
     1
 90
        1
 40
0.5
 41
-30.0
 62
     5
 63
     7
 74
     1
 91
        0
 64
     7
 65
   257
 75
     1
175
     1
 42
1.0
 92
        8
 66
     7
 43
1.0
 76
     1
 77
     6
 78
     2
 67
     7
 79
     3
170
     0
171
     0
290
     0
174
     0
 93
       13
 44
0.0
173
     0
291
     0
 45
0.0
1001
ACAD
1000
AcDbSavedByObjectVersion
1070
     0
  0
DICTIONARYVAR
  5
1D39
102
{ACAD_REACTORS
330
1D34
102
}
330
1D34
100
DictionaryVariables
280
     0
  1
1:1
  0
DICTIONARYVAR
  5
1D36
102
{ACAD_REACTORS
330
1D34
102
}
330
1D34
100
DictionaryVariables
280
     0
  1
STANDARD
  0
DICTIONARYVAR
  5
1D35
102
{ACAD_REACTORS
330
1D34
102
}
330
1D34
100
DictionaryVariables
280
     0
  1
STANDARD
  0
DICTIONARYVAR
  5
1D37
102
{ACAD_REACTORS
330
1D34
102
}
330
1D34
100
DictionaryVariables
280
     0
  1
Imperial24
  0
DICTIONARYVAR
  5
1D38
102
{ACAD_REACTORS
330
1D34
102
}
330
1D34
100
DictionaryVariables
280
     0
  1
Imperial24
  0
DICTIONARYVAR
  5
1D3C
102
{ACAD_REACTORS
330
1D34
102
}
330
1D34
100
DictionaryVariables
280
     0
  1
1
  0
DICTIONARYVAR
  5
1D3B
102
{ACAD_REACTORS
330
1D34
102
}
330
1D34
100
DictionaryVariables
280
     0
  1
0
  0
DICTIONARYVAR
  5
1D3A
102
{ACAD_REACTORS
330
1D34
102
}
330
1D34
100
DictionaryVariables
280
     0
  1
127
  0
DICTIONARYVAR
  5
1D3D
102
{ACAD_REACTORS
330
1D34
102
}
330
1D34
100
DictionaryVariables
280
     0
  1
2
  0
DICTIONARY
  5
1D7A
330
1D20
100
AcDbDictionary
280
     1
281
     1
  3
ACAD_XREC_ROUNDTRIP
360
1D7B
  0
DICTIONARY
  5
1D7C
330
1D21
100
AcDbDictionary
280
     1
281
     1
  3
ACAD_XREC_ROUNDTRIP
360
1D7D
  0
DICTIONARY
  5
1D7E
330
1D22
100
AcDbDictionary
280
     1
281
     1
  3
ACAD_XREC_ROUNDTRIP
360
1D7F
  0
DICTIONARY
  5
1CDE
330
1CDD
100
AcDbDictionary
280
     1
281
     1
  3
ACAD_XREC_ROUNDTRIP
360
1D44
  3
BUMPTILE
360
1CE0
  3
DIFFUSETILE
360
1CDF
  3
OPACITYTILE
360
1CE3
  3
REFLECTIONTILE
360
1CE2
  3
REFRACTIONTILE
360
1CE4
  3
SPECULARTILE
360
1CE1
  0
DICTIONARY
  5
1CD6
330
1CD5
100
AcDbDictionary
280
     1
281
     1
  3
ACAD_XREC_ROUNDTRIP
360
1D43
  3
BUMPTILE
360
1CD8
  3
DIFFUSETILE
360
1CD7
  3
OPACITYTILE
360
1CDB
  3
REFLECTIONTILE
360
1CDA
  3
REFRACTIONTILE
360
1CDC
  3
SPECULARTILE
360
1CD9
  0
DICTIONARY
  5
1CE6
330
1CE5
100
AcDbDictionary
280
     1
281
     1
  3
ACAD_XREC_ROUNDTRIP
360
1D45
  3
BUMPTILE
360
1CE8
  3
DIFFUSETILE
360
1CE7
  3
OPACITYTILE
360
1CEB
  3
REFLECTIONTILE
360
1CEA
  3
REFRACTIONTILE
360
1CEC
  3
SPECULARTILE
360
1CE9
  0
DICTIONARY
  5
1D78
330
1D1E
100
AcDbDictionary
280
     1
281
     1
  3
ACAD_XREC_ROUNDTRIP
360
1D79
  0
DICTIONARY
  5
1D3F
330
1D08
100
AcDbDictionary
280
     1
281
     1
  3
ACAD_ROUNDTRIP_2008_TABLESTYLE_CELLSTYLEMAP
360
1D40
  3
ACAD_XREC_ROUNDTRIP
360
1D76
  0
DICTIONARY
  5
1D50
330
1CF3
100
AcDbDictionary
280
     1
281
     1
  3
ACAD_XREC_ROUNDTRIP
360
1D51
  0
DICTIONARY
  5
1D4E
330
1CF2
100
AcDbDictionary
280
     1
281
     1
  3
ACAD_XREC_ROUNDTRIP
360
1D4F
  0
DICTIONARY
  5
1D5C
330
1CF9
100
AcDbDictionary
280
     1
281
     1
  3
ACAD_XREC_ROUNDTRIP
360
1D5D
  0
DICTIONARY
  5
1D64
330
1CFD
100
AcDbDictionary
280
     1
281
     1
  3
ACAD_XREC_ROUNDTRIP
360
1D65
  0
DICTIONARY
  5
1D56
330
1CF6
100
AcDbDictionary
280
     1
281
     1
  3
ACAD_XREC_ROUNDTRIP
360
1D57
  0
DICTIONARY
  5
1D5A
330
1CF8
100
AcDbDictionary
280
     1
281
     1
  3
ACAD_XREC_ROUNDTRIP
360
1D5B
  0
DICTIONARY
  5
1D74
330
1D05
100
AcDbDictionary
280
     1
281
     1
  3
ACAD_XREC_ROUNDTRIP
360
1D75
  0
DICTIONARY
  5
1D62
330
1CFC
100
AcDbDictionary
280
     1
281
     1
  3
ACAD_XREC_ROUNDTRIP
360
1D63
  0
DICTIONARY
  5
1D46
330
1CEE
100
AcDbDictionary
280
     1
281
     1
  3
ACAD_XREC_ROUNDTRIP
360
1D47
  0
DICTIONARY
  5
1D48
330
1CEF
100
AcDbDictionary
280
     1
281
     1
  3
ACAD_XREC_ROUNDTRIP
360
1D49
  0
DICTIONARY
  5
1D4A
330
1CF0
100
AcDbDictionary
280
     1
281
     1
  3
ACAD_XREC_ROUNDTRIP
360
1D4B
  0
DICTIONARY
  5
1D4C
330
1CF1
100
AcDbDictionary
280
     1
281
     1
  3
ACAD_XREC_ROUNDTRIP
360
1D4D
  0
DICTIONARY
  5
1D54
330
1CF5
100
AcDbDictionary
280
     1
281
     1
  3
ACAD_XREC_ROUNDTRIP
360
1D55
  0
DICTIONARY
  5
1D70
330
1D03
100
AcDbDictionary
280
     1
281
     1
  3
ACAD_XREC_ROUNDTRIP
360
1D71
  0
DICTIONARY
  5
1D60
330
1CFB
100
AcDbDictionary
280
     1
281
     1
  3
ACAD_XREC_ROUNDTRIP
360
1D61
  0
DICTIONARY
  5
1D72
330
1D04
100
AcDbDictionary
280
     1
281
     1
  3
ACAD_XREC_ROUNDTRIP
360
1D73
  0
DICTIONARY
  5
1D58
330
1CF7
100
AcDbDictionary
280
     1
281
     1
  3
ACAD_XREC_ROUNDTRIP
360
1D59
  0
DICTIONARY
  5
1D6E
330
1D02
100
AcDbDictionary
280
     1
281
     1
  3
ACAD_XREC_ROUNDTRIP
360
1D6F
  0
DICTIONARY
  5
1D6C
330
1D01
100
AcDbDictionary
280
     1
281
     1
  3
ACAD_XREC_ROUNDTRIP
360
1D6D
  0
DICTIONARY
  5
1D66
330
1CFE
100
AcDbDictionary
280
     1
281
     1
  3
ACAD_XREC_ROUNDTRIP
360
1D67
  0
DICTIONARY
  5
1D68
330
1CFF
100
AcDbDictionary
280
     1
281
     1
  3
ACAD_XREC_ROUNDTRIP
360
1D69
  0
DICTIONARY
  5
1D5E
330
1CFA
100
AcDbDictionary
280
     1
281
     1
  3
ACAD_XREC_ROUNDTRIP
360
1D5F
  0
DICTIONARY
  5
1D52
330
1CF4
100
AcDbDictionary
280
     1
281
     1
  3
ACAD_XREC_ROUNDTRIP
360
1D53
  0
DICTIONARY
  5
1D6A
330
1D00
100
AcDbDictionary
280
     1
281
     1
  3
ACAD_XREC_ROUNDTRIP
360
1D6B
  0
XRECORD
  5
1D7B
102
{ACAD_REACTORS
330
1D7A
102
}
330
1D7A
100
AcDbXrecord
280
     1
102
DISPLAYNAME
  1
Imperial24
102
FLAGS
 90
        0
  0
XRECORD
  5
1D7D
102
{ACAD_REACTORS
330
1D7C
102
}
330
1D7C
100
AcDbXrecord
280
     1
102
SHADEPLOT
 70
     0
102
SHADEPLOTRESLEVEL
 70
     2
102
SHADEPLOTCUSTOMDPI
 70
   300
  0
XRECORD
  5
1D7F
102
{ACAD_REACTORS
330
1D7E
102
}
330
1D7E
100
AcDbXrecord
280
     1
102
SHADEPLOT
 70
     0
102
SHADEPLOTRESLEVEL
 70
     2
102
SHADEPLOTCUSTOMDPI
 70
   300
  0
XRECORD
  5
1D44
102
{ACAD_REACTORS
330
1CDE
102
}
330
1CDE
100
AcDbXrecord
280
     1
102
MATERIAL
148
0.0
149
0.0
149
0.0
 93
        0
 94
      127
282
     0
 72
     0
 77
     0
171
     0
175
     0
179
     0
273
     0
  0
XRECORD
  5
1CE0
102
{ACAD_REACTORS
330
1CDE
102
}
330
1CDE
100
AcDbXrecord
280
     1
270
     1
271
     1
  0
XRECORD
  5
1CDF
102
{ACAD_REACTORS
330
1CDE
102
}
330
1CDE
100
AcDbXrecord
280
     1
270
     1
271
     1
  0
XRECORD
  5
1CE3
102
{ACAD_REACTORS
330
1CDE
102
}
330
1CDE
100
AcDbXrecord
280
     1
270
     1
271
     1
  0
XRECORD
  5
1CE2
102
{ACAD_REACTORS
330
1CDE
102
}
330
1CDE
100
AcDbXrecord
280
     1
270
     1
271
     1
  0
XRECORD
  5
1CE4
102
{ACAD_REACTORS
330
1CDE
102
}
330
1CDE
100
AcDbXrecord
280
     1
270
     1
271
     1
  0
XRECORD
  5
1CE1
102
{ACAD_REACTORS
330
1CDE
102
}
330
1CDE
100
AcDbXrecord
280
     1
270
     1
271
     1
  0
XRECORD
  5
1D43
102
{ACAD_REACTORS
330
1CD6
102
}
330
1CD6
100
AcDbXrecord
280
     1
102
MATERIAL
148
0.0
149
0.0
149
0.0
 93
        0
 94
      127
282
     0
 72
     0
 77
     0
171
     0
175
     0
179
     0
273
     0
  0
XRECORD
  5
1CD8
102
{ACAD_REACTORS
330
1CD6
102
}
330
1CD6
100
AcDbXrecord
280
     1
270
     1
271
     1
  0
XRECORD
  5
1CD7
102
{ACAD_REACTORS
330
1CD6
102
}
330
1CD6
100
AcDbXrecord
280
     1
270
     1
271
     1
  0
XRECORD
  5
1CDB
102
{ACAD_REACTORS
330
1CD6
102
}
330
1CD6
100
AcDbXrecord
280
     1
270
     1
271
     1
  0
XRECORD
  5
1CDA
102
{ACAD_REACTORS
330
1CD6
102
}
330
1CD6
100
AcDbXrecord
280
     1
270
     1
271
     1
  0
XRECORD
  5
1CDC
102
{ACAD_REACTORS
330
1CD6
102
}
330
1CD6
100
AcDbXrecord
280
     1
270
     1
271
     1
  0
XRECORD
  5
1CD9
102
{ACAD_REACTORS
330
1CD6
102
}
330
1CD6
100
AcDbXrecord
280
     1
270
     1
271
     1
  0
XRECORD
  5
1D45
102
{ACAD_REACTORS
330
1CE6
102
}
330
1CE6
100
AcDbXrecord
280
     1
102
MATERIAL
148
0.0
149
0.0
149
0.0
 93
        0
 94
      127
282
     0
 72
     0
 77
     0
171
     0
175
     0
179
     0
273
     0
  0
XRECORD
  5
1CE8
102
{ACAD_REACTORS
330
1CE6
102
}
330
1CE6
100
AcDbXrecord
280
     1
270
     1
271
     1
  0
XRECORD
  5
1CE7
102
{ACAD_REACTORS
330
1CE6
102
}
330
1CE6
100
AcDbXrecord
280
     1
270
     1
271
     1
  0
XRECORD
  5
1CEB
102
{ACAD_REACTORS
330
1CE6
102
}
330
1CE6
100
AcDbXrecord
280
     1
270
     1
271
     1
  0
XRECORD
  5
1CEA
102
{ACAD_REACTORS
330
1CE6
102
}
330
1CE6
100
AcDbXrecord
280
     1
270
     1
271
     1
  0
XRECORD
  5
1CEC
102
{ACAD_REACTORS
330
1CE6
102
}
330
1CE6
100
AcDbXrecord
280
     1
270
     1
271
     1
  0
XRECORD
  5
1CE9
102
{ACAD_REACTORS
330
1CE6
102
}
330
1CE6
100
AcDbXrecord
280
     1
270
     1
271
     1
  0
XRECORD
  5
1D79
102
{ACAD_REACTORS
330
1D78
102
}
330
1D78
100
AcDbXrecord
280
     1
102
DISPLAYNAME
  1
Imperial24
102
FLAGS
 90
        0
  0
CELLSTYLEMAP
  5
1D40
102
{ACAD_REACTORS
330
1D3F
102
}
330
1D3F
100
AcDbCellStyleMap
 90
        3
300
CELLSTYLE
  1
TABLEFORMAT_BEGIN
 90
        5
170
     1
 91
        0
 92
    32768
 62
   257
 93
        1
300
CONTENTFORMAT
  1
CONTENTFORMAT_BEGIN
 90
        0
 91
        0
 92
      512
 93
        0
300

 40
0.0
140
1.0
 94
        5
 62
     0
340
F
144
0.25
309
CONTENTFORMAT_END
171
     0
 94
        0
309
TABLEFORMAT_END
  1
CELLSTYLE_BEGIN
 90
        1
 91
        1
300
_TITLE
309
CELLSTYLE_END
300
CELLSTYLE
  1
TABLEFORMAT_BEGIN
 90
        5
170
     1
 91
        0
 92
        0
 62
   257
 93
        1
300
CONTENTFORMAT
  1
CONTENTFORMAT_BEGIN
 90
        0
 91
        0
 92
      512
 93
        0
300

 40
0.0
140
1.0
 94
        5
 62
     0
340
F
144
0.18
309
CONTENTFORMAT_END
171
     0
 94
        0
309
TABLEFORMAT_END
  1
CELLSTYLE_BEGIN
 90
        2
 91
        1
300
_HEADER
309
CELLSTYLE_END
300
CELLSTYLE
  1
TABLEFORMAT_BEGIN
 90
        5
170
     1
 91
        0
 92
        0
 62
   257
 93
        1
300
CONTENTFORMAT
  1
CONTENTFORMAT_BEGIN
 90
        0
 91
        0
 92
      512
 93
        0
300

 40
0.0
140
1.0
 94
        2
 62
     0
340
F
144
0.18
309
CONTENTFORMAT_END
171
     0
 94
        0
309
TABLEFORMAT_END
  1
CELLSTYLE_BEGIN
 90
        3
 91
        2
300
_DATA
309
CELLSTYLE_END
  0
XRECORD
  5
1D76
102
{ACAD_REACTORS
330
1D3F
102
}
330
1D3F
100
AcDbXrecord
280
     1
102
ACAD_ROUNDTRIP_PRE2007_TABLESTYLE
 90
      512
 91
        0
  1

 92
      512
 93
        0
  2

 94
      512
 95
        0
  3

  0
XRECORD
  5
1D51
102
{ACAD_REACTORS
330
1D50
102
}
330
1D50
100
AcDbXrecord
280
     1
102
RTVSPost2010Prop28
280
     1
102
RTVSPost2010PropOp28
 70
     1
102
RTVSPost2010Prop29
280
     1
102
RTVSPost2010PropOp29
 70
     1
102
RTVSPost2010Prop30
280
     0
102
RTVSPost2010PropOp30
 70
     1
102
RTVSPost2010Prop31
280
     0
102
RTVSPost2010PropOp31
 70
     1
102
RTVSPost2010Prop32
280
     0
102
RTVSPost2010PropOp32
 70
     1
102
RTVSPost2010Prop33
280
     0
102
RTVSPost2010PropOp33
 70
     1
102
RTVSPost2010Prop34
280
     0
102
RTVSPost2010PropOp34
 70
     1
102
RTVSPost2010Prop35
280
     0
102
RTVSPost2010PropOp35
 70
     1
102
RTVSPost2010Prop36
280
     0
102
RTVSPost2010PropOp36
 70
     1
102
RTVSPost2010Prop37
 90
       50
102
RTVSPost2010PropOp37
 70
     1
102
RTVSPost2010Prop38
140
0.0
102
RTVSPost2010PropOp38
 70
     1
102
RTVSPost2010Prop39
140
1.0
102
RTVSPost2010PropOp39
 70
     1
102
RTVSPost2010Prop40
 90
        0
102
RTVSPost2010PropOp40
 70
     1
102
RTVSPost2010Prop41ColorIndex
 90
       18
102
RTVSPost2010Prop41ColorRGB
 90
        0
102
RTVSPost2010PropOp41
 70
     1
102
RTVSPost2010Prop42
 90
       50
102
RTVSPost2010PropOp42
 70
     1
102
RTVSPost2010Prop43
 90
        3
102
RTVSPost2010PropOp43
 70
     1
102
RTVSPost2010Prop44ColorIndex
 90
        5
102
RTVSPost2010Prop44ColorRGB
 90
      255
102
RTVSPost2010PropOp44
 70
     1
102
RTVSPost2010Prop45
280
     0
102
RTVSPost2010PropOp45
 70
     1
102
RTVSPost2010Prop46
 90
       50
102
RTVSPost2010PropOp46
 70
     1
102
RTVSPost2010Prop47
 90
       50
102
RTVSPost2010PropOp47
 70
     1
102
RTVSPost2010Prop48
 90
       50
102
RTVSPost2010PropOp48
 70
     1
102
RTVSPost2010Prop49
280
     0
102
RTVSPost2010PropOp49
 70
     1
102
RTVSPost2010Prop50
 90
       50
102
RTVSPost2010PropOp50
 70
     1
102
RTVSPost2010Prop51ColorIndex
 90
      256
102
RTVSPost2010Prop51ColorRGB
 90
-16777216
102
RTVSPost2010PropOp51
 70
     0
102
RTVSPost2010Prop52
140
1.0
102
RTVSPost2010PropOp52
 70
     0
102
RTVSPost2010Prop53
 90
        2
102
RTVSPost2010PropOp53
 70
     1
102
RTVSPost2010Prop54
  1
strokes_ogs.tif
102
RTVSPost2010PropOp54
 70
     1
102
RTVSPost2010Prop55
280
     0
102
RTVSPost2010PropOp55
 70
     1
102
RTVSPost2010Prop56
140
1.0
102
RTVSPost2010PropOp56
 70
     1
102
RTVSPost2010Prop57
140
1.0
102
RTVSPost2010PropOp57
 70
     1
102
RTVSPropertyOp0
 70
     1
102
RTVSPropertyOp1
 70
     1
102
RTVSPropertyOp2
 70
     1
102
RTVSPropertyOp3
 70
     1
102
RTVSPropertyOp4
 70
     1
102
RTVSPropertyOp5
 70
     1
102
RTVSPropertyOp6
 70
     1
102
RTVSPropertyOp7
 70
     1
102
RTVSPropertyOp8
 70
     1
102
RTVSPropertyOp9
 70
     1
102
RTVSPropertyOp10
 70
     1
102
RTVSPropertyOp11
 70
     1
102
RTVSPropertyOp12
 70
     1
102
RTVSPropertyOp13
 70
     1
102
RTVSPropertyOp14
 70
     1
102
RTVSPropertyOp15
 70
     1
102
RTVSPropertyOp16
 70
     1
102
RTVSPropertyOp17
 70
     1
102
RTVSPropertyOp18
 70
     1
102
RTVSPropertyOp19
 70
     1
102
RTVSPropertyOp20
 70
     1
102
RTVSPropertyOp21
 70
     1
102
RTVSPropertyOp22
 70
     1
102
RTVSPropertyOp23
 70
     1
102
RTVSPropertyOp24
 70
     1
102
RTVSPropertyOp25
 70
     1
102
RTVSPropertyOp26
 70
     1
102
RTVSPropertyOp27
 70
     1
102
RTVSPropertyOp28
 70
     1
102
RTVSPropertyOp29
 70
     1
102
RTVSPropertyOp30
 70
     1
102
RTVSPropertyOp31
 70
     1
102
RTVSPropertyOp32
 70
     1
102
RTVSPropertyOp33
 70
     1
102
RTVSPropertyOp34
 70
     1
102
RTVSPropertyOp35
 70
     1
102
RTVSPropertyOp36
 70
     1
102
RTVSPropertyOp37
 70
     1
102
RTVSPropertyOp38
 70
     1
102
RTVSPropertyOp39
 70
     1
102
RTVSPropertyOp40
 70
     1
102
RTVSPropertyOp41
 70
     1
102
RTVSPropertyOp42
 70
     1
102
RTVSPropertyOp43
 70
     1
102
RTVSPropertyOp44
 70
     1
102
RTVSPropertyOp45
 70
     1
102
RTVSPropertyOp46
 70
     1
102
RTVSPropertyOp47
 70
     1
102
RTVSPropertyOp48
 70
     1
102
RTVSPropertyOp49
 70
     1
102
RTVSPropertyOp50
 70
     1
102
RTVSPropertyOp51
 70
     0
102
RTVSPropertyOp52
 70
     0
102
RTVSPropertyOp53
 70
     1
102
RTVSPropertyOp54
 70
     1
102
RTVSPropertyOp55
 70
     1
102
RTVSPropertyOp56
 70
     1
102
RTVSPropertyOp57
 70
     1
102
RTVSPropertyOp58
 70
     1
102
RTVSPropertyOp59
 70
     1
102
RTVSPropertyOp60
 70
     1
102
RTVSPropertyOp61
 70
     1
102
RTVSPropertyOp62
 70
     1
  0
XRECORD
  5
1D4F
102
{ACAD_REACTORS
330
1D4E
102
}
330
1D4E
100
AcDbXrecord
280
     1
102
RTVSPost2010Prop28
280
     0
102
RTVSPost2010PropOp28
 70
     1
102
RTVSPost2010Prop29
280
     1
102
RTVSPost2010PropOp29
 70
     1
102
RTVSPost2010Prop30
280
     1
102
RTVSPost2010PropOp30
 70
     1
102
RTVSPost2010Prop31
280
     0
102
RTVSPost2010PropOp31
 70
     1
102
RTVSPost2010Prop32
280
     0
102
RTVSPost2010PropOp32
 70
     1
102
RTVSPost2010Prop33
280
     0
102
RTVSPost2010PropOp33
 70
     1
102
RTVSPost2010Prop34
280
     0
102
RTVSPost2010PropOp34
 70
     1
102
RTVSPost2010Prop35
280
     0
102
RTVSPost2010PropOp35
 70
     1
102
RTVSPost2010Prop36
280
     0
102
RTVSPost2010PropOp36
 70
     1
102
RTVSPost2010Prop37
 90
       50
102
RTVSPost2010PropOp37
 70
     1
102
RTVSPost2010Prop38
140
0.0
102
RTVSPost2010PropOp38
 70
     1
102
RTVSPost2010Prop39
140
1.0
102
RTVSPost2010PropOp39
 70
     1
102
RTVSPost2010Prop40
 90
        0
102
RTVSPost2010PropOp40
 70
     1
102
RTVSPost2010Prop41ColorIndex
 90
       18
102
RTVSPost2010Prop41ColorRGB
 90
        0
102
RTVSPost2010PropOp41
 70
     1
102
RTVSPost2010Prop42
 90
       50
102
RTVSPost2010PropOp42
 70
     1
102
RTVSPost2010Prop43
 90
        3
102
RTVSPost2010PropOp43
 70
     1
102
RTVSPost2010Prop44ColorIndex
 90
        5
102
RTVSPost2010Prop44ColorRGB
 90
      255
102
RTVSPost2010PropOp44
 70
     1
102
RTVSPost2010Prop45
280
     0
102
RTVSPost2010PropOp45
 70
     1
102
RTVSPost2010Prop46
 90
       50
102
RTVSPost2010PropOp46
 70
     1
102
RTVSPost2010Prop47
 90
       50
102
RTVSPost2010PropOp47
 70
     1
102
RTVSPost2010Prop48
 90
       50
102
RTVSPost2010PropOp48
 70
     1
102
RTVSPost2010Prop49
280
     0
102
RTVSPost2010PropOp49
 70
     1
102
RTVSPost2010Prop50
 90
       50
102
RTVSPost2010PropOp50
 70
     1
102
RTVSPost2010Prop51ColorIndex
 90
      256
102
RTVSPost2010Prop51ColorRGB
 90
-16777216
102
RTVSPost2010PropOp51
 70
     0
102
RTVSPost2010Prop52
140
1.0
102
RTVSPost2010PropOp52
 70
     0
102
RTVSPost2010Prop53
 90
        2
102
RTVSPost2010PropOp53
 70
     1
102
RTVSPost2010Prop54
  1
strokes_ogs.tif
102
RTVSPost2010PropOp54
 70
     1
102
RTVSPost2010Prop55
280
     0
102
RTVSPost2010PropOp55
 70
     1
102
RTVSPost2010Prop56
140
1.0
102
RTVSPost2010PropOp56
 70
     1
102
RTVSPost2010Prop57
140
1.0
102
RTVSPost2010PropOp57
 70
     1
102
RTVSPropertyOp0
 70
     1
102
RTVSPropertyOp1
 70
     1
102
RTVSPropertyOp2
 70
     1
102
RTVSPropertyOp3
 70
     1
102
RTVSPropertyOp4
 70
     1
102
RTVSPropertyOp5
 70
     1
102
RTVSPropertyOp6
 70
     1
102
RTVSPropertyOp7
 70
     1
102
RTVSPropertyOp8
 70
     1
102
RTVSPropertyOp9
 70
     1
102
RTVSPropertyOp10
 70
     1
102
RTVSPropertyOp11
 70
     1
102
RTVSPropertyOp12
 70
     1
102
RTVSPropertyOp13
 70
     1
102
RTVSPropertyOp14
 70
     1
102
RTVSPropertyOp15
 70
     1
102
RTVSPropertyOp16
 70
     1
102
RTVSPropertyOp17
 70
     1
102
RTVSPropertyOp18
 70
     1
102
RTVSPropertyOp19
 70
     1
102
RTVSPropertyOp20
 70
     1
102
RTVSPropertyOp21
 70
     1
102
RTVSPropertyOp22
 70
     1
102
RTVSPropertyOp23
 70
     1
102
RTVSPropertyOp24
 70
     1
102
RTVSPropertyOp25
 70
     1
102
RTVSPropertyOp26
 70
     1
102
RTVSPropertyOp27
 70
     1
102
RTVSPropertyOp28
 70
     1
102
RTVSPropertyOp29
 70
     1
102
RTVSPropertyOp30
 70
     1
102
RTVSPropertyOp31
 70
     1
102
RTVSPropertyOp32
 70
     1
102
RTVSPropertyOp33
 70
     1
102
RTVSPropertyOp34
 70
     1
102
RTVSPropertyOp35
 70
     1
102
RTVSPropertyOp36
 70
     1
102
RTVSPropertyOp37
 70
     1
102
RTVSPropertyOp38
 70
     1
102
RTVSPropertyOp39
 70
     1
102
RTVSPropertyOp40
 70
     1
102
RTVSPropertyOp41
 70
     1
102
RTVSPropertyOp42
 70
     1
102
RTVSPropertyOp43
 70
     1
102
RTVSPropertyOp44
 70
     1
102
RTVSPropertyOp45
 70
     1
102
RTVSPropertyOp46
 70
     1
102
RTVSPropertyOp47
 70
     1
102
RTVSPropertyOp48
 70
     1
102
RTVSPropertyOp49
 70
     1
102
RTVSPropertyOp50
 70
     1
102
RTVSPropertyOp51
 70
     0
102
RTVSPropertyOp52
 70
     0
102
RTVSPropertyOp53
 70
     1
102
RTVSPropertyOp54
 70
     1
102
RTVSPropertyOp55
 70
     1
102
RTVSPropertyOp56
 70
     1
102
RTVSPropertyOp57
 70
     1
102
RTVSPropertyOp58
 70
     1
102
RTVSPropertyOp59
 70
     1
102
RTVSPropertyOp60
 70
     1
102
RTVSPropertyOp61
 70
     1
102
RTVSPropertyOp62
 70
     1
  0
XRECORD
  5
1D5D
102
{ACAD_REACTORS
330
1D5C
102
}
330
1D5C
100
AcDbXrecord
280
     1
102
RTVSPost2010Prop28
280
     0
102
RTVSPost2010PropOp28
 70
     1
102
RTVSPost2010Prop29
280
     1
102
RTVSPost2010PropOp29
 70
     1
102
RTVSPost2010Prop30
280
     1
102
RTVSPost2010PropOp30
 70
     1
102
RTVSPost2010Prop31
280
     0
102
RTVSPost2010PropOp31
 70
     1
102
RTVSPost2010Prop32
280
     0
102
RTVSPost2010PropOp32
 70
     1
102
RTVSPost2010Prop33
280
     0
102
RTVSPost2010PropOp33
 70
     1
102
RTVSPost2010Prop34
280
     0
102
RTVSPost2010PropOp34
 70
     1
102
RTVSPost2010Prop35
280
     0
102
RTVSPost2010PropOp35
 70
     1
102
RTVSPost2010Prop36
280
     0
102
RTVSPost2010PropOp36
 70
     1
102
RTVSPost2010Prop37
 90
       50
102
RTVSPost2010PropOp37
 70
     1
102
RTVSPost2010Prop38
140
0.0
102
RTVSPost2010PropOp38
 70
     1
102
RTVSPost2010Prop39
140
1.0
102
RTVSPost2010PropOp39
 70
     1
102
RTVSPost2010Prop40
 90
        0
102
RTVSPost2010PropOp40
 70
     1
102
RTVSPost2010Prop41ColorIndex
 90
       18
102
RTVSPost2010Prop41ColorRGB
 90
        0
102
RTVSPost2010PropOp41
 70
     1
102
RTVSPost2010Prop42
 90
       50
102
RTVSPost2010PropOp42
 70
     1
102
RTVSPost2010Prop43
 90
        3
102
RTVSPost2010PropOp43
 70
     1
102
RTVSPost2010Prop44ColorIndex
 90
        5
102
RTVSPost2010Prop44ColorRGB
 90
      255
102
RTVSPost2010PropOp44
 70
     1
102
RTVSPost2010Prop45
280
     0
102
RTVSPost2010PropOp45
 70
     1
102
RTVSPost2010Prop46
 90
       50
102
RTVSPost2010PropOp46
 70
     1
102
RTVSPost2010Prop47
 90
       50
102
RTVSPost2010PropOp47
 70
     1
102
RTVSPost2010Prop48
 90
       50
102
RTVSPost2010PropOp48
 70
     1
102
RTVSPost2010Prop49
280
     0
102
RTVSPost2010PropOp49
 70
     1
102
RTVSPost2010Prop50
 90
       50
102
RTVSPost2010PropOp50
 70
     1
102
RTVSPost2010Prop51ColorIndex
 90
      256
102
RTVSPost2010Prop51ColorRGB
 90
-16777216
102
RTVSPost2010PropOp51
 70
     0
102
RTVSPost2010Prop52
140
1.0
102
RTVSPost2010PropOp52
 70
     0
102
RTVSPost2010Prop53
 90
        2
102
RTVSPost2010PropOp53
 70
     1
102
RTVSPost2010Prop54
  1
strokes_ogs.tif
102
RTVSPost2010PropOp54
 70
     1
102
RTVSPost2010Prop55
280
     0
102
RTVSPost2010PropOp55
 70
     1
102
RTVSPost2010Prop56
140
1.0
102
RTVSPost2010PropOp56
 70
     1
102
RTVSPost2010Prop57
140
1.0
102
RTVSPost2010PropOp57
 70
     1
102
RTVSPropertyOp0
 70
     1
102
RTVSPropertyOp1
 70
     1
102
RTVSPropertyOp2
 70
     1
102
RTVSPropertyOp3
 70
     1
102
RTVSPropertyOp4
 70
     1
102
RTVSPropertyOp5
 70
     1
102
RTVSPropertyOp6
 70
     1
102
RTVSPropertyOp7
 70
     1
102
RTVSPropertyOp8
 70
     1
102
RTVSPropertyOp9
 70
     1
102
RTVSPropertyOp10
 70
     1
102
RTVSPropertyOp11
 70
     1
102
RTVSPropertyOp12
 70
     1
102
RTVSPropertyOp13
 70
     1
102
RTVSPropertyOp14
 70
     1
102
RTVSPropertyOp15
 70
     1
102
RTVSPropertyOp16
 70
     1
102
RTVSPropertyOp17
 70
     1
102
RTVSPropertyOp18
 70
     1
102
RTVSPropertyOp19
 70
     1
102
RTVSPropertyOp20
 70
     1
102
RTVSPropertyOp21
 70
     1
102
RTVSPropertyOp22
 70
     1
102
RTVSPropertyOp23
 70
     1
102
RTVSPropertyOp24
 70
     1
102
RTVSPropertyOp25
 70
     1
102
RTVSPropertyOp26
 70
     1
102
RTVSPropertyOp27
 70
     1
102
RTVSPropertyOp28
 70
     1
102
RTVSPropertyOp29
 70
     1
102
RTVSPropertyOp30
 70
     1
102
RTVSPropertyOp31
 70
     1
102
RTVSPropertyOp32
 70
     1
102
RTVSPropertyOp33
 70
     1
102
RTVSPropertyOp34
 70
     1
102
RTVSPropertyOp35
 70
     1
102
RTVSPropertyOp36
 70
     1
102
RTVSPropertyOp37
 70
     1
102
RTVSPropertyOp38
 70
     1
102
RTVSPropertyOp39
 70
     1
102
RTVSPropertyOp40
 70
     1
102
RTVSPropertyOp41
 70
     1
102
RTVSPropertyOp42
 70
     1
102
RTVSPropertyOp43
 70
     1
102
RTVSPropertyOp44
 70
     1
102
RTVSPropertyOp45
 70
     1
102
RTVSPropertyOp46
 70
     1
102
RTVSPropertyOp47
 70
     1
102
RTVSPropertyOp48
 70
     1
102
RTVSPropertyOp49
 70
     1
102
RTVSPropertyOp50
 70
     1
102
RTVSPropertyOp51
 70
     0
102
RTVSPropertyOp52
 70
     0
102
RTVSPropertyOp53
 70
     1
102
RTVSPropertyOp54
 70
     1
102
RTVSPropertyOp55
 70
     1
102
RTVSPropertyOp56
 70
     1
102
RTVSPropertyOp57
 70
     1
102
RTVSPropertyOp58
 70
     1
102
RTVSPropertyOp59
 70
     1
102
RTVSPropertyOp60
 70
     1
102
RTVSPropertyOp61
 70
     1
102
RTVSPropertyOp62
 70
     1
  0
XRECORD
  5
1D65
102
{ACAD_REACTORS
330
1D64
102
}
330
1D64
100
AcDbXrecord
280
     1
102
RTVSPost2010Prop28
280
     0
102
RTVSPost2010PropOp28
 70
     1
102
RTVSPost2010Prop29
280
     1
102
RTVSPost2010PropOp29
 70
     1
102
RTVSPost2010Prop30
280
     1
102
RTVSPost2010PropOp30
 70
     1
102
RTVSPost2010Prop31
280
     0
102
RTVSPost2010PropOp31
 70
     1
102
RTVSPost2010Prop32
280
     0
102
RTVSPost2010PropOp32
 70
     1
102
RTVSPost2010Prop33
280
     0
102
RTVSPost2010PropOp33
 70
     1
102
RTVSPost2010Prop34
280
     0
102
RTVSPost2010PropOp34
 70
     1
102
RTVSPost2010Prop35
280
     0
102
RTVSPost2010PropOp35
 70
     1
102
RTVSPost2010Prop36
280
     0
102
RTVSPost2010PropOp36
 70
     1
102
RTVSPost2010Prop37
 90
       50
102
RTVSPost2010PropOp37
 70
     1
102
RTVSPost2010Prop38
140
0.0
102
RTVSPost2010PropOp38
 70
     1
102
RTVSPost2010Prop39
140
1.0
102
RTVSPost2010PropOp39
 70
     1
102
RTVSPost2010Prop40
 90
        0
102
RTVSPost2010PropOp40
 70
     1
102
RTVSPost2010Prop41ColorIndex
 90
       18
102
RTVSPost2010Prop41ColorRGB
 90
        0
102
RTVSPost2010PropOp41
 70
     1
102
RTVSPost2010Prop42
 90
       50
102
RTVSPost2010PropOp42
 70
     1
102
RTVSPost2010Prop43
 90
        3
102
RTVSPost2010PropOp43
 70
     1
102
RTVSPost2010Prop44ColorIndex
 90
        5
102
RTVSPost2010Prop44ColorRGB
 90
      255
102
RTVSPost2010PropOp44
 70
     1
102
RTVSPost2010Prop45
280
     0
102
RTVSPost2010PropOp45
 70
     1
102
RTVSPost2010Prop46
 90
       50
102
RTVSPost2010PropOp46
 70
     1
102
RTVSPost2010Prop47
 90
       50
102
RTVSPost2010PropOp47
 70
     1
102
RTVSPost2010Prop48
 90
       50
102
RTVSPost2010PropOp48
 70
     1
102
RTVSPost2010Prop49
280
     0
102
RTVSPost2010PropOp49
 70
     1
102
RTVSPost2010Prop50
 90
       50
102
RTVSPost2010PropOp50
 70
     1
102
RTVSPost2010Prop51ColorIndex
 90
      256
102
RTVSPost2010Prop51ColorRGB
 90
-16777216
102
RTVSPost2010PropOp51
 70
     0
102
RTVSPost2010Prop52
140
1.0
102
RTVSPost2010PropOp52
 70
     0
102
RTVSPost2010Prop53
 90
        2
102
RTVSPost2010PropOp53
 70
     1
102
RTVSPost2010Prop54
  1
strokes_ogs.tif
102
RTVSPost2010PropOp54
 70
     1
102
RTVSPost2010Prop55
280
     0
102
RTVSPost2010PropOp55
 70
     1
102
RTVSPost2010Prop56
140
1.0
102
RTVSPost2010PropOp56
 70
     1
102
RTVSPost2010Prop57
140
1.0
102
RTVSPost2010PropOp57
 70
     1
102
RTVSPropertyOp0
 70
     1
102
RTVSPropertyOp1
 70
     1
102
RTVSPropertyOp2
 70
     1
102
RTVSPropertyOp3
 70
     1
102
RTVSPropertyOp4
 70
     1
102
RTVSPropertyOp5
 70
     1
102
RTVSPropertyOp6
 70
     1
102
RTVSPropertyOp7
 70
     1
102
RTVSPropertyOp8
 70
     1
102
RTVSPropertyOp9
 70
     1
102
RTVSPropertyOp10
 70
     1
102
RTVSPropertyOp11
 70
     1
102
RTVSPropertyOp12
 70
     1
102
RTVSPropertyOp13
 70
     1
102
RTVSPropertyOp14
 70
     1
102
RTVSPropertyOp15
 70
     1
102
RTVSPropertyOp16
 70
     1
102
RTVSPropertyOp17
 70
     1
102
RTVSPropertyOp18
 70
     1
102
RTVSPropertyOp19
 70
     1
102
RTVSPropertyOp20
 70
     1
102
RTVSPropertyOp21
 70
     1
102
RTVSPropertyOp22
 70
     1
102
RTVSPropertyOp23
 70
     1
102
RTVSPropertyOp24
 70
     1
102
RTVSPropertyOp25
 70
     1
102
RTVSPropertyOp26
 70
     1
102
RTVSPropertyOp27
 70
     1
102
RTVSPropertyOp28
 70
     1
102
RTVSPropertyOp29
 70
     1
102
RTVSPropertyOp30
 70
     1
102
RTVSPropertyOp31
 70
     1
102
RTVSPropertyOp32
 70
     1
102
RTVSPropertyOp33
 70
     1
102
RTVSPropertyOp34
 70
     1
102
RTVSPropertyOp35
 70
     1
102
RTVSPropertyOp36
 70
     1
102
RTVSPropertyOp37
 70
     1
102
RTVSPropertyOp38
 70
     1
102
RTVSPropertyOp39
 70
     1
102
RTVSPropertyOp40
 70
     1
102
RTVSPropertyOp41
 70
     1
102
RTVSPropertyOp42
 70
     1
102
RTVSPropertyOp43
 70
     1
102
RTVSPropertyOp44
 70
     1
102
RTVSPropertyOp45
 70
     1
102
RTVSPropertyOp46
 70
     1
102
RTVSPropertyOp47
 70
     1
102
RTVSPropertyOp48
 70
     1
102
RTVSPropertyOp49
 70
     1
102
RTVSPropertyOp50
 70
     1
102
RTVSPropertyOp51
 70
     0
102
RTVSPropertyOp52
 70
     0
102
RTVSPropertyOp53
 70
     1
102
RTVSPropertyOp54
 70
     1
102
RTVSPropertyOp55
 70
     1
102
RTVSPropertyOp56
 70
     1
102
RTVSPropertyOp57
 70
     1
102
RTVSPropertyOp58
 70
     1
102
RTVSPropertyOp59
 70
     1
102
RTVSPropertyOp60
 70
     1
102
RTVSPropertyOp61
 70
     1
102
RTVSPropertyOp62
 70
     1
  0
XRECORD
  5
1D57
102
{ACAD_REACTORS
330
1D56
102
}
330
1D56
100
AcDbXrecord
280
     1
102
RTVSPost2010Prop28
280
     0
102
RTVSPost2010PropOp28
 70
     1
102
RTVSPost2010Prop29
280
     1
102
RTVSPost2010PropOp29
 70
     1
102
RTVSPost2010Prop30
280
     1
102
RTVSPost2010PropOp30
 70
     1
102
RTVSPost2010Prop31
280
     0
102
RTVSPost2010PropOp31
 70
     1
102
RTVSPost2010Prop32
280
     0
102
RTVSPost2010PropOp32
 70
     1
102
RTVSPost2010Prop33
280
     0
102
RTVSPost2010PropOp33
 70
     1
102
RTVSPost2010Prop34
280
     0
102
RTVSPost2010PropOp34
 70
     1
102
RTVSPost2010Prop35
280
     0
102
RTVSPost2010PropOp35
 70
     1
102
RTVSPost2010Prop36
280
     0
102
RTVSPost2010PropOp36
 70
     1
102
RTVSPost2010Prop37
 90
       50
102
RTVSPost2010PropOp37
 70
     1
102
RTVSPost2010Prop38
140
0.0
102
RTVSPost2010PropOp38
 70
     1
102
RTVSPost2010Prop39
140
1.0
102
RTVSPost2010PropOp39
 70
     1
102
RTVSPost2010Prop40
 90
        0
102
RTVSPost2010PropOp40
 70
     1
102
RTVSPost2010Prop41ColorIndex
 90
       18
102
RTVSPost2010Prop41ColorRGB
 90
        0
102
RTVSPost2010PropOp41
 70
     1
102
RTVSPost2010Prop42
 90
       50
102
RTVSPost2010PropOp42
 70
     1
102
RTVSPost2010Prop43
 90
        3
102
RTVSPost2010PropOp43
 70
     1
102
RTVSPost2010Prop44ColorIndex
 90
        5
102
RTVSPost2010Prop44ColorRGB
 90
      255
102
RTVSPost2010PropOp44
 70
     1
102
RTVSPost2010Prop45
280
     0
102
RTVSPost2010PropOp45
 70
     1
102
RTVSPost2010Prop46
 90
       50
102
RTVSPost2010PropOp46
 70
     1
102
RTVSPost2010Prop47
 90
       50
102
RTVSPost2010PropOp47
 70
     1
102
RTVSPost2010Prop48
 90
       50
102
RTVSPost2010PropOp48
 70
     1
102
RTVSPost2010Prop49
280
     0
102
RTVSPost2010PropOp49
 70
     1
102
RTVSPost2010Prop50
 90
       50
102
RTVSPost2010PropOp50
 70
     1
102
RTVSPost2010Prop51ColorIndex
 90
      256
102
RTVSPost2010Prop51ColorRGB
 90
-16777216
102
RTVSPost2010PropOp51
 70
     0
102
RTVSPost2010Prop52
140
1.0
102
RTVSPost2010PropOp52
 70
     0
102
RTVSPost2010Prop53
 90
        2
102
RTVSPost2010PropOp53
 70
     1
102
RTVSPost2010Prop54
  1
strokes_ogs.tif
102
RTVSPost2010PropOp54
 70
     1
102
RTVSPost2010Prop55
280
     0
102
RTVSPost2010PropOp55
 70
     1
102
RTVSPost2010Prop56
140
1.0
102
RTVSPost2010PropOp56
 70
     1
102
RTVSPost2010Prop57
140
1.0
102
RTVSPost2010PropOp57
 70
     1
102
RTVSPropertyOp0
 70
     1
102
RTVSPropertyOp1
 70
     1
102
RTVSPropertyOp2
 70
     1
102
RTVSPropertyOp3
 70
     1
102
RTVSPropertyOp4
 70
     1
102
RTVSPropertyOp5
 70
     1
102
RTVSPropertyOp6
 70
     1
102
RTVSPropertyOp7
 70
     1
102
RTVSPropertyOp8
 70
     1
102
RTVSPropertyOp9
 70
     1
102
RTVSPropertyOp10
 70
     1
102
RTVSPropertyOp11
 70
     1
102
RTVSPropertyOp12
 70
     1
102
RTVSPropertyOp13
 70
     1
102
RTVSPropertyOp14
 70
     1
102
RTVSPropertyOp15
 70
     1
102
RTVSPropertyOp16
 70
     1
102
RTVSPropertyOp17
 70
     1
102
RTVSPropertyOp18
 70
     1
102
RTVSPropertyOp19
 70
     1
102
RTVSPropertyOp20
 70
     1
102
RTVSPropertyOp21
 70
     1
102
RTVSPropertyOp22
 70
     1
102
RTVSPropertyOp23
 70
     1
102
RTVSPropertyOp24
 70
     1
102
RTVSPropertyOp25
 70
     1
102
RTVSPropertyOp26
 70
     1
102
RTVSPropertyOp27
 70
     1
102
RTVSPropertyOp28
 70
     1
102
RTVSPropertyOp29
 70
     1
102
RTVSPropertyOp30
 70
     1
102
RTVSPropertyOp31
 70
     1
102
RTVSPropertyOp32
 70
     1
102
RTVSPropertyOp33
 70
     1
102
RTVSPropertyOp34
 70
     1
102
RTVSPropertyOp35
 70
     1
102
RTVSPropertyOp36
 70
     1
102
RTVSPropertyOp37
 70
     1
102
RTVSPropertyOp38
 70
     1
102
RTVSPropertyOp39
 70
     1
102
RTVSPropertyOp40
 70
     1
102
RTVSPropertyOp41
 70
     1
102
RTVSPropertyOp42
 70
     1
102
RTVSPropertyOp43
 70
     1
102
RTVSPropertyOp44
 70
     1
102
RTVSPropertyOp45
 70
     1
102
RTVSPropertyOp46
 70
     1
102
RTVSPropertyOp47
 70
     1
102
RTVSPropertyOp48
 70
     1
102
RTVSPropertyOp49
 70
     1
102
RTVSPropertyOp50
 70
     1
102
RTVSPropertyOp51
 70
     0
102
RTVSPropertyOp52
 70
     0
102
RTVSPropertyOp53
 70
     1
102
RTVSPropertyOp54
 70
     1
102
RTVSPropertyOp55
 70
     1
102
RTVSPropertyOp56
 70
     1
102
RTVSPropertyOp57
 70
     1
102
RTVSPropertyOp58
 70
     1
102
RTVSPropertyOp59
 70
     1
102
RTVSPropertyOp60
 70
     1
102
RTVSPropertyOp61
 70
     1
102
RTVSPropertyOp62
 70
     1
  0
XRECORD
  5
1D5B
102
{ACAD_REACTORS
330
1D5A
102
}
330
1D5A
100
AcDbXrecord
280
     1
102
RTVSPost2010Prop28
280
     0
102
RTVSPost2010PropOp28
 70
     1
102
RTVSPost2010Prop29
280
     1
102
RTVSPost2010PropOp29
 70
     1
102
RTVSPost2010Prop30
280
     1
102
RTVSPost2010PropOp30
 70
     1
102
RTVSPost2010Prop31
280
     0
102
RTVSPost2010PropOp31
 70
     1
102
RTVSPost2010Prop32
280
     0
102
RTVSPost2010PropOp32
 70
     1
102
RTVSPost2010Prop33
280
     0
102
RTVSPost2010PropOp33
 70
     1
102
RTVSPost2010Prop34
280
     0
102
RTVSPost2010PropOp34
 70
     1
102
RTVSPost2010Prop35
280
     0
102
RTVSPost2010PropOp35
 70
     1
102
RTVSPost2010Prop36
280
     0
102
RTVSPost2010PropOp36
 70
     1
102
RTVSPost2010Prop37
 90
       50
102
RTVSPost2010PropOp37
 70
     1
102
RTVSPost2010Prop38
140
0.0
102
RTVSPost2010PropOp38
 70
     1
102
RTVSPost2010Prop39
140
1.0
102
RTVSPost2010PropOp39
 70
     1
102
RTVSPost2010Prop40
 90
        0
102
RTVSPost2010PropOp40
 70
     1
102
RTVSPost2010Prop41ColorIndex
 90
       18
102
RTVSPost2010Prop41ColorRGB
 90
        0
102
RTVSPost2010PropOp41
 70
     1
102
RTVSPost2010Prop42
 90
       50
102
RTVSPost2010PropOp42
 70
     1
102
RTVSPost2010Prop43
 90
        3
102
RTVSPost2010PropOp43
 70
     1
102
RTVSPost2010Prop44ColorIndex
 90
        5
102
RTVSPost2010Prop44ColorRGB
 90
      255
102
RTVSPost2010PropOp44
 70
     1
102
RTVSPost2010Prop45
280
     0
102
RTVSPost2010PropOp45
 70
     1
102
RTVSPost2010Prop46
 90
       50
102
RTVSPost2010PropOp46
 70
     1
102
RTVSPost2010Prop47
 90
       50
102
RTVSPost2010PropOp47
 70
     1
102
RTVSPost2010Prop48
 90
       50
102
RTVSPost2010PropOp48
 70
     1
102
RTVSPost2010Prop49
280
     0
102
RTVSPost2010PropOp49
 70
     1
102
RTVSPost2010Prop50
 90
       50
102
RTVSPost2010PropOp50
 70
     1
102
RTVSPost2010Prop51ColorIndex
 90
      256
102
RTVSPost2010Prop51ColorRGB
 90
-16777216
102
RTVSPost2010PropOp51
 70
     0
102
RTVSPost2010Prop52
140
1.0
102
RTVSPost2010PropOp52
 70
     0
102
RTVSPost2010Prop53
 90
        2
102
RTVSPost2010PropOp53
 70
     1
102
RTVSPost2010Prop54
  1
strokes_ogs.tif
102
RTVSPost2010PropOp54
 70
     1
102
RTVSPost2010Prop55
280
     0
102
RTVSPost2010PropOp55
 70
     1
102
RTVSPost2010Prop56
140
1.0
102
RTVSPost2010PropOp56
 70
     1
102
RTVSPost2010Prop57
140
1.0
102
RTVSPost2010PropOp57
 70
     1
102
RTVSPropertyOp0
 70
     1
102
RTVSPropertyOp1
 70
     1
102
RTVSPropertyOp2
 70
     1
102
RTVSPropertyOp3
 70
     1
102
RTVSPropertyOp4
 70
     1
102
RTVSPropertyOp5
 70
     1
102
RTVSPropertyOp6
 70
     1
102
RTVSPropertyOp7
 70
     1
102
RTVSPropertyOp8
 70
     1
102
RTVSPropertyOp9
 70
     1
102
RTVSPropertyOp10
 70
     1
102
RTVSPropertyOp11
 70
     1
102
RTVSPropertyOp12
 70
     1
102
RTVSPropertyOp13
 70
     1
102
RTVSPropertyOp14
 70
     1
102
RTVSPropertyOp15
 70
     1
102
RTVSPropertyOp16
 70
     1
102
RTVSPropertyOp17
 70
     1
102
RTVSPropertyOp18
 70
     1
102
RTVSPropertyOp19
 70
     1
102
RTVSPropertyOp20
 70
     1
102
RTVSPropertyOp21
 70
     1
102
RTVSPropertyOp22
 70
     1
102
RTVSPropertyOp23
 70
     1
102
RTVSPropertyOp24
 70
     1
102
RTVSPropertyOp25
 70
     1
102
RTVSPropertyOp26
 70
     1
102
RTVSPropertyOp27
 70
     1
102
RTVSPropertyOp28
 70
     1
102
RTVSPropertyOp29
 70
     1
102
RTVSPropertyOp30
 70
     1
102
RTVSPropertyOp31
 70
     1
102
RTVSPropertyOp32
 70
     1
102
RTVSPropertyOp33
 70
     1
102
RTVSPropertyOp34
 70
     1
102
RTVSPropertyOp35
 70
     1
102
RTVSPropertyOp36
 70
     1
102
RTVSPropertyOp37
 70
     1
102
RTVSPropertyOp38
 70
     1
102
RTVSPropertyOp39
 70
     1
102
RTVSPropertyOp40
 70
     1
102
RTVSPropertyOp41
 70
     1
102
RTVSPropertyOp42
 70
     1
102
RTVSPropertyOp43
 70
     1
102
RTVSPropertyOp44
 70
     1
102
RTVSPropertyOp45
 70
     1
102
RTVSPropertyOp46
 70
     1
102
RTVSPropertyOp47
 70
     1
102
RTVSPropertyOp48
 70
     1
102
RTVSPropertyOp49
 70
     1
102
RTVSPropertyOp50
 70
     1
102
RTVSPropertyOp51
 70
     0
102
RTVSPropertyOp52
 70
     0
102
RTVSPropertyOp53
 70
     1
102
RTVSPropertyOp54
 70
     1
102
RTVSPropertyOp55
 70
     1
102
RTVSPropertyOp56
 70
     1
102
RTVSPropertyOp57
 70
     1
102
RTVSPropertyOp58
 70
     1
102
RTVSPropertyOp59
 70
     1
102
RTVSPropertyOp60
 70
     1
102
RTVSPropertyOp61
 70
     1
102
RTVSPropertyOp62
 70
     1
  0
XRECORD
  5
1D75
102
{ACAD_REACTORS
330
1D74
102
}
330
1D74
100
AcDbXrecord
280
     1
102
RTVSPost2010Prop28
280
     0
102
RTVSPost2010PropOp28
 70
     1
102
RTVSPost2010Prop29
280
     1
102
RTVSPost2010PropOp29
 70
     1
102
RTVSPost2010Prop30
280
     1
102
RTVSPost2010PropOp30
 70
     1
102
RTVSPost2010Prop31
280
     0
102
RTVSPost2010PropOp31
 70
     1
102
RTVSPost2010Prop32
280
     0
102
RTVSPost2010PropOp32
 70
     1
102
RTVSPost2010Prop33
280
     0
102
RTVSPost2010PropOp33
 70
     1
102
RTVSPost2010Prop34
280
     0
102
RTVSPost2010PropOp34
 70
     1
102
RTVSPost2010Prop35
280
     0
102
RTVSPost2010PropOp35
 70
     1
102
RTVSPost2010Prop36
280
     0
102
RTVSPost2010PropOp36
 70
     1
102
RTVSPost2010Prop37
 90
       50
102
RTVSPost2010PropOp37
 70
     0
102
RTVSPost2010Prop38
140
0.0
102
RTVSPost2010PropOp38
 70
     0
102
RTVSPost2010Prop39
140
1.0
102
RTVSPost2010PropOp39
 70
     0
102
RTVSPost2010Prop40
 90
        0
102
RTVSPost2010PropOp40
 70
     0
102
RTVSPost2010Prop41ColorIndex
 90
       18
102
RTVSPost2010Prop41ColorRGB
 90
        0
102
RTVSPost2010PropOp41
 70
     0
102
RTVSPost2010Prop42
 90
       50
102
RTVSPost2010PropOp42
 70
     0
102
RTVSPost2010Prop43
 90
        3
102
RTVSPost2010PropOp43
 70
     0
102
RTVSPost2010Prop44ColorIndex
 90
        5
102
RTVSPost2010Prop44ColorRGB
 90
      255
102
RTVSPost2010PropOp44
 70
     0
102
RTVSPost2010Prop45
280
     0
102
RTVSPost2010PropOp45
 70
     1
102
RTVSPost2010Prop46
 90
       50
102
RTVSPost2010PropOp46
 70
     0
102
RTVSPost2010Prop47
 90
       50
102
RTVSPost2010PropOp47
 70
     0
102
RTVSPost2010Prop48
 90
       50
102
RTVSPost2010PropOp48
 70
     0
102
RTVSPost2010Prop49
280
     0
102
RTVSPost2010PropOp49
 70
     1
102
RTVSPost2010Prop50
 90
       50
102
RTVSPost2010PropOp50
 70
     0
102
RTVSPost2010Prop51ColorIndex
 90
      256
102
RTVSPost2010Prop51ColorRGB
 90
-16777216
102
RTVSPost2010PropOp51
 70
     0
102
RTVSPost2010Prop52
140
1.0
102
RTVSPost2010PropOp52
 70
     0
102
RTVSPost2010Prop53
 90
        2
102
RTVSPost2010PropOp53
 70
     0
102
RTVSPost2010Prop54
  1
strokes_ogs.tif
102
RTVSPost2010PropOp54
 70
     0
102
RTVSPost2010Prop55
280
     0
102
RTVSPost2010PropOp55
 70
     1
102
RTVSPost2010Prop56
140
1.0
102
RTVSPost2010PropOp56
 70
     0
102
RTVSPost2010Prop57
140
1.0
102
RTVSPost2010PropOp57
 70
     0
102
RTVSPropertyOp0
 70
     0
102
RTVSPropertyOp1
 70
     0
102
RTVSPropertyOp2
 70
     0
102
RTVSPropertyOp3
 70
     0
102
RTVSPropertyOp4
 70
     0
102
RTVSPropertyOp5
 70
     0
102
RTVSPropertyOp6
 70
     0
102
RTVSPropertyOp7
 70
     0
102
RTVSPropertyOp8
 70
     0
102
RTVSPropertyOp9
 70
     0
102
RTVSPropertyOp10
 70
     0
102
RTVSPropertyOp11
 70
     0
102
RTVSPropertyOp12
 70
     0
102
RTVSPropertyOp13
 70
     0
102
RTVSPropertyOp14
 70
     2
102
RTVSPropertyOp15
 70
     0
102
RTVSPropertyOp16
 70
     0
102
RTVSPropertyOp17
 70
     0
102
RTVSPropertyOp18
 70
     0
102
RTVSPropertyOp19
 70
     0
102
RTVSPropertyOp20
 70
     0
102
RTVSPropertyOp21
 70
     0
102
RTVSPropertyOp22
 70
     0
102
RTVSPropertyOp23
 70
     0
102
RTVSPropertyOp24
 70
     0
102
RTVSPropertyOp25
 70
     0
102
RTVSPropertyOp26
 70
     0
102
RTVSPropertyOp27
 70
     0
102
RTVSPropertyOp28
 70
     1
102
RTVSPropertyOp29
 70
     1
102
RTVSPropertyOp30
 70
     1
102
RTVSPropertyOp31
 70
     1
102
RTVSPropertyOp32
 70
     1
102
RTVSPropertyOp33
 70
     1
102
RTVSPropertyOp34
 70
     1
102
RTVSPropertyOp35
 70
     1
102
RTVSPropertyOp36
 70
     1
102
RTVSPropertyOp37
 70
     0
102
RTVSPropertyOp38
 70
     0
102
RTVSPropertyOp39
 70
     0
102
RTVSPropertyOp40
 70
     0
102
RTVSPropertyOp41
 70
     0
102
RTVSPropertyOp42
 70
     0
102
RTVSPropertyOp43
 70
     0
102
RTVSPropertyOp44
 70
     0
102
RTVSPropertyOp45
 70
     1
102
RTVSPropertyOp46
 70
     0
102
RTVSPropertyOp47
 70
     0
102
RTVSPropertyOp48
 70
     0
102
RTVSPropertyOp49
 70
     1
102
RTVSPropertyOp50
 70
     0
102
RTVSPropertyOp51
 70
     0
102
RTVSPropertyOp52
 70
     0
102
RTVSPropertyOp53
 70
     0
102
RTVSPropertyOp54
 70
     0
102
RTVSPropertyOp55
 70
     1
102
RTVSPropertyOp56
 70
     0
102
RTVSPropertyOp57
 70
     0
102
RTVSPropertyOp58
 70
     0
102
RTVSPropertyOp59
 70
     0
102
RTVSPropertyOp60
 70
     0
102
RTVSPropertyOp61
 70
     0
102
RTVSPropertyOp62
 70
     0
  0
XRECORD
  5
1D63
102
{ACAD_REACTORS
330
1D62
102
}
330
1D62
100
AcDbXrecord
280
     1
102
RTVSPost2010Prop28
280
     0
102
RTVSPost2010PropOp28
 70
     1
102
RTVSPost2010Prop29
280
     1
102
RTVSPost2010PropOp29
 70
     1
102
RTVSPost2010Prop30
280
     1
102
RTVSPost2010PropOp30
 70
     1
102
RTVSPost2010Prop31
280
     0
102
RTVSPost2010PropOp31
 70
     1
102
RTVSPost2010Prop32
280
     0
102
RTVSPost2010PropOp32
 70
     1
102
RTVSPost2010Prop33
280
     0
102
RTVSPost2010PropOp33
 70
     1
102
RTVSPost2010Prop34
280
     0
102
RTVSPost2010PropOp34
 70
     1
102
RTVSPost2010Prop35
280
     0
102
RTVSPost2010PropOp35
 70
     1
102
RTVSPost2010Prop36
280
     0
102
RTVSPost2010PropOp36
 70
     1
102
RTVSPost2010Prop37
 90
       50
102
RTVSPost2010PropOp37
 70
     1
102
RTVSPost2010Prop38
140
0.0
102
RTVSPost2010PropOp38
 70
     1
102
RTVSPost2010Prop39
140
1.0
102
RTVSPost2010PropOp39
 70
     1
102
RTVSPost2010Prop40
 90
        0
102
RTVSPost2010PropOp40
 70
     1
102
RTVSPost2010Prop41ColorIndex
 90
       18
102
RTVSPost2010Prop41ColorRGB
 90
        0
102
RTVSPost2010PropOp41
 70
     1
102
RTVSPost2010Prop42
 90
       50
102
RTVSPost2010PropOp42
 70
     1
102
RTVSPost2010Prop43
 90
        3
102
RTVSPost2010PropOp43
 70
     1
102
RTVSPost2010Prop44ColorIndex
 90
        5
102
RTVSPost2010Prop44ColorRGB
 90
      255
102
RTVSPost2010PropOp44
 70
     1
102
RTVSPost2010Prop45
280
     0
102
RTVSPost2010PropOp45
 70
     1
102
RTVSPost2010Prop46
 90
       50
102
RTVSPost2010PropOp46
 70
     1
102
RTVSPost2010Prop47
 90
       50
102
RTVSPost2010PropOp47
 70
     1
102
RTVSPost2010Prop48
 90
       50
102
RTVSPost2010PropOp48
 70
     1
102
RTVSPost2010Prop49
280
     0
102
RTVSPost2010PropOp49
 70
     1
102
RTVSPost2010Prop50
 90
       50
102
RTVSPost2010PropOp50
 70
     1
102
RTVSPost2010Prop51ColorIndex
 90
      256
102
RTVSPost2010Prop51ColorRGB
 90
-16777216
102
RTVSPost2010PropOp51
 70
     0
102
RTVSPost2010Prop52
140
1.0
102
RTVSPost2010PropOp52
 70
     0
102
RTVSPost2010Prop53
 90
        2
102
RTVSPost2010PropOp53
 70
     1
102
RTVSPost2010Prop54
  1
strokes_ogs.tif
102
RTVSPost2010PropOp54
 70
     1
102
RTVSPost2010Prop55
280
     0
102
RTVSPost2010PropOp55
 70
     1
102
RTVSPost2010Prop56
140
1.0
102
RTVSPost2010PropOp56
 70
     1
102
RTVSPost2010Prop57
140
1.0
102
RTVSPost2010PropOp57
 70
     1
102
RTVSPropertyOp0
 70
     1
102
RTVSPropertyOp1
 70
     1
102
RTVSPropertyOp2
 70
     1
102
RTVSPropertyOp3
 70
     1
102
RTVSPropertyOp4
 70
     1
102
RTVSPropertyOp5
 70
     1
102
RTVSPropertyOp6
 70
     1
102
RTVSPropertyOp7
 70
     1
102
RTVSPropertyOp8
 70
     1
102
RTVSPropertyOp9
 70
     1
102
RTVSPropertyOp10
 70
     1
102
RTVSPropertyOp11
 70
     1
102
RTVSPropertyOp12
 70
     1
102
RTVSPropertyOp13
 70
     1
102
RTVSPropertyOp14
 70
     1
102
RTVSPropertyOp15
 70
     1
102
RTVSPropertyOp16
 70
     1
102
RTVSPropertyOp17
 70
     1
102
RTVSPropertyOp18
 70
     1
102
RTVSPropertyOp19
 70
     1
102
RTVSPropertyOp20
 70
     1
102
RTVSPropertyOp21
 70
     1
102
RTVSPropertyOp22
 70
     1
102
RTVSPropertyOp23
 70
     1
102
RTVSPropertyOp24
 70
     1
102
RTVSPropertyOp25
 70
     1
102
RTVSPropertyOp26
 70
     1
102
RTVSPropertyOp27
 70
     1
102
RTVSPropertyOp28
 70
     1
102
RTVSPropertyOp29
 70
     1
102
RTVSPropertyOp30
 70
     1
102
RTVSPropertyOp31
 70
     1
102
RTVSPropertyOp32
 70
     1
102
RTVSPropertyOp33
 70
     1
102
RTVSPropertyOp34
 70
     1
102
RTVSPropertyOp35
 70
     1
102
RTVSPropertyOp36
 70
     1
102
RTVSPropertyOp37
 70
     1
102
RTVSPropertyOp38
 70
     1
102
RTVSPropertyOp39
 70
     1
102
RTVSPropertyOp40
 70
     1
102
RTVSPropertyOp41
 70
     1
102
RTVSPropertyOp42
 70
     1
102
RTVSPropertyOp43
 70
     1
102
RTVSPropertyOp44
 70
     1
102
RTVSPropertyOp45
 70
     1
102
RTVSPropertyOp46
 70
     1
102
RTVSPropertyOp47
 70
     1
102
RTVSPropertyOp48
 70
     1
102
RTVSPropertyOp49
 70
     1
102
RTVSPropertyOp50
 70
     1
102
RTVSPropertyOp51
 70
     0
102
RTVSPropertyOp52
 70
     0
102
RTVSPropertyOp53
 70
     1
102
RTVSPropertyOp54
 70
     1
102
RTVSPropertyOp55
 70
     1
102
RTVSPropertyOp56
 70
     1
102
RTVSPropertyOp57
 70
     1
102
RTVSPropertyOp58
 70
     1
102
RTVSPropertyOp59
 70
     1
102
RTVSPropertyOp60
 70
     1
102
RTVSPropertyOp61
 70
     1
102
RTVSPropertyOp62
 70
     1
  0
XRECORD
  5
1D47
102
{ACAD_REACTORS
330
1D46
102
}
330
1D46
100
AcDbXrecord
280
     1
102
RTVSPost2010Prop28
280
     0
102
RTVSPost2010PropOp28
 70
     1
102
RTVSPost2010Prop29
280
     1
102
RTVSPost2010PropOp29
 70
     1
102
RTVSPost2010Prop30
280
     1
102
RTVSPost2010PropOp30
 70
     1
102
RTVSPost2010Prop31
280
     0
102
RTVSPost2010PropOp31
 70
     1
102
RTVSPost2010Prop32
280
     0
102
RTVSPost2010PropOp32
 70
     1
102
RTVSPost2010Prop33
280
     0
102
RTVSPost2010PropOp33
 70
     1
102
RTVSPost2010Prop34
280
     0
102
RTVSPost2010PropOp34
 70
     1
102
RTVSPost2010Prop35
280
     0
102
RTVSPost2010PropOp35
 70
     1
102
RTVSPost2010Prop36
280
     0
102
RTVSPost2010PropOp36
 70
     1
102
RTVSPost2010Prop37
 90
       50
102
RTVSPost2010PropOp37
 70
     1
102
RTVSPost2010Prop38
140
0.0
102
RTVSPost2010PropOp38
 70
     1
102
RTVSPost2010Prop39
140
1.0
102
RTVSPost2010PropOp39
 70
     1
102
RTVSPost2010Prop40
 90
        0
102
RTVSPost2010PropOp40
 70
     1
102
RTVSPost2010Prop41ColorIndex
 90
       18
102
RTVSPost2010Prop41ColorRGB
 90
        0
102
RTVSPost2010PropOp41
 70
     1
102
RTVSPost2010Prop42
 90
       50
102
RTVSPost2010PropOp42
 70
     1
102
RTVSPost2010Prop43
 90
        3
102
RTVSPost2010PropOp43
 70
     1
102
RTVSPost2010Prop44ColorIndex
 90
        5
102
RTVSPost2010Prop44ColorRGB
 90
      255
102
RTVSPost2010PropOp44
 70
     1
102
RTVSPost2010Prop45
280
     0
102
RTVSPost2010PropOp45
 70
     1
102
RTVSPost2010Prop46
 90
       50
102
RTVSPost2010PropOp46
 70
     1
102
RTVSPost2010Prop47
 90
       50
102
RTVSPost2010PropOp47
 70
     1
102
RTVSPost2010Prop48
 90
       50
102
RTVSPost2010PropOp48
 70
     1
102
RTVSPost2010Prop49
280
     0
102
RTVSPost2010PropOp49
 70
     1
102
RTVSPost2010Prop50
 90
       50
102
RTVSPost2010PropOp50
 70
     1
102
RTVSPost2010Prop51ColorIndex
 90
      256
102
RTVSPost2010Prop51ColorRGB
 90
-16777216
102
RTVSPost2010PropOp51
 70
     0
102
RTVSPost2010Prop52
140
1.0
102
RTVSPost2010PropOp52
 70
     0
102
RTVSPost2010Prop53
 90
        2
102
RTVSPost2010PropOp53
 70
     1
102
RTVSPost2010Prop54
  1
strokes_ogs.tif
102
RTVSPost2010PropOp54
 70
     1
102
RTVSPost2010Prop55
280
     0
102
RTVSPost2010PropOp55
 70
     1
102
RTVSPost2010Prop56
140
1.0
102
RTVSPost2010PropOp56
 70
     1
102
RTVSPost2010Prop57
140
1.0
102
RTVSPost2010PropOp57
 70
     1
102
RTVSPropertyOp0
 70
     1
102
RTVSPropertyOp1
 70
     1
102
RTVSPropertyOp2
 70
     1
102
RTVSPropertyOp3
 70
     1
102
RTVSPropertyOp4
 70
     1
102
RTVSPropertyOp5
 70
     1
102
RTVSPropertyOp6
 70
     1
102
RTVSPropertyOp7
 70
     1
102
RTVSPropertyOp8
 70
     1
102
RTVSPropertyOp9
 70
     1
102
RTVSPropertyOp10
 70
     1
102
RTVSPropertyOp11
 70
     1
102
RTVSPropertyOp12
 70
     1
102
RTVSPropertyOp13
 70
     1
102
RTVSPropertyOp14
 70
     1
102
RTVSPropertyOp15
 70
     1
102
RTVSPropertyOp16
 70
     1
102
RTVSPropertyOp17
 70
     1
102
RTVSPropertyOp18
 70
     1
102
RTVSPropertyOp19
 70
     1
102
RTVSPropertyOp20
 70
     1
102
RTVSPropertyOp21
 70
     1
102
RTVSPropertyOp22
 70
     1
102
RTVSPropertyOp23
 70
     1
102
RTVSPropertyOp24
 70
     1
102
RTVSPropertyOp25
 70
     1
102
RTVSPropertyOp26
 70
     1
102
RTVSPropertyOp27
 70
     1
102
RTVSPropertyOp28
 70
     1
102
RTVSPropertyOp29
 70
     1
102
RTVSPropertyOp30
 70
     1
102
RTVSPropertyOp31
 70
     1
102
RTVSPropertyOp32
 70
     1
102
RTVSPropertyOp33
 70
     1
102
RTVSPropertyOp34
 70
     1
102
RTVSPropertyOp35
 70
     1
102
RTVSPropertyOp36
 70
     1
102
RTVSPropertyOp37
 70
     1
102
RTVSPropertyOp38
 70
     1
102
RTVSPropertyOp39
 70
     1
102
RTVSPropertyOp40
 70
     1
102
RTVSPropertyOp41
 70
     1
102
RTVSPropertyOp42
 70
     1
102
RTVSPropertyOp43
 70
     1
102
RTVSPropertyOp44
 70
     1
102
RTVSPropertyOp45
 70
     1
102
RTVSPropertyOp46
 70
     1
102
RTVSPropertyOp47
 70
     1
102
RTVSPropertyOp48
 70
     1
102
RTVSPropertyOp49
 70
     1
102
RTVSPropertyOp50
 70
     1
102
RTVSPropertyOp51
 70
     0
102
RTVSPropertyOp52
 70
     0
102
RTVSPropertyOp53
 70
     1
102
RTVSPropertyOp54
 70
     1
102
RTVSPropertyOp55
 70
     1
102
RTVSPropertyOp56
 70
     1
102
RTVSPropertyOp57
 70
     1
102
RTVSPropertyOp58
 70
     1
102
RTVSPropertyOp59
 70
     1
102
RTVSPropertyOp60
 70
     1
102
RTVSPropertyOp61
 70
     1
102
RTVSPropertyOp62
 70
     1
  0
XRECORD
  5
1D49
102
{ACAD_REACTORS
330
1D48
102
}
330
1D48
100
AcDbXrecord
280
     1
102
RTVSPost2010Prop28
280
     0
102
RTVSPost2010PropOp28
 70
     1
102
RTVSPost2010Prop29
280
     1
102
RTVSPost2010PropOp29
 70
     1
102
RTVSPost2010Prop30
280
     1
102
RTVSPost2010PropOp30
 70
     1
102
RTVSPost2010Prop31
280
     0
102
RTVSPost2010PropOp31
 70
     1
102
RTVSPost2010Prop32
280
     0
102
RTVSPost2010PropOp32
 70
     1
102
RTVSPost2010Prop33
280
     0
102
RTVSPost2010PropOp33
 70
     1
102
RTVSPost2010Prop34
280
     0
102
RTVSPost2010PropOp34
 70
     1
102
RTVSPost2010Prop35
280
     0
102
RTVSPost2010PropOp35
 70
     1
102
RTVSPost2010Prop36
280
     0
102
RTVSPost2010PropOp36
 70
     1
102
RTVSPost2010Prop37
 90
       50
102
RTVSPost2010PropOp37
 70
     1
102
RTVSPost2010Prop38
140
0.0
102
RTVSPost2010PropOp38
 70
     1
102
RTVSPost2010Prop39
140
1.0
102
RTVSPost2010PropOp39
 70
     1
102
RTVSPost2010Prop40
 90
        0
102
RTVSPost2010PropOp40
 70
     1
102
RTVSPost2010Prop41ColorIndex
 90
       18
102
RTVSPost2010Prop41ColorRGB
 90
        0
102
RTVSPost2010PropOp41
 70
     1
102
RTVSPost2010Prop42
 90
       50
102
RTVSPost2010PropOp42
 70
     1
102
RTVSPost2010Prop43
 90
        3
102
RTVSPost2010PropOp43
 70
     1
102
RTVSPost2010Prop44ColorIndex
 90
        5
102
RTVSPost2010Prop44ColorRGB
 90
      255
102
RTVSPost2010PropOp44
 70
     1
102
RTVSPost2010Prop45
280
     0
102
RTVSPost2010PropOp45
 70
     1
102
RTVSPost2010Prop46
 90
       50
102
RTVSPost2010PropOp46
 70
     1
102
RTVSPost2010Prop47
 90
       50
102
RTVSPost2010PropOp47
 70
     1
102
RTVSPost2010Prop48
 90
       50
102
RTVSPost2010PropOp48
 70
     1
102
RTVSPost2010Prop49
280
     0
102
RTVSPost2010PropOp49
 70
     1
102
RTVSPost2010Prop50
 90
       50
102
RTVSPost2010PropOp50
 70
     1
102
RTVSPost2010Prop51ColorIndex
 90
      256
102
RTVSPost2010Prop51ColorRGB
 90
-16777216
102
RTVSPost2010PropOp51
 70
     0
102
RTVSPost2010Prop52
140
1.0
102
RTVSPost2010PropOp52
 70
     0
102
RTVSPost2010Prop53
 90
        2
102
RTVSPost2010PropOp53
 70
     1
102
RTVSPost2010Prop54
  1
strokes_ogs.tif
102
RTVSPost2010PropOp54
 70
     1
102
RTVSPost2010Prop55
280
     0
102
RTVSPost2010PropOp55
 70
     1
102
RTVSPost2010Prop56
140
1.0
102
RTVSPost2010PropOp56
 70
     1
102
RTVSPost2010Prop57
140
1.0
102
RTVSPost2010PropOp57
 70
     1
102
RTVSPropertyOp0
 70
     1
102
RTVSPropertyOp1
 70
     1
102
RTVSPropertyOp2
 70
     1
102
RTVSPropertyOp3
 70
     1
102
RTVSPropertyOp4
 70
     1
102
RTVSPropertyOp5
 70
     1
102
RTVSPropertyOp6
 70
     1
102
RTVSPropertyOp7
 70
     1
102
RTVSPropertyOp8
 70
     1
102
RTVSPropertyOp9
 70
     1
102
RTVSPropertyOp10
 70
     1
102
RTVSPropertyOp11
 70
     1
102
RTVSPropertyOp12
 70
     1
102
RTVSPropertyOp13
 70
     1
102
RTVSPropertyOp14
 70
     1
102
RTVSPropertyOp15
 70
     1
102
RTVSPropertyOp16
 70
     1
102
RTVSPropertyOp17
 70
     1
102
RTVSPropertyOp18
 70
     1
102
RTVSPropertyOp19
 70
     1
102
RTVSPropertyOp20
 70
     1
102
RTVSPropertyOp21
 70
     1
102
RTVSPropertyOp22
 70
     1
102
RTVSPropertyOp23
 70
     1
102
RTVSPropertyOp24
 70
     1
102
RTVSPropertyOp25
 70
     1
102
RTVSPropertyOp26
 70
     1
102
RTVSPropertyOp27
 70
     1
102
RTVSPropertyOp28
 70
     1
102
RTVSPropertyOp29
 70
     1
102
RTVSPropertyOp30
 70
     1
102
RTVSPropertyOp31
 70
     1
102
RTVSPropertyOp32
 70
     1
102
RTVSPropertyOp33
 70
     1
102
RTVSPropertyOp34
 70
     1
102
RTVSPropertyOp35
 70
     1
102
RTVSPropertyOp36
 70
     1
102
RTVSPropertyOp37
 70
     1
102
RTVSPropertyOp38
 70
     1
102
RTVSPropertyOp39
 70
     1
102
RTVSPropertyOp40
 70
     1
102
RTVSPropertyOp41
 70
     1
102
RTVSPropertyOp42
 70
     1
102
RTVSPropertyOp43
 70
     1
102
RTVSPropertyOp44
 70
     1
102
RTVSPropertyOp45
 70
     1
102
RTVSPropertyOp46
 70
     1
102
RTVSPropertyOp47
 70
     1
102
RTVSPropertyOp48
 70
     1
102
RTVSPropertyOp49
 70
     1
102
RTVSPropertyOp50
 70
     1
102
RTVSPropertyOp51
 70
     0
102
RTVSPropertyOp52
 70
     0
102
RTVSPropertyOp53
 70
     1
102
RTVSPropertyOp54
 70
     1
102
RTVSPropertyOp55
 70
     1
102
RTVSPropertyOp56
 70
     1
102
RTVSPropertyOp57
 70
     1
102
RTVSPropertyOp58
 70
     1
102
RTVSPropertyOp59
 70
     1
102
RTVSPropertyOp60
 70
     1
102
RTVSPropertyOp61
 70
     1
102
RTVSPropertyOp62
 70
     1
  0
XRECORD
  5
1D4B
102
{ACAD_REACTORS
330
1D4A
102
}
330
1D4A
100
AcDbXrecord
280
     1
102
RTVSPost2010Prop28
280
     0
102
RTVSPost2010PropOp28
 70
     1
102
RTVSPost2010Prop29
280
     1
102
RTVSPost2010PropOp29
 70
     1
102
RTVSPost2010Prop30
280
     1
102
RTVSPost2010PropOp30
 70
     1
102
RTVSPost2010Prop31
280
     0
102
RTVSPost2010PropOp31
 70
     1
102
RTVSPost2010Prop32
280
     0
102
RTVSPost2010PropOp32
 70
     1
102
RTVSPost2010Prop33
280
     0
102
RTVSPost2010PropOp33
 70
     1
102
RTVSPost2010Prop34
280
     0
102
RTVSPost2010PropOp34
 70
     1
102
RTVSPost2010Prop35
280
     0
102
RTVSPost2010PropOp35
 70
     1
102
RTVSPost2010Prop36
280
     0
102
RTVSPost2010PropOp36
 70
     1
102
RTVSPost2010Prop37
 90
       50
102
RTVSPost2010PropOp37
 70
     1
102
RTVSPost2010Prop38
140
0.0
102
RTVSPost2010PropOp38
 70
     1
102
RTVSPost2010Prop39
140
1.0
102
RTVSPost2010PropOp39
 70
     1
102
RTVSPost2010Prop40
 90
        0
102
RTVSPost2010PropOp40
 70
     1
102
RTVSPost2010Prop41ColorIndex
 90
       18
102
RTVSPost2010Prop41ColorRGB
 90
        0
102
RTVSPost2010PropOp41
 70
     1
102
RTVSPost2010Prop42
 90
       50
102
RTVSPost2010PropOp42
 70
     1
102
RTVSPost2010Prop43
 90
        3
102
RTVSPost2010PropOp43
 70
     1
102
RTVSPost2010Prop44ColorIndex
 90
        5
102
RTVSPost2010Prop44ColorRGB
 90
      255
102
RTVSPost2010PropOp44
 70
     1
102
RTVSPost2010Prop45
280
     0
102
RTVSPost2010PropOp45
 70
     1
102
RTVSPost2010Prop46
 90
       50
102
RTVSPost2010PropOp46
 70
     1
102
RTVSPost2010Prop47
 90
       50
102
RTVSPost2010PropOp47
 70
     1
102
RTVSPost2010Prop48
 90
       50
102
RTVSPost2010PropOp48
 70
     1
102
RTVSPost2010Prop49
280
     0
102
RTVSPost2010PropOp49
 70
     1
102
RTVSPost2010Prop50
 90
       50
102
RTVSPost2010PropOp50
 70
     1
102
RTVSPost2010Prop51ColorIndex
 90
      256
102
RTVSPost2010Prop51ColorRGB
 90
-16777216
102
RTVSPost2010PropOp51
 70
     0
102
RTVSPost2010Prop52
140
1.0
102
RTVSPost2010PropOp52
 70
     0
102
RTVSPost2010Prop53
 90
        2
102
RTVSPost2010PropOp53
 70
     1
102
RTVSPost2010Prop54
  1
strokes_ogs.tif
102
RTVSPost2010PropOp54
 70
     1
102
RTVSPost2010Prop55
280
     0
102
RTVSPost2010PropOp55
 70
     1
102
RTVSPost2010Prop56
140
1.0
102
RTVSPost2010PropOp56
 70
     1
102
RTVSPost2010Prop57
140
1.0
102
RTVSPost2010PropOp57
 70
     1
102
RTVSPropertyOp0
 70
     1
102
RTVSPropertyOp1
 70
     1
102
RTVSPropertyOp2
 70
     1
102
RTVSPropertyOp3
 70
     1
102
RTVSPropertyOp4
 70
     1
102
RTVSPropertyOp5
 70
     1
102
RTVSPropertyOp6
 70
     1
102
RTVSPropertyOp7
 70
     1
102
RTVSPropertyOp8
 70
     1
102
RTVSPropertyOp9
 70
     1
102
RTVSPropertyOp10
 70
     1
102
RTVSPropertyOp11
 70
     1
102
RTVSPropertyOp12
 70
     1
102
RTVSPropertyOp13
 70
     1
102
RTVSPropertyOp14
 70
     1
102
RTVSPropertyOp15
 70
     1
102
RTVSPropertyOp16
 70
     1
102
RTVSPropertyOp17
 70
     1
102
RTVSPropertyOp18
 70
     1
102
RTVSPropertyOp19
 70
     1
102
RTVSPropertyOp20
 70
     1
102
RTVSPropertyOp21
 70
     1
102
RTVSPropertyOp22
 70
     1
102
RTVSPropertyOp23
 70
     1
102
RTVSPropertyOp24
 70
     1
102
RTVSPropertyOp25
 70
     1
102
RTVSPropertyOp26
 70
     1
102
RTVSPropertyOp27
 70
     1
102
RTVSPropertyOp28
 70
     1
102
RTVSPropertyOp29
 70
     1
102
RTVSPropertyOp30
 70
     1
102
RTVSPropertyOp31
 70
     1
102
RTVSPropertyOp32
 70
     1
102
RTVSPropertyOp33
 70
     1
102
RTVSPropertyOp34
 70
     1
102
RTVSPropertyOp35
 70
     1
102
RTVSPropertyOp36
 70
     1
102
RTVSPropertyOp37
 70
     1
102
RTVSPropertyOp38
 70
     1
102
RTVSPropertyOp39
 70
     1
102
RTVSPropertyOp40
 70
     1
102
RTVSPropertyOp41
 70
     1
102
RTVSPropertyOp42
 70
     1
102
RTVSPropertyOp43
 70
     1
102
RTVSPropertyOp44
 70
     1
102
RTVSPropertyOp45
 70
     1
102
RTVSPropertyOp46
 70
     1
102
RTVSPropertyOp47
 70
     1
102
RTVSPropertyOp48
 70
     1
102
RTVSPropertyOp49
 70
     1
102
RTVSPropertyOp50
 70
     1
102
RTVSPropertyOp51
 70
     0
102
RTVSPropertyOp52
 70
     0
102
RTVSPropertyOp53
 70
     1
102
RTVSPropertyOp54
 70
     1
102
RTVSPropertyOp55
 70
     1
102
RTVSPropertyOp56
 70
     1
102
RTVSPropertyOp57
 70
     1
102
RTVSPropertyOp58
 70
     1
102
RTVSPropertyOp59
 70
     1
102
RTVSPropertyOp60
 70
     1
102
RTVSPropertyOp61
 70
     1
102
RTVSPropertyOp62
 70
     1
  0
XRECORD
  5
1D4D
102
{ACAD_REACTORS
330
1D4C
102
}
330
1D4C
100
AcDbXrecord
280
     1
102
RTVSPost2010Prop28
280
     0
102
RTVSPost2010PropOp28
 70
     1
102
RTVSPost2010Prop29
280
     1
102
RTVSPost2010PropOp29
 70
     1
102
RTVSPost2010Prop30
280
     1
102
RTVSPost2010PropOp30
 70
     1
102
RTVSPost2010Prop31
280
     0
102
RTVSPost2010PropOp31
 70
     1
102
RTVSPost2010Prop32
280
     0
102
RTVSPost2010PropOp32
 70
     1
102
RTVSPost2010Prop33
280
     0
102
RTVSPost2010PropOp33
 70
     1
102
RTVSPost2010Prop34
280
     0
102
RTVSPost2010PropOp34
 70
     1
102
RTVSPost2010Prop35
280
     0
102
RTVSPost2010PropOp35
 70
     1
102
RTVSPost2010Prop36
280
     0
102
RTVSPost2010PropOp36
 70
     1
102
RTVSPost2010Prop37
 90
       50
102
RTVSPost2010PropOp37
 70
     1
102
RTVSPost2010Prop38
140
0.0
102
RTVSPost2010PropOp38
 70
     1
102
RTVSPost2010Prop39
140
1.0
102
RTVSPost2010PropOp39
 70
     1
102
RTVSPost2010Prop40
 90
        0
102
RTVSPost2010PropOp40
 70
     1
102
RTVSPost2010Prop41ColorIndex
 90
       18
102
RTVSPost2010Prop41ColorRGB
 90
        0
102
RTVSPost2010PropOp41
 70
     1
102
RTVSPost2010Prop42
 90
       50
102
RTVSPost2010PropOp42
 70
     1
102
RTVSPost2010Prop43
 90
        3
102
RTVSPost2010PropOp43
 70
     1
102
RTVSPost2010Prop44ColorIndex
 90
        5
102
RTVSPost2010Prop44ColorRGB
 90
      255
102
RTVSPost2010PropOp44
 70
     1
102
RTVSPost2010Prop45
280
     0
102
RTVSPost2010PropOp45
 70
     1
102
RTVSPost2010Prop46
 90
       50
102
RTVSPost2010PropOp46
 70
     1
102
RTVSPost2010Prop47
 90
       50
102
RTVSPost2010PropOp47
 70
     1
102
RTVSPost2010Prop48
 90
       50
102
RTVSPost2010PropOp48
 70
     1
102
RTVSPost2010Prop49
280
     0
102
RTVSPost2010PropOp49
 70
     1
102
RTVSPost2010Prop50
 90
       50
102
RTVSPost2010PropOp50
 70
     1
102
RTVSPost2010Prop51ColorIndex
 90
      256
102
RTVSPost2010Prop51ColorRGB
 90
-16777216
102
RTVSPost2010PropOp51
 70
     0
102
RTVSPost2010Prop52
140
1.0
102
RTVSPost2010PropOp52
 70
     0
102
RTVSPost2010Prop53
 90
        2
102
RTVSPost2010PropOp53
 70
     1
102
RTVSPost2010Prop54
  1
strokes_ogs.tif
102
RTVSPost2010PropOp54
 70
     1
102
RTVSPost2010Prop55
280
     0
102
RTVSPost2010PropOp55
 70
     1
102
RTVSPost2010Prop56
140
1.0
102
RTVSPost2010PropOp56
 70
     1
102
RTVSPost2010Prop57
140
1.0
102
RTVSPost2010PropOp57
 70
     1
102
RTVSPropertyOp0
 70
     1
102
RTVSPropertyOp1
 70
     1
102
RTVSPropertyOp2
 70
     1
102
RTVSPropertyOp3
 70
     1
102
RTVSPropertyOp4
 70
     1
102
RTVSPropertyOp5
 70
     1
102
RTVSPropertyOp6
 70
     1
102
RTVSPropertyOp7
 70
     1
102
RTVSPropertyOp8
 70
     1
102
RTVSPropertyOp9
 70
     1
102
RTVSPropertyOp10
 70
     1
102
RTVSPropertyOp11
 70
     1
102
RTVSPropertyOp12
 70
     1
102
RTVSPropertyOp13
 70
     1
102
RTVSPropertyOp14
 70
     1
102
RTVSPropertyOp15
 70
     1
102
RTVSPropertyOp16
 70
     1
102
RTVSPropertyOp17
 70
     1
102
RTVSPropertyOp18
 70
     1
102
RTVSPropertyOp19
 70
     1
102
RTVSPropertyOp20
 70
     1
102
RTVSPropertyOp21
 70
     1
102
RTVSPropertyOp22
 70
     1
102
RTVSPropertyOp23
 70
     1
102
RTVSPropertyOp24
 70
     1
102
RTVSPropertyOp25
 70
     1
102
RTVSPropertyOp26
 70
     1
102
RTVSPropertyOp27
 70
     1
102
RTVSPropertyOp28
 70
     1
102
RTVSPropertyOp29
 70
     1
102
RTVSPropertyOp30
 70
     1
102
RTVSPropertyOp31
 70
     1
102
RTVSPropertyOp32
 70
     1
102
RTVSPropertyOp33
 70
     1
102
RTVSPropertyOp34
 70
     1
102
RTVSPropertyOp35
 70
     1
102
RTVSPropertyOp36
 70
     1
102
RTVSPropertyOp37
 70
     1
102
RTVSPropertyOp38
 70
     1
102
RTVSPropertyOp39
 70
     1
102
RTVSPropertyOp40
 70
     1
102
RTVSPropertyOp41
 70
     1
102
RTVSPropertyOp42
 70
     1
102
RTVSPropertyOp43
 70
     1
102
RTVSPropertyOp44
 70
     1
102
RTVSPropertyOp45
 70
     1
102
RTVSPropertyOp46
 70
     1
102
RTVSPropertyOp47
 70
     1
102
RTVSPropertyOp48
 70
     1
102
RTVSPropertyOp49
 70
     1
102
RTVSPropertyOp50
 70
     1
102
RTVSPropertyOp51
 70
     0
102
RTVSPropertyOp52
 70
     0
102
RTVSPropertyOp53
 70
     1
102
RTVSPropertyOp54
 70
     1
102
RTVSPropertyOp55
 70
     1
102
RTVSPropertyOp56
 70
     1
102
RTVSPropertyOp57
 70
     1
102
RTVSPropertyOp58
 70
     1
102
RTVSPropertyOp59
 70
     1
102
RTVSPropertyOp60
 70
     1
102
RTVSPropertyOp61
 70
     1
102
RTVSPropertyOp62
 70
     1
  0
XRECORD
  5
1D55
102
{ACAD_REACTORS
330
1D54
102
}
330
1D54
100
AcDbXrecord
280
     1
102
RTVSPost2010Prop28
280
     0
102
RTVSPost2010PropOp28
 70
     1
102
RTVSPost2010Prop29
280
     1
102
RTVSPost2010PropOp29
 70
     1
102
RTVSPost2010Prop30
280
     1
102
RTVSPost2010PropOp30
 70
     1
102
RTVSPost2010Prop31
280
     0
102
RTVSPost2010PropOp31
 70
     1
102
RTVSPost2010Prop32
280
     0
102
RTVSPost2010PropOp32
 70
     1
102
RTVSPost2010Prop33
280
     0
102
RTVSPost2010PropOp33
 70
     1
102
RTVSPost2010Prop34
280
     0
102
RTVSPost2010PropOp34
 70
     1
102
RTVSPost2010Prop35
280
     0
102
RTVSPost2010PropOp35
 70
     1
102
RTVSPost2010Prop36
280
     0
102
RTVSPost2010PropOp36
 70
     1
102
RTVSPost2010Prop37
 90
       50
102
RTVSPost2010PropOp37
 70
     1
102
RTVSPost2010Prop38
140
0.0
102
RTVSPost2010PropOp38
 70
     1
102
RTVSPost2010Prop39
140
1.0
102
RTVSPost2010PropOp39
 70
     1
102
RTVSPost2010Prop40
 90
        0
102
RTVSPost2010PropOp40
 70
     1
102
RTVSPost2010Prop41ColorIndex
 90
       18
102
RTVSPost2010Prop41ColorRGB
 90
        0
102
RTVSPost2010PropOp41
 70
     1
102
RTVSPost2010Prop42
 90
       50
102
RTVSPost2010PropOp42
 70
     1
102
RTVSPost2010Prop43
 90
        3
102
RTVSPost2010PropOp43
 70
     1
102
RTVSPost2010Prop44ColorIndex
 90
        5
102
RTVSPost2010Prop44ColorRGB
 90
      255
102
RTVSPost2010PropOp44
 70
     1
102
RTVSPost2010Prop45
280
     0
102
RTVSPost2010PropOp45
 70
     1
102
RTVSPost2010Prop46
 90
       50
102
RTVSPost2010PropOp46
 70
     1
102
RTVSPost2010Prop47
 90
       50
102
RTVSPost2010PropOp47
 70
     1
102
RTVSPost2010Prop48
 90
       50
102
RTVSPost2010PropOp48
 70
     1
102
RTVSPost2010Prop49
280
     0
102
RTVSPost2010PropOp49
 70
     1
102
RTVSPost2010Prop50
 90
       50
102
RTVSPost2010PropOp50
 70
     1
102
RTVSPost2010Prop51ColorIndex
 90
      256
102
RTVSPost2010Prop51ColorRGB
 90
-16777216
102
RTVSPost2010PropOp51
 70
     0
102
RTVSPost2010Prop52
140
1.0
102
RTVSPost2010PropOp52
 70
     0
102
RTVSPost2010Prop53
 90
        2
102
RTVSPost2010PropOp53
 70
     1
102
RTVSPost2010Prop54
  1
strokes_ogs.tif
102
RTVSPost2010PropOp54
 70
     1
102
RTVSPost2010Prop55
280
     0
102
RTVSPost2010PropOp55
 70
     1
102
RTVSPost2010Prop56
140
1.0
102
RTVSPost2010PropOp56
 70
     1
102
RTVSPost2010Prop57
140
1.0
102
RTVSPost2010PropOp57
 70
     1
102
RTVSPropertyOp0
 70
     1
102
RTVSPropertyOp1
 70
     1
102
RTVSPropertyOp2
 70
     1
102
RTVSPropertyOp3
 70
     1
102
RTVSPropertyOp4
 70
     1
102
RTVSPropertyOp5
 70
     1
102
RTVSPropertyOp6
 70
     1
102
RTVSPropertyOp7
 70
     1
102
RTVSPropertyOp8
 70
     1
102
RTVSPropertyOp9
 70
     1
102
RTVSPropertyOp10
 70
     1
102
RTVSPropertyOp11
 70
     1
102
RTVSPropertyOp12
 70
     1
102
RTVSPropertyOp13
 70
     1
102
RTVSPropertyOp14
 70
     1
102
RTVSPropertyOp15
 70
     1
102
RTVSPropertyOp16
 70
     1
102
RTVSPropertyOp17
 70
     1
102
RTVSPropertyOp18
 70
     1
102
RTVSPropertyOp19
 70
     1
102
RTVSPropertyOp20
 70
     1
102
RTVSPropertyOp21
 70
     1
102
RTVSPropertyOp22
 70
     1
102
RTVSPropertyOp23
 70
     1
102
RTVSPropertyOp24
 70
     1
102
RTVSPropertyOp25
 70
     1
102
RTVSPropertyOp26
 70
     1
102
RTVSPropertyOp27
 70
     1
102
RTVSPropertyOp28
 70
     1
102
RTVSPropertyOp29
 70
     1
102
RTVSPropertyOp30
 70
     1
102
RTVSPropertyOp31
 70
     1
102
RTVSPropertyOp32
 70
     1
102
RTVSPropertyOp33
 70
     1
102
RTVSPropertyOp34
 70
     1
102
RTVSPropertyOp35
 70
     1
102
RTVSPropertyOp36
 70
     1
102
RTVSPropertyOp37
 70
     1
102
RTVSPropertyOp38
 70
     1
102
RTVSPropertyOp39
 70
     1
102
RTVSPropertyOp40
 70
     1
102
RTVSPropertyOp41
 70
     1
102
RTVSPropertyOp42
 70
     1
102
RTVSPropertyOp43
 70
     1
102
RTVSPropertyOp44
 70
     1
102
RTVSPropertyOp45
 70
     1
102
RTVSPropertyOp46
 70
     1
102
RTVSPropertyOp47
 70
     1
102
RTVSPropertyOp48
 70
     1
102
RTVSPropertyOp49
 70
     1
102
RTVSPropertyOp50
 70
     1
102
RTVSPropertyOp51
 70
     0
102
RTVSPropertyOp52
 70
     0
102
RTVSPropertyOp53
 70
     1
102
RTVSPropertyOp54
 70
     1
102
RTVSPropertyOp55
 70
     1
102
RTVSPropertyOp56
 70
     1
102
RTVSPropertyOp57
 70
     1
102
RTVSPropertyOp58
 70
     1
102
RTVSPropertyOp59
 70
     1
102
RTVSPropertyOp60
 70
     1
102
RTVSPropertyOp61
 70
     1
102
RTVSPropertyOp62
 70
     1
  0
XRECORD
  5
1D71
102
{ACAD_REACTORS
330
1D70
102
}
330
1D70
100
AcDbXrecord
280
     1
102
RTVSPost2010Prop28
280
     0
102
RTVSPost2010PropOp28
 70
     1
102
RTVSPost2010Prop29
280
     1
102
RTVSPost2010PropOp29
 70
     1
102
RTVSPost2010Prop30
280
     1
102
RTVSPost2010PropOp30
 70
     1
102
RTVSPost2010Prop31
280
     0
102
RTVSPost2010PropOp31
 70
     1
102
RTVSPost2010Prop32
280
     0
102
RTVSPost2010PropOp32
 70
     1
102
RTVSPost2010Prop33
280
     0
102
RTVSPost2010PropOp33
 70
     1
102
RTVSPost2010Prop34
280
     0
102
RTVSPost2010PropOp34
 70
     1
102
RTVSPost2010Prop35
280
     0
102
RTVSPost2010PropOp35
 70
     1
102
RTVSPost2010Prop36
280
     0
102
RTVSPost2010PropOp36
 70
     1
102
RTVSPost2010Prop37
 90
       50
102
RTVSPost2010PropOp37
 70
     0
102
RTVSPost2010Prop38
140
0.0
102
RTVSPost2010PropOp38
 70
     0
102
RTVSPost2010Prop39
140
1.0
102
RTVSPost2010PropOp39
 70
     0
102
RTVSPost2010Prop40
 90
        0
102
RTVSPost2010PropOp40
 70
     0
102
RTVSPost2010Prop41ColorIndex
 90
       18
102
RTVSPost2010Prop41ColorRGB
 90
        0
102
RTVSPost2010PropOp41
 70
     0
102
RTVSPost2010Prop42
 90
       50
102
RTVSPost2010PropOp42
 70
     0
102
RTVSPost2010Prop43
 90
        3
102
RTVSPost2010PropOp43
 70
     0
102
RTVSPost2010Prop44ColorIndex
 90
        5
102
RTVSPost2010Prop44ColorRGB
 90
      255
102
RTVSPost2010PropOp44
 70
     0
102
RTVSPost2010Prop45
280
     0
102
RTVSPost2010PropOp45
 70
     1
102
RTVSPost2010Prop46
 90
       50
102
RTVSPost2010PropOp46
 70
     0
102
RTVSPost2010Prop47
 90
       50
102
RTVSPost2010PropOp47
 70
     0
102
RTVSPost2010Prop48
 90
       50
102
RTVSPost2010PropOp48
 70
     0
102
RTVSPost2010Prop49
280
     0
102
RTVSPost2010PropOp49
 70
     1
102
RTVSPost2010Prop50
 90
       50
102
RTVSPost2010PropOp50
 70
     0
102
RTVSPost2010Prop51ColorIndex
 90
      256
102
RTVSPost2010Prop51ColorRGB
 90
-16777216
102
RTVSPost2010PropOp51
 70
     0
102
RTVSPost2010Prop52
140
1.0
102
RTVSPost2010PropOp52
 70
     0
102
RTVSPost2010Prop53
 90
        2
102
RTVSPost2010PropOp53
 70
     0
102
RTVSPost2010Prop54
  1
strokes_ogs.tif
102
RTVSPost2010PropOp54
 70
     0
102
RTVSPost2010Prop55
280
     0
102
RTVSPost2010PropOp55
 70
     1
102
RTVSPost2010Prop56
140
1.0
102
RTVSPost2010PropOp56
 70
     0
102
RTVSPost2010Prop57
140
1.0
102
RTVSPost2010PropOp57
 70
     0
102
RTVSPropertyOp0
 70
     0
102
RTVSPropertyOp1
 70
     0
102
RTVSPropertyOp2
 70
     0
102
RTVSPropertyOp3
 70
     0
102
RTVSPropertyOp4
 70
     0
102
RTVSPropertyOp5
 70
     0
102
RTVSPropertyOp6
 70
     0
102
RTVSPropertyOp7
 70
     0
102
RTVSPropertyOp8
 70
     0
102
RTVSPropertyOp9
 70
     0
102
RTVSPropertyOp10
 70
     0
102
RTVSPropertyOp11
 70
     0
102
RTVSPropertyOp12
 70
     0
102
RTVSPropertyOp13
 70
     0
102
RTVSPropertyOp14
 70
     2
102
RTVSPropertyOp15
 70
     0
102
RTVSPropertyOp16
 70
     0
102
RTVSPropertyOp17
 70
     0
102
RTVSPropertyOp18
 70
     0
102
RTVSPropertyOp19
 70
     0
102
RTVSPropertyOp20
 70
     0
102
RTVSPropertyOp21
 70
     0
102
RTVSPropertyOp22
 70
     0
102
RTVSPropertyOp23
 70
     0
102
RTVSPropertyOp24
 70
     0
102
RTVSPropertyOp25
 70
     0
102
RTVSPropertyOp26
 70
     0
102
RTVSPropertyOp27
 70
     0
102
RTVSPropertyOp28
 70
     1
102
RTVSPropertyOp29
 70
     1
102
RTVSPropertyOp30
 70
     1
102
RTVSPropertyOp31
 70
     1
102
RTVSPropertyOp32
 70
     1
102
RTVSPropertyOp33
 70
     1
102
RTVSPropertyOp34
 70
     1
102
RTVSPropertyOp35
 70
     1
102
RTVSPropertyOp36
 70
     1
102
RTVSPropertyOp37
 70
     0
102
RTVSPropertyOp38
 70
     0
102
RTVSPropertyOp39
 70
     0
102
RTVSPropertyOp40
 70
     0
102
RTVSPropertyOp41
 70
     0
102
RTVSPropertyOp42
 70
     0
102
RTVSPropertyOp43
 70
     0
102
RTVSPropertyOp44
 70
     0
102
RTVSPropertyOp45
 70
     1
102
RTVSPropertyOp46
 70
     0
102
RTVSPropertyOp47
 70
     0
102
RTVSPropertyOp48
 70
     0
102
RTVSPropertyOp49
 70
     1
102
RTVSPropertyOp50
 70
     0
102
RTVSPropertyOp51
 70
     0
102
RTVSPropertyOp52
 70
     0
102
RTVSPropertyOp53
 70
     0
102
RTVSPropertyOp54
 70
     0
102
RTVSPropertyOp55
 70
     1
102
RTVSPropertyOp56
 70
     0
102
RTVSPropertyOp57
 70
     0
102
RTVSPropertyOp58
 70
     0
102
RTVSPropertyOp59
 70
     0
102
RTVSPropertyOp60
 70
     0
102
RTVSPropertyOp61
 70
     0
102
RTVSPropertyOp62
 70
     0
  0
XRECORD
  5
1D61
102
{ACAD_REACTORS
330
1D60
102
}
330
1D60
100
AcDbXrecord
280
     1
102
RTVSPost2010Prop28
280
     0
102
RTVSPost2010PropOp28
 70
     1
102
RTVSPost2010Prop29
280
     1
102
RTVSPost2010PropOp29
 70
     1
102
RTVSPost2010Prop30
280
     1
102
RTVSPost2010PropOp30
 70
     1
102
RTVSPost2010Prop31
280
     0
102
RTVSPost2010PropOp31
 70
     1
102
RTVSPost2010Prop32
280
     0
102
RTVSPost2010PropOp32
 70
     1
102
RTVSPost2010Prop33
280
     0
102
RTVSPost2010PropOp33
 70
     1
102
RTVSPost2010Prop34
280
     0
102
RTVSPost2010PropOp34
 70
     1
102
RTVSPost2010Prop35
280
     0
102
RTVSPost2010PropOp35
 70
     1
102
RTVSPost2010Prop36
280
     0
102
RTVSPost2010PropOp36
 70
     1
102
RTVSPost2010Prop37
 90
       50
102
RTVSPost2010PropOp37
 70
     1
102
RTVSPost2010Prop38
140
0.0
102
RTVSPost2010PropOp38
 70
     1
102
RTVSPost2010Prop39
140
1.0
102
RTVSPost2010PropOp39
 70
     1
102
RTVSPost2010Prop40
 90
        0
102
RTVSPost2010PropOp40
 70
     1
102
RTVSPost2010Prop41ColorIndex
 90
       18
102
RTVSPost2010Prop41ColorRGB
 90
        0
102
RTVSPost2010PropOp41
 70
     1
102
RTVSPost2010Prop42
 90
       50
102
RTVSPost2010PropOp42
 70
     1
102
RTVSPost2010Prop43
 90
        3
102
RTVSPost2010PropOp43
 70
     1
102
RTVSPost2010Prop44ColorIndex
 90
        5
102
RTVSPost2010Prop44ColorRGB
 90
      255
102
RTVSPost2010PropOp44
 70
     1
102
RTVSPost2010Prop45
280
     0
102
RTVSPost2010PropOp45
 70
     1
102
RTVSPost2010Prop46
 90
       50
102
RTVSPost2010PropOp46
 70
     1
102
RTVSPost2010Prop47
 90
       50
102
RTVSPost2010PropOp47
 70
     1
102
RTVSPost2010Prop48
 90
       50
102
RTVSPost2010PropOp48
 70
     1
102
RTVSPost2010Prop49
280
     0
102
RTVSPost2010PropOp49
 70
     1
102
RTVSPost2010Prop50
 90
       50
102
RTVSPost2010PropOp50
 70
     1
102
RTVSPost2010Prop51ColorIndex
 90
      256
102
RTVSPost2010Prop51ColorRGB
 90
-16777216
102
RTVSPost2010PropOp51
 70
     0
102
RTVSPost2010Prop52
140
1.0
102
RTVSPost2010PropOp52
 70
     0
102
RTVSPost2010Prop53
 90
        2
102
RTVSPost2010PropOp53
 70
     1
102
RTVSPost2010Prop54
  1
strokes_ogs.tif
102
RTVSPost2010PropOp54
 70
     1
102
RTVSPost2010Prop55
280
     0
102
RTVSPost2010PropOp55
 70
     1
102
RTVSPost2010Prop56
140
1.0
102
RTVSPost2010PropOp56
 70
     1
102
RTVSPost2010Prop57
140
1.0
102
RTVSPost2010PropOp57
 70
     1
102
RTVSPropertyOp0
 70
     1
102
RTVSPropertyOp1
 70
     1
102
RTVSPropertyOp2
 70
     1
102
RTVSPropertyOp3
 70
     1
102
RTVSPropertyOp4
 70
     1
102
RTVSPropertyOp5
 70
     1
102
RTVSPropertyOp6
 70
     1
102
RTVSPropertyOp7
 70
     1
102
RTVSPropertyOp8
 70
     1
102
RTVSPropertyOp9
 70
     1
102
RTVSPropertyOp10
 70
     1
102
RTVSPropertyOp11
 70
     1
102
RTVSPropertyOp12
 70
     1
102
RTVSPropertyOp13
 70
     1
102
RTVSPropertyOp14
 70
     1
102
RTVSPropertyOp15
 70
     1
102
RTVSPropertyOp16
 70
     1
102
RTVSPropertyOp17
 70
     1
102
RTVSPropertyOp18
 70
     1
102
RTVSPropertyOp19
 70
     1
102
RTVSPropertyOp20
 70
     1
102
RTVSPropertyOp21
 70
     1
102
RTVSPropertyOp22
 70
     1
102
RTVSPropertyOp23
 70
     1
102
RTVSPropertyOp24
 70
     1
102
RTVSPropertyOp25
 70
     1
102
RTVSPropertyOp26
 70
     1
102
RTVSPropertyOp27
 70
     1
102
RTVSPropertyOp28
 70
     1
102
RTVSPropertyOp29
 70
     1
102
RTVSPropertyOp30
 70
     1
102
RTVSPropertyOp31
 70
     1
102
RTVSPropertyOp32
 70
     1
102
RTVSPropertyOp33
 70
     1
102
RTVSPropertyOp34
 70
     1
102
RTVSPropertyOp35
 70
     1
102
RTVSPropertyOp36
 70
     1
102
RTVSPropertyOp37
 70
     1
102
RTVSPropertyOp38
 70
     1
102
RTVSPropertyOp39
 70
     1
102
RTVSPropertyOp40
 70
     1
102
RTVSPropertyOp41
 70
     1
102
RTVSPropertyOp42
 70
     1
102
RTVSPropertyOp43
 70
     1
102
RTVSPropertyOp44
 70
     1
102
RTVSPropertyOp45
 70
     1
102
RTVSPropertyOp46
 70
     1
102
RTVSPropertyOp47
 70
     1
102
RTVSPropertyOp48
 70
     1
102
RTVSPropertyOp49
 70
     1
102
RTVSPropertyOp50
 70
     1
102
RTVSPropertyOp51
 70
     0
102
RTVSPropertyOp52
 70
     0
102
RTVSPropertyOp53
 70
     1
102
RTVSPropertyOp54
 70
     1
102
RTVSPropertyOp55
 70
     1
102
RTVSPropertyOp56
 70
     1
102
RTVSPropertyOp57
 70
     1
102
RTVSPropertyOp58
 70
     1
102
RTVSPropertyOp59
 70
     1
102
RTVSPropertyOp60
 70
     1
102
RTVSPropertyOp61
 70
     1
102
RTVSPropertyOp62
 70
     1
  0
XRECORD
  5
1D73
102
{ACAD_REACTORS
330
1D72
102
}
330
1D72
100
AcDbXrecord
280
     1
102
RTVSPost2010Prop28
280
     0
102
RTVSPost2010PropOp28
 70
     1
102
RTVSPost2010Prop29
280
     1
102
RTVSPost2010PropOp29
 70
     1
102
RTVSPost2010Prop30
280
     1
102
RTVSPost2010PropOp30
 70
     1
102
RTVSPost2010Prop31
280
     0
102
RTVSPost2010PropOp31
 70
     1
102
RTVSPost2010Prop32
280
     0
102
RTVSPost2010PropOp32
 70
     1
102
RTVSPost2010Prop33
280
     0
102
RTVSPost2010PropOp33
 70
     1
102
RTVSPost2010Prop34
280
     0
102
RTVSPost2010PropOp34
 70
     1
102
RTVSPost2010Prop35
280
     0
102
RTVSPost2010PropOp35
 70
     1
102
RTVSPost2010Prop36
280
     0
102
RTVSPost2010PropOp36
 70
     1
102
RTVSPost2010Prop37
 90
       50
102
RTVSPost2010PropOp37
 70
     0
102
RTVSPost2010Prop38
140
0.0
102
RTVSPost2010PropOp38
 70
     0
102
RTVSPost2010Prop39
140
1.0
102
RTVSPost2010PropOp39
 70
     0
102
RTVSPost2010Prop40
 90
        0
102
RTVSPost2010PropOp40
 70
     0
102
RTVSPost2010Prop41ColorIndex
 90
       18
102
RTVSPost2010Prop41ColorRGB
 90
        0
102
RTVSPost2010PropOp41
 70
     0
102
RTVSPost2010Prop42
 90
       50
102
RTVSPost2010PropOp42
 70
     0
102
RTVSPost2010Prop43
 90
        3
102
RTVSPost2010PropOp43
 70
     0
102
RTVSPost2010Prop44ColorIndex
 90
        5
102
RTVSPost2010Prop44ColorRGB
 90
      255
102
RTVSPost2010PropOp44
 70
     0
102
RTVSPost2010Prop45
280
     0
102
RTVSPost2010PropOp45
 70
     1
102
RTVSPost2010Prop46
 90
       50
102
RTVSPost2010PropOp46
 70
     0
102
RTVSPost2010Prop47
 90
       50
102
RTVSPost2010PropOp47
 70
     0
102
RTVSPost2010Prop48
 90
       50
102
RTVSPost2010PropOp48
 70
     0
102
RTVSPost2010Prop49
280
     0
102
RTVSPost2010PropOp49
 70
     1
102
RTVSPost2010Prop50
 90
       50
102
RTVSPost2010PropOp50
 70
     0
102
RTVSPost2010Prop51ColorIndex
 90
      256
102
RTVSPost2010Prop51ColorRGB
 90
-16777216
102
RTVSPost2010PropOp51
 70
     0
102
RTVSPost2010Prop52
140
1.0
102
RTVSPost2010PropOp52
 70
     0
102
RTVSPost2010Prop53
 90
        2
102
RTVSPost2010PropOp53
 70
     0
102
RTVSPost2010Prop54
  1
strokes_ogs.tif
102
RTVSPost2010PropOp54
 70
     0
102
RTVSPost2010Prop55
280
     0
102
RTVSPost2010PropOp55
 70
     1
102
RTVSPost2010Prop56
140
1.0
102
RTVSPost2010PropOp56
 70
     0
102
RTVSPost2010Prop57
140
1.0
102
RTVSPost2010PropOp57
 70
     0
102
RTVSPropertyOp0
 70
     0
102
RTVSPropertyOp1
 70
     0
102
RTVSPropertyOp2
 70
     0
102
RTVSPropertyOp3
 70
     0
102
RTVSPropertyOp4
 70
     0
102
RTVSPropertyOp5
 70
     0
102
RTVSPropertyOp6
 70
     0
102
RTVSPropertyOp7
 70
     0
102
RTVSPropertyOp8
 70
     0
102
RTVSPropertyOp9
 70
     0
102
RTVSPropertyOp10
 70
     0
102
RTVSPropertyOp11
 70
     0
102
RTVSPropertyOp12
 70
     0
102
RTVSPropertyOp13
 70
     0
102
RTVSPropertyOp14
 70
     2
102
RTVSPropertyOp15
 70
     0
102
RTVSPropertyOp16
 70
     0
102
RTVSPropertyOp17
 70
     0
102
RTVSPropertyOp18
 70
     0
102
RTVSPropertyOp19
 70
     0
102
RTVSPropertyOp20
 70
     0
102
RTVSPropertyOp21
 70
     0
102
RTVSPropertyOp22
 70
     0
102
RTVSPropertyOp23
 70
     0
102
RTVSPropertyOp24
 70
     0
102
RTVSPropertyOp25
 70
     0
102
RTVSPropertyOp26
 70
     0
102
RTVSPropertyOp27
 70
     0
102
RTVSPropertyOp28
 70
     1
102
RTVSPropertyOp29
 70
     1
102
RTVSPropertyOp30
 70
     1
102
RTVSPropertyOp31
 70
     1
102
RTVSPropertyOp32
 70
     1
102
RTVSPropertyOp33
 70
     1
102
RTVSPropertyOp34
 70
     1
102
RTVSPropertyOp35
 70
     1
102
RTVSPropertyOp36
 70
     1
102
RTVSPropertyOp37
 70
     0
102
RTVSPropertyOp38
 70
     0
102
RTVSPropertyOp39
 70
     0
102
RTVSPropertyOp40
 70
     0
102
RTVSPropertyOp41
 70
     0
102
RTVSPropertyOp42
 70
     0
102
RTVSPropertyOp43
 70
     0
102
RTVSPropertyOp44
 70
     0
102
RTVSPropertyOp45
 70
     1
102
RTVSPropertyOp46
 70
     0
102
RTVSPropertyOp47
 70
     0
102
RTVSPropertyOp48
 70
     0
102
RTVSPropertyOp49
 70
     1
102
RTVSPropertyOp50
 70
     0
102
RTVSPropertyOp51
 70
     0
102
RTVSPropertyOp52
 70
     0
102
RTVSPropertyOp53
 70
     0
102
RTVSPropertyOp54
 70
     0
102
RTVSPropertyOp55
 70
     1
102
RTVSPropertyOp56
 70
     0
102
RTVSPropertyOp57
 70
     0
102
RTVSPropertyOp58
 70
     0
102
RTVSPropertyOp59
 70
     0
102
RTVSPropertyOp60
 70
     0
102
RTVSPropertyOp61
 70
     0
102
RTVSPropertyOp62
 70
     0
  0
XRECORD
  5
1D59
102
{ACAD_REACTORS
330
1D58
102
}
330
1D58
100
AcDbXrecord
280
     1
102
RTVSPost2010Prop28
280
     0
102
RTVSPost2010PropOp28
 70
     1
102
RTVSPost2010Prop29
280
     1
102
RTVSPost2010PropOp29
 70
     1
102
RTVSPost2010Prop30
280
     1
102
RTVSPost2010PropOp30
 70
     1
102
RTVSPost2010Prop31
280
     0
102
RTVSPost2010PropOp31
 70
     1
102
RTVSPost2010Prop32
280
     0
102
RTVSPost2010PropOp32
 70
     1
102
RTVSPost2010Prop33
280
     0
102
RTVSPost2010PropOp33
 70
     1
102
RTVSPost2010Prop34
280
     0
102
RTVSPost2010PropOp34
 70
     1
102
RTVSPost2010Prop35
280
     0
102
RTVSPost2010PropOp35
 70
     1
102
RTVSPost2010Prop36
280
     0
102
RTVSPost2010PropOp36
 70
     1
102
RTVSPost2010Prop37
 90
       50
102
RTVSPost2010PropOp37
 70
     1
102
RTVSPost2010Prop38
140
0.0
102
RTVSPost2010PropOp38
 70
     1
102
RTVSPost2010Prop39
140
1.0
102
RTVSPost2010PropOp39
 70
     1
102
RTVSPost2010Prop40
 90
        0
102
RTVSPost2010PropOp40
 70
     1
102
RTVSPost2010Prop41ColorIndex
 90
       18
102
RTVSPost2010Prop41ColorRGB
 90
        0
102
RTVSPost2010PropOp41
 70
     1
102
RTVSPost2010Prop42
 90
       50
102
RTVSPost2010PropOp42
 70
     1
102
RTVSPost2010Prop43
 90
        3
102
RTVSPost2010PropOp43
 70
     1
102
RTVSPost2010Prop44ColorIndex
 90
        5
102
RTVSPost2010Prop44ColorRGB
 90
      255
102
RTVSPost2010PropOp44
 70
     1
102
RTVSPost2010Prop45
280
     0
102
RTVSPost2010PropOp45
 70
     1
102
RTVSPost2010Prop46
 90
       50
102
RTVSPost2010PropOp46
 70
     1
102
RTVSPost2010Prop47
 90
       50
102
RTVSPost2010PropOp47
 70
     1
102
RTVSPost2010Prop48
 90
       50
102
RTVSPost2010PropOp48
 70
     1
102
RTVSPost2010Prop49
280
     0
102
RTVSPost2010PropOp49
 70
     1
102
RTVSPost2010Prop50
 90
       50
102
RTVSPost2010PropOp50
 70
     1
102
RTVSPost2010Prop51ColorIndex
 90
      256
102
RTVSPost2010Prop51ColorRGB
 90
-16777216
102
RTVSPost2010PropOp51
 70
     0
102
RTVSPost2010Prop52
140
1.0
102
RTVSPost2010PropOp52
 70
     0
102
RTVSPost2010Prop53
 90
        2
102
RTVSPost2010PropOp53
 70
     1
102
RTVSPost2010Prop54
  1
strokes_ogs.tif
102
RTVSPost2010PropOp54
 70
     1
102
RTVSPost2010Prop55
280
     0
102
RTVSPost2010PropOp55
 70
     1
102
RTVSPost2010Prop56
140
1.0
102
RTVSPost2010PropOp56
 70
     1
102
RTVSPost2010Prop57
140
1.0
102
RTVSPost2010PropOp57
 70
     1
102
RTVSPropertyOp0
 70
     1
102
RTVSPropertyOp1
 70
     1
102
RTVSPropertyOp2
 70
     1
102
RTVSPropertyOp3
 70
     1
102
RTVSPropertyOp4
 70
     1
102
RTVSPropertyOp5
 70
     1
102
RTVSPropertyOp6
 70
     1
102
RTVSPropertyOp7
 70
     1
102
RTVSPropertyOp8
 70
     1
102
RTVSPropertyOp9
 70
     1
102
RTVSPropertyOp10
 70
     1
102
RTVSPropertyOp11
 70
     1
102
RTVSPropertyOp12
 70
     1
102
RTVSPropertyOp13
 70
     1
102
RTVSPropertyOp14
 70
     1
102
RTVSPropertyOp15
 70
     1
102
RTVSPropertyOp16
 70
     1
102
RTVSPropertyOp17
 70
     1
102
RTVSPropertyOp18
 70
     1
102
RTVSPropertyOp19
 70
     1
102
RTVSPropertyOp20
 70
     1
102
RTVSPropertyOp21
 70
     1
102
RTVSPropertyOp22
 70
     1
102
RTVSPropertyOp23
 70
     1
102
RTVSPropertyOp24
 70
     1
102
RTVSPropertyOp25
 70
     1
102
RTVSPropertyOp26
 70
     1
102
RTVSPropertyOp27
 70
     1
102
RTVSPropertyOp28
 70
     1
102
RTVSPropertyOp29
 70
     1
102
RTVSPropertyOp30
 70
     1
102
RTVSPropertyOp31
 70
     1
102
RTVSPropertyOp32
 70
     1
102
RTVSPropertyOp33
 70
     1
102
RTVSPropertyOp34
 70
     1
102
RTVSPropertyOp35
 70
     1
102
RTVSPropertyOp36
 70
     1
102
RTVSPropertyOp37
 70
     1
102
RTVSPropertyOp38
 70
     1
102
RTVSPropertyOp39
 70
     1
102
RTVSPropertyOp40
 70
     1
102
RTVSPropertyOp41
 70
     1
102
RTVSPropertyOp42
 70
     1
102
RTVSPropertyOp43
 70
     1
102
RTVSPropertyOp44
 70
     1
102
RTVSPropertyOp45
 70
     1
102
RTVSPropertyOp46
 70
     1
102
RTVSPropertyOp47
 70
     1
102
RTVSPropertyOp48
 70
     1
102
RTVSPropertyOp49
 70
     1
102
RTVSPropertyOp50
 70
     1
102
RTVSPropertyOp51
 70
     0
102
RTVSPropertyOp52
 70
     0
102
RTVSPropertyOp53
 70
     1
102
RTVSPropertyOp54
 70
     1
102
RTVSPropertyOp55
 70
     1
102
RTVSPropertyOp56
 70
     1
102
RTVSPropertyOp57
 70
     1
102
RTVSPropertyOp58
 70
     1
102
RTVSPropertyOp59
 70
     1
102
RTVSPropertyOp60
 70
     1
102
RTVSPropertyOp61
 70
     1
102
RTVSPropertyOp62
 70
     1
  0
XRECORD
  5
1D6F
102
{ACAD_REACTORS
330
1D6E
102
}
330
1D6E
100
AcDbXrecord
280
     1
102
RTVSPost2010Prop28
280
     0
102
RTVSPost2010PropOp28
 70
     1
102
RTVSPost2010Prop29
280
     1
102
RTVSPost2010PropOp29
 70
     1
102
RTVSPost2010Prop30
280
     1
102
RTVSPost2010PropOp30
 70
     1
102
RTVSPost2010Prop31
280
     0
102
RTVSPost2010PropOp31
 70
     1
102
RTVSPost2010Prop32
280
     0
102
RTVSPost2010PropOp32
 70
     1
102
RTVSPost2010Prop33
280
     0
102
RTVSPost2010PropOp33
 70
     1
102
RTVSPost2010Prop34
280
     0
102
RTVSPost2010PropOp34
 70
     1
102
RTVSPost2010Prop35
280
     0
102
RTVSPost2010PropOp35
 70
     1
102
RTVSPost2010Prop36
280
     0
102
RTVSPost2010PropOp36
 70
     1
102
RTVSPost2010Prop37
 90
       50
102
RTVSPost2010PropOp37
 70
     1
102
RTVSPost2010Prop38
140
0.0
102
RTVSPost2010PropOp38
 70
     1
102
RTVSPost2010Prop39
140
1.0
102
RTVSPost2010PropOp39
 70
     1
102
RTVSPost2010Prop40
 90
        0
102
RTVSPost2010PropOp40
 70
     1
102
RTVSPost2010Prop41ColorIndex
 90
       18
102
RTVSPost2010Prop41ColorRGB
 90
        0
102
RTVSPost2010PropOp41
 70
     1
102
RTVSPost2010Prop42
 90
       50
102
RTVSPost2010PropOp42
 70
     1
102
RTVSPost2010Prop43
 90
        3
102
RTVSPost2010PropOp43
 70
     1
102
RTVSPost2010Prop44ColorIndex
 90
        5
102
RTVSPost2010Prop44ColorRGB
 90
      255
102
RTVSPost2010PropOp44
 70
     1
102
RTVSPost2010Prop45
280
     0
102
RTVSPost2010PropOp45
 70
     1
102
RTVSPost2010Prop46
 90
       50
102
RTVSPost2010PropOp46
 70
     1
102
RTVSPost2010Prop47
 90
       50
102
RTVSPost2010PropOp47
 70
     1
102
RTVSPost2010Prop48
 90
       50
102
RTVSPost2010PropOp48
 70
     1
102
RTVSPost2010Prop49
280
     0
102
RTVSPost2010PropOp49
 70
     1
102
RTVSPost2010Prop50
 90
       50
102
RTVSPost2010PropOp50
 70
     1
102
RTVSPost2010Prop51ColorIndex
 90
      256
102
RTVSPost2010Prop51ColorRGB
 90
-16777216
102
RTVSPost2010PropOp51
 70
     0
102
RTVSPost2010Prop52
140
1.0
102
RTVSPost2010PropOp52
 70
     0
102
RTVSPost2010Prop53
 90
        2
102
RTVSPost2010PropOp53
 70
     1
102
RTVSPost2010Prop54
  1
strokes_ogs.tif
102
RTVSPost2010PropOp54
 70
     1
102
RTVSPost2010Prop55
280
     0
102
RTVSPost2010PropOp55
 70
     1
102
RTVSPost2010Prop56
140
1.0
102
RTVSPost2010PropOp56
 70
     1
102
RTVSPost2010Prop57
140
1.0
102
RTVSPost2010PropOp57
 70
     1
102
RTVSPropertyOp0
 70
     1
102
RTVSPropertyOp1
 70
     1
102
RTVSPropertyOp2
 70
     1
102
RTVSPropertyOp3
 70
     1
102
RTVSPropertyOp4
 70
     1
102
RTVSPropertyOp5
 70
     1
102
RTVSPropertyOp6
 70
     1
102
RTVSPropertyOp7
 70
     1
102
RTVSPropertyOp8
 70
     1
102
RTVSPropertyOp9
 70
     1
102
RTVSPropertyOp10
 70
     1
102
RTVSPropertyOp11
 70
     1
102
RTVSPropertyOp12
 70
     1
102
RTVSPropertyOp13
 70
     1
102
RTVSPropertyOp14
 70
     1
102
RTVSPropertyOp15
 70
     1
102
RTVSPropertyOp16
 70
     1
102
RTVSPropertyOp17
 70
     1
102
RTVSPropertyOp18
 70
     1
102
RTVSPropertyOp19
 70
     1
102
RTVSPropertyOp20
 70
     1
102
RTVSPropertyOp21
 70
     1
102
RTVSPropertyOp22
 70
     1
102
RTVSPropertyOp23
 70
     1
102
RTVSPropertyOp24
 70
     1
102
RTVSPropertyOp25
 70
     1
102
RTVSPropertyOp26
 70
     1
102
RTVSPropertyOp27
 70
     1
102
RTVSPropertyOp28
 70
     1
102
RTVSPropertyOp29
 70
     1
102
RTVSPropertyOp30
 70
     1
102
RTVSPropertyOp31
 70
     1
102
RTVSPropertyOp32
 70
     1
102
RTVSPropertyOp33
 70
     1
102
RTVSPropertyOp34
 70
     1
102
RTVSPropertyOp35
 70
     1
102
RTVSPropertyOp36
 70
     1
102
RTVSPropertyOp37
 70
     1
102
RTVSPropertyOp38
 70
     1
102
RTVSPropertyOp39
 70
     1
102
RTVSPropertyOp40
 70
     1
102
RTVSPropertyOp41
 70
     1
102
RTVSPropertyOp42
 70
     1
102
RTVSPropertyOp43
 70
     1
102
RTVSPropertyOp44
 70
     1
102
RTVSPropertyOp45
 70
     1
102
RTVSPropertyOp46
 70
     1
102
RTVSPropertyOp47
 70
     1
102
RTVSPropertyOp48
 70
     1
102
RTVSPropertyOp49
 70
     1
102
RTVSPropertyOp50
 70
     1
102
RTVSPropertyOp51
 70
     0
102
RTVSPropertyOp52
 70
     0
102
RTVSPropertyOp53
 70
     1
102
RTVSPropertyOp54
 70
     1
102
RTVSPropertyOp55
 70
     1
102
RTVSPropertyOp56
 70
     1
102
RTVSPropertyOp57
 70
     1
102
RTVSPropertyOp58
 70
     1
102
RTVSPropertyOp59
 70
     1
102
RTVSPropertyOp60
 70
     1
102
RTVSPropertyOp61
 70
     1
102
RTVSPropertyOp62
 70
     1
  0
XRECORD
  5
1D6D
102
{ACAD_REACTORS
330
1D6C
102
}
330
1D6C
100
AcDbXrecord
280
     1
102
RTVSPost2010Prop28
280
     0
102
RTVSPost2010PropOp28
 70
     1
102
RTVSPost2010Prop29
280
     1
102
RTVSPost2010PropOp29
 70
     1
102
RTVSPost2010Prop30
280
     1
102
RTVSPost2010PropOp30
 70
     1
102
RTVSPost2010Prop31
280
     0
102
RTVSPost2010PropOp31
 70
     1
102
RTVSPost2010Prop32
280
     0
102
RTVSPost2010PropOp32
 70
     1
102
RTVSPost2010Prop33
280
     0
102
RTVSPost2010PropOp33
 70
     1
102
RTVSPost2010Prop34
280
     0
102
RTVSPost2010PropOp34
 70
     1
102
RTVSPost2010Prop35
280
     0
102
RTVSPost2010PropOp35
 70
     1
102
RTVSPost2010Prop36
280
     0
102
RTVSPost2010PropOp36
 70
     1
102
RTVSPost2010Prop37
 90
       50
102
RTVSPost2010PropOp37
 70
     1
102
RTVSPost2010Prop38
140
0.0
102
RTVSPost2010PropOp38
 70
     1
102
RTVSPost2010Prop39
140
1.0
102
RTVSPost2010PropOp39
 70
     1
102
RTVSPost2010Prop40
 90
        0
102
RTVSPost2010PropOp40
 70
     1
102
RTVSPost2010Prop41ColorIndex
 90
       18
102
RTVSPost2010Prop41ColorRGB
 90
        0
102
RTVSPost2010PropOp41
 70
     1
102
RTVSPost2010Prop42
 90
       50
102
RTVSPost2010PropOp42
 70
     1
102
RTVSPost2010Prop43
 90
        3
102
RTVSPost2010PropOp43
 70
     1
102
RTVSPost2010Prop44ColorIndex
 90
        5
102
RTVSPost2010Prop44ColorRGB
 90
      255
102
RTVSPost2010PropOp44
 70
     1
102
RTVSPost2010Prop45
280
     0
102
RTVSPost2010PropOp45
 70
     1
102
RTVSPost2010Prop46
 90
       50
102
RTVSPost2010PropOp46
 70
     1
102
RTVSPost2010Prop47
 90
       50
102
RTVSPost2010PropOp47
 70
     1
102
RTVSPost2010Prop48
 90
       50
102
RTVSPost2010PropOp48
 70
     1
102
RTVSPost2010Prop49
280
     0
102
RTVSPost2010PropOp49
 70
     1
102
RTVSPost2010Prop50
 90
       50
102
RTVSPost2010PropOp50
 70
     1
102
RTVSPost2010Prop51ColorIndex
 90
      256
102
RTVSPost2010Prop51ColorRGB
 90
-16777216
102
RTVSPost2010PropOp51
 70
     0
102
RTVSPost2010Prop52
140
1.0
102
RTVSPost2010PropOp52
 70
     0
102
RTVSPost2010Prop53
 90
        2
102
RTVSPost2010PropOp53
 70
     1
102
RTVSPost2010Prop54
  1
strokes_ogs.tif
102
RTVSPost2010PropOp54
 70
     1
102
RTVSPost2010Prop55
280
     0
102
RTVSPost2010PropOp55
 70
     1
102
RTVSPost2010Prop56
140
1.0
102
RTVSPost2010PropOp56
 70
     1
102
RTVSPost2010Prop57
140
1.0
102
RTVSPost2010PropOp57
 70
     1
102
RTVSPropertyOp0
 70
     1
102
RTVSPropertyOp1
 70
     1
102
RTVSPropertyOp2
 70
     1
102
RTVSPropertyOp3
 70
     1
102
RTVSPropertyOp4
 70
     1
102
RTVSPropertyOp5
 70
     1
102
RTVSPropertyOp6
 70
     1
102
RTVSPropertyOp7
 70
     1
102
RTVSPropertyOp8
 70
     1
102
RTVSPropertyOp9
 70
     1
102
RTVSPropertyOp10
 70
     1
102
RTVSPropertyOp11
 70
     1
102
RTVSPropertyOp12
 70
     1
102
RTVSPropertyOp13
 70
     1
102
RTVSPropertyOp14
 70
     1
102
RTVSPropertyOp15
 70
     1
102
RTVSPropertyOp16
 70
     1
102
RTVSPropertyOp17
 70
     1
102
RTVSPropertyOp18
 70
     1
102
RTVSPropertyOp19
 70
     1
102
RTVSPropertyOp20
 70
     1
102
RTVSPropertyOp21
 70
     1
102
RTVSPropertyOp22
 70
     1
102
RTVSPropertyOp23
 70
     1
102
RTVSPropertyOp24
 70
     1
102
RTVSPropertyOp25
 70
     1
102
RTVSPropertyOp26
 70
     1
102
RTVSPropertyOp27
 70
     1
102
RTVSPropertyOp28
 70
     1
102
RTVSPropertyOp29
 70
     1
102
RTVSPropertyOp30
 70
     1
102
RTVSPropertyOp31
 70
     1
102
RTVSPropertyOp32
 70
     1
102
RTVSPropertyOp33
 70
     1
102
RTVSPropertyOp34
 70
     1
102
RTVSPropertyOp35
 70
     1
102
RTVSPropertyOp36
 70
     1
102
RTVSPropertyOp37
 70
     1
102
RTVSPropertyOp38
 70
     1
102
RTVSPropertyOp39
 70
     1
102
RTVSPropertyOp40
 70
     1
102
RTVSPropertyOp41
 70
     1
102
RTVSPropertyOp42
 70
     1
102
RTVSPropertyOp43
 70
     1
102
RTVSPropertyOp44
 70
     1
102
RTVSPropertyOp45
 70
     1
102
RTVSPropertyOp46
 70
     1
102
RTVSPropertyOp47
 70
     1
102
RTVSPropertyOp48
 70
     1
102
RTVSPropertyOp49
 70
     1
102
RTVSPropertyOp50
 70
     1
102
RTVSPropertyOp51
 70
     0
102
RTVSPropertyOp52
 70
     0
102
RTVSPropertyOp53
 70
     1
102
RTVSPropertyOp54
 70
     1
102
RTVSPropertyOp55
 70
     1
102
RTVSPropertyOp56
 70
     1
102
RTVSPropertyOp57
 70
     1
102
RTVSPropertyOp58
 70
     1
102
RTVSPropertyOp59
 70
     1
102
RTVSPropertyOp60
 70
     1
102
RTVSPropertyOp61
 70
     1
102
RTVSPropertyOp62
 70
     1
  0
XRECORD
  5
1D67
102
{ACAD_REACTORS
330
1D66
102
}
330
1D66
100
AcDbXrecord
280
     1
102
RTVSPost2010Prop28
280
     0
102
RTVSPost2010PropOp28
 70
     1
102
RTVSPost2010Prop29
280
     1
102
RTVSPost2010PropOp29
 70
     1
102
RTVSPost2010Prop30
280
     1
102
RTVSPost2010PropOp30
 70
     1
102
RTVSPost2010Prop31
280
     0
102
RTVSPost2010PropOp31
 70
     1
102
RTVSPost2010Prop32
280
     0
102
RTVSPost2010PropOp32
 70
     1
102
RTVSPost2010Prop33
280
     0
102
RTVSPost2010PropOp33
 70
     1
102
RTVSPost2010Prop34
280
     0
102
RTVSPost2010PropOp34
 70
     1
102
RTVSPost2010Prop35
280
     0
102
RTVSPost2010PropOp35
 70
     1
102
RTVSPost2010Prop36
280
     0
102
RTVSPost2010PropOp36
 70
     1
102
RTVSPost2010Prop37
 90
       50
102
RTVSPost2010PropOp37
 70
     1
102
RTVSPost2010Prop38
140
0.0
102
RTVSPost2010PropOp38
 70
     1
102
RTVSPost2010Prop39
140
1.0
102
RTVSPost2010PropOp39
 70
     1
102
RTVSPost2010Prop40
 90
        0
102
RTVSPost2010PropOp40
 70
     1
102
RTVSPost2010Prop41ColorIndex
 90
       18
102
RTVSPost2010Prop41ColorRGB
 90
        0
102
RTVSPost2010PropOp41
 70
     1
102
RTVSPost2010Prop42
 90
       50
102
RTVSPost2010PropOp42
 70
     1
102
RTVSPost2010Prop43
 90
        3
102
RTVSPost2010PropOp43
 70
     1
102
RTVSPost2010Prop44ColorIndex
 90
        5
102
RTVSPost2010Prop44ColorRGB
 90
      255
102
RTVSPost2010PropOp44
 70
     1
102
RTVSPost2010Prop45
280
     0
102
RTVSPost2010PropOp45
 70
     1
102
RTVSPost2010Prop46
 90
       50
102
RTVSPost2010PropOp46
 70
     1
102
RTVSPost2010Prop47
 90
       50
102
RTVSPost2010PropOp47
 70
     1
102
RTVSPost2010Prop48
 90
       50
102
RTVSPost2010PropOp48
 70
     1
102
RTVSPost2010Prop49
280
     0
102
RTVSPost2010PropOp49
 70
     1
102
RTVSPost2010Prop50
 90
       50
102
RTVSPost2010PropOp50
 70
     1
102
RTVSPost2010Prop51ColorIndex
 90
      256
102
RTVSPost2010Prop51ColorRGB
 90
-16777216
102
RTVSPost2010PropOp51
 70
     0
102
RTVSPost2010Prop52
140
1.0
102
RTVSPost2010PropOp52
 70
     0
102
RTVSPost2010Prop53
 90
        2
102
RTVSPost2010PropOp53
 70
     1
102
RTVSPost2010Prop54
  1
strokes_ogs.tif
102
RTVSPost2010PropOp54
 70
     1
102
RTVSPost2010Prop55
280
     0
102
RTVSPost2010PropOp55
 70
     1
102
RTVSPost2010Prop56
140
1.0
102
RTVSPost2010PropOp56
 70
     1
102
RTVSPost2010Prop57
140
1.0
102
RTVSPost2010PropOp57
 70
     1
102
RTVSPropertyOp0
 70
     1
102
RTVSPropertyOp1
 70
     1
102
RTVSPropertyOp2
 70
     1
102
RTVSPropertyOp3
 70
     1
102
RTVSPropertyOp4
 70
     1
102
RTVSPropertyOp5
 70
     1
102
RTVSPropertyOp6
 70
     1
102
RTVSPropertyOp7
 70
     1
102
RTVSPropertyOp8
 70
     1
102
RTVSPropertyOp9
 70
     1
102
RTVSPropertyOp10
 70
     1
102
RTVSPropertyOp11
 70
     1
102
RTVSPropertyOp12
 70
     1
102
RTVSPropertyOp13
 70
     1
102
RTVSPropertyOp14
 70
     1
102
RTVSPropertyOp15
 70
     1
102
RTVSPropertyOp16
 70
     1
102
RTVSPropertyOp17
 70
     1
102
RTVSPropertyOp18
 70
     1
102
RTVSPropertyOp19
 70
     1
102
RTVSPropertyOp20
 70
     1
102
RTVSPropertyOp21
 70
     1
102
RTVSPropertyOp22
 70
     1
102
RTVSPropertyOp23
 70
     1
102
RTVSPropertyOp24
 70
     1
102
RTVSPropertyOp25
 70
     1
102
RTVSPropertyOp26
 70
     1
102
RTVSPropertyOp27
 70
     1
102
RTVSPropertyOp28
 70
     1
102
RTVSPropertyOp29
 70
     1
102
RTVSPropertyOp30
 70
     1
102
RTVSPropertyOp31
 70
     1
102
RTVSPropertyOp32
 70
     1
102
RTVSPropertyOp33
 70
     1
102
RTVSPropertyOp34
 70
     1
102
RTVSPropertyOp35
 70
     1
102
RTVSPropertyOp36
 70
     1
102
RTVSPropertyOp37
 70
     1
102
RTVSPropertyOp38
 70
     1
102
RTVSPropertyOp39
 70
     1
102
RTVSPropertyOp40
 70
     1
102
RTVSPropertyOp41
 70
     1
102
RTVSPropertyOp42
 70
     1
102
RTVSPropertyOp43
 70
     1
102
RTVSPropertyOp44
 70
     1
102
RTVSPropertyOp45
 70
     1
102
RTVSPropertyOp46
 70
     1
102
RTVSPropertyOp47
 70
     1
102
RTVSPropertyOp48
 70
     1
102
RTVSPropertyOp49
 70
     1
102
RTVSPropertyOp50
 70
     1
102
RTVSPropertyOp51
 70
     0
102
RTVSPropertyOp52
 70
     0
102
RTVSPropertyOp53
 70
     1
102
RTVSPropertyOp54
 70
     1
102
RTVSPropertyOp55
 70
     1
102
RTVSPropertyOp56
 70
     1
102
RTVSPropertyOp57
 70
     1
102
RTVSPropertyOp58
 70
     1
102
RTVSPropertyOp59
 70
     1
102
RTVSPropertyOp60
 70
     1
102
RTVSPropertyOp61
 70
     1
102
RTVSPropertyOp62
 70
     1
  0
XRECORD
  5
1D69
102
{ACAD_REACTORS
330
1D68
102
}
330
1D68
100
AcDbXrecord
280
     1
102
RTVSPost2010Prop28
280
     0
102
RTVSPost2010PropOp28
 70
     1
102
RTVSPost2010Prop29
280
     1
102
RTVSPost2010PropOp29
 70
     1
102
RTVSPost2010Prop30
280
     1
102
RTVSPost2010PropOp30
 70
     1
102
RTVSPost2010Prop31
280
     0
102
RTVSPost2010PropOp31
 70
     1
102
RTVSPost2010Prop32
280
     0
102
RTVSPost2010PropOp32
 70
     1
102
RTVSPost2010Prop33
280
     0
102
RTVSPost2010PropOp33
 70
     1
102
RTVSPost2010Prop34
280
     0
102
RTVSPost2010PropOp34
 70
     1
102
RTVSPost2010Prop35
280
     0
102
RTVSPost2010PropOp35
 70
     1
102
RTVSPost2010Prop36
280
     0
102
RTVSPost2010PropOp36
 70
     1
102
RTVSPost2010Prop37
 90
       50
102
RTVSPost2010PropOp37
 70
     1
102
RTVSPost2010Prop38
140
0.0
102
RTVSPost2010PropOp38
 70
     1
102
RTVSPost2010Prop39
140
1.0
102
RTVSPost2010PropOp39
 70
     1
102
RTVSPost2010Prop40
 90
        0
102
RTVSPost2010PropOp40
 70
     1
102
RTVSPost2010Prop41ColorIndex
 90
       18
102
RTVSPost2010Prop41ColorRGB
 90
        0
102
RTVSPost2010PropOp41
 70
     1
102
RTVSPost2010Prop42
 90
       50
102
RTVSPost2010PropOp42
 70
     1
102
RTVSPost2010Prop43
 90
        3
102
RTVSPost2010PropOp43
 70
     1
102
RTVSPost2010Prop44ColorIndex
 90
        5
102
RTVSPost2010Prop44ColorRGB
 90
      255
102
RTVSPost2010PropOp44
 70
     1
102
RTVSPost2010Prop45
280
     0
102
RTVSPost2010PropOp45
 70
     1
102
RTVSPost2010Prop46
 90
       50
102
RTVSPost2010PropOp46
 70
     1
102
RTVSPost2010Prop47
 90
       50
102
RTVSPost2010PropOp47
 70
     1
102
RTVSPost2010Prop48
 90
       50
102
RTVSPost2010PropOp48
 70
     1
102
RTVSPost2010Prop49
280
     0
102
RTVSPost2010PropOp49
 70
     1
102
RTVSPost2010Prop50
 90
       50
102
RTVSPost2010PropOp50
 70
     1
102
RTVSPost2010Prop51ColorIndex
 90
      256
102
RTVSPost2010Prop51ColorRGB
 90
-16777216
102
RTVSPost2010PropOp51
 70
     0
102
RTVSPost2010Prop52
140
1.0
102
RTVSPost2010PropOp52
 70
     0
102
RTVSPost2010Prop53
 90
        2
102
RTVSPost2010PropOp53
 70
     1
102
RTVSPost2010Prop54
  1
strokes_ogs.tif
102
RTVSPost2010PropOp54
 70
     1
102
RTVSPost2010Prop55
280
     0
102
RTVSPost2010PropOp55
 70
     1
102
RTVSPost2010Prop56
140
1.0
102
RTVSPost2010PropOp56
 70
     1
102
RTVSPost2010Prop57
140
1.0
102
RTVSPost2010PropOp57
 70
     1
102
RTVSPropertyOp0
 70
     1
102
RTVSPropertyOp1
 70
     1
102
RTVSPropertyOp2
 70
     1
102
RTVSPropertyOp3
 70
     1
102
RTVSPropertyOp4
 70
     1
102
RTVSPropertyOp5
 70
     1
102
RTVSPropertyOp6
 70
     1
102
RTVSPropertyOp7
 70
     1
102
RTVSPropertyOp8
 70
     1
102
RTVSPropertyOp9
 70
     1
102
RTVSPropertyOp10
 70
     1
102
RTVSPropertyOp11
 70
     1
102
RTVSPropertyOp12
 70
     1
102
RTVSPropertyOp13
 70
     1
102
RTVSPropertyOp14
 70
     1
102
RTVSPropertyOp15
 70
     1
102
RTVSPropertyOp16
 70
     1
102
RTVSPropertyOp17
 70
     1
102
RTVSPropertyOp18
 70
     1
102
RTVSPropertyOp19
 70
     1
102
RTVSPropertyOp20
 70
     1
102
RTVSPropertyOp21
 70
     1
102
RTVSPropertyOp22
 70
     1
102
RTVSPropertyOp23
 70
     1
102
RTVSPropertyOp24
 70
     1
102
RTVSPropertyOp25
 70
     1
102
RTVSPropertyOp26
 70
     1
102
RTVSPropertyOp27
 70
     1
102
RTVSPropertyOp28
 70
     1
102
RTVSPropertyOp29
 70
     1
102
RTVSPropertyOp30
 70
     1
102
RTVSPropertyOp31
 70
     1
102
RTVSPropertyOp32
 70
     1
102
RTVSPropertyOp33
 70
     1
102
RTVSPropertyOp34
 70
     1
102
RTVSPropertyOp35
 70
     1
102
RTVSPropertyOp36
 70
     1
102
RTVSPropertyOp37
 70
     1
102
RTVSPropertyOp38
 70
     1
102
RTVSPropertyOp39
 70
     1
102
RTVSPropertyOp40
 70
     1
102
RTVSPropertyOp41
 70
     1
102
RTVSPropertyOp42
 70
     1
102
RTVSPropertyOp43
 70
     1
102
RTVSPropertyOp44
 70
     1
102
RTVSPropertyOp45
 70
     1
102
RTVSPropertyOp46
 70
     1
102
RTVSPropertyOp47
 70
     1
102
RTVSPropertyOp48
 70
     1
102
RTVSPropertyOp49
 70
     1
102
RTVSPropertyOp50
 70
     1
102
RTVSPropertyOp51
 70
     0
102
RTVSPropertyOp52
 70
     0
102
RTVSPropertyOp53
 70
     1
102
RTVSPropertyOp54
 70
     1
102
RTVSPropertyOp55
 70
     1
102
RTVSPropertyOp56
 70
     1
102
RTVSPropertyOp57
 70
     1
102
RTVSPropertyOp58
 70
     1
102
RTVSPropertyOp59
 70
     1
102
RTVSPropertyOp60
 70
     1
102
RTVSPropertyOp61
 70
     1
102
RTVSPropertyOp62
 70
     1
  0
XRECORD
  5
1D5F
102
{ACAD_REACTORS
330
1D5E
102
}
330
1D5E
100
AcDbXrecord
280
     1
102
RTVSPost2010Prop28
280
     0
102
RTVSPost2010PropOp28
 70
     1
102
RTVSPost2010Prop29
280
     1
102
RTVSPost2010PropOp29
 70
     1
102
RTVSPost2010Prop30
280
     1
102
RTVSPost2010PropOp30
 70
     1
102
RTVSPost2010Prop31
280
     0
102
RTVSPost2010PropOp31
 70
     1
102
RTVSPost2010Prop32
280
     0
102
RTVSPost2010PropOp32
 70
     1
102
RTVSPost2010Prop33
280
     0
102
RTVSPost2010PropOp33
 70
     1
102
RTVSPost2010Prop34
280
     0
102
RTVSPost2010PropOp34
 70
     1
102
RTVSPost2010Prop35
280
     0
102
RTVSPost2010PropOp35
 70
     1
102
RTVSPost2010Prop36
280
     0
102
RTVSPost2010PropOp36
 70
     1
102
RTVSPost2010Prop37
 90
       50
102
RTVSPost2010PropOp37
 70
     1
102
RTVSPost2010Prop38
140
0.0
102
RTVSPost2010PropOp38
 70
     1
102
RTVSPost2010Prop39
140
1.0
102
RTVSPost2010PropOp39
 70
     1
102
RTVSPost2010Prop40
 90
        0
102
RTVSPost2010PropOp40
 70
     1
102
RTVSPost2010Prop41ColorIndex
 90
       18
102
RTVSPost2010Prop41ColorRGB
 90
        0
102
RTVSPost2010PropOp41
 70
     1
102
RTVSPost2010Prop42
 90
       50
102
RTVSPost2010PropOp42
 70
     1
102
RTVSPost2010Prop43
 90
        3
102
RTVSPost2010PropOp43
 70
     1
102
RTVSPost2010Prop44ColorIndex
 90
        5
102
RTVSPost2010Prop44ColorRGB
 90
      255
102
RTVSPost2010PropOp44
 70
     1
102
RTVSPost2010Prop45
280
     0
102
RTVSPost2010PropOp45
 70
     1
102
RTVSPost2010Prop46
 90
       50
102
RTVSPost2010PropOp46
 70
     1
102
RTVSPost2010Prop47
 90
       50
102
RTVSPost2010PropOp47
 70
     1
102
RTVSPost2010Prop48
 90
       50
102
RTVSPost2010PropOp48
 70
     1
102
RTVSPost2010Prop49
280
     0
102
RTVSPost2010PropOp49
 70
     1
102
RTVSPost2010Prop50
 90
       50
102
RTVSPost2010PropOp50
 70
     1
102
RTVSPost2010Prop51ColorIndex
 90
      256
102
RTVSPost2010Prop51ColorRGB
 90
-16777216
102
RTVSPost2010PropOp51
 70
     0
102
RTVSPost2010Prop52
140
1.0
102
RTVSPost2010PropOp52
 70
     0
102
RTVSPost2010Prop53
 90
        2
102
RTVSPost2010PropOp53
 70
     1
102
RTVSPost2010Prop54
  1
strokes_ogs.tif
102
RTVSPost2010PropOp54
 70
     1
102
RTVSPost2010Prop55
280
     0
102
RTVSPost2010PropOp55
 70
     1
102
RTVSPost2010Prop56
140
1.0
102
RTVSPost2010PropOp56
 70
     1
102
RTVSPost2010Prop57
140
1.0
102
RTVSPost2010PropOp57
 70
     1
102
RTVSPropertyOp0
 70
     1
102
RTVSPropertyOp1
 70
     1
102
RTVSPropertyOp2
 70
     1
102
RTVSPropertyOp3
 70
     1
102
RTVSPropertyOp4
 70
     1
102
RTVSPropertyOp5
 70
     1
102
RTVSPropertyOp6
 70
     1
102
RTVSPropertyOp7
 70
     1
102
RTVSPropertyOp8
 70
     1
102
RTVSPropertyOp9
 70
     1
102
RTVSPropertyOp10
 70
     1
102
RTVSPropertyOp11
 70
     1
102
RTVSPropertyOp12
 70
     1
102
RTVSPropertyOp13
 70
     1
102
RTVSPropertyOp14
 70
     1
102
RTVSPropertyOp15
 70
     1
102
RTVSPropertyOp16
 70
     1
102
RTVSPropertyOp17
 70
     1
102
RTVSPropertyOp18
 70
     1
102
RTVSPropertyOp19
 70
     1
102
RTVSPropertyOp20
 70
     1
102
RTVSPropertyOp21
 70
     1
102
RTVSPropertyOp22
 70
     1
102
RTVSPropertyOp23
 70
     1
102
RTVSPropertyOp24
 70
     1
102
RTVSPropertyOp25
 70
     1
102
RTVSPropertyOp26
 70
     1
102
RTVSPropertyOp27
 70
     1
102
RTVSPropertyOp28
 70
     1
102
RTVSPropertyOp29
 70
     1
102
RTVSPropertyOp30
 70
     1
102
RTVSPropertyOp31
 70
     1
102
RTVSPropertyOp32
 70
     1
102
RTVSPropertyOp33
 70
     1
102
RTVSPropertyOp34
 70
     1
102
RTVSPropertyOp35
 70
     1
102
RTVSPropertyOp36
 70
     1
102
RTVSPropertyOp37
 70
     1
102
RTVSPropertyOp38
 70
     1
102
RTVSPropertyOp39
 70
     1
102
RTVSPropertyOp40
 70
     1
102
RTVSPropertyOp41
 70
     1
102
RTVSPropertyOp42
 70
     1
102
RTVSPropertyOp43
 70
     1
102
RTVSPropertyOp44
 70
     1
102
RTVSPropertyOp45
 70
     1
102
RTVSPropertyOp46
 70
     1
102
RTVSPropertyOp47
 70
     1
102
RTVSPropertyOp48
 70
     1
102
RTVSPropertyOp49
 70
     1
102
RTVSPropertyOp50
 70
     1
102
RTVSPropertyOp51
 70
     0
102
RTVSPropertyOp52
 70
     0
102
RTVSPropertyOp53
 70
     1
102
RTVSPropertyOp54
 70
     1
102
RTVSPropertyOp55
 70
     1
102
RTVSPropertyOp56
 70
     1
102
RTVSPropertyOp57
 70
     1
102
RTVSPropertyOp58
 70
     1
102
RTVSPropertyOp59
 70
     1
102
RTVSPropertyOp60
 70
     1
102
RTVSPropertyOp61
 70
     1
102
RTVSPropertyOp62
 70
     1
  0
XRECORD
  5
1D53
102
{ACAD_REACTORS
330
1D52
102
}
330
1D52
100
AcDbXrecord
280
     1
102
RTVSPost2010Prop28
280
     0
102
RTVSPost2010PropOp28
 70
     1
102
RTVSPost2010Prop29
280
     1
102
RTVSPost2010PropOp29
 70
     1
102
RTVSPost2010Prop30
280
     1
102
RTVSPost2010PropOp30
 70
     1
102
RTVSPost2010Prop31
280
     0
102
RTVSPost2010PropOp31
 70
     1
102
RTVSPost2010Prop32
280
     0
102
RTVSPost2010PropOp32
 70
     1
102
RTVSPost2010Prop33
280
     0
102
RTVSPost2010PropOp33
 70
     1
102
RTVSPost2010Prop34
280
     0
102
RTVSPost2010PropOp34
 70
     1
102
RTVSPost2010Prop35
280
     0
102
RTVSPost2010PropOp35
 70
     1
102
RTVSPost2010Prop36
280
     0
102
RTVSPost2010PropOp36
 70
     1
102
RTVSPost2010Prop37
 90
       50
102
RTVSPost2010PropOp37
 70
     1
102
RTVSPost2010Prop38
140
0.0
102
RTVSPost2010PropOp38
 70
     1
102
RTVSPost2010Prop39
140
1.0
102
RTVSPost2010PropOp39
 70
     1
102
RTVSPost2010Prop40
 90
        0
102
RTVSPost2010PropOp40
 70
     1
102
RTVSPost2010Prop41ColorIndex
 90
       18
102
RTVSPost2010Prop41ColorRGB
 90
        0
102
RTVSPost2010PropOp41
 70
     1
102
RTVSPost2010Prop42
 90
       50
102
RTVSPost2010PropOp42
 70
     1
102
RTVSPost2010Prop43
 90
        3
102
RTVSPost2010PropOp43
 70
     1
102
RTVSPost2010Prop44ColorIndex
 90
        5
102
RTVSPost2010Prop44ColorRGB
 90
      255
102
RTVSPost2010PropOp44
 70
     1
102
RTVSPost2010Prop45
280
     0
102
RTVSPost2010PropOp45
 70
     1
102
RTVSPost2010Prop46
 90
       50
102
RTVSPost2010PropOp46
 70
     1
102
RTVSPost2010Prop47
 90
       50
102
RTVSPost2010PropOp47
 70
     1
102
RTVSPost2010Prop48
 90
       50
102
RTVSPost2010PropOp48
 70
     1
102
RTVSPost2010Prop49
280
     0
102
RTVSPost2010PropOp49
 70
     1
102
RTVSPost2010Prop50
 90
       50
102
RTVSPost2010PropOp50
 70
     1
102
RTVSPost2010Prop51ColorIndex
 90
      256
102
RTVSPost2010Prop51ColorRGB
 90
-16777216
102
RTVSPost2010PropOp51
 70
     0
102
RTVSPost2010Prop52
140
1.0
102
RTVSPost2010PropOp52
 70
     0
102
RTVSPost2010Prop53
 90
        2
102
RTVSPost2010PropOp53
 70
     1
102
RTVSPost2010Prop54
  1
strokes_ogs.tif
102
RTVSPost2010PropOp54
 70
     1
102
RTVSPost2010Prop55
280
     0
102
RTVSPost2010PropOp55
 70
     1
102
RTVSPost2010Prop56
140
1.0
102
RTVSPost2010PropOp56
 70
     1
102
RTVSPost2010Prop57
140
1.0
102
RTVSPost2010PropOp57
 70
     1
102
RTVSPropertyOp0
 70
     1
102
RTVSPropertyOp1
 70
     1
102
RTVSPropertyOp2
 70
     1
102
RTVSPropertyOp3
 70
     1
102
RTVSPropertyOp4
 70
     1
102
RTVSPropertyOp5
 70
     1
102
RTVSPropertyOp6
 70
     1
102
RTVSPropertyOp7
 70
     1
102
RTVSPropertyOp8
 70
     1
102
RTVSPropertyOp9
 70
     1
102
RTVSPropertyOp10
 70
     1
102
RTVSPropertyOp11
 70
     1
102
RTVSPropertyOp12
 70
     1
102
RTVSPropertyOp13
 70
     1
102
RTVSPropertyOp14
 70
     1
102
RTVSPropertyOp15
 70
     1
102
RTVSPropertyOp16
 70
     1
102
RTVSPropertyOp17
 70
     1
102
RTVSPropertyOp18
 70
     1
102
RTVSPropertyOp19
 70
     1
102
RTVSPropertyOp20
 70
     1
102
RTVSPropertyOp21
 70
     1
102
RTVSPropertyOp22
 70
     1
102
RTVSPropertyOp23
 70
     1
102
RTVSPropertyOp24
 70
     1
102
RTVSPropertyOp25
 70
     1
102
RTVSPropertyOp26
 70
     1
102
RTVSPropertyOp27
 70
     1
102
RTVSPropertyOp28
 70
     1
102
RTVSPropertyOp29
 70
     1
102
RTVSPropertyOp30
 70
     1
102
RTVSPropertyOp31
 70
     1
102
RTVSPropertyOp32
 70
     1
102
RTVSPropertyOp33
 70
     1
102
RTVSPropertyOp34
 70
     1
102
RTVSPropertyOp35
 70
     1
102
RTVSPropertyOp36
 70
     1
102
RTVSPropertyOp37
 70
     1
102
RTVSPropertyOp38
 70
     1
102
RTVSPropertyOp39
 70
     1
102
RTVSPropertyOp40
 70
     1
102
RTVSPropertyOp41
 70
     1
102
RTVSPropertyOp42
 70
     1
102
RTVSPropertyOp43
 70
     1
102
RTVSPropertyOp44
 70
     1
102
RTVSPropertyOp45
 70
     1
102
RTVSPropertyOp46
 70
     1
102
RTVSPropertyOp47
 70
     1
102
RTVSPropertyOp48
 70
     1
102
RTVSPropertyOp49
 70
     1
102
RTVSPropertyOp50
 70
     1
102
RTVSPropertyOp51
 70
     0
102
RTVSPropertyOp52
 70
     0
102
RTVSPropertyOp53
 70
     1
102
RTVSPropertyOp54
 70
     1
102
RTVSPropertyOp55
 70
     1
102
RTVSPropertyOp56
 70
     1
102
RTVSPropertyOp57
 70
     1
102
RTVSPropertyOp58
 70
     1
102
RTVSPropertyOp59
 70
     1
102
RTVSPropertyOp60
 70
     1
102
RTVSPropertyOp61
 70
     1
102
RTVSPropertyOp62
 70
     1
  0
XRECORD
  5
1D6B
102
{ACAD_REACTORS
330
1D6A
102
}
330
1D6A
100
AcDbXrecord
280
     1
102
RTVSPost2010Prop28
280
     0
102
RTVSPost2010PropOp28
 70
     1
102
RTVSPost2010Prop29
280
     1
102
RTVSPost2010PropOp29
 70
     1
102
RTVSPost2010Prop30
280
     1
102
RTVSPost2010PropOp30
 70
     1
102
RTVSPost2010Prop31
280
     0
102
RTVSPost2010PropOp31
 70
     1
102
RTVSPost2010Prop32
280
     0
102
RTVSPost2010PropOp32
 70
     1
102
RTVSPost2010Prop33
280
     0
102
RTVSPost2010PropOp33
 70
     1
102
RTVSPost2010Prop34
280
     0
102
RTVSPost2010PropOp34
 70
     1
102
RTVSPost2010Prop35
280
     0
102
RTVSPost2010PropOp35
 70
     1
102
RTVSPost2010Prop36
280
     0
102
RTVSPost2010PropOp36
 70
     1
102
RTVSPost2010Prop37
 90
       50
102
RTVSPost2010PropOp37
 70
     1
102
RTVSPost2010Prop38
140
0.0
102
RTVSPost2010PropOp38
 70
     1
102
RTVSPost2010Prop39
140
1.0
102
RTVSPost2010PropOp39
 70
     1
102
RTVSPost2010Prop40
 90
        0
102
RTVSPost2010PropOp40
 70
     1
102
RTVSPost2010Prop41ColorIndex
 90
       18
102
RTVSPost2010Prop41ColorRGB
 90
        0
102
RTVSPost2010PropOp41
 70
     1
102
RTVSPost2010Prop42
 90
       50
102
RTVSPost2010PropOp42
 70
     1
102
RTVSPost2010Prop43
 90
        3
102
RTVSPost2010PropOp43
 70
     1
102
RTVSPost2010Prop44ColorIndex
 90
        5
102
RTVSPost2010Prop44ColorRGB
 90
      255
102
RTVSPost2010PropOp44
 70
     1
102
RTVSPost2010Prop45
280
     0
102
RTVSPost2010PropOp45
 70
     1
102
RTVSPost2010Prop46
 90
       50
102
RTVSPost2010PropOp46
 70
     1
102
RTVSPost2010Prop47
 90
       50
102
RTVSPost2010PropOp47
 70
     1
102
RTVSPost2010Prop48
 90
       50
102
RTVSPost2010PropOp48
 70
     1
102
RTVSPost2010Prop49
280
     0
102
RTVSPost2010PropOp49
 70
     1
102
RTVSPost2010Prop50
 90
       50
102
RTVSPost2010PropOp50
 70
     1
102
RTVSPost2010Prop51ColorIndex
 90
      256
102
RTVSPost2010Prop51ColorRGB
 90
-16777216
102
RTVSPost2010PropOp51
 70
     0
102
RTVSPost2010Prop52
140
1.0
102
RTVSPost2010PropOp52
 70
     0
102
RTVSPost2010Prop53
 90
        2
102
RTVSPost2010PropOp53
 70
     1
102
RTVSPost2010Prop54
  1
strokes_ogs.tif
102
RTVSPost2010PropOp54
 70
     1
102
RTVSPost2010Prop55
280
     0
102
RTVSPost2010PropOp55
 70
     1
102
RTVSPost2010Prop56
140
1.0
102
RTVSPost2010PropOp56
 70
     1
102
RTVSPost2010Prop57
140
1.0
102
RTVSPost2010PropOp57
 70
     1
102
RTVSPropertyOp0
 70
     1
102
RTVSPropertyOp1
 70
     1
102
RTVSPropertyOp2
 70
     1
102
RTVSPropertyOp3
 70
     1
102
RTVSPropertyOp4
 70
     1
102
RTVSPropertyOp5
 70
     1
102
RTVSPropertyOp6
 70
     1
102
RTVSPropertyOp7
 70
     1
102
RTVSPropertyOp8
 70
     1
102
RTVSPropertyOp9
 70
     1
102
RTVSPropertyOp10
 70
     1
102
RTVSPropertyOp11
 70
     1
102
RTVSPropertyOp12
 70
     1
102
RTVSPropertyOp13
 70
     1
102
RTVSPropertyOp14
 70
     1
102
RTVSPropertyOp15
 70
     1
102
RTVSPropertyOp16
 70
     1
102
RTVSPropertyOp17
 70
     1
102
RTVSPropertyOp18
 70
     1
102
RTVSPropertyOp19
 70
     1
102
RTVSPropertyOp20
 70
     1
102
RTVSPropertyOp21
 70
     1
102
RTVSPropertyOp22
 70
     1
102
RTVSPropertyOp23
 70
     1
102
RTVSPropertyOp24
 70
     1
102
RTVSPropertyOp25
 70
     1
102
RTVSPropertyOp26
 70
     1
102
RTVSPropertyOp27
 70
     1
102
RTVSPropertyOp28
 70
     1
102
RTVSPropertyOp29
 70
     1
102
RTVSPropertyOp30
 70
     1
102
RTVSPropertyOp31
 70
     1
102
RTVSPropertyOp32
 70
     1
102
RTVSPropertyOp33
 70
     1
102
RTVSPropertyOp34
 70
     1
102
RTVSPropertyOp35
 70
     1
102
RTVSPropertyOp36
 70
     1
102
RTVSPropertyOp37
 70
     1
102
RTVSPropertyOp38
 70
     1
102
RTVSPropertyOp39
 70
     1
102
RTVSPropertyOp40
 70
     1
102
RTVSPropertyOp41
 70
     1
102
RTVSPropertyOp42
 70
     1
102
RTVSPropertyOp43
 70
     1
102
RTVSPropertyOp44
 70
     1
102
RTVSPropertyOp45
 70
     1
102
RTVSPropertyOp46
 70
     1
102
RTVSPropertyOp47
 70
     1
102
RTVSPropertyOp48
 70
     1
102
RTVSPropertyOp49
 70
     1
102
RTVSPropertyOp50
 70
     1
102
RTVSPropertyOp51
 70
     0
102
RTVSPropertyOp52
 70
     0
102
RTVSPropertyOp53
 70
     1
102
RTVSPropertyOp54
 70
     1
102
RTVSPropertyOp55
 70
     1
102
RTVSPropertyOp56
 70
     1
102
RTVSPropertyOp57
 70
     1
102
RTVSPropertyOp58
 70
     1
102
RTVSPropertyOp59
 70
     1
102
RTVSPropertyOp60
 70
     1
102
RTVSPropertyOp61
 70
     1
102
RTVSPropertyOp62
 70
     1
  0
ENDSEC
  0
EOF
