  0
SECTION
  2
HEADER
  9
$ACADVER
  1
AC1027
  9
$DWGCODEPAGE
  3
ANSI_932
  9
$LTSCALE
 40
20.0
  9
$FILLMODE
 70
     1
  9
$CLAYER
  8
0
  9
$PDMODE
 70
     0
  9
$SPLFRAME
 70
     0
  9
$SPLINETYPE
 70
     6
  9
$SPLINESEGS
 70
     8
  9
$DIMASZ
 40
2.000000
  9
$DIMEXE
 40
1.500000
  9
$DIMEXO
 40
0.800000
  9
$DIMTAD
 70
     1
  9
$DIMTIH
 70
     0
  9
$DIMTOH
 70
     0
  9
$DIMTVP
 40
0.500000
  9
$DIMTXT
 40
3.100000
  9
$EXTMIN
 10
0.000000
 20
0.000000
 30
0.000000
  9
$EXTMAX
 10
594.000000
 20
841.000000
 30
0.000000
  9
$MEASUREMENT
 70
  1
  9
$LIMMIN
 10
0.000000
 20
0.000000
  9
$LIMMAX
 10
594.000000
 20
841.000000
  9
$HANDSEED
  5
216
  9
$LWDISPLAY
290
     0
  9
$DIMBLK
  1
_OPEN
  9
$DIMDEC
 70
     2
  9
$DIMADEC
 70
     2
  9
$DIMAUNIT
 70
     0
  9
$DIMZIN
 70
     8
  9
$DIMAZIN
 70
     2
  9
$DIMTOFL
 70
     1
  0
ENDSEC
  0
SECTION
  2
CLASSES
  0
ENDSEC
  0
SECTION
  2
TABLES
  0
TABLE
  2
VPORT
  5
1DD
100
AcDbSymbolTable
 70
     1
  0
VPORT
  5
1DE
100
AcDbSymbolTableRecord
100
AcDbViewportTableRecord
  2
*ACTIVE
 70
     0
 12
133.949999
 22
112.668204
 40
189.336406
 41
1.309310
  0
ENDTAB
  0
TABLE
  2
LTYPE
  5
1DF
100
AcDbSymbolTable
 70
     3
  0
LTYPE
  5
1E0
100
AcDbSymbolTableRecord
100
AcDbLinetypeTableRecord
  2
BYBLOCK
 70
     0
  3

 72
    65
 73
     0
 40
0.0
  0
LTYPE
  5
1E1
100
AcDbSymbolTableRecord
100
AcDbLinetypeTableRecord
  2
BYLAYER
 70
     0
  3

 72
    65
 73
     0
 40
0.0
  0
LTYPE
  5
1E2
100
AcDbSymbolTableRecord
100
AcDbLinetypeTableRecord
  2
CONTINUOUS
 70
     0
  3
Solid line (NEC CAE2D for Win R18.0 : 2025.10.06)
 72
    65
 73
     0
 40
0.0
  0
LTYPE
  5
1E3
100
AcDbSymbolTableRecord
100
AcDbLinetypeTableRecord
  2
CENTER
 70
     0
  3
____ _ ____ _ ____ _ ____ _ ____ _ ____
 72
    65
 73
     4
 40
2.0
 49
1.25
 74
     0
 49
-0.25
 74
     0
 49
0.25
 74
     0
 49
-0.25
 74
     0
  0
LTYPE
  5
1E4
100
AcDbSymbolTableRecord
100
AcDbLinetypeTableRecord
  2
PHANTOM
 70
     0
  3
______  __  __  ______  __  __  ______ 
 72
    65
 73
     6
 40
2.5
 49
1.25
 74
     0
 49
-0.25
 74
     0
 49
0.25
 74
     0
 49
-0.25
 74
     0
 49
0.25
 74
     0
 49
-0.25
 74
     0
  0
ENDTAB
  0
TABLE
  2
LAYER
  5
1E5
100
AcDbSymbolTable
 70
    18
  0
LAYER
  5
1E6
100
AcDbSymbolTableRecord
100
AcDbLayerTableRecord
  2
0
 70
     0
 62
     7
  6
CONTINUOUS
370
    -3
390

  0
LAYER
  5
1E7
100
AcDbSymbolTableRecord
100
AcDbLayerTableRecord
  2
DXF0
 70
     0
 62
     7
  6
CONTINUOUS
370
    -3
390

  0
LAYER
  5
1E8
100
AcDbSymbolTableRecord
100
AcDbLayerTableRecord
  2
A0
 70
     0
 62
     9
  6
CONTINUOUS
370
    -3
390

  0
LAYER
  5
1E9
100
AcDbSymbolTableRecord
100
AcDbLayerTableRecord
  2
A1
 70
     0
 62
    12
  6
CONTINUOUS
370
    -3
390

  0
LAYER
  5
1EA
100
AcDbSymbolTableRecord
100
AcDbLayerTableRecord
  2
A2
 70
     0
 62
     9
  6
CONTINUOUS
370
    -3
390

  0
LAYER
  5
1EB
100
AcDbSymbolTableRecord
100
AcDbLayerTableRecord
  2
A4
 70
     0
 62
     9
  6
CONTINUOUS
370
    -3
390

  0
LAYER
  5
1EC
100
AcDbSymbolTableRecord
100
AcDbLayerTableRecord
  2
A5
 70
     0
 62
     8
  6
CONTINUOUS
370
    -3
390

  0
LAYER
  5
1ED
100
AcDbSymbolTableRecord
100
AcDbLayerTableRecord
  2
A6
 70
     0
 62
    12
  6
CONTINUOUS
370
    -3
390

  0
LAYER
  5
1EE
100
AcDbSymbolTableRecord
100
AcDbLayerTableRecord
  2
A7
 70
     0
 62
    12
  6
CONTINUOUS
370
    -3
390

  0
LAYER
  5
1EF
100
AcDbSymbolTableRecord
100
AcDbLayerTableRecord
  2
A8
 70
     0
 62
    10
  6
CONTINUOUS
370
    -3
390

  0
LAYER
  5
1F0
100
AcDbSymbolTableRecord
100
AcDbLayerTableRecord
  2
A9
 70
     0
 62
     9
  6
CONTINUOUS
370
    -3
390

  0
LAYER
  5
1F1
100
AcDbSymbolTableRecord
100
AcDbLayerTableRecord
  2
A10
 70
     0
 62
     6
  6
CONTINUOUS
370
    -3
390

  0
LAYER
  5
1F2
100
AcDbSymbolTableRecord
100
AcDbLayerTableRecord
  2
A20
 70
     0
 62
     1
  6
CONTINUOUS
370
    -3
390

  0
LAYER
  5
1F3
100
AcDbSymbolTableRecord
100
AcDbLayerTableRecord
  2
A30
 70
     0
 62
     1
  6
CONTINUOUS
370
    -3
390

  0
LAYER
  5
1F4
100
AcDbSymbolTableRecord
100
AcDbLayerTableRecord
  2
A40
 70
     0
 62
     9
  6
CONTINUOUS
370
    -3
390

  0
LAYER
  5
1F5
100
AcDbSymbolTableRecord
100
AcDbLayerTableRecord
  2
A50
 70
     0
 62
    12
  6
CONTINUOUS
370
    -3
390

  0
LAYER
  5
1F6
100
AcDbSymbolTableRecord
100
AcDbLayerTableRecord
  2
A1023
 70
     0
 62
     8
  6
CONTINUOUS
370
    -3
390

  0
LAYER
  5
1F7
100
AcDbSymbolTableRecord
100
AcDbLayerTableRecord
  2
DXF1023
 70
     0
 62
    16
  6
CONTINUOUS
370
    -3
390

  0
ENDTAB
  0
TABLE
  2
STYLE
  5
1F8
100
AcDbSymbolTable
 70
     4
  0
STYLE
  5
1F9
100
AcDbSymbolTableRecord
100
AcDbTextStyleTableRecord
  2
STANDARD
 70
    64
 40
0.0
 41
1.0
 50
0.0
 71
     0
 42
3.000000000000000
  3
TXT
  4

  0
STYLE
  5
1FA
100
AcDbSymbolTableRecord
100
AcDbTextStyleTableRecord
  2
ANKTATE
 70
    68
 40
0.0
 41
1.0
 50
0.0
 71
     0
 42
3.000000000000000
  3
TXT
  4

  0
STYLE
  5
1FB
100
AcDbSymbolTableRecord
100
AcDbTextStyleTableRecord
  2
KNJYOKO
 70
    64
 40
0.0
 41
1.0
 50
0.0
 71
     0
 42
3.000000000000000
  3
TXT
  4
BIGFONT
  0
STYLE
  5
1FC
100
AcDbSymbolTableRecord
100
AcDbTextStyleTableRecord
  2
KNJTATE
 70
    68
 40
0.0
 41
1.0
 50
0.0
 71
     0
 42
3.000000000000000
  3
TXT
  4
BIGFONT
  0
ENDTAB
  0
TABLE
  2
VIEW
  5
1FD
100
AcDbSymbolTable
 70
     0
  0
ENDTAB
  0
TABLE
  2
UCS
  5
1FE
100
AcDbSymbolTable
 70
     0
  0
ENDTAB
  0
TABLE
  2
APPID
  5
1FF
100
AcDbSymbolTable
 70
     1
  0
APPID
  5
200
100
AcDbSymbolTableRecord
100
AcDbRegAppTableRecord
  2
ACAD
 70
     0
  0
ENDTAB
  0
TABLE
  2
DIMSTYLE
  5
201
100
AcDbSymbolTable
 70
     2
100
AcDbDimStyleTable
  0
DIMSTYLE
105
202
100
AcDbSymbolTableRecord
100
AcDbDimStyleTableRecord
  2
STANDARD
 70
     0
 41
2.000000
 44
1.500000
 42
0.800000
145
0.661290
140
3.100000
144
1.000000
146
0.645161
340
1F9
  0
DIMSTYLE
105
203
100
AcDbSymbolTableRecord
100
AcDbDimStyleTableRecord
  2
DXF001
 70
     0
 41
2.000000
 44
1.500000
 42
0.800000
145
0.661290
140
3.100000
144
1.000000
146
0.645161
 77
     1
 73
     0
 74
     0
271
     2
179
     2
275
     0
 78
     8
 79
     2
172
     1
340
1F9
  0
ENDTAB
  0
TABLE
  2
BLOCK_RECORD
  5
204
100
AcDbSymbolTable
 70
    12
  0
BLOCK_RECORD
  5
205
100
AcDbSymbolTableRecord
100
AcDbBlockTableRecord
  2
*MODEL_SPACE
  0
BLOCK_RECORD
  5
206
100
AcDbSymbolTableRecord
100
AcDbBlockTableRecord
  2
*PAPER_SPACE
  0
BLOCK_RECORD
  5
207
100
AcDbSymbolTableRecord
100
AcDbBlockTableRecord
  2
*PAPER_SPACE0
  0
BLOCK_RECORD
  5
1
100
AcDbSymbolTableRecord
100
AcDbBlockTableRecord
  2
_NONE
  0
BLOCK_RECORD
  5
4
100
AcDbSymbolTableRecord
100
AcDbBlockTableRecord
  2
_CLOSED
  0
BLOCK_RECORD
  5
B
100
AcDbSymbolTableRecord
100
AcDbBlockTableRecord
  2
_DOT
  0
BLOCK_RECORD
  5
13
100
AcDbSymbolTableRecord
100
AcDbBlockTableRecord
  2
_OPEN
  0
BLOCK_RECORD
  5
19
100
AcDbSymbolTableRecord
100
AcDbBlockTableRecord
  2
_ORIGIN
  0
BLOCK_RECORD
  5
1E
100
AcDbSymbolTableRecord
100
AcDbBlockTableRecord
  2
_OPEN30
  0
BLOCK_RECORD
  5
24
100
AcDbSymbolTableRecord
100
AcDbBlockTableRecord
  2
_BOXFILLED
  0
BLOCK_RECORD
  5
29
100
AcDbSymbolTableRecord
100
AcDbBlockTableRecord
  2
_BOXBLANK
  0
BLOCK_RECORD
  5
31
100
AcDbSymbolTableRecord
100
AcDbBlockTableRecord
  2
_OBLIQUE
  0
BLOCK_RECORD
  5
35
100
AcDbSymbolTableRecord
100
AcDbBlockTableRecord
  2
_OPEN90
  0
BLOCK_RECORD
  5
3B
100
AcDbSymbolTableRecord
100
AcDbBlockTableRecord
  2
_CLOSEDBLANK
  0
BLOCK_RECORD
  5
41
100
AcDbSymbolTableRecord
100
AcDbBlockTableRecord
  2
_DOTBLANK
  0
ENDTAB
  0
ENDSEC
  0
SECTION
  2
BLOCKS
  0
BLOCK
  5
208
100
AcDbEntity
  8
0
100
AcDbBlockBegin
  2
*MODEL_SPACE
 70
     0
 10
0.0
 20
0.0
 30
0.0
  3
*MODEL_SPACE
  1

  0
ENDBLK
  5
209
100
AcDbEntity
  8
0
100
AcDbBlockEnd
  0
BLOCK
  5
20A
100
AcDbEntity
  8
0
100
AcDbBlockBegin
  2
*PAPER_SPACE
 70
     0
 10
0.0
 20
0.0
 30
0.0
  3
*PAPER_SPACE
  1

  0
ENDBLK
  5
20B
100
AcDbEntity
  8
0
100
AcDbBlockEnd
  0
BLOCK
  5
20C
100
AcDbEntity
  8
0
100
AcDbBlockBegin
  2
*PAPER_SPACE0
 70
     0
 10
0.0
 20
0.0
 30
0.0
  3
*PAPER_SPACE0
  1

  0
ENDBLK
  5
20D
100
AcDbEntity
  8
0
100
AcDbBlockEnd
  0
BLOCK
  5
2
330
1
100
AcDbEntity
  8
0
100
AcDbBlockBegin
  2
_NONE
 70
     0
 10
0.0
 20
0.0
 30
0.0
  3
_NONE
  1

  0
ENDBLK
  5
3
330
1
100
AcDbEntity
  8
0
100
AcDbBlockEnd
  0
BLOCK
  5
5
330
4
100
AcDbEntity
  8
0
100
AcDbBlockBegin
  2
_CLOSED
 70
     0
 10
0.0
 20
0.0
 30
0.0
  3
_CLOSED
  1

  0
LINE
  5
6
330
4
100
AcDbEntity
  8
0
  6
BYBLOCK
 62
     0
370
    -2
100
AcDbLine
 10
-1.0
 20
0.166667
 30
0.0
 11
0.0
 21
0.0
 31
0.0
  0
LINE
  5
7
330
4
100
AcDbEntity
  8
0
  6
BYBLOCK
 62
     0
370
    -2
100
AcDbLine
 10
0.0
 20
0.0
 30
0.0
 11
-1.0
 21
-0.166667
 31
0.0
  0
LINE
  5
8
330
4
100
AcDbEntity
  8
0
  6
BYBLOCK
 62
     0
370
    -2
100
AcDbLine
 10
-1.0
 20
0.166667
 30
0.0
 11
-1.0
 21
-0.166667
 31
0.0
  0
LINE
  5
9
330
4
100
AcDbEntity
  8
0
  6
BYBLOCK
 62
     0
370
    -2
100
AcDbLine
 10
0.0
 20
0.0
 30
0.0
 11
-1.0
 21
0.0
 31
0.0
  0
ENDBLK
  5
A
330
4
100
AcDbEntity
  8
0
100
AcDbBlockEnd
  0
BLOCK
  5
C
330
B
100
AcDbEntity
  8
0
100
AcDbBlockBegin
  2
_DOT
 70
     0
 10
0.0
 20
0.0
 30
0.0
  3
_DOT
  1

  0
POLYLINE
  5
D
330
B
100
AcDbEntity
  8
0
  6
BYBLOCK
 62
     0
370
    -2
100
AcDb2dPolyline
 66
     1
 10
0.0
 20
0.0
 30
0.0
 70
     1
 40
0.5
 41
0.5
  0
VERTEX
  5
E
330
B
100
AcDbEntity
  8
0
  6
BYBLOCK
 62
     0
370
    -2
100
AcDbVertex
100
AcDb2dVertex
 10
-0.25
 20
0.0
 30
0.0
 42
1.0
  0
VERTEX
  5
F
330
B
100
AcDbEntity
  8
0
  6
BYBLOCK
 62
     0
370
    -2
100
AcDbVertex
100
AcDb2dVertex
 10
0.25
 20
0.0
 30
0.0
 42
1.0
  0
SEQEND
  5
10
330
B
100
AcDbEntity
  8
0
  6
BYBLOCK
 62
     0
370
    -2
  0
LINE
  5
11
330
B
100
AcDbEntity
  8
0
  6
BYBLOCK
 62
     0
370
    -2
100
AcDbLine
 10
-0.5
 20
0.0
 30
0.0
 11
-1.0
 21
0.0
 31
0.0
  0
ENDBLK
  5
12
330
B
100
AcDbEntity
  8
0
100
AcDbBlockEnd
  0
BLOCK
  5
14
330
13
100
AcDbEntity
  8
0
100
AcDbBlockBegin
  2
_OPEN
 70
     0
 10
0.0
 20
0.0
 30
0.0
  3
_OPEN
  1

  0
LINE
  5
15
330
13
100
AcDbEntity
  8
0
  6
BYBLOCK
 62
     0
370
    -2
100
AcDbLine
 10
-1.0
 20
0.166667
 30
0.0
 11
0.0
 21
0.0
 31
0.0
  0
LINE
  5
16
330
13
100
AcDbEntity
  8
0
  6
BYBLOCK
 62
     0
370
    -2
100
AcDbLine
 10
0.0
 20
0.0
 30
0.0
 11
-1.0
 21
-0.166667
 31
0.0
  0
LINE
  5
17
330
13
100
AcDbEntity
  8
0
  6
BYBLOCK
 62
     0
370
    -2
100
AcDbLine
 10
0.0
 20
0.0
 30
0.0
 11
-1.0
 21
0.0
 31
0.0
  0
ENDBLK
  5
18
330
13
100
AcDbEntity
  8
0
100
AcDbBlockEnd
  0
BLOCK
  5
1A
330
19
100
AcDbEntity
  8
0
100
AcDbBlockBegin
  2
_ORIGIN
 70
     0
 10
0.0
 20
0.0
 30
0.0
  3
_ORIGIN
  1

  0
CIRCLE
  5
1B
330
19
100
AcDbEntity
  8
0
  6
BYBLOCK
 62
     0
370
    -2
100
AcDbCircle
 10
0.0
 20
0.0
 30
0.0
 40
0.5
  0
LINE
  5
1C
330
19
100
AcDbEntity
  8
0
  6
BYBLOCK
 62
     0
370
    -2
100
AcDbLine
 10
0.0
 20
0.0
 30
0.0
 11
-1.0
 21
0.0
 31
0.0
  0
ENDBLK
  5
1D
330
19
100
AcDbEntity
  8
0
100
AcDbBlockEnd
  0
BLOCK
  5
1F
330
1E
100
AcDbEntity
  8
0
100
AcDbBlockBegin
  2
_OPEN30
 70
     0
 10
0.0
 20
0.0
 30
0.0
  3
_OPEN30
  1

  0
LINE
  5
20
330
1E
100
AcDbEntity
  8
0
  6
BYBLOCK
 62
     0
370
    -2
100
AcDbLine
 10
-1.0
 20
0.267949
 30
0.0
 11
0.0
 21
0.0
 31
0.0
  0
LINE
  5
21
330
1E
100
AcDbEntity
  8
0
  6
BYBLOCK
 62
     0
370
    -2
100
AcDbLine
 10
0.0
 20
0.0
 30
0.0
 11
-1.0
 21
-0.267949
 31
0.0
  0
LINE
  5
22
330
1E
100
AcDbEntity
  8
0
  6
BYBLOCK
 62
     0
370
    -2
100
AcDbLine
 10
0.0
 20
0.0
 30
0.0
 11
-1.0
 21
0.0
 31
0.0
  0
ENDBLK
  5
23
330
1E
100
AcDbEntity
  8
0
100
AcDbBlockEnd
  0
BLOCK
  5
25
330
24
100
AcDbEntity
  8
0
100
AcDbBlockBegin
  2
_BOXFILLED
 70
     0
 10
0.0
 20
0.0
 30
0.0
  3
_BOXFILLED
  1

  0
SOLID
  5
26
330
24
100
AcDbEntity
  8
0
  6
BYBLOCK
 62
     0
370
    -2
100
AcDbTrace
 10
-0.5
 20
0.5
 30
0.0
 11
0.5
 21
0.5
 31
0.0
 12
-0.5
 22
-0.5
 32
0.0
 13
0.5
 23
-0.5
 33
0.0
  0
LINE
  5
27
330
24
100
AcDbEntity
  8
0
  6
BYBLOCK
 62
     0
370
    -2
100
AcDbLine
 10
-0.5
 20
0.0
 30
0.0
 11
-1.0
 21
0.0
 31
0.0
  0
ENDBLK
  5
28
330
24
100
AcDbEntity
  8
0
100
AcDbBlockEnd
  0
BLOCK
  5
2A
330
29
100
AcDbEntity
  8
0
100
AcDbBlockBegin
  2
_BOXBLANK
 70
     0
 10
0.0
 20
0.0
 30
0.0
  3
_BOXBLANK
  1

  0
LINE
  5
2B
330
29
100
AcDbEntity
  8
0
  6
BYBLOCK
 62
     0
370
    -2
100
AcDbLine
 10
-0.5
 20
-0.5
 30
0.0
 11
0.5
 21
-0.5
 31
0.0
  0
LINE
  5
2C
330
29
100
AcDbEntity
  8
0
  6
BYBLOCK
 62
     0
370
    -2
100
AcDbLine
 10
0.5
 20
-0.5
 30
0.0
 11
0.5
 21
0.5
 31
0.0
  0
LINE
  5
2D
330
29
100
AcDbEntity
  8
0
  6
BYBLOCK
 62
     0
370
    -2
100
AcDbLine
 10
0.5
 20
0.5
 30
0.0
 11
-0.5
 21
0.5
 31
0.0
  0
LINE
  5
2E
330
29
100
AcDbEntity
  8
0
  6
BYBLOCK
 62
     0
370
    -2
100
AcDbLine
 10
-0.5
 20
0.5
 30
0.0
 11
-0.5
 21
-0.5
 31
0.0
  0
LINE
  5
2F
330
29
100
AcDbEntity
  8
0
  6
BYBLOCK
 62
     0
370
    -2
100
AcDbLine
 10
-0.5
 20
0.0
 30
0.0
 11
-1.0
 21
0.0
 31
0.0
  0
ENDBLK
  5
30
330
29
100
AcDbEntity
  8
0
100
AcDbBlockEnd
  0
BLOCK
  5
32
330
31
100
AcDbEntity
  8
0
100
AcDbBlockBegin
  2
_OBLIQUE
 70
     0
 10
0.0
 20
0.0
 30
0.0
  3
_OBLIQUE
  1

  0
LINE
  5
33
330
31
100
AcDbEntity
  8
0
  6
BYBLOCK
 62
     0
370
    -2
100
AcDbLine
 10
-0.5
 20
-0.5
 30
0.0
 11
0.5
 21
0.5
 31
0.0
  0
ENDBLK
  5
34
330
31
100
AcDbEntity
  8
0
100
AcDbBlockEnd
  0
BLOCK
  5
36
330
35
100
AcDbEntity
  8
0
100
AcDbBlockBegin
  2
_OPEN90
 70
     0
 10
0.0
 20
0.0
 30
0.0
  3
_OPEN90
  1

  0
LINE
  5
37
330
35
100
AcDbEntity
  8
0
  6
BYBLOCK
 62
     0
370
    -2
100
AcDbLine
 10
-0.5
 20
0.5
 30
0.0
 11
0.0
 21
0.0
 31
0.0
  0
LINE
  5
38
330
35
100
AcDbEntity
  8
0
  6
BYBLOCK
 62
     0
370
    -2
100
AcDbLine
 10
0.0
 20
0.0
 30
0.0
 11
-0.5
 21
-0.5
 31
0.0
  0
LINE
  5
39
330
35
100
AcDbEntity
  8
0
  6
BYBLOCK
 62
     0
370
    -2
100
AcDbLine
 10
0.0
 20
0.0
 30
0.0
 11
-1.0
 21
0.0
 31
0.0
  0
ENDBLK
  5
3A
330
35
100
AcDbEntity
  8
0
100
AcDbBlockEnd
  0
BLOCK
  5
3C
330
3B
100
AcDbEntity
  8
0
100
AcDbBlockBegin
  2
_CLOSEDBLANK
 70
     0
 10
0.0
 20
0.0
 30
0.0
  3
_CLOSEDBLANK
  1

  0
LINE
  5
3D
330
3B
100
AcDbEntity
  8
0
  6
BYBLOCK
 62
     0
370
    -2
100
AcDbLine
 10
-1.0
 20
0.1666666666666666
 30
0.0
 11
0.0
 21
0.0
 31
0.0
  0
LINE
  5
3E
330
3B
100
AcDbEntity
  8
0
  6
BYBLOCK
 62
     0
370
    -2
100
AcDbLine
 10
0.0
 20
0.0
 30
0.0
 11
-1.0
 21
-0.1666666666666666
 31
0.0
  0
LINE
  5
3F
330
3B
100
AcDbEntity
  8
0
  6
BYBLOCK
 62
     0
370
    -2
100
AcDbLine
 10
-1.0
 20
0.1666666666666666
 30
0.0
 11
-1.0
 21
-0.1666666666666666
 31
0.0
  0
ENDBLK
  5
40
330
3B
100
AcDbEntity
  8
0
100
AcDbBlockEnd
  0
BLOCK
  5
42
330
41
100
AcDbEntity
  8
0
100
AcDbBlockBegin
  2
_DOTBLANK
 70
     0
 10
0.0
 20
0.0
 30
0.0
  3
_DOTBLANK
  1

  0
CIRCLE
  5
43
330
41
100
AcDbEntity
  8
0
  6
BYBLOCK
 62
     0
370
    -2
100
AcDbCircle
 10
0.0
 20
0.0
 30
0.0
 40
0.5
  0
LINE
  5
44
330
41
100
AcDbEntity
  8
0
  6
BYBLOCK
 62
     0
370
    -2
100
AcDbLine
 10
-0.5
 20
0.0
 30
0.0
 11
-1.0
 21
0.0
 31
0.0
  0
ENDBLK
  5
45
330
41
100
AcDbEntity
  8
0
100
AcDbBlockEnd
  0
ENDSEC
  0
SECTION
  2
ENTITIES
  0
MTEXT
  5
46
100
AcDbEntity
  8
A7
  6
CONTINUOUS
 62
3
100
AcDbMText
 10
9.999997526638502
 20
18.00000076076889
 30
0.000000000000000
 40
3.000000000000000
 41
0.000000000000000
 44
0.6739999771118164
 71
     7
 72
     1
  1
{\H0.93x;{TYPE No.TH-182-R}}
 11
1.000000000000000
 21
0.000000000000000
 31
0.000000000000000
  7
STANDARD
  0
POINT
  5
47
100
AcDbEntity
  8
A7
  6
CONTINUOUS
 62
3
100
AcDbPoint
 10
9.999997526638502
 20
18.00000076076889
 30
0.000000000000000
  0
LINE
  5
48
100
AcDbEntity
  8
A1
  6
CONTINUOUS
 62
7
100
AcDbLine
 10
103.0999999999731
 20
135.2364063136384
 30
0.000000000000000
 11
116.8999999999731
 21
135.2364063136384
 31
0.000000000000000
  0
LINE
  5
49
100
AcDbEntity
  8
A1
  6
CONTINUOUS
 62
7
100
AcDbLine
 10
103.0999999999731
 20
100.2364063136384
 30
0.000000000000000
 11
109.5999999999732
 21
100.2364063136384
 31
0.000000000000000
  0
LINE
  5
4A
100
AcDbEntity
  8
A1
  6
CONTINUOUS
 62
7
100
AcDbLine
 10
109.5999999999732
 20
103.4364063136384
 30
0.000000000000000
 11
116.8999999999731
 21
103.4364063136384
 31
0.000000000000000
  0
LINE
  5
4B
100
AcDbEntity
  8
A1
  6
CONTINUOUS
 62
7
100
AcDbLine
 10
118.8999999999731
 20
133.2364063136385
 30
0.000000000000000
 11
118.8999999999731
 21
105.4364063136384
 31
0.000000000000000
  0
CIRCLE
  5
4C
100
AcDbEntity
  8
A1
  6
CONTINUOUS
 62
7
100
AcDbCircle
 10
114.0999999999689
 20
128.8364063137635
 30
0.000000000000000
 40
1.800000000000000
  0
CIRCLE
  5
4D
100
AcDbEntity
  8
A1
  6
CONTINUOUS
 62
7
100
AcDbCircle
 10
114.0999999999391
 20
109.8364063137635
 30
0.000000000000000
 40
1.800000000000000
  0
LINE
  5
4E
100
AcDbEntity
  8
A4
  6
CENTER
 62
1
100
AcDbLine
 10
117.3999999999689
 20
128.8364063137635
 30
0.000000000000000
 11
110.7999999999689
 21
128.8364063137635
 31
0.000000000000000
  0
LINE
  5
4F
100
AcDbEntity
  8
A4
  6
CENTER
 62
1
100
AcDbLine
 10
114.0999999999689
 20
132.1364063137635
 30
0.000000000000000
 11
114.0999999999689
 21
125.5364063137635
 31
0.000000000000000
  0
LINE
  5
50
100
AcDbEntity
  8
A4
  6
CENTER
 62
1
100
AcDbLine
 10
117.3999999999392
 20
109.8364063137635
 30
0.000000000000000
 11
110.7999999999391
 21
109.8364063137635
 31
0.000000000000000
  0
LINE
  5
51
100
AcDbEntity
  8
A4
  6
CENTER
 62
1
100
AcDbLine
 10
114.0999999999391
 20
113.1364063137635
 30
0.000000000000000
 11
114.0999999999391
 21
106.5364063137635
 31
0.000000000000000
  0
LINE
  5
52
100
AcDbEntity
  8
A1
  6
CONTINUOUS
 62
7
100
AcDbLine
 10
103.0999999999731
 20
109.7364063136385
 30
0.000000000000000
 11
103.0999999999731
 21
100.2364063136384
 31
0.000000000000000
  0
LINE
  5
53
100
AcDbEntity
  8
A1
  6
CONTINUOUS
 62
7
100
AcDbLine
 10
103.0999999999731
 20
135.2364063136384
 30
0.000000000000000
 11
103.0999999999731
 21
125.7364063136384
 31
0.000000000000000
  0
LINE
  5
54
100
AcDbEntity
  8
A1
  6
CONTINUOUS
 62
7
100
AcDbLine
 10
109.2999999999390
 20
109.7364063136385
 30
0.000000000000000
 11
109.2999999999241
 21
100.2364063136385
 31
0.000000000000000
  0
LINE
  5
55
100
AcDbEntity
  8
A1
  6
CONTINUOUS
 62
7
100
AcDbLine
 10
109.2999999999790
 20
135.2364063136385
 30
0.000000000000000
 11
109.2999999999641
 21
125.7364063136385
 31
0.000000000000000
  0
LINE
  5
56
100
AcDbEntity
  8
A1
  6
CONTINUOUS
 62
7
100
AcDbLine
 10
118.9000000000111
 20
34.23640631430916
 30
0.000000000000000
 11
118.9000000000104
 21
33.23640631430916
 31
0.000000000000000
  0
LINE
  5
57
100
AcDbEntity
  8
A4
  6
CENTER
 62
1
100
AcDbLine
 10
114.1000000000103
 20
35.73640631430862
 30
0.000000000000000
 11
114.1000000000103
 21
31.73640631430862
 31
0.000000000000000
  0
ARC
  5
58
100
AcDbEntity
  8
A1
  6
CONTINUOUS
 62
7
100
AcDbCircle
 10
106.1999999999766
 20
36.33640631426249
 30
0.000000000000000
 40
3.099999999954889
100
AcDbArc
 50
317.3576900204329
 51
630.0000000000000
  0
LINE
  5
59
100
AcDbEntity
  8
A1
  6
CONTINUOUS
 62
7
100
AcDbLine
 10
106.1999999999767
 20
33.23640631430761
 30
0.000000000000000
 11
118.9000000000101
 21
33.23640631430920
 31
0.000000000000000
  0
LINE
  5
5A
100
AcDbEntity
  8
A1
  6
CONTINUOUS
 62
7
100
AcDbLine
 10
106.1999999999765
 20
34.23640631430761
 30
0.000000000000000
 11
118.9000000000100
 21
34.23640631430920
 31
0.000000000000000
  0
ARC
  5
5B
100
AcDbEntity
  8
A1
  6
CONTINUOUS
 62
7
100
AcDbCircle
 10
106.1999999999766
 20
36.33640631426255
 30
0.000000000000000
 40
2.099999999954932
100
AcDbArc
 50
317.3576900204331
 51
630.0000000000000
  0
LINE
  5
5C
100
AcDbEntity
  8
A1
  6
CONTINUOUS
 62
7
100
AcDbLine
 10
107.7447538016999
 20
34.91382566914175
 30
0.000000000000000
 11
108.4803508501553
 21
34.23640631430785
 31
0.000000000000000
  0
LINE
  5
5D
100
AcDbEntity
  8
A1
  6
CONTINUOUS
 62
7
100
AcDbLine
 10
109.6999999999390
 20
109.7364063136385
 30
0.000000000000000
 11
102.6999999999390
 21
109.7364063136385
 31
0.000000000000000
  0
LINE
  5
5E
100
AcDbEntity
  8
A4
  6
CENTER
 62
1
100
AcDbLine
 10
103.9712709579722
 20
34.18169824655434
 30
0.000000000000000
 11
103.9584919999766
 21
34.17432031426256
 31
0.000000000000000
  0
LINE
  5
5F
100
AcDbEntity
  8
A1
  6
CONTINUOUS
 62
7
100
AcDbLine
 10
103.0999999999731
 20
125.7364063136384
 30
0.000000000000000
 11
109.2999999999641
 21
125.7364063136384
 31
0.000000000000000
  0
LINE
  5
60
100
AcDbEntity
  8
A1
  6
CONTINUOUS
 62
7
100
AcDbLine
 10
109.1999999999731
 20
125.7364063136384
 30
0.000000000000000
 11
109.1999999999731
 21
110.3364063136384
 31
0.000000000000000
  0
LINE
  5
61
100
AcDbEntity
  8
A1
  6
CONTINUOUS
 62
7
100
AcDbLine
 10
109.5999999999732
 20
103.4364063136384
 30
0.000000000000000
 11
109.5999999999732
 21
100.2364063136384
 31
0.000000000000000
  0
LINE
  5
62
100
AcDbEntity
  8
A1
  6
CONTINUOUS
 62
7
100
AcDbLine
 10
109.6000000000484
 20
34.23640631430806
 30
0.000000000000000
 11
109.6000000000484
 21
33.23640631430806
 31
0.000000000000000
  0
CIRCLE
  5
63
100
AcDbEntity
  8
A1
  6
CONTINUOUS
 62
7
100
AcDbCircle
 10
106.1999999999766
 20
36.33640631426249
 30
0.000000000000000
 40
2.000000000000000
  0
CIRCLE
  5
64
100
AcDbEntity
  8
A1
  6
CONTINUOUS
 62
7
100
AcDbCircle
 10
106.1999999999766
 20
36.33640631426249
 30
0.000000000000000
 40
1.000000000000000
  0
ARC
  5
65
100
AcDbEntity
  8
A1
  6
CONTINUOUS
 62
7
100
AcDbCircle
 10
125.1999999999766
 20
36.33640631426249
 30
0.000000000000000
 40
2.000000000000000
100
AcDbArc
 50
270.0000000000000
 51
450.0000000000000
  0
LINE
  5
66
100
AcDbEntity
  8
A1
  6
CONTINUOUS
 62
7
100
AcDbLine
 10
109.0722813232455
 20
38.33640631426249
 30
0.000000000000000
 11
125.1999999999766
 21
38.33640631426249
 31
0.000000000000000
  0
LINE
  5
67
100
AcDbEntity
  8
A1
  6
CONTINUOUS
 62
7
100
AcDbLine
 10
109.0722813232455
 20
34.33640631426249
 30
0.000000000000000
 11
125.1999999999766
 21
34.33640631426249
 31
0.000000000000000
  0
LINE
  5
68
100
AcDbEntity
  8
A1
  6
CONTINUOUS
 62
7
100
AcDbLine
 10
108.1999999999766
 20
36.33640631426249
 30
0.000000000000000
 11
108.2999999999315
 21
36.33640631426249
 31
0.000000000000000
  0
LINE
  5
69
100
AcDbEntity
  8
A1
  6
CONTINUOUS
 62
7
100
AcDbLine
 10
106.9874461232023
 20
38.17486452782521
 30
0.000000000000000
 11
107.0135816031429
 21
38.27240346684303
 31
0.000000000000000
  0
LINE
  5
6A
100
AcDbEntity
  8
A1
  6
CONTINUOUS
 62
7
100
AcDbLine
 10
105.4125538767509
 20
38.17486452782533
 30
0.000000000000000
 11
105.3864183968103
 21
38.27240346684311
 31
0.000000000000000
  0
LINE
  5
6B
100
AcDbEntity
  8
A1
  6
CONTINUOUS
 62
7
100
AcDbLine
 10
104.1999999999766
 20
36.33640631426249
 30
0.000000000000000
 11
104.1000000000217
 21
36.33640631426249
 31
0.000000000000000
  0
ARC
  5
6C
100
AcDbEntity
  8
A1
  6
CONTINUOUS
 62
7
100
AcDbCircle
 10
106.1999999999766
 20
36.33640631426249
 30
0.000000000000000
 40
3.500000000000000
100
AcDbArc
 50
323.1301023550855
 51
591.1903863876471
  0
LINE
  5
6D
100
AcDbEntity
  8
A1
  6
CONTINUOUS
 62
7
100
AcDbLine
 10
107.6644621452859
 20
34.97429375468612
 30
0.000000000000000
 11
107.8621784890388
 21
34.23640631430781
 31
0.000000000000000
  0
ARC
  5
6E
100
AcDbEntity
  8
A1
  6
CONTINUOUS
 62
7
100
AcDbCircle
 10
104.1631126571351
 20
33.80389966025899
 30
0.000000000000000
 40
0.2500000000000000
100
AcDbArc
 50
231.1903863876478
 51
344.9999999999922
  0
LINE
  5
6F
100
AcDbEntity
  8
A4
  6
CENTER
 62
1
100
AcDbLine
 10
106.1999999999390
 20
142.8364063136702
 30
0.000000000000000
 11
106.1999999999390
 21
88.33640631377619
 31
0.000000000000000
  0
LINE
  5
70
100
AcDbEntity
  8
A1
  6
CONTINUOUS
 62
7
100
AcDbLine
 10
105.1999999999389
 20
89.83640631377619
 30
0.000000000000000
 11
107.1999999999389
 21
89.83640631377619
 31
0.000000000000000
  0
LINE
  5
71
100
AcDbEntity
  8
A1
  6
CONTINUOUS
 62
7
100
AcDbLine
 10
110.1999999999389
 20
148.8364063137762
 30
0.000000000000000
 11
125.1999999999389
 21
148.8364063137762
 31
0.000000000000000
  0
LINE
  5
72
100
AcDbEntity
  8
A1
  6
CONTINUOUS
 62
7
100
AcDbLine
 10
110.1999999999389
 20
144.8364063137762
 30
0.000000000000000
 11
125.1999999999389
 21
144.8364063137762
 31
0.000000000000000
  0
ARC
  5
73
100
AcDbEntity
  8
A1
  6
CONTINUOUS
 62
7
100
AcDbCircle
 10
110.1999999999389
 20
142.8364063137762
 30
0.000000000000000
 40
2.000000000000000
100
AcDbArc
 50
90.00000000000000
 51
180.0000000000000
  0
ARC
  5
74
100
AcDbEntity
  8
A1
  6
CONTINUOUS
 62
7
100
AcDbCircle
 10
110.1999999999389
 20
142.8364063137762
 30
0.000000000000000
 40
6.000000000000000
100
AcDbArc
 50
90.00000000000000
 51
180.0000000000000
  0
ARC
  5
75
100
AcDbEntity
  8
A1
  6
CONTINUOUS
 62
7
100
AcDbCircle
 10
125.1999999999389
 20
146.8364063137762
 30
0.000000000000000
 40
2.000000000000028
100
AcDbArc
 50
270.0000000000000
 51
450.0000000000000
  0
LINE
  5
76
100
AcDbEntity
  8
A1
  6
CONTINUOUS
 62
7
100
AcDbLine
 10
104.1999999999390
 20
93.83640631377619
 30
0.000000000000000
 11
108.1999999999390
 21
93.83640631377619
 31
0.000000000000000
  0
LINE
  5
77
100
AcDbEntity
  8
A4
  6
CENTER
 62
1
100
AcDbLine
 10
110.1999999999389
 20
146.8364063136702
 30
0.000000000000000
 11
128.6999999999390
 21
146.8364063136702
 31
0.000000000000000
  0
ARC
  5
78
100
AcDbEntity
  8
A4
  6
CENTER
 62
1
100
AcDbCircle
 10
110.1999999999389
 20
142.8364063136702
 30
0.000000000000000
 40
4.000000000000000
100
AcDbArc
 50
90.00000000000000
 51
180.0000000000000
  0
LINE
  5
79
100
AcDbEntity
  8
A1
  6
CONTINUOUS
 62
7
100
AcDbLine
 10
107.7249999999384
 20
110.3364063136386
 30
0.000000000000000
 11
107.7249999999384
 21
110.4364063136387
 31
0.000000000000000
  0
LINE
  5
7A
100
AcDbEntity
  8
A1
  6
CONTINUOUS
 62
7
100
AcDbLine
 10
104.6749999999391
 20
110.3364063136384
 30
0.000000000000000
 11
104.6749999999391
 21
110.4232463758686
 31
0.000000000000000
  0
LINE
  5
7B
100
AcDbEntity
  8
A1
  6
CONTINUOUS
 62
7
100
AcDbLine
 10
104.1999999999390
 20
93.83640631377608
 30
0.000000000000000
 11
104.1999999999390
 21
100.2364063136384
 31
0.000000000000000
  0
LINE
  5
7C
100
AcDbEntity
  8
A1
  6
CONTINUOUS
 62
7
100
AcDbLine
 10
108.1999999999390
 20
93.83640631377619
 30
0.000000000000000
 11
108.1999999999390
 21
100.2364063136384
 31
0.000000000000000
  0
LINE
  5
7D
100
AcDbEntity
  8
A1
  6
CONTINUOUS
 62
7
100
AcDbLine
 10
108.1999999999389
 20
110.4364063136385
 30
0.000000000000000
 11
104.7980014264733
 21
110.4364063136385
 31
0.000000000000000
  0
LINE
  5
7E
100
AcDbEntity
  8
A1
  6
CONTINUOUS
 62
7
100
AcDbLine
 10
104.1999999999388
 20
93.83640631377617
 30
0.000000000000000
 11
105.1999999999388
 21
89.83640631377615
 31
0.000000000000000
  0
LINE
  5
7F
100
AcDbEntity
  8
A1
  6
CONTINUOUS
 62
7
100
AcDbLine
 10
108.1999999999389
 20
93.83640631377619
 30
0.000000000000000
 11
107.1999999999389
 21
89.83640631377619
 31
0.000000000000000
  0
LINE
  5
80
100
AcDbEntity
  8
A1
  6
CONTINUOUS
 62
7
100
AcDbLine
 10
109.6999999999389
 20
110.3364063136385
 30
0.000000000000000
 11
102.6999999999389
 21
110.3364063136385
 31
0.000000000000000
  0
LINE
  5
81
100
AcDbEntity
  8
A1
  6
CONTINUOUS
 62
7
100
AcDbLine
 10
109.6999999999389
 20
109.7364063136385
 30
0.000000000000000
 11
109.6999999999389
 21
110.3364063136385
 31
0.000000000000000
  0
LINE
  5
82
100
AcDbEntity
  8
A1
  6
CONTINUOUS
 62
7
100
AcDbLine
 10
102.6999999999389
 20
109.7364063136385
 30
0.000000000000000
 11
102.6999999999389
 21
110.3364063136385
 31
0.000000000000000
  0
CIRCLE
  5
83
100
AcDbEntity
  8
A1
  6
CONTINUOUS
 62
7
100
AcDbCircle
 10
108.5499999999389
 20
110.5864063136384
 30
0.000000000000000
 40
0.2500000000000000
  0
LINE
  5
84
100
AcDbEntity
  8
A1
  6
CONTINUOUS
 62
7
100
AcDbLine
 10
103.8765957446197
 20
110.3378250062864
 30
0.000000000000000
 11
108.5765957446197
 21
110.8406785849867
 31
0.000000000000000
  0
LINE
  5
85
100
AcDbEntity
  8
A1
  6
CONTINUOUS
 62
7
100
AcDbLine
 10
103.8234042552581
 20
110.8349876209906
 30
0.000000000000000
 11
108.5234042552581
 21
111.3378411996909
 31
0.000000000000000
  0
ARC
  5
86
100
AcDbEntity
  8
A1
  6
CONTINUOUS
 62
7
100
AcDbCircle
 10
108.5499999999389
 20
111.0892598923388
 30
0.000000000000000
 40
0.2500000000000000
100
AcDbArc
 50
276.1068517298650
 51
456.1068517298651
  0
ARC
  5
87
100
AcDbEntity
  8
A1
  6
CONTINUOUS
 62
7
100
AcDbCircle
 10
103.8499999999390
 20
110.5864063136384
 30
0.000000000000000
 40
0.2500000000000071
100
AcDbArc
 50
96.10685172986491
 51
276.1068517298649
  0
ARC
  5
88
100
AcDbEntity
  8
A1
  6
CONTINUOUS
 62
7
100
AcDbCircle
 10
108.5499999999389
 20
124.9835527349382
 30
0.000000000000000
 40
0.2500000000000000
100
AcDbArc
 50
286.4689045267050
 51
466.4689045272270
  0
ARC
  5
89
100
AcDbEntity
  8
A1
  6
CONTINUOUS
 62
7
100
AcDbCircle
 10
108.5499999999389
 20
125.4864063136385
 30
0.000000000000000
 40
0.2500000000000071
100
AcDbArc
 50
270.0000000000000
 51
450.0000000000000
  0
LINE
  5
8A
100
AcDbEntity
  8
A1
  6
CONTINUOUS
 62
7
100
AcDbLine
 10
103.8499999999390
 20
125.2364063136385
 30
0.000000000000000
 11
108.5499999999390
 21
125.2364063136385
 31
0.000000000000000
  0
ARC
  5
8B
100
AcDbEntity
  8
A1
  6
CONTINUOUS
 62
7
100
AcDbCircle
 10
103.8499999999389
 20
125.4864063136385
 30
0.000000000000000
 40
0.2500000000000071
100
AcDbArc
 50
90.00000000000000
 51
270.0000000000000
  0
ARC
  5
8C
100
AcDbEntity
  8
A1
  6
CONTINUOUS
 62
7
100
AcDbCircle
 10
108.5499999999389
 20
122.2046941664183
 30
0.000000000000000
 40
0.2500000000000355
100
AcDbArc
 50
286.4689045272266
 51
466.4689045266888
  0
ARC
  5
8D
100
AcDbEntity
  8
A1
  6
CONTINUOUS
 62
7
100
AcDbCircle
 10
108.5499999999389
 20
119.4258355978984
 30
0.000000000000000
 40
0.2500000000000355
100
AcDbArc
 50
286.4689045272250
 51
466.4689045266748
  0
ARC
  5
8E
100
AcDbEntity
  8
A1
  6
CONTINUOUS
 62
7
100
AcDbCircle
 10
108.5499999999389
 20
116.6469770293785
 30
0.000000000000000
 40
0.2500000000000355
100
AcDbArc
 50
286.4689045272235
 51
466.4689045266605
  0
ARC
  5
8F
100
AcDbEntity
  8
A1
  6
CONTINUOUS
 62
7
100
AcDbCircle
 10
108.5499999999389
 20
113.8681184608586
 30
0.000000000000000
 40
0.2500000000000355
100
AcDbArc
 50
286.4689045272220
 51
466.4689045266497
  0
ARC
  5
90
100
AcDbEntity
  8
A1
  6
CONTINUOUS
 62
7
100
AcDbCircle
 10
103.8499999999165
 20
123.5941234506612
 30
0.000000000000000
 40
0.2499999999775611
100
AcDbArc
 50
106.4689045272272
 51
286.4689045267037
  0
ARC
  5
91
100
AcDbEntity
  8
A1
  6
CONTINUOUS
 62
7
100
AcDbCircle
 10
103.8499999999160
 20
120.8152648821419
 30
0.000000000000000
 40
0.2500000000229790
100
AcDbArc
 50
106.4689045266884
 51
286.4689045272262
  0
ARC
  5
92
100
AcDbEntity
  8
A1
  6
CONTINUOUS
 62
7
100
AcDbCircle
 10
103.8499999999155
 20
118.0364063136225
 30
0.000000000000000
 40
0.2500000000235261
100
AcDbArc
 50
106.4689045266752
 51
286.4689045272255
  0
ARC
  5
93
100
AcDbEntity
  8
A1
  6
CONTINUOUS
 62
7
100
AcDbCircle
 10
103.8499999999149
 20
115.2575477451032
 30
0.000000000000000
 40
0.2500000000240732
100
AcDbArc
 50
106.4689045266620
 51
286.4689045272235
  0
ARC
  5
94
100
AcDbEntity
  8
A1
  6
CONTINUOUS
 62
7
100
AcDbCircle
 10
103.8499999999143
 20
112.4786891765838
 30
0.000000000000000
 40
0.2500000000246203
100
AcDbArc
 50
106.4689045266472
 51
286.4689045272211
  0
LINE
  5
95
100
AcDbEntity
  8
A1
  6
CONTINUOUS
 62
7
100
AcDbLine
 10
108.4791262664884
 20
125.2232961684390
 30
0.000000000000000
 11
103.7791262664723
 21
123.8338668841405
 31
0.000000000000000
  0
LINE
  5
96
100
AcDbEntity
  8
A1
  6
CONTINUOUS
 62
7
100
AcDbLine
 10
103.9208737333608
 20
123.3543800171819
 30
0.000000000000000
 11
108.6208737333895
 21
124.7438093014373
 31
0.000000000000000
  0
LINE
  5
97
100
AcDbEntity
  8
A1
  6
CONTINUOUS
 62
7
100
AcDbLine
 10
108.5765957446197
 20
125.2321340422903
 30
0.000000000000000
 11
108.5366642890495
 21
125.2364063136384
 31
0.000000000000000
  0
LINE
  5
98
100
AcDbEntity
  8
A1
  6
CONTINUOUS
 62
7
100
AcDbLine
 10
108.1999999999390
 20
122.5688576616666
 30
0.000000000000000
 11
108.6208737333880
 21
122.4444375999198
 31
0.000000000000000
  0
LINE
  5
99
100
AcDbEntity
  8
A1
  6
CONTINUOUS
 62
7
100
AcDbLine
 10
108.1999999999390
 20
117.0111405246310
 30
0.000000000000000
 11
108.6208737333880
 21
116.8867204628799
 31
0.000000000000000
  0
LINE
  5
9A
100
AcDbEntity
  8
A1
  6
CONTINUOUS
 62
7
100
AcDbLine
 10
108.1999999999389
 20
114.2322819561112
 30
0.000000000000000
 11
108.6208737333879
 21
114.1078618943599
 31
0.000000000000000
  0
LINE
  5
9B
100
AcDbEntity
  8
A1
  6
CONTINUOUS
 62
7
100
AcDbLine
 10
103.7791262664583
 20
112.2389457430589
 30
0.000000000000000
 11
104.1999999999389
 21
112.1145256813028
 31
0.000000000000000
  0
LINE
  5
9C
100
AcDbEntity
  8
A1
  6
CONTINUOUS
 62
7
100
AcDbLine
 10
108.4791262664884
 20
122.4444375999192
 30
0.000000000000000
 11
103.7791262664589
 21
121.0550083156648
 31
0.000000000000000
  0
LINE
  5
9D
100
AcDbEntity
  8
A1
  6
CONTINUOUS
 62
7
100
AcDbLine
 10
108.6208737333894
 20
121.9649507329174
 30
0.000000000000000
 11
103.9208737333730
 21
120.5755214486190
 31
0.000000000000000
  0
LINE
  5
9E
100
AcDbEntity
  8
A1
  6
CONTINUOUS
 62
7
100
AcDbLine
 10
108.4791262664885
 20
119.6655790313993
 30
0.000000000000000
 11
103.7791262664583
 21
118.2761497471459
 31
0.000000000000000
  0
LINE
  5
9F
100
AcDbEntity
  8
A1
  6
CONTINUOUS
 62
7
100
AcDbLine
 10
103.9208737333726
 20
117.7966628800992
 30
0.000000000000000
 11
108.6208737333894
 21
119.1860921643976
 31
0.000000000000000
  0
LINE
  5
A0
100
AcDbEntity
  8
A1
  6
CONTINUOUS
 62
7
100
AcDbLine
 10
108.4791262664883
 20
116.8867204628795
 30
0.000000000000000
 11
103.7791262664575
 21
115.4972911786272
 31
0.000000000000000
  0
LINE
  5
A1
100
AcDbEntity
  8
A1
  6
CONTINUOUS
 62
7
100
AcDbLine
 10
103.9208737333721
 20
115.0178043115792
 30
0.000000000000000
 11
108.6208737333894
 21
116.4072335958776
 31
0.000000000000000
  0
LINE
  5
A2
100
AcDbEntity
  8
A1
  6
CONTINUOUS
 62
7
100
AcDbLine
 10
108.4791262664884
 20
114.1078618943596
 30
0.000000000000000
 11
103.7791262664569
 21
112.7184326101083
 31
0.000000000000000
  0
LINE
  5
A3
100
AcDbEntity
  8
A1
  6
CONTINUOUS
 62
7
100
AcDbLine
 10
103.9208737333718
 20
112.2389457430593
 30
0.000000000000000
 11
108.6208737333895
 21
113.6283750273577
 31
0.000000000000000
  0
LINE
  5
A4
100
AcDbEntity
  8
A1
  6
CONTINUOUS
 62
7
100
AcDbLine
 10
108.1999999999390
 20
111.4534233875914
 30
0.000000000000000
 11
108.6208737333880
 21
111.3290033258400
 31
0.000000000000000
  0
LINE
  5
A5
100
AcDbEntity
  8
A1
  6
CONTINUOUS
 62
7
100
AcDbLine
 10
104.1999999999390
 20
110.8752796460834
 30
0.000000000000000
 11
104.1999999999390
 21
112.3214619576942
 31
0.000000000000000
  0
LINE
  5
A6
100
AcDbEntity
  8
A1
  6
CONTINUOUS
 62
7
100
AcDbLine
 10
108.1999999999389
 20
110.4364063136385
 30
0.000000000000000
 11
108.1999999999389
 21
110.8003865598940
 31
0.000000000000000
  0
LINE
  5
A7
100
AcDbEntity
  8
A1
  6
CONTINUOUS
 62
7
100
AcDbLine
 10
108.1999999999389
 20
111.3032401385942
 30
0.000000000000000
 11
108.1999999999389
 21
113.5039549656033
 31
0.000000000000000
  0
LINE
  5
A8
100
AcDbEntity
  8
A1
  6
CONTINUOUS
 62
7
100
AcDbLine
 10
104.1999999999390
 20
112.8428526718674
 30
0.000000000000000
 11
104.1999999999390
 21
115.1003205262140
 31
0.000000000000000
  0
LINE
  5
A9
100
AcDbEntity
  8
A1
  6
CONTINUOUS
 62
7
100
AcDbLine
 10
108.1999999999389
 20
114.0253456797330
 30
0.000000000000000
 11
108.1999999999389
 21
116.2828135341231
 31
0.000000000000000
  0
LINE
  5
AA
100
AcDbEntity
  8
A1
  6
CONTINUOUS
 62
7
100
AcDbLine
 10
104.1999999999390
 20
115.6217112403863
 30
0.000000000000000
 11
104.1999999999390
 21
117.8791790947336
 31
0.000000000000000
  0
LINE
  5
AB
100
AcDbEntity
  8
A1
  6
CONTINUOUS
 62
7
100
AcDbLine
 10
108.1999999999389
 20
116.8042042482528
 30
0.000000000000000
 11
108.1999999999389
 21
119.0616721026431
 31
0.000000000000000
  0
LINE
  5
AC
100
AcDbEntity
  8
A1
  6
CONTINUOUS
 62
7
100
AcDbLine
 10
108.1999999999389
 20
119.5830628167726
 30
0.000000000000000
 11
108.1999999999389
 21
121.8405306711629
 31
0.000000000000000
  0
LINE
  5
AD
100
AcDbEntity
  8
A1
  6
CONTINUOUS
 62
7
100
AcDbLine
 10
104.1999999999390
 20
118.4005698089050
 30
0.000000000000000
 11
104.1999999999390
 21
120.6580376632534
 31
0.000000000000000
  0
LINE
  5
AE
100
AcDbEntity
  8
A1
  6
CONTINUOUS
 62
7
100
AcDbLine
 10
104.1999999999390
 20
121.1794283774237
 30
0.000000000000000
 11
104.1999999999390
 21
123.4368962318172
 31
0.000000000000000
  0
LINE
  5
AF
100
AcDbEntity
  8
A1
  6
CONTINUOUS
 62
7
100
AcDbLine
 10
108.1999999999389
 20
122.3619213852923
 30
0.000000000000000
 11
108.1999999999389
 21
124.6193892396870
 31
0.000000000000000
  0
LINE
  5
B0
100
AcDbEntity
  8
A1
  6
CONTINUOUS
 62
7
100
AcDbLine
 10
108.1999999999389
 20
125.1407799538094
 30
0.000000000000000
 11
108.1999999999389
 21
125.2364063136384
 31
0.000000000000000
  0
LINE
  5
B1
100
AcDbEntity
  8
A1
  6
CONTINUOUS
 62
7
100
AcDbLine
 10
108.1999999999390
 20
135.2364063136384
 30
0.000000000000000
 11
108.1999999999390
 21
142.8364063137762
 31
0.000000000000000
  0
LINE
  5
B2
100
AcDbEntity
  8
A1
  6
CONTINUOUS
 62
7
100
AcDbLine
 10
104.1999999999390
 20
123.9582869458998
 30
0.000000000000000
 11
104.1999999999390
 21
125.2364063136385
 31
0.000000000000000
  0
LINE
  5
B3
100
AcDbEntity
  8
A1
  6
CONTINUOUS
 62
7
100
AcDbLine
 10
104.1999999999390
 20
135.2364063136384
 30
0.000000000000000
 11
104.1999999999390
 21
142.8364063137762
 31
0.000000000000000
  0
LINE
  5
B4
100
AcDbEntity
  8
A1
  6
CONTINUOUS
 62
7
100
AcDbLine
 10
103.8234042552581
 20
125.2378250062863
 30
0.000000000000000
 11
104.1999999999389
 21
125.1975329811935
 31
0.000000000000000
  0
LINE
  5
B5
100
AcDbEntity
  8
A1
  6
CONTINUOUS
 62
7
100
AcDbLine
 10
103.7791262664740
 20
123.3543800171815
 30
0.000000000000000
 11
104.1999999999390
 21
123.2299599554258
 31
0.000000000000000
  0
LINE
  5
B6
100
AcDbEntity
  8
A1
  6
CONTINUOUS
 62
7
100
AcDbLine
 10
108.1999999999389
 20
119.7899990931508
 30
0.000000000000000
 11
108.6208737333879
 21
119.6655790313997
 31
0.000000000000000
  0
LINE
  5
B7
100
AcDbEntity
  8
A1
  6
CONTINUOUS
 62
7
100
AcDbLine
 10
103.7791262664605
 20
120.5755214486184
 30
0.000000000000000
 11
104.1999999999390
 21
120.4511013868629
 31
0.000000000000000
  0
LINE
  5
B8
100
AcDbEntity
  8
A1
  6
CONTINUOUS
 62
7
100
AcDbLine
 10
103.7791262664598
 20
117.7966628800987
 30
0.000000000000000
 11
104.1999999999390
 21
117.6722428183430
 31
0.000000000000000
  0
LINE
  5
B9
100
AcDbEntity
  8
A1
  6
CONTINUOUS
 62
7
100
AcDbLine
 10
103.7791262664591
 20
115.0178043115788
 30
0.000000000000000
 11
104.1999999999390
 21
114.8933842498229
 31
0.000000000000000
  0
LINE
  5
BA
100
AcDbEntity
  8
A1
  6
CONTINUOUS
 62
7
100
AcDbLine
 10
104.4203801104307
 20
33.79810904080274
 30
0.000000000000000
 11
104.4045941137074
 21
33.73919489898324
 31
0.000000000000000
  0
LINE
  5
BB
100
AcDbEntity
  8
A1
  6
CONTINUOUS
 62
7
100
AcDbLine
 10
104.7355378546660
 20
34.97429375468732
 30
0.000000000000000
 11
104.7052743062250
 21
34.86134865428805
 31
0.000000000000000
  0
LINE
  5
BC
100
AcDbEntity
  8
A5
  6
PHANTOM
 62
6
100
AcDbLine
 10
108.1999999999390
 20
104.2364063136384
 30
0.000000000000000
 11
108.1999999999390
 21
109.7364063136385
 31
0.000000000000000
  0
LINE
  5
BD
100
AcDbEntity
  8
A5
  6
PHANTOM
 62
6
100
AcDbLine
 10
108.1999999999391
 20
104.2364063136384
 30
0.000000000000000
 11
107.1999999999391
 21
100.2364063136384
 31
0.000000000000000
  0
LINE
  5
BE
100
AcDbEntity
  8
A5
  6
PHANTOM
 62
6
100
AcDbLine
 10
108.1999999999390
 20
104.2364063136385
 30
0.000000000000000
 11
104.1999999999390
 21
104.2364063136385
 31
0.000000000000000
  0
LINE
  5
BF
100
AcDbEntity
  8
A5
  6
PHANTOM
 62
6
100
AcDbLine
 10
104.1999999999390
 20
104.2364063136385
 30
0.000000000000000
 11
104.1999999999390
 21
109.7364063136385
 31
0.000000000000000
  0
LINE
  5
C0
100
AcDbEntity
  8
A5
  6
PHANTOM
 62
6
100
AcDbLine
 10
104.1999999999390
 20
104.2364063136385
 30
0.000000000000000
 11
105.1999999999390
 21
100.2364063136385
 31
0.000000000000000
  0
LINE
  5
C1
100
AcDbEntity
  8
A5
  6
PHANTOM
 62
6
100
AcDbLine
 10
108.1999999999389
 20
153.2364063137762
 30
0.000000000000000
 11
108.1999999999389
 21
150.3364063137762
 31
0.000000000000000
  0
ARC
  5
C2
100
AcDbEntity
  8
A5
  6
PHANTOM
 62
6
100
AcDbCircle
 10
125.1999999999389
 20
157.2364063137762
 30
0.000000000000000
 40
2.000000000000028
100
AcDbArc
 50
270.0000000000000
 51
450.0000000000000
  0
LINE
  5
C3
100
AcDbEntity
  8
A5
  6
PHANTOM
 62
6
100
AcDbLine
 10
110.1999999999389
 20
159.2364063137762
 30
0.000000000000000
 11
125.1999999999389
 21
159.2364063137762
 31
0.000000000000000
  0
LINE
  5
C4
100
AcDbEntity
  8
A5
  6
PHANTOM
 62
6
100
AcDbLine
 10
110.1999999999389
 20
155.2364063137762
 30
0.000000000000000
 11
125.1999999999389
 21
155.2364063137762
 31
0.000000000000000
  0
ARC
  5
C5
100
AcDbEntity
  8
A5
  6
PHANTOM
 62
6
100
AcDbCircle
 10
110.1999999999389
 20
153.2364063137762
 30
0.000000000000000
 40
2.000000000000000
100
AcDbArc
 50
90.00000000000000
 51
180.0000000000000
  0
ARC
  5
C6
100
AcDbEntity
  8
A5
  6
PHANTOM
 62
6
100
AcDbCircle
 10
110.1999999999389
 20
153.2364063137762
 30
0.000000000000000
 40
6.000000000000000
100
AcDbArc
 50
90.00000000000000
 51
180.0000000000000
  0
ARC
  5
C7
100
AcDbEntity
  8
A1
  6
CONTINUOUS
 62
7
100
AcDbCircle
 10
116.8999999999731
 20
133.2364063136385
 30
0.000000000000000
 40
2.000000000000000
100
AcDbArc
 50
0.000000000000000
 51
90.00000000000000
  0
ARC
  5
C8
100
AcDbEntity
  8
A1
  6
CONTINUOUS
 62
7
100
AcDbCircle
 10
116.8999999999731
 20
105.4364063136384
 30
0.000000000000000
 40
2.000000000000000
100
AcDbArc
 50
270.0000000000000
 51
360.0000000000000
  0
LINE
  5
C9
100
AcDbEntity
  8
A4
  6
CENTER
 62
1
100
AcDbLine
 10
106.1999999999766
 20
41.33640631426249
 30
0.000000000000000
 11
106.1999999999766
 21
31.33640631426246
 31
0.000000000000000
  0
LINE
  5
CA
100
AcDbEntity
  8
A4
  6
CENTER
 62
1
100
AcDbLine
 10
128.6999999999766
 20
36.33640631426249
 30
0.000000000000000
 11
101.1999999999766
 21
36.33640631426249
 31
0.000000000000000
  0
LINE
  5
CB
100
AcDbEntity
  8
A1
  6
CONTINUOUS
 62
7
100
AcDbLine
 10
118.9000000000111
 20
204.4364063142159
 30
0.000000000000000
 11
118.9000000000104
 21
205.4364063142159
 31
0.000000000000000
  0
LINE
  5
CC
100
AcDbEntity
  8
A4
  6
CENTER
 62
1
100
AcDbLine
 10
114.1000000000103
 20
202.9364063142164
 30
0.000000000000000
 11
114.1000000000103
 21
206.9364063142164
 31
0.000000000000000
  0
LINE
  5
CD
100
AcDbEntity
  8
A1
  6
CONTINUOUS
 62
7
100
AcDbLine
 10
106.1999999999767
 20
205.4364063142174
 30
0.000000000000000
 11
118.9000000000102
 21
205.4364063142158
 31
0.000000000000000
  0
LINE
  5
CE
100
AcDbEntity
  8
A1
  6
CONTINUOUS
 62
7
100
AcDbLine
 10
106.1999999999765
 20
204.4364063142174
 30
0.000000000000000
 11
118.9000000000100
 21
204.4364063142158
 31
0.000000000000000
  0
ARC
  5
CF
100
AcDbEntity
  8
A1
  6
CONTINUOUS
 62
7
100
AcDbCircle
 10
106.1999999999766
 20
202.3364063142625
 30
0.000000000000000
 40
2.099999999954932
100
AcDbArc
 50
90.00000000000000
 51
287.7527901581108
  0
LINE
  5
D0
100
AcDbEntity
  8
A1
  6
CONTINUOUS
 62
7
100
AcDbLine
 10
108.3717627144794
 20
204.3364063142625
 30
0.000000000000000
 11
108.4803508501553
 21
204.4364063142172
 31
0.000000000000000
  0
LINE
  5
D1
100
AcDbEntity
  8
A4
  6
CENTER
 62
1
100
AcDbLine
 10
103.9712709579722
 20
204.4911143819708
 30
0.000000000000000
 11
103.9584919999767
 21
204.4984923142626
 31
0.000000000000000
  0
ARC
  5
D2
100
AcDbEntity
  8
A1
  6
CONTINUOUS
 62
7
100
AcDbCircle
 10
106.1999999999766
 20
202.3364063142625
 30
0.000000000000000
 40
2.000000000000000
100
AcDbArc
 50
90.00000000000000
 51
270.0000000000000
  0
ARC
  5
D3
100
AcDbEntity
  8
A1
  6
CONTINUOUS
 62
7
100
AcDbCircle
 10
125.1999999999766
 20
202.3364063142625
 30
0.000000000000000
 40
2.000000000000000
100
AcDbArc
 50
270.0000000000000
 51
450.0000000000000
  0
LINE
  5
D4
100
AcDbEntity
  8
A1
  6
CONTINUOUS
 62
7
100
AcDbLine
 10
106.1999999999766
 20
200.3364063142625
 30
0.000000000000000
 11
125.1999999999766
 21
200.3364063142625
 31
0.000000000000000
  0
LINE
  5
D5
100
AcDbEntity
  8
A1
  6
CONTINUOUS
 62
7
100
AcDbLine
 10
106.1999999999766
 20
204.3364063142625
 30
0.000000000000000
 11
125.1999999999766
 21
204.3364063142625
 31
0.000000000000000
  0
LINE
  5
D6
100
AcDbEntity
  8
A1
  6
CONTINUOUS
 62
7
100
AcDbLine
 10
108.1999999999766
 20
202.3364063142625
 30
0.000000000000000
 11
108.2999999999315
 21
202.3364063142625
 31
0.000000000000000
  0
LINE
  5
D7
100
AcDbEntity
  8
A1
  6
CONTINUOUS
 62
7
100
AcDbLine
 10
105.4125538767509
 20
200.4979481006997
 30
0.000000000000000
 11
105.3864183968103
 21
200.4004091616819
 31
0.000000000000000
  0
LINE
  5
D8
100
AcDbEntity
  8
A1
  6
CONTINUOUS
 62
7
100
AcDbLine
 10
104.1999999999766
 20
202.3364063142625
 30
0.000000000000000
 11
104.1000000000217
 21
202.3364063142625
 31
0.000000000000000
  0
LINE
  5
D9
100
AcDbEntity
  8
A1
  6
CONTINUOUS
 62
7
100
AcDbLine
 10
107.8353835698081
 20
204.3364063142626
 30
0.000000000000000
 11
107.8621784890389
 21
204.4364063142172
 31
0.000000000000000
  0
ARC
  5
DA
100
AcDbEntity
  8
A1
  6
CONTINUOUS
 62
7
100
AcDbCircle
 10
104.1631126571351
 20
204.8689129682660
 30
0.000000000000000
 40
0.2500000000000000
100
AcDbArc
 50
15.00000000000787
 51
128.8096136123521
  0
LINE
  5
DB
100
AcDbEntity
  8
A1
  6
CONTINUOUS
 62
7
100
AcDbLine
 10
104.4203801104307
 20
204.8747035877223
 30
0.000000000000000
 11
104.4045941137073
 21
204.9336177295418
 31
0.000000000000000
  0
LINE
  5
DC
100
AcDbEntity
  8
A1
  6
CONTINUOUS
 62
7
100
AcDbLine
 10
104.7355378546660
 20
203.6985188738377
 30
0.000000000000000
 11
104.7052743062249
 21
203.8114639742369
 31
0.000000000000000
  0
LINE
  5
DD
100
AcDbEntity
  8
A4
  6
CENTER
 62
1
100
AcDbLine
 10
106.1999999999766
 20
197.3364063142625
 30
0.000000000000000
 11
106.1999999999766
 21
207.3364063142626
 31
0.000000000000000
  0
LINE
  5
DE
100
AcDbEntity
  8
A4
  6
CENTER
 62
1
100
AcDbLine
 10
128.6999999999766
 20
202.3364063142625
 30
0.000000000000000
 11
101.1999999999766
 21
202.3364063142625
 31
0.000000000000000
  0
ARC
  5
DF
100
AcDbEntity
  8
A1
  6
CONTINUOUS
 62
7
100
AcDbCircle
 10
106.1999999999766
 20
202.3364063142625
 30
0.000000000000000
 40
3.099999999954889
100
AcDbArc
 50
40.17776954085205
 51
42.64230997956712
  0
ARC
  5
E0
100
AcDbEntity
  8
A1
  6
CONTINUOUS
 62
7
100
AcDbCircle
 10
106.1999999999766
 20
202.3364063142625
 30
0.000000000000000
 40
3.099999999954889
100
AcDbArc
 50
90.00000000000000
 51
319.8222304591480
  0
ARC
  5
E1
100
AcDbEntity
  8
A1
  6
CONTINUOUS
 62
7
100
AcDbCircle
 10
106.1999999999766
 20
202.3364063142625
 30
0.000000000000000
 40
3.500000000000000
100
AcDbArc
 50
34.84990457904642
 51
36.86989764491447
  0
ARC
  5
E2
100
AcDbEntity
  8
A1
  6
CONTINUOUS
 62
7
100
AcDbCircle
 10
106.1999999999766
 20
202.3364063142625
 30
0.000000000000000
 40
3.500000000000000
100
AcDbArc
 50
128.8096136123529
 51
325.1500954209536
  0
CIRCLE
  5
E3
100
AcDbEntity
  8
A1
  6
CONTINUOUS
 62
7
100
AcDbCircle
 10
246.4999999998495
 20
128.8364063133081
 30
0.000000000000000
 40
1.800000000000000
  0
CIRCLE
  5
E4
100
AcDbEntity
  8
A1
  6
CONTINUOUS
 62
7
100
AcDbCircle
 10
246.4999999997657
 20
109.8364063133081
 30
0.000000000000000
 40
1.800000000000000
  0
LINE
  5
E5
100
AcDbEntity
  8
A1
  6
CONTINUOUS
 62
7
100
AcDbLine
 10
257.4999999998837
 20
135.2364063131172
 30
0.000000000000000
 11
243.6999999998835
 21
135.2364063131998
 31
0.000000000000000
  0
LINE
  5
E6
100
AcDbEntity
  8
A4
  6
CENTER
 62
1
100
AcDbLine
 10
243.1999999997657
 20
109.8364063133278
 30
0.000000000000000
 11
249.7999999997656
 21
109.8364063132883
 31
0.000000000000000
  0
LINE
  5
E7
100
AcDbEntity
  8
A1
  6
CONTINUOUS
 62
7
100
AcDbLine
 10
250.9999999997374
 20
103.4364063131562
 30
0.000000000000000
 11
243.6999999996933
 21
103.4364063131998
 31
0.000000000000000
  0
LINE
  5
E8
100
AcDbEntity
  8
A4
  6
CENTER
 62
1
100
AcDbLine
 10
243.1999999998496
 20
128.8364063133278
 30
0.000000000000000
 11
249.7999999998495
 21
128.8364063132883
 31
0.000000000000000
  0
LINE
  5
E9
100
AcDbEntity
  8
A4
  6
CENTER
 62
1
100
AcDbLine
 10
254.3999999999112
 20
142.8364063127827
 30
0.000000000000000
 11
254.3999999996708
 21
88.33640631330186
 31
0.000000000000000
  0
LINE
  5
EA
100
AcDbEntity
  8
A1
  6
CONTINUOUS
 62
7
100
AcDbLine
 10
251.3999999998268
 20
125.7364063131537
 30
0.000000000000000
 11
251.3999999997311
 21
109.7364063131538
 31
0.000000000000000
  0
LINE
  5
EB
100
AcDbEntity
  8
A1
  6
CONTINUOUS
 62
7
100
AcDbLine
 10
257.4999999997312
 20
109.7364063131173
 30
0.000000000000000
 11
257.4999999996744
 21
100.2364063131173
 31
0.000000000000000
  0
LINE
  5
EC
100
AcDbEntity
  8
A1
  6
CONTINUOUS
 62
7
100
AcDbLine
 10
257.4999999996744
 20
100.2364063131173
 30
0.000000000000000
 11
250.9999999997233
 21
100.2364063131562
 31
0.000000000000000
  0
LINE
  5
ED
100
AcDbEntity
  8
A1
  6
CONTINUOUS
 62
7
100
AcDbLine
 10
257.8999999998596
 20
109.7364063131259
 30
0.000000000000000
 11
251.3999999997311
 21
109.7364063131444
 31
0.000000000000000
  0
LINE
  5
EE
100
AcDbEntity
  8
A1
  6
CONTINUOUS
 62
7
100
AcDbLine
 10
257.4999999998837
 20
135.2364063131172
 30
0.000000000000000
 11
257.4999999998269
 21
125.7364063131172
 31
0.000000000000000
  0
LINE
  5
EF
100
AcDbEntity
  8
A1
  6
CONTINUOUS
 62
7
100
AcDbLine
 10
251.2999999998447
 20
125.7364063131446
 30
0.000000000000000
 11
257.3999999998448
 21
125.7364063131273
 31
0.000000000000000
  0
LINE
  5
F0
100
AcDbEntity
  8
A1
  6
CONTINUOUS
 62
7
100
AcDbLine
 10
241.6999999998716
 20
133.2364063132117
 30
0.000000000000000
 11
241.6999999997053
 21
105.4364063132118
 31
0.000000000000000
  0
LINE
  5
F1
100
AcDbEntity
  8
A4
  6
CENTER
 62
1
100
AcDbLine
 10
246.4999999997854
 20
113.1364063133081
 30
0.000000000000000
 11
246.4999999997460
 21
106.5364063133081
 31
0.000000000000000
  0
LINE
  5
F2
100
AcDbEntity
  8
A4
  6
CENTER
 62
1
100
AcDbLine
 10
246.4999999998693
 20
132.1364063133080
 30
0.000000000000000
 11
246.4999999998298
 21
125.5364063133080
 31
0.000000000000000
  0
LINE
  5
F3
100
AcDbEntity
  8
A1
  6
CONTINUOUS
 62
7
100
AcDbLine
 10
250.9999999997233
 20
100.2364063131562
 30
0.000000000000000
 11
250.9999999997374
 21
103.4364063131562
 31
0.000000000000000
  0
LINE
  5
F4
100
AcDbEntity
  8
A1
  6
CONTINUOUS
 62
7
100
AcDbLine
 10
177.1999999999380
 20
135.2364063138098
 30
0.000000000000000
 11
183.3999999999053
 21
135.2364063138274
 31
0.000000000000000
  0
LINE
  5
F5
100
AcDbEntity
  8
A4
  6
CENTER
 62
1
100
AcDbLine
 10
184.8999999999656
 20
109.8364063139590
 30
0.000000000000000
 11
180.8999999999659
 21
109.8364063139476
 31
0.000000000000000
  0
LINE
  5
F6
100
AcDbEntity
  8
A1
  6
CONTINUOUS
 62
7
100
AcDbLine
 10
182.3999999999843
 20
103.4364063138247
 30
0.000000000000000
 11
183.3999999999843
 21
103.4364063138275
 31
0.000000000000000
  0
LINE
  5
F7
100
AcDbEntity
  8
A4
  6
CENTER
 62
1
100
AcDbLine
 10
184.8999999999205
 20
128.8364063139589
 30
0.000000000000000
 11
180.8999999999212
 21
128.8364063139475
 31
0.000000000000000
  0
LINE
  5
F8
100
AcDbEntity
  8
A4
  6
CENTER
 62
1
100
AcDbLine
 10
180.2999999999155
 20
150.3364063137762
 30
0.000000000000000
 11
180.3000000000036
 21
88.33640631388150
 31
0.000000000000000
  0
LINE
  5
F9
100
AcDbEntity
  8
A1
  6
CONTINUOUS
 62
7
100
AcDbLine
 10
177.2000000000104
 20
109.7364063138099
 30
0.000000000000000
 11
177.2000000000374
 21
100.2364063138099
 31
0.000000000000000
  0
LINE
  5
FA
100
AcDbEntity
  8
A1
  6
CONTINUOUS
 62
7
100
AcDbLine
 10
183.3999999999053
 20
135.2364063138275
 30
0.000000000000000
 11
183.3999999999885
 21
100.2364063138275
 31
0.000000000000000
  0
LINE
  5
FB
100
AcDbEntity
  8
A1
  6
CONTINUOUS
 62
7
100
AcDbLine
 10
177.2000000000374
 20
100.2364063138099
 30
0.000000000000000
 11
183.3999999999883
 21
100.2364063138275
 31
0.000000000000000
  0
LINE
  5
FC
100
AcDbEntity
  8
A1
  6
CONTINUOUS
 62
7
100
AcDbLine
 10
177.1999999999380
 20
135.2364063138098
 30
0.000000000000000
 11
177.1999999999650
 21
125.7364063138098
 31
0.000000000000000
  0
LINE
  5
FD
100
AcDbEntity
  8
A1
  6
CONTINUOUS
 62
7
100
AcDbLine
 10
53.10000000003647
 20
125.7364063138098
 30
0.000000000000000
 11
46.90000000003729
 21
125.7364063138275
 31
0.000000000000000
  0
LINE
  5
FE
100
AcDbEntity
  8
A1
  6
CONTINUOUS
 62
7
100
AcDbLine
 10
182.3999999999061
 20
135.2364063138247
 30
0.000000000000000
 11
182.3999999999885
 21
100.2364063138247
 31
0.000000000000000
  0
LINE
  5
FF
100
AcDbEntity
  8
A1
  6
CONTINUOUS
 62
7
100
AcDbLine
 10
182.3999999999660
 20
109.7364063138247
 30
0.000000000000000
 11
176.8000000000015
 21
109.7364063138088
 31
0.000000000000000
  0
ARC
  5
100
100
AcDbEntity
  8
A1
  6
CONTINUOUS
 62
7
100
AcDbCircle
 10
243.6999999998716
 20
133.2364063131998
 30
0.000000000000000
 40
2.000000000000000
100
AcDbArc
 50
89.99999999949449
 51
179.9999999994945
  0
ARC
  5
101
100
AcDbEntity
  8
A1
  6
CONTINUOUS
 62
7
100
AcDbCircle
 10
243.6999999997054
 20
105.4364063131998
 30
0.000000000000000
 40
2.000000000000000
100
AcDbArc
 50
179.9999999994945
 51
269.9999999994945
  0
LINE
  5
102
100
AcDbEntity
  8
A1
  6
CONTINUOUS
 62
7
100
AcDbLine
 10
178.2999999999867
 20
93.83640631377608
 30
0.000000000000000
 11
178.2999999999867
 21
100.2364063136384
 31
0.000000000000000
  0
LINE
  5
103
100
AcDbEntity
  8
A1
  6
CONTINUOUS
 62
7
100
AcDbLine
 10
178.2999999999867
 20
93.83640631377619
 30
0.000000000000000
 11
182.2999999999867
 21
93.83640631377619
 31
0.000000000000000
  0
LINE
  5
104
100
AcDbEntity
  8
A1
  6
CONTINUOUS
 62
7
100
AcDbLine
 10
178.2999999999866
 20
93.83640631377614
 30
0.000000000000000
 11
179.2999999999866
 21
89.83640631377614
 31
0.000000000000000
  0
LINE
  5
105
100
AcDbEntity
  8
A1
  6
CONTINUOUS
 62
7
100
AcDbLine
 10
179.2999999999867
 20
89.83640631377619
 30
0.000000000000000
 11
181.2999999999867
 21
89.83640631377619
 31
0.000000000000000
  0
LINE
  5
106
100
AcDbEntity
  8
A1
  6
CONTINUOUS
 62
7
100
AcDbLine
 10
182.2999999999866
 20
93.83640631377618
 30
0.000000000000000
 11
181.2999999999866
 21
89.83640631377618
 31
0.000000000000000
  0
LINE
  5
107
100
AcDbEntity
  8
A1
  6
CONTINUOUS
 62
7
100
AcDbLine
 10
182.2999999999867
 20
93.83640631377619
 30
0.000000000000000
 11
182.2999999999867
 21
100.2364063136384
 31
0.000000000000000
  0
LINE
  5
108
100
AcDbEntity
  8
A1
  6
CONTINUOUS
 62
7
100
AcDbLine
 10
252.3999999996669
 20
93.83640631311083
 30
0.000000000000000
 11
252.3999999997234
 21
100.2364063129732
 31
0.000000000000000
  0
LINE
  5
109
100
AcDbEntity
  8
A1
  6
CONTINUOUS
 62
7
100
AcDbLine
 10
252.3999999996669
 20
93.83640631311094
 30
0.000000000000000
 11
256.3999999996669
 21
93.83640631307566
 31
0.000000000000000
  0
LINE
  5
10A
100
AcDbEntity
  8
A1
  6
CONTINUOUS
 62
7
100
AcDbLine
 10
252.3999999996667
 20
93.83640631311088
 30
0.000000000000000
 11
253.3999999996314
 21
89.83640631310207
 31
0.000000000000000
  0
LINE
  5
10B
100
AcDbEntity
  8
A1
  6
CONTINUOUS
 62
7
100
AcDbLine
 10
253.3999999996315
 20
89.83640631310212
 30
0.000000000000000
 11
255.3999999996315
 21
89.83640631308447
 31
0.000000000000000
  0
LINE
  5
10C
100
AcDbEntity
  8
A1
  6
CONTINUOUS
 62
7
100
AcDbLine
 10
256.3999999996668
 20
93.83640631307560
 30
0.000000000000000
 11
255.3999999996315
 21
89.83640631308441
 31
0.000000000000000
  0
LINE
  5
10D
100
AcDbEntity
  8
A1
  6
CONTINUOUS
 62
7
100
AcDbLine
 10
256.3999999996669
 20
93.83640631307566
 30
0.000000000000000
 11
256.3999999997234
 21
100.2364063129379
 31
0.000000000000000
  0
LINE
  5
10E
100
AcDbEntity
  8
A1
  6
CONTINUOUS
 62
7
100
AcDbLine
 10
252.3999999998778
 20
135.2364063127685
 30
0.000000000000000
 11
252.3999999998778
 21
142.8364063129063
 31
0.000000000000000
  0
LINE
  5
10F
100
AcDbEntity
  8
A1
  6
CONTINUOUS
 62
7
100
AcDbLine
 10
256.3999999998777
 20
135.2364063127685
 30
0.000000000000000
 11
256.3999999998777
 21
142.8364063129063
 31
0.000000000000000
  0
ARC
  5
110
100
AcDbEntity
  8
A1
  6
CONTINUOUS
 62
7
100
AcDbCircle
 10
250.3999999998778
 20
142.8364063129063
 30
0.000000000000000
 40
6.000000000000000
100
AcDbArc
 50
0.000000000000000
 51
90.00000000000001
  0
ARC
  5
111
100
AcDbEntity
  8
A4
  6
CENTER
 62
1
100
AcDbCircle
 10
250.3999999998778
 20
142.8364063128002
 30
0.000000000000000
 40
4.000000000000000
100
AcDbArc
 50
0.000000000000000
 51
90.00000000000001
  0
ARC
  5
112
100
AcDbEntity
  8
A1
  6
CONTINUOUS
 62
7
100
AcDbCircle
 10
250.3999999998778
 20
142.8364063129063
 30
0.000000000000000
 40
2.000000000000000
100
AcDbArc
 50
0.000000000000000
 51
90.00000000000001
  0
LINE
  5
113
100
AcDbEntity
  8
A1
  6
CONTINUOUS
 62
7
100
AcDbLine
 10
250.3999999998778
 20
144.8364063129063
 30
0.000000000000000
 11
235.3999999998778
 21
144.8364063129063
 31
0.000000000000000
  0
LINE
  5
114
100
AcDbEntity
  8
A4
  6
CENTER
 62
1
100
AcDbLine
 10
250.3999999998778
 20
146.8364063128002
 30
0.000000000000000
 11
231.8999999998777
 21
146.8364063128002
 31
0.000000000000000
  0
LINE
  5
115
100
AcDbEntity
  8
A1
  6
CONTINUOUS
 62
7
100
AcDbLine
 10
250.3999999998778
 20
148.8364063129063
 30
0.000000000000000
 11
235.3999999998778
 21
148.8364063129063
 31
0.000000000000000
  0
ARC
  5
116
100
AcDbEntity
  8
A1
  6
CONTINUOUS
 62
7
100
AcDbCircle
 10
235.3999999998777
 20
146.8364063129063
 30
0.000000000000000
 40
2.000000000000028
100
AcDbArc
 50
90.00000000000000
 51
270.0000000000000
  0
LINE
  5
117
100
AcDbEntity
  8
A1
  6
CONTINUOUS
 62
7
100
AcDbLine
 10
53.09999999997311
 20
135.2364063134571
 30
0.000000000000000
 11
46.90000000000587
 21
135.2364063134395
 31
0.000000000000000
  0
LINE
  5
118
100
AcDbEntity
  8
A4
  6
CENTER
 62
1
100
AcDbLine
 10
45.40000000008985
 20
109.8364063135625
 30
0.000000000000000
 11
49.40000000008960
 21
109.8364063135739
 31
0.000000000000000
  0
LINE
  5
119
100
AcDbEntity
  8
A4
  6
CENTER
 62
1
100
AcDbLine
 10
45.40000000002704
 20
128.8364063135624
 30
0.000000000000000
 11
49.40000000002630
 21
128.8364063135738
 31
0.000000000000000
  0
LINE
  5
11A
100
AcDbEntity
  8
A4
  6
CENTER
 62
1
100
AcDbLine
 10
49.99999999990980
 20
150.3364063137762
 30
0.000000000000000
 11
50.00000000017413
 21
88.33640631351116
 31
0.000000000000000
  0
LINE
  5
11B
100
AcDbEntity
  8
A1
  6
CONTINUOUS
 62
7
100
AcDbLine
 10
53.10000000004559
 20
109.7364063134572
 30
0.000000000000000
 11
53.10000000007259
 21
100.2364063134572
 31
0.000000000000000
  0
LINE
  5
11C
100
AcDbEntity
  8
A1
  6
CONTINUOUS
 62
7
100
AcDbLine
 10
46.90000000000587
 20
135.2364063134395
 30
0.000000000000000
 11
46.90000000012163
 21
100.2364063134396
 31
0.000000000000000
  0
LINE
  5
11D
100
AcDbEntity
  8
A1
  6
CONTINUOUS
 62
7
100
AcDbLine
 10
53.10000000007259
 20
100.2364063134572
 30
0.000000000000000
 11
46.90000000012171
 21
100.2364063134396
 31
0.000000000000000
  0
LINE
  5
11E
100
AcDbEntity
  8
A1
  6
CONTINUOUS
 62
7
100
AcDbLine
 10
53.09999999997311
 20
135.2364063134571
 30
0.000000000000000
 11
53.10000000000012
 21
125.7364063134571
 31
0.000000000000000
  0
LINE
  5
11F
100
AcDbEntity
  8
A1
  6
CONTINUOUS
 62
7
100
AcDbLine
 10
177.2000000000014
 20
125.7364063134571
 30
0.000000000000000
 11
182.3999999999285
 21
125.7364063134423
 31
0.000000000000000
  0
LINE
  5
120
100
AcDbEntity
  8
A1
  6
CONTINUOUS
 62
7
100
AcDbLine
 10
46.90000000009020
 20
109.7364063134396
 30
0.000000000000000
 11
53.50000000017412
 21
109.7364063134583
 31
0.000000000000000
  0
LINE
  5
121
100
AcDbEntity
  8
A1
  6
CONTINUOUS
 62
7
100
AcDbLine
 10
52.00000000015972
 20
93.83640631341711
 30
0.000000000000000
 11
52.00000000012334
 21
100.2364063132795
 31
0.000000000000000
  0
LINE
  5
122
100
AcDbEntity
  8
A1
  6
CONTINUOUS
 62
7
100
AcDbLine
 10
52.00000000015972
 20
93.83640631341723
 30
0.000000000000000
 11
48.00000000015978
 21
93.83640631339449
 31
0.000000000000000
  0
LINE
  5
123
100
AcDbEntity
  8
A1
  6
CONTINUOUS
 62
7
100
AcDbLine
 10
52.00000000015989
 20
93.83640631341717
 30
0.000000000000000
 11
51.00000000018262
 21
89.83640631341149
 31
0.000000000000000
  0
LINE
  5
124
100
AcDbEntity
  8
A1
  6
CONTINUOUS
 62
7
100
AcDbLine
 10
51.00000000018257
 20
89.83640631341154
 30
0.000000000000000
 11
49.00000000018257
 21
89.83640631340018
 31
0.000000000000000
  0
LINE
  5
125
100
AcDbEntity
  8
A1
  6
CONTINUOUS
 62
7
100
AcDbLine
 10
48.00000000015984
 20
93.83640631339449
 30
0.000000000000000
 11
49.00000000018257
 21
89.83640631340018
 31
0.000000000000000
  0
LINE
  5
126
100
AcDbEntity
  8
A1
  6
CONTINUOUS
 62
7
100
AcDbLine
 10
48.00000000015978
 20
93.83640631339449
 30
0.000000000000000
 11
48.00000000012340
 21
100.2364063132567
 31
0.000000000000000
  0
LINE
  5
127
100
AcDbEntity
  8
A1
  6
CONTINUOUS
 62
7
100
AcDbLine
 10
48.00000000012341
 20
135.2364063134426
 30
0.000000000000000
 11
48.00000000012341
 21
146.8364063137762
 31
0.000000000000000
  0
LINE
  5
128
100
AcDbEntity
  8
A1
  6
CONTINUOUS
 62
7
100
AcDbLine
 10
52.00000000012335
 20
135.2364063134540
 30
0.000000000000000
 11
52.00000000012335
 21
146.8364063137762
 31
0.000000000000000
  0
ARC
  5
129
100
AcDbEntity
  8
A1
  6
CONTINUOUS
 62
7
100
AcDbCircle
 10
50.00000000012338
 20
146.8364063137762
 30
0.000000000000000
 40
2.000000000000028
100
AcDbArc
 50
0.000000000000000
 51
180.0000000000000
  0
LINE
  5
12A
100
AcDbEntity
  8
A1
  6
CONTINUOUS
 62
7
100
AcDbLine
 10
182.3000000000861
 20
135.2364063138243
 30
0.000000000000000
 11
182.3000000000861
 21
146.8364063141466
 31
0.000000000000000
  0
CIRCLE
  5
12B
100
AcDbEntity
  8
A1
  6
CONTINUOUS
 62
7
100
AcDbCircle
 10
180.3000000000861
 20
146.8364063141466
 30
0.000000000000000
 40
2.000000000000028
  0
LINE
  5
12C
100
AcDbEntity
  8
A1
  6
CONTINUOUS
 62
7
100
AcDbLine
 10
178.3000000000862
 20
135.2364063138129
 30
0.000000000000000
 11
178.3000000000862
 21
146.8364063141466
 31
0.000000000000000
  0
LINE
  5
12D
100
AcDbEntity
  8
A5
  6
PHANTOM
 62
6
100
AcDbLine
 10
104.1999999999389
 20
153.2364063137762
 30
0.000000000000000
 11
104.1999999999389
 21
150.3364063137762
 31
0.000000000000000
  0
LINE
  5
12E
100
AcDbEntity
  8
A1
  6
CONTINUOUS
 62
7
100
AcDbLine
 10
176.8000000000015
 20
109.7364063138088
 30
0.000000000000000
 11
176.8000000000015
 21
110.3364063136396
 31
0.000000000000000
  0
LINE
  5
12F
100
AcDbEntity
  8
A1
  6
CONTINUOUS
 62
7
100
AcDbLine
 10
181.8249999999206
 20
110.3364063136386
 30
0.000000000000000
 11
181.8249999999205
 21
110.4364063136387
 31
0.000000000000000
  0
LINE
  5
130
100
AcDbEntity
  8
A1
  6
CONTINUOUS
 62
7
100
AcDbLine
 10
182.2999999999211
 20
110.4364063136385
 30
0.000000000000000
 11
178.8980014264556
 21
110.4364063136385
 31
0.000000000000000
  0
LINE
  5
131
100
AcDbEntity
  8
A1
  6
CONTINUOUS
 62
7
100
AcDbLine
 10
177.9765957446018
 20
110.3378250062864
 30
0.000000000000000
 11
182.3999999999635
 21
110.8110855722112
 31
0.000000000000000
  0
LINE
  5
132
100
AcDbEntity
  8
A1
  6
CONTINUOUS
 62
7
100
AcDbLine
 10
177.9234042552403
 20
110.8349876209906
 30
0.000000000000000
 11
182.3999999999624
 21
111.3139391509115
 31
0.000000000000000
  0
LINE
  5
133
100
AcDbEntity
  8
A1
  6
CONTINUOUS
 62
7
100
AcDbLine
 10
177.9499999999211
 20
125.2364063136385
 30
0.000000000000000
 11
182.3999999999297
 21
125.2364063136385
 31
0.000000000000000
  0
LINE
  5
134
100
AcDbEntity
  8
A1
  6
CONTINUOUS
 62
7
100
AcDbLine
 10
182.3999999999298
 20
125.1703422790097
 30
0.000000000000000
 11
177.8791262664546
 21
123.8338668841405
 31
0.000000000000000
  0
LINE
  5
135
100
AcDbEntity
  8
A1
  6
CONTINUOUS
 62
7
100
AcDbLine
 10
178.0208737333430
 20
123.3543800171819
 30
0.000000000000000
 11
182.3999999999311
 21
124.6489515648867
 31
0.000000000000000
  0
LINE
  5
136
100
AcDbEntity
  8
A1
  6
CONTINUOUS
 62
7
100
AcDbLine
 10
182.2999999999212
 20
122.5688576616665
 30
0.000000000000000
 11
182.3999999999361
 21
122.5392953364661
 31
0.000000000000000
  0
LINE
  5
137
100
AcDbEntity
  8
A1
  6
CONTINUOUS
 62
7
100
AcDbLine
 10
182.2999999999212
 20
117.0111405246311
 30
0.000000000000000
 11
182.3999999999492
 21
116.9815781994258
 31
0.000000000000000
  0
LINE
  5
138
100
AcDbEntity
  8
A1
  6
CONTINUOUS
 62
7
100
AcDbLine
 10
182.2999999999212
 20
114.2322819561112
 30
0.000000000000000
 11
182.3999999999556
 21
114.2027196309040
 31
0.000000000000000
  0
LINE
  5
139
100
AcDbEntity
  8
A1
  6
CONTINUOUS
 62
7
100
AcDbLine
 10
182.3999999999364
 20
122.3914837104936
 30
0.000000000000000
 11
177.8791262664411
 21
121.0550083156648
 31
0.000000000000000
  0
LINE
  5
13A
100
AcDbEntity
  8
A1
  6
CONTINUOUS
 62
7
100
AcDbLine
 10
182.3999999999376
 20
121.8700929963655
 30
0.000000000000000
 11
178.0208737333551
 21
120.5755214486189
 31
0.000000000000000
  0
LINE
  5
13B
100
AcDbEntity
  8
A1
  6
CONTINUOUS
 62
7
100
AcDbLine
 10
182.3999999999429
 20
119.6126251419756
 30
0.000000000000000
 11
177.8791262664406
 21
118.2761497471459
 31
0.000000000000000
  0
LINE
  5
13C
100
AcDbEntity
  8
A1
  6
CONTINUOUS
 62
7
100
AcDbLine
 10
178.0208737333549
 20
117.7966628800992
 30
0.000000000000000
 11
182.3999999999443
 21
119.0912344278477
 31
0.000000000000000
  0
LINE
  5
13D
100
AcDbEntity
  8
A1
  6
CONTINUOUS
 62
7
100
AcDbLine
 10
182.3999999999494
 20
116.8337665734579
 30
0.000000000000000
 11
177.8791262664398
 21
115.4972911786272
 31
0.000000000000000
  0
LINE
  5
13E
100
AcDbEntity
  8
A1
  6
CONTINUOUS
 62
7
100
AcDbLine
 10
178.0208737333544
 20
115.0178043115793
 30
0.000000000000000
 11
182.3999999999507
 21
116.3123758593297
 31
0.000000000000000
  0
LINE
  5
13F
100
AcDbEntity
  8
A1
  6
CONTINUOUS
 62
7
100
AcDbLine
 10
182.3999999999560
 20
114.0549080049400
 30
0.000000000000000
 11
177.8791262664391
 21
112.7184326101083
 31
0.000000000000000
  0
LINE
  5
140
100
AcDbEntity
  8
A1
  6
CONTINUOUS
 62
7
100
AcDbLine
 10
178.0208737333540
 20
112.2389457430593
 30
0.000000000000000
 11
182.3999999999572
 21
113.5335172908116
 31
0.000000000000000
  0
LINE
  5
141
100
AcDbEntity
  8
A1
  6
CONTINUOUS
 62
7
100
AcDbLine
 10
182.2999999999213
 20
111.4534233875914
 30
0.000000000000000
 11
182.3999999999622
 21
111.4238610623822
 31
0.000000000000000
  0
LINE
  5
142
100
AcDbEntity
  8
A1
  6
CONTINUOUS
 62
7
100
AcDbLine
 10
182.2999999999211
 20
110.4364063136385
 30
0.000000000000000
 11
182.2999999999211
 21
110.8003865598940
 31
0.000000000000000
  0
LINE
  5
143
100
AcDbEntity
  8
A1
  6
CONTINUOUS
 62
7
100
AcDbLine
 10
182.2999999999211
 20
111.3032401385942
 30
0.000000000000000
 11
182.2999999999211
 21
113.5039549656033
 31
0.000000000000000
  0
LINE
  5
144
100
AcDbEntity
  8
A1
  6
CONTINUOUS
 62
7
100
AcDbLine
 10
182.2999999999211
 20
114.0253456797330
 30
0.000000000000000
 11
182.2999999999211
 21
116.2828135341231
 31
0.000000000000000
  0
LINE
  5
145
100
AcDbEntity
  8
A1
  6
CONTINUOUS
 62
7
100
AcDbLine
 10
182.2999999999211
 20
116.8042042482528
 30
0.000000000000000
 11
182.2999999999211
 21
119.0616721026431
 31
0.000000000000000
  0
LINE
  5
146
100
AcDbEntity
  8
A1
  6
CONTINUOUS
 62
7
100
AcDbLine
 10
182.2999999999211
 20
119.5830628167726
 30
0.000000000000000
 11
182.2999999999211
 21
121.8405306711629
 31
0.000000000000000
  0
LINE
  5
147
100
AcDbEntity
  8
A1
  6
CONTINUOUS
 62
7
100
AcDbLine
 10
182.2999999999211
 20
122.3619213852923
 30
0.000000000000000
 11
182.2999999999211
 21
124.6193892396870
 31
0.000000000000000
  0
LINE
  5
148
100
AcDbEntity
  8
A1
  6
CONTINUOUS
 62
7
100
AcDbLine
 10
182.2999999999211
 20
125.1407799538094
 30
0.000000000000000
 11
182.2999999999211
 21
125.2364063136384
 31
0.000000000000000
  0
LINE
  5
149
100
AcDbEntity
  8
A1
  6
CONTINUOUS
 62
7
100
AcDbLine
 10
182.2999999999211
 20
119.7899990931507
 30
0.000000000000000
 11
182.3999999999426
 21
119.7604367679474
 31
0.000000000000000
  0
LINE
  5
14A
100
AcDbEntity
  8
A1
  6
CONTINUOUS
 62
7
100
AcDbLine
 10
178.7749999999213
 20
110.3364063136384
 30
0.000000000000000
 11
178.7749999999213
 21
110.4232463758686
 31
0.000000000000000
  0
ARC
  5
14B
100
AcDbEntity
  8
A1
  6
CONTINUOUS
 62
7
100
AcDbCircle
 10
177.9499999999212
 20
110.5864063136384
 30
0.000000000000000
 40
0.2500000000000071
100
AcDbArc
 50
96.10685172986491
 51
276.1068517298649
  0
ARC
  5
14C
100
AcDbEntity
  8
A1
  6
CONTINUOUS
 62
7
100
AcDbCircle
 10
177.9499999999211
 20
125.4864063136385
 30
0.000000000000000
 40
0.2500000000000071
100
AcDbArc
 50
90.00000000000000
 51
270.0000000000000
  0
ARC
  5
14D
100
AcDbEntity
  8
A1
  6
CONTINUOUS
 62
7
100
AcDbCircle
 10
177.9499999998988
 20
123.5941234506612
 30
0.000000000000000
 40
0.2499999999775611
100
AcDbArc
 50
106.4689045272272
 51
286.4689045267037
  0
ARC
  5
14E
100
AcDbEntity
  8
A1
  6
CONTINUOUS
 62
7
100
AcDbCircle
 10
177.9499999998982
 20
120.8152648821419
 30
0.000000000000000
 40
0.2500000000229790
100
AcDbArc
 50
106.4689045266884
 51
286.4689045272262
  0
ARC
  5
14F
100
AcDbEntity
  8
A1
  6
CONTINUOUS
 62
7
100
AcDbCircle
 10
177.9499999998977
 20
118.0364063136225
 30
0.000000000000000
 40
0.2500000000235261
100
AcDbArc
 50
106.4689045266752
 51
286.4689045272255
  0
ARC
  5
150
100
AcDbEntity
  8
A1
  6
CONTINUOUS
 62
7
100
AcDbCircle
 10
177.9499999998971
 20
115.2575477451032
 30
0.000000000000000
 40
0.2500000000240732
100
AcDbArc
 50
106.4689045266620
 51
286.4689045272235
  0
ARC
  5
151
100
AcDbEntity
  8
A1
  6
CONTINUOUS
 62
7
100
AcDbCircle
 10
177.9499999998965
 20
112.4786891765838
 30
0.000000000000000
 40
0.2500000000246203
100
AcDbArc
 50
106.4689045266472
 51
286.4689045272211
  0
LINE
  5
152
100
AcDbEntity
  8
A1
  6
CONTINUOUS
 62
7
100
AcDbLine
 10
177.8791262664405
 20
112.2389457430588
 30
0.000000000000000
 11
178.2999999999211
 21
112.1145256813028
 31
0.000000000000000
  0
LINE
  5
153
100
AcDbEntity
  8
A1
  6
CONTINUOUS
 62
7
100
AcDbLine
 10
178.2999999999212
 20
110.8752796460834
 30
0.000000000000000
 11
178.2999999999212
 21
112.3214619576942
 31
0.000000000000000
  0
LINE
  5
154
100
AcDbEntity
  8
A1
  6
CONTINUOUS
 62
7
100
AcDbLine
 10
178.2999999999212
 20
112.8428526718674
 30
0.000000000000000
 11
178.2999999999212
 21
115.1003205262140
 31
0.000000000000000
  0
LINE
  5
155
100
AcDbEntity
  8
A1
  6
CONTINUOUS
 62
7
100
AcDbLine
 10
178.2999999999212
 20
115.6217112403863
 30
0.000000000000000
 11
178.2999999999212
 21
117.8791790947336
 31
0.000000000000000
  0
LINE
  5
156
100
AcDbEntity
  8
A1
  6
CONTINUOUS
 62
7
100
AcDbLine
 10
178.2999999999212
 20
118.4005698089050
 30
0.000000000000000
 11
178.2999999999212
 21
120.6580376632534
 31
0.000000000000000
  0
LINE
  5
157
100
AcDbEntity
  8
A1
  6
CONTINUOUS
 62
7
100
AcDbLine
 10
178.2999999999212
 20
121.1794283774237
 30
0.000000000000000
 11
178.2999999999212
 21
123.4368962318172
 31
0.000000000000000
  0
LINE
  5
158
100
AcDbEntity
  8
A1
  6
CONTINUOUS
 62
7
100
AcDbLine
 10
178.2999999999212
 20
123.9582869458998
 30
0.000000000000000
 11
178.2999999999212
 21
125.2364063136385
 31
0.000000000000000
  0
LINE
  5
159
100
AcDbEntity
  8
A1
  6
CONTINUOUS
 62
7
100
AcDbLine
 10
177.9234042552403
 20
125.2378250062863
 30
0.000000000000000
 11
178.2999999999211
 21
125.1975329811935
 31
0.000000000000000
  0
LINE
  5
15A
100
AcDbEntity
  8
A1
  6
CONTINUOUS
 62
7
100
AcDbLine
 10
177.8791262664562
 20
123.3543800171815
 30
0.000000000000000
 11
178.2999999999212
 21
123.2299599554258
 31
0.000000000000000
  0
LINE
  5
15B
100
AcDbEntity
  8
A1
  6
CONTINUOUS
 62
7
100
AcDbLine
 10
177.8791262664427
 20
120.5755214486184
 30
0.000000000000000
 11
178.2999999999212
 21
120.4511013868629
 31
0.000000000000000
  0
LINE
  5
15C
100
AcDbEntity
  8
A1
  6
CONTINUOUS
 62
7
100
AcDbLine
 10
177.8791262664420
 20
117.7966628800987
 30
0.000000000000000
 11
178.2999999999212
 21
117.6722428183430
 31
0.000000000000000
  0
LINE
  5
15D
100
AcDbEntity
  8
A1
  6
CONTINUOUS
 62
7
100
AcDbLine
 10
177.8791262664413
 20
115.0178043115788
 30
0.000000000000000
 11
178.2999999999212
 21
114.8933842498229
 31
0.000000000000000
  0
LINE
  5
15E
100
AcDbEntity
  8
A1
  6
CONTINUOUS
 62
7
100
AcDbLine
 10
255.9249999997647
 20
110.3364063134857
 30
0.000000000000000
 11
255.9249999997646
 21
110.4364063134859
 31
0.000000000000000
  0
LINE
  5
15F
100
AcDbEntity
  8
A1
  6
CONTINUOUS
 62
7
100
AcDbLine
 10
256.3999999997652
 20
110.4364063134857
 30
0.000000000000000
 11
252.9980014262996
 21
110.4364063134857
 31
0.000000000000000
  0
CIRCLE
  5
160
100
AcDbEntity
  8
A1
  6
CONTINUOUS
 62
7
100
AcDbCircle
 10
256.7499999997652
 20
110.5864063134856
 30
0.000000000000000
 40
0.2500000000000000
  0
LINE
  5
161
100
AcDbEntity
  8
A1
  6
CONTINUOUS
 62
7
100
AcDbLine
 10
252.0765957444460
 20
110.3378250061336
 30
0.000000000000000
 11
256.7765957444459
 21
110.8406785848339
 31
0.000000000000000
  0
LINE
  5
162
100
AcDbEntity
  8
A1
  6
CONTINUOUS
 62
7
100
AcDbLine
 10
252.0234042550844
 20
110.8349876208377
 30
0.000000000000000
 11
256.7234042550843
 21
111.3378411995381
 31
0.000000000000000
  0
ARC
  5
163
100
AcDbEntity
  8
A1
  6
CONTINUOUS
 62
7
100
AcDbCircle
 10
256.7499999997651
 20
111.0892598921859
 30
0.000000000000000
 40
0.2500000000000000
100
AcDbArc
 50
276.1068517298650
 51
456.1068517298651
  0
ARC
  5
164
100
AcDbEntity
  8
A1
  6
CONTINUOUS
 62
7
100
AcDbCircle
 10
256.7499999997651
 20
124.9835527347854
 30
0.000000000000000
 40
0.2500000000000000
100
AcDbArc
 50
286.4689045267050
 51
466.4689045272270
  0
ARC
  5
165
100
AcDbEntity
  8
A1
  6
CONTINUOUS
 62
7
100
AcDbCircle
 10
256.7499999997651
 20
125.4864063134857
 30
0.000000000000000
 40
0.2500000000000071
100
AcDbArc
 50
270.0000000000000
 51
450.0000000000000
  0
LINE
  5
166
100
AcDbEntity
  8
A1
  6
CONTINUOUS
 62
7
100
AcDbLine
 10
252.0499999997652
 20
125.2364063134857
 30
0.000000000000000
 11
256.7499999997652
 21
125.2364063134857
 31
0.000000000000000
  0
ARC
  5
167
100
AcDbEntity
  8
A1
  6
CONTINUOUS
 62
7
100
AcDbCircle
 10
256.7499999997651
 20
122.2046941662655
 30
0.000000000000000
 40
0.2500000000000355
100
AcDbArc
 50
286.4689045272266
 51
466.4689045266888
  0
ARC
  5
168
100
AcDbEntity
  8
A1
  6
CONTINUOUS
 62
7
100
AcDbCircle
 10
256.7499999997651
 20
119.4258355977456
 30
0.000000000000000
 40
0.2500000000000355
100
AcDbArc
 50
286.4689045272250
 51
466.4689045266748
  0
ARC
  5
169
100
AcDbEntity
  8
A1
  6
CONTINUOUS
 62
7
100
AcDbCircle
 10
256.7499999997651
 20
116.6469770292257
 30
0.000000000000000
 40
0.2500000000000355
100
AcDbArc
 50
286.4689045272235
 51
466.4689045266605
  0
ARC
  5
16A
100
AcDbEntity
  8
A1
  6
CONTINUOUS
 62
7
100
AcDbCircle
 10
256.7499999997651
 20
113.8681184607058
 30
0.000000000000000
 40
0.2500000000000355
100
AcDbArc
 50
286.4689045272220
 51
466.4689045266497
  0
LINE
  5
16B
100
AcDbEntity
  8
A1
  6
CONTINUOUS
 62
7
100
AcDbLine
 10
256.6791262663148
 20
125.2232961682862
 30
0.000000000000000
 11
251.9791262662986
 21
123.8338668839877
 31
0.000000000000000
  0
LINE
  5
16C
100
AcDbEntity
  8
A1
  6
CONTINUOUS
 62
7
100
AcDbLine
 10
252.1208737331870
 20
123.3543800170291
 30
0.000000000000000
 11
256.8208737332157
 21
124.7438093012845
 31
0.000000000000000
  0
LINE
  5
16D
100
AcDbEntity
  8
A1
  6
CONTINUOUS
 62
7
100
AcDbLine
 10
256.7765957444459
 20
125.2321340421375
 30
0.000000000000000
 11
256.7366642888757
 21
125.2364063134856
 31
0.000000000000000
  0
LINE
  5
16E
100
AcDbEntity
  8
A1
  6
CONTINUOUS
 62
7
100
AcDbLine
 10
256.3999999997653
 20
122.5688576615138
 30
0.000000000000000
 11
256.8208737332142
 21
122.4444375997670
 31
0.000000000000000
  0
LINE
  5
16F
100
AcDbEntity
  8
A1
  6
CONTINUOUS
 62
7
100
AcDbLine
 10
256.3999999997652
 20
117.0111405244782
 30
0.000000000000000
 11
256.8208737332142
 21
116.8867204627271
 31
0.000000000000000
  0
LINE
  5
170
100
AcDbEntity
  8
A1
  6
CONTINUOUS
 62
7
100
AcDbLine
 10
256.3999999997652
 20
114.2322819559584
 30
0.000000000000000
 11
256.8208737332142
 21
114.1078618942071
 31
0.000000000000000
  0
LINE
  5
171
100
AcDbEntity
  8
A1
  6
CONTINUOUS
 62
7
100
AcDbLine
 10
256.6791262663145
 20
122.4444375997664
 30
0.000000000000000
 11
251.9791262662851
 21
121.0550083155119
 31
0.000000000000000
  0
LINE
  5
172
100
AcDbEntity
  8
A1
  6
CONTINUOUS
 62
7
100
AcDbLine
 10
256.8208737332157
 20
121.9649507327646
 30
0.000000000000000
 11
252.1208737331993
 21
120.5755214484662
 31
0.000000000000000
  0
LINE
  5
173
100
AcDbEntity
  8
A1
  6
CONTINUOUS
 62
7
100
AcDbLine
 10
256.6791262663148
 20
119.6655790312464
 30
0.000000000000000
 11
251.9791262662848
 21
118.2761497469931
 31
0.000000000000000
  0
LINE
  5
174
100
AcDbEntity
  8
A1
  6
CONTINUOUS
 62
7
100
AcDbLine
 10
252.1208737331989
 20
117.7966628799464
 30
0.000000000000000
 11
256.8208737332156
 21
119.1860921642448
 31
0.000000000000000
  0
LINE
  5
175
100
AcDbEntity
  8
A1
  6
CONTINUOUS
 62
7
100
AcDbLine
 10
256.6791262663145
 20
116.8867204627266
 30
0.000000000000000
 11
251.9791262662837
 21
115.4972911784744
 31
0.000000000000000
  0
LINE
  5
176
100
AcDbEntity
  8
A1
  6
CONTINUOUS
 62
7
100
AcDbLine
 10
252.1208737331984
 20
115.0178043114264
 30
0.000000000000000
 11
256.8208737332156
 21
116.4072335957248
 31
0.000000000000000
  0
LINE
  5
177
100
AcDbEntity
  8
A1
  6
CONTINUOUS
 62
7
100
AcDbLine
 10
256.6791262663147
 20
114.1078618942068
 30
0.000000000000000
 11
251.9791262662831
 21
112.7184326099555
 31
0.000000000000000
  0
LINE
  5
178
100
AcDbEntity
  8
A1
  6
CONTINUOUS
 62
7
100
AcDbLine
 10
252.1208737331982
 20
112.2389457429065
 30
0.000000000000000
 11
256.8208737332158
 21
113.6283750272049
 31
0.000000000000000
  0
LINE
  5
179
100
AcDbEntity
  8
A1
  6
CONTINUOUS
 62
7
100
AcDbLine
 10
256.3999999997653
 20
111.4534233874385
 30
0.000000000000000
 11
256.8208737332142
 21
111.3290033256872
 31
0.000000000000000
  0
LINE
  5
17A
100
AcDbEntity
  8
A1
  6
CONTINUOUS
 62
7
100
AcDbLine
 10
256.3999999997652
 20
110.4364063134857
 30
0.000000000000000
 11
256.3999999997652
 21
110.8003865597412
 31
0.000000000000000
  0
LINE
  5
17B
100
AcDbEntity
  8
A1
  6
CONTINUOUS
 62
7
100
AcDbLine
 10
256.3999999997652
 20
111.3032401384414
 30
0.000000000000000
 11
256.3999999997652
 21
113.5039549654505
 31
0.000000000000000
  0
LINE
  5
17C
100
AcDbEntity
  8
A1
  6
CONTINUOUS
 62
7
100
AcDbLine
 10
256.3999999997652
 20
114.0253456795802
 30
0.000000000000000
 11
256.3999999997652
 21
116.2828135339703
 31
0.000000000000000
  0
LINE
  5
17D
100
AcDbEntity
  8
A1
  6
CONTINUOUS
 62
7
100
AcDbLine
 10
256.3999999997652
 20
116.8042042481000
 30
0.000000000000000
 11
256.3999999997652
 21
119.0616721024902
 31
0.000000000000000
  0
LINE
  5
17E
100
AcDbEntity
  8
A1
  6
CONTINUOUS
 62
7
100
AcDbLine
 10
256.3999999997652
 20
119.5830628166198
 30
0.000000000000000
 11
256.3999999997652
 21
121.8405306710100
 31
0.000000000000000
  0
LINE
  5
17F
100
AcDbEntity
  8
A1
  6
CONTINUOUS
 62
7
100
AcDbLine
 10
256.3999999997652
 20
122.3619213851395
 30
0.000000000000000
 11
256.3999999997652
 21
124.6193892395342
 31
0.000000000000000
  0
LINE
  5
180
100
AcDbEntity
  8
A1
  6
CONTINUOUS
 62
7
100
AcDbLine
 10
256.3999999997652
 20
125.1407799536566
 30
0.000000000000000
 11
256.3999999997652
 21
125.2364063134856
 31
0.000000000000000
  0
LINE
  5
181
100
AcDbEntity
  8
A1
  6
CONTINUOUS
 62
7
100
AcDbLine
 10
256.3999999997652
 20
119.7899990929979
 30
0.000000000000000
 11
256.8208737332141
 21
119.6655790312469
 31
0.000000000000000
  0
LINE
  5
182
100
AcDbEntity
  8
A1
  6
CONTINUOUS
 62
7
100
AcDbLine
 10
252.8749999997653
 20
110.3364063134856
 30
0.000000000000000
 11
252.8749999997654
 21
110.4232463757158
 31
0.000000000000000
  0
ARC
  5
183
100
AcDbEntity
  8
A1
  6
CONTINUOUS
 62
7
100
AcDbCircle
 10
252.0499999997652
 20
110.5864063134856
 30
0.000000000000000
 40
0.2500000000000071
100
AcDbArc
 50
96.10685172986491
 51
276.1068517298649
  0
ARC
  5
184
100
AcDbEntity
  8
A1
  6
CONTINUOUS
 62
7
100
AcDbCircle
 10
252.0499999997652
 20
125.4864063134857
 30
0.000000000000000
 40
0.2500000000000071
100
AcDbArc
 50
90.00000000000000
 51
270.0000000000000
  0
ARC
  5
185
100
AcDbEntity
  8
A1
  6
CONTINUOUS
 62
7
100
AcDbCircle
 10
252.0499999997428
 20
123.5941234505084
 30
0.000000000000000
 40
0.2499999999775611
100
AcDbArc
 50
106.4689045272272
 51
286.4689045267037
  0
ARC
  5
186
100
AcDbEntity
  8
A1
  6
CONTINUOUS
 62
7
100
AcDbCircle
 10
252.0499999997422
 20
120.8152648819891
 30
0.000000000000000
 40
0.2500000000229790
100
AcDbArc
 50
106.4689045266884
 51
286.4689045272262
  0
ARC
  5
187
100
AcDbEntity
  8
A1
  6
CONTINUOUS
 62
7
100
AcDbCircle
 10
252.0499999997417
 20
118.0364063134697
 30
0.000000000000000
 40
0.2500000000235261
100
AcDbArc
 50
106.4689045266752
 51
286.4689045272255
  0
ARC
  5
188
100
AcDbEntity
  8
A1
  6
CONTINUOUS
 62
7
100
AcDbCircle
 10
252.0499999997411
 20
115.2575477449504
 30
0.000000000000000
 40
0.2500000000240732
100
AcDbArc
 50
106.4689045266620
 51
286.4689045272235
  0
ARC
  5
189
100
AcDbEntity
  8
A1
  6
CONTINUOUS
 62
7
100
AcDbCircle
 10
252.0499999997406
 20
112.4786891764310
 30
0.000000000000000
 40
0.2500000000246203
100
AcDbArc
 50
106.4689045266472
 51
286.4689045272211
  0
LINE
  5
18A
100
AcDbEntity
  8
A1
  6
CONTINUOUS
 62
7
100
AcDbLine
 10
251.9791262662845
 20
112.2389457429060
 30
0.000000000000000
 11
252.3999999997652
 21
112.1145256811499
 31
0.000000000000000
  0
LINE
  5
18B
100
AcDbEntity
  8
A1
  6
CONTINUOUS
 62
7
100
AcDbLine
 10
252.3999999997652
 20
110.8752796459305
 30
0.000000000000000
 11
252.3999999997652
 21
112.3214619575413
 31
0.000000000000000
  0
LINE
  5
18C
100
AcDbEntity
  8
A1
  6
CONTINUOUS
 62
7
100
AcDbLine
 10
252.3999999997652
 20
112.8428526717146
 30
0.000000000000000
 11
252.3999999997652
 21
115.1003205260612
 31
0.000000000000000
  0
LINE
  5
18D
100
AcDbEntity
  8
A1
  6
CONTINUOUS
 62
7
100
AcDbLine
 10
252.3999999997652
 20
115.6217112402335
 30
0.000000000000000
 11
252.3999999997652
 21
117.8791790945808
 31
0.000000000000000
  0
LINE
  5
18E
100
AcDbEntity
  8
A1
  6
CONTINUOUS
 62
7
100
AcDbLine
 10
252.3999999997652
 20
118.4005698087522
 30
0.000000000000000
 11
252.3999999997652
 21
120.6580376631006
 31
0.000000000000000
  0
LINE
  5
18F
100
AcDbEntity
  8
A1
  6
CONTINUOUS
 62
7
100
AcDbLine
 10
252.3999999997652
 20
121.1794283772709
 30
0.000000000000000
 11
252.3999999997652
 21
123.4368962316644
 31
0.000000000000000
  0
LINE
  5
190
100
AcDbEntity
  8
A1
  6
CONTINUOUS
 62
7
100
AcDbLine
 10
252.3999999997652
 20
123.9582869457470
 30
0.000000000000000
 11
252.3999999997652
 21
125.2364063134857
 31
0.000000000000000
  0
LINE
  5
191
100
AcDbEntity
  8
A1
  6
CONTINUOUS
 62
7
100
AcDbLine
 10
252.0234042550844
 20
125.2378250061335
 30
0.000000000000000
 11
252.3999999997652
 21
125.1975329810407
 31
0.000000000000000
  0
LINE
  5
192
100
AcDbEntity
  8
A1
  6
CONTINUOUS
 62
7
100
AcDbLine
 10
251.9791262663003
 20
123.3543800170287
 30
0.000000000000000
 11
252.3999999997654
 21
123.2299599552729
 31
0.000000000000000
  0
LINE
  5
193
100
AcDbEntity
  8
A1
  6
CONTINUOUS
 62
7
100
AcDbLine
 10
251.9791262662867
 20
120.5755214484656
 30
0.000000000000000
 11
252.3999999997652
 21
120.4511013867101
 31
0.000000000000000
  0
LINE
  5
194
100
AcDbEntity
  8
A1
  6
CONTINUOUS
 62
7
100
AcDbLine
 10
251.9791262662859
 20
117.7966628799459
 30
0.000000000000000
 11
252.3999999997652
 21
117.6722428181902
 31
0.000000000000000
  0
LINE
  5
195
100
AcDbEntity
  8
A1
  6
CONTINUOUS
 62
7
100
AcDbLine
 10
251.9791262662854
 20
115.0178043114261
 30
0.000000000000000
 11
252.3999999997653
 21
114.8933842496702
 31
0.000000000000000
  0
LINE
  5
196
100
AcDbEntity
  8
A1
  6
CONTINUOUS
 62
7
100
AcDbLine
 10
257.8999999998596
 20
109.7364063131149
 30
0.000000000000000
 11
257.8999999998649
 21
110.3364063134547
 31
0.000000000000000
  0
LINE
  5
197
100
AcDbEntity
  8
A1
  6
CONTINUOUS
 62
7
100
AcDbLine
 10
255.6999999996894
 20
109.7364063131321
 30
0.000000000000000
 11
255.6999999996898
 21
110.3364063134868
 31
0.000000000000000
  0
LINE
  5
198
100
AcDbEntity
  8
A1
  6
CONTINUOUS
 62
7
100
AcDbLine
 10
253.0999999997122
 20
109.7364063131395
 30
0.000000000000000
 11
253.0999999997130
 21
110.3364063134868
 31
0.000000000000000
  0
LINE
  5
199
100
AcDbEntity
  8
A1
  6
CONTINUOUS
 62
7
100
AcDbLine
 10
251.3999999997311
 20
110.3364063134856
 30
0.000000000000000
 11
253.0999999997131
 21
110.3364063134856
 31
0.000000000000000
  0
LINE
  5
19A
100
AcDbEntity
  8
A1
  6
CONTINUOUS
 62
7
100
AcDbLine
 10
255.6999999996899
 20
110.3364063134856
 30
0.000000000000000
 11
257.8999999998649
 21
110.3364063134856
 31
0.000000000000000
  0
LINE
  5
19B
100
AcDbEntity
  8
A1
  6
CONTINUOUS
 62
7
100
AcDbLine
 10
48.47500000001479
 20
110.3364063136384
 30
0.000000000000000
 11
48.47500000001481
 21
110.4232463758686
 31
0.000000000000000
  0
LINE
  5
19C
100
AcDbEntity
  8
A1
  6
CONTINUOUS
 62
7
100
AcDbLine
 10
52.00000000001465
 20
110.4364063136385
 30
0.000000000000000
 11
48.59800142654906
 21
110.4364063136385
 31
0.000000000000000
  0
LINE
  5
19D
100
AcDbEntity
  8
A1
  6
CONTINUOUS
 62
7
100
AcDbLine
 10
53.50000000001459
 20
110.3364063136385
 30
0.000000000000000
 11
47.21749334616470
 21
110.3364063136385
 31
0.000000000000000
  0
LINE
  5
19E
100
AcDbEntity
  8
A1
  6
CONTINUOUS
 62
7
100
AcDbLine
 10
47.67659574469543
 20
110.3378250062864
 30
0.000000000000000
 11
52.37659574469544
 21
110.8406785849867
 31
0.000000000000000
  0
LINE
  5
19F
100
AcDbEntity
  8
A1
  6
CONTINUOUS
 62
7
100
AcDbLine
 10
47.62340425533381
 20
110.8349876209906
 30
0.000000000000000
 11
52.32340425533377
 21
111.3378411996909
 31
0.000000000000000
  0
ARC
  5
1A0
100
AcDbEntity
  8
A1
  6
CONTINUOUS
 62
7
100
AcDbCircle
 10
47.65000000001471
 20
110.5864063136384
 30
0.000000000000000
 40
0.2500000000000071
100
AcDbArc
 50
96.10685172986491
 51
276.1068517298649
  0
LINE
  5
1A1
100
AcDbEntity
  8
A1
  6
CONTINUOUS
 62
7
100
AcDbLine
 10
47.65000000001469
 20
125.2364063136385
 30
0.000000000000000
 11
52.35000000001471
 21
125.2364063136385
 31
0.000000000000000
  0
ARC
  5
1A2
100
AcDbEntity
  8
A1
  6
CONTINUOUS
 62
7
100
AcDbCircle
 10
47.65000000001466
 20
125.4864063136385
 30
0.000000000000000
 40
0.2500000000000071
100
AcDbArc
 50
90.00000000000000
 51
270.0000000000000
  0
ARC
  5
1A3
100
AcDbEntity
  8
A1
  6
CONTINUOUS
 62
7
100
AcDbCircle
 10
47.64999999999226
 20
123.5941234506612
 30
0.000000000000000
 40
0.2499999999775611
100
AcDbArc
 50
106.4689045272272
 51
286.4689045267037
  0
ARC
  5
1A4
100
AcDbEntity
  8
A1
  6
CONTINUOUS
 62
7
100
AcDbCircle
 10
47.64999999999169
 20
120.8152648821419
 30
0.000000000000000
 40
0.2500000000229790
100
AcDbArc
 50
106.4689045266884
 51
286.4689045272262
  0
ARC
  5
1A5
100
AcDbEntity
  8
A1
  6
CONTINUOUS
 62
7
100
AcDbCircle
 10
47.64999999999118
 20
118.0364063136225
 30
0.000000000000000
 40
0.2500000000235261
100
AcDbArc
 50
106.4689045266752
 51
286.4689045272255
  0
ARC
  5
1A6
100
AcDbEntity
  8
A1
  6
CONTINUOUS
 62
7
100
AcDbCircle
 10
47.64999999999061
 20
115.2575477451032
 30
0.000000000000000
 40
0.2500000000240732
100
AcDbArc
 50
106.4689045266620
 51
286.4689045272235
  0
ARC
  5
1A7
100
AcDbEntity
  8
A1
  6
CONTINUOUS
 62
7
100
AcDbCircle
 10
47.64999999999004
 20
112.4786891765838
 30
0.000000000000000
 40
0.2500000000246203
100
AcDbArc
 50
106.4689045266472
 51
286.4689045272211
  0
LINE
  5
1A8
100
AcDbEntity
  8
A1
  6
CONTINUOUS
 62
7
100
AcDbLine
 10
52.27912626656412
 20
125.2232961684390
 30
0.000000000000000
 11
47.57912626654802
 21
123.8338668841405
 31
0.000000000000000
  0
LINE
  5
1A9
100
AcDbEntity
  8
A1
  6
CONTINUOUS
 62
7
100
AcDbLine
 10
47.72087373343651
 20
123.3543800171819
 30
0.000000000000000
 11
52.42087373346524
 21
124.7438093014373
 31
0.000000000000000
  0
LINE
  5
1AA
100
AcDbEntity
  8
A1
  6
CONTINUOUS
 62
7
100
AcDbLine
 10
47.57912626653406
 20
112.2389457430589
 30
0.000000000000000
 11
48.00000000001465
 21
112.1145256813028
 31
0.000000000000000
  0
LINE
  5
1AB
100
AcDbEntity
  8
A1
  6
CONTINUOUS
 62
7
100
AcDbLine
 10
52.27912626656409
 20
122.4444375999192
 30
0.000000000000000
 11
47.57912626653463
 21
121.0550083156648
 31
0.000000000000000
  0
LINE
  5
1AC
100
AcDbEntity
  8
A1
  6
CONTINUOUS
 62
7
100
AcDbLine
 10
52.42087373346516
 20
121.9649507329174
 30
0.000000000000000
 11
47.72087373344871
 21
120.5755214486190
 31
0.000000000000000
  0
LINE
  5
1AD
100
AcDbEntity
  8
A1
  6
CONTINUOUS
 62
7
100
AcDbLine
 10
52.27912626656425
 20
119.6655790313993
 30
0.000000000000000
 11
47.57912626653406
 21
118.2761497471459
 31
0.000000000000000
  0
LINE
  5
1AE
100
AcDbEntity
  8
A1
  6
CONTINUOUS
 62
7
100
AcDbLine
 10
47.72087373344836
 20
117.7966628800992
 30
0.000000000000000
 11
52.42087373346518
 21
119.1860921643976
 31
0.000000000000000
  0
LINE
  5
1AF
100
AcDbEntity
  8
A1
  6
CONTINUOUS
 62
7
100
AcDbLine
 10
52.27912626656405
 20
116.8867204628795
 30
0.000000000000000
 11
47.57912626653327
 21
115.4972911786272
 31
0.000000000000000
  0
LINE
  5
1B0
100
AcDbEntity
  8
A1
  6
CONTINUOUS
 62
7
100
AcDbLine
 10
47.72087373344786
 20
115.0178043115792
 30
0.000000000000000
 11
52.42087373346509
 21
116.4072335958776
 31
0.000000000000000
  0
LINE
  5
1B1
100
AcDbEntity
  8
A1
  6
CONTINUOUS
 62
7
100
AcDbLine
 10
52.27912626656416
 20
114.1078618943596
 30
0.000000000000000
 11
47.57912626653261
 21
112.7184326101083
 31
0.000000000000000
  0
LINE
  5
1B2
100
AcDbEntity
  8
A1
  6
CONTINUOUS
 62
7
100
AcDbLine
 10
47.72087373344754
 20
112.2389457430593
 30
0.000000000000000
 11
52.42087373346515
 21
113.6283750273577
 31
0.000000000000000
  0
LINE
  5
1B3
100
AcDbEntity
  8
A1
  6
CONTINUOUS
 62
7
100
AcDbLine
 10
48.00000000001468
 20
110.8752796460834
 30
0.000000000000000
 11
48.00000000001468
 21
112.3214619576942
 31
0.000000000000000
  0
LINE
  5
1B4
100
AcDbEntity
  8
A1
  6
CONTINUOUS
 62
7
100
AcDbLine
 10
48.00000000001468
 20
112.8428526718674
 30
0.000000000000000
 11
48.00000000001468
 21
115.1003205262140
 31
0.000000000000000
  0
LINE
  5
1B5
100
AcDbEntity
  8
A1
  6
CONTINUOUS
 62
7
100
AcDbLine
 10
48.00000000001468
 20
115.6217112403863
 30
0.000000000000000
 11
48.00000000001468
 21
117.8791790947336
 31
0.000000000000000
  0
LINE
  5
1B6
100
AcDbEntity
  8
A1
  6
CONTINUOUS
 62
7
100
AcDbLine
 10
48.00000000001468
 20
118.4005698089050
 30
0.000000000000000
 11
48.00000000001468
 21
120.6580376632534
 31
0.000000000000000
  0
LINE
  5
1B7
100
AcDbEntity
  8
A1
  6
CONTINUOUS
 62
7
100
AcDbLine
 10
48.00000000001468
 20
121.1794283774237
 30
0.000000000000000
 11
48.00000000001468
 21
123.4368962318172
 31
0.000000000000000
  0
LINE
  5
1B8
100
AcDbEntity
  8
A1
  6
CONTINUOUS
 62
7
100
AcDbLine
 10
48.00000000001468
 20
123.9582869458998
 30
0.000000000000000
 11
48.00000000001468
 21
125.2364063136385
 31
0.000000000000000
  0
LINE
  5
1B9
100
AcDbEntity
  8
A1
  6
CONTINUOUS
 62
7
100
AcDbLine
 10
47.62340425533381
 20
125.2378250062863
 30
0.000000000000000
 11
48.00000000001467
 21
125.1975329811935
 31
0.000000000000000
  0
LINE
  5
1BA
100
AcDbEntity
  8
A1
  6
CONTINUOUS
 62
7
100
AcDbLine
 10
47.57912626654970
 20
123.3543800171815
 30
0.000000000000000
 11
48.00000000001470
 21
123.2299599554258
 31
0.000000000000000
  0
LINE
  5
1BB
100
AcDbEntity
  8
A1
  6
CONTINUOUS
 62
7
100
AcDbLine
 10
47.57912626653622
 20
120.5755214486184
 30
0.000000000000000
 11
48.00000000001469
 21
120.4511013868629
 31
0.000000000000000
  0
LINE
  5
1BC
100
AcDbEntity
  8
A1
  6
CONTINUOUS
 62
7
100
AcDbLine
 10
47.57912626653551
 20
117.7966628800987
 30
0.000000000000000
 11
48.00000000001469
 21
117.6722428183430
 31
0.000000000000000
  0
LINE
  5
1BD
100
AcDbEntity
  8
A1
  6
CONTINUOUS
 62
7
100
AcDbLine
 10
47.57912626653481
 20
115.0178043115788
 30
0.000000000000000
 11
48.00000000001472
 21
114.8933842498229
 31
0.000000000000000
  0
LINE
  5
1BE
100
AcDbEntity
  8
A1
  6
CONTINUOUS
 62
7
100
AcDbLine
 10
51.52500000001417
 20
110.3364063136386
 30
0.000000000000000
 11
51.52500000001409
 21
110.4364063136387
 31
0.000000000000000
  0
CIRCLE
  5
1BF
100
AcDbEntity
  8
A1
  6
CONTINUOUS
 62
7
100
AcDbCircle
 10
52.35000000001467
 20
110.5864063136384
 30
0.000000000000000
 40
0.2500000000000000
  0
ARC
  5
1C0
100
AcDbEntity
  8
A1
  6
CONTINUOUS
 62
7
100
AcDbCircle
 10
52.35000000001462
 20
111.0892598923388
 30
0.000000000000000
 40
0.2500000000000000
100
AcDbArc
 50
276.1068517298650
 51
456.1068517298651
  0
ARC
  5
1C1
100
AcDbEntity
  8
A1
  6
CONTINUOUS
 62
7
100
AcDbCircle
 10
52.35000000001462
 20
124.9835527349382
 30
0.000000000000000
 40
0.2500000000000000
100
AcDbArc
 50
286.4689045267050
 51
466.4689045272270
  0
ARC
  5
1C2
100
AcDbEntity
  8
A1
  6
CONTINUOUS
 62
7
100
AcDbCircle
 10
52.35000000001462
 20
125.4864063136385
 30
0.000000000000000
 40
0.2500000000000071
100
AcDbArc
 50
270.0000000000000
 51
450.0000000000000
  0
ARC
  5
1C3
100
AcDbEntity
  8
A1
  6
CONTINUOUS
 62
7
100
AcDbCircle
 10
52.35000000001462
 20
122.2046941664183
 30
0.000000000000000
 40
0.2500000000000355
100
AcDbArc
 50
286.4689045272266
 51
466.4689045266888
  0
ARC
  5
1C4
100
AcDbEntity
  8
A1
  6
CONTINUOUS
 62
7
100
AcDbCircle
 10
52.35000000001462
 20
119.4258355978984
 30
0.000000000000000
 40
0.2500000000000355
100
AcDbArc
 50
286.4689045272250
 51
466.4689045266748
  0
ARC
  5
1C5
100
AcDbEntity
  8
A1
  6
CONTINUOUS
 62
7
100
AcDbCircle
 10
52.35000000001462
 20
116.6469770293785
 30
0.000000000000000
 40
0.2500000000000355
100
AcDbArc
 50
286.4689045272235
 51
466.4689045266605
  0
ARC
  5
1C6
100
AcDbEntity
  8
A1
  6
CONTINUOUS
 62
7
100
AcDbCircle
 10
52.35000000001462
 20
113.8681184608586
 30
0.000000000000000
 40
0.2500000000000355
100
AcDbArc
 50
286.4689045272220
 51
466.4689045266497
  0
LINE
  5
1C7
100
AcDbEntity
  8
A1
  6
CONTINUOUS
 62
7
100
AcDbLine
 10
52.37659574469545
 20
125.2321340422903
 30
0.000000000000000
 11
52.33666428912521
 21
125.2364063136384
 31
0.000000000000000
  0
LINE
  5
1C8
100
AcDbEntity
  8
A1
  6
CONTINUOUS
 62
7
100
AcDbLine
 10
52.00000000001472
 20
122.5688576616666
 30
0.000000000000000
 11
52.42087373346369
 21
122.4444375999198
 31
0.000000000000000
  0
LINE
  5
1C9
100
AcDbEntity
  8
A1
  6
CONTINUOUS
 62
7
100
AcDbLine
 10
52.00000000001469
 20
117.0111405246310
 30
0.000000000000000
 11
52.42087373346369
 21
116.8867204628799
 31
0.000000000000000
  0
LINE
  5
1CA
100
AcDbEntity
  8
A1
  6
CONTINUOUS
 62
7
100
AcDbLine
 10
52.00000000001468
 20
114.2322819561112
 30
0.000000000000000
 11
52.42087373346367
 21
114.1078618943600
 31
0.000000000000000
  0
LINE
  5
1CB
100
AcDbEntity
  8
A1
  6
CONTINUOUS
 62
7
100
AcDbLine
 10
52.00000000001469
 20
111.4534233875914
 30
0.000000000000000
 11
52.42087373346368
 21
111.3290033258400
 31
0.000000000000000
  0
LINE
  5
1CC
100
AcDbEntity
  8
A1
  6
CONTINUOUS
 62
7
100
AcDbLine
 10
52.00000000001465
 20
110.4364063136385
 30
0.000000000000000
 11
52.00000000001465
 21
110.8003865598940
 31
0.000000000000000
  0
LINE
  5
1CD
100
AcDbEntity
  8
A1
  6
CONTINUOUS
 62
7
100
AcDbLine
 10
52.00000000001465
 20
111.3032401385942
 30
0.000000000000000
 11
52.00000000001465
 21
113.5039549656033
 31
0.000000000000000
  0
LINE
  5
1CE
100
AcDbEntity
  8
A1
  6
CONTINUOUS
 62
7
100
AcDbLine
 10
52.00000000001465
 20
114.0253456797330
 30
0.000000000000000
 11
52.00000000001465
 21
116.2828135341231
 31
0.000000000000000
  0
LINE
  5
1CF
100
AcDbEntity
  8
A1
  6
CONTINUOUS
 62
7
100
AcDbLine
 10
52.00000000001465
 20
116.8042042482528
 30
0.000000000000000
 11
52.00000000001465
 21
119.0616721026431
 31
0.000000000000000
  0
LINE
  5
1D0
100
AcDbEntity
  8
A1
  6
CONTINUOUS
 62
7
100
AcDbLine
 10
52.00000000001465
 20
119.5830628167726
 30
0.000000000000000
 11
52.00000000001465
 21
121.8405306711629
 31
0.000000000000000
  0
LINE
  5
1D1
100
AcDbEntity
  8
A1
  6
CONTINUOUS
 62
7
100
AcDbLine
 10
52.00000000001465
 20
122.3619213852923
 30
0.000000000000000
 11
52.00000000001465
 21
124.6193892396870
 31
0.000000000000000
  0
LINE
  5
1D2
100
AcDbEntity
  8
A1
  6
CONTINUOUS
 62
7
100
AcDbLine
 10
52.00000000001465
 20
125.1407799538094
 30
0.000000000000000
 11
52.00000000001465
 21
125.2364063136384
 31
0.000000000000000
  0
LINE
  5
1D3
100
AcDbEntity
  8
A1
  6
CONTINUOUS
 62
7
100
AcDbLine
 10
52.00000000001467
 20
119.7899990931507
 30
0.000000000000000
 11
52.42087373346363
 21
119.6655790313997
 31
0.000000000000000
  0
LINE
  5
1D4
100
AcDbEntity
  8
A1
  6
CONTINUOUS
 62
7
100
AcDbLine
 10
176.7999999998273
 20
110.3364063136385
 30
0.000000000000000
 11
182.3999999999647
 21
110.3364063136385
 31
0.000000000000000
  0
LINE
  5
1D5
100
AcDbEntity
  8
A1
  6
CONTINUOUS
 62
7
100
AcDbLine
 10
47.21749334616482
 20
109.7364063134405
 30
0.000000000000000
 11
47.21749334616470
 21
110.3364063136396
 31
0.000000000000000
  0
LINE
  5
1D6
100
AcDbEntity
  8
A1
  6
CONTINUOUS
 62
7
100
AcDbLine
 10
53.50000000017412
 20
109.7364063134583
 30
0.000000000000000
 11
53.50000000017412
 21
110.3364063136384
 31
0.000000000000000
  0
LINE
  5
1D7
100
AcDbEntity
  8
A1
  6
CONTINUOUS
 62
7
100
AcDbLine
 10
47.90000000008224
 20
112.1440880064788
 30
0.000000000000000
 11
47.90000000008647
 21
110.8645806337782
 31
0.000000000000000
  0
LINE
  5
1D8
100
AcDbEntity
  8
A1
  6
CONTINUOUS
 62
7
100
AcDbLine
 10
47.90000000007305
 20
114.9229465750017
 30
0.000000000000000
 11
47.90000000008003
 21
112.8132903466902
 31
0.000000000000000
  0
LINE
  5
1D9
100
AcDbEntity
  8
A1
  6
CONTINUOUS
 62
7
100
AcDbLine
 10
47.90000000006386
 20
117.7018051435245
 30
0.000000000000000
 11
47.90000000007083
 21
115.5921489152063
 31
0.000000000000000
  0
LINE
  5
1DA
100
AcDbEntity
  8
A1
  6
CONTINUOUS
 62
7
100
AcDbLine
 10
47.90000000005466
 20
120.4806637120471
 30
0.000000000000000
 11
47.90000000006164
 21
118.3710074837221
 31
0.000000000000000
  0
LINE
  5
1DB
100
AcDbEntity
  8
A1
  6
CONTINUOUS
 62
7
100
AcDbLine
 10
47.90000000004547
 20
123.2595222806137
 30
0.000000000000000
 11
47.90000000005245
 21
121.1498660522381
 31
0.000000000000000
  0
LINE
  5
1DC
100
AcDbEntity
  8
A1
  6
CONTINUOUS
 62
7
100
AcDbLine
 10
47.90000000003904
 20
125.2082319935037
 30
0.000000000000000
 11
47.90000000004326
 21
123.9287246207105
 31
0.000000000000000
  0
ENDSEC
  0
SECTION
  2
OBJECTS
  0
DICTIONARY
  5
20E
100
AcDbDictionary
  3
ACAD_GROUP
350
20F
  3
ACAD_LAYOUT
350
210
  3
ACAD_MLINESTYLE
350
211
  0
DICTIONARY
  5
20F
102
{ACAD_REACTORS
330
20E
102
}
330
20E
100
AcDbDictionary
  0
DICTIONARY
  5
210
102
{ACAD_REACTORS
330
20E
102
}
330
20E
100
AcDbDictionary
  3
Model
350
212
  3
ﾚｲｱｳﾄ1
350
213
  3
ﾚｲｱｳﾄ2
350
214
  0
DICTIONARY
  5
211
102
{ACAD_REACTORS
330
20E
102
}
330
20E
100
AcDbDictionary
  3
STANDARD
350
215
  0
LAYOUT
  5
212
102
{ACAD_REACTORS
330
210
102
}
330
210
100
AcDbPlotSettings
 70
11952
  4
A1
 44
594.000000
 45
841.000000
 73
  1
 72
  1
100
AcDbLayout
  1
Model
 71
0
330
205
  0
LAYOUT
  5
213
102
{ACAD_REACTORS
330
210
102
}
330
210
100
AcDbPlotSettings
100
AcDbLayout
  1
ﾚｲｱｳﾄ1
 71
1
330
206
  0
LAYOUT
  5
214
102
{ACAD_REACTORS
330
210
102
}
330
210
100
AcDbPlotSettings
100
AcDbLayout
  1
ﾚｲｱｳﾄ2
 71
2
330
207
  0
MLINESTYLE
  5
215
102
{ACAD_REACTORS
330
211
102
}
330
211
100
AcDbMlineStyle
  2
STANDARD
 70
     0
  3

 62
   256
 51
90.00
 52
90.00
 71
     2
 49
0.50
 62
   256
  6
BYLAYER
 49
-0.50
 62
   256
  6
BYLAYER
  0
ENDSEC
  0
EOF
