  0
SECTION
  2
HEADER
  9
$ACADVER
  1
AC1015
  9
$ACADMAINTVER
 70
    20
  9
$DWGCODEPAGE
  3
ANSI_932
  9
$INSBASE
 10
0.0
 20
0.0
 30
0.0
  9
$EXTMIN
 10
9.99995
 20
9.999999999999998
 30
0.0
  9
$EXTMAX
 10
224.25
 20
1193.550048999999
 30
0.0
  9
$LIMMIN
 10
0.0
 20
0.0
  9
$LIMMAX
 10
1742.4
 20
1201.2
  9
$ORTHOMODE
 70
     1
  9
$REGENMODE
 70
     1
  9
$FILLMODE
 70
     1
  9
$QTEXTMODE
 70
     0
  9
$MIRRTEXT
 70
     1
  9
$LTSCALE
 40
20.0
  9
$ATTMODE
 70
     1
  9
$TEXTSIZE
 40
5.0
  9
$TRACEWID
 40
1.0
  9
$TEXTSTYLE
  7
STANDARD
  9
$CLAYER
  8
0
  9
$CELTYPE
  6
BYLAYER
  9
$CECOLOR
 62
   256
  9
$CELTSCALE
 40
1.0
  9
$DISPSILH
 70
     0
  9
$DIMSCALE
 40
1.0
  9
$DIMASZ
 40
3.0
  9
$DIMEXO
 40
1.0
  9
$DIMDLI
 40
10.0
  9
$DIMRND
 40
0.0
  9
$DIMDLE
 40
0.0
  9
$DIMEXE
 40
1.0
  9
$DIMTP
 40
0.0
  9
$DIMTM
 40
0.0
  9
$DIMTXT
 40
3.2
  9
$DIMCEN
 40
0.0
  9
$DIMTSZ
 40
0.0
  9
$DIMTOL
 70
     0
  9
$DIMLIM
 70
     0
  9
$DIMTIH
 70
     0
  9
$DIMTOH
 70
     0
  9
$DIMSE1
 70
     0
  9
$DIMSE2
 70
     0
  9
$DIMTAD
 70
     3
  9
$DIMZIN
 70
     8
  9
$DIMBLK
  1

  9
$DIMASO
 70
     1
  9
$DIMSHO
 70
     1
  9
$DIMPOST
  1

  9
$DIMAPOST
  1

  9
$DIMALT
 70
     0
  9
$DIMALTD
 70
     2
  9
$DIMALTF
 40
25.4
  9
$DIMLFAC
 40
1.0
  9
$DIMTOFL
 70
     1
  9
$DIMTVP
 40
0.0
  9
$DIMTIX
 70
     0
  9
$DIMSOXD
 70
     0
  9
$DIMSAH
 70
     1
  9
$DIMBLK1
  1

  9
$DIMBLK2
  1

  9
$DIMSTYLE
  2
STANDARD
  9
$DIMCLRD
 70
     0
  9
$DIMCLRE
 70
     0
  9
$DIMCLRT
 70
     0
  9
$DIMTFAC
 40
1.0
  9
$DIMGAP
 40
1.0
  9
$DIMJUST
 70
     0
  9
$DIMSD1
 70
     0
  9
$DIMSD2
 70
     0
  9
$DIMTOLJ
 70
     1
  9
$DIMTZIN
 70
     0
  9
$DIMALTZ
 70
     0
  9
$DIMALTTZ
 70
     0
  9
$DIMUPT
 70
     0
  9
$DIMDEC
 70
     4
  9
$DIMTDEC
 70
     4
  9
$DIMALTU
 70
     2
  9
$DIMALTTD
 70
     2
  9
$DIMTXSTY
  7
STANDARD
  9
$DIMAUNIT
 70
     0
  9
$DIMADEC
 70
     0
  9
$DIMALTRND
 40
0.0
  9
$DIMAZIN
 70
     0
  9
$DIMDSEP
 70
    46
  9
$DIMATFIT
 70
     3
  9
$DIMFRAC
 70
     0
  9
$DIMLDRBLK
  1

  9
$DIMLUNIT
 70
     2
  9
$DIMLWD
 70
    -2
  9
$DIMLWE
 70
    -2
  9
$DIMTMOVE
 70
     0
  9
$LUNITS
 70
     2
  9
$LUPREC
 70
     4
  9
$SKETCHINC
 40
1.0
  9
$FILLETRAD
 40
0.0
  9
$AUNITS
 70
     0
  9
$AUPREC
 70
     2
  9
$MENU
  1
.
  9
$ELEVATION
 40
0.0
  9
$PELEVATION
 40
0.0
  9
$THICKNESS
 40
0.0
  9
$LIMCHECK
 70
     0
  9
$CHAMFERA
 40
10.0
  9
$CHAMFERB
 40
10.0
  9
$CHAMFERC
 40
0.0
  9
$CHAMFERD
 40
0.0
  9
$SKPOLY
 70
     0
  9
$TDCREATE
 40
2451006.484644329
  9
$TDUCREATE
 40
2451006.109644329
  9
$TDUPDATE
 40
2457192.618738032
  9
$TDUUPDATE
 40
2457192.243738032
  9
$TDINDWG
 40
0.0000151505
  9
$TDUSRTIMER
 40
0.0000148495
  9
$USRTIMER
 70
     1
  9
$ANGBASE
 50
0.0
  9
$ANGDIR
 70
     0
  9
$PDMODE
 70
     0
  9
$PDSIZE
 40
0.0
  9
$PLINEWID
 40
0.0
  9
$SPLFRAME
 70
     0
  9
$SPLINETYPE
 70
     6
  9
$SPLINESEGS
 70
     8
  9
$HANDSEED
  5
965C
  9
$SURFTAB1
 70
     6
  9
$SURFTAB2
 70
     6
  9
$SURFTYPE
 70
     6
  9
$SURFU
 70
     6
  9
$SURFV
 70
     6
  9
$UCSBASE
  2

  9
$UCSNAME
  2

  9
$UCSORG
 10
0.0
 20
0.0
 30
0.0
  9
$UCSXDIR
 10
1.0
 20
0.0
 30
0.0
  9
$UCSYDIR
 10
0.0
 20
1.0
 30
0.0
  9
$UCSORTHOREF
  2

  9
$UCSORTHOVIEW
 70
     0
  9
$UCSORGTOP
 10
0.0
 20
0.0
 30
0.0
  9
$UCSORGBOTTOM
 10
0.0
 20
0.0
 30
0.0
  9
$UCSORGLEFT
 10
0.0
 20
0.0
 30
0.0
  9
$UCSORGRIGHT
 10
0.0
 20
0.0
 30
0.0
  9
$UCSORGFRONT
 10
0.0
 20
0.0
 30
0.0
  9
$UCSORGBACK
 10
0.0
 20
0.0
 30
0.0
  9
$PUCSBASE
  2

  9
$PUCSNAME
  2

  9
$PUCSORG
 10
0.0
 20
0.0
 30
0.0
  9
$PUCSXDIR
 10
1.0
 20
0.0
 30
0.0
  9
$PUCSYDIR
 10
0.0
 20
1.0
 30
0.0
  9
$PUCSORTHOREF
  2

  9
$PUCSORTHOVIEW
 70
     0
  9
$PUCSORGTOP
 10
0.0
 20
0.0
 30
0.0
  9
$PUCSORGBOTTOM
 10
0.0
 20
0.0
 30
0.0
  9
$PUCSORGLEFT
 10
0.0
 20
0.0
 30
0.0
  9
$PUCSORGRIGHT
 10
0.0
 20
0.0
 30
0.0
  9
$PUCSORGFRONT
 10
0.0
 20
0.0
 30
0.0
  9
$PUCSORGBACK
 10
0.0
 20
0.0
 30
0.0
  9
$USERI1
 70
     0
  9
$USERI2
 70
     0
  9
$USERI3
 70
     0
  9
$USERI4
 70
     0
  9
$USERI5
 70
     0
  9
$USERR1
 40
0.0
  9
$USERR2
 40
0.0
  9
$USERR3
 40
0.0
  9
$USERR4
 40
0.0
  9
$USERR5
 40
0.0
  9
$WORLDVIEW
 70
     1
  9
$SHADEDGE
 70
     3
  9
$SHADEDIF
 70
    70
  9
$TILEMODE
 70
     1
  9
$MAXACTVP
 70
    16
  9
$PINSBASE
 10
0.0
 20
0.0
 30
0.0
  9
$PLIMCHECK
 70
     0
  9
$PEXTMIN
 10
1.000000000000000E+20
 20
1.000000000000000E+20
 30
1.000000000000000E+20
  9
$PEXTMAX
 10
-1.000000000000000E+20
 20
-1.000000000000000E+20
 30
-1.000000000000000E+20
  9
$PLIMMIN
 10
0.0
 20
0.0
  9
$PLIMMAX
 10
420.0
 20
297.0
  9
$UNITMODE
 70
     0
  9
$VISRETAIN
 70
     0
  9
$PLINEGEN
 70
     0
  9
$PSLTSCALE
 70
     0
  9
$TREEDEPTH
 70
  3020
  9
$CMLSTYLE
  2
STANDARD
  9
$CMLJUST
 70
     0
  9
$CMLSCALE
 40
1.0
  9
$PROXYGRAPHICS
 70
     1
  9
$MEASUREMENT
 70
     0
  9
$CELWEIGHT
370
    -1
  9
$ENDCAPS
280
     0
  9
$JOINSTYLE
280
     0
  9
$LWDISPLAY
290
     0
  9
$INSUNITS
 70
     0
  9
$HYPERLINKBASE
  1

  9
$STYLESHEET
  1

  9
$XEDIT
290
     1
  9
$CEPSNTYPE
380
     0
  9
$PSTYLEMODE
290
     1
  9
$FINGERPRINTGUID
  2
{EAA5ED6A-A925-434B-888E-61F8A3F58ABD}
  9
$VERSIONGUID
  2
{773501A5-7A3A-45F3-A39A-C793F09A96C2}
  9
$EXTNAMES
290
     1
  9
$PSVPSCALE
 40
0.0
  9
$OLESTARTUP
290
     0
  0
ENDSEC
  0
SECTION
  2
CLASSES
  0
CLASS
  1
ACDBDICTIONARYWDFLT
  2
AcDbDictionaryWithDefault
  3
ObjectDBX Classes
 90
        0
280
     0
281
     0
  0
CLASS
  1
ACDBPLACEHOLDER
  2
AcDbPlaceHolder
  3
ObjectDBX Classes
 90
        0
280
     0
281
     0
  0
CLASS
  1
LAYOUT
  2
AcDbLayout
  3
ObjectDBX Classes
 90
        0
280
     0
281
     0
  0
CLASS
  1
DICTIONARYVAR
  2
AcDbDictionaryVar
  3
ObjectDBX Classes
 90
        0
280
     0
281
     0
  0
CLASS
  1
MATERIAL
  2
AcDbMaterial
  3
ObjectDBX Classes
 90
     1153
280
     0
281
     0
  0
CLASS
  1
VISUALSTYLE
  2
AcDbVisualStyle
  3
ObjectDBX Classes
 90
     4095
280
     0
281
     0
  0
CLASS
  1
TABLESTYLE
  2
AcDbTableStyle
  3
ObjectDBX Classes
 90
     4095
280
     0
281
     0
  0
CLASS
  1
SCALE
  2
AcDbScale
  3
ObjectDBX Classes
 90
     1153
280
     0
281
     0
  0
CLASS
  1
MLEADERSTYLE
  2
AcDbMLeaderStyle
  3
ACDB_MLEADERSTYLE_CLASS
 90
     4095
280
     0
281
     0
  0
CLASS
  1
ACDBSECTIONVIEWSTYLE
  2
AcDbSectionViewStyle
  3
ObjectDBX Classes
 90
     1025
280
     0
281
     0
  0
CLASS
  1
ACDBDETAILVIEWSTYLE
  2
AcDbDetailViewStyle
  3
ObjectDBX Classes
 90
     1025
280
     0
281
     0
  0
CLASS
  1
CELLSTYLEMAP
  2
AcDbCellStyleMap
  3
ObjectDBX Classes
 90
     1152
280
     0
281
     0
  0
ENDSEC
  0
SECTION
  2
TABLES
  0
TABLE
  2
VPORT
  5
93CA
330
0
100
AcDbSymbolTable
 70
     1
  0
VPORT
  5
95A5
330
93CA
100
AcDbSymbolTableRecord
100
AcDbViewportTableRecord
  2
*ACTIVE
 70
     0
 10
0.0
 20
0.0
 11
1.0
 21
1.0
 12
475.643243321666
 22
601.7913785305705
 13
0.0
 23
0.0
 14
10.0
 24
10.0
 15
10.0
 25
10.0
 16
0.0
 26
0.0
 36
1.0
 17
0.0
 27
0.0
 37
0.0
 40
1196.916357099693
 41
1.899603698811096
 42
50.0
 43
0.0
 44
0.0
 50
0.0
 51
0.0
 71
     0
 72
   100
 73
     1
 74
     0
 75
     0
 76
     0
 77
     0
 78
     0
281
     0
 65
     1
110
0.0
120
0.0
130
0.0
111
1.0
121
0.0
131
0.0
112
0.0
122
1.0
132
0.0
 79
     0
146
0.0
1001
ACAD_NAV_VCDISPLAY
1070
     3
  0
ENDTAB
  0
TABLE
  2
LTYPE
  5
93C7
330
0
100
AcDbSymbolTable
 70
     4
  0
LTYPE
  5
93D5
330
93C7
100
AcDbSymbolTableRecord
100
AcDbLinetypeTableRecord
  2
BYBLOCK
 70
     0
  3

 72
    65
 73
     0
 40
0.0
  0
LTYPE
  5
93D6
330
93C7
100
AcDbSymbolTableRecord
100
AcDbLinetypeTableRecord
  2
BYLAYER
 70
     0
  3

 72
    65
 73
     0
 40
0.0
  0
LTYPE
  5
93D7
330
93C7
100
AcDbSymbolTableRecord
100
AcDbLinetypeTableRecord
  2
CONTINUOUS
 70
     0
  3
Solid line
 72
    65
 73
     0
 40
0.0
  0
LTYPE
  5
93E5
330
93C7
100
AcDbSymbolTableRecord
100
AcDbLinetypeTableRecord
  2
DASHED
 70
     0
  3
__ __ __ __ __ __ __ __ __ __ __ __ __ __ __ __
 72
    65
 73
     2
 40
0.75
 49
0.5
 74
     0
 49
-0.25
 74
     0
  0
LTYPE
  5
93E6
330
93C7
100
AcDbSymbolTableRecord
100
AcDbLinetypeTableRecord
  2
CENTER
 70
     0
  3
____ _ ____ _ ____ _ ____ _ ____ _ ____ _ ____ 
 72
    65
 73
     4
 40
2.0
 49
1.25
 74
     0
 49
-0.25
 74
     0
 49
0.25
 74
     0
 49
-0.25
 74
     0
  0
LTYPE
  5
93E7
330
93C7
100
AcDbSymbolTableRecord
100
AcDbLinetypeTableRecord
  2
PHANTOM
 70
     0
  3
______  __  __  ______  __  __  ______  __  __ 
 72
    65
 73
     6
 40
2.5
 49
1.25
 74
     0
 49
-0.25
 74
     0
 49
0.25
 74
     0
 49
-0.25
 74
     0
 49
0.25
 74
     0
 49
-0.25
 74
     0
  0
ENDTAB
  0
TABLE
  2
LAYER
  5
93C4
330
0
100
AcDbSymbolTable
 70
     8
  0
LAYER
  5
93D2
102
{ACAD_XDICTIONARY
360
9600
102
}
330
93C4
100
AcDbSymbolTableRecord
100
AcDbLayerTableRecord
  2
0
 70
     0
 62
     7
  6
CONTINUOUS
370
    -3
390
95AE
  0
LAYER
  5
93E8
102
{ACAD_XDICTIONARY
360
9602
102
}
330
93C4
100
AcDbSymbolTableRecord
100
AcDbLayerTableRecord
  2
4
 70
     0
 62
     1
  6
CENTER
370
    -3
390
95AE
  0
LAYER
  5
93E9
102
{ACAD_XDICTIONARY
360
9604
102
}
330
93C4
100
AcDbSymbolTableRecord
100
AcDbLayerTableRecord
  2
5
 70
     0
 62
     6
  6
PHANTOM
370
    -3
390
95AE
  0
LAYER
  5
93EA
102
{ACAD_XDICTIONARY
360
9606
102
}
330
93C4
100
AcDbSymbolTableRecord
100
AcDbLayerTableRecord
  2
1
 70
     0
 62
     7
  6
CONTINUOUS
370
    -3
390
95AE
  0
LAYER
  5
93EB
102
{ACAD_XDICTIONARY
360
9608
102
}
330
93C4
100
AcDbSymbolTableRecord
100
AcDbLayerTableRecord
  2
2
 70
     0
 62
     4
  6
CONTINUOUS
370
    -3
390
95AE
  0
LAYER
  5
93EC
102
{ACAD_XDICTIONARY
360
960A
102
}
330
93C4
100
AcDbSymbolTableRecord
100
AcDbLayerTableRecord
  2
3
 70
     0
 62
     2
  6
DASHED
370
    -3
390
95AE
  0
LAYER
  5
93ED
102
{ACAD_XDICTIONARY
360
960C
102
}
330
93C4
100
AcDbSymbolTableRecord
100
AcDbLayerTableRecord
  2
6
 70
     0
 62
     5
  6
CONTINUOUS
370
    -3
390
95AE
  0
LAYER
  5
93EE
102
{ACAD_XDICTIONARY
360
960E
102
}
330
93C4
100
AcDbSymbolTableRecord
100
AcDbLayerTableRecord
  2
7
 70
     0
 62
     3
  6
CONTINUOUS
370
    -3
390
95AE
  0
ENDTAB
  0
TABLE
  2
STYLE
  5
93C5
330
0
100
AcDbSymbolTable
 70
     1
  0
STYLE
  5
93D3
330
93C5
100
AcDbSymbolTableRecord
100
AcDbTextStyleTableRecord
  2
STANDARD
 70
     0
 40
0.0
 41
1.0
 50
0.0
 71
     0
 42
5.0
  3
txt
  4

  0
ENDTAB
  0
TABLE
  2
VIEW
  5
93C8
330
0
100
AcDbSymbolTable
 70
     0
  0
ENDTAB
  0
TABLE
  2
UCS
  5
93C9
330
0
100
AcDbSymbolTable
 70
     0
  0
ENDTAB
  0
TABLE
  2
APPID
  5
93CB
330
0
100
AcDbSymbolTable
 70
     3
  0
APPID
  5
93D4
330
93CB
100
AcDbSymbolTableRecord
100
AcDbRegAppTableRecord
  2
ACAD
 70
     0
  0
APPID
  5
961A
330
93CB
100
AcDbSymbolTableRecord
100
AcDbRegAppTableRecord
  2
ACAD_NAV_VCDISPLAY
 70
     0
  0
APPID
  5
9653
330
93CB
100
AcDbSymbolTableRecord
100
AcDbRegAppTableRecord
  2
ACAD_MLEADERVER
 70
     0
  0
ENDTAB
  0
TABLE
  2
DIMSTYLE
  5
93CC
330
0
100
AcDbSymbolTable
 70
     1
100
AcDbDimStyleTable
 71
     0
  0
DIMSTYLE
105
93F0
330
93CC
100
AcDbSymbolTableRecord
100
AcDbDimStyleTableRecord
  2
STANDARD
 70
     0
 41
3.0
 42
1.0
 43
10.0
 44
1.0
 73
     0
 74
     0
 77
     3
 78
     8
140
3.2
141
0.0
147
1.0
172
     1
173
     1
284
     8
285
     8
286
     8
340
93D3
  0
ENDTAB
  0
TABLE
  2
BLOCK_RECORD
  5
93C3
330
0
100
AcDbSymbolTable
 70
     0
  0
BLOCK_RECORD
  5
93E0
102
{ACAD_XDICTIONARY
360
95A8
102
}
330
93C3
100
AcDbSymbolTableRecord
100
AcDbBlockTableRecord
  2
*MODEL_SPACE
340
95FC
  0
BLOCK_RECORD
  5
93DC
102
{ACAD_XDICTIONARY
360
95A6
102
}
330
93C3
100
AcDbSymbolTableRecord
100
AcDbBlockTableRecord
  2
*PAPER_SPACE
340
95FD
  0
ENDTAB
  0
ENDSEC
  0
SECTION
  2
BLOCKS
  0
BLOCK
  5
93E1
330
93E0
100
AcDbEntity
  8
0
100
AcDbBlockBegin
  2
*MODEL_SPACE
 70
     0
 10
0.0
 20
0.0
 30
0.0
  3
*MODEL_SPACE
  1

  0
ENDBLK
  5
93E2
330
93E0
100
AcDbEntity
  8
0
100
AcDbBlockEnd
  0
BLOCK
  5
93DD
330
93DC
100
AcDbEntity
 67
     1
  8
0
100
AcDbBlockBegin
  2
*PAPER_SPACE
 70
     0
 10
0.0
 20
0.0
 30
0.0
  3
*PAPER_SPACE
  1

  0
ENDBLK
  5
93DE
330
93DC
100
AcDbEntity
 67
     1
  8
0
100
AcDbBlockEnd
  0
ENDSEC
  0
SECTION
  2
ENTITIES
  0
LINE
  5
93F8
330
93E0
100
AcDbEntity
  8
1
  6
Continuous
100
AcDbLine
 10
72.25
 20
1110.900023999998
 30
0.0
 11
72.25
 21
110.900002
 31
0.0
  0
LINE
  5
93F9
330
93E0
100
AcDbEntity
  8
1
  6
Continuous
100
AcDbLine
 10
104.2499999999999
 20
1110.900023999998
 30
0.0
 11
104.2499999999999
 21
110.900002
 31
0.0
  0
LINE
  5
93FA
330
93E0
100
AcDbEntity
  8
1
  6
Continuous
100
AcDbLine
 10
72.25
 20
110.900002
 30
0.0
 11
91.5
 21
110.900002
 31
0.0
  0
LINE
  5
93FB
330
93E0
100
AcDbEntity
  8
1
  6
Continuous
100
AcDbLine
 10
72.25
 20
1110.900023999998
 30
0.0
 11
84.25
 21
1110.900023999998
 31
0.0
  0
LINE
  5
93FC
330
93E0
100
AcDbEntity
  8
1
  6
Continuous
100
AcDbLine
 10
84.25
 20
1110.900023999998
 30
0.0
 11
84.25
 21
1090.900024
 31
0.0
  0
LINE
  5
93FD
330
93E0
100
AcDbEntity
  8
4
  6
CENTER
100
AcDbLine
 10
88.25000000000001
 20
1120.900023999998
 30
0.0
 11
88.25000000000001
 21
100.9000019999999
 31
0.0
  0
LINE
  5
93FE
330
93E0
100
AcDbEntity
  8
1
  6
Continuous
100
AcDbLine
 10
25.0
 20
1110.900023999998
 30
0.0
 11
31.5
 21
1110.900023999998
 31
0.0
  0
LINE
  5
93FF
330
93E0
100
AcDbEntity
  8
4
  6
CENTER
100
AcDbLine
 10
28.25
 20
1120.900023999998
 30
0.0
 11
28.25
 21
100.9000019999999
 31
0.0
  0
LINE
  5
9400
330
93E0
100
AcDbEntity
  8
3
  6
DASHED
100
AcDbLine
 10
30.0
 20
1110.900023999998
 30
0.0
 11
30.0
 21
110.900002
 31
0.0
  0
LINE
  5
9401
330
93E0
100
AcDbEntity
  8
1
  6
Continuous
100
AcDbLine
 10
25.0
 20
110.900002
 30
0.0
 11
31.5
 21
110.900002
 31
0.0
  0
LINE
  5
9402
330
93E0
100
AcDbEntity
  8
3
  6
DASHED
100
AcDbLine
 10
90.0
 20
1110.900023999998
 30
0.0
 11
90.0
 21
110.900002
 31
0.0
  0
LINE
  5
9403
330
93E0
100
AcDbEntity
  8
3
  6
DASHED
100
AcDbLine
 10
86.5
 20
1110.900023999998
 30
0.0
 11
86.5
 21
110.900002
 31
0.0
  0
LINE
  5
9404
330
93E0
100
AcDbEntity
  8
1
  6
Continuous
100
AcDbLine
 10
104.2499999999999
 20
42.5
 30
0.0
 11
104.2499999999999
 21
41.0
 31
0.0
  0
LINE
  5
9405
330
93E0
100
AcDbEntity
  8
1
  6
Continuous
100
AcDbLine
 10
72.25
 20
42.5
 30
0.0
 11
72.25
 21
41.0
 31
0.0
  0
LINE
  5
9406
330
93E0
100
AcDbEntity
  8
1
  6
Continuous
100
AcDbLine
 10
104.2499999999999
 20
42.5
 30
0.0
 11
90.988609
 21
42.5
 31
0.0
  0
LINE
  5
9407
330
93E0
100
AcDbEntity
  8
1
  6
Continuous
100
AcDbLine
 10
88.25000000000001
 20
42.5
 30
0.0
 11
72.25
 21
42.5
 31
0.0
  0
LINE
  5
9408
330
93E0
100
AcDbEntity
  8
1
  6
Continuous
100
AcDbLine
 10
84.25
 20
150.8999939999999
 30
0.0
 11
84.25
 21
130.8999939999999
 31
0.0
  0
LINE
  5
9409
330
93E0
100
AcDbEntity
  8
1
  6
Continuous
100
AcDbLine
 10
84.25
 20
190.8999939999999
 30
0.0
 11
84.25
 21
170.8999939999999
 31
0.0
  0
LINE
  5
940A
330
93E0
100
AcDbEntity
  8
1
  6
Continuous
100
AcDbLine
 10
92.24999999999999
 20
130.8999939999999
 30
0.0
 11
92.24999999999999
 21
110.900002
 31
0.0
  0
LINE
  5
940B
330
93E0
100
AcDbEntity
  8
1
  6
Continuous
100
AcDbLine
 10
92.24999999999999
 20
170.8999939999999
 30
0.0
 11
92.24999999999999
 21
150.8999939999999
 31
0.0
  0
LINE
  5
940C
330
93E0
100
AcDbEntity
  8
1
  6
Continuous
100
AcDbLine
 10
92.24999999999999
 20
210.8999939999999
 30
0.0
 11
92.24999999999999
 21
190.8999939999999
 31
0.0
  0
LINE
  5
940D
330
93E0
100
AcDbEntity
  8
1
  6
Continuous
100
AcDbLine
 10
92.24999999999999
 20
250.8999939999999
 30
0.0
 11
92.24999999999999
 21
230.899994
 31
0.0
  0
LINE
  5
940E
330
93E0
100
AcDbEntity
  8
1
  6
Continuous
100
AcDbLine
 10
84.25
 20
230.899994
 30
0.0
 11
84.25
 21
210.8999939999999
 31
0.0
  0
LINE
  5
940F
330
93E0
100
AcDbEntity
  8
1
  6
Continuous
100
AcDbLine
 10
84.25
 20
270.8999939999998
 30
0.0
 11
84.25
 21
250.8999939999999
 31
0.0
  0
LINE
  5
9410
330
93E0
100
AcDbEntity
  8
1
  6
Continuous
100
AcDbLine
 10
92.24999999999999
 20
290.899994
 30
0.0
 11
92.24999999999999
 21
270.8999939999998
 31
0.0
  0
LINE
  5
9411
330
93E0
100
AcDbEntity
  8
1
  6
Continuous
100
AcDbLine
 10
84.25
 20
310.8999939999999
 30
0.0
 11
84.25
 21
290.899994
 31
0.0
  0
LINE
  5
9412
330
93E0
100
AcDbEntity
  8
1
  6
Continuous
100
AcDbLine
 10
92.24999999999999
 20
330.899994
 30
0.0
 11
92.24999999999999
 21
310.8999939999999
 31
0.0
  0
LINE
  5
9413
330
93E0
100
AcDbEntity
  8
1
  6
Continuous
100
AcDbLine
 10
84.25
 20
350.8999939999998
 30
0.0
 11
84.25
 21
330.899994
 31
0.0
  0
LINE
  5
9414
330
93E0
100
AcDbEntity
  8
1
  6
Continuous
100
AcDbLine
 10
92.24999999999999
 20
370.8999939999998
 30
0.0
 11
92.24999999999999
 21
350.8999939999998
 31
0.0
  0
LINE
  5
9415
330
93E0
100
AcDbEntity
  8
1
  6
Continuous
100
AcDbLine
 10
84.25
 20
390.899994
 30
0.0
 11
84.25
 21
370.8999939999998
 31
0.0
  0
LINE
  5
9416
330
93E0
100
AcDbEntity
  8
1
  6
Continuous
100
AcDbLine
 10
92.24999999999999
 20
410.899994
 30
0.0
 11
92.24999999999999
 21
390.899994
 31
0.0
  0
LINE
  5
9417
330
93E0
100
AcDbEntity
  8
1
  6
Continuous
100
AcDbLine
 10
84.25
 20
430.8999939999998
 30
0.0
 11
84.25
 21
410.899994
 31
0.0
  0
LINE
  5
9418
330
93E0
100
AcDbEntity
  8
1
  6
Continuous
100
AcDbLine
 10
92.24999999999999
 20
450.8999939999998
 30
0.0
 11
92.24999999999999
 21
430.8999939999998
 31
0.0
  0
LINE
  5
9419
330
93E0
100
AcDbEntity
  8
1
  6
Continuous
100
AcDbLine
 10
84.25
 20
470.8999939999998
 30
0.0
 11
84.25
 21
450.8999939999998
 31
0.0
  0
LINE
  5
941A
330
93E0
100
AcDbEntity
  8
1
  6
Continuous
100
AcDbLine
 10
92.24999999999999
 20
490.899994
 30
0.0
 11
92.24999999999999
 21
470.8999939999998
 31
0.0
  0
LINE
  5
941B
330
93E0
100
AcDbEntity
  8
1
  6
Continuous
100
AcDbLine
 10
84.25
 20
510.899994
 30
0.0
 11
84.25
 21
490.899994
 31
0.0
  0
LINE
  5
941C
330
93E0
100
AcDbEntity
  8
1
  6
Continuous
100
AcDbLine
 10
92.24999999999999
 20
530.900024
 30
0.0
 11
92.24999999999999
 21
510.899994
 31
0.0
  0
LINE
  5
941D
330
93E0
100
AcDbEntity
  8
1
  6
Continuous
100
AcDbLine
 10
84.25
 20
550.900024
 30
0.0
 11
84.25
 21
530.900024
 31
0.0
  0
LINE
  5
941E
330
93E0
100
AcDbEntity
  8
1
  6
Continuous
100
AcDbLine
 10
92.24999999999999
 20
570.900024
 30
0.0
 11
92.24999999999999
 21
550.900024
 31
0.0
  0
LINE
  5
941F
330
93E0
100
AcDbEntity
  8
1
  6
Continuous
100
AcDbLine
 10
84.25
 20
590.900024
 30
0.0
 11
84.25
 21
570.900024
 31
0.0
  0
LINE
  5
9420
330
93E0
100
AcDbEntity
  8
1
  6
Continuous
100
AcDbLine
 10
92.24999999999999
 20
610.900024
 30
0.0
 11
92.24999999999999
 21
590.900024
 31
0.0
  0
LINE
  5
9421
330
93E0
100
AcDbEntity
  8
1
  6
Continuous
100
AcDbLine
 10
84.25
 20
630.900024
 30
0.0
 11
84.25
 21
610.900024
 31
0.0
  0
LINE
  5
9422
330
93E0
100
AcDbEntity
  8
1
  6
Continuous
100
AcDbLine
 10
92.24999999999999
 20
650.900024
 30
0.0
 11
92.24999999999999
 21
630.900024
 31
0.0
  0
LINE
  5
9423
330
93E0
100
AcDbEntity
  8
1
  6
Continuous
100
AcDbLine
 10
84.25
 20
670.900024
 30
0.0
 11
84.25
 21
650.900024
 31
0.0
  0
LINE
  5
9424
330
93E0
100
AcDbEntity
  8
1
  6
Continuous
100
AcDbLine
 10
92.24999999999999
 20
690.900024
 30
0.0
 11
92.24999999999999
 21
670.900024
 31
0.0
  0
LINE
  5
9425
330
93E0
100
AcDbEntity
  8
1
  6
Continuous
100
AcDbLine
 10
84.25
 20
710.900024
 30
0.0
 11
84.25
 21
690.900024
 31
0.0
  0
LINE
  5
9426
330
93E0
100
AcDbEntity
  8
1
  6
Continuous
100
AcDbLine
 10
92.24999999999999
 20
730.900024
 30
0.0
 11
92.24999999999999
 21
710.900024
 31
0.0
  0
LINE
  5
9427
330
93E0
100
AcDbEntity
  8
1
  6
Continuous
100
AcDbLine
 10
84.25
 20
750.900024
 30
0.0
 11
84.25
 21
730.900024
 31
0.0
  0
LINE
  5
9428
330
93E0
100
AcDbEntity
  8
1
  6
Continuous
100
AcDbLine
 10
92.24999999999999
 20
770.900024
 30
0.0
 11
92.24999999999999
 21
750.900024
 31
0.0
  0
LINE
  5
9429
330
93E0
100
AcDbEntity
  8
1
  6
Continuous
100
AcDbLine
 10
84.25
 20
790.900024
 30
0.0
 11
84.25
 21
770.900024
 31
0.0
  0
LINE
  5
942A
330
93E0
100
AcDbEntity
  8
1
  6
Continuous
100
AcDbLine
 10
92.24999999999999
 20
810.900024
 30
0.0
 11
92.24999999999999
 21
790.900024
 31
0.0
  0
LINE
  5
942B
330
93E0
100
AcDbEntity
  8
1
  6
Continuous
100
AcDbLine
 10
84.25
 20
830.9000239999997
 30
0.0
 11
84.25
 21
810.900024
 31
0.0
  0
LINE
  5
942C
330
93E0
100
AcDbEntity
  8
1
  6
Continuous
100
AcDbLine
 10
84.25
 20
870.9000239999996
 30
0.0
 11
84.25
 21
850.900024
 31
0.0
  0
LINE
  5
942D
330
93E0
100
AcDbEntity
  8
1
  6
Continuous
100
AcDbLine
 10
92.24999999999999
 20
850.900024
 30
0.0
 11
92.24999999999999
 21
830.9000239999997
 31
0.0
  0
LINE
  5
942E
330
93E0
100
AcDbEntity
  8
1
  6
Continuous
100
AcDbLine
 10
92.24999999999999
 20
890.9000240000001
 30
0.0
 11
92.24999999999999
 21
870.9000239999996
 31
0.0
  0
LINE
  5
942F
330
93E0
100
AcDbEntity
  8
1
  6
Continuous
100
AcDbLine
 10
92.24999999999999
 20
930.9000240000001
 30
0.0
 11
92.24999999999999
 21
910.900024
 31
0.0
  0
LINE
  5
9430
330
93E0
100
AcDbEntity
  8
1
  6
Continuous
100
AcDbLine
 10
84.25
 20
910.900024
 30
0.0
 11
84.25
 21
890.9000240000001
 31
0.0
  0
LINE
  5
9431
330
93E0
100
AcDbEntity
  8
1
  6
Continuous
100
AcDbLine
 10
84.25
 20
950.900024
 30
0.0
 11
84.25
 21
930.9000240000001
 31
0.0
  0
LINE
  5
9432
330
93E0
100
AcDbEntity
  8
1
  6
Continuous
100
AcDbLine
 10
92.24999999999999
 20
970.9000239999999
 30
0.0
 11
92.24999999999999
 21
950.900024
 31
0.0
  0
LINE
  5
9433
330
93E0
100
AcDbEntity
  8
1
  6
Continuous
100
AcDbLine
 10
84.25
 20
990.9000240000001
 30
0.0
 11
84.25
 21
970.9000239999999
 31
0.0
  0
LINE
  5
9434
330
93E0
100
AcDbEntity
  8
1
  6
Continuous
100
AcDbLine
 10
92.24999999999999
 20
1010.900024
 30
0.0
 11
92.24999999999999
 21
990.9000240000001
 31
0.0
  0
LINE
  5
9435
330
93E0
100
AcDbEntity
  8
1
  6
Continuous
100
AcDbLine
 10
84.25
 20
1030.900024
 30
0.0
 11
84.25
 21
1010.900024
 31
0.0
  0
LINE
  5
9436
330
93E0
100
AcDbEntity
  8
1
  6
Continuous
100
AcDbLine
 10
92.24999999999999
 20
1050.900024
 30
0.0
 11
92.24999999999999
 21
1030.900024
 31
0.0
  0
LINE
  5
9437
330
93E0
100
AcDbEntity
  8
1
  6
Continuous
100
AcDbLine
 10
84.25
 20
1070.900023999998
 30
0.0
 11
84.25
 21
1050.900024
 31
0.0
  0
LINE
  5
9438
330
93E0
100
AcDbEntity
  8
1
  6
Continuous
100
AcDbLine
 10
92.24999999999999
 20
1090.900024
 30
0.0
 11
92.24999999999999
 21
1070.900023999998
 31
0.0
  0
LINE
  5
9439
330
93E0
100
AcDbEntity
  8
1
  6
Continuous
100
AcDbLine
 10
92.24999999999999
 20
110.900002
 30
0.0
 11
104.2499999999999
 21
110.900002
 31
0.0
  0
LINE
  5
943A
330
93E0
100
AcDbEntity
  8
1
  6
Continuous
100
AcDbLine
 10
85.0
 20
1110.900023999998
 30
0.0
 11
104.2499999999999
 21
1110.900023999998
 31
0.0
  0
LINE
  5
943B
330
93E0
100
AcDbEntity
  8
4
  6
CENTER
100
AcDbLine
 10
88.25000000000001
 20
52.599998
 30
0.0
 11
88.25000000000001
 21
35.900002
 31
0.0
  0
LINE
  5
943C
330
93E0
100
AcDbEntity
  8
4
  6
CENTER
100
AcDbLine
 10
96.59999800000001
 20
44.24999999999999
 30
0.0
 11
79.900002
 21
44.24999999999999
 31
0.0
  0
LINE
  5
943D
330
93E0
100
AcDbEntity
  8
1
  6
Continuous
100
AcDbLine
 10
92.24999999999999
 20
42.5
 30
0.0
 11
92.24999999999999
 21
41.0
 31
0.0
  0
LINE
  5
943E
330
93E0
100
AcDbEntity
  8
1
  6
Continuous
100
AcDbLine
 10
72.25
 20
1179.300048999998
 30
0.0
 11
72.25
 21
1180.800048999999
 31
0.0
  0
LINE
  5
943F
330
93E0
100
AcDbEntity
  8
1
  6
Continuous
100
AcDbLine
 10
104.2499999999999
 20
1179.300048999998
 30
0.0
 11
104.2499999999999
 21
1180.800048999999
 31
0.0
  0
LINE
  5
9440
330
93E0
100
AcDbEntity
  8
1
  6
Continuous
100
AcDbLine
 10
72.25
 20
1179.300048999998
 30
0.0
 11
85.511391
 21
1179.300048999998
 31
0.0
  0
LINE
  5
9441
330
93E0
100
AcDbEntity
  8
1
  6
Continuous
100
AcDbLine
 10
88.25000000000001
 20
1179.300048999998
 30
0.0
 11
104.2499999999999
 21
1179.300048999998
 31
0.0
  0
LINE
  5
9442
330
93E0
100
AcDbEntity
  8
4
  6
CENTER
100
AcDbLine
 10
79.900002
 20
1177.550048999999
 30
0.0
 11
96.59999800000001
 21
1177.550048999999
 31
0.0
  0
LINE
  5
9443
330
93E0
100
AcDbEntity
  8
4
  6
CENTER
100
AcDbLine
 10
88.25000000000001
 20
1169.199951
 30
0.0
 11
88.25000000000001
 21
1185.900024
 31
0.0
  0
LINE
  5
9444
330
93E0
100
AcDbEntity
  8
1
  6
Continuous
100
AcDbLine
 10
84.25
 20
1179.300048999998
 30
0.0
 11
84.25
 21
1180.800048999999
 31
0.0
  0
LINE
  5
9445
330
93E0
100
AcDbEntity
  8
1
  6
Continuous
100
AcDbLine
 10
104.2499999999999
 20
41.0
 30
0.0
 11
72.25
 21
41.0
 31
0.0
  0
LINE
  5
9446
330
93E0
100
AcDbEntity
  8
1
  6
Continuous
100
AcDbLine
 10
86.77535999999998
 20
43.307693
 30
0.0
 11
85.511391
 21
42.5
 31
0.0
  0
LINE
  5
9447
330
93E0
100
AcDbEntity
  8
1
  6
Continuous
100
AcDbLine
 10
85.0
 20
1110.900023999998
 30
0.0
 11
85.0
 21
110.900002
 31
0.0
  0
LINE
  5
9448
330
93E0
100
AcDbEntity
  8
1
  6
Continuous
100
AcDbLine
 10
91.5
 20
1110.900023999998
 30
0.0
 11
91.5
 21
110.900002
 31
0.0
  0
LINE
  5
9449
330
93E0
100
AcDbEntity
  8
1
  6
Continuous
100
AcDbLine
 10
25.0
 20
1110.900023999998
 30
0.0
 11
25.0
 21
110.900002
 31
0.0
  0
LINE
  5
944A
330
93E0
100
AcDbEntity
  8
1
  6
Continuous
100
AcDbLine
 10
26.5
 20
1110.900023999998
 30
0.0
 11
26.5
 21
110.900002
 31
0.0
  0
LINE
  5
944B
330
93E0
100
AcDbEntity
  8
1
  6
Continuous
100
AcDbLine
 10
31.5
 20
1110.900023999998
 30
0.0
 11
31.5
 21
110.900002
 31
0.0
  0
LINE
  5
944C
330
93E0
100
AcDbEntity
  8
1
  6
Continuous
100
AcDbLine
 10
72.25
 20
1180.800048999999
 30
0.0
 11
104.2499999999999
 21
1180.800048999999
 31
0.0
  0
LINE
  5
944D
330
93E0
100
AcDbEntity
  8
1
  6
Continuous
100
AcDbLine
 10
90.988609
 20
1179.300048999998
 30
0.0
 11
89.72463999999998
 21
1178.492309999999
 31
0.0
  0
LINE
  5
944E
330
93E0
100
AcDbEntity
  8
5
  6
PHANTOM
100
AcDbLine
 10
91.5
 20
28.25
 30
0.0
 11
90.0
 21
28.25
 31
0.0
  0
LINE
  5
944F
330
93E0
100
AcDbEntity
  8
5
  6
PHANTOM
100
AcDbLine
 10
90.0
 20
28.25
 30
0.0
 11
90.0
 21
41.0
 31
0.0
  0
LINE
  5
9450
330
93E0
100
AcDbEntity
  8
5
  6
PHANTOM
100
AcDbLine
 10
91.5
 20
28.25
 30
0.0
 11
91.5
 21
41.0
 31
0.0
  0
LINE
  5
9451
330
93E0
100
AcDbEntity
  8
5
  6
PHANTOM
100
AcDbLine
 10
91.5
 20
1193.550048999999
 30
0.0
 11
90.0
 21
1193.550048999999
 31
0.0
  0
LINE
  5
9452
330
93E0
100
AcDbEntity
  8
5
  6
PHANTOM
100
AcDbLine
 10
91.5
 20
1180.800048999999
 30
0.0
 11
91.5
 21
1193.550048999999
 31
0.0
  0
LINE
  5
9453
330
93E0
100
AcDbEntity
  8
5
  6
PHANTOM
100
AcDbLine
 10
90.0
 20
1180.800048999999
 30
0.0
 11
90.0
 21
1193.550048999999
 31
0.0
  0
LINE
  5
9454
330
93E0
100
AcDbEntity
  8
1
  6
Continuous
100
AcDbLine
 10
26.5
 20
1090.900024
 30
0.0
 11
31.5
 21
1090.900024
 31
0.0
  0
LINE
  5
9455
330
93E0
100
AcDbEntity
  8
1
  6
Continuous
100
AcDbLine
 10
26.5
 20
1070.900023999998
 30
0.0
 11
31.5
 21
1070.900023999998
 31
0.0
  0
LINE
  5
9456
330
93E0
100
AcDbEntity
  8
1
  6
Continuous
100
AcDbLine
 10
26.5
 20
1050.900024
 30
0.0
 11
31.5
 21
1050.900024
 31
0.0
  0
LINE
  5
9457
330
93E0
100
AcDbEntity
  8
1
  6
Continuous
100
AcDbLine
 10
26.5
 20
1030.900024
 30
0.0
 11
31.5
 21
1030.900024
 31
0.0
  0
LINE
  5
9458
330
93E0
100
AcDbEntity
  8
1
  6
Continuous
100
AcDbLine
 10
26.5
 20
1010.900024
 30
0.0
 11
31.5
 21
1010.900024
 31
0.0
  0
LINE
  5
9459
330
93E0
100
AcDbEntity
  8
1
  6
Continuous
100
AcDbLine
 10
26.5
 20
990.9000240000001
 30
0.0
 11
31.5
 21
990.9000240000001
 31
0.0
  0
LINE
  5
945A
330
93E0
100
AcDbEntity
  8
1
  6
Continuous
100
AcDbLine
 10
26.5
 20
970.9000239999999
 30
0.0
 11
31.5
 21
970.9000239999999
 31
0.0
  0
LINE
  5
945B
330
93E0
100
AcDbEntity
  8
1
  6
Continuous
100
AcDbLine
 10
26.5
 20
950.900024
 30
0.0
 11
31.5
 21
950.900024
 31
0.0
  0
LINE
  5
945C
330
93E0
100
AcDbEntity
  8
1
  6
Continuous
100
AcDbLine
 10
26.5
 20
930.9000240000001
 30
0.0
 11
31.5
 21
930.9000240000001
 31
0.0
  0
LINE
  5
945D
330
93E0
100
AcDbEntity
  8
1
  6
Continuous
100
AcDbLine
 10
26.5
 20
910.900024
 30
0.0
 11
31.5
 21
910.900024
 31
0.0
  0
LINE
  5
945E
330
93E0
100
AcDbEntity
  8
1
  6
Continuous
100
AcDbLine
 10
26.5
 20
890.9000240000001
 30
0.0
 11
31.5
 21
890.9000240000001
 31
0.0
  0
LINE
  5
945F
330
93E0
100
AcDbEntity
  8
1
  6
Continuous
100
AcDbLine
 10
26.5
 20
870.9000239999996
 30
0.0
 11
31.5
 21
870.9000239999996
 31
0.0
  0
LINE
  5
9460
330
93E0
100
AcDbEntity
  8
1
  6
Continuous
100
AcDbLine
 10
26.5
 20
850.900024
 30
0.0
 11
31.5
 21
850.900024
 31
0.0
  0
LINE
  5
9461
330
93E0
100
AcDbEntity
  8
1
  6
Continuous
100
AcDbLine
 10
26.5
 20
830.9000239999997
 30
0.0
 11
31.5
 21
830.9000239999997
 31
0.0
  0
LINE
  5
9462
330
93E0
100
AcDbEntity
  8
1
  6
Continuous
100
AcDbLine
 10
26.5
 20
810.900024
 30
0.0
 11
31.5
 21
810.900024
 31
0.0
  0
LINE
  5
9463
330
93E0
100
AcDbEntity
  8
1
  6
Continuous
100
AcDbLine
 10
26.5
 20
790.900024
 30
0.0
 11
31.5
 21
790.900024
 31
0.0
  0
LINE
  5
9464
330
93E0
100
AcDbEntity
  8
1
  6
Continuous
100
AcDbLine
 10
26.5
 20
770.900024
 30
0.0
 11
31.5
 21
770.900024
 31
0.0
  0
LINE
  5
9465
330
93E0
100
AcDbEntity
  8
1
  6
Continuous
100
AcDbLine
 10
26.5
 20
750.900024
 30
0.0
 11
31.5
 21
750.900024
 31
0.0
  0
LINE
  5
9466
330
93E0
100
AcDbEntity
  8
1
  6
Continuous
100
AcDbLine
 10
26.5
 20
730.900024
 30
0.0
 11
31.5
 21
730.900024
 31
0.0
  0
LINE
  5
9467
330
93E0
100
AcDbEntity
  8
1
  6
Continuous
100
AcDbLine
 10
26.5
 20
710.900024
 30
0.0
 11
31.5
 21
710.900024
 31
0.0
  0
LINE
  5
9468
330
93E0
100
AcDbEntity
  8
1
  6
Continuous
100
AcDbLine
 10
26.5
 20
690.900024
 30
0.0
 11
31.5
 21
690.900024
 31
0.0
  0
LINE
  5
9469
330
93E0
100
AcDbEntity
  8
1
  6
Continuous
100
AcDbLine
 10
26.5
 20
670.900024
 30
0.0
 11
31.5
 21
670.900024
 31
0.0
  0
LINE
  5
946A
330
93E0
100
AcDbEntity
  8
1
  6
Continuous
100
AcDbLine
 10
26.5
 20
650.900024
 30
0.0
 11
31.5
 21
650.900024
 31
0.0
  0
LINE
  5
946B
330
93E0
100
AcDbEntity
  8
1
  6
Continuous
100
AcDbLine
 10
26.5
 20
630.900024
 30
0.0
 11
31.5
 21
630.900024
 31
0.0
  0
LINE
  5
946C
330
93E0
100
AcDbEntity
  8
1
  6
Continuous
100
AcDbLine
 10
26.5
 20
610.900024
 30
0.0
 11
31.5
 21
610.900024
 31
0.0
  0
LINE
  5
946D
330
93E0
100
AcDbEntity
  8
1
  6
Continuous
100
AcDbLine
 10
26.5
 20
590.900024
 30
0.0
 11
31.5
 21
590.900024
 31
0.0
  0
LINE
  5
946E
330
93E0
100
AcDbEntity
  8
1
  6
Continuous
100
AcDbLine
 10
26.5
 20
570.900024
 30
0.0
 11
31.5
 21
570.900024
 31
0.0
  0
LINE
  5
946F
330
93E0
100
AcDbEntity
  8
1
  6
Continuous
100
AcDbLine
 10
26.5
 20
550.900024
 30
0.0
 11
31.5
 21
550.900024
 31
0.0
  0
LINE
  5
9470
330
93E0
100
AcDbEntity
  8
1
  6
Continuous
100
AcDbLine
 10
26.5
 20
530.900024
 30
0.0
 11
31.5
 21
530.900024
 31
0.0
  0
LINE
  5
9471
330
93E0
100
AcDbEntity
  8
1
  6
Continuous
100
AcDbLine
 10
26.5
 20
510.899994
 30
0.0
 11
31.5
 21
510.899994
 31
0.0
  0
LINE
  5
9472
330
93E0
100
AcDbEntity
  8
1
  6
Continuous
100
AcDbLine
 10
26.5
 20
490.899994
 30
0.0
 11
31.5
 21
490.899994
 31
0.0
  0
LINE
  5
9473
330
93E0
100
AcDbEntity
  8
1
  6
Continuous
100
AcDbLine
 10
26.5
 20
470.8999939999998
 30
0.0
 11
31.5
 21
470.8999939999998
 31
0.0
  0
LINE
  5
9474
330
93E0
100
AcDbEntity
  8
1
  6
Continuous
100
AcDbLine
 10
26.5
 20
450.8999939999998
 30
0.0
 11
31.5
 21
450.8999939999998
 31
0.0
  0
LINE
  5
9475
330
93E0
100
AcDbEntity
  8
1
  6
Continuous
100
AcDbLine
 10
26.5
 20
430.8999939999998
 30
0.0
 11
31.5
 21
430.8999939999998
 31
0.0
  0
LINE
  5
9476
330
93E0
100
AcDbEntity
  8
1
  6
Continuous
100
AcDbLine
 10
26.5
 20
410.899994
 30
0.0
 11
31.5
 21
410.899994
 31
0.0
  0
LINE
  5
9477
330
93E0
100
AcDbEntity
  8
1
  6
Continuous
100
AcDbLine
 10
26.5
 20
390.899994
 30
0.0
 11
31.5
 21
390.899994
 31
0.0
  0
LINE
  5
9478
330
93E0
100
AcDbEntity
  8
1
  6
Continuous
100
AcDbLine
 10
26.5
 20
370.8999939999998
 30
0.0
 11
31.5
 21
370.8999939999998
 31
0.0
  0
LINE
  5
9479
330
93E0
100
AcDbEntity
  8
1
  6
Continuous
100
AcDbLine
 10
26.5
 20
350.8999939999998
 30
0.0
 11
31.5
 21
350.8999939999998
 31
0.0
  0
LINE
  5
947A
330
93E0
100
AcDbEntity
  8
1
  6
Continuous
100
AcDbLine
 10
26.5
 20
330.899994
 30
0.0
 11
31.5
 21
330.899994
 31
0.0
  0
LINE
  5
947B
330
93E0
100
AcDbEntity
  8
1
  6
Continuous
100
AcDbLine
 10
26.5
 20
310.8999939999999
 30
0.0
 11
31.5
 21
310.8999939999999
 31
0.0
  0
LINE
  5
947C
330
93E0
100
AcDbEntity
  8
1
  6
Continuous
100
AcDbLine
 10
26.5
 20
290.899994
 30
0.0
 11
31.5
 21
290.899994
 31
0.0
  0
LINE
  5
947D
330
93E0
100
AcDbEntity
  8
1
  6
Continuous
100
AcDbLine
 10
26.5
 20
270.8999939999998
 30
0.0
 11
31.5
 21
270.8999939999998
 31
0.0
  0
LINE
  5
947E
330
93E0
100
AcDbEntity
  8
1
  6
Continuous
100
AcDbLine
 10
26.5
 20
250.8999939999999
 30
0.0
 11
31.5
 21
250.8999939999999
 31
0.0
  0
LINE
  5
947F
330
93E0
100
AcDbEntity
  8
1
  6
Continuous
100
AcDbLine
 10
26.5
 20
230.899994
 30
0.0
 11
31.5
 21
230.899994
 31
0.0
  0
LINE
  5
9480
330
93E0
100
AcDbEntity
  8
1
  6
Continuous
100
AcDbLine
 10
26.5
 20
210.8999939999999
 30
0.0
 11
31.5
 21
210.8999939999999
 31
0.0
  0
LINE
  5
9481
330
93E0
100
AcDbEntity
  8
1
  6
Continuous
100
AcDbLine
 10
26.5
 20
190.8999939999999
 30
0.0
 11
31.5
 21
190.8999939999999
 31
0.0
  0
LINE
  5
9482
330
93E0
100
AcDbEntity
  8
1
  6
Continuous
100
AcDbLine
 10
26.5
 20
170.8999939999999
 30
0.0
 11
31.5
 21
170.8999939999999
 31
0.0
  0
LINE
  5
9483
330
93E0
100
AcDbEntity
  8
1
  6
Continuous
100
AcDbLine
 10
26.5
 20
150.8999939999999
 30
0.0
 11
31.5
 21
150.8999939999999
 31
0.0
  0
LINE
  5
9484
330
93E0
100
AcDbEntity
  8
1
  6
Continuous
100
AcDbLine
 10
26.5
 20
130.8999939999999
 30
0.0
 11
31.5
 21
130.8999939999999
 31
0.0
  0
LINE
  5
9485
330
93E0
100
AcDbEntity
  8
1
  6
Continuous
100
AcDbLine
 10
84.25
 20
1090.900024
 30
0.0
 11
92.24999999999999
 21
1090.900024
 31
0.0
  0
LINE
  5
9486
330
93E0
100
AcDbEntity
  8
1
  6
Continuous
100
AcDbLine
 10
84.25
 20
1070.900023999998
 30
0.0
 11
92.24999999999999
 21
1070.900023999998
 31
0.0
  0
LINE
  5
9487
330
93E0
100
AcDbEntity
  8
1
  6
Continuous
100
AcDbLine
 10
84.25
 20
1050.900024
 30
0.0
 11
92.24999999999999
 21
1050.900024
 31
0.0
  0
LINE
  5
9488
330
93E0
100
AcDbEntity
  8
1
  6
Continuous
100
AcDbLine
 10
84.25
 20
1030.900024
 30
0.0
 11
92.24999999999999
 21
1030.900024
 31
0.0
  0
LINE
  5
9489
330
93E0
100
AcDbEntity
  8
1
  6
Continuous
100
AcDbLine
 10
84.25
 20
1010.900024
 30
0.0
 11
92.24999999999999
 21
1010.900024
 31
0.0
  0
LINE
  5
948A
330
93E0
100
AcDbEntity
  8
1
  6
Continuous
100
AcDbLine
 10
84.25
 20
990.9000240000001
 30
0.0
 11
92.24999999999999
 21
990.9000240000001
 31
0.0
  0
LINE
  5
948B
330
93E0
100
AcDbEntity
  8
1
  6
Continuous
100
AcDbLine
 10
84.25
 20
970.9000239999999
 30
0.0
 11
92.24999999999999
 21
970.9000239999999
 31
0.0
  0
LINE
  5
948C
330
93E0
100
AcDbEntity
  8
1
  6
Continuous
100
AcDbLine
 10
84.25
 20
950.900024
 30
0.0
 11
92.24999999999999
 21
950.900024
 31
0.0
  0
LINE
  5
948D
330
93E0
100
AcDbEntity
  8
1
  6
Continuous
100
AcDbLine
 10
84.25
 20
930.9000240000001
 30
0.0
 11
92.24999999999999
 21
930.9000240000001
 31
0.0
  0
LINE
  5
948E
330
93E0
100
AcDbEntity
  8
1
  6
Continuous
100
AcDbLine
 10
84.25
 20
910.900024
 30
0.0
 11
92.24999999999999
 21
910.900024
 31
0.0
  0
LINE
  5
948F
330
93E0
100
AcDbEntity
  8
1
  6
Continuous
100
AcDbLine
 10
84.25
 20
890.9000240000001
 30
0.0
 11
92.24999999999999
 21
890.9000240000001
 31
0.0
  0
LINE
  5
9490
330
93E0
100
AcDbEntity
  8
1
  6
Continuous
100
AcDbLine
 10
84.25
 20
870.9000239999996
 30
0.0
 11
92.24999999999999
 21
870.9000239999996
 31
0.0
  0
LINE
  5
9491
330
93E0
100
AcDbEntity
  8
1
  6
Continuous
100
AcDbLine
 10
84.25
 20
850.900024
 30
0.0
 11
92.24999999999999
 21
850.900024
 31
0.0
  0
LINE
  5
9492
330
93E0
100
AcDbEntity
  8
1
  6
Continuous
100
AcDbLine
 10
84.25
 20
830.9000239999997
 30
0.0
 11
92.24999999999999
 21
830.9000239999997
 31
0.0
  0
LINE
  5
9493
330
93E0
100
AcDbEntity
  8
1
  6
Continuous
100
AcDbLine
 10
84.25
 20
810.900024
 30
0.0
 11
92.24999999999999
 21
810.900024
 31
0.0
  0
LINE
  5
9494
330
93E0
100
AcDbEntity
  8
1
  6
Continuous
100
AcDbLine
 10
84.25
 20
790.900024
 30
0.0
 11
92.24999999999999
 21
790.900024
 31
0.0
  0
LINE
  5
9495
330
93E0
100
AcDbEntity
  8
1
  6
Continuous
100
AcDbLine
 10
84.25
 20
770.900024
 30
0.0
 11
92.24999999999999
 21
770.900024
 31
0.0
  0
LINE
  5
9496
330
93E0
100
AcDbEntity
  8
1
  6
Continuous
100
AcDbLine
 10
84.25
 20
750.900024
 30
0.0
 11
92.24999999999999
 21
750.900024
 31
0.0
  0
LINE
  5
9497
330
93E0
100
AcDbEntity
  8
1
  6
Continuous
100
AcDbLine
 10
84.25
 20
730.900024
 30
0.0
 11
92.24999999999999
 21
730.900024
 31
0.0
  0
LINE
  5
9498
330
93E0
100
AcDbEntity
  8
1
  6
Continuous
100
AcDbLine
 10
84.25
 20
710.900024
 30
0.0
 11
92.24999999999999
 21
710.900024
 31
0.0
  0
LINE
  5
9499
330
93E0
100
AcDbEntity
  8
1
  6
Continuous
100
AcDbLine
 10
84.25
 20
690.900024
 30
0.0
 11
92.24999999999999
 21
690.900024
 31
0.0
  0
LINE
  5
949A
330
93E0
100
AcDbEntity
  8
1
  6
Continuous
100
AcDbLine
 10
84.25
 20
670.900024
 30
0.0
 11
92.24999999999999
 21
670.900024
 31
0.0
  0
LINE
  5
949B
330
93E0
100
AcDbEntity
  8
1
  6
Continuous
100
AcDbLine
 10
84.25
 20
650.900024
 30
0.0
 11
92.24999999999999
 21
650.900024
 31
0.0
  0
LINE
  5
949C
330
93E0
100
AcDbEntity
  8
1
  6
Continuous
100
AcDbLine
 10
84.25
 20
630.900024
 30
0.0
 11
92.24999999999999
 21
630.900024
 31
0.0
  0
LINE
  5
949D
330
93E0
100
AcDbEntity
  8
1
  6
Continuous
100
AcDbLine
 10
84.25
 20
610.900024
 30
0.0
 11
92.24999999999999
 21
610.900024
 31
0.0
  0
LINE
  5
949E
330
93E0
100
AcDbEntity
  8
1
  6
Continuous
100
AcDbLine
 10
84.25
 20
590.900024
 30
0.0
 11
92.24999999999999
 21
590.900024
 31
0.0
  0
LINE
  5
949F
330
93E0
100
AcDbEntity
  8
1
  6
Continuous
100
AcDbLine
 10
84.25
 20
570.900024
 30
0.0
 11
92.24999999999999
 21
570.900024
 31
0.0
  0
LINE
  5
94A0
330
93E0
100
AcDbEntity
  8
1
  6
Continuous
100
AcDbLine
 10
84.25
 20
550.900024
 30
0.0
 11
92.24999999999999
 21
550.900024
 31
0.0
  0
LINE
  5
94A1
330
93E0
100
AcDbEntity
  8
1
  6
Continuous
100
AcDbLine
 10
84.25
 20
530.900024
 30
0.0
 11
92.24999999999999
 21
530.900024
 31
0.0
  0
LINE
  5
94A2
330
93E0
100
AcDbEntity
  8
1
  6
Continuous
100
AcDbLine
 10
84.25
 20
510.899994
 30
0.0
 11
92.24999999999999
 21
510.899994
 31
0.0
  0
LINE
  5
94A3
330
93E0
100
AcDbEntity
  8
1
  6
Continuous
100
AcDbLine
 10
84.25
 20
490.899994
 30
0.0
 11
92.24999999999999
 21
490.899994
 31
0.0
  0
LINE
  5
94A4
330
93E0
100
AcDbEntity
  8
1
  6
Continuous
100
AcDbLine
 10
84.25
 20
470.8999939999998
 30
0.0
 11
92.24999999999999
 21
470.8999939999998
 31
0.0
  0
LINE
  5
94A5
330
93E0
100
AcDbEntity
  8
1
  6
Continuous
100
AcDbLine
 10
84.25
 20
450.8999939999998
 30
0.0
 11
92.24999999999999
 21
450.8999939999998
 31
0.0
  0
LINE
  5
94A6
330
93E0
100
AcDbEntity
  8
1
  6
Continuous
100
AcDbLine
 10
84.25
 20
430.8999939999998
 30
0.0
 11
92.24999999999999
 21
430.8999939999998
 31
0.0
  0
LINE
  5
94A7
330
93E0
100
AcDbEntity
  8
1
  6
Continuous
100
AcDbLine
 10
84.25
 20
410.899994
 30
0.0
 11
92.24999999999999
 21
410.899994
 31
0.0
  0
LINE
  5
94A8
330
93E0
100
AcDbEntity
  8
1
  6
Continuous
100
AcDbLine
 10
84.25
 20
390.899994
 30
0.0
 11
92.24999999999999
 21
390.899994
 31
0.0
  0
LINE
  5
94A9
330
93E0
100
AcDbEntity
  8
1
  6
Continuous
100
AcDbLine
 10
84.25
 20
370.8999939999998
 30
0.0
 11
92.24999999999999
 21
370.8999939999998
 31
0.0
  0
LINE
  5
94AA
330
93E0
100
AcDbEntity
  8
1
  6
Continuous
100
AcDbLine
 10
84.25
 20
350.8999939999998
 30
0.0
 11
92.24999999999999
 21
350.8999939999998
 31
0.0
  0
LINE
  5
94AB
330
93E0
100
AcDbEntity
  8
1
  6
Continuous
100
AcDbLine
 10
84.25
 20
330.899994
 30
0.0
 11
92.24999999999999
 21
330.899994
 31
0.0
  0
LINE
  5
94AC
330
93E0
100
AcDbEntity
  8
1
  6
Continuous
100
AcDbLine
 10
84.25
 20
310.8999939999999
 30
0.0
 11
92.24999999999999
 21
310.8999939999999
 31
0.0
  0
LINE
  5
94AD
330
93E0
100
AcDbEntity
  8
1
  6
Continuous
100
AcDbLine
 10
84.25
 20
290.899994
 30
0.0
 11
92.24999999999999
 21
290.899994
 31
0.0
  0
LINE
  5
94AE
330
93E0
100
AcDbEntity
  8
1
  6
Continuous
100
AcDbLine
 10
84.25
 20
270.8999939999998
 30
0.0
 11
92.24999999999999
 21
270.8999939999998
 31
0.0
  0
LINE
  5
94AF
330
93E0
100
AcDbEntity
  8
1
  6
Continuous
100
AcDbLine
 10
84.25
 20
250.8999939999999
 30
0.0
 11
92.24999999999999
 21
250.8999939999999
 31
0.0
  0
LINE
  5
94B0
330
93E0
100
AcDbEntity
  8
1
  6
Continuous
100
AcDbLine
 10
84.25
 20
230.899994
 30
0.0
 11
92.24999999999999
 21
230.899994
 31
0.0
  0
LINE
  5
94B1
330
93E0
100
AcDbEntity
  8
1
  6
Continuous
100
AcDbLine
 10
84.25
 20
210.8999939999999
 30
0.0
 11
92.24999999999999
 21
210.8999939999999
 31
0.0
  0
LINE
  5
94B2
330
93E0
100
AcDbEntity
  8
1
  6
Continuous
100
AcDbLine
 10
84.25
 20
190.8999939999999
 30
0.0
 11
92.24999999999999
 21
190.8999939999999
 31
0.0
  0
LINE
  5
94B3
330
93E0
100
AcDbEntity
  8
1
  6
Continuous
100
AcDbLine
 10
84.25
 20
170.8999939999999
 30
0.0
 11
92.24999999999999
 21
170.8999939999999
 31
0.0
  0
LINE
  5
94B4
330
93E0
100
AcDbEntity
  8
1
  6
Continuous
100
AcDbLine
 10
84.25
 20
150.8999939999999
 30
0.0
 11
92.24999999999999
 21
150.8999939999999
 31
0.0
  0
LINE
  5
94B5
330
93E0
100
AcDbEntity
  8
1
  6
Continuous
100
AcDbLine
 10
84.25
 20
130.8999939999999
 30
0.0
 11
92.24999999999999
 21
130.8999939999999
 31
0.0
  0
LINE
  5
94B6
330
93E0
100
AcDbEntity
  8
1
  6
Continuous
100
AcDbLine
 10
151.5
 20
110.900002
 30
0.0
 11
145.0
 21
110.900002
 31
0.0
  0
LINE
  5
94B7
330
93E0
100
AcDbEntity
  8
1
  6
Continuous
100
AcDbLine
 10
150.0
 20
1110.900023999998
 30
0.0
 11
150.0
 21
110.900002
 31
0.0
  0
LINE
  5
94B8
330
93E0
100
AcDbEntity
  8
1
  6
Continuous
100
AcDbLine
 10
151.5
 20
1110.900023999998
 30
0.0
 11
151.5
 21
110.900002
 31
0.0
  0
LINE
  5
94B9
330
93E0
100
AcDbEntity
  8
3
  6
DASHED
100
AcDbLine
 10
146.5
 20
1110.900023999998
 30
0.0
 11
146.5
 21
110.900002
 31
0.0
  0
LINE
  5
94BA
330
93E0
100
AcDbEntity
  8
4
  6
CENTER
100
AcDbLine
 10
148.2499999999998
 20
1120.900023999998
 30
0.0
 11
148.2499999999998
 21
100.9000019999999
 31
0.0
  0
LINE
  5
94BB
330
93E0
100
AcDbEntity
  8
1
  6
Continuous
100
AcDbLine
 10
151.5
 20
1110.900023999998
 30
0.0
 11
145.0
 21
1110.900023999998
 31
0.0
  0
LINE
  5
94BC
330
93E0
100
AcDbEntity
  8
1
  6
Continuous
100
AcDbLine
 10
145.0
 20
1110.900023999998
 30
0.0
 11
145.0
 21
110.900002
 31
0.0
  0
LINE
  5
94BD
330
93E0
100
AcDbEntity
  8
1
  6
Continuous
100
AcDbLine
 10
150.0
 20
130.8999939999999
 30
0.0
 11
145.0
 21
130.8999939999999
 31
0.0
  0
LINE
  5
94BE
330
93E0
100
AcDbEntity
  8
1
  6
Continuous
100
AcDbLine
 10
150.0
 20
230.899994
 30
0.0
 11
145.0
 21
230.899994
 31
0.0
  0
LINE
  5
94BF
330
93E0
100
AcDbEntity
  8
1
  6
Continuous
100
AcDbLine
 10
150.0
 20
150.8999939999999
 30
0.0
 11
145.0
 21
150.8999939999999
 31
0.0
  0
LINE
  5
94C0
330
93E0
100
AcDbEntity
  8
1
  6
Continuous
100
AcDbLine
 10
150.0
 20
190.8999939999999
 30
0.0
 11
145.0
 21
190.8999939999999
 31
0.0
  0
LINE
  5
94C1
330
93E0
100
AcDbEntity
  8
1
  6
Continuous
100
AcDbLine
 10
150.0
 20
170.8999939999999
 30
0.0
 11
145.0
 21
170.8999939999999
 31
0.0
  0
LINE
  5
94C2
330
93E0
100
AcDbEntity
  8
1
  6
Continuous
100
AcDbLine
 10
150.0
 20
250.8999939999999
 30
0.0
 11
145.0
 21
250.8999939999999
 31
0.0
  0
LINE
  5
94C3
330
93E0
100
AcDbEntity
  8
1
  6
Continuous
100
AcDbLine
 10
150.0
 20
210.8999939999999
 30
0.0
 11
145.0
 21
210.8999939999999
 31
0.0
  0
LINE
  5
94C4
330
93E0
100
AcDbEntity
  8
1
  6
Continuous
100
AcDbLine
 10
150.0
 20
370.8999939999998
 30
0.0
 11
145.0
 21
370.8999939999998
 31
0.0
  0
LINE
  5
94C5
330
93E0
100
AcDbEntity
  8
1
  6
Continuous
100
AcDbLine
 10
150.0
 20
330.899994
 30
0.0
 11
145.0
 21
330.899994
 31
0.0
  0
LINE
  5
94C6
330
93E0
100
AcDbEntity
  8
1
  6
Continuous
100
AcDbLine
 10
150.0
 20
270.8999939999998
 30
0.0
 11
145.0
 21
270.8999939999998
 31
0.0
  0
LINE
  5
94C7
330
93E0
100
AcDbEntity
  8
1
  6
Continuous
100
AcDbLine
 10
150.0
 20
350.8999939999998
 30
0.0
 11
145.0
 21
350.8999939999998
 31
0.0
  0
LINE
  5
94C8
330
93E0
100
AcDbEntity
  8
1
  6
Continuous
100
AcDbLine
 10
150.0
 20
290.899994
 30
0.0
 11
145.0
 21
290.899994
 31
0.0
  0
LINE
  5
94C9
330
93E0
100
AcDbEntity
  8
1
  6
Continuous
100
AcDbLine
 10
150.0
 20
310.8999939999999
 30
0.0
 11
145.0
 21
310.8999939999999
 31
0.0
  0
LINE
  5
94CA
330
93E0
100
AcDbEntity
  8
1
  6
Continuous
100
AcDbLine
 10
150.0
 20
470.8999939999998
 30
0.0
 11
145.0
 21
470.8999939999998
 31
0.0
  0
LINE
  5
94CB
330
93E0
100
AcDbEntity
  8
1
  6
Continuous
100
AcDbLine
 10
150.0
 20
390.899994
 30
0.0
 11
145.0
 21
390.899994
 31
0.0
  0
LINE
  5
94CC
330
93E0
100
AcDbEntity
  8
1
  6
Continuous
100
AcDbLine
 10
150.0
 20
430.8999939999998
 30
0.0
 11
145.0
 21
430.8999939999998
 31
0.0
  0
LINE
  5
94CD
330
93E0
100
AcDbEntity
  8
1
  6
Continuous
100
AcDbLine
 10
150.0
 20
410.899994
 30
0.0
 11
145.0
 21
410.899994
 31
0.0
  0
LINE
  5
94CE
330
93E0
100
AcDbEntity
  8
1
  6
Continuous
100
AcDbLine
 10
150.0
 20
490.899994
 30
0.0
 11
145.0
 21
490.899994
 31
0.0
  0
LINE
  5
94CF
330
93E0
100
AcDbEntity
  8
1
  6
Continuous
100
AcDbLine
 10
150.0
 20
450.8999939999998
 30
0.0
 11
145.0
 21
450.8999939999998
 31
0.0
  0
LINE
  5
94D0
330
93E0
100
AcDbEntity
  8
1
  6
Continuous
100
AcDbLine
 10
150.0
 20
590.900024
 30
0.0
 11
145.0
 21
590.900024
 31
0.0
  0
LINE
  5
94D1
330
93E0
100
AcDbEntity
  8
1
  6
Continuous
100
AcDbLine
 10
150.0
 20
510.899994
 30
0.0
 11
145.0
 21
510.899994
 31
0.0
  0
LINE
  5
94D2
330
93E0
100
AcDbEntity
  8
1
  6
Continuous
100
AcDbLine
 10
150.0
 20
550.900024
 30
0.0
 11
145.0
 21
550.900024
 31
0.0
  0
LINE
  5
94D3
330
93E0
100
AcDbEntity
  8
1
  6
Continuous
100
AcDbLine
 10
150.0
 20
530.900024
 30
0.0
 11
145.0
 21
530.900024
 31
0.0
  0
LINE
  5
94D4
330
93E0
100
AcDbEntity
  8
1
  6
Continuous
100
AcDbLine
 10
150.0
 20
610.900024
 30
0.0
 11
145.0
 21
610.900024
 31
0.0
  0
LINE
  5
94D5
330
93E0
100
AcDbEntity
  8
1
  6
Continuous
100
AcDbLine
 10
150.0
 20
570.900024
 30
0.0
 11
145.0
 21
570.900024
 31
0.0
  0
LINE
  5
94D6
330
93E0
100
AcDbEntity
  8
1
  6
Continuous
100
AcDbLine
 10
150.0
 20
730.900024
 30
0.0
 11
145.0
 21
730.900024
 31
0.0
  0
LINE
  5
94D7
330
93E0
100
AcDbEntity
  8
1
  6
Continuous
100
AcDbLine
 10
150.0
 20
690.900024
 30
0.0
 11
145.0
 21
690.900024
 31
0.0
  0
LINE
  5
94D8
330
93E0
100
AcDbEntity
  8
1
  6
Continuous
100
AcDbLine
 10
150.0
 20
630.900024
 30
0.0
 11
145.0
 21
630.900024
 31
0.0
  0
LINE
  5
94D9
330
93E0
100
AcDbEntity
  8
1
  6
Continuous
100
AcDbLine
 10
150.0
 20
710.900024
 30
0.0
 11
145.0
 21
710.900024
 31
0.0
  0
LINE
  5
94DA
330
93E0
100
AcDbEntity
  8
1
  6
Continuous
100
AcDbLine
 10
150.0
 20
650.900024
 30
0.0
 11
145.0
 21
650.900024
 31
0.0
  0
LINE
  5
94DB
330
93E0
100
AcDbEntity
  8
1
  6
Continuous
100
AcDbLine
 10
150.0
 20
670.900024
 30
0.0
 11
145.0
 21
670.900024
 31
0.0
  0
LINE
  5
94DC
330
93E0
100
AcDbEntity
  8
1
  6
Continuous
100
AcDbLine
 10
150.0
 20
810.900024
 30
0.0
 11
145.0
 21
810.900024
 31
0.0
  0
LINE
  5
94DD
330
93E0
100
AcDbEntity
  8
1
  6
Continuous
100
AcDbLine
 10
150.0
 20
850.900024
 30
0.0
 11
145.0
 21
850.900024
 31
0.0
  0
LINE
  5
94DE
330
93E0
100
AcDbEntity
  8
1
  6
Continuous
100
AcDbLine
 10
150.0
 20
830.9000239999997
 30
0.0
 11
145.0
 21
830.9000239999997
 31
0.0
  0
LINE
  5
94DF
330
93E0
100
AcDbEntity
  8
1
  6
Continuous
100
AcDbLine
 10
150.0
 20
750.900024
 30
0.0
 11
145.0
 21
750.900024
 31
0.0
  0
LINE
  5
94E0
330
93E0
100
AcDbEntity
  8
1
  6
Continuous
100
AcDbLine
 10
150.0
 20
790.900024
 30
0.0
 11
145.0
 21
790.900024
 31
0.0
  0
LINE
  5
94E1
330
93E0
100
AcDbEntity
  8
1
  6
Continuous
100
AcDbLine
 10
150.0
 20
770.900024
 30
0.0
 11
145.0
 21
770.900024
 31
0.0
  0
LINE
  5
94E2
330
93E0
100
AcDbEntity
  8
1
  6
Continuous
100
AcDbLine
 10
150.0
 20
950.900024
 30
0.0
 11
145.0
 21
950.900024
 31
0.0
  0
LINE
  5
94E3
330
93E0
100
AcDbEntity
  8
1
  6
Continuous
100
AcDbLine
 10
150.0
 20
870.9000239999996
 30
0.0
 11
145.0
 21
870.9000239999996
 31
0.0
  0
LINE
  5
94E4
330
93E0
100
AcDbEntity
  8
1
  6
Continuous
100
AcDbLine
 10
150.0
 20
910.900024
 30
0.0
 11
145.0
 21
910.900024
 31
0.0
  0
LINE
  5
94E5
330
93E0
100
AcDbEntity
  8
1
  6
Continuous
100
AcDbLine
 10
150.0
 20
890.9000240000001
 30
0.0
 11
145.0
 21
890.9000240000001
 31
0.0
  0
LINE
  5
94E6
330
93E0
100
AcDbEntity
  8
1
  6
Continuous
100
AcDbLine
 10
150.0
 20
970.9000239999999
 30
0.0
 11
145.0
 21
970.9000239999999
 31
0.0
  0
LINE
  5
94E7
330
93E0
100
AcDbEntity
  8
1
  6
Continuous
100
AcDbLine
 10
150.0
 20
930.9000240000001
 30
0.0
 11
145.0
 21
930.9000240000001
 31
0.0
  0
LINE
  5
94E8
330
93E0
100
AcDbEntity
  8
1
  6
Continuous
100
AcDbLine
 10
150.0
 20
1030.900024
 30
0.0
 11
145.0
 21
1030.900024
 31
0.0
  0
LINE
  5
94E9
330
93E0
100
AcDbEntity
  8
1
  6
Continuous
100
AcDbLine
 10
150.0
 20
1010.900024
 30
0.0
 11
145.0
 21
1010.900024
 31
0.0
  0
LINE
  5
94EA
330
93E0
100
AcDbEntity
  8
1
  6
Continuous
100
AcDbLine
 10
150.0
 20
1090.900024
 30
0.0
 11
145.0
 21
1090.900024
 31
0.0
  0
LINE
  5
94EB
330
93E0
100
AcDbEntity
  8
1
  6
Continuous
100
AcDbLine
 10
150.0
 20
1050.900024
 30
0.0
 11
145.0
 21
1050.900024
 31
0.0
  0
LINE
  5
94EC
330
93E0
100
AcDbEntity
  8
1
  6
Continuous
100
AcDbLine
 10
150.0
 20
990.9000240000001
 30
0.0
 11
145.0
 21
990.9000240000001
 31
0.0
  0
LINE
  5
94ED
330
93E0
100
AcDbEntity
  8
1
  6
Continuous
100
AcDbLine
 10
150.0
 20
1070.900023999998
 30
0.0
 11
145.0
 21
1070.900023999998
 31
0.0
  0
LINE
  5
94EE
330
93E0
100
AcDbEntity
  8
1
  6
Continuous
100
AcDbLine
 10
205.0
 20
1090.900024
 30
0.0
 11
205.0
 21
1070.900023999998
 31
0.0
  0
LINE
  5
94EF
330
93E0
100
AcDbEntity
  8
1
  6
Continuous
100
AcDbLine
 10
211.5
 20
1110.900023999998
 30
0.0
 11
211.5
 21
1090.900024
 31
0.0
  0
LINE
  5
94F0
330
93E0
100
AcDbEntity
  8
3
  6
DASHED
100
AcDbLine
 10
210.0
 20
1110.900023999998
 30
0.0
 11
210.0
 21
110.900002
 31
0.0
  0
LINE
  5
94F1
330
93E0
100
AcDbEntity
  8
3
  6
DASHED
100
AcDbLine
 10
206.4999999999999
 20
1110.900023999998
 30
0.0
 11
206.4999999999999
 21
110.900002
 31
0.0
  0
LINE
  5
94F2
330
93E0
100
AcDbEntity
  8
4
  6
CENTER
100
AcDbLine
 10
208.25
 20
1120.900023999998
 30
0.0
 11
208.25
 21
100.9000019999999
 31
0.0
  0
LINE
  5
94F3
330
93E0
100
AcDbEntity
  8
1
  6
Continuous
100
AcDbLine
 10
212.25
 20
1110.900023999998
 30
0.0
 11
212.25
 21
1090.900024
 31
0.0
  0
LINE
  5
94F4
330
93E0
100
AcDbEntity
  8
1
  6
Continuous
100
AcDbLine
 10
224.25
 20
1110.900023999998
 30
0.0
 11
212.25
 21
1110.900023999998
 31
0.0
  0
LINE
  5
94F5
330
93E0
100
AcDbEntity
  8
1
  6
Continuous
100
AcDbLine
 10
224.25
 20
110.900002
 30
0.0
 11
205.0
 21
110.900002
 31
0.0
  0
LINE
  5
94F6
330
93E0
100
AcDbEntity
  8
1
  6
Continuous
100
AcDbLine
 10
192.25
 20
1110.900023999998
 30
0.0
 11
192.25
 21
110.900002
 31
0.0
  0
LINE
  5
94F7
330
93E0
100
AcDbEntity
  8
1
  6
Continuous
100
AcDbLine
 10
224.25
 20
1110.900023999998
 30
0.0
 11
224.25
 21
110.900002
 31
0.0
  0
LINE
  5
94F8
330
93E0
100
AcDbEntity
  8
1
  6
Continuous
100
AcDbLine
 10
212.25
 20
150.8999939999999
 30
0.0
 11
212.25
 21
130.8999939999999
 31
0.0
  0
LINE
  5
94F9
330
93E0
100
AcDbEntity
  8
1
  6
Continuous
100
AcDbLine
 10
212.25
 20
190.8999939999999
 30
0.0
 11
212.25
 21
170.8999939999999
 31
0.0
  0
LINE
  5
94FA
330
93E0
100
AcDbEntity
  8
1
  6
Continuous
100
AcDbLine
 10
204.2499999999999
 20
130.8999939999999
 30
0.0
 11
204.2499999999999
 21
110.900002
 31
0.0
  0
LINE
  5
94FB
330
93E0
100
AcDbEntity
  8
1
  6
Continuous
100
AcDbLine
 10
204.2499999999999
 20
170.8999939999999
 30
0.0
 11
204.2499999999999
 21
150.8999939999999
 31
0.0
  0
LINE
  5
94FC
330
93E0
100
AcDbEntity
  8
1
  6
Continuous
100
AcDbLine
 10
204.2499999999999
 20
210.8999939999999
 30
0.0
 11
204.2499999999999
 21
190.8999939999999
 31
0.0
  0
LINE
  5
94FD
330
93E0
100
AcDbEntity
  8
1
  6
Continuous
100
AcDbLine
 10
204.2499999999999
 20
250.8999939999999
 30
0.0
 11
204.2499999999999
 21
230.899994
 31
0.0
  0
LINE
  5
94FE
330
93E0
100
AcDbEntity
  8
1
  6
Continuous
100
AcDbLine
 10
212.25
 20
230.899994
 30
0.0
 11
212.25
 21
210.8999939999999
 31
0.0
  0
LINE
  5
94FF
330
93E0
100
AcDbEntity
  8
1
  6
Continuous
100
AcDbLine
 10
212.25
 20
270.8999939999998
 30
0.0
 11
212.25
 21
250.8999939999999
 31
0.0
  0
LINE
  5
9500
330
93E0
100
AcDbEntity
  8
1
  6
Continuous
100
AcDbLine
 10
204.2499999999999
 20
290.899994
 30
0.0
 11
204.2499999999999
 21
270.8999939999998
 31
0.0
  0
LINE
  5
9501
330
93E0
100
AcDbEntity
  8
1
  6
Continuous
100
AcDbLine
 10
212.25
 20
310.8999939999999
 30
0.0
 11
212.25
 21
290.899994
 31
0.0
  0
LINE
  5
9502
330
93E0
100
AcDbEntity
  8
1
  6
Continuous
100
AcDbLine
 10
204.2499999999999
 20
330.899994
 30
0.0
 11
204.2499999999999
 21
310.8999939999999
 31
0.0
  0
LINE
  5
9503
330
93E0
100
AcDbEntity
  8
1
  6
Continuous
100
AcDbLine
 10
212.25
 20
350.8999939999998
 30
0.0
 11
212.25
 21
330.899994
 31
0.0
  0
LINE
  5
9504
330
93E0
100
AcDbEntity
  8
1
  6
Continuous
100
AcDbLine
 10
204.2499999999999
 20
370.8999939999998
 30
0.0
 11
204.2499999999999
 21
350.8999939999998
 31
0.0
  0
LINE
  5
9505
330
93E0
100
AcDbEntity
  8
1
  6
Continuous
100
AcDbLine
 10
212.25
 20
390.899994
 30
0.0
 11
212.25
 21
370.8999939999998
 31
0.0
  0
LINE
  5
9506
330
93E0
100
AcDbEntity
  8
1
  6
Continuous
100
AcDbLine
 10
204.2499999999999
 20
410.899994
 30
0.0
 11
204.2499999999999
 21
390.899994
 31
0.0
  0
LINE
  5
9507
330
93E0
100
AcDbEntity
  8
1
  6
Continuous
100
AcDbLine
 10
212.25
 20
430.8999939999998
 30
0.0
 11
212.25
 21
410.899994
 31
0.0
  0
LINE
  5
9508
330
93E0
100
AcDbEntity
  8
1
  6
Continuous
100
AcDbLine
 10
204.2499999999999
 20
450.8999939999998
 30
0.0
 11
204.2499999999999
 21
430.8999939999998
 31
0.0
  0
LINE
  5
9509
330
93E0
100
AcDbEntity
  8
1
  6
Continuous
100
AcDbLine
 10
212.25
 20
470.8999939999998
 30
0.0
 11
212.25
 21
450.8999939999998
 31
0.0
  0
LINE
  5
950A
330
93E0
100
AcDbEntity
  8
1
  6
Continuous
100
AcDbLine
 10
204.2499999999999
 20
110.900002
 30
0.0
 11
192.25
 21
110.900002
 31
0.0
  0
LINE
  5
950B
330
93E0
100
AcDbEntity
  8
1
  6
Continuous
100
AcDbLine
 10
211.5
 20
1110.900023999998
 30
0.0
 11
192.25
 21
1110.900023999998
 31
0.0
  0
LINE
  5
950C
330
93E0
100
AcDbEntity
  8
1
  6
Continuous
100
AcDbLine
 10
204.2499999999999
 20
490.899994
 30
0.0
 11
204.2499999999999
 21
470.8999939999998
 31
0.0
  0
LINE
  5
950D
330
93E0
100
AcDbEntity
  8
1
  6
Continuous
100
AcDbLine
 10
212.25
 20
510.899994
 30
0.0
 11
212.25
 21
490.899994
 31
0.0
  0
LINE
  5
950E
330
93E0
100
AcDbEntity
  8
1
  6
Continuous
100
AcDbLine
 10
204.2499999999999
 20
530.900024
 30
0.0
 11
204.2499999999999
 21
510.899994
 31
0.0
  0
LINE
  5
950F
330
93E0
100
AcDbEntity
  8
1
  6
Continuous
100
AcDbLine
 10
204.2499999999999
 20
1090.900024
 30
0.0
 11
204.2499999999999
 21
1070.900023999998
 31
0.0
  0
LINE
  5
9510
330
93E0
100
AcDbEntity
  8
1
  6
Continuous
100
AcDbLine
 10
212.25
 20
1070.900023999998
 30
0.0
 11
212.25
 21
1050.900024
 31
0.0
  0
LINE
  5
9511
330
93E0
100
AcDbEntity
  8
1
  6
Continuous
100
AcDbLine
 10
204.2499999999999
 20
1050.900024
 30
0.0
 11
204.2499999999999
 21
1030.900024
 31
0.0
  0
LINE
  5
9512
330
93E0
100
AcDbEntity
  8
1
  6
Continuous
100
AcDbLine
 10
212.25
 20
1030.900024
 30
0.0
 11
212.25
 21
1010.900024
 31
0.0
  0
LINE
  5
9513
330
93E0
100
AcDbEntity
  8
1
  6
Continuous
100
AcDbLine
 10
212.25
 20
550.900024
 30
0.0
 11
212.25
 21
530.900024
 31
0.0
  0
LINE
  5
9514
330
93E0
100
AcDbEntity
  8
1
  6
Continuous
100
AcDbLine
 10
204.2499999999999
 20
570.900024
 30
0.0
 11
204.2499999999999
 21
550.900024
 31
0.0
  0
LINE
  5
9515
330
93E0
100
AcDbEntity
  8
1
  6
Continuous
100
AcDbLine
 10
204.2499999999999
 20
1010.900024
 30
0.0
 11
204.2499999999999
 21
990.9000240000001
 31
0.0
  0
LINE
  5
9516
330
93E0
100
AcDbEntity
  8
1
  6
Continuous
100
AcDbLine
 10
212.25
 20
990.9000240000001
 30
0.0
 11
212.25
 21
970.9000239999999
 31
0.0
  0
LINE
  5
9517
330
93E0
100
AcDbEntity
  8
1
  6
Continuous
100
AcDbLine
 10
204.2499999999999
 20
970.9000239999999
 30
0.0
 11
204.2499999999999
 21
950.900024
 31
0.0
  0
LINE
  5
9518
330
93E0
100
AcDbEntity
  8
1
  6
Continuous
100
AcDbLine
 10
212.25
 20
950.900024
 30
0.0
 11
212.25
 21
930.9000240000001
 31
0.0
  0
LINE
  5
9519
330
93E0
100
AcDbEntity
  8
1
  6
Continuous
100
AcDbLine
 10
212.25
 20
910.900024
 30
0.0
 11
212.25
 21
890.9000240000001
 31
0.0
  0
LINE
  5
951A
330
93E0
100
AcDbEntity
  8
1
  6
Continuous
100
AcDbLine
 10
204.2499999999999
 20
930.9000240000001
 30
0.0
 11
204.2499999999999
 21
910.900024
 31
0.0
  0
LINE
  5
951B
330
93E0
100
AcDbEntity
  8
1
  6
Continuous
100
AcDbLine
 10
212.25
 20
590.900024
 30
0.0
 11
212.25
 21
570.900024
 31
0.0
  0
LINE
  5
951C
330
93E0
100
AcDbEntity
  8
1
  6
Continuous
100
AcDbLine
 10
204.2499999999999
 20
610.900024
 30
0.0
 11
204.2499999999999
 21
590.900024
 31
0.0
  0
LINE
  5
951D
330
93E0
100
AcDbEntity
  8
1
  6
Continuous
100
AcDbLine
 10
204.2499999999999
 20
890.9000240000001
 30
0.0
 11
204.2499999999999
 21
870.9000239999996
 31
0.0
  0
LINE
  5
951E
330
93E0
100
AcDbEntity
  8
1
  6
Continuous
100
AcDbLine
 10
204.2499999999999
 20
850.900024
 30
0.0
 11
204.2499999999999
 21
830.9000239999997
 31
0.0
  0
LINE
  5
951F
330
93E0
100
AcDbEntity
  8
1
  6
Continuous
100
AcDbLine
 10
212.25
 20
630.900024
 30
0.0
 11
212.25
 21
610.900024
 31
0.0
  0
LINE
  5
9520
330
93E0
100
AcDbEntity
  8
1
  6
Continuous
100
AcDbLine
 10
204.2499999999999
 20
650.900024
 30
0.0
 11
204.2499999999999
 21
630.900024
 31
0.0
  0
LINE
  5
9521
330
93E0
100
AcDbEntity
  8
1
  6
Continuous
100
AcDbLine
 10
212.25
 20
670.900024
 30
0.0
 11
212.25
 21
650.900024
 31
0.0
  0
LINE
  5
9522
330
93E0
100
AcDbEntity
  8
1
  6
Continuous
100
AcDbLine
 10
204.2499999999999
 20
690.900024
 30
0.0
 11
204.2499999999999
 21
670.900024
 31
0.0
  0
LINE
  5
9523
330
93E0
100
AcDbEntity
  8
1
  6
Continuous
100
AcDbLine
 10
212.25
 20
710.900024
 30
0.0
 11
212.25
 21
690.900024
 31
0.0
  0
LINE
  5
9524
330
93E0
100
AcDbEntity
  8
1
  6
Continuous
100
AcDbLine
 10
212.25
 20
870.9000239999996
 30
0.0
 11
212.25
 21
850.900024
 31
0.0
  0
LINE
  5
9525
330
93E0
100
AcDbEntity
  8
1
  6
Continuous
100
AcDbLine
 10
204.2499999999999
 20
730.900024
 30
0.0
 11
204.2499999999999
 21
710.900024
 31
0.0
  0
LINE
  5
9526
330
93E0
100
AcDbEntity
  8
1
  6
Continuous
100
AcDbLine
 10
212.25
 20
750.900024
 30
0.0
 11
212.25
 21
730.900024
 31
0.0
  0
LINE
  5
9527
330
93E0
100
AcDbEntity
  8
1
  6
Continuous
100
AcDbLine
 10
204.2499999999999
 20
770.900024
 30
0.0
 11
204.2499999999999
 21
750.900024
 31
0.0
  0
LINE
  5
9528
330
93E0
100
AcDbEntity
  8
1
  6
Continuous
100
AcDbLine
 10
212.25
 20
790.900024
 30
0.0
 11
212.25
 21
770.900024
 31
0.0
  0
LINE
  5
9529
330
93E0
100
AcDbEntity
  8
1
  6
Continuous
100
AcDbLine
 10
204.2499999999999
 20
810.900024
 30
0.0
 11
204.2499999999999
 21
790.900024
 31
0.0
  0
LINE
  5
952A
330
93E0
100
AcDbEntity
  8
1
  6
Continuous
100
AcDbLine
 10
212.25
 20
830.9000239999997
 30
0.0
 11
212.25
 21
810.900024
 31
0.0
  0
LINE
  5
952B
330
93E0
100
AcDbEntity
  8
1
  6
Continuous
100
AcDbLine
 10
212.25
 20
130.8999939999999
 30
0.0
 11
204.2499999999999
 21
130.8999939999999
 31
0.0
  0
LINE
  5
952C
330
93E0
100
AcDbEntity
  8
1
  6
Continuous
100
AcDbLine
 10
212.25
 20
150.8999939999999
 30
0.0
 11
204.2499999999999
 21
150.8999939999999
 31
0.0
  0
LINE
  5
952D
330
93E0
100
AcDbEntity
  8
1
  6
Continuous
100
AcDbLine
 10
212.25
 20
250.8999939999999
 30
0.0
 11
204.2499999999999
 21
250.8999939999999
 31
0.0
  0
LINE
  5
952E
330
93E0
100
AcDbEntity
  8
1
  6
Continuous
100
AcDbLine
 10
212.25
 20
170.8999939999999
 30
0.0
 11
204.2499999999999
 21
170.8999939999999
 31
0.0
  0
LINE
  5
952F
330
93E0
100
AcDbEntity
  8
1
  6
Continuous
100
AcDbLine
 10
212.25
 20
210.8999939999999
 30
0.0
 11
204.2499999999999
 21
210.8999939999999
 31
0.0
  0
LINE
  5
9530
330
93E0
100
AcDbEntity
  8
1
  6
Continuous
100
AcDbLine
 10
212.25
 20
190.8999939999999
 30
0.0
 11
204.2499999999999
 21
190.8999939999999
 31
0.0
  0
LINE
  5
9531
330
93E0
100
AcDbEntity
  8
1
  6
Continuous
100
AcDbLine
 10
212.25
 20
270.8999939999998
 30
0.0
 11
204.2499999999999
 21
270.8999939999998
 31
0.0
  0
LINE
  5
9532
330
93E0
100
AcDbEntity
  8
1
  6
Continuous
100
AcDbLine
 10
212.25
 20
230.899994
 30
0.0
 11
204.2499999999999
 21
230.899994
 31
0.0
  0
LINE
  5
9533
330
93E0
100
AcDbEntity
  8
1
  6
Continuous
100
AcDbLine
 10
212.25
 20
370.8999939999998
 30
0.0
 11
204.2499999999999
 21
370.8999939999998
 31
0.0
  0
LINE
  5
9534
330
93E0
100
AcDbEntity
  8
1
  6
Continuous
100
AcDbLine
 10
212.25
 20
290.899994
 30
0.0
 11
204.2499999999999
 21
290.899994
 31
0.0
  0
LINE
  5
9535
330
93E0
100
AcDbEntity
  8
1
  6
Continuous
100
AcDbLine
 10
212.25
 20
330.899994
 30
0.0
 11
204.2499999999999
 21
330.899994
 31
0.0
  0
LINE
  5
9536
330
93E0
100
AcDbEntity
  8
1
  6
Continuous
100
AcDbLine
 10
212.25
 20
310.8999939999999
 30
0.0
 11
204.2499999999999
 21
310.8999939999999
 31
0.0
  0
LINE
  5
9537
330
93E0
100
AcDbEntity
  8
1
  6
Continuous
100
AcDbLine
 10
212.25
 20
390.899994
 30
0.0
 11
204.2499999999999
 21
390.899994
 31
0.0
  0
LINE
  5
9538
330
93E0
100
AcDbEntity
  8
1
  6
Continuous
100
AcDbLine
 10
212.25
 20
350.8999939999998
 30
0.0
 11
204.2499999999999
 21
350.8999939999998
 31
0.0
  0
LINE
  5
9539
330
93E0
100
AcDbEntity
  8
1
  6
Continuous
100
AcDbLine
 10
212.25
 20
490.899994
 30
0.0
 11
204.2499999999999
 21
490.899994
 31
0.0
  0
LINE
  5
953A
330
93E0
100
AcDbEntity
  8
1
  6
Continuous
100
AcDbLine
 10
212.25
 20
410.899994
 30
0.0
 11
204.2499999999999
 21
410.899994
 31
0.0
  0
LINE
  5
953B
330
93E0
100
AcDbEntity
  8
1
  6
Continuous
100
AcDbLine
 10
212.25
 20
450.8999939999998
 30
0.0
 11
204.2499999999999
 21
450.8999939999998
 31
0.0
  0
LINE
  5
953C
330
93E0
100
AcDbEntity
  8
1
  6
Continuous
100
AcDbLine
 10
212.25
 20
430.8999939999998
 30
0.0
 11
204.2499999999999
 21
430.8999939999998
 31
0.0
  0
LINE
  5
953D
330
93E0
100
AcDbEntity
  8
1
  6
Continuous
100
AcDbLine
 10
212.25
 20
510.899994
 30
0.0
 11
204.2499999999999
 21
510.899994
 31
0.0
  0
LINE
  5
953E
330
93E0
100
AcDbEntity
  8
1
  6
Continuous
100
AcDbLine
 10
212.25
 20
470.8999939999998
 30
0.0
 11
204.2499999999999
 21
470.8999939999998
 31
0.0
  0
LINE
  5
953F
330
93E0
100
AcDbEntity
  8
1
  6
Continuous
100
AcDbLine
 10
212.25
 20
590.900024
 30
0.0
 11
204.2499999999999
 21
590.900024
 31
0.0
  0
LINE
  5
9540
330
93E0
100
AcDbEntity
  8
1
  6
Continuous
100
AcDbLine
 10
212.25
 20
630.900024
 30
0.0
 11
204.2499999999999
 21
630.900024
 31
0.0
  0
LINE
  5
9541
330
93E0
100
AcDbEntity
  8
1
  6
Continuous
100
AcDbLine
 10
212.25
 20
610.900024
 30
0.0
 11
204.2499999999999
 21
610.900024
 31
0.0
  0
LINE
  5
9542
330
93E0
100
AcDbEntity
  8
1
  6
Continuous
100
AcDbLine
 10
212.25
 20
530.900024
 30
0.0
 11
204.2499999999999
 21
530.900024
 31
0.0
  0
LINE
  5
9543
330
93E0
100
AcDbEntity
  8
1
  6
Continuous
100
AcDbLine
 10
212.25
 20
570.900024
 30
0.0
 11
204.2499999999999
 21
570.900024
 31
0.0
  0
LINE
  5
9544
330
93E0
100
AcDbEntity
  8
1
  6
Continuous
100
AcDbLine
 10
212.25
 20
550.900024
 30
0.0
 11
204.2499999999999
 21
550.900024
 31
0.0
  0
LINE
  5
9545
330
93E0
100
AcDbEntity
  8
1
  6
Continuous
100
AcDbLine
 10
212.25
 20
730.900024
 30
0.0
 11
204.2499999999999
 21
730.900024
 31
0.0
  0
LINE
  5
9546
330
93E0
100
AcDbEntity
  8
1
  6
Continuous
100
AcDbLine
 10
212.25
 20
650.900024
 30
0.0
 11
204.2499999999999
 21
650.900024
 31
0.0
  0
LINE
  5
9547
330
93E0
100
AcDbEntity
  8
1
  6
Continuous
100
AcDbLine
 10
212.25
 20
690.900024
 30
0.0
 11
204.2499999999999
 21
690.900024
 31
0.0
  0
LINE
  5
9548
330
93E0
100
AcDbEntity
  8
1
  6
Continuous
100
AcDbLine
 10
212.25
 20
670.900024
 30
0.0
 11
204.2499999999999
 21
670.900024
 31
0.0
  0
LINE
  5
9549
330
93E0
100
AcDbEntity
  8
1
  6
Continuous
100
AcDbLine
 10
212.25
 20
750.900024
 30
0.0
 11
204.2499999999999
 21
750.900024
 31
0.0
  0
LINE
  5
954A
330
93E0
100
AcDbEntity
  8
1
  6
Continuous
100
AcDbLine
 10
212.25
 20
710.900024
 30
0.0
 11
204.2499999999999
 21
710.900024
 31
0.0
  0
LINE
  5
954B
330
93E0
100
AcDbEntity
  8
1
  6
Continuous
100
AcDbLine
 10
212.25
 20
850.900024
 30
0.0
 11
204.2499999999999
 21
850.900024
 31
0.0
  0
LINE
  5
954C
330
93E0
100
AcDbEntity
  8
1
  6
Continuous
100
AcDbLine
 10
212.25
 20
770.900024
 30
0.0
 11
204.2499999999999
 21
770.900024
 31
0.0
  0
LINE
  5
954D
330
93E0
100
AcDbEntity
  8
1
  6
Continuous
100
AcDbLine
 10
212.25
 20
790.900024
 30
0.0
 11
204.2499999999999
 21
790.900024
 31
0.0
  0
LINE
  5
954E
330
93E0
100
AcDbEntity
  8
1
  6
Continuous
100
AcDbLine
 10
212.25
 20
810.900024
 30
0.0
 11
204.2499999999999
 21
810.900024
 31
0.0
  0
LINE
  5
954F
330
93E0
100
AcDbEntity
  8
1
  6
Continuous
100
AcDbLine
 10
212.25
 20
830.9000239999997
 30
0.0
 11
204.2499999999999
 21
830.9000239999997
 31
0.0
  0
LINE
  5
9550
330
93E0
100
AcDbEntity
  8
1
  6
Continuous
100
AcDbLine
 10
212.25
 20
870.9000239999996
 30
0.0
 11
204.2499999999999
 21
870.9000239999996
 31
0.0
  0
LINE
  5
9551
330
93E0
100
AcDbEntity
  8
1
  6
Continuous
100
AcDbLine
 10
212.25
 20
970.9000239999999
 30
0.0
 11
204.2499999999999
 21
970.9000239999999
 31
0.0
  0
LINE
  5
9552
330
93E0
100
AcDbEntity
  8
1
  6
Continuous
100
AcDbLine
 10
212.25
 20
890.9000240000001
 30
0.0
 11
204.2499999999999
 21
890.9000240000001
 31
0.0
  0
LINE
  5
9553
330
93E0
100
AcDbEntity
  8
1
  6
Continuous
100
AcDbLine
 10
212.25
 20
930.9000240000001
 30
0.0
 11
204.2499999999999
 21
930.9000240000001
 31
0.0
  0
LINE
  5
9554
330
93E0
100
AcDbEntity
  8
1
  6
Continuous
100
AcDbLine
 10
212.25
 20
910.900024
 30
0.0
 11
204.2499999999999
 21
910.900024
 31
0.0
  0
LINE
  5
9555
330
93E0
100
AcDbEntity
  8
1
  6
Continuous
100
AcDbLine
 10
212.25
 20
990.9000240000001
 30
0.0
 11
204.2499999999999
 21
990.9000240000001
 31
0.0
  0
LINE
  5
9556
330
93E0
100
AcDbEntity
  8
1
  6
Continuous
100
AcDbLine
 10
212.25
 20
950.900024
 30
0.0
 11
204.2499999999999
 21
950.900024
 31
0.0
  0
LINE
  5
9557
330
93E0
100
AcDbEntity
  8
1
  6
Continuous
100
AcDbLine
 10
212.25
 20
1070.900023999998
 30
0.0
 11
204.2499999999999
 21
1070.900023999998
 31
0.0
  0
LINE
  5
9558
330
93E0
100
AcDbEntity
  8
1
  6
Continuous
100
AcDbLine
 10
212.25
 20
1090.900024
 30
0.0
 11
204.2499999999999
 21
1090.900024
 31
0.0
  0
LINE
  5
9559
330
93E0
100
AcDbEntity
  8
1
  6
Continuous
100
AcDbLine
 10
212.25
 20
1010.900024
 30
0.0
 11
204.2499999999999
 21
1010.900024
 31
0.0
  0
LINE
  5
955A
330
93E0
100
AcDbEntity
  8
1
  6
Continuous
100
AcDbLine
 10
212.25
 20
1050.900024
 30
0.0
 11
204.2499999999999
 21
1050.900024
 31
0.0
  0
LINE
  5
955B
330
93E0
100
AcDbEntity
  8
1
  6
Continuous
100
AcDbLine
 10
212.25
 20
1030.900024
 30
0.0
 11
204.2499999999999
 21
1030.900024
 31
0.0
  0
LINE
  5
955C
330
93E0
100
AcDbEntity
  8
1
  6
Continuous
100
AcDbLine
 10
211.5
 20
1070.900023999998
 30
0.0
 11
211.5
 21
1050.900024
 31
0.0
  0
LINE
  5
955D
330
93E0
100
AcDbEntity
  8
1
  6
Continuous
100
AcDbLine
 10
205.0
 20
1050.900024
 30
0.0
 11
205.0
 21
1030.900024
 31
0.0
  0
LINE
  5
955E
330
93E0
100
AcDbEntity
  8
1
  6
Continuous
100
AcDbLine
 10
211.5
 20
1030.900024
 30
0.0
 11
211.5
 21
1010.900024
 31
0.0
  0
LINE
  5
955F
330
93E0
100
AcDbEntity
  8
1
  6
Continuous
100
AcDbLine
 10
205.0
 20
1010.900024
 30
0.0
 11
205.0
 21
990.9000240000001
 31
0.0
  0
LINE
  5
9560
330
93E0
100
AcDbEntity
  8
1
  6
Continuous
100
AcDbLine
 10
211.5
 20
990.9000240000001
 30
0.0
 11
211.5
 21
970.9000239999999
 31
0.0
  0
LINE
  5
9561
330
93E0
100
AcDbEntity
  8
1
  6
Continuous
100
AcDbLine
 10
205.0
 20
970.9000239999999
 30
0.0
 11
205.0
 21
950.900024
 31
0.0
  0
LINE
  5
9562
330
93E0
100
AcDbEntity
  8
1
  6
Continuous
100
AcDbLine
 10
211.5
 20
950.900024
 30
0.0
 11
211.5
 21
930.9000240000001
 31
0.0
  0
LINE
  5
9563
330
93E0
100
AcDbEntity
  8
1
  6
Continuous
100
AcDbLine
 10
205.0
 20
930.9000240000001
 30
0.0
 11
205.0
 21
910.900024
 31
0.0
  0
LINE
  5
9564
330
93E0
100
AcDbEntity
  8
1
  6
Continuous
100
AcDbLine
 10
211.5
 20
910.900024
 30
0.0
 11
211.5
 21
890.9000240000001
 31
0.0
  0
LINE
  5
9565
330
93E0
100
AcDbEntity
  8
1
  6
Continuous
100
AcDbLine
 10
205.0
 20
890.9000240000001
 30
0.0
 11
205.0
 21
870.9000239999996
 31
0.0
  0
LINE
  5
9566
330
93E0
100
AcDbEntity
  8
1
  6
Continuous
100
AcDbLine
 10
211.5
 20
870.9000239999996
 30
0.0
 11
211.5
 21
850.900024
 31
0.0
  0
LINE
  5
9567
330
93E0
100
AcDbEntity
  8
1
  6
Continuous
100
AcDbLine
 10
205.0
 20
850.900024
 30
0.0
 11
205.0
 21
830.9000239999997
 31
0.0
  0
LINE
  5
9568
330
93E0
100
AcDbEntity
  8
1
  6
Continuous
100
AcDbLine
 10
211.5
 20
830.9000239999997
 30
0.0
 11
211.5
 21
810.900024
 31
0.0
  0
LINE
  5
9569
330
93E0
100
AcDbEntity
  8
1
  6
Continuous
100
AcDbLine
 10
205.0
 20
810.900024
 30
0.0
 11
205.0
 21
790.900024
 31
0.0
  0
LINE
  5
956A
330
93E0
100
AcDbEntity
  8
1
  6
Continuous
100
AcDbLine
 10
211.5
 20
790.900024
 30
0.0
 11
211.5
 21
770.900024
 31
0.0
  0
LINE
  5
956B
330
93E0
100
AcDbEntity
  8
1
  6
Continuous
100
AcDbLine
 10
205.0
 20
770.900024
 30
0.0
 11
205.0
 21
750.900024
 31
0.0
  0
LINE
  5
956C
330
93E0
100
AcDbEntity
  8
1
  6
Continuous
100
AcDbLine
 10
211.5
 20
750.900024
 30
0.0
 11
211.5
 21
730.900024
 31
0.0
  0
LINE
  5
956D
330
93E0
100
AcDbEntity
  8
1
  6
Continuous
100
AcDbLine
 10
205.0
 20
730.900024
 30
0.0
 11
205.0
 21
710.900024
 31
0.0
  0
LINE
  5
956E
330
93E0
100
AcDbEntity
  8
1
  6
Continuous
100
AcDbLine
 10
211.5
 20
710.900024
 30
0.0
 11
211.5
 21
690.900024
 31
0.0
  0
LINE
  5
956F
330
93E0
100
AcDbEntity
  8
1
  6
Continuous
100
AcDbLine
 10
205.0
 20
690.900024
 30
0.0
 11
205.0
 21
670.900024
 31
0.0
  0
LINE
  5
9570
330
93E0
100
AcDbEntity
  8
1
  6
Continuous
100
AcDbLine
 10
211.5
 20
670.900024
 30
0.0
 11
211.5
 21
650.900024
 31
0.0
  0
LINE
  5
9571
330
93E0
100
AcDbEntity
  8
1
  6
Continuous
100
AcDbLine
 10
205.0
 20
650.900024
 30
0.0
 11
205.0
 21
630.900024
 31
0.0
  0
LINE
  5
9572
330
93E0
100
AcDbEntity
  8
1
  6
Continuous
100
AcDbLine
 10
211.5
 20
630.900024
 30
0.0
 11
211.5
 21
610.900024
 31
0.0
  0
LINE
  5
9573
330
93E0
100
AcDbEntity
  8
1
  6
Continuous
100
AcDbLine
 10
205.0
 20
610.900024
 30
0.0
 11
205.0
 21
590.900024
 31
0.0
  0
LINE
  5
9574
330
93E0
100
AcDbEntity
  8
1
  6
Continuous
100
AcDbLine
 10
211.5
 20
590.900024
 30
0.0
 11
211.5
 21
570.900024
 31
0.0
  0
LINE
  5
9575
330
93E0
100
AcDbEntity
  8
1
  6
Continuous
100
AcDbLine
 10
205.0
 20
570.900024
 30
0.0
 11
205.0
 21
550.900024
 31
0.0
  0
LINE
  5
9576
330
93E0
100
AcDbEntity
  8
1
  6
Continuous
100
AcDbLine
 10
211.5
 20
550.900024
 30
0.0
 11
211.5
 21
530.900024
 31
0.0
  0
LINE
  5
9577
330
93E0
100
AcDbEntity
  8
1
  6
Continuous
100
AcDbLine
 10
205.0
 20
530.900024
 30
0.0
 11
205.0
 21
510.899994
 31
0.0
  0
LINE
  5
9578
330
93E0
100
AcDbEntity
  8
1
  6
Continuous
100
AcDbLine
 10
211.5
 20
510.899994
 30
0.0
 11
211.5
 21
490.899994
 31
0.0
  0
LINE
  5
9579
330
93E0
100
AcDbEntity
  8
1
  6
Continuous
100
AcDbLine
 10
205.0
 20
490.899994
 30
0.0
 11
205.0
 21
470.8999939999998
 31
0.0
  0
LINE
  5
957A
330
93E0
100
AcDbEntity
  8
1
  6
Continuous
100
AcDbLine
 10
211.5
 20
470.8999939999998
 30
0.0
 11
211.5
 21
450.8999939999998
 31
0.0
  0
LINE
  5
957B
330
93E0
100
AcDbEntity
  8
1
  6
Continuous
100
AcDbLine
 10
205.0
 20
450.8999939999998
 30
0.0
 11
205.0
 21
430.8999939999998
 31
0.0
  0
LINE
  5
957C
330
93E0
100
AcDbEntity
  8
1
  6
Continuous
100
AcDbLine
 10
211.5
 20
430.8999939999998
 30
0.0
 11
211.5
 21
410.899994
 31
0.0
  0
LINE
  5
957D
330
93E0
100
AcDbEntity
  8
1
  6
Continuous
100
AcDbLine
 10
205.0
 20
410.899994
 30
0.0
 11
205.0
 21
390.899994
 31
0.0
  0
LINE
  5
957E
330
93E0
100
AcDbEntity
  8
1
  6
Continuous
100
AcDbLine
 10
211.5
 20
390.899994
 30
0.0
 11
211.5
 21
370.8999939999998
 31
0.0
  0
LINE
  5
957F
330
93E0
100
AcDbEntity
  8
1
  6
Continuous
100
AcDbLine
 10
205.0
 20
370.8999939999998
 30
0.0
 11
205.0
 21
350.8999939999998
 31
0.0
  0
LINE
  5
9580
330
93E0
100
AcDbEntity
  8
1
  6
Continuous
100
AcDbLine
 10
211.5
 20
350.8999939999998
 30
0.0
 11
211.5
 21
330.899994
 31
0.0
  0
LINE
  5
9581
330
93E0
100
AcDbEntity
  8
1
  6
Continuous
100
AcDbLine
 10
205.0
 20
330.899994
 30
0.0
 11
205.0
 21
310.8999939999999
 31
0.0
  0
LINE
  5
9582
330
93E0
100
AcDbEntity
  8
1
  6
Continuous
100
AcDbLine
 10
211.5
 20
310.8999939999999
 30
0.0
 11
211.5
 21
290.899994
 31
0.0
  0
LINE
  5
9583
330
93E0
100
AcDbEntity
  8
1
  6
Continuous
100
AcDbLine
 10
205.0
 20
290.899994
 30
0.0
 11
205.0
 21
270.8999939999998
 31
0.0
  0
LINE
  5
9584
330
93E0
100
AcDbEntity
  8
1
  6
Continuous
100
AcDbLine
 10
211.5
 20
270.8999939999998
 30
0.0
 11
211.5
 21
250.8999939999999
 31
0.0
  0
LINE
  5
9585
330
93E0
100
AcDbEntity
  8
1
  6
Continuous
100
AcDbLine
 10
205.0
 20
250.8999939999999
 30
0.0
 11
205.0
 21
230.899994
 31
0.0
  0
LINE
  5
9586
330
93E0
100
AcDbEntity
  8
1
  6
Continuous
100
AcDbLine
 10
205.0
 20
210.8999939999999
 30
0.0
 11
205.0
 21
190.8999939999999
 31
0.0
  0
LINE
  5
9587
330
93E0
100
AcDbEntity
  8
1
  6
Continuous
100
AcDbLine
 10
205.0
 20
170.8999939999999
 30
0.0
 11
205.0
 21
150.8999939999999
 31
0.0
  0
LINE
  5
9588
330
93E0
100
AcDbEntity
  8
1
  6
Continuous
100
AcDbLine
 10
211.5
 20
230.899994
 30
0.0
 11
211.5
 21
210.8999939999999
 31
0.0
  0
LINE
  5
9589
330
93E0
100
AcDbEntity
  8
1
  6
Continuous
100
AcDbLine
 10
211.5
 20
190.8999939999999
 30
0.0
 11
211.5
 21
170.8999939999999
 31
0.0
  0
LINE
  5
958A
330
93E0
100
AcDbEntity
  8
1
  6
Continuous
100
AcDbLine
 10
211.5
 20
150.8999939999999
 30
0.0
 11
211.5
 21
130.8999939999999
 31
0.0
  0
LINE
  5
958B
330
93E0
100
AcDbEntity
  8
1
  6
Continuous
100
AcDbLine
 10
205.0
 20
130.8999939999999
 30
0.0
 11
205.0
 21
110.900002
 31
0.0
  0
CIRCLE
  5
958C
330
93E0
100
AcDbEntity
  8
1
  6
Continuous
100
AcDbCircle
 10
88.25000000000001
 20
44.24999999999999
 30
0.0
 40
1.75
  0
CIRCLE
  5
958D
330
93E0
100
AcDbEntity
  8
1
  6
Continuous
100
AcDbCircle
 10
88.25000000000001
 20
1177.550048999999
 30
0.0
 40
1.75
  0
ARC
  5
958E
330
93E0
100
AcDbEntity
  8
1
  6
Continuous
100
AcDbCircle
 10
88.25000000000001
 20
44.24999999999999
 30
0.0
 40
3.25
100
AcDbArc
 50
269.9999969999999
 51
212.5789689999999
  0
ARC
  5
958F
330
93E0
100
AcDbEntity
  8
1
  6
Continuous
100
AcDbCircle
 10
88.25000000000001
 20
1177.550048999999
 30
0.0
 40
3.25
100
AcDbArc
 50
90.00000300000001
 51
32.578974
  0
TEXT
  5
9590
330
93E0
100
AcDbEntity
  8
6
  6
Continuous
100
AcDbText
 10
27.97945
 20
10.0487
 30
0.0
 40
1.399999999999999
  1
6
 41
1.069393
100
AcDbText
  0
TEXT
  5
9591
330
93E0
100
AcDbEntity
  8
1
  6
Continuous
100
AcDbText
 10
17.97945
 20
10.0487
 30
0.0
 40
1.399999999999999
  1
1
 41
1.069393
100
AcDbText
  0
TEXT
  5
9592
330
93E0
100
AcDbEntity
  8
1
  6
Continuous
100
AcDbText
 10
9.99995
 20
10.0
 30
0.0
 40
1.399999999999999
  1
LAYER
 41
1.009912999999997
100
AcDbText
  0
TEXT
  5
9593
330
93E0
100
AcDbEntity
  8
2
  6
Continuous
100
AcDbText
 10
19.97944999999998
 20
10.0487
 30
0.0
 40
1.399999999999999
  1
2
 41
1.069393
100
AcDbText
  0
TEXT
  5
9594
330
93E0
100
AcDbEntity
  8
3
  6
DASHED
100
AcDbText
 10
21.97945
 20
10.0487
 30
0.0
 40
1.399999999999999
  1
3
 41
1.069393
100
AcDbText
  0
TEXT
  5
9595
330
93E0
100
AcDbEntity
  8
4
  6
CENTER
100
AcDbText
 10
23.97944999999999
 20
10.0487
 30
0.0
 40
1.399999999999999
  1
4
 41
1.069393
100
AcDbText
  0
TEXT
  5
9596
330
93E0
100
AcDbEntity
  8
5
  6
PHANTOM
100
AcDbText
 10
25.97945
 20
10.0487
 30
0.0
 40
1.399999999999999
  1
5
 41
1.069393
100
AcDbText
  0
TEXT
  5
9597
330
93E0
100
AcDbEntity
  8
7
  6
Continuous
100
AcDbText
 10
10.00005
 20
26.0
 30
0.0
 40
3.0
  1
CODE No.2447
 41
1.003962999999999
100
AcDbText
  0
TEXT
  5
9598
330
93E0
100
AcDbEntity
  8
7
  6
Continuous
100
AcDbText
 10
10.00005
 20
18.0
 30
0.0
 40
3.0
  1
TYPE No.TH-76SUS-1
 41
1.002617
100
AcDbText
  0
TEXT
  5
9599
330
93E0
100
AcDbEntity
  8
7
  6
Continuous
100
AcDbText
 10
29.97944999999999
 20
10.0487
 30
0.0
 40
1.399999999999999
  1
7
 41
1.069393
100
AcDbText
  0
ENDSEC
  0
SECTION
  2
OBJECTS
  0
DICTIONARY
  5
93CE
330
0
100
AcDbDictionary
281
     1
  3
ACAD_CIP_PREVIOUS_PRODUCT_INFO
350
95FF
  3
ACAD_COLOR
350
95E1
  3
ACAD_DETAILVIEWSTYLE
350
95FA
  3
ACAD_GROUP
350
93CF
  3
ACAD_LAYOUT
350
93DB
  3
ACAD_MATERIAL
350
95AF
  3
ACAD_MLEADERSTYLE
350
95F6
  3
ACAD_MLINESTYLE
350
93D8
  3
ACAD_PLOTSETTINGS
350
93DA
  3
ACAD_PLOTSTYLENAME
350
95AD
  3
ACAD_SCALELIST
350
95E4
  3
ACAD_SECTIONVIEWSTYLE
350
95F8
  3
ACAD_TABLESTYLE
350
95E2
  3
ACAD_VISUALSTYLE
350
95C8
  3
ACDB_RECOMPOSE_DATA
350
961D
  3
AcDbVariableDictionary
350
9610
  3
DWGPROPS
350
961E
  0
DICTIONARY
  5
9600
330
93D2
100
AcDbDictionary
280
     1
281
     1
  3
ADSK_XREC_LAYER_RECONCILED
360
9601
  0
DICTIONARY
  5
9602
330
93E8
100
AcDbDictionary
280
     1
281
     1
  3
ADSK_XREC_LAYER_RECONCILED
360
9603
  0
DICTIONARY
  5
9604
330
93E9
100
AcDbDictionary
280
     1
281
     1
  3
ADSK_XREC_LAYER_RECONCILED
360
9605
  0
DICTIONARY
  5
9606
330
93EA
100
AcDbDictionary
280
     1
281
     1
  3
ADSK_XREC_LAYER_RECONCILED
360
9607
  0
DICTIONARY
  5
9608
330
93EB
100
AcDbDictionary
280
     1
281
     1
  3
ADSK_XREC_LAYER_RECONCILED
360
9609
  0
DICTIONARY
  5
960A
330
93EC
100
AcDbDictionary
280
     1
281
     1
  3
ADSK_XREC_LAYER_RECONCILED
360
960B
  0
DICTIONARY
  5
960C
330
93ED
100
AcDbDictionary
280
     1
281
     1
  3
ADSK_XREC_LAYER_RECONCILED
360
960D
  0
DICTIONARY
  5
960E
330
93EE
100
AcDbDictionary
280
     1
281
     1
  3
ADSK_XREC_LAYER_RECONCILED
360
960F
  0
DICTIONARY
  5
95A8
330
93E0
100
AcDbDictionary
281
     1
  3
ACAD_LAYOUTSELFREF
350
95A9
  0
DICTIONARY
  5
95A6
330
93DC
100
AcDbDictionary
281
     1
  3
ACAD_LAYOUTSELFREF
350
95A7
  0
XRECORD
  5
95FF
102
{ACAD_REACTORS
330
93CE
102
}
330
93CE
100
AcDbXrecord
280
     1
300
ACDLT
300
2014
300
ACDLT_F_S
  0
DICTIONARY
  5
95E1
102
{ACAD_REACTORS
330
93CE
102
}
330
93CE
100
AcDbDictionary
281
     1
  0
DICTIONARY
  5
95FA
102
{ACAD_REACTORS
330
93CE
102
}
330
93CE
100
AcDbDictionary
281
     1
  3
Imperial24
350
95FB
  0
DICTIONARY
  5
93CF
102
{ACAD_REACTORS
330
93CE
102
}
330
93CE
100
AcDbDictionary
281
     1
  0
DICTIONARY
  5
93DB
102
{ACAD_REACTORS
330
93CE
102
}
330
93CE
100
AcDbDictionary
281
     1
  3
Model
350
95FC
  3
レイアウト1
350
95FD
  0
DICTIONARY
  5
95AF
102
{ACAD_REACTORS
330
93CE
102
}
330
93CE
100
AcDbDictionary
281
     1
  3
ByBlock
350
95B8
  3
ByLayer
350
95B0
  3
Global
350
95C0
  0
DICTIONARY
  5
95F6
102
{ACAD_REACTORS
330
93CE
102
}
330
93CE
100
AcDbDictionary
281
     1
  3
Standard
350
95F7
  0
DICTIONARY
  5
93D8
102
{ACAD_REACTORS
330
93CE
102
}
330
93CE
100
AcDbDictionary
281
     1
  3
STANDARD
350
93D9
  0
DICTIONARY
  5
93DA
102
{ACAD_REACTORS
330
93CE
102
}
330
93CE
100
AcDbDictionary
281
     1
  0
ACDBDICTIONARYWDFLT
  5
95AD
102
{ACAD_REACTORS
330
93CE
102
}
330
93CE
100
AcDbDictionary
281
     1
  3
Normal
350
95AE
100
AcDbDictionaryWithDefault
340
95AE
  0
DICTIONARY
  5
95E4
102
{ACAD_REACTORS
330
93CE
102
}
330
93CE
100
AcDbDictionary
281
     1
  3
A0
350
95E5
  3
A1
350
95E6
  3
A2
350
95E7
  3
A3
350
95E8
  3
A4
350
95E9
  3
A5
350
95EA
  3
A6
350
95EB
  3
A7
350
95EC
  3
A8
350
95ED
  3
A9
350
95EE
  3
B0
350
95EF
  3
B1
350
95F0
  3
B2
350
95F1
  3
B3
350
95F2
  3
B4
350
95F3
  3
B5
350
95F4
  3
B6
350
95F5
  0
DICTIONARY
  5
95F8
102
{ACAD_REACTORS
330
93CE
102
}
330
93CE
100
AcDbDictionary
281
     1
  3
Imperial24
350
95F9
  0
DICTIONARY
  5
95E2
102
{ACAD_REACTORS
330
93CE
102
}
330
93CE
100
AcDbDictionary
281
     1
  3
Standard
350
95E3
  0
DICTIONARY
  5
95C8
102
{ACAD_REACTORS
330
93CE
102
}
330
93CE
100
AcDbDictionary
281
     1
  3
2dWireframe
350
95CE
  3
Basic
350
95CD
  3
Brighten
350
95D4
  3
ColorChange
350
95D8
  3
Conceptual
350
95D1
  3
Dim
350
95D3
  3
EdgeColorOff
350
95E0
  3
Facepattern
350
95D7
  3
Flat
350
95C9
  3
FlatWithEdges
350
95CA
  3
Gouraud
350
95CB
  3
GouraudWithEdges
350
95CC
  3
Hidden
350
95D0
  3
JitterOff
350
95DE
  3
Linepattern
350
95D6
  3
OverhangOff
350
95DF
  3
Realistic
350
95D2
  3
Shaded
350
95DD
  3
Shaded with edges
350
95DC
  3
Shades of Gray
350
95D9
  3
Sketchy
350
95DA
  3
Thicken
350
95D5
  3
Wireframe
350
95CF
  3
X-Ray
350
95DB
  0
XRECORD
  5
961D
102
{ACAD_REACTORS
330
93CE
102
}
330
93CE
100
AcDbXrecord
280
     1
 90
        1
330
95E3
  0
DICTIONARY
  5
9610
102
{ACAD_REACTORS
330
93CE
102
}
330
93CE
100
AcDbDictionary
281
     1
  3
CANNOSCALE
350
9615
  3
CMLEADERSTYLE
350
9612
  3
CTABLESTYLE
350
9611
  3
CVIEWDETAILSTYLE
350
9613
  3
CVIEWSECTIONSTYLE
350
9614
  3
DIMASSOC
350
9618
  3
INDEXCTL
350
9617
  3
SORTENTS
350
9616
  3
XCLIPFRAME
350
9619
  0
XRECORD
  5
961E
102
{ACAD_REACTORS
330
93CE
102
}
330
93CE
100
AcDbXrecord
280
     1
  1
DWGPROPS COOKIE
  2

  3

  4

  6

  7

  8
Yoshitsune
  9

300
=
301
=
302
=
303
=
304
=
305
=
306
=
307
=
308
=
309
=
 40
0.0000144444444444
 41
2451006.484644329
 42
2457192.618738032
  1

 90
        0
  0
XRECORD
  5
9601
102
{ACAD_REACTORS
330
9600
102
}
330
9600
100
AcDbXrecord
280
     1
290
     1
  0
XRECORD
  5
9603
102
{ACAD_REACTORS
330
9602
102
}
330
9602
100
AcDbXrecord
280
     1
290
     1
  0
XRECORD
  5
9605
102
{ACAD_REACTORS
330
9604
102
}
330
9604
100
AcDbXrecord
280
     1
290
     1
  0
XRECORD
  5
9607
102
{ACAD_REACTORS
330
9606
102
}
330
9606
100
AcDbXrecord
280
     1
290
     1
  0
XRECORD
  5
9609
102
{ACAD_REACTORS
330
9608
102
}
330
9608
100
AcDbXrecord
280
     1
290
     1
  0
XRECORD
  5
960B
102
{ACAD_REACTORS
330
960A
102
}
330
960A
100
AcDbXrecord
280
     1
290
     1
  0
XRECORD
  5
960D
102
{ACAD_REACTORS
330
960C
102
}
330
960C
100
AcDbXrecord
280
     1
290
     1
  0
XRECORD
  5
960F
102
{ACAD_REACTORS
330
960E
102
}
330
960E
100
AcDbXrecord
280
     1
290
     1
  0
XRECORD
  5
95A9
102
{ACAD_REACTORS
330
95A8
102
}
330
95A8
100
AcDbXrecord
280
     1
340
93E0
  0
XRECORD
  5
95A7
102
{ACAD_REACTORS
330
95A6
102
}
330
95A6
100
AcDbXrecord
280
     1
340
93DC
  0
ACDBDETAILVIEWSTYLE
  5
95FB
102
{ACAD_XDICTIONARY
360
9656
102
}
102
{ACAD_REACTORS
330
95FA
102
}
330
95FA
100
AcDbModelDocViewStyle
 70
     0
  3
Imperial24
290
     0
100
AcDbDetailViewStyle
 70
     0
 71
     0
 90
        3
 71
     1
340
93D3
 40
0.24
340
0
 40
0.24
300

 40
0.36
280
     3
 71
     2
340
93D7
 90
       25
 71
     3
340
93D3
 40
0.24
 90
        1
 40
0.75
 90
        1
300
%<\AcVar ViewType \f "%tc1">% %<\AcVar ViewDetailId>%\PSCALE %<\AcVar ViewScale \f "%sn">%
 71
     4
340
93D7
 90
       25
340
93D7
 90
       25
280
     0
  0
LAYOUT
  5
95FC
102
{ACAD_XDICTIONARY
360
9658
102
}
102
{ACAD_REACTORS
330
93DB
102
}
330
93DB
100
AcDbPlotSettings
  1

  2
Canon LBP9100C
  4

  6

 40
0.0
 41
0.0
 42
0.0
 43
0.0
 44
0.0
 45
0.0
 46
0.0
 47
0.0
 48
0.0
 49
0.0
140
0.0
141
0.0
142
1.0
143
1.0
 70
  1712
 72
     0
 73
     0
 74
     0
  7

 75
     0
147
1.0
148
0.0
149
0.0
100
AcDbLayout
  1
Model
 70
     1
 71
     0
 10
0.0
 20
0.0
 11
12.0
 21
9.0
 12
0.0
 22
0.0
 32
0.0
 14
0.0
 24
0.0
 34
0.0
 15
0.0
 25
0.0
 35
0.0
146
0.0
 13
0.0
 23
0.0
 33
0.0
 16
1.0
 26
0.0
 36
0.0
 17
0.0
 27
1.0
 37
0.0
 76
     0
330
93E0
331
95A5
  0
LAYOUT
  5
95FD
102
{ACAD_XDICTIONARY
360
965A
102
}
102
{ACAD_REACTORS
330
93DB
102
}
330
93DB
100
AcDbPlotSettings
  1

  2
Canon LBP9100C
  4

  6

 40
0.0
 41
0.0
 42
0.0
 43
0.0
 44
0.0
 45
0.0
 46
0.0
 47
0.0
 48
0.0
 49
0.0
140
0.0
141
0.0
142
1.0
143
1.0
 70
   688
 72
     0
 73
     0
 74
     5
  7

 75
    16
147
1.0
148
0.0
149
0.0
100
AcDbLayout
  1
レイアウト1
 70
     0
 71
     1
 10
0.0
 20
0.0
 11
420.0
 21
297.0
 12
0.0
 22
0.0
 32
0.0
 14
1.000000000000000E+20
 24
1.000000000000000E+20
 34
1.000000000000000E+20
 15
-1.000000000000000E+20
 25
-1.000000000000000E+20
 35
-1.000000000000000E+20
146
0.0
 13
0.0
 23
0.0
 33
0.0
 16
1.0
 26
0.0
 36
0.0
 17
0.0
 27
1.0
 37
0.0
 76
     0
330
93DC
  0
MATERIAL
  5
95B8
102
{ACAD_XDICTIONARY
360
95B9
102
}
102
{ACAD_REACTORS
330
95AF
102
}
330
95AF
100
AcDbMaterial
  1
ByBlock
 72
     0
 43
0.0208333333333333
 43
0.0
 43
0.0
 43
0.0
 43
0.0
 43
0.0208333333333333
 43
0.0
 43
0.0
 43
0.0
 43
0.0
 43
1.0
 43
0.0
 43
0.0
 43
0.0
 43
0.0
 43
1.0
 77
     0
 47
0.0208333333333333
 47
0.0
 47
0.0
 47
0.0
 47
0.0
 47
0.0208333333333333
 47
0.0
 47
0.0
 47
0.0
 47
0.0
 47
1.0
 47
0.0
 47
0.0
 47
0.0
 47
0.0
 47
1.0
171
     0
 49
0.0208333333333333
 49
0.0
 49
0.0
 49
0.0
 49
0.0
 49
0.0208333333333333
 49
0.0
 49
0.0
 49
0.0
 49
0.0
 49
1.0
 49
0.0
 49
0.0
 49
0.0
 49
0.0
 49
1.0
175
     0
142
0.0208333333333333
142
0.0
142
0.0
142
0.0
142
0.0
142
0.0208333333333333
142
0.0
142
0.0
142
0.0
142
0.0
142
1.0
142
0.0
142
0.0
142
0.0
142
0.0
142
1.0
179
     0
144
0.0208333333333333
144
0.0
144
0.0
144
0.0
144
0.0
144
0.0208333333333333
144
0.0
144
0.0
144
0.0
144
0.0
144
1.0
144
0.0
144
0.0
144
0.0
144
0.0
144
1.0
147
0.0208333333333333
147
0.0
147
0.0
147
0.0
147
0.0
147
0.0208333333333333
147
0.0
147
0.0
147
0.0
147
0.0
147
1.0
147
0.0
147
0.0
147
0.0
147
0.0
147
1.0
  0
MATERIAL
  5
95B0
102
{ACAD_XDICTIONARY
360
95B1
102
}
102
{ACAD_REACTORS
330
95AF
102
}
330
95AF
100
AcDbMaterial
  1
ByLayer
 72
     0
 43
0.0208333333333333
 43
0.0
 43
0.0
 43
0.0
 43
0.0
 43
0.0208333333333333
 43
0.0
 43
0.0
 43
0.0
 43
0.0
 43
1.0
 43
0.0
 43
0.0
 43
0.0
 43
0.0
 43
1.0
 77
     0
 47
0.0208333333333333
 47
0.0
 47
0.0
 47
0.0
 47
0.0
 47
0.0208333333333333
 47
0.0
 47
0.0
 47
0.0
 47
0.0
 47
1.0
 47
0.0
 47
0.0
 47
0.0
 47
0.0
 47
1.0
171
     0
 49
0.0208333333333333
 49
0.0
 49
0.0
 49
0.0
 49
0.0
 49
0.0208333333333333
 49
0.0
 49
0.0
 49
0.0
 49
0.0
 49
1.0
 49
0.0
 49
0.0
 49
0.0
 49
0.0
 49
1.0
175
     0
142
0.0208333333333333
142
0.0
142
0.0
142
0.0
142
0.0
142
0.0208333333333333
142
0.0
142
0.0
142
0.0
142
0.0
142
1.0
142
0.0
142
0.0
142
0.0
142
0.0
142
1.0
179
     0
144
0.0208333333333333
144
0.0
144
0.0
144
0.0
144
0.0
144
0.0208333333333333
144
0.0
144
0.0
144
0.0
144
0.0
144
1.0
144
0.0
144
0.0
144
0.0
144
0.0
144
1.0
147
0.0208333333333333
147
0.0
147
0.0
147
0.0
147
0.0
147
0.0208333333333333
147
0.0
147
0.0
147
0.0
147
0.0
147
1.0
147
0.0
147
0.0
147
0.0
147
0.0
147
1.0
  0
MATERIAL
  5
95C0
102
{ACAD_XDICTIONARY
360
95C1
102
}
102
{ACAD_REACTORS
330
95AF
102
}
330
95AF
100
AcDbMaterial
  1
Global
 72
     0
 43
0.0208333333333333
 43
0.0
 43
0.0
 43
0.0
 43
0.0
 43
0.0208333333333333
 43
0.0
 43
0.0
 43
0.0
 43
0.0
 43
1.0
 43
0.0
 43
0.0
 43
0.0
 43
0.0
 43
1.0
 77
     0
 47
0.0208333333333333
 47
0.0
 47
0.0
 47
0.0
 47
0.0
 47
0.0208333333333333
 47
0.0
 47
0.0
 47
0.0
 47
0.0
 47
1.0
 47
0.0
 47
0.0
 47
0.0
 47
0.0
 47
1.0
171
     0
 49
0.0208333333333333
 49
0.0
 49
0.0
 49
0.0
 49
0.0
 49
0.0208333333333333
 49
0.0
 49
0.0
 49
0.0
 49
0.0
 49
1.0
 49
0.0
 49
0.0
 49
0.0
 49
0.0
 49
1.0
175
     0
142
0.0208333333333333
142
0.0
142
0.0
142
0.0
142
0.0
142
0.0208333333333333
142
0.0
142
0.0
142
0.0
142
0.0
142
1.0
142
0.0
142
0.0
142
0.0
142
0.0
142
1.0
179
     0
144
0.0208333333333333
144
0.0
144
0.0
144
0.0
144
0.0
144
0.0208333333333333
144
0.0
144
0.0
144
0.0
144
0.0
144
1.0
144
0.0
144
0.0
144
0.0
144
0.0
144
1.0
147
0.0208333333333333
147
0.0
147
0.0
147
0.0
147
0.0
147
0.0208333333333333
147
0.0
147
0.0
147
0.0
147
0.0
147
1.0
147
0.0
147
0.0
147
0.0
147
0.0
147
1.0
  0
MLEADERSTYLE
  5
95F7
102
{ACAD_REACTORS
330
95F6
102
}
330
95F6
100
AcDbMLeaderStyle
170
     2
171
     1
172
     0
 90
        2
 40
0.0
 41
0.0
173
     1
 91
-1056964608
340
93D5
 92
       -2
290
     1
 42
0.09
291
     1
 43
0.36
  3
Standard
 44
0.18
300

342
93D3
174
     1
178
     6
175
     1
176
     0
 93
-1056964608
 45
0.18
292
     0
297
     0
 46
0.18
 94
-1056964608
 47
1.0
 49
1.0
140
1.0
293
     1
141
0.0
294
     1
177
     0
142
1.0
295
     0
296
     0
143
0.125
1001
ACAD_MLEADERVER
1070
     2
  0
MLINESTYLE
  5
93D9
102
{ACAD_REACTORS
330
93D8
102
}
330
93D8
100
AcDbMlineStyle
  2
STANDARD
 70
     0
  3

 62
   256
 51
90.0
 52
90.0
 71
     2
 49
0.5
 62
   256
  6
BYLAYER
 49
-0.5
 62
   256
  6
BYLAYER
  0
ACDBPLACEHOLDER
  5
95AE
102
{ACAD_REACTORS
330
95AD
102
}
330
95AD
  0
SCALE
  5
95E5
102
{ACAD_REACTORS
330
95E4
102
}
330
95E4
100
AcDbScale
 70
     0
300
1:1
140
1.0
141
1.0
290
     1
  0
SCALE
  5
95E6
102
{ACAD_REACTORS
330
95E4
102
}
330
95E4
100
AcDbScale
 70
     0
300
1/128" = 1'-0"
140
0.0078125
141
12.0
290
     0
  0
SCALE
  5
95E7
102
{ACAD_REACTORS
330
95E4
102
}
330
95E4
100
AcDbScale
 70
     0
300
1/64" = 1'-0"
140
0.015625
141
12.0
290
     0
  0
SCALE
  5
95E8
102
{ACAD_REACTORS
330
95E4
102
}
330
95E4
100
AcDbScale
 70
     0
300
1/32" = 1'-0"
140
0.03125
141
12.0
290
     0
  0
SCALE
  5
95E9
102
{ACAD_REACTORS
330
95E4
102
}
330
95E4
100
AcDbScale
 70
     0
300
1/16" = 1'-0"
140
0.0625
141
12.0
290
     0
  0
SCALE
  5
95EA
102
{ACAD_REACTORS
330
95E4
102
}
330
95E4
100
AcDbScale
 70
     0
300
3/32" = 1'-0"
140
0.09375
141
12.0
290
     0
  0
SCALE
  5
95EB
102
{ACAD_REACTORS
330
95E4
102
}
330
95E4
100
AcDbScale
 70
     0
300
1/8" = 1'-0"
140
0.125
141
12.0
290
     0
  0
SCALE
  5
95EC
102
{ACAD_REACTORS
330
95E4
102
}
330
95E4
100
AcDbScale
 70
     0
300
3/16" = 1'-0"
140
0.1875
141
12.0
290
     0
  0
SCALE
  5
95ED
102
{ACAD_REACTORS
330
95E4
102
}
330
95E4
100
AcDbScale
 70
     0
300
1/4" = 1'-0"
140
0.25
141
12.0
290
     0
  0
SCALE
  5
95EE
102
{ACAD_REACTORS
330
95E4
102
}
330
95E4
100
AcDbScale
 70
     0
300
3/8" = 1'-0"
140
0.375
141
12.0
290
     0
  0
SCALE
  5
95EF
102
{ACAD_REACTORS
330
95E4
102
}
330
95E4
100
AcDbScale
 70
     0
300
1/2" = 1'-0"
140
0.5
141
12.0
290
     0
  0
SCALE
  5
95F0
102
{ACAD_REACTORS
330
95E4
102
}
330
95E4
100
AcDbScale
 70
     0
300
3/4" = 1'-0"
140
0.75
141
12.0
290
     0
  0
SCALE
  5
95F1
102
{ACAD_REACTORS
330
95E4
102
}
330
95E4
100
AcDbScale
 70
     0
300
1" = 1'-0"
140
1.0
141
12.0
290
     0
  0
SCALE
  5
95F2
102
{ACAD_REACTORS
330
95E4
102
}
330
95E4
100
AcDbScale
 70
     0
300
1-1/2" = 1'-0"
140
1.5
141
12.0
290
     0
  0
SCALE
  5
95F3
102
{ACAD_REACTORS
330
95E4
102
}
330
95E4
100
AcDbScale
 70
     0
300
3" = 1'-0"
140
3.0
141
12.0
290
     0
  0
SCALE
  5
95F4
102
{ACAD_REACTORS
330
95E4
102
}
330
95E4
100
AcDbScale
 70
     0
300
6" = 1'-0"
140
6.0
141
12.0
290
     0
  0
SCALE
  5
95F5
102
{ACAD_REACTORS
330
95E4
102
}
330
95E4
100
AcDbScale
 70
     0
300
1'-0" = 1'-0"
140
12.0
141
12.0
290
     0
  0
ACDBSECTIONVIEWSTYLE
  5
95F9
102
{ACAD_XDICTIONARY
360
9654
102
}
102
{ACAD_REACTORS
330
95F8
102
}
330
95F8
100
AcDbModelDocViewStyle
 70
     0
  3
Imperial24
290
     0
100
AcDbSectionViewStyle
 70
     0
 71
     0
 90
       78
 71
     1
340
93D3
 40
0.24
340
0
340
0
 40
0.24
300
I, O, Q, S, X, Z
 40
0.48
 90
        3
 40
0.18
 90
        1
 71
     2
340
93D7
 90
       25
340
93D7
 90
       50
 40
0.24
 40
0.0
 40
0.24
 71
     3
340
93D3
 40
0.24
 90
        1
 40
0.75
 90
        1
300
%<\AcVar ViewType \f "%tc1">% %<\AcVar ViewSectionStartId>%-%<\AcVar ViewSectionEndId>%\PSCALE %<\AcVar ViewScale \f "%sn">%
 71
     4
300
ANSI31
 40
1.0
 90
        0
290
     0
290
     0
 90
        6
 40
0.0
 40
1.570796326794896
 40
0.2617993877991494
 40
1.308996938995747
 40
-0.2617993877991494
 40
1.832595714594046
  0
TABLESTYLE
  5
95E3
102
{ACAD_XDICTIONARY
360
961B
102
}
102
{ACAD_REACTORS
330
95E2
102
}
330
95E2
100
AcDbTableStyle
  3
Standard
 70
     0
 71
     0
 40
0.06
 41
0.06
280
     0
281
     0
  7
STANDARD
140
0.18
170
     2
 62
     0
 63
     7
283
     0
274
    -2
284
     1
 64
     0
275
    -2
285
     1
 65
     0
276
    -2
286
     1
 66
     0
277
    -2
287
     1
 67
     0
278
    -2
288
     1
 68
     0
279
    -2
289
     1
 69
     0
  7
STANDARD
140
0.25
170
     5
 62
     0
 63
     7
283
     0
274
    -2
284
     1
 64
     0
275
    -2
285
     1
 65
     0
276
    -2
286
     1
 66
     0
277
    -2
287
     1
 67
     0
278
    -2
288
     1
 68
     0
279
    -2
289
     1
 69
     0
  7
STANDARD
140
0.18
170
     5
 62
     0
 63
     7
283
     0
274
    -2
284
     1
 64
     0
275
    -2
285
     1
 65
     0
276
    -2
286
     1
 66
     0
277
    -2
287
     1
 67
     0
278
    -2
288
     1
 68
     0
279
    -2
289
     1
 69
     0
  0
VISUALSTYLE
  5
95CE
102
{ACAD_XDICTIONARY
360
962C
102
}
102
{ACAD_REACTORS
330
95C8
102
}
330
95C8
100
AcDbVisualStyle
  2
2dWireframe
 70
     4
 71
     0
 72
     2
 73
     0
 90
        0
 40
-0.6
 41
-30.0
 62
     5
 63
     7
 74
     1
 91
        4
 64
     7
 65
   257
 75
     1
175
     1
 42
1.0
 92
        0
 66
   257
 43
1.0
 76
     1
 77
     6
 78
     2
 67
     7
 79
     5
170
     0
171
     0
290
     0
174
     0
 93
        1
 44
0.0
173
     0
291
     0
 45
0.0
1001
ACAD
1000
AcDbSavedByObjectVersion
1070
     0
  0
VISUALSTYLE
  5
95CD
102
{ACAD_XDICTIONARY
360
962A
102
}
102
{ACAD_REACTORS
330
95C8
102
}
330
95C8
100
AcDbVisualStyle
  2
Basic
 70
     7
 71
     1
 72
     0
 73
     1
 90
        0
 40
-0.6
 41
-30.0
 62
     5
 63
     7
 74
     0
 91
        4
 64
     7
 65
   257
 75
     1
175
     1
 42
1.0
 92
        8
 66
     7
 43
1.0
 76
     1
 77
     6
 78
     2
 67
     7
 79
     5
170
     0
171
     0
290
     0
174
     0
 93
        1
 44
0.0
173
     0
291
     1
 45
0.0
1001
ACAD
1000
AcDbSavedByObjectVersion
1070
     0
  0
VISUALSTYLE
  5
95D4
102
{ACAD_XDICTIONARY
360
9638
102
}
102
{ACAD_REACTORS
330
95C8
102
}
330
95C8
100
AcDbVisualStyle
  2
Brighten
 70
    12
 71
     2
 72
     2
 73
     0
 90
        0
 40
-0.6
 41
-30.0
 62
     5
 63
     7
 74
     1
 91
        4
 64
     7
 65
   257
 75
     1
175
     1
 42
1.0
 92
        8
 66
     7
 43
1.0
 76
     1
 77
     6
 78
     2
 67
     7
 79
     5
170
     0
171
     0
290
     0
174
     0
 93
        1
 44
50.0
173
     0
291
     1
 45
0.0
1001
ACAD
1000
AcDbSavedByObjectVersion
1070
     0
  0
VISUALSTYLE
  5
95D8
102
{ACAD_XDICTIONARY
360
9640
102
}
102
{ACAD_REACTORS
330
95C8
102
}
330
95C8
100
AcDbVisualStyle
  2
ColorChange
 70
    16
 71
     2
 72
     2
 73
     3
 90
        0
 40
-0.6
 41
-30.0
 62
     5
 63
     8
 74
     1
 91
        4
 64
     7
 65
   257
 75
     1
175
     1
 42
1.0
 92
        8
 66
     8
 43
1.0
 76
     1
 77
     6
 78
     2
 67
     7
 79
     5
170
     0
171
     0
290
     0
174
     0
 93
        1
 44
0.0
173
     0
291
     1
 45
0.0
1001
ACAD
1000
AcDbSavedByObjectVersion
1070
     0
  0
VISUALSTYLE
  5
95D1
102
{ACAD_XDICTIONARY
360
9632
102
}
102
{ACAD_REACTORS
330
95C8
102
}
330
95C8
100
AcDbVisualStyle
  2
Conceptual
 70
     9
 71
     3
 72
     2
 73
     0
 90
        0
 40
-0.6
 41
-30.0
 62
     5
 63
     7
 74
     2
 91
        2
 64
     7
 65
   257
 75
     1
175
     1
 42
179.0
 92
        8
 66
     7
 43
1.0
 76
     1
 77
     6
 78
     2
 67
     7
 79
     3
170
     0
171
     0
290
     0
174
     0
 93
        1
 44
0.0
173
     0
291
     0
 45
0.0
1001
ACAD
1000
AcDbSavedByObjectVersion
1070
     0
  0
VISUALSTYLE
  5
95D3
102
{ACAD_XDICTIONARY
360
9636
102
}
102
{ACAD_REACTORS
330
95C8
102
}
330
95C8
100
AcDbVisualStyle
  2
Dim
 70
    11
 71
     2
 72
     2
 73
     0
 90
        0
 40
-0.6
 41
-30.0
 62
     5
 63
     7
 74
     1
 91
        4
 64
     7
 65
   257
 75
     1
175
     1
 42
1.0
 92
        8
 66
     7
 43
1.0
 76
     1
 77
     6
 78
     2
 67
     7
 79
     5
170
     0
171
     0
290
     0
174
     0
 93
        1
 44
-50.0
173
     0
291
     1
 45
0.0
1001
ACAD
1000
AcDbSavedByObjectVersion
1070
     0
  0
VISUALSTYLE
  5
95E0
102
{ACAD_XDICTIONARY
360
9650
102
}
102
{ACAD_REACTORS
330
95C8
102
}
330
95C8
100
AcDbVisualStyle
  2
EdgeColorOff
 70
    22
 71
     2
 72
     2
 73
     0
 90
        0
 40
-0.6
 41
-30.0
 62
     5
 63
     7
 74
     1
 91
        4
 64
     7
 65
   257
 75
     1
175
     1
 42
1.0
 92
        8
 66
     7
 43
1.0
 76
     1
 77
     6
 78
     2
 67
     7
 79
     5
170
     0
171
     0
290
     0
174
     0
 93
        1
 44
0.0
173
     0
291
     1
 45
0.0
1001
ACAD
1000
AcDbSavedByObjectVersion
1070
     0
  0
VISUALSTYLE
  5
95D7
102
{ACAD_XDICTIONARY
360
963E
102
}
102
{ACAD_REACTORS
330
95C8
102
}
330
95C8
100
AcDbVisualStyle
  2
Facepattern
 70
    15
 71
     2
 72
     2
 73
     0
 90
        0
 40
-0.6
 41
-30.0
 62
     5
 63
     7
 74
     1
 91
        4
 64
     7
 65
   257
 75
     1
175
     1
 42
1.0
 92
        8
 66
     7
 43
1.0
 76
     1
 77
     6
 78
     2
 67
     7
 79
     5
170
     0
171
     0
290
     0
174
     0
 93
        1
 44
0.0
173
     0
291
     1
 45
0.0
1001
ACAD
1000
AcDbSavedByObjectVersion
1070
     0
  0
VISUALSTYLE
  5
95C9
102
{ACAD_XDICTIONARY
360
9622
102
}
102
{ACAD_REACTORS
330
95C8
102
}
330
95C8
100
AcDbVisualStyle
  2
Flat
 70
     0
 71
     2
 72
     1
 73
     1
 90
        2
 40
-0.6
 41
30.0
 62
     5
 63
     7
 74
     0
 91
        0
 64
     7
 65
   257
 75
     1
175
     1
 42
1.0
 92
        8
 66
     7
 43
1.0
 76
     1
 77
     6
 78
     2
 67
     7
 79
     5
170
     0
171
     0
290
     0
174
     0
 93
       13
 44
0.0
173
     0
291
     1
 45
0.0
1001
ACAD
1000
AcDbSavedByObjectVersion
1070
     0
  0
VISUALSTYLE
  5
95CA
102
{ACAD_XDICTIONARY
360
9624
102
}
102
{ACAD_REACTORS
330
95C8
102
}
330
95C8
100
AcDbVisualStyle
  2
FlatWithEdges
 70
     1
 71
     2
 72
     1
 73
     1
 90
        2
 40
-0.6
 41
30.0
 62
     5
 63
     7
 74
     1
 91
        0
 64
     7
 65
   257
 75
     1
175
     1
 42
1.0
 92
        0
 66
   257
 43
1.0
 76
     1
 77
     6
 78
     2
 67
     7
 79
     5
170
     0
171
     0
290
     0
174
     0
 93
       13
 44
0.0
173
     0
291
     1
 45
0.0
1001
ACAD
1000
AcDbSavedByObjectVersion
1070
     0
  0
VISUALSTYLE
  5
95CB
102
{ACAD_XDICTIONARY
360
9626
102
}
102
{ACAD_REACTORS
330
95C8
102
}
330
95C8
100
AcDbVisualStyle
  2
Gouraud
 70
     2
 71
     2
 72
     2
 73
     1
 90
        2
 40
-0.6
 41
30.0
 62
     5
 63
     7
 74
     0
 91
        0
 64
     7
 65
   257
 75
     1
175
     1
 42
1.0
 92
        0
 66
     7
 43
1.0
 76
     1
 77
     6
 78
     2
 67
     7
 79
     5
170
     0
171
     0
290
     0
174
     0
 93
       13
 44
0.0
173
     0
291
     1
 45
0.0
1001
ACAD
1000
AcDbSavedByObjectVersion
1070
     0
  0
VISUALSTYLE
  5
95CC
102
{ACAD_XDICTIONARY
360
9628
102
}
102
{ACAD_REACTORS
330
95C8
102
}
330
95C8
100
AcDbVisualStyle
  2
GouraudWithEdges
 70
     3
 71
     2
 72
     2
 73
     1
 90
        2
 40
-0.6
 41
30.0
 62
     5
 63
     7
 74
     1
 91
        0
 64
     7
 65
   257
 75
     1
175
     1
 42
1.0
 92
        0
 66
   257
 43
1.0
 76
     1
 77
     6
 78
     2
 67
     7
 79
     5
170
     0
171
     0
290
     0
174
     0
 93
       13
 44
0.0
173
     0
291
     1
 45
0.0
1001
ACAD
1000
AcDbSavedByObjectVersion
1070
     0
  0
VISUALSTYLE
  5
95D0
102
{ACAD_XDICTIONARY
360
9630
102
}
102
{ACAD_REACTORS
330
95C8
102
}
330
95C8
100
AcDbVisualStyle
  2
Hidden
 70
     6
 71
     1
 72
     2
 73
     2
 90
        0
 40
-0.6
 41
-30.0
 62
     5
 63
     7
 74
     2
 91
        2
 64
     7
 65
   257
 75
     2
175
     1
 42
40.0
 92
        0
 66
   257
 43
1.0
 76
     1
 77
     6
 78
     2
 67
     7
 79
     3
170
     0
171
     0
290
     0
174
     0
 93
        1
 44
0.0
173
     0
291
     0
 45
0.0
1001
ACAD
1000
AcDbSavedByObjectVersion
1070
     0
  0
VISUALSTYLE
  5
95DE
102
{ACAD_XDICTIONARY
360
964C
102
}
102
{ACAD_REACTORS
330
95C8
102
}
330
95C8
100
AcDbVisualStyle
  2
JitterOff
 70
    20
 71
     2
 72
     2
 73
     0
 90
        0
 40
-0.6
 41
-30.0
 62
     5
 63
     7
 74
     1
 91
        4
 64
     7
 65
   257
 75
     1
175
     1
 42
1.0
 92
       10
 66
     7
 43
1.0
 76
     1
 77
     6
 78
     2
 67
     7
 79
     5
170
     0
171
     0
290
     0
174
     0
 93
        1
 44
0.0
173
     0
291
     1
 45
0.0
1001
ACAD
1000
AcDbSavedByObjectVersion
1070
     0
  0
VISUALSTYLE
  5
95D6
102
{ACAD_XDICTIONARY
360
963C
102
}
102
{ACAD_REACTORS
330
95C8
102
}
330
95C8
100
AcDbVisualStyle
  2
Linepattern
 70
    14
 71
     2
 72
     2
 73
     0
 90
        0
 40
-0.6
 41
-30.0
 62
     5
 63
     7
 74
     1
 91
        4
 64
     7
 65
   257
 75
     7
175
     7
 42
1.0
 92
        8
 66
     7
 43
1.0
 76
     1
 77
     6
 78
     2
 67
     7
 79
     5
170
     0
171
     0
290
     0
174
     0
 93
        1
 44
0.0
173
     0
291
     1
 45
0.0
1001
ACAD
1000
AcDbSavedByObjectVersion
1070
     0
  0
VISUALSTYLE
  5
95DF
102
{ACAD_XDICTIONARY
360
964E
102
}
102
{ACAD_REACTORS
330
95C8
102
}
330
95C8
100
AcDbVisualStyle
  2
OverhangOff
 70
    21
 71
     2
 72
     2
 73
     0
 90
        0
 40
-0.6
 41
-30.0
 62
     5
 63
     7
 74
     1
 91
        4
 64
     7
 65
   257
 75
     1
175
     1
 42
1.0
 92
        9
 66
     7
 43
1.0
 76
     1
 77
     6
 78
     2
 67
     7
 79
     5
170
     0
171
     0
290
     0
174
     0
 93
        1
 44
0.0
173
     0
291
     1
 45
0.0
1001
ACAD
1000
AcDbSavedByObjectVersion
1070
     0
  0
VISUALSTYLE
  5
95D2
102
{ACAD_XDICTIONARY
360
9634
102
}
102
{ACAD_REACTORS
330
95C8
102
}
330
95C8
100
AcDbVisualStyle
  2
Realistic
 70
     8
 71
     2
 72
     3
 73
     0
 90
        2
 40
-0.6
 41
30.0
 62
     5
 63
     7
 74
     0
 91
        0
 64
     7
 65
   257
 75
     1
175
     1
 42
1.0
 92
        8
 66
   257
 43
1.0
 76
     1
 77
     6
 78
     2
 67
     7
 79
     3
170
     0
171
     0
290
     0
174
     0
 93
       13
 44
0.0
173
     0
291
     0
 45
0.0
1001
ACAD
1000
AcDbSavedByObjectVersion
1070
     0
  0
VISUALSTYLE
  5
95DD
102
{ACAD_XDICTIONARY
360
964A
102
}
102
{ACAD_REACTORS
330
95C8
102
}
330
95C8
100
AcDbVisualStyle
  2
Shaded
 70
    27
 71
     2
 72
     2
 73
     1
 90
        2
 40
-0.6
 41
30.0
 62
     5
 63
     7
 74
     0
 91
        4
 64
     7
 65
   257
 75
     1
175
     1
 42
1.0
 92
        8
 66
   257
 43
1.0
 76
     1
 77
     6
 78
     2
 67
     8
 79
     3
170
     0
171
     0
290
     0
174
     0
 93
        5
 44
0.0
173
     0
291
     0
 45
0.0
1001
ACAD
1000
AcDbSavedByObjectVersion
1070
     0
  0
VISUALSTYLE
  5
95DC
102
{ACAD_XDICTIONARY
360
9648
102
}
102
{ACAD_REACTORS
330
95C8
102
}
330
95C8
100
AcDbVisualStyle
  2
Shaded with edges
 70
    26
 71
     2
 72
     2
 73
     1
 90
        2
 40
-0.6
 41
30.0
 62
     5
 63
     7
 74
     1
 91
       10
 64
     7
 65
   257
 75
     2
175
     1
 42
1.0
 92
        8
 66
   257
 43
1.0
 76
     1
 77
     6
 78
     2
 67
     7
 79
     3
170
     0
171
     0
290
     0
174
     0
 93
        5
 44
0.0
173
     0
291
     0
 45
0.0
1001
ACAD
1000
AcDbSavedByObjectVersion
1070
     0
  0
VISUALSTYLE
  5
95D9
102
{ACAD_XDICTIONARY
360
9642
102
}
102
{ACAD_REACTORS
330
95C8
102
}
330
95C8
100
AcDbVisualStyle
  2
Shades of Gray
 70
    23
 71
     2
 72
     2
 73
     3
 90
        0
 40
-0.6
 41
-30.0
 62
     5
 63
     7
 74
     2
 91
        2
 64
     7
 65
     7
 75
     1
175
     1
 42
40.0
 92
        8
 66
     7
 43
1.0
 76
     1
 77
     6
 78
     2
 67
     7
 79
     3
170
     0
171
     0
290
     0
174
     0
 93
        1
 44
0.0
173
     0
291
     0
 45
0.0
1001
ACAD
1000
AcDbSavedByObjectVersion
1070
     0
  0
VISUALSTYLE
  5
95DA
102
{ACAD_XDICTIONARY
360
9644
102
}
102
{ACAD_REACTORS
330
95C8
102
}
330
95C8
100
AcDbVisualStyle
  2
Sketchy
 70
    24
 71
     1
 72
     2
 73
     2
 90
        0
 40
-0.6
 41
-30.0
 62
     5
 63
     7
 74
     2
 91
        2
 64
     7
 65
     7
 75
     1
175
     1
 42
40.0
 92
       11
 66
     7
 43
1.0
 76
     1
 77
     6
 78
     2
 67
     7
 79
     6
170
     0
171
     0
290
     0
174
     0
 93
        1
 44
0.0
173
     0
291
     0
 45
0.0
1001
ACAD
1000
AcDbSavedByObjectVersion
1070
     0
  0
VISUALSTYLE
  5
95D5
102
{ACAD_XDICTIONARY
360
963A
102
}
102
{ACAD_REACTORS
330
95C8
102
}
330
95C8
100
AcDbVisualStyle
  2
Thicken
 70
    13
 71
     2
 72
     2
 73
     0
 90
        0
 40
-0.6
 41
-30.0
 62
     5
 63
     7
 74
     1
 91
        4
 64
     7
 65
   257
 75
     1
175
     1
 42
1.0
 92
       12
 66
     7
 43
1.0
 76
     1
 77
     6
 78
     2
 67
     7
 79
     5
170
     0
171
     0
290
     0
174
     0
 93
        1
 44
0.0
173
     0
291
     1
 45
0.0
1001
ACAD
1000
AcDbSavedByObjectVersion
1070
     0
  0
VISUALSTYLE
  5
95CF
102
{ACAD_XDICTIONARY
360
962E
102
}
102
{ACAD_REACTORS
330
95C8
102
}
330
95C8
100
AcDbVisualStyle
  2
Wireframe
 70
     5
 71
     0
 72
     2
 73
     0
 90
        0
 40
-0.6
 41
-30.0
 62
     5
 63
     7
 74
     1
 91
        4
 64
     7
 65
   257
 75
     1
175
     1
 42
1.0
 92
        0
 66
   257
 43
1.0
 76
     1
 77
     6
 78
     2
 67
     7
 79
     3
170
     0
171
     0
290
     0
174
     0
 93
        1
 44
0.0
173
     0
291
     0
 45
0.0
1001
ACAD
1000
AcDbSavedByObjectVersion
1070
     0
  0
VISUALSTYLE
  5
95DB
102
{ACAD_XDICTIONARY
360
9646
102
}
102
{ACAD_REACTORS
330
95C8
102
}
330
95C8
100
AcDbVisualStyle
  2
X-Ray
 70
    25
 71
     2
 72
     2
 73
     1
 90
        1
 40
0.5
 41
-30.0
 62
     5
 63
     7
 74
     1
 91
        0
 64
     7
 65
   257
 75
     1
175
     1
 42
1.0
 92
        8
 66
     7
 43
1.0
 76
     1
 77
     6
 78
     2
 67
     7
 79
     3
170
     0
171
     0
290
     0
174
     0
 93
       13
 44
0.0
173
     0
291
     0
 45
0.0
1001
ACAD
1000
AcDbSavedByObjectVersion
1070
     0
  0
DICTIONARYVAR
  5
9615
102
{ACAD_REACTORS
330
9610
102
}
330
9610
100
DictionaryVariables
280
     0
  1
1:1
  0
DICTIONARYVAR
  5
9612
102
{ACAD_REACTORS
330
9610
102
}
330
9610
100
DictionaryVariables
280
     0
  1
STANDARD
  0
DICTIONARYVAR
  5
9611
102
{ACAD_REACTORS
330
9610
102
}
330
9610
100
DictionaryVariables
280
     0
  1
STANDARD
  0
DICTIONARYVAR
  5
9613
102
{ACAD_REACTORS
330
9610
102
}
330
9610
100
DictionaryVariables
280
     0
  1
Imperial24
  0
DICTIONARYVAR
  5
9614
102
{ACAD_REACTORS
330
9610
102
}
330
9610
100
DictionaryVariables
280
     0
  1
Imperial24
  0
DICTIONARYVAR
  5
9618
102
{ACAD_REACTORS
330
9610
102
}
330
9610
100
DictionaryVariables
280
     0
  1
1
  0
DICTIONARYVAR
  5
9617
102
{ACAD_REACTORS
330
9610
102
}
330
9610
100
DictionaryVariables
280
     0
  1
0
  0
DICTIONARYVAR
  5
9616
102
{ACAD_REACTORS
330
9610
102
}
330
9610
100
DictionaryVariables
280
     0
  1
127
  0
DICTIONARYVAR
  5
9619
102
{ACAD_REACTORS
330
9610
102
}
330
9610
100
DictionaryVariables
280
     0
  1
2
  0
DICTIONARY
  5
9656
330
95FB
100
AcDbDictionary
280
     1
281
     1
  3
ACAD_XREC_ROUNDTRIP
360
9657
  0
DICTIONARY
  5
9658
330
95FC
100
AcDbDictionary
280
     1
281
     1
  3
ACAD_XREC_ROUNDTRIP
360
9659
  0
DICTIONARY
  5
965A
330
95FD
100
AcDbDictionary
280
     1
281
     1
  3
ACAD_XREC_ROUNDTRIP
360
965B
  0
DICTIONARY
  5
95B9
330
95B8
100
AcDbDictionary
280
     1
281
     1
  3
ACAD_XREC_ROUNDTRIP
360
9620
  3
BUMPTILE
360
95BB
  3
DIFFUSETILE
360
95BA
  3
OPACITYTILE
360
95BE
  3
REFLECTIONTILE
360
95BD
  3
REFRACTIONTILE
360
95BF
  3
SPECULARTILE
360
95BC
  0
DICTIONARY
  5
95B1
330
95B0
100
AcDbDictionary
280
     1
281
     1
  3
ACAD_XREC_ROUNDTRIP
360
961F
  3
BUMPTILE
360
95B3
  3
DIFFUSETILE
360
95B2
  3
OPACITYTILE
360
95B6
  3
REFLECTIONTILE
360
95B5
  3
REFRACTIONTILE
360
95B7
  3
SPECULARTILE
360
95B4
  0
DICTIONARY
  5
95C1
330
95C0
100
AcDbDictionary
280
     1
281
     1
  3
ACAD_XREC_ROUNDTRIP
360
9621
  3
BUMPTILE
360
95C3
  3
DIFFUSETILE
360
95C2
  3
OPACITYTILE
360
95C6
  3
REFLECTIONTILE
360
95C5
  3
REFRACTIONTILE
360
95C7
  3
SPECULARTILE
360
95C4
  0
DICTIONARY
  5
9654
330
95F9
100
AcDbDictionary
280
     1
281
     1
  3
ACAD_XREC_ROUNDTRIP
360
9655
  0
DICTIONARY
  5
961B
330
95E3
100
AcDbDictionary
280
     1
281
     1
  3
ACAD_ROUNDTRIP_2008_TABLESTYLE_CELLSTYLEMAP
360
961C
  3
ACAD_XREC_ROUNDTRIP
360
9652
  0
DICTIONARY
  5
962C
330
95CE
100
AcDbDictionary
280
     1
281
     1
  3
ACAD_XREC_ROUNDTRIP
360
962D
  0
DICTIONARY
  5
962A
330
95CD
100
AcDbDictionary
280
     1
281
     1
  3
ACAD_XREC_ROUNDTRIP
360
962B
  0
DICTIONARY
  5
9638
330
95D4
100
AcDbDictionary
280
     1
281
     1
  3
ACAD_XREC_ROUNDTRIP
360
9639
  0
DICTIONARY
  5
9640
330
95D8
100
AcDbDictionary
280
     1
281
     1
  3
ACAD_XREC_ROUNDTRIP
360
9641
  0
DICTIONARY
  5
9632
330
95D1
100
AcDbDictionary
280
     1
281
     1
  3
ACAD_XREC_ROUNDTRIP
360
9633
  0
DICTIONARY
  5
9636
330
95D3
100
AcDbDictionary
280
     1
281
     1
  3
ACAD_XREC_ROUNDTRIP
360
9637
  0
DICTIONARY
  5
9650
330
95E0
100
AcDbDictionary
280
     1
281
     1
  3
ACAD_XREC_ROUNDTRIP
360
9651
  0
DICTIONARY
  5
963E
330
95D7
100
AcDbDictionary
280
     1
281
     1
  3
ACAD_XREC_ROUNDTRIP
360
963F
  0
DICTIONARY
  5
9622
330
95C9
100
AcDbDictionary
280
     1
281
     1
  3
ACAD_XREC_ROUNDTRIP
360
9623
  0
DICTIONARY
  5
9624
330
95CA
100
AcDbDictionary
280
     1
281
     1
  3
ACAD_XREC_ROUNDTRIP
360
9625
  0
DICTIONARY
  5
9626
330
95CB
100
AcDbDictionary
280
     1
281
     1
  3
ACAD_XREC_ROUNDTRIP
360
9627
  0
DICTIONARY
  5
9628
330
95CC
100
AcDbDictionary
280
     1
281
     1
  3
ACAD_XREC_ROUNDTRIP
360
9629
  0
DICTIONARY
  5
9630
330
95D0
100
AcDbDictionary
280
     1
281
     1
  3
ACAD_XREC_ROUNDTRIP
360
9631
  0
DICTIONARY
  5
964C
330
95DE
100
AcDbDictionary
280
     1
281
     1
  3
ACAD_XREC_ROUNDTRIP
360
964D
  0
DICTIONARY
  5
963C
330
95D6
100
AcDbDictionary
280
     1
281
     1
  3
ACAD_XREC_ROUNDTRIP
360
963D
  0
DICTIONARY
  5
964E
330
95DF
100
AcDbDictionary
280
     1
281
     1
  3
ACAD_XREC_ROUNDTRIP
360
964F
  0
DICTIONARY
  5
9634
330
95D2
100
AcDbDictionary
280
     1
281
     1
  3
ACAD_XREC_ROUNDTRIP
360
9635
  0
DICTIONARY
  5
964A
330
95DD
100
AcDbDictionary
280
     1
281
     1
  3
ACAD_XREC_ROUNDTRIP
360
964B
  0
DICTIONARY
  5
9648
330
95DC
100
AcDbDictionary
280
     1
281
     1
  3
ACAD_XREC_ROUNDTRIP
360
9649
  0
DICTIONARY
  5
9642
330
95D9
100
AcDbDictionary
280
     1
281
     1
  3
ACAD_XREC_ROUNDTRIP
360
9643
  0
DICTIONARY
  5
9644
330
95DA
100
AcDbDictionary
280
     1
281
     1
  3
ACAD_XREC_ROUNDTRIP
360
9645
  0
DICTIONARY
  5
963A
330
95D5
100
AcDbDictionary
280
     1
281
     1
  3
ACAD_XREC_ROUNDTRIP
360
963B
  0
DICTIONARY
  5
962E
330
95CF
100
AcDbDictionary
280
     1
281
     1
  3
ACAD_XREC_ROUNDTRIP
360
962F
  0
DICTIONARY
  5
9646
330
95DB
100
AcDbDictionary
280
     1
281
     1
  3
ACAD_XREC_ROUNDTRIP
360
9647
  0
XRECORD
  5
9657
102
{ACAD_REACTORS
330
9656
102
}
330
9656
100
AcDbXrecord
280
     1
102
DISPLAYNAME
  1
Imperial24
102
FLAGS
 90
        0
  0
XRECORD
  5
9659
102
{ACAD_REACTORS
330
9658
102
}
330
9658
100
AcDbXrecord
280
     1
102
SHADEPLOT
 70
     0
102
SHADEPLOTRESLEVEL
 70
     2
102
SHADEPLOTCUSTOMDPI
 70
   300
  0
XRECORD
  5
965B
102
{ACAD_REACTORS
330
965A
102
}
330
965A
100
AcDbXrecord
280
     1
102
SHADEPLOT
 70
     0
102
SHADEPLOTRESLEVEL
 70
     2
102
SHADEPLOTCUSTOMDPI
 70
   300
  0
XRECORD
  5
9620
102
{ACAD_REACTORS
330
95B9
102
}
330
95B9
100
AcDbXrecord
280
     1
102
MATERIAL
148
0.0
149
0.0
149
0.0
 93
        0
 94
      127
282
     0
 72
     0
 77
     0
171
     0
175
     0
179
     0
273
     0
  0
XRECORD
  5
95BB
102
{ACAD_REACTORS
330
95B9
102
}
330
95B9
100
AcDbXrecord
280
     1
270
     1
271
     1
  0
XRECORD
  5
95BA
102
{ACAD_REACTORS
330
95B9
102
}
330
95B9
100
AcDbXrecord
280
     1
270
     1
271
     1
  0
XRECORD
  5
95BE
102
{ACAD_REACTORS
330
95B9
102
}
330
95B9
100
AcDbXrecord
280
     1
270
     1
271
     1
  0
XRECORD
  5
95BD
102
{ACAD_REACTORS
330
95B9
102
}
330
95B9
100
AcDbXrecord
280
     1
270
     1
271
     1
  0
XRECORD
  5
95BF
102
{ACAD_REACTORS
330
95B9
102
}
330
95B9
100
AcDbXrecord
280
     1
270
     1
271
     1
  0
XRECORD
  5
95BC
102
{ACAD_REACTORS
330
95B9
102
}
330
95B9
100
AcDbXrecord
280
     1
270
     1
271
     1
  0
XRECORD
  5
961F
102
{ACAD_REACTORS
330
95B1
102
}
330
95B1
100
AcDbXrecord
280
     1
102
MATERIAL
148
0.0
149
0.0
149
0.0
 93
        0
 94
      127
282
     0
 72
     0
 77
     0
171
     0
175
     0
179
     0
273
     0
  0
XRECORD
  5
95B3
102
{ACAD_REACTORS
330
95B1
102
}
330
95B1
100
AcDbXrecord
280
     1
270
     1
271
     1
  0
XRECORD
  5
95B2
102
{ACAD_REACTORS
330
95B1
102
}
330
95B1
100
AcDbXrecord
280
     1
270
     1
271
     1
  0
XRECORD
  5
95B6
102
{ACAD_REACTORS
330
95B1
102
}
330
95B1
100
AcDbXrecord
280
     1
270
     1
271
     1
  0
XRECORD
  5
95B5
102
{ACAD_REACTORS
330
95B1
102
}
330
95B1
100
AcDbXrecord
280
     1
270
     1
271
     1
  0
XRECORD
  5
95B7
102
{ACAD_REACTORS
330
95B1
102
}
330
95B1
100
AcDbXrecord
280
     1
270
     1
271
     1
  0
XRECORD
  5
95B4
102
{ACAD_REACTORS
330
95B1
102
}
330
95B1
100
AcDbXrecord
280
     1
270
     1
271
     1
  0
XRECORD
  5
9621
102
{ACAD_REACTORS
330
95C1
102
}
330
95C1
100
AcDbXrecord
280
     1
102
MATERIAL
148
0.0
149
0.0
149
0.0
 93
        0
 94
      127
282
     0
 72
     0
 77
     0
171
     0
175
     0
179
     0
273
     0
  0
XRECORD
  5
95C3
102
{ACAD_REACTORS
330
95C1
102
}
330
95C1
100
AcDbXrecord
280
     1
270
     1
271
     1
  0
XRECORD
  5
95C2
102
{ACAD_REACTORS
330
95C1
102
}
330
95C1
100
AcDbXrecord
280
     1
270
     1
271
     1
  0
XRECORD
  5
95C6
102
{ACAD_REACTORS
330
95C1
102
}
330
95C1
100
AcDbXrecord
280
     1
270
     1
271
     1
  0
XRECORD
  5
95C5
102
{ACAD_REACTORS
330
95C1
102
}
330
95C1
100
AcDbXrecord
280
     1
270
     1
271
     1
  0
XRECORD
  5
95C7
102
{ACAD_REACTORS
330
95C1
102
}
330
95C1
100
AcDbXrecord
280
     1
270
     1
271
     1
  0
XRECORD
  5
95C4
102
{ACAD_REACTORS
330
95C1
102
}
330
95C1
100
AcDbXrecord
280
     1
270
     1
271
     1
  0
XRECORD
  5
9655
102
{ACAD_REACTORS
330
9654
102
}
330
9654
100
AcDbXrecord
280
     1
102
DISPLAYNAME
  1
Imperial24
102
FLAGS
 90
        0
  0
CELLSTYLEMAP
  5
961C
102
{ACAD_REACTORS
330
961B
102
}
330
961B
100
AcDbCellStyleMap
 90
        3
300
CELLSTYLE
  1
TABLEFORMAT_BEGIN
 90
        5
170
     1
 91
        0
 92
    32768
 62
   257
 93
        1
300
CONTENTFORMAT
  1
CONTENTFORMAT_BEGIN
 90
        0
 91
        0
 92
      512
 93
        0
300

 40
0.0
140
1.0
 94
        5
 62
     0
340
93D3
144
0.25
309
CONTENTFORMAT_END
171
     0
 94
        0
309
TABLEFORMAT_END
  1
CELLSTYLE_BEGIN
 90
        1
 91
        1
300
_TITLE
309
CELLSTYLE_END
300
CELLSTYLE
  1
TABLEFORMAT_BEGIN
 90
        5
170
     1
 91
        0
 92
        0
 62
   257
 93
        1
300
CONTENTFORMAT
  1
CONTENTFORMAT_BEGIN
 90
        0
 91
        0
 92
      512
 93
        0
300

 40
0.0
140
1.0
 94
        5
 62
     0
340
93D3
144
0.18
309
CONTENTFORMAT_END
171
     0
 94
        0
309
TABLEFORMAT_END
  1
CELLSTYLE_BEGIN
 90
        2
 91
        1
300
_HEADER
309
CELLSTYLE_END
300
CELLSTYLE
  1
TABLEFORMAT_BEGIN
 90
        5
170
     1
 91
        0
 92
        0
 62
   257
 93
        1
300
CONTENTFORMAT
  1
CONTENTFORMAT_BEGIN
 90
        0
 91
        0
 92
      512
 93
        0
300

 40
0.0
140
1.0
 94
        2
 62
     0
340
93D3
144
0.18
309
CONTENTFORMAT_END
171
     0
 94
        0
309
TABLEFORMAT_END
  1
CELLSTYLE_BEGIN
 90
        3
 91
        2
300
_DATA
309
CELLSTYLE_END
  0
XRECORD
  5
9652
102
{ACAD_REACTORS
330
961B
102
}
330
961B
100
AcDbXrecord
280
     1
102
ACAD_ROUNDTRIP_PRE2007_TABLESTYLE
 90
      512
 91
        0
  1

 92
      512
 93
        0
  2

 94
      512
 95
        0
  3

  0
XRECORD
  5
962D
102
{ACAD_REACTORS
330
962C
102
}
330
962C
100
AcDbXrecord
280
     1
102
RTVSPost2010Prop28
280
     1
102
RTVSPost2010PropOp28
 70
     1
102
RTVSPost2010Prop29
280
     1
102
RTVSPost2010PropOp29
 70
     1
102
RTVSPost2010Prop30
280
     0
102
RTVSPost2010PropOp30
 70
     1
102
RTVSPost2010Prop31
280
     0
102
RTVSPost2010PropOp31
 70
     1
102
RTVSPost2010Prop32
280
     0
102
RTVSPost2010PropOp32
 70
     1
102
RTVSPost2010Prop33
280
     0
102
RTVSPost2010PropOp33
 70
     1
102
RTVSPost2010Prop34
280
     0
102
RTVSPost2010PropOp34
 70
     1
102
RTVSPost2010Prop35
280
     0
102
RTVSPost2010PropOp35
 70
     1
102
RTVSPost2010Prop36
280
     0
102
RTVSPost2010PropOp36
 70
     1
102
RTVSPost2010Prop37
 90
       50
102
RTVSPost2010PropOp37
 70
     1
102
RTVSPost2010Prop38
140
0.0
102
RTVSPost2010PropOp38
 70
     1
102
RTVSPost2010Prop39
140
1.0
102
RTVSPost2010PropOp39
 70
     1
102
RTVSPost2010Prop40
 90
        0
102
RTVSPost2010PropOp40
 70
     1
102
RTVSPost2010Prop41ColorIndex
 90
       18
102
RTVSPost2010Prop41ColorRGB
 90
        0
102
RTVSPost2010PropOp41
 70
     1
102
RTVSPost2010Prop42
 90
       50
102
RTVSPost2010PropOp42
 70
     1
102
RTVSPost2010Prop43
 90
        3
102
RTVSPost2010PropOp43
 70
     1
102
RTVSPost2010Prop44ColorIndex
 90
        5
102
RTVSPost2010Prop44ColorRGB
 90
      255
102
RTVSPost2010PropOp44
 70
     1
102
RTVSPost2010Prop45
280
     0
102
RTVSPost2010PropOp45
 70
     1
102
RTVSPost2010Prop46
 90
       50
102
RTVSPost2010PropOp46
 70
     1
102
RTVSPost2010Prop47
 90
       50
102
RTVSPost2010PropOp47
 70
     1
102
RTVSPost2010Prop48
 90
       50
102
RTVSPost2010PropOp48
 70
     1
102
RTVSPost2010Prop49
280
     0
102
RTVSPost2010PropOp49
 70
     1
102
RTVSPost2010Prop50
 90
       50
102
RTVSPost2010PropOp50
 70
     1
102
RTVSPost2010Prop51ColorIndex
 90
      256
102
RTVSPost2010Prop51ColorRGB
 90
-16777216
102
RTVSPost2010PropOp51
 70
     0
102
RTVSPost2010Prop52
140
1.0
102
RTVSPost2010PropOp52
 70
     0
102
RTVSPost2010Prop53
 90
        2
102
RTVSPost2010PropOp53
 70
     1
102
RTVSPost2010Prop54
  1
strokes_ogs.tif
102
RTVSPost2010PropOp54
 70
     1
102
RTVSPost2010Prop55
280
     0
102
RTVSPost2010PropOp55
 70
     1
102
RTVSPost2010Prop56
140
1.0
102
RTVSPost2010PropOp56
 70
     1
102
RTVSPost2010Prop57
140
1.0
102
RTVSPost2010PropOp57
 70
     1
102
RTVSPropertyOp0
 70
     1
102
RTVSPropertyOp1
 70
     1
102
RTVSPropertyOp2
 70
     1
102
RTVSPropertyOp3
 70
     1
102
RTVSPropertyOp4
 70
     1
102
RTVSPropertyOp5
 70
     1
102
RTVSPropertyOp6
 70
     1
102
RTVSPropertyOp7
 70
     1
102
RTVSPropertyOp8
 70
     1
102
RTVSPropertyOp9
 70
     1
102
RTVSPropertyOp10
 70
     1
102
RTVSPropertyOp11
 70
     1
102
RTVSPropertyOp12
 70
     1
102
RTVSPropertyOp13
 70
     1
102
RTVSPropertyOp14
 70
     1
102
RTVSPropertyOp15
 70
     1
102
RTVSPropertyOp16
 70
     1
102
RTVSPropertyOp17
 70
     1
102
RTVSPropertyOp18
 70
     1
102
RTVSPropertyOp19
 70
     1
102
RTVSPropertyOp20
 70
     1
102
RTVSPropertyOp21
 70
     1
102
RTVSPropertyOp22
 70
     1
102
RTVSPropertyOp23
 70
     1
102
RTVSPropertyOp24
 70
     1
102
RTVSPropertyOp25
 70
     1
102
RTVSPropertyOp26
 70
     1
102
RTVSPropertyOp27
 70
     1
102
RTVSPropertyOp28
 70
     1
102
RTVSPropertyOp29
 70
     1
102
RTVSPropertyOp30
 70
     1
102
RTVSPropertyOp31
 70
     1
102
RTVSPropertyOp32
 70
     1
102
RTVSPropertyOp33
 70
     1
102
RTVSPropertyOp34
 70
     1
102
RTVSPropertyOp35
 70
     1
102
RTVSPropertyOp36
 70
     1
102
RTVSPropertyOp37
 70
     1
102
RTVSPropertyOp38
 70
     1
102
RTVSPropertyOp39
 70
     1
102
RTVSPropertyOp40
 70
     1
102
RTVSPropertyOp41
 70
     1
102
RTVSPropertyOp42
 70
     1
102
RTVSPropertyOp43
 70
     1
102
RTVSPropertyOp44
 70
     1
102
RTVSPropertyOp45
 70
     1
102
RTVSPropertyOp46
 70
     1
102
RTVSPropertyOp47
 70
     1
102
RTVSPropertyOp48
 70
     1
102
RTVSPropertyOp49
 70
     1
102
RTVSPropertyOp50
 70
     1
102
RTVSPropertyOp51
 70
     0
102
RTVSPropertyOp52
 70
     0
102
RTVSPropertyOp53
 70
     1
102
RTVSPropertyOp54
 70
     1
102
RTVSPropertyOp55
 70
     1
102
RTVSPropertyOp56
 70
     1
102
RTVSPropertyOp57
 70
     1
102
RTVSPropertyOp58
 70
     1
102
RTVSPropertyOp59
 70
     1
102
RTVSPropertyOp60
 70
     1
102
RTVSPropertyOp61
 70
     1
102
RTVSPropertyOp62
 70
     1
  0
XRECORD
  5
962B
102
{ACAD_REACTORS
330
962A
102
}
330
962A
100
AcDbXrecord
280
     1
102
RTVSPost2010Prop28
280
     0
102
RTVSPost2010PropOp28
 70
     1
102
RTVSPost2010Prop29
280
     1
102
RTVSPost2010PropOp29
 70
     1
102
RTVSPost2010Prop30
280
     1
102
RTVSPost2010PropOp30
 70
     1
102
RTVSPost2010Prop31
280
     0
102
RTVSPost2010PropOp31
 70
     1
102
RTVSPost2010Prop32
280
     0
102
RTVSPost2010PropOp32
 70
     1
102
RTVSPost2010Prop33
280
     0
102
RTVSPost2010PropOp33
 70
     1
102
RTVSPost2010Prop34
280
     0
102
RTVSPost2010PropOp34
 70
     1
102
RTVSPost2010Prop35
280
     0
102
RTVSPost2010PropOp35
 70
     1
102
RTVSPost2010Prop36
280
     0
102
RTVSPost2010PropOp36
 70
     1
102
RTVSPost2010Prop37
 90
       50
102
RTVSPost2010PropOp37
 70
     1
102
RTVSPost2010Prop38
140
0.0
102
RTVSPost2010PropOp38
 70
     1
102
RTVSPost2010Prop39
140
1.0
102
RTVSPost2010PropOp39
 70
     1
102
RTVSPost2010Prop40
 90
        0
102
RTVSPost2010PropOp40
 70
     1
102
RTVSPost2010Prop41ColorIndex
 90
       18
102
RTVSPost2010Prop41ColorRGB
 90
        0
102
RTVSPost2010PropOp41
 70
     1
102
RTVSPost2010Prop42
 90
       50
102
RTVSPost2010PropOp42
 70
     1
102
RTVSPost2010Prop43
 90
        3
102
RTVSPost2010PropOp43
 70
     1
102
RTVSPost2010Prop44ColorIndex
 90
        5
102
RTVSPost2010Prop44ColorRGB
 90
      255
102
RTVSPost2010PropOp44
 70
     1
102
RTVSPost2010Prop45
280
     0
102
RTVSPost2010PropOp45
 70
     1
102
RTVSPost2010Prop46
 90
       50
102
RTVSPost2010PropOp46
 70
     1
102
RTVSPost2010Prop47
 90
       50
102
RTVSPost2010PropOp47
 70
     1
102
RTVSPost2010Prop48
 90
       50
102
RTVSPost2010PropOp48
 70
     1
102
RTVSPost2010Prop49
280
     0
102
RTVSPost2010PropOp49
 70
     1
102
RTVSPost2010Prop50
 90
       50
102
RTVSPost2010PropOp50
 70
     1
102
RTVSPost2010Prop51ColorIndex
 90
      256
102
RTVSPost2010Prop51ColorRGB
 90
-16777216
102
RTVSPost2010PropOp51
 70
     0
102
RTVSPost2010Prop52
140
1.0
102
RTVSPost2010PropOp52
 70
     0
102
RTVSPost2010Prop53
 90
        2
102
RTVSPost2010PropOp53
 70
     1
102
RTVSPost2010Prop54
  1
strokes_ogs.tif
102
RTVSPost2010PropOp54
 70
     1
102
RTVSPost2010Prop55
280
     0
102
RTVSPost2010PropOp55
 70
     1
102
RTVSPost2010Prop56
140
1.0
102
RTVSPost2010PropOp56
 70
     1
102
RTVSPost2010Prop57
140
1.0
102
RTVSPost2010PropOp57
 70
     1
102
RTVSPropertyOp0
 70
     1
102
RTVSPropertyOp1
 70
     1
102
RTVSPropertyOp2
 70
     1
102
RTVSPropertyOp3
 70
     1
102
RTVSPropertyOp4
 70
     1
102
RTVSPropertyOp5
 70
     1
102
RTVSPropertyOp6
 70
     1
102
RTVSPropertyOp7
 70
     1
102
RTVSPropertyOp8
 70
     1
102
RTVSPropertyOp9
 70
     1
102
RTVSPropertyOp10
 70
     1
102
RTVSPropertyOp11
 70
     1
102
RTVSPropertyOp12
 70
     1
102
RTVSPropertyOp13
 70
     1
102
RTVSPropertyOp14
 70
     1
102
RTVSPropertyOp15
 70
     1
102
RTVSPropertyOp16
 70
     1
102
RTVSPropertyOp17
 70
     1
102
RTVSPropertyOp18
 70
     1
102
RTVSPropertyOp19
 70
     1
102
RTVSPropertyOp20
 70
     1
102
RTVSPropertyOp21
 70
     1
102
RTVSPropertyOp22
 70
     1
102
RTVSPropertyOp23
 70
     1
102
RTVSPropertyOp24
 70
     1
102
RTVSPropertyOp25
 70
     1
102
RTVSPropertyOp26
 70
     1
102
RTVSPropertyOp27
 70
     1
102
RTVSPropertyOp28
 70
     1
102
RTVSPropertyOp29
 70
     1
102
RTVSPropertyOp30
 70
     1
102
RTVSPropertyOp31
 70
     1
102
RTVSPropertyOp32
 70
     1
102
RTVSPropertyOp33
 70
     1
102
RTVSPropertyOp34
 70
     1
102
RTVSPropertyOp35
 70
     1
102
RTVSPropertyOp36
 70
     1
102
RTVSPropertyOp37
 70
     1
102
RTVSPropertyOp38
 70
     1
102
RTVSPropertyOp39
 70
     1
102
RTVSPropertyOp40
 70
     1
102
RTVSPropertyOp41
 70
     1
102
RTVSPropertyOp42
 70
     1
102
RTVSPropertyOp43
 70
     1
102
RTVSPropertyOp44
 70
     1
102
RTVSPropertyOp45
 70
     1
102
RTVSPropertyOp46
 70
     1
102
RTVSPropertyOp47
 70
     1
102
RTVSPropertyOp48
 70
     1
102
RTVSPropertyOp49
 70
     1
102
RTVSPropertyOp50
 70
     1
102
RTVSPropertyOp51
 70
     0
102
RTVSPropertyOp52
 70
     0
102
RTVSPropertyOp53
 70
     1
102
RTVSPropertyOp54
 70
     1
102
RTVSPropertyOp55
 70
     1
102
RTVSPropertyOp56
 70
     1
102
RTVSPropertyOp57
 70
     1
102
RTVSPropertyOp58
 70
     1
102
RTVSPropertyOp59
 70
     1
102
RTVSPropertyOp60
 70
     1
102
RTVSPropertyOp61
 70
     1
102
RTVSPropertyOp62
 70
     1
  0
XRECORD
  5
9639
102
{ACAD_REACTORS
330
9638
102
}
330
9638
100
AcDbXrecord
280
     1
102
RTVSPost2010Prop28
280
     0
102
RTVSPost2010PropOp28
 70
     1
102
RTVSPost2010Prop29
280
     1
102
RTVSPost2010PropOp29
 70
     1
102
RTVSPost2010Prop30
280
     1
102
RTVSPost2010PropOp30
 70
     1
102
RTVSPost2010Prop31
280
     0
102
RTVSPost2010PropOp31
 70
     1
102
RTVSPost2010Prop32
280
     0
102
RTVSPost2010PropOp32
 70
     1
102
RTVSPost2010Prop33
280
     0
102
RTVSPost2010PropOp33
 70
     1
102
RTVSPost2010Prop34
280
     0
102
RTVSPost2010PropOp34
 70
     1
102
RTVSPost2010Prop35
280
     0
102
RTVSPost2010PropOp35
 70
     1
102
RTVSPost2010Prop36
280
     0
102
RTVSPost2010PropOp36
 70
     1
102
RTVSPost2010Prop37
 90
       50
102
RTVSPost2010PropOp37
 70
     1
102
RTVSPost2010Prop38
140
0.0
102
RTVSPost2010PropOp38
 70
     1
102
RTVSPost2010Prop39
140
1.0
102
RTVSPost2010PropOp39
 70
     1
102
RTVSPost2010Prop40
 90
        0
102
RTVSPost2010PropOp40
 70
     1
102
RTVSPost2010Prop41ColorIndex
 90
       18
102
RTVSPost2010Prop41ColorRGB
 90
        0
102
RTVSPost2010PropOp41
 70
     1
102
RTVSPost2010Prop42
 90
       50
102
RTVSPost2010PropOp42
 70
     1
102
RTVSPost2010Prop43
 90
        3
102
RTVSPost2010PropOp43
 70
     1
102
RTVSPost2010Prop44ColorIndex
 90
        5
102
RTVSPost2010Prop44ColorRGB
 90
      255
102
RTVSPost2010PropOp44
 70
     1
102
RTVSPost2010Prop45
280
     0
102
RTVSPost2010PropOp45
 70
     1
102
RTVSPost2010Prop46
 90
       50
102
RTVSPost2010PropOp46
 70
     1
102
RTVSPost2010Prop47
 90
       50
102
RTVSPost2010PropOp47
 70
     1
102
RTVSPost2010Prop48
 90
       50
102
RTVSPost2010PropOp48
 70
     1
102
RTVSPost2010Prop49
280
     0
102
RTVSPost2010PropOp49
 70
     1
102
RTVSPost2010Prop50
 90
       50
102
RTVSPost2010PropOp50
 70
     1
102
RTVSPost2010Prop51ColorIndex
 90
      256
102
RTVSPost2010Prop51ColorRGB
 90
-16777216
102
RTVSPost2010PropOp51
 70
     0
102
RTVSPost2010Prop52
140
1.0
102
RTVSPost2010PropOp52
 70
     0
102
RTVSPost2010Prop53
 90
        2
102
RTVSPost2010PropOp53
 70
     1
102
RTVSPost2010Prop54
  1
strokes_ogs.tif
102
RTVSPost2010PropOp54
 70
     1
102
RTVSPost2010Prop55
280
     0
102
RTVSPost2010PropOp55
 70
     1
102
RTVSPost2010Prop56
140
1.0
102
RTVSPost2010PropOp56
 70
     1
102
RTVSPost2010Prop57
140
1.0
102
RTVSPost2010PropOp57
 70
     1
102
RTVSPropertyOp0
 70
     1
102
RTVSPropertyOp1
 70
     1
102
RTVSPropertyOp2
 70
     1
102
RTVSPropertyOp3
 70
     1
102
RTVSPropertyOp4
 70
     1
102
RTVSPropertyOp5
 70
     1
102
RTVSPropertyOp6
 70
     1
102
RTVSPropertyOp7
 70
     1
102
RTVSPropertyOp8
 70
     1
102
RTVSPropertyOp9
 70
     1
102
RTVSPropertyOp10
 70
     1
102
RTVSPropertyOp11
 70
     1
102
RTVSPropertyOp12
 70
     1
102
RTVSPropertyOp13
 70
     1
102
RTVSPropertyOp14
 70
     1
102
RTVSPropertyOp15
 70
     1
102
RTVSPropertyOp16
 70
     1
102
RTVSPropertyOp17
 70
     1
102
RTVSPropertyOp18
 70
     1
102
RTVSPropertyOp19
 70
     1
102
RTVSPropertyOp20
 70
     1
102
RTVSPropertyOp21
 70
     1
102
RTVSPropertyOp22
 70
     1
102
RTVSPropertyOp23
 70
     1
102
RTVSPropertyOp24
 70
     1
102
RTVSPropertyOp25
 70
     1
102
RTVSPropertyOp26
 70
     1
102
RTVSPropertyOp27
 70
     1
102
RTVSPropertyOp28
 70
     1
102
RTVSPropertyOp29
 70
     1
102
RTVSPropertyOp30
 70
     1
102
RTVSPropertyOp31
 70
     1
102
RTVSPropertyOp32
 70
     1
102
RTVSPropertyOp33
 70
     1
102
RTVSPropertyOp34
 70
     1
102
RTVSPropertyOp35
 70
     1
102
RTVSPropertyOp36
 70
     1
102
RTVSPropertyOp37
 70
     1
102
RTVSPropertyOp38
 70
     1
102
RTVSPropertyOp39
 70
     1
102
RTVSPropertyOp40
 70
     1
102
RTVSPropertyOp41
 70
     1
102
RTVSPropertyOp42
 70
     1
102
RTVSPropertyOp43
 70
     1
102
RTVSPropertyOp44
 70
     1
102
RTVSPropertyOp45
 70
     1
102
RTVSPropertyOp46
 70
     1
102
RTVSPropertyOp47
 70
     1
102
RTVSPropertyOp48
 70
     1
102
RTVSPropertyOp49
 70
     1
102
RTVSPropertyOp50
 70
     1
102
RTVSPropertyOp51
 70
     0
102
RTVSPropertyOp52
 70
     0
102
RTVSPropertyOp53
 70
     1
102
RTVSPropertyOp54
 70
     1
102
RTVSPropertyOp55
 70
     1
102
RTVSPropertyOp56
 70
     1
102
RTVSPropertyOp57
 70
     1
102
RTVSPropertyOp58
 70
     1
102
RTVSPropertyOp59
 70
     1
102
RTVSPropertyOp60
 70
     1
102
RTVSPropertyOp61
 70
     1
102
RTVSPropertyOp62
 70
     1
  0
XRECORD
  5
9641
102
{ACAD_REACTORS
330
9640
102
}
330
9640
100
AcDbXrecord
280
     1
102
RTVSPost2010Prop28
280
     0
102
RTVSPost2010PropOp28
 70
     1
102
RTVSPost2010Prop29
280
     1
102
RTVSPost2010PropOp29
 70
     1
102
RTVSPost2010Prop30
280
     1
102
RTVSPost2010PropOp30
 70
     1
102
RTVSPost2010Prop31
280
     0
102
RTVSPost2010PropOp31
 70
     1
102
RTVSPost2010Prop32
280
     0
102
RTVSPost2010PropOp32
 70
     1
102
RTVSPost2010Prop33
280
     0
102
RTVSPost2010PropOp33
 70
     1
102
RTVSPost2010Prop34
280
     0
102
RTVSPost2010PropOp34
 70
     1
102
RTVSPost2010Prop35
280
     0
102
RTVSPost2010PropOp35
 70
     1
102
RTVSPost2010Prop36
280
     0
102
RTVSPost2010PropOp36
 70
     1
102
RTVSPost2010Prop37
 90
       50
102
RTVSPost2010PropOp37
 70
     1
102
RTVSPost2010Prop38
140
0.0
102
RTVSPost2010PropOp38
 70
     1
102
RTVSPost2010Prop39
140
1.0
102
RTVSPost2010PropOp39
 70
     1
102
RTVSPost2010Prop40
 90
        0
102
RTVSPost2010PropOp40
 70
     1
102
RTVSPost2010Prop41ColorIndex
 90
       18
102
RTVSPost2010Prop41ColorRGB
 90
        0
102
RTVSPost2010PropOp41
 70
     1
102
RTVSPost2010Prop42
 90
       50
102
RTVSPost2010PropOp42
 70
     1
102
RTVSPost2010Prop43
 90
        3
102
RTVSPost2010PropOp43
 70
     1
102
RTVSPost2010Prop44ColorIndex
 90
        5
102
RTVSPost2010Prop44ColorRGB
 90
      255
102
RTVSPost2010PropOp44
 70
     1
102
RTVSPost2010Prop45
280
     0
102
RTVSPost2010PropOp45
 70
     1
102
RTVSPost2010Prop46
 90
       50
102
RTVSPost2010PropOp46
 70
     1
102
RTVSPost2010Prop47
 90
       50
102
RTVSPost2010PropOp47
 70
     1
102
RTVSPost2010Prop48
 90
       50
102
RTVSPost2010PropOp48
 70
     1
102
RTVSPost2010Prop49
280
     0
102
RTVSPost2010PropOp49
 70
     1
102
RTVSPost2010Prop50
 90
       50
102
RTVSPost2010PropOp50
 70
     1
102
RTVSPost2010Prop51ColorIndex
 90
      256
102
RTVSPost2010Prop51ColorRGB
 90
-16777216
102
RTVSPost2010PropOp51
 70
     0
102
RTVSPost2010Prop52
140
1.0
102
RTVSPost2010PropOp52
 70
     0
102
RTVSPost2010Prop53
 90
        2
102
RTVSPost2010PropOp53
 70
     1
102
RTVSPost2010Prop54
  1
strokes_ogs.tif
102
RTVSPost2010PropOp54
 70
     1
102
RTVSPost2010Prop55
280
     0
102
RTVSPost2010PropOp55
 70
     1
102
RTVSPost2010Prop56
140
1.0
102
RTVSPost2010PropOp56
 70
     1
102
RTVSPost2010Prop57
140
1.0
102
RTVSPost2010PropOp57
 70
     1
102
RTVSPropertyOp0
 70
     1
102
RTVSPropertyOp1
 70
     1
102
RTVSPropertyOp2
 70
     1
102
RTVSPropertyOp3
 70
     1
102
RTVSPropertyOp4
 70
     1
102
RTVSPropertyOp5
 70
     1
102
RTVSPropertyOp6
 70
     1
102
RTVSPropertyOp7
 70
     1
102
RTVSPropertyOp8
 70
     1
102
RTVSPropertyOp9
 70
     1
102
RTVSPropertyOp10
 70
     1
102
RTVSPropertyOp11
 70
     1
102
RTVSPropertyOp12
 70
     1
102
RTVSPropertyOp13
 70
     1
102
RTVSPropertyOp14
 70
     1
102
RTVSPropertyOp15
 70
     1
102
RTVSPropertyOp16
 70
     1
102
RTVSPropertyOp17
 70
     1
102
RTVSPropertyOp18
 70
     1
102
RTVSPropertyOp19
 70
     1
102
RTVSPropertyOp20
 70
     1
102
RTVSPropertyOp21
 70
     1
102
RTVSPropertyOp22
 70
     1
102
RTVSPropertyOp23
 70
     1
102
RTVSPropertyOp24
 70
     1
102
RTVSPropertyOp25
 70
     1
102
RTVSPropertyOp26
 70
     1
102
RTVSPropertyOp27
 70
     1
102
RTVSPropertyOp28
 70
     1
102
RTVSPropertyOp29
 70
     1
102
RTVSPropertyOp30
 70
     1
102
RTVSPropertyOp31
 70
     1
102
RTVSPropertyOp32
 70
     1
102
RTVSPropertyOp33
 70
     1
102
RTVSPropertyOp34
 70
     1
102
RTVSPropertyOp35
 70
     1
102
RTVSPropertyOp36
 70
     1
102
RTVSPropertyOp37
 70
     1
102
RTVSPropertyOp38
 70
     1
102
RTVSPropertyOp39
 70
     1
102
RTVSPropertyOp40
 70
     1
102
RTVSPropertyOp41
 70
     1
102
RTVSPropertyOp42
 70
     1
102
RTVSPropertyOp43
 70
     1
102
RTVSPropertyOp44
 70
     1
102
RTVSPropertyOp45
 70
     1
102
RTVSPropertyOp46
 70
     1
102
RTVSPropertyOp47
 70
     1
102
RTVSPropertyOp48
 70
     1
102
RTVSPropertyOp49
 70
     1
102
RTVSPropertyOp50
 70
     1
102
RTVSPropertyOp51
 70
     0
102
RTVSPropertyOp52
 70
     0
102
RTVSPropertyOp53
 70
     1
102
RTVSPropertyOp54
 70
     1
102
RTVSPropertyOp55
 70
     1
102
RTVSPropertyOp56
 70
     1
102
RTVSPropertyOp57
 70
     1
102
RTVSPropertyOp58
 70
     1
102
RTVSPropertyOp59
 70
     1
102
RTVSPropertyOp60
 70
     1
102
RTVSPropertyOp61
 70
     1
102
RTVSPropertyOp62
 70
     1
  0
XRECORD
  5
9633
102
{ACAD_REACTORS
330
9632
102
}
330
9632
100
AcDbXrecord
280
     1
102
RTVSPost2010Prop28
280
     0
102
RTVSPost2010PropOp28
 70
     1
102
RTVSPost2010Prop29
280
     1
102
RTVSPost2010PropOp29
 70
     1
102
RTVSPost2010Prop30
280
     1
102
RTVSPost2010PropOp30
 70
     1
102
RTVSPost2010Prop31
280
     0
102
RTVSPost2010PropOp31
 70
     1
102
RTVSPost2010Prop32
280
     0
102
RTVSPost2010PropOp32
 70
     1
102
RTVSPost2010Prop33
280
     0
102
RTVSPost2010PropOp33
 70
     1
102
RTVSPost2010Prop34
280
     0
102
RTVSPost2010PropOp34
 70
     1
102
RTVSPost2010Prop35
280
     0
102
RTVSPost2010PropOp35
 70
     1
102
RTVSPost2010Prop36
280
     0
102
RTVSPost2010PropOp36
 70
     1
102
RTVSPost2010Prop37
 90
       50
102
RTVSPost2010PropOp37
 70
     1
102
RTVSPost2010Prop38
140
0.0
102
RTVSPost2010PropOp38
 70
     1
102
RTVSPost2010Prop39
140
1.0
102
RTVSPost2010PropOp39
 70
     1
102
RTVSPost2010Prop40
 90
        0
102
RTVSPost2010PropOp40
 70
     1
102
RTVSPost2010Prop41ColorIndex
 90
       18
102
RTVSPost2010Prop41ColorRGB
 90
        0
102
RTVSPost2010PropOp41
 70
     1
102
RTVSPost2010Prop42
 90
       50
102
RTVSPost2010PropOp42
 70
     1
102
RTVSPost2010Prop43
 90
        3
102
RTVSPost2010PropOp43
 70
     1
102
RTVSPost2010Prop44ColorIndex
 90
        5
102
RTVSPost2010Prop44ColorRGB
 90
      255
102
RTVSPost2010PropOp44
 70
     1
102
RTVSPost2010Prop45
280
     0
102
RTVSPost2010PropOp45
 70
     1
102
RTVSPost2010Prop46
 90
       50
102
RTVSPost2010PropOp46
 70
     1
102
RTVSPost2010Prop47
 90
       50
102
RTVSPost2010PropOp47
 70
     1
102
RTVSPost2010Prop48
 90
       50
102
RTVSPost2010PropOp48
 70
     1
102
RTVSPost2010Prop49
280
     0
102
RTVSPost2010PropOp49
 70
     1
102
RTVSPost2010Prop50
 90
       50
102
RTVSPost2010PropOp50
 70
     1
102
RTVSPost2010Prop51ColorIndex
 90
      256
102
RTVSPost2010Prop51ColorRGB
 90
-16777216
102
RTVSPost2010PropOp51
 70
     0
102
RTVSPost2010Prop52
140
1.0
102
RTVSPost2010PropOp52
 70
     0
102
RTVSPost2010Prop53
 90
        2
102
RTVSPost2010PropOp53
 70
     1
102
RTVSPost2010Prop54
  1
strokes_ogs.tif
102
RTVSPost2010PropOp54
 70
     1
102
RTVSPost2010Prop55
280
     0
102
RTVSPost2010PropOp55
 70
     1
102
RTVSPost2010Prop56
140
1.0
102
RTVSPost2010PropOp56
 70
     1
102
RTVSPost2010Prop57
140
1.0
102
RTVSPost2010PropOp57
 70
     1
102
RTVSPropertyOp0
 70
     1
102
RTVSPropertyOp1
 70
     1
102
RTVSPropertyOp2
 70
     1
102
RTVSPropertyOp3
 70
     1
102
RTVSPropertyOp4
 70
     1
102
RTVSPropertyOp5
 70
     1
102
RTVSPropertyOp6
 70
     1
102
RTVSPropertyOp7
 70
     1
102
RTVSPropertyOp8
 70
     1
102
RTVSPropertyOp9
 70
     1
102
RTVSPropertyOp10
 70
     1
102
RTVSPropertyOp11
 70
     1
102
RTVSPropertyOp12
 70
     1
102
RTVSPropertyOp13
 70
     1
102
RTVSPropertyOp14
 70
     1
102
RTVSPropertyOp15
 70
     1
102
RTVSPropertyOp16
 70
     1
102
RTVSPropertyOp17
 70
     1
102
RTVSPropertyOp18
 70
     1
102
RTVSPropertyOp19
 70
     1
102
RTVSPropertyOp20
 70
     1
102
RTVSPropertyOp21
 70
     1
102
RTVSPropertyOp22
 70
     1
102
RTVSPropertyOp23
 70
     1
102
RTVSPropertyOp24
 70
     1
102
RTVSPropertyOp25
 70
     1
102
RTVSPropertyOp26
 70
     1
102
RTVSPropertyOp27
 70
     1
102
RTVSPropertyOp28
 70
     1
102
RTVSPropertyOp29
 70
     1
102
RTVSPropertyOp30
 70
     1
102
RTVSPropertyOp31
 70
     1
102
RTVSPropertyOp32
 70
     1
102
RTVSPropertyOp33
 70
     1
102
RTVSPropertyOp34
 70
     1
102
RTVSPropertyOp35
 70
     1
102
RTVSPropertyOp36
 70
     1
102
RTVSPropertyOp37
 70
     1
102
RTVSPropertyOp38
 70
     1
102
RTVSPropertyOp39
 70
     1
102
RTVSPropertyOp40
 70
     1
102
RTVSPropertyOp41
 70
     1
102
RTVSPropertyOp42
 70
     1
102
RTVSPropertyOp43
 70
     1
102
RTVSPropertyOp44
 70
     1
102
RTVSPropertyOp45
 70
     1
102
RTVSPropertyOp46
 70
     1
102
RTVSPropertyOp47
 70
     1
102
RTVSPropertyOp48
 70
     1
102
RTVSPropertyOp49
 70
     1
102
RTVSPropertyOp50
 70
     1
102
RTVSPropertyOp51
 70
     0
102
RTVSPropertyOp52
 70
     0
102
RTVSPropertyOp53
 70
     1
102
RTVSPropertyOp54
 70
     1
102
RTVSPropertyOp55
 70
     1
102
RTVSPropertyOp56
 70
     1
102
RTVSPropertyOp57
 70
     1
102
RTVSPropertyOp58
 70
     1
102
RTVSPropertyOp59
 70
     1
102
RTVSPropertyOp60
 70
     1
102
RTVSPropertyOp61
 70
     1
102
RTVSPropertyOp62
 70
     1
  0
XRECORD
  5
9637
102
{ACAD_REACTORS
330
9636
102
}
330
9636
100
AcDbXrecord
280
     1
102
RTVSPost2010Prop28
280
     0
102
RTVSPost2010PropOp28
 70
     1
102
RTVSPost2010Prop29
280
     1
102
RTVSPost2010PropOp29
 70
     1
102
RTVSPost2010Prop30
280
     1
102
RTVSPost2010PropOp30
 70
     1
102
RTVSPost2010Prop31
280
     0
102
RTVSPost2010PropOp31
 70
     1
102
RTVSPost2010Prop32
280
     0
102
RTVSPost2010PropOp32
 70
     1
102
RTVSPost2010Prop33
280
     0
102
RTVSPost2010PropOp33
 70
     1
102
RTVSPost2010Prop34
280
     0
102
RTVSPost2010PropOp34
 70
     1
102
RTVSPost2010Prop35
280
     0
102
RTVSPost2010PropOp35
 70
     1
102
RTVSPost2010Prop36
280
     0
102
RTVSPost2010PropOp36
 70
     1
102
RTVSPost2010Prop37
 90
       50
102
RTVSPost2010PropOp37
 70
     1
102
RTVSPost2010Prop38
140
0.0
102
RTVSPost2010PropOp38
 70
     1
102
RTVSPost2010Prop39
140
1.0
102
RTVSPost2010PropOp39
 70
     1
102
RTVSPost2010Prop40
 90
        0
102
RTVSPost2010PropOp40
 70
     1
102
RTVSPost2010Prop41ColorIndex
 90
       18
102
RTVSPost2010Prop41ColorRGB
 90
        0
102
RTVSPost2010PropOp41
 70
     1
102
RTVSPost2010Prop42
 90
       50
102
RTVSPost2010PropOp42
 70
     1
102
RTVSPost2010Prop43
 90
        3
102
RTVSPost2010PropOp43
 70
     1
102
RTVSPost2010Prop44ColorIndex
 90
        5
102
RTVSPost2010Prop44ColorRGB
 90
      255
102
RTVSPost2010PropOp44
 70
     1
102
RTVSPost2010Prop45
280
     0
102
RTVSPost2010PropOp45
 70
     1
102
RTVSPost2010Prop46
 90
       50
102
RTVSPost2010PropOp46
 70
     1
102
RTVSPost2010Prop47
 90
       50
102
RTVSPost2010PropOp47
 70
     1
102
RTVSPost2010Prop48
 90
       50
102
RTVSPost2010PropOp48
 70
     1
102
RTVSPost2010Prop49
280
     0
102
RTVSPost2010PropOp49
 70
     1
102
RTVSPost2010Prop50
 90
       50
102
RTVSPost2010PropOp50
 70
     1
102
RTVSPost2010Prop51ColorIndex
 90
      256
102
RTVSPost2010Prop51ColorRGB
 90
-16777216
102
RTVSPost2010PropOp51
 70
     0
102
RTVSPost2010Prop52
140
1.0
102
RTVSPost2010PropOp52
 70
     0
102
RTVSPost2010Prop53
 90
        2
102
RTVSPost2010PropOp53
 70
     1
102
RTVSPost2010Prop54
  1
strokes_ogs.tif
102
RTVSPost2010PropOp54
 70
     1
102
RTVSPost2010Prop55
280
     0
102
RTVSPost2010PropOp55
 70
     1
102
RTVSPost2010Prop56
140
1.0
102
RTVSPost2010PropOp56
 70
     1
102
RTVSPost2010Prop57
140
1.0
102
RTVSPost2010PropOp57
 70
     1
102
RTVSPropertyOp0
 70
     1
102
RTVSPropertyOp1
 70
     1
102
RTVSPropertyOp2
 70
     1
102
RTVSPropertyOp3
 70
     1
102
RTVSPropertyOp4
 70
     1
102
RTVSPropertyOp5
 70
     1
102
RTVSPropertyOp6
 70
     1
102
RTVSPropertyOp7
 70
     1
102
RTVSPropertyOp8
 70
     1
102
RTVSPropertyOp9
 70
     1
102
RTVSPropertyOp10
 70
     1
102
RTVSPropertyOp11
 70
     1
102
RTVSPropertyOp12
 70
     1
102
RTVSPropertyOp13
 70
     1
102
RTVSPropertyOp14
 70
     1
102
RTVSPropertyOp15
 70
     1
102
RTVSPropertyOp16
 70
     1
102
RTVSPropertyOp17
 70
     1
102
RTVSPropertyOp18
 70
     1
102
RTVSPropertyOp19
 70
     1
102
RTVSPropertyOp20
 70
     1
102
RTVSPropertyOp21
 70
     1
102
RTVSPropertyOp22
 70
     1
102
RTVSPropertyOp23
 70
     1
102
RTVSPropertyOp24
 70
     1
102
RTVSPropertyOp25
 70
     1
102
RTVSPropertyOp26
 70
     1
102
RTVSPropertyOp27
 70
     1
102
RTVSPropertyOp28
 70
     1
102
RTVSPropertyOp29
 70
     1
102
RTVSPropertyOp30
 70
     1
102
RTVSPropertyOp31
 70
     1
102
RTVSPropertyOp32
 70
     1
102
RTVSPropertyOp33
 70
     1
102
RTVSPropertyOp34
 70
     1
102
RTVSPropertyOp35
 70
     1
102
RTVSPropertyOp36
 70
     1
102
RTVSPropertyOp37
 70
     1
102
RTVSPropertyOp38
 70
     1
102
RTVSPropertyOp39
 70
     1
102
RTVSPropertyOp40
 70
     1
102
RTVSPropertyOp41
 70
     1
102
RTVSPropertyOp42
 70
     1
102
RTVSPropertyOp43
 70
     1
102
RTVSPropertyOp44
 70
     1
102
RTVSPropertyOp45
 70
     1
102
RTVSPropertyOp46
 70
     1
102
RTVSPropertyOp47
 70
     1
102
RTVSPropertyOp48
 70
     1
102
RTVSPropertyOp49
 70
     1
102
RTVSPropertyOp50
 70
     1
102
RTVSPropertyOp51
 70
     0
102
RTVSPropertyOp52
 70
     0
102
RTVSPropertyOp53
 70
     1
102
RTVSPropertyOp54
 70
     1
102
RTVSPropertyOp55
 70
     1
102
RTVSPropertyOp56
 70
     1
102
RTVSPropertyOp57
 70
     1
102
RTVSPropertyOp58
 70
     1
102
RTVSPropertyOp59
 70
     1
102
RTVSPropertyOp60
 70
     1
102
RTVSPropertyOp61
 70
     1
102
RTVSPropertyOp62
 70
     1
  0
XRECORD
  5
9651
102
{ACAD_REACTORS
330
9650
102
}
330
9650
100
AcDbXrecord
280
     1
102
RTVSPost2010Prop28
280
     0
102
RTVSPost2010PropOp28
 70
     1
102
RTVSPost2010Prop29
280
     1
102
RTVSPost2010PropOp29
 70
     1
102
RTVSPost2010Prop30
280
     1
102
RTVSPost2010PropOp30
 70
     1
102
RTVSPost2010Prop31
280
     0
102
RTVSPost2010PropOp31
 70
     1
102
RTVSPost2010Prop32
280
     0
102
RTVSPost2010PropOp32
 70
     1
102
RTVSPost2010Prop33
280
     0
102
RTVSPost2010PropOp33
 70
     1
102
RTVSPost2010Prop34
280
     0
102
RTVSPost2010PropOp34
 70
     1
102
RTVSPost2010Prop35
280
     0
102
RTVSPost2010PropOp35
 70
     1
102
RTVSPost2010Prop36
280
     0
102
RTVSPost2010PropOp36
 70
     1
102
RTVSPost2010Prop37
 90
       50
102
RTVSPost2010PropOp37
 70
     0
102
RTVSPost2010Prop38
140
0.0
102
RTVSPost2010PropOp38
 70
     0
102
RTVSPost2010Prop39
140
1.0
102
RTVSPost2010PropOp39
 70
     0
102
RTVSPost2010Prop40
 90
        0
102
RTVSPost2010PropOp40
 70
     0
102
RTVSPost2010Prop41ColorIndex
 90
       18
102
RTVSPost2010Prop41ColorRGB
 90
        0
102
RTVSPost2010PropOp41
 70
     0
102
RTVSPost2010Prop42
 90
       50
102
RTVSPost2010PropOp42
 70
     0
102
RTVSPost2010Prop43
 90
        3
102
RTVSPost2010PropOp43
 70
     0
102
RTVSPost2010Prop44ColorIndex
 90
        5
102
RTVSPost2010Prop44ColorRGB
 90
      255
102
RTVSPost2010PropOp44
 70
     0
102
RTVSPost2010Prop45
280
     0
102
RTVSPost2010PropOp45
 70
     1
102
RTVSPost2010Prop46
 90
       50
102
RTVSPost2010PropOp46
 70
     0
102
RTVSPost2010Prop47
 90
       50
102
RTVSPost2010PropOp47
 70
     0
102
RTVSPost2010Prop48
 90
       50
102
RTVSPost2010PropOp48
 70
     0
102
RTVSPost2010Prop49
280
     0
102
RTVSPost2010PropOp49
 70
     1
102
RTVSPost2010Prop50
 90
       50
102
RTVSPost2010PropOp50
 70
     0
102
RTVSPost2010Prop51ColorIndex
 90
      256
102
RTVSPost2010Prop51ColorRGB
 90
-16777216
102
RTVSPost2010PropOp51
 70
     0
102
RTVSPost2010Prop52
140
1.0
102
RTVSPost2010PropOp52
 70
     0
102
RTVSPost2010Prop53
 90
        2
102
RTVSPost2010PropOp53
 70
     0
102
RTVSPost2010Prop54
  1
strokes_ogs.tif
102
RTVSPost2010PropOp54
 70
     0
102
RTVSPost2010Prop55
280
     0
102
RTVSPost2010PropOp55
 70
     1
102
RTVSPost2010Prop56
140
1.0
102
RTVSPost2010PropOp56
 70
     0
102
RTVSPost2010Prop57
140
1.0
102
RTVSPost2010PropOp57
 70
     0
102
RTVSPropertyOp0
 70
     0
102
RTVSPropertyOp1
 70
     0
102
RTVSPropertyOp2
 70
     0
102
RTVSPropertyOp3
 70
     0
102
RTVSPropertyOp4
 70
     0
102
RTVSPropertyOp5
 70
     0
102
RTVSPropertyOp6
 70
     0
102
RTVSPropertyOp7
 70
     0
102
RTVSPropertyOp8
 70
     0
102
RTVSPropertyOp9
 70
     0
102
RTVSPropertyOp10
 70
     0
102
RTVSPropertyOp11
 70
     0
102
RTVSPropertyOp12
 70
     0
102
RTVSPropertyOp13
 70
     0
102
RTVSPropertyOp14
 70
     2
102
RTVSPropertyOp15
 70
     0
102
RTVSPropertyOp16
 70
     0
102
RTVSPropertyOp17
 70
     0
102
RTVSPropertyOp18
 70
     0
102
RTVSPropertyOp19
 70
     0
102
RTVSPropertyOp20
 70
     0
102
RTVSPropertyOp21
 70
     0
102
RTVSPropertyOp22
 70
     0
102
RTVSPropertyOp23
 70
     0
102
RTVSPropertyOp24
 70
     0
102
RTVSPropertyOp25
 70
     0
102
RTVSPropertyOp26
 70
     0
102
RTVSPropertyOp27
 70
     0
102
RTVSPropertyOp28
 70
     1
102
RTVSPropertyOp29
 70
     1
102
RTVSPropertyOp30
 70
     1
102
RTVSPropertyOp31
 70
     1
102
RTVSPropertyOp32
 70
     1
102
RTVSPropertyOp33
 70
     1
102
RTVSPropertyOp34
 70
     1
102
RTVSPropertyOp35
 70
     1
102
RTVSPropertyOp36
 70
     1
102
RTVSPropertyOp37
 70
     0
102
RTVSPropertyOp38
 70
     0
102
RTVSPropertyOp39
 70
     0
102
RTVSPropertyOp40
 70
     0
102
RTVSPropertyOp41
 70
     0
102
RTVSPropertyOp42
 70
     0
102
RTVSPropertyOp43
 70
     0
102
RTVSPropertyOp44
 70
     0
102
RTVSPropertyOp45
 70
     1
102
RTVSPropertyOp46
 70
     0
102
RTVSPropertyOp47
 70
     0
102
RTVSPropertyOp48
 70
     0
102
RTVSPropertyOp49
 70
     1
102
RTVSPropertyOp50
 70
     0
102
RTVSPropertyOp51
 70
     0
102
RTVSPropertyOp52
 70
     0
102
RTVSPropertyOp53
 70
     0
102
RTVSPropertyOp54
 70
     0
102
RTVSPropertyOp55
 70
     1
102
RTVSPropertyOp56
 70
     0
102
RTVSPropertyOp57
 70
     0
102
RTVSPropertyOp58
 70
     0
102
RTVSPropertyOp59
 70
     0
102
RTVSPropertyOp60
 70
     0
102
RTVSPropertyOp61
 70
     0
102
RTVSPropertyOp62
 70
     0
  0
XRECORD
  5
963F
102
{ACAD_REACTORS
330
963E
102
}
330
963E
100
AcDbXrecord
280
     1
102
RTVSPost2010Prop28
280
     0
102
RTVSPost2010PropOp28
 70
     1
102
RTVSPost2010Prop29
280
     1
102
RTVSPost2010PropOp29
 70
     1
102
RTVSPost2010Prop30
280
     1
102
RTVSPost2010PropOp30
 70
     1
102
RTVSPost2010Prop31
280
     0
102
RTVSPost2010PropOp31
 70
     1
102
RTVSPost2010Prop32
280
     0
102
RTVSPost2010PropOp32
 70
     1
102
RTVSPost2010Prop33
280
     0
102
RTVSPost2010PropOp33
 70
     1
102
RTVSPost2010Prop34
280
     0
102
RTVSPost2010PropOp34
 70
     1
102
RTVSPost2010Prop35
280
     0
102
RTVSPost2010PropOp35
 70
     1
102
RTVSPost2010Prop36
280
     0
102
RTVSPost2010PropOp36
 70
     1
102
RTVSPost2010Prop37
 90
       50
102
RTVSPost2010PropOp37
 70
     1
102
RTVSPost2010Prop38
140
0.0
102
RTVSPost2010PropOp38
 70
     1
102
RTVSPost2010Prop39
140
1.0
102
RTVSPost2010PropOp39
 70
     1
102
RTVSPost2010Prop40
 90
        0
102
RTVSPost2010PropOp40
 70
     1
102
RTVSPost2010Prop41ColorIndex
 90
       18
102
RTVSPost2010Prop41ColorRGB
 90
        0
102
RTVSPost2010PropOp41
 70
     1
102
RTVSPost2010Prop42
 90
       50
102
RTVSPost2010PropOp42
 70
     1
102
RTVSPost2010Prop43
 90
        3
102
RTVSPost2010PropOp43
 70
     1
102
RTVSPost2010Prop44ColorIndex
 90
        5
102
RTVSPost2010Prop44ColorRGB
 90
      255
102
RTVSPost2010PropOp44
 70
     1
102
RTVSPost2010Prop45
280
     0
102
RTVSPost2010PropOp45
 70
     1
102
RTVSPost2010Prop46
 90
       50
102
RTVSPost2010PropOp46
 70
     1
102
RTVSPost2010Prop47
 90
       50
102
RTVSPost2010PropOp47
 70
     1
102
RTVSPost2010Prop48
 90
       50
102
RTVSPost2010PropOp48
 70
     1
102
RTVSPost2010Prop49
280
     0
102
RTVSPost2010PropOp49
 70
     1
102
RTVSPost2010Prop50
 90
       50
102
RTVSPost2010PropOp50
 70
     1
102
RTVSPost2010Prop51ColorIndex
 90
      256
102
RTVSPost2010Prop51ColorRGB
 90
-16777216
102
RTVSPost2010PropOp51
 70
     0
102
RTVSPost2010Prop52
140
1.0
102
RTVSPost2010PropOp52
 70
     0
102
RTVSPost2010Prop53
 90
        2
102
RTVSPost2010PropOp53
 70
     1
102
RTVSPost2010Prop54
  1
strokes_ogs.tif
102
RTVSPost2010PropOp54
 70
     1
102
RTVSPost2010Prop55
280
     0
102
RTVSPost2010PropOp55
 70
     1
102
RTVSPost2010Prop56
140
1.0
102
RTVSPost2010PropOp56
 70
     1
102
RTVSPost2010Prop57
140
1.0
102
RTVSPost2010PropOp57
 70
     1
102
RTVSPropertyOp0
 70
     1
102
RTVSPropertyOp1
 70
     1
102
RTVSPropertyOp2
 70
     1
102
RTVSPropertyOp3
 70
     1
102
RTVSPropertyOp4
 70
     1
102
RTVSPropertyOp5
 70
     1
102
RTVSPropertyOp6
 70
     1
102
RTVSPropertyOp7
 70
     1
102
RTVSPropertyOp8
 70
     1
102
RTVSPropertyOp9
 70
     1
102
RTVSPropertyOp10
 70
     1
102
RTVSPropertyOp11
 70
     1
102
RTVSPropertyOp12
 70
     1
102
RTVSPropertyOp13
 70
     1
102
RTVSPropertyOp14
 70
     1
102
RTVSPropertyOp15
 70
     1
102
RTVSPropertyOp16
 70
     1
102
RTVSPropertyOp17
 70
     1
102
RTVSPropertyOp18
 70
     1
102
RTVSPropertyOp19
 70
     1
102
RTVSPropertyOp20
 70
     1
102
RTVSPropertyOp21
 70
     1
102
RTVSPropertyOp22
 70
     1
102
RTVSPropertyOp23
 70
     1
102
RTVSPropertyOp24
 70
     1
102
RTVSPropertyOp25
 70
     1
102
RTVSPropertyOp26
 70
     1
102
RTVSPropertyOp27
 70
     1
102
RTVSPropertyOp28
 70
     1
102
RTVSPropertyOp29
 70
     1
102
RTVSPropertyOp30
 70
     1
102
RTVSPropertyOp31
 70
     1
102
RTVSPropertyOp32
 70
     1
102
RTVSPropertyOp33
 70
     1
102
RTVSPropertyOp34
 70
     1
102
RTVSPropertyOp35
 70
     1
102
RTVSPropertyOp36
 70
     1
102
RTVSPropertyOp37
 70
     1
102
RTVSPropertyOp38
 70
     1
102
RTVSPropertyOp39
 70
     1
102
RTVSPropertyOp40
 70
     1
102
RTVSPropertyOp41
 70
     1
102
RTVSPropertyOp42
 70
     1
102
RTVSPropertyOp43
 70
     1
102
RTVSPropertyOp44
 70
     1
102
RTVSPropertyOp45
 70
     1
102
RTVSPropertyOp46
 70
     1
102
RTVSPropertyOp47
 70
     1
102
RTVSPropertyOp48
 70
     1
102
RTVSPropertyOp49
 70
     1
102
RTVSPropertyOp50
 70
     1
102
RTVSPropertyOp51
 70
     0
102
RTVSPropertyOp52
 70
     0
102
RTVSPropertyOp53
 70
     1
102
RTVSPropertyOp54
 70
     1
102
RTVSPropertyOp55
 70
     1
102
RTVSPropertyOp56
 70
     1
102
RTVSPropertyOp57
 70
     1
102
RTVSPropertyOp58
 70
     1
102
RTVSPropertyOp59
 70
     1
102
RTVSPropertyOp60
 70
     1
102
RTVSPropertyOp61
 70
     1
102
RTVSPropertyOp62
 70
     1
  0
XRECORD
  5
9623
102
{ACAD_REACTORS
330
9622
102
}
330
9622
100
AcDbXrecord
280
     1
102
RTVSPost2010Prop28
280
     0
102
RTVSPost2010PropOp28
 70
     1
102
RTVSPost2010Prop29
280
     1
102
RTVSPost2010PropOp29
 70
     1
102
RTVSPost2010Prop30
280
     1
102
RTVSPost2010PropOp30
 70
     1
102
RTVSPost2010Prop31
280
     0
102
RTVSPost2010PropOp31
 70
     1
102
RTVSPost2010Prop32
280
     0
102
RTVSPost2010PropOp32
 70
     1
102
RTVSPost2010Prop33
280
     0
102
RTVSPost2010PropOp33
 70
     1
102
RTVSPost2010Prop34
280
     0
102
RTVSPost2010PropOp34
 70
     1
102
RTVSPost2010Prop35
280
     0
102
RTVSPost2010PropOp35
 70
     1
102
RTVSPost2010Prop36
280
     0
102
RTVSPost2010PropOp36
 70
     1
102
RTVSPost2010Prop37
 90
       50
102
RTVSPost2010PropOp37
 70
     1
102
RTVSPost2010Prop38
140
0.0
102
RTVSPost2010PropOp38
 70
     1
102
RTVSPost2010Prop39
140
1.0
102
RTVSPost2010PropOp39
 70
     1
102
RTVSPost2010Prop40
 90
        0
102
RTVSPost2010PropOp40
 70
     1
102
RTVSPost2010Prop41ColorIndex
 90
       18
102
RTVSPost2010Prop41ColorRGB
 90
        0
102
RTVSPost2010PropOp41
 70
     1
102
RTVSPost2010Prop42
 90
       50
102
RTVSPost2010PropOp42
 70
     1
102
RTVSPost2010Prop43
 90
        3
102
RTVSPost2010PropOp43
 70
     1
102
RTVSPost2010Prop44ColorIndex
 90
        5
102
RTVSPost2010Prop44ColorRGB
 90
      255
102
RTVSPost2010PropOp44
 70
     1
102
RTVSPost2010Prop45
280
     0
102
RTVSPost2010PropOp45
 70
     1
102
RTVSPost2010Prop46
 90
       50
102
RTVSPost2010PropOp46
 70
     1
102
RTVSPost2010Prop47
 90
       50
102
RTVSPost2010PropOp47
 70
     1
102
RTVSPost2010Prop48
 90
       50
102
RTVSPost2010PropOp48
 70
     1
102
RTVSPost2010Prop49
280
     0
102
RTVSPost2010PropOp49
 70
     1
102
RTVSPost2010Prop50
 90
       50
102
RTVSPost2010PropOp50
 70
     1
102
RTVSPost2010Prop51ColorIndex
 90
      256
102
RTVSPost2010Prop51ColorRGB
 90
-16777216
102
RTVSPost2010PropOp51
 70
     0
102
RTVSPost2010Prop52
140
1.0
102
RTVSPost2010PropOp52
 70
     0
102
RTVSPost2010Prop53
 90
        2
102
RTVSPost2010PropOp53
 70
     1
102
RTVSPost2010Prop54
  1
strokes_ogs.tif
102
RTVSPost2010PropOp54
 70
     1
102
RTVSPost2010Prop55
280
     0
102
RTVSPost2010PropOp55
 70
     1
102
RTVSPost2010Prop56
140
1.0
102
RTVSPost2010PropOp56
 70
     1
102
RTVSPost2010Prop57
140
1.0
102
RTVSPost2010PropOp57
 70
     1
102
RTVSPropertyOp0
 70
     1
102
RTVSPropertyOp1
 70
     1
102
RTVSPropertyOp2
 70
     1
102
RTVSPropertyOp3
 70
     1
102
RTVSPropertyOp4
 70
     1
102
RTVSPropertyOp5
 70
     1
102
RTVSPropertyOp6
 70
     1
102
RTVSPropertyOp7
 70
     1
102
RTVSPropertyOp8
 70
     1
102
RTVSPropertyOp9
 70
     1
102
RTVSPropertyOp10
 70
     1
102
RTVSPropertyOp11
 70
     1
102
RTVSPropertyOp12
 70
     1
102
RTVSPropertyOp13
 70
     1
102
RTVSPropertyOp14
 70
     1
102
RTVSPropertyOp15
 70
     1
102
RTVSPropertyOp16
 70
     1
102
RTVSPropertyOp17
 70
     1
102
RTVSPropertyOp18
 70
     1
102
RTVSPropertyOp19
 70
     1
102
RTVSPropertyOp20
 70
     1
102
RTVSPropertyOp21
 70
     1
102
RTVSPropertyOp22
 70
     1
102
RTVSPropertyOp23
 70
     1
102
RTVSPropertyOp24
 70
     1
102
RTVSPropertyOp25
 70
     1
102
RTVSPropertyOp26
 70
     1
102
RTVSPropertyOp27
 70
     1
102
RTVSPropertyOp28
 70
     1
102
RTVSPropertyOp29
 70
     1
102
RTVSPropertyOp30
 70
     1
102
RTVSPropertyOp31
 70
     1
102
RTVSPropertyOp32
 70
     1
102
RTVSPropertyOp33
 70
     1
102
RTVSPropertyOp34
 70
     1
102
RTVSPropertyOp35
 70
     1
102
RTVSPropertyOp36
 70
     1
102
RTVSPropertyOp37
 70
     1
102
RTVSPropertyOp38
 70
     1
102
RTVSPropertyOp39
 70
     1
102
RTVSPropertyOp40
 70
     1
102
RTVSPropertyOp41
 70
     1
102
RTVSPropertyOp42
 70
     1
102
RTVSPropertyOp43
 70
     1
102
RTVSPropertyOp44
 70
     1
102
RTVSPropertyOp45
 70
     1
102
RTVSPropertyOp46
 70
     1
102
RTVSPropertyOp47
 70
     1
102
RTVSPropertyOp48
 70
     1
102
RTVSPropertyOp49
 70
     1
102
RTVSPropertyOp50
 70
     1
102
RTVSPropertyOp51
 70
     0
102
RTVSPropertyOp52
 70
     0
102
RTVSPropertyOp53
 70
     1
102
RTVSPropertyOp54
 70
     1
102
RTVSPropertyOp55
 70
     1
102
RTVSPropertyOp56
 70
     1
102
RTVSPropertyOp57
 70
     1
102
RTVSPropertyOp58
 70
     1
102
RTVSPropertyOp59
 70
     1
102
RTVSPropertyOp60
 70
     1
102
RTVSPropertyOp61
 70
     1
102
RTVSPropertyOp62
 70
     1
  0
XRECORD
  5
9625
102
{ACAD_REACTORS
330
9624
102
}
330
9624
100
AcDbXrecord
280
     1
102
RTVSPost2010Prop28
280
     0
102
RTVSPost2010PropOp28
 70
     1
102
RTVSPost2010Prop29
280
     1
102
RTVSPost2010PropOp29
 70
     1
102
RTVSPost2010Prop30
280
     1
102
RTVSPost2010PropOp30
 70
     1
102
RTVSPost2010Prop31
280
     0
102
RTVSPost2010PropOp31
 70
     1
102
RTVSPost2010Prop32
280
     0
102
RTVSPost2010PropOp32
 70
     1
102
RTVSPost2010Prop33
280
     0
102
RTVSPost2010PropOp33
 70
     1
102
RTVSPost2010Prop34
280
     0
102
RTVSPost2010PropOp34
 70
     1
102
RTVSPost2010Prop35
280
     0
102
RTVSPost2010PropOp35
 70
     1
102
RTVSPost2010Prop36
280
     0
102
RTVSPost2010PropOp36
 70
     1
102
RTVSPost2010Prop37
 90
       50
102
RTVSPost2010PropOp37
 70
     1
102
RTVSPost2010Prop38
140
0.0
102
RTVSPost2010PropOp38
 70
     1
102
RTVSPost2010Prop39
140
1.0
102
RTVSPost2010PropOp39
 70
     1
102
RTVSPost2010Prop40
 90
        0
102
RTVSPost2010PropOp40
 70
     1
102
RTVSPost2010Prop41ColorIndex
 90
       18
102
RTVSPost2010Prop41ColorRGB
 90
        0
102
RTVSPost2010PropOp41
 70
     1
102
RTVSPost2010Prop42
 90
       50
102
RTVSPost2010PropOp42
 70
     1
102
RTVSPost2010Prop43
 90
        3
102
RTVSPost2010PropOp43
 70
     1
102
RTVSPost2010Prop44ColorIndex
 90
        5
102
RTVSPost2010Prop44ColorRGB
 90
      255
102
RTVSPost2010PropOp44
 70
     1
102
RTVSPost2010Prop45
280
     0
102
RTVSPost2010PropOp45
 70
     1
102
RTVSPost2010Prop46
 90
       50
102
RTVSPost2010PropOp46
 70
     1
102
RTVSPost2010Prop47
 90
       50
102
RTVSPost2010PropOp47
 70
     1
102
RTVSPost2010Prop48
 90
       50
102
RTVSPost2010PropOp48
 70
     1
102
RTVSPost2010Prop49
280
     0
102
RTVSPost2010PropOp49
 70
     1
102
RTVSPost2010Prop50
 90
       50
102
RTVSPost2010PropOp50
 70
     1
102
RTVSPost2010Prop51ColorIndex
 90
      256
102
RTVSPost2010Prop51ColorRGB
 90
-16777216
102
RTVSPost2010PropOp51
 70
     0
102
RTVSPost2010Prop52
140
1.0
102
RTVSPost2010PropOp52
 70
     0
102
RTVSPost2010Prop53
 90
        2
102
RTVSPost2010PropOp53
 70
     1
102
RTVSPost2010Prop54
  1
strokes_ogs.tif
102
RTVSPost2010PropOp54
 70
     1
102
RTVSPost2010Prop55
280
     0
102
RTVSPost2010PropOp55
 70
     1
102
RTVSPost2010Prop56
140
1.0
102
RTVSPost2010PropOp56
 70
     1
102
RTVSPost2010Prop57
140
1.0
102
RTVSPost2010PropOp57
 70
     1
102
RTVSPropertyOp0
 70
     1
102
RTVSPropertyOp1
 70
     1
102
RTVSPropertyOp2
 70
     1
102
RTVSPropertyOp3
 70
     1
102
RTVSPropertyOp4
 70
     1
102
RTVSPropertyOp5
 70
     1
102
RTVSPropertyOp6
 70
     1
102
RTVSPropertyOp7
 70
     1
102
RTVSPropertyOp8
 70
     1
102
RTVSPropertyOp9
 70
     1
102
RTVSPropertyOp10
 70
     1
102
RTVSPropertyOp11
 70
     1
102
RTVSPropertyOp12
 70
     1
102
RTVSPropertyOp13
 70
     1
102
RTVSPropertyOp14
 70
     1
102
RTVSPropertyOp15
 70
     1
102
RTVSPropertyOp16
 70
     1
102
RTVSPropertyOp17
 70
     1
102
RTVSPropertyOp18
 70
     1
102
RTVSPropertyOp19
 70
     1
102
RTVSPropertyOp20
 70
     1
102
RTVSPropertyOp21
 70
     1
102
RTVSPropertyOp22
 70
     1
102
RTVSPropertyOp23
 70
     1
102
RTVSPropertyOp24
 70
     1
102
RTVSPropertyOp25
 70
     1
102
RTVSPropertyOp26
 70
     1
102
RTVSPropertyOp27
 70
     1
102
RTVSPropertyOp28
 70
     1
102
RTVSPropertyOp29
 70
     1
102
RTVSPropertyOp30
 70
     1
102
RTVSPropertyOp31
 70
     1
102
RTVSPropertyOp32
 70
     1
102
RTVSPropertyOp33
 70
     1
102
RTVSPropertyOp34
 70
     1
102
RTVSPropertyOp35
 70
     1
102
RTVSPropertyOp36
 70
     1
102
RTVSPropertyOp37
 70
     1
102
RTVSPropertyOp38
 70
     1
102
RTVSPropertyOp39
 70
     1
102
RTVSPropertyOp40
 70
     1
102
RTVSPropertyOp41
 70
     1
102
RTVSPropertyOp42
 70
     1
102
RTVSPropertyOp43
 70
     1
102
RTVSPropertyOp44
 70
     1
102
RTVSPropertyOp45
 70
     1
102
RTVSPropertyOp46
 70
     1
102
RTVSPropertyOp47
 70
     1
102
RTVSPropertyOp48
 70
     1
102
RTVSPropertyOp49
 70
     1
102
RTVSPropertyOp50
 70
     1
102
RTVSPropertyOp51
 70
     0
102
RTVSPropertyOp52
 70
     0
102
RTVSPropertyOp53
 70
     1
102
RTVSPropertyOp54
 70
     1
102
RTVSPropertyOp55
 70
     1
102
RTVSPropertyOp56
 70
     1
102
RTVSPropertyOp57
 70
     1
102
RTVSPropertyOp58
 70
     1
102
RTVSPropertyOp59
 70
     1
102
RTVSPropertyOp60
 70
     1
102
RTVSPropertyOp61
 70
     1
102
RTVSPropertyOp62
 70
     1
  0
XRECORD
  5
9627
102
{ACAD_REACTORS
330
9626
102
}
330
9626
100
AcDbXrecord
280
     1
102
RTVSPost2010Prop28
280
     0
102
RTVSPost2010PropOp28
 70
     1
102
RTVSPost2010Prop29
280
     1
102
RTVSPost2010PropOp29
 70
     1
102
RTVSPost2010Prop30
280
     1
102
RTVSPost2010PropOp30
 70
     1
102
RTVSPost2010Prop31
280
     0
102
RTVSPost2010PropOp31
 70
     1
102
RTVSPost2010Prop32
280
     0
102
RTVSPost2010PropOp32
 70
     1
102
RTVSPost2010Prop33
280
     0
102
RTVSPost2010PropOp33
 70
     1
102
RTVSPost2010Prop34
280
     0
102
RTVSPost2010PropOp34
 70
     1
102
RTVSPost2010Prop35
280
     0
102
RTVSPost2010PropOp35
 70
     1
102
RTVSPost2010Prop36
280
     0
102
RTVSPost2010PropOp36
 70
     1
102
RTVSPost2010Prop37
 90
       50
102
RTVSPost2010PropOp37
 70
     1
102
RTVSPost2010Prop38
140
0.0
102
RTVSPost2010PropOp38
 70
     1
102
RTVSPost2010Prop39
140
1.0
102
RTVSPost2010PropOp39
 70
     1
102
RTVSPost2010Prop40
 90
        0
102
RTVSPost2010PropOp40
 70
     1
102
RTVSPost2010Prop41ColorIndex
 90
       18
102
RTVSPost2010Prop41ColorRGB
 90
        0
102
RTVSPost2010PropOp41
 70
     1
102
RTVSPost2010Prop42
 90
       50
102
RTVSPost2010PropOp42
 70
     1
102
RTVSPost2010Prop43
 90
        3
102
RTVSPost2010PropOp43
 70
     1
102
RTVSPost2010Prop44ColorIndex
 90
        5
102
RTVSPost2010Prop44ColorRGB
 90
      255
102
RTVSPost2010PropOp44
 70
     1
102
RTVSPost2010Prop45
280
     0
102
RTVSPost2010PropOp45
 70
     1
102
RTVSPost2010Prop46
 90
       50
102
RTVSPost2010PropOp46
 70
     1
102
RTVSPost2010Prop47
 90
       50
102
RTVSPost2010PropOp47
 70
     1
102
RTVSPost2010Prop48
 90
       50
102
RTVSPost2010PropOp48
 70
     1
102
RTVSPost2010Prop49
280
     0
102
RTVSPost2010PropOp49
 70
     1
102
RTVSPost2010Prop50
 90
       50
102
RTVSPost2010PropOp50
 70
     1
102
RTVSPost2010Prop51ColorIndex
 90
      256
102
RTVSPost2010Prop51ColorRGB
 90
-16777216
102
RTVSPost2010PropOp51
 70
     0
102
RTVSPost2010Prop52
140
1.0
102
RTVSPost2010PropOp52
 70
     0
102
RTVSPost2010Prop53
 90
        2
102
RTVSPost2010PropOp53
 70
     1
102
RTVSPost2010Prop54
  1
strokes_ogs.tif
102
RTVSPost2010PropOp54
 70
     1
102
RTVSPost2010Prop55
280
     0
102
RTVSPost2010PropOp55
 70
     1
102
RTVSPost2010Prop56
140
1.0
102
RTVSPost2010PropOp56
 70
     1
102
RTVSPost2010Prop57
140
1.0
102
RTVSPost2010PropOp57
 70
     1
102
RTVSPropertyOp0
 70
     1
102
RTVSPropertyOp1
 70
     1
102
RTVSPropertyOp2
 70
     1
102
RTVSPropertyOp3
 70
     1
102
RTVSPropertyOp4
 70
     1
102
RTVSPropertyOp5
 70
     1
102
RTVSPropertyOp6
 70
     1
102
RTVSPropertyOp7
 70
     1
102
RTVSPropertyOp8
 70
     1
102
RTVSPropertyOp9
 70
     1
102
RTVSPropertyOp10
 70
     1
102
RTVSPropertyOp11
 70
     1
102
RTVSPropertyOp12
 70
     1
102
RTVSPropertyOp13
 70
     1
102
RTVSPropertyOp14
 70
     1
102
RTVSPropertyOp15
 70
     1
102
RTVSPropertyOp16
 70
     1
102
RTVSPropertyOp17
 70
     1
102
RTVSPropertyOp18
 70
     1
102
RTVSPropertyOp19
 70
     1
102
RTVSPropertyOp20
 70
     1
102
RTVSPropertyOp21
 70
     1
102
RTVSPropertyOp22
 70
     1
102
RTVSPropertyOp23
 70
     1
102
RTVSPropertyOp24
 70
     1
102
RTVSPropertyOp25
 70
     1
102
RTVSPropertyOp26
 70
     1
102
RTVSPropertyOp27
 70
     1
102
RTVSPropertyOp28
 70
     1
102
RTVSPropertyOp29
 70
     1
102
RTVSPropertyOp30
 70
     1
102
RTVSPropertyOp31
 70
     1
102
RTVSPropertyOp32
 70
     1
102
RTVSPropertyOp33
 70
     1
102
RTVSPropertyOp34
 70
     1
102
RTVSPropertyOp35
 70
     1
102
RTVSPropertyOp36
 70
     1
102
RTVSPropertyOp37
 70
     1
102
RTVSPropertyOp38
 70
     1
102
RTVSPropertyOp39
 70
     1
102
RTVSPropertyOp40
 70
     1
102
RTVSPropertyOp41
 70
     1
102
RTVSPropertyOp42
 70
     1
102
RTVSPropertyOp43
 70
     1
102
RTVSPropertyOp44
 70
     1
102
RTVSPropertyOp45
 70
     1
102
RTVSPropertyOp46
 70
     1
102
RTVSPropertyOp47
 70
     1
102
RTVSPropertyOp48
 70
     1
102
RTVSPropertyOp49
 70
     1
102
RTVSPropertyOp50
 70
     1
102
RTVSPropertyOp51
 70
     0
102
RTVSPropertyOp52
 70
     0
102
RTVSPropertyOp53
 70
     1
102
RTVSPropertyOp54
 70
     1
102
RTVSPropertyOp55
 70
     1
102
RTVSPropertyOp56
 70
     1
102
RTVSPropertyOp57
 70
     1
102
RTVSPropertyOp58
 70
     1
102
RTVSPropertyOp59
 70
     1
102
RTVSPropertyOp60
 70
     1
102
RTVSPropertyOp61
 70
     1
102
RTVSPropertyOp62
 70
     1
  0
XRECORD
  5
9629
102
{ACAD_REACTORS
330
9628
102
}
330
9628
100
AcDbXrecord
280
     1
102
RTVSPost2010Prop28
280
     0
102
RTVSPost2010PropOp28
 70
     1
102
RTVSPost2010Prop29
280
     1
102
RTVSPost2010PropOp29
 70
     1
102
RTVSPost2010Prop30
280
     1
102
RTVSPost2010PropOp30
 70
     1
102
RTVSPost2010Prop31
280
     0
102
RTVSPost2010PropOp31
 70
     1
102
RTVSPost2010Prop32
280
     0
102
RTVSPost2010PropOp32
 70
     1
102
RTVSPost2010Prop33
280
     0
102
RTVSPost2010PropOp33
 70
     1
102
RTVSPost2010Prop34
280
     0
102
RTVSPost2010PropOp34
 70
     1
102
RTVSPost2010Prop35
280
     0
102
RTVSPost2010PropOp35
 70
     1
102
RTVSPost2010Prop36
280
     0
102
RTVSPost2010PropOp36
 70
     1
102
RTVSPost2010Prop37
 90
       50
102
RTVSPost2010PropOp37
 70
     1
102
RTVSPost2010Prop38
140
0.0
102
RTVSPost2010PropOp38
 70
     1
102
RTVSPost2010Prop39
140
1.0
102
RTVSPost2010PropOp39
 70
     1
102
RTVSPost2010Prop40
 90
        0
102
RTVSPost2010PropOp40
 70
     1
102
RTVSPost2010Prop41ColorIndex
 90
       18
102
RTVSPost2010Prop41ColorRGB
 90
        0
102
RTVSPost2010PropOp41
 70
     1
102
RTVSPost2010Prop42
 90
       50
102
RTVSPost2010PropOp42
 70
     1
102
RTVSPost2010Prop43
 90
        3
102
RTVSPost2010PropOp43
 70
     1
102
RTVSPost2010Prop44ColorIndex
 90
        5
102
RTVSPost2010Prop44ColorRGB
 90
      255
102
RTVSPost2010PropOp44
 70
     1
102
RTVSPost2010Prop45
280
     0
102
RTVSPost2010PropOp45
 70
     1
102
RTVSPost2010Prop46
 90
       50
102
RTVSPost2010PropOp46
 70
     1
102
RTVSPost2010Prop47
 90
       50
102
RTVSPost2010PropOp47
 70
     1
102
RTVSPost2010Prop48
 90
       50
102
RTVSPost2010PropOp48
 70
     1
102
RTVSPost2010Prop49
280
     0
102
RTVSPost2010PropOp49
 70
     1
102
RTVSPost2010Prop50
 90
       50
102
RTVSPost2010PropOp50
 70
     1
102
RTVSPost2010Prop51ColorIndex
 90
      256
102
RTVSPost2010Prop51ColorRGB
 90
-16777216
102
RTVSPost2010PropOp51
 70
     0
102
RTVSPost2010Prop52
140
1.0
102
RTVSPost2010PropOp52
 70
     0
102
RTVSPost2010Prop53
 90
        2
102
RTVSPost2010PropOp53
 70
     1
102
RTVSPost2010Prop54
  1
strokes_ogs.tif
102
RTVSPost2010PropOp54
 70
     1
102
RTVSPost2010Prop55
280
     0
102
RTVSPost2010PropOp55
 70
     1
102
RTVSPost2010Prop56
140
1.0
102
RTVSPost2010PropOp56
 70
     1
102
RTVSPost2010Prop57
140
1.0
102
RTVSPost2010PropOp57
 70
     1
102
RTVSPropertyOp0
 70
     1
102
RTVSPropertyOp1
 70
     1
102
RTVSPropertyOp2
 70
     1
102
RTVSPropertyOp3
 70
     1
102
RTVSPropertyOp4
 70
     1
102
RTVSPropertyOp5
 70
     1
102
RTVSPropertyOp6
 70
     1
102
RTVSPropertyOp7
 70
     1
102
RTVSPropertyOp8
 70
     1
102
RTVSPropertyOp9
 70
     1
102
RTVSPropertyOp10
 70
     1
102
RTVSPropertyOp11
 70
     1
102
RTVSPropertyOp12
 70
     1
102
RTVSPropertyOp13
 70
     1
102
RTVSPropertyOp14
 70
     1
102
RTVSPropertyOp15
 70
     1
102
RTVSPropertyOp16
 70
     1
102
RTVSPropertyOp17
 70
     1
102
RTVSPropertyOp18
 70
     1
102
RTVSPropertyOp19
 70
     1
102
RTVSPropertyOp20
 70
     1
102
RTVSPropertyOp21
 70
     1
102
RTVSPropertyOp22
 70
     1
102
RTVSPropertyOp23
 70
     1
102
RTVSPropertyOp24
 70
     1
102
RTVSPropertyOp25
 70
     1
102
RTVSPropertyOp26
 70
     1
102
RTVSPropertyOp27
 70
     1
102
RTVSPropertyOp28
 70
     1
102
RTVSPropertyOp29
 70
     1
102
RTVSPropertyOp30
 70
     1
102
RTVSPropertyOp31
 70
     1
102
RTVSPropertyOp32
 70
     1
102
RTVSPropertyOp33
 70
     1
102
RTVSPropertyOp34
 70
     1
102
RTVSPropertyOp35
 70
     1
102
RTVSPropertyOp36
 70
     1
102
RTVSPropertyOp37
 70
     1
102
RTVSPropertyOp38
 70
     1
102
RTVSPropertyOp39
 70
     1
102
RTVSPropertyOp40
 70
     1
102
RTVSPropertyOp41
 70
     1
102
RTVSPropertyOp42
 70
     1
102
RTVSPropertyOp43
 70
     1
102
RTVSPropertyOp44
 70
     1
102
RTVSPropertyOp45
 70
     1
102
RTVSPropertyOp46
 70
     1
102
RTVSPropertyOp47
 70
     1
102
RTVSPropertyOp48
 70
     1
102
RTVSPropertyOp49
 70
     1
102
RTVSPropertyOp50
 70
     1
102
RTVSPropertyOp51
 70
     0
102
RTVSPropertyOp52
 70
     0
102
RTVSPropertyOp53
 70
     1
102
RTVSPropertyOp54
 70
     1
102
RTVSPropertyOp55
 70
     1
102
RTVSPropertyOp56
 70
     1
102
RTVSPropertyOp57
 70
     1
102
RTVSPropertyOp58
 70
     1
102
RTVSPropertyOp59
 70
     1
102
RTVSPropertyOp60
 70
     1
102
RTVSPropertyOp61
 70
     1
102
RTVSPropertyOp62
 70
     1
  0
XRECORD
  5
9631
102
{ACAD_REACTORS
330
9630
102
}
330
9630
100
AcDbXrecord
280
     1
102
RTVSPost2010Prop28
280
     0
102
RTVSPost2010PropOp28
 70
     1
102
RTVSPost2010Prop29
280
     1
102
RTVSPost2010PropOp29
 70
     1
102
RTVSPost2010Prop30
280
     1
102
RTVSPost2010PropOp30
 70
     1
102
RTVSPost2010Prop31
280
     0
102
RTVSPost2010PropOp31
 70
     1
102
RTVSPost2010Prop32
280
     0
102
RTVSPost2010PropOp32
 70
     1
102
RTVSPost2010Prop33
280
     0
102
RTVSPost2010PropOp33
 70
     1
102
RTVSPost2010Prop34
280
     0
102
RTVSPost2010PropOp34
 70
     1
102
RTVSPost2010Prop35
280
     0
102
RTVSPost2010PropOp35
 70
     1
102
RTVSPost2010Prop36
280
     0
102
RTVSPost2010PropOp36
 70
     1
102
RTVSPost2010Prop37
 90
       50
102
RTVSPost2010PropOp37
 70
     1
102
RTVSPost2010Prop38
140
0.0
102
RTVSPost2010PropOp38
 70
     1
102
RTVSPost2010Prop39
140
1.0
102
RTVSPost2010PropOp39
 70
     1
102
RTVSPost2010Prop40
 90
        0
102
RTVSPost2010PropOp40
 70
     1
102
RTVSPost2010Prop41ColorIndex
 90
       18
102
RTVSPost2010Prop41ColorRGB
 90
        0
102
RTVSPost2010PropOp41
 70
     1
102
RTVSPost2010Prop42
 90
       50
102
RTVSPost2010PropOp42
 70
     1
102
RTVSPost2010Prop43
 90
        3
102
RTVSPost2010PropOp43
 70
     1
102
RTVSPost2010Prop44ColorIndex
 90
        5
102
RTVSPost2010Prop44ColorRGB
 90
      255
102
RTVSPost2010PropOp44
 70
     1
102
RTVSPost2010Prop45
280
     0
102
RTVSPost2010PropOp45
 70
     1
102
RTVSPost2010Prop46
 90
       50
102
RTVSPost2010PropOp46
 70
     1
102
RTVSPost2010Prop47
 90
       50
102
RTVSPost2010PropOp47
 70
     1
102
RTVSPost2010Prop48
 90
       50
102
RTVSPost2010PropOp48
 70
     1
102
RTVSPost2010Prop49
280
     0
102
RTVSPost2010PropOp49
 70
     1
102
RTVSPost2010Prop50
 90
       50
102
RTVSPost2010PropOp50
 70
     1
102
RTVSPost2010Prop51ColorIndex
 90
      256
102
RTVSPost2010Prop51ColorRGB
 90
-16777216
102
RTVSPost2010PropOp51
 70
     0
102
RTVSPost2010Prop52
140
1.0
102
RTVSPost2010PropOp52
 70
     0
102
RTVSPost2010Prop53
 90
        2
102
RTVSPost2010PropOp53
 70
     1
102
RTVSPost2010Prop54
  1
strokes_ogs.tif
102
RTVSPost2010PropOp54
 70
     1
102
RTVSPost2010Prop55
280
     0
102
RTVSPost2010PropOp55
 70
     1
102
RTVSPost2010Prop56
140
1.0
102
RTVSPost2010PropOp56
 70
     1
102
RTVSPost2010Prop57
140
1.0
102
RTVSPost2010PropOp57
 70
     1
102
RTVSPropertyOp0
 70
     1
102
RTVSPropertyOp1
 70
     1
102
RTVSPropertyOp2
 70
     1
102
RTVSPropertyOp3
 70
     1
102
RTVSPropertyOp4
 70
     1
102
RTVSPropertyOp5
 70
     1
102
RTVSPropertyOp6
 70
     1
102
RTVSPropertyOp7
 70
     1
102
RTVSPropertyOp8
 70
     1
102
RTVSPropertyOp9
 70
     1
102
RTVSPropertyOp10
 70
     1
102
RTVSPropertyOp11
 70
     1
102
RTVSPropertyOp12
 70
     1
102
RTVSPropertyOp13
 70
     1
102
RTVSPropertyOp14
 70
     1
102
RTVSPropertyOp15
 70
     1
102
RTVSPropertyOp16
 70
     1
102
RTVSPropertyOp17
 70
     1
102
RTVSPropertyOp18
 70
     1
102
RTVSPropertyOp19
 70
     1
102
RTVSPropertyOp20
 70
     1
102
RTVSPropertyOp21
 70
     1
102
RTVSPropertyOp22
 70
     1
102
RTVSPropertyOp23
 70
     1
102
RTVSPropertyOp24
 70
     1
102
RTVSPropertyOp25
 70
     1
102
RTVSPropertyOp26
 70
     1
102
RTVSPropertyOp27
 70
     1
102
RTVSPropertyOp28
 70
     1
102
RTVSPropertyOp29
 70
     1
102
RTVSPropertyOp30
 70
     1
102
RTVSPropertyOp31
 70
     1
102
RTVSPropertyOp32
 70
     1
102
RTVSPropertyOp33
 70
     1
102
RTVSPropertyOp34
 70
     1
102
RTVSPropertyOp35
 70
     1
102
RTVSPropertyOp36
 70
     1
102
RTVSPropertyOp37
 70
     1
102
RTVSPropertyOp38
 70
     1
102
RTVSPropertyOp39
 70
     1
102
RTVSPropertyOp40
 70
     1
102
RTVSPropertyOp41
 70
     1
102
RTVSPropertyOp42
 70
     1
102
RTVSPropertyOp43
 70
     1
102
RTVSPropertyOp44
 70
     1
102
RTVSPropertyOp45
 70
     1
102
RTVSPropertyOp46
 70
     1
102
RTVSPropertyOp47
 70
     1
102
RTVSPropertyOp48
 70
     1
102
RTVSPropertyOp49
 70
     1
102
RTVSPropertyOp50
 70
     1
102
RTVSPropertyOp51
 70
     0
102
RTVSPropertyOp52
 70
     0
102
RTVSPropertyOp53
 70
     1
102
RTVSPropertyOp54
 70
     1
102
RTVSPropertyOp55
 70
     1
102
RTVSPropertyOp56
 70
     1
102
RTVSPropertyOp57
 70
     1
102
RTVSPropertyOp58
 70
     1
102
RTVSPropertyOp59
 70
     1
102
RTVSPropertyOp60
 70
     1
102
RTVSPropertyOp61
 70
     1
102
RTVSPropertyOp62
 70
     1
  0
XRECORD
  5
964D
102
{ACAD_REACTORS
330
964C
102
}
330
964C
100
AcDbXrecord
280
     1
102
RTVSPost2010Prop28
280
     0
102
RTVSPost2010PropOp28
 70
     1
102
RTVSPost2010Prop29
280
     1
102
RTVSPost2010PropOp29
 70
     1
102
RTVSPost2010Prop30
280
     1
102
RTVSPost2010PropOp30
 70
     1
102
RTVSPost2010Prop31
280
     0
102
RTVSPost2010PropOp31
 70
     1
102
RTVSPost2010Prop32
280
     0
102
RTVSPost2010PropOp32
 70
     1
102
RTVSPost2010Prop33
280
     0
102
RTVSPost2010PropOp33
 70
     1
102
RTVSPost2010Prop34
280
     0
102
RTVSPost2010PropOp34
 70
     1
102
RTVSPost2010Prop35
280
     0
102
RTVSPost2010PropOp35
 70
     1
102
RTVSPost2010Prop36
280
     0
102
RTVSPost2010PropOp36
 70
     1
102
RTVSPost2010Prop37
 90
       50
102
RTVSPost2010PropOp37
 70
     0
102
RTVSPost2010Prop38
140
0.0
102
RTVSPost2010PropOp38
 70
     0
102
RTVSPost2010Prop39
140
1.0
102
RTVSPost2010PropOp39
 70
     0
102
RTVSPost2010Prop40
 90
        0
102
RTVSPost2010PropOp40
 70
     0
102
RTVSPost2010Prop41ColorIndex
 90
       18
102
RTVSPost2010Prop41ColorRGB
 90
        0
102
RTVSPost2010PropOp41
 70
     0
102
RTVSPost2010Prop42
 90
       50
102
RTVSPost2010PropOp42
 70
     0
102
RTVSPost2010Prop43
 90
        3
102
RTVSPost2010PropOp43
 70
     0
102
RTVSPost2010Prop44ColorIndex
 90
        5
102
RTVSPost2010Prop44ColorRGB
 90
      255
102
RTVSPost2010PropOp44
 70
     0
102
RTVSPost2010Prop45
280
     0
102
RTVSPost2010PropOp45
 70
     1
102
RTVSPost2010Prop46
 90
       50
102
RTVSPost2010PropOp46
 70
     0
102
RTVSPost2010Prop47
 90
       50
102
RTVSPost2010PropOp47
 70
     0
102
RTVSPost2010Prop48
 90
       50
102
RTVSPost2010PropOp48
 70
     0
102
RTVSPost2010Prop49
280
     0
102
RTVSPost2010PropOp49
 70
     1
102
RTVSPost2010Prop50
 90
       50
102
RTVSPost2010PropOp50
 70
     0
102
RTVSPost2010Prop51ColorIndex
 90
      256
102
RTVSPost2010Prop51ColorRGB
 90
-16777216
102
RTVSPost2010PropOp51
 70
     0
102
RTVSPost2010Prop52
140
1.0
102
RTVSPost2010PropOp52
 70
     0
102
RTVSPost2010Prop53
 90
        2
102
RTVSPost2010PropOp53
 70
     0
102
RTVSPost2010Prop54
  1
strokes_ogs.tif
102
RTVSPost2010PropOp54
 70
     0
102
RTVSPost2010Prop55
280
     0
102
RTVSPost2010PropOp55
 70
     1
102
RTVSPost2010Prop56
140
1.0
102
RTVSPost2010PropOp56
 70
     0
102
RTVSPost2010Prop57
140
1.0
102
RTVSPost2010PropOp57
 70
     0
102
RTVSPropertyOp0
 70
     0
102
RTVSPropertyOp1
 70
     0
102
RTVSPropertyOp2
 70
     0
102
RTVSPropertyOp3
 70
     0
102
RTVSPropertyOp4
 70
     0
102
RTVSPropertyOp5
 70
     0
102
RTVSPropertyOp6
 70
     0
102
RTVSPropertyOp7
 70
     0
102
RTVSPropertyOp8
 70
     0
102
RTVSPropertyOp9
 70
     0
102
RTVSPropertyOp10
 70
     0
102
RTVSPropertyOp11
 70
     0
102
RTVSPropertyOp12
 70
     0
102
RTVSPropertyOp13
 70
     0
102
RTVSPropertyOp14
 70
     2
102
RTVSPropertyOp15
 70
     0
102
RTVSPropertyOp16
 70
     0
102
RTVSPropertyOp17
 70
     0
102
RTVSPropertyOp18
 70
     0
102
RTVSPropertyOp19
 70
     0
102
RTVSPropertyOp20
 70
     0
102
RTVSPropertyOp21
 70
     0
102
RTVSPropertyOp22
 70
     0
102
RTVSPropertyOp23
 70
     0
102
RTVSPropertyOp24
 70
     0
102
RTVSPropertyOp25
 70
     0
102
RTVSPropertyOp26
 70
     0
102
RTVSPropertyOp27
 70
     0
102
RTVSPropertyOp28
 70
     1
102
RTVSPropertyOp29
 70
     1
102
RTVSPropertyOp30
 70
     1
102
RTVSPropertyOp31
 70
     1
102
RTVSPropertyOp32
 70
     1
102
RTVSPropertyOp33
 70
     1
102
RTVSPropertyOp34
 70
     1
102
RTVSPropertyOp35
 70
     1
102
RTVSPropertyOp36
 70
     1
102
RTVSPropertyOp37
 70
     0
102
RTVSPropertyOp38
 70
     0
102
RTVSPropertyOp39
 70
     0
102
RTVSPropertyOp40
 70
     0
102
RTVSPropertyOp41
 70
     0
102
RTVSPropertyOp42
 70
     0
102
RTVSPropertyOp43
 70
     0
102
RTVSPropertyOp44
 70
     0
102
RTVSPropertyOp45
 70
     1
102
RTVSPropertyOp46
 70
     0
102
RTVSPropertyOp47
 70
     0
102
RTVSPropertyOp48
 70
     0
102
RTVSPropertyOp49
 70
     1
102
RTVSPropertyOp50
 70
     0
102
RTVSPropertyOp51
 70
     0
102
RTVSPropertyOp52
 70
     0
102
RTVSPropertyOp53
 70
     0
102
RTVSPropertyOp54
 70
     0
102
RTVSPropertyOp55
 70
     1
102
RTVSPropertyOp56
 70
     0
102
RTVSPropertyOp57
 70
     0
102
RTVSPropertyOp58
 70
     0
102
RTVSPropertyOp59
 70
     0
102
RTVSPropertyOp60
 70
     0
102
RTVSPropertyOp61
 70
     0
102
RTVSPropertyOp62
 70
     0
  0
XRECORD
  5
963D
102
{ACAD_REACTORS
330
963C
102
}
330
963C
100
AcDbXrecord
280
     1
102
RTVSPost2010Prop28
280
     0
102
RTVSPost2010PropOp28
 70
     1
102
RTVSPost2010Prop29
280
     1
102
RTVSPost2010PropOp29
 70
     1
102
RTVSPost2010Prop30
280
     1
102
RTVSPost2010PropOp30
 70
     1
102
RTVSPost2010Prop31
280
     0
102
RTVSPost2010PropOp31
 70
     1
102
RTVSPost2010Prop32
280
     0
102
RTVSPost2010PropOp32
 70
     1
102
RTVSPost2010Prop33
280
     0
102
RTVSPost2010PropOp33
 70
     1
102
RTVSPost2010Prop34
280
     0
102
RTVSPost2010PropOp34
 70
     1
102
RTVSPost2010Prop35
280
     0
102
RTVSPost2010PropOp35
 70
     1
102
RTVSPost2010Prop36
280
     0
102
RTVSPost2010PropOp36
 70
     1
102
RTVSPost2010Prop37
 90
       50
102
RTVSPost2010PropOp37
 70
     1
102
RTVSPost2010Prop38
140
0.0
102
RTVSPost2010PropOp38
 70
     1
102
RTVSPost2010Prop39
140
1.0
102
RTVSPost2010PropOp39
 70
     1
102
RTVSPost2010Prop40
 90
        0
102
RTVSPost2010PropOp40
 70
     1
102
RTVSPost2010Prop41ColorIndex
 90
       18
102
RTVSPost2010Prop41ColorRGB
 90
        0
102
RTVSPost2010PropOp41
 70
     1
102
RTVSPost2010Prop42
 90
       50
102
RTVSPost2010PropOp42
 70
     1
102
RTVSPost2010Prop43
 90
        3
102
RTVSPost2010PropOp43
 70
     1
102
RTVSPost2010Prop44ColorIndex
 90
        5
102
RTVSPost2010Prop44ColorRGB
 90
      255
102
RTVSPost2010PropOp44
 70
     1
102
RTVSPost2010Prop45
280
     0
102
RTVSPost2010PropOp45
 70
     1
102
RTVSPost2010Prop46
 90
       50
102
RTVSPost2010PropOp46
 70
     1
102
RTVSPost2010Prop47
 90
       50
102
RTVSPost2010PropOp47
 70
     1
102
RTVSPost2010Prop48
 90
       50
102
RTVSPost2010PropOp48
 70
     1
102
RTVSPost2010Prop49
280
     0
102
RTVSPost2010PropOp49
 70
     1
102
RTVSPost2010Prop50
 90
       50
102
RTVSPost2010PropOp50
 70
     1
102
RTVSPost2010Prop51ColorIndex
 90
      256
102
RTVSPost2010Prop51ColorRGB
 90
-16777216
102
RTVSPost2010PropOp51
 70
     0
102
RTVSPost2010Prop52
140
1.0
102
RTVSPost2010PropOp52
 70
     0
102
RTVSPost2010Prop53
 90
        2
102
RTVSPost2010PropOp53
 70
     1
102
RTVSPost2010Prop54
  1
strokes_ogs.tif
102
RTVSPost2010PropOp54
 70
     1
102
RTVSPost2010Prop55
280
     0
102
RTVSPost2010PropOp55
 70
     1
102
RTVSPost2010Prop56
140
1.0
102
RTVSPost2010PropOp56
 70
     1
102
RTVSPost2010Prop57
140
1.0
102
RTVSPost2010PropOp57
 70
     1
102
RTVSPropertyOp0
 70
     1
102
RTVSPropertyOp1
 70
     1
102
RTVSPropertyOp2
 70
     1
102
RTVSPropertyOp3
 70
     1
102
RTVSPropertyOp4
 70
     1
102
RTVSPropertyOp5
 70
     1
102
RTVSPropertyOp6
 70
     1
102
RTVSPropertyOp7
 70
     1
102
RTVSPropertyOp8
 70
     1
102
RTVSPropertyOp9
 70
     1
102
RTVSPropertyOp10
 70
     1
102
RTVSPropertyOp11
 70
     1
102
RTVSPropertyOp12
 70
     1
102
RTVSPropertyOp13
 70
     1
102
RTVSPropertyOp14
 70
     1
102
RTVSPropertyOp15
 70
     1
102
RTVSPropertyOp16
 70
     1
102
RTVSPropertyOp17
 70
     1
102
RTVSPropertyOp18
 70
     1
102
RTVSPropertyOp19
 70
     1
102
RTVSPropertyOp20
 70
     1
102
RTVSPropertyOp21
 70
     1
102
RTVSPropertyOp22
 70
     1
102
RTVSPropertyOp23
 70
     1
102
RTVSPropertyOp24
 70
     1
102
RTVSPropertyOp25
 70
     1
102
RTVSPropertyOp26
 70
     1
102
RTVSPropertyOp27
 70
     1
102
RTVSPropertyOp28
 70
     1
102
RTVSPropertyOp29
 70
     1
102
RTVSPropertyOp30
 70
     1
102
RTVSPropertyOp31
 70
     1
102
RTVSPropertyOp32
 70
     1
102
RTVSPropertyOp33
 70
     1
102
RTVSPropertyOp34
 70
     1
102
RTVSPropertyOp35
 70
     1
102
RTVSPropertyOp36
 70
     1
102
RTVSPropertyOp37
 70
     1
102
RTVSPropertyOp38
 70
     1
102
RTVSPropertyOp39
 70
     1
102
RTVSPropertyOp40
 70
     1
102
RTVSPropertyOp41
 70
     1
102
RTVSPropertyOp42
 70
     1
102
RTVSPropertyOp43
 70
     1
102
RTVSPropertyOp44
 70
     1
102
RTVSPropertyOp45
 70
     1
102
RTVSPropertyOp46
 70
     1
102
RTVSPropertyOp47
 70
     1
102
RTVSPropertyOp48
 70
     1
102
RTVSPropertyOp49
 70
     1
102
RTVSPropertyOp50
 70
     1
102
RTVSPropertyOp51
 70
     0
102
RTVSPropertyOp52
 70
     0
102
RTVSPropertyOp53
 70
     1
102
RTVSPropertyOp54
 70
     1
102
RTVSPropertyOp55
 70
     1
102
RTVSPropertyOp56
 70
     1
102
RTVSPropertyOp57
 70
     1
102
RTVSPropertyOp58
 70
     1
102
RTVSPropertyOp59
 70
     1
102
RTVSPropertyOp60
 70
     1
102
RTVSPropertyOp61
 70
     1
102
RTVSPropertyOp62
 70
     1
  0
XRECORD
  5
964F
102
{ACAD_REACTORS
330
964E
102
}
330
964E
100
AcDbXrecord
280
     1
102
RTVSPost2010Prop28
280
     0
102
RTVSPost2010PropOp28
 70
     1
102
RTVSPost2010Prop29
280
     1
102
RTVSPost2010PropOp29
 70
     1
102
RTVSPost2010Prop30
280
     1
102
RTVSPost2010PropOp30
 70
     1
102
RTVSPost2010Prop31
280
     0
102
RTVSPost2010PropOp31
 70
     1
102
RTVSPost2010Prop32
280
     0
102
RTVSPost2010PropOp32
 70
     1
102
RTVSPost2010Prop33
280
     0
102
RTVSPost2010PropOp33
 70
     1
102
RTVSPost2010Prop34
280
     0
102
RTVSPost2010PropOp34
 70
     1
102
RTVSPost2010Prop35
280
     0
102
RTVSPost2010PropOp35
 70
     1
102
RTVSPost2010Prop36
280
     0
102
RTVSPost2010PropOp36
 70
     1
102
RTVSPost2010Prop37
 90
       50
102
RTVSPost2010PropOp37
 70
     0
102
RTVSPost2010Prop38
140
0.0
102
RTVSPost2010PropOp38
 70
     0
102
RTVSPost2010Prop39
140
1.0
102
RTVSPost2010PropOp39
 70
     0
102
RTVSPost2010Prop40
 90
        0
102
RTVSPost2010PropOp40
 70
     0
102
RTVSPost2010Prop41ColorIndex
 90
       18
102
RTVSPost2010Prop41ColorRGB
 90
        0
102
RTVSPost2010PropOp41
 70
     0
102
RTVSPost2010Prop42
 90
       50
102
RTVSPost2010PropOp42
 70
     0
102
RTVSPost2010Prop43
 90
        3
102
RTVSPost2010PropOp43
 70
     0
102
RTVSPost2010Prop44ColorIndex
 90
        5
102
RTVSPost2010Prop44ColorRGB
 90
      255
102
RTVSPost2010PropOp44
 70
     0
102
RTVSPost2010Prop45
280
     0
102
RTVSPost2010PropOp45
 70
     1
102
RTVSPost2010Prop46
 90
       50
102
RTVSPost2010PropOp46
 70
     0
102
RTVSPost2010Prop47
 90
       50
102
RTVSPost2010PropOp47
 70
     0
102
RTVSPost2010Prop48
 90
       50
102
RTVSPost2010PropOp48
 70
     0
102
RTVSPost2010Prop49
280
     0
102
RTVSPost2010PropOp49
 70
     1
102
RTVSPost2010Prop50
 90
       50
102
RTVSPost2010PropOp50
 70
     0
102
RTVSPost2010Prop51ColorIndex
 90
      256
102
RTVSPost2010Prop51ColorRGB
 90
-16777216
102
RTVSPost2010PropOp51
 70
     0
102
RTVSPost2010Prop52
140
1.0
102
RTVSPost2010PropOp52
 70
     0
102
RTVSPost2010Prop53
 90
        2
102
RTVSPost2010PropOp53
 70
     0
102
RTVSPost2010Prop54
  1
strokes_ogs.tif
102
RTVSPost2010PropOp54
 70
     0
102
RTVSPost2010Prop55
280
     0
102
RTVSPost2010PropOp55
 70
     1
102
RTVSPost2010Prop56
140
1.0
102
RTVSPost2010PropOp56
 70
     0
102
RTVSPost2010Prop57
140
1.0
102
RTVSPost2010PropOp57
 70
     0
102
RTVSPropertyOp0
 70
     0
102
RTVSPropertyOp1
 70
     0
102
RTVSPropertyOp2
 70
     0
102
RTVSPropertyOp3
 70
     0
102
RTVSPropertyOp4
 70
     0
102
RTVSPropertyOp5
 70
     0
102
RTVSPropertyOp6
 70
     0
102
RTVSPropertyOp7
 70
     0
102
RTVSPropertyOp8
 70
     0
102
RTVSPropertyOp9
 70
     0
102
RTVSPropertyOp10
 70
     0
102
RTVSPropertyOp11
 70
     0
102
RTVSPropertyOp12
 70
     0
102
RTVSPropertyOp13
 70
     0
102
RTVSPropertyOp14
 70
     2
102
RTVSPropertyOp15
 70
     0
102
RTVSPropertyOp16
 70
     0
102
RTVSPropertyOp17
 70
     0
102
RTVSPropertyOp18
 70
     0
102
RTVSPropertyOp19
 70
     0
102
RTVSPropertyOp20
 70
     0
102
RTVSPropertyOp21
 70
     0
102
RTVSPropertyOp22
 70
     0
102
RTVSPropertyOp23
 70
     0
102
RTVSPropertyOp24
 70
     0
102
RTVSPropertyOp25
 70
     0
102
RTVSPropertyOp26
 70
     0
102
RTVSPropertyOp27
 70
     0
102
RTVSPropertyOp28
 70
     1
102
RTVSPropertyOp29
 70
     1
102
RTVSPropertyOp30
 70
     1
102
RTVSPropertyOp31
 70
     1
102
RTVSPropertyOp32
 70
     1
102
RTVSPropertyOp33
 70
     1
102
RTVSPropertyOp34
 70
     1
102
RTVSPropertyOp35
 70
     1
102
RTVSPropertyOp36
 70
     1
102
RTVSPropertyOp37
 70
     0
102
RTVSPropertyOp38
 70
     0
102
RTVSPropertyOp39
 70
     0
102
RTVSPropertyOp40
 70
     0
102
RTVSPropertyOp41
 70
     0
102
RTVSPropertyOp42
 70
     0
102
RTVSPropertyOp43
 70
     0
102
RTVSPropertyOp44
 70
     0
102
RTVSPropertyOp45
 70
     1
102
RTVSPropertyOp46
 70
     0
102
RTVSPropertyOp47
 70
     0
102
RTVSPropertyOp48
 70
     0
102
RTVSPropertyOp49
 70
     1
102
RTVSPropertyOp50
 70
     0
102
RTVSPropertyOp51
 70
     0
102
RTVSPropertyOp52
 70
     0
102
RTVSPropertyOp53
 70
     0
102
RTVSPropertyOp54
 70
     0
102
RTVSPropertyOp55
 70
     1
102
RTVSPropertyOp56
 70
     0
102
RTVSPropertyOp57
 70
     0
102
RTVSPropertyOp58
 70
     0
102
RTVSPropertyOp59
 70
     0
102
RTVSPropertyOp60
 70
     0
102
RTVSPropertyOp61
 70
     0
102
RTVSPropertyOp62
 70
     0
  0
XRECORD
  5
9635
102
{ACAD_REACTORS
330
9634
102
}
330
9634
100
AcDbXrecord
280
     1
102
RTVSPost2010Prop28
280
     0
102
RTVSPost2010PropOp28
 70
     1
102
RTVSPost2010Prop29
280
     1
102
RTVSPost2010PropOp29
 70
     1
102
RTVSPost2010Prop30
280
     1
102
RTVSPost2010PropOp30
 70
     1
102
RTVSPost2010Prop31
280
     0
102
RTVSPost2010PropOp31
 70
     1
102
RTVSPost2010Prop32
280
     0
102
RTVSPost2010PropOp32
 70
     1
102
RTVSPost2010Prop33
280
     0
102
RTVSPost2010PropOp33
 70
     1
102
RTVSPost2010Prop34
280
     0
102
RTVSPost2010PropOp34
 70
     1
102
RTVSPost2010Prop35
280
     0
102
RTVSPost2010PropOp35
 70
     1
102
RTVSPost2010Prop36
280
     0
102
RTVSPost2010PropOp36
 70
     1
102
RTVSPost2010Prop37
 90
       50
102
RTVSPost2010PropOp37
 70
     1
102
RTVSPost2010Prop38
140
0.0
102
RTVSPost2010PropOp38
 70
     1
102
RTVSPost2010Prop39
140
1.0
102
RTVSPost2010PropOp39
 70
     1
102
RTVSPost2010Prop40
 90
        0
102
RTVSPost2010PropOp40
 70
     1
102
RTVSPost2010Prop41ColorIndex
 90
       18
102
RTVSPost2010Prop41ColorRGB
 90
        0
102
RTVSPost2010PropOp41
 70
     1
102
RTVSPost2010Prop42
 90
       50
102
RTVSPost2010PropOp42
 70
     1
102
RTVSPost2010Prop43
 90
        3
102
RTVSPost2010PropOp43
 70
     1
102
RTVSPost2010Prop44ColorIndex
 90
        5
102
RTVSPost2010Prop44ColorRGB
 90
      255
102
RTVSPost2010PropOp44
 70
     1
102
RTVSPost2010Prop45
280
     0
102
RTVSPost2010PropOp45
 70
     1
102
RTVSPost2010Prop46
 90
       50
102
RTVSPost2010PropOp46
 70
     1
102
RTVSPost2010Prop47
 90
       50
102
RTVSPost2010PropOp47
 70
     1
102
RTVSPost2010Prop48
 90
       50
102
RTVSPost2010PropOp48
 70
     1
102
RTVSPost2010Prop49
280
     0
102
RTVSPost2010PropOp49
 70
     1
102
RTVSPost2010Prop50
 90
       50
102
RTVSPost2010PropOp50
 70
     1
102
RTVSPost2010Prop51ColorIndex
 90
      256
102
RTVSPost2010Prop51ColorRGB
 90
-16777216
102
RTVSPost2010PropOp51
 70
     0
102
RTVSPost2010Prop52
140
1.0
102
RTVSPost2010PropOp52
 70
     0
102
RTVSPost2010Prop53
 90
        2
102
RTVSPost2010PropOp53
 70
     1
102
RTVSPost2010Prop54
  1
strokes_ogs.tif
102
RTVSPost2010PropOp54
 70
     1
102
RTVSPost2010Prop55
280
     0
102
RTVSPost2010PropOp55
 70
     1
102
RTVSPost2010Prop56
140
1.0
102
RTVSPost2010PropOp56
 70
     1
102
RTVSPost2010Prop57
140
1.0
102
RTVSPost2010PropOp57
 70
     1
102
RTVSPropertyOp0
 70
     1
102
RTVSPropertyOp1
 70
     1
102
RTVSPropertyOp2
 70
     1
102
RTVSPropertyOp3
 70
     1
102
RTVSPropertyOp4
 70
     1
102
RTVSPropertyOp5
 70
     1
102
RTVSPropertyOp6
 70
     1
102
RTVSPropertyOp7
 70
     1
102
RTVSPropertyOp8
 70
     1
102
RTVSPropertyOp9
 70
     1
102
RTVSPropertyOp10
 70
     1
102
RTVSPropertyOp11
 70
     1
102
RTVSPropertyOp12
 70
     1
102
RTVSPropertyOp13
 70
     1
102
RTVSPropertyOp14
 70
     1
102
RTVSPropertyOp15
 70
     1
102
RTVSPropertyOp16
 70
     1
102
RTVSPropertyOp17
 70
     1
102
RTVSPropertyOp18
 70
     1
102
RTVSPropertyOp19
 70
     1
102
RTVSPropertyOp20
 70
     1
102
RTVSPropertyOp21
 70
     1
102
RTVSPropertyOp22
 70
     1
102
RTVSPropertyOp23
 70
     1
102
RTVSPropertyOp24
 70
     1
102
RTVSPropertyOp25
 70
     1
102
RTVSPropertyOp26
 70
     1
102
RTVSPropertyOp27
 70
     1
102
RTVSPropertyOp28
 70
     1
102
RTVSPropertyOp29
 70
     1
102
RTVSPropertyOp30
 70
     1
102
RTVSPropertyOp31
 70
     1
102
RTVSPropertyOp32
 70
     1
102
RTVSPropertyOp33
 70
     1
102
RTVSPropertyOp34
 70
     1
102
RTVSPropertyOp35
 70
     1
102
RTVSPropertyOp36
 70
     1
102
RTVSPropertyOp37
 70
     1
102
RTVSPropertyOp38
 70
     1
102
RTVSPropertyOp39
 70
     1
102
RTVSPropertyOp40
 70
     1
102
RTVSPropertyOp41
 70
     1
102
RTVSPropertyOp42
 70
     1
102
RTVSPropertyOp43
 70
     1
102
RTVSPropertyOp44
 70
     1
102
RTVSPropertyOp45
 70
     1
102
RTVSPropertyOp46
 70
     1
102
RTVSPropertyOp47
 70
     1
102
RTVSPropertyOp48
 70
     1
102
RTVSPropertyOp49
 70
     1
102
RTVSPropertyOp50
 70
     1
102
RTVSPropertyOp51
 70
     0
102
RTVSPropertyOp52
 70
     0
102
RTVSPropertyOp53
 70
     1
102
RTVSPropertyOp54
 70
     1
102
RTVSPropertyOp55
 70
     1
102
RTVSPropertyOp56
 70
     1
102
RTVSPropertyOp57
 70
     1
102
RTVSPropertyOp58
 70
     1
102
RTVSPropertyOp59
 70
     1
102
RTVSPropertyOp60
 70
     1
102
RTVSPropertyOp61
 70
     1
102
RTVSPropertyOp62
 70
     1
  0
XRECORD
  5
964B
102
{ACAD_REACTORS
330
964A
102
}
330
964A
100
AcDbXrecord
280
     1
102
RTVSPost2010Prop28
280
     0
102
RTVSPost2010PropOp28
 70
     1
102
RTVSPost2010Prop29
280
     1
102
RTVSPost2010PropOp29
 70
     1
102
RTVSPost2010Prop30
280
     1
102
RTVSPost2010PropOp30
 70
     1
102
RTVSPost2010Prop31
280
     0
102
RTVSPost2010PropOp31
 70
     1
102
RTVSPost2010Prop32
280
     0
102
RTVSPost2010PropOp32
 70
     1
102
RTVSPost2010Prop33
280
     0
102
RTVSPost2010PropOp33
 70
     1
102
RTVSPost2010Prop34
280
     0
102
RTVSPost2010PropOp34
 70
     1
102
RTVSPost2010Prop35
280
     0
102
RTVSPost2010PropOp35
 70
     1
102
RTVSPost2010Prop36
280
     0
102
RTVSPost2010PropOp36
 70
     1
102
RTVSPost2010Prop37
 90
       50
102
RTVSPost2010PropOp37
 70
     1
102
RTVSPost2010Prop38
140
0.0
102
RTVSPost2010PropOp38
 70
     1
102
RTVSPost2010Prop39
140
1.0
102
RTVSPost2010PropOp39
 70
     1
102
RTVSPost2010Prop40
 90
        0
102
RTVSPost2010PropOp40
 70
     1
102
RTVSPost2010Prop41ColorIndex
 90
       18
102
RTVSPost2010Prop41ColorRGB
 90
        0
102
RTVSPost2010PropOp41
 70
     1
102
RTVSPost2010Prop42
 90
       50
102
RTVSPost2010PropOp42
 70
     1
102
RTVSPost2010Prop43
 90
        3
102
RTVSPost2010PropOp43
 70
     1
102
RTVSPost2010Prop44ColorIndex
 90
        5
102
RTVSPost2010Prop44ColorRGB
 90
      255
102
RTVSPost2010PropOp44
 70
     1
102
RTVSPost2010Prop45
280
     0
102
RTVSPost2010PropOp45
 70
     1
102
RTVSPost2010Prop46
 90
       50
102
RTVSPost2010PropOp46
 70
     1
102
RTVSPost2010Prop47
 90
       50
102
RTVSPost2010PropOp47
 70
     1
102
RTVSPost2010Prop48
 90
       50
102
RTVSPost2010PropOp48
 70
     1
102
RTVSPost2010Prop49
280
     0
102
RTVSPost2010PropOp49
 70
     1
102
RTVSPost2010Prop50
 90
       50
102
RTVSPost2010PropOp50
 70
     1
102
RTVSPost2010Prop51ColorIndex
 90
      256
102
RTVSPost2010Prop51ColorRGB
 90
-16777216
102
RTVSPost2010PropOp51
 70
     0
102
RTVSPost2010Prop52
140
1.0
102
RTVSPost2010PropOp52
 70
     0
102
RTVSPost2010Prop53
 90
        2
102
RTVSPost2010PropOp53
 70
     1
102
RTVSPost2010Prop54
  1
strokes_ogs.tif
102
RTVSPost2010PropOp54
 70
     1
102
RTVSPost2010Prop55
280
     0
102
RTVSPost2010PropOp55
 70
     1
102
RTVSPost2010Prop56
140
1.0
102
RTVSPost2010PropOp56
 70
     1
102
RTVSPost2010Prop57
140
1.0
102
RTVSPost2010PropOp57
 70
     1
102
RTVSPropertyOp0
 70
     1
102
RTVSPropertyOp1
 70
     1
102
RTVSPropertyOp2
 70
     1
102
RTVSPropertyOp3
 70
     1
102
RTVSPropertyOp4
 70
     1
102
RTVSPropertyOp5
 70
     1
102
RTVSPropertyOp6
 70
     1
102
RTVSPropertyOp7
 70
     1
102
RTVSPropertyOp8
 70
     1
102
RTVSPropertyOp9
 70
     1
102
RTVSPropertyOp10
 70
     1
102
RTVSPropertyOp11
 70
     1
102
RTVSPropertyOp12
 70
     1
102
RTVSPropertyOp13
 70
     1
102
RTVSPropertyOp14
 70
     1
102
RTVSPropertyOp15
 70
     1
102
RTVSPropertyOp16
 70
     1
102
RTVSPropertyOp17
 70
     1
102
RTVSPropertyOp18
 70
     1
102
RTVSPropertyOp19
 70
     1
102
RTVSPropertyOp20
 70
     1
102
RTVSPropertyOp21
 70
     1
102
RTVSPropertyOp22
 70
     1
102
RTVSPropertyOp23
 70
     1
102
RTVSPropertyOp24
 70
     1
102
RTVSPropertyOp25
 70
     1
102
RTVSPropertyOp26
 70
     1
102
RTVSPropertyOp27
 70
     1
102
RTVSPropertyOp28
 70
     1
102
RTVSPropertyOp29
 70
     1
102
RTVSPropertyOp30
 70
     1
102
RTVSPropertyOp31
 70
     1
102
RTVSPropertyOp32
 70
     1
102
RTVSPropertyOp33
 70
     1
102
RTVSPropertyOp34
 70
     1
102
RTVSPropertyOp35
 70
     1
102
RTVSPropertyOp36
 70
     1
102
RTVSPropertyOp37
 70
     1
102
RTVSPropertyOp38
 70
     1
102
RTVSPropertyOp39
 70
     1
102
RTVSPropertyOp40
 70
     1
102
RTVSPropertyOp41
 70
     1
102
RTVSPropertyOp42
 70
     1
102
RTVSPropertyOp43
 70
     1
102
RTVSPropertyOp44
 70
     1
102
RTVSPropertyOp45
 70
     1
102
RTVSPropertyOp46
 70
     1
102
RTVSPropertyOp47
 70
     1
102
RTVSPropertyOp48
 70
     1
102
RTVSPropertyOp49
 70
     1
102
RTVSPropertyOp50
 70
     1
102
RTVSPropertyOp51
 70
     0
102
RTVSPropertyOp52
 70
     0
102
RTVSPropertyOp53
 70
     1
102
RTVSPropertyOp54
 70
     1
102
RTVSPropertyOp55
 70
     1
102
RTVSPropertyOp56
 70
     1
102
RTVSPropertyOp57
 70
     1
102
RTVSPropertyOp58
 70
     1
102
RTVSPropertyOp59
 70
     1
102
RTVSPropertyOp60
 70
     1
102
RTVSPropertyOp61
 70
     1
102
RTVSPropertyOp62
 70
     1
  0
XRECORD
  5
9649
102
{ACAD_REACTORS
330
9648
102
}
330
9648
100
AcDbXrecord
280
     1
102
RTVSPost2010Prop28
280
     0
102
RTVSPost2010PropOp28
 70
     1
102
RTVSPost2010Prop29
280
     1
102
RTVSPost2010PropOp29
 70
     1
102
RTVSPost2010Prop30
280
     1
102
RTVSPost2010PropOp30
 70
     1
102
RTVSPost2010Prop31
280
     0
102
RTVSPost2010PropOp31
 70
     1
102
RTVSPost2010Prop32
280
     0
102
RTVSPost2010PropOp32
 70
     1
102
RTVSPost2010Prop33
280
     0
102
RTVSPost2010PropOp33
 70
     1
102
RTVSPost2010Prop34
280
     0
102
RTVSPost2010PropOp34
 70
     1
102
RTVSPost2010Prop35
280
     0
102
RTVSPost2010PropOp35
 70
     1
102
RTVSPost2010Prop36
280
     0
102
RTVSPost2010PropOp36
 70
     1
102
RTVSPost2010Prop37
 90
       50
102
RTVSPost2010PropOp37
 70
     1
102
RTVSPost2010Prop38
140
0.0
102
RTVSPost2010PropOp38
 70
     1
102
RTVSPost2010Prop39
140
1.0
102
RTVSPost2010PropOp39
 70
     1
102
RTVSPost2010Prop40
 90
        0
102
RTVSPost2010PropOp40
 70
     1
102
RTVSPost2010Prop41ColorIndex
 90
       18
102
RTVSPost2010Prop41ColorRGB
 90
        0
102
RTVSPost2010PropOp41
 70
     1
102
RTVSPost2010Prop42
 90
       50
102
RTVSPost2010PropOp42
 70
     1
102
RTVSPost2010Prop43
 90
        3
102
RTVSPost2010PropOp43
 70
     1
102
RTVSPost2010Prop44ColorIndex
 90
        5
102
RTVSPost2010Prop44ColorRGB
 90
      255
102
RTVSPost2010PropOp44
 70
     1
102
RTVSPost2010Prop45
280
     0
102
RTVSPost2010PropOp45
 70
     1
102
RTVSPost2010Prop46
 90
       50
102
RTVSPost2010PropOp46
 70
     1
102
RTVSPost2010Prop47
 90
       50
102
RTVSPost2010PropOp47
 70
     1
102
RTVSPost2010Prop48
 90
       50
102
RTVSPost2010PropOp48
 70
     1
102
RTVSPost2010Prop49
280
     0
102
RTVSPost2010PropOp49
 70
     1
102
RTVSPost2010Prop50
 90
       50
102
RTVSPost2010PropOp50
 70
     1
102
RTVSPost2010Prop51ColorIndex
 90
      256
102
RTVSPost2010Prop51ColorRGB
 90
-16777216
102
RTVSPost2010PropOp51
 70
     0
102
RTVSPost2010Prop52
140
1.0
102
RTVSPost2010PropOp52
 70
     0
102
RTVSPost2010Prop53
 90
        2
102
RTVSPost2010PropOp53
 70
     1
102
RTVSPost2010Prop54
  1
strokes_ogs.tif
102
RTVSPost2010PropOp54
 70
     1
102
RTVSPost2010Prop55
280
     0
102
RTVSPost2010PropOp55
 70
     1
102
RTVSPost2010Prop56
140
1.0
102
RTVSPost2010PropOp56
 70
     1
102
RTVSPost2010Prop57
140
1.0
102
RTVSPost2010PropOp57
 70
     1
102
RTVSPropertyOp0
 70
     1
102
RTVSPropertyOp1
 70
     1
102
RTVSPropertyOp2
 70
     1
102
RTVSPropertyOp3
 70
     1
102
RTVSPropertyOp4
 70
     1
102
RTVSPropertyOp5
 70
     1
102
RTVSPropertyOp6
 70
     1
102
RTVSPropertyOp7
 70
     1
102
RTVSPropertyOp8
 70
     1
102
RTVSPropertyOp9
 70
     1
102
RTVSPropertyOp10
 70
     1
102
RTVSPropertyOp11
 70
     1
102
RTVSPropertyOp12
 70
     1
102
RTVSPropertyOp13
 70
     1
102
RTVSPropertyOp14
 70
     1
102
RTVSPropertyOp15
 70
     1
102
RTVSPropertyOp16
 70
     1
102
RTVSPropertyOp17
 70
     1
102
RTVSPropertyOp18
 70
     1
102
RTVSPropertyOp19
 70
     1
102
RTVSPropertyOp20
 70
     1
102
RTVSPropertyOp21
 70
     1
102
RTVSPropertyOp22
 70
     1
102
RTVSPropertyOp23
 70
     1
102
RTVSPropertyOp24
 70
     1
102
RTVSPropertyOp25
 70
     1
102
RTVSPropertyOp26
 70
     1
102
RTVSPropertyOp27
 70
     1
102
RTVSPropertyOp28
 70
     1
102
RTVSPropertyOp29
 70
     1
102
RTVSPropertyOp30
 70
     1
102
RTVSPropertyOp31
 70
     1
102
RTVSPropertyOp32
 70
     1
102
RTVSPropertyOp33
 70
     1
102
RTVSPropertyOp34
 70
     1
102
RTVSPropertyOp35
 70
     1
102
RTVSPropertyOp36
 70
     1
102
RTVSPropertyOp37
 70
     1
102
RTVSPropertyOp38
 70
     1
102
RTVSPropertyOp39
 70
     1
102
RTVSPropertyOp40
 70
     1
102
RTVSPropertyOp41
 70
     1
102
RTVSPropertyOp42
 70
     1
102
RTVSPropertyOp43
 70
     1
102
RTVSPropertyOp44
 70
     1
102
RTVSPropertyOp45
 70
     1
102
RTVSPropertyOp46
 70
     1
102
RTVSPropertyOp47
 70
     1
102
RTVSPropertyOp48
 70
     1
102
RTVSPropertyOp49
 70
     1
102
RTVSPropertyOp50
 70
     1
102
RTVSPropertyOp51
 70
     0
102
RTVSPropertyOp52
 70
     0
102
RTVSPropertyOp53
 70
     1
102
RTVSPropertyOp54
 70
     1
102
RTVSPropertyOp55
 70
     1
102
RTVSPropertyOp56
 70
     1
102
RTVSPropertyOp57
 70
     1
102
RTVSPropertyOp58
 70
     1
102
RTVSPropertyOp59
 70
     1
102
RTVSPropertyOp60
 70
     1
102
RTVSPropertyOp61
 70
     1
102
RTVSPropertyOp62
 70
     1
  0
XRECORD
  5
9643
102
{ACAD_REACTORS
330
9642
102
}
330
9642
100
AcDbXrecord
280
     1
102
RTVSPost2010Prop28
280
     0
102
RTVSPost2010PropOp28
 70
     1
102
RTVSPost2010Prop29
280
     1
102
RTVSPost2010PropOp29
 70
     1
102
RTVSPost2010Prop30
280
     1
102
RTVSPost2010PropOp30
 70
     1
102
RTVSPost2010Prop31
280
     0
102
RTVSPost2010PropOp31
 70
     1
102
RTVSPost2010Prop32
280
     0
102
RTVSPost2010PropOp32
 70
     1
102
RTVSPost2010Prop33
280
     0
102
RTVSPost2010PropOp33
 70
     1
102
RTVSPost2010Prop34
280
     0
102
RTVSPost2010PropOp34
 70
     1
102
RTVSPost2010Prop35
280
     0
102
RTVSPost2010PropOp35
 70
     1
102
RTVSPost2010Prop36
280
     0
102
RTVSPost2010PropOp36
 70
     1
102
RTVSPost2010Prop37
 90
       50
102
RTVSPost2010PropOp37
 70
     1
102
RTVSPost2010Prop38
140
0.0
102
RTVSPost2010PropOp38
 70
     1
102
RTVSPost2010Prop39
140
1.0
102
RTVSPost2010PropOp39
 70
     1
102
RTVSPost2010Prop40
 90
        0
102
RTVSPost2010PropOp40
 70
     1
102
RTVSPost2010Prop41ColorIndex
 90
       18
102
RTVSPost2010Prop41ColorRGB
 90
        0
102
RTVSPost2010PropOp41
 70
     1
102
RTVSPost2010Prop42
 90
       50
102
RTVSPost2010PropOp42
 70
     1
102
RTVSPost2010Prop43
 90
        3
102
RTVSPost2010PropOp43
 70
     1
102
RTVSPost2010Prop44ColorIndex
 90
        5
102
RTVSPost2010Prop44ColorRGB
 90
      255
102
RTVSPost2010PropOp44
 70
     1
102
RTVSPost2010Prop45
280
     0
102
RTVSPost2010PropOp45
 70
     1
102
RTVSPost2010Prop46
 90
       50
102
RTVSPost2010PropOp46
 70
     1
102
RTVSPost2010Prop47
 90
       50
102
RTVSPost2010PropOp47
 70
     1
102
RTVSPost2010Prop48
 90
       50
102
RTVSPost2010PropOp48
 70
     1
102
RTVSPost2010Prop49
280
     0
102
RTVSPost2010PropOp49
 70
     1
102
RTVSPost2010Prop50
 90
       50
102
RTVSPost2010PropOp50
 70
     1
102
RTVSPost2010Prop51ColorIndex
 90
      256
102
RTVSPost2010Prop51ColorRGB
 90
-16777216
102
RTVSPost2010PropOp51
 70
     0
102
RTVSPost2010Prop52
140
1.0
102
RTVSPost2010PropOp52
 70
     0
102
RTVSPost2010Prop53
 90
        2
102
RTVSPost2010PropOp53
 70
     1
102
RTVSPost2010Prop54
  1
strokes_ogs.tif
102
RTVSPost2010PropOp54
 70
     1
102
RTVSPost2010Prop55
280
     0
102
RTVSPost2010PropOp55
 70
     1
102
RTVSPost2010Prop56
140
1.0
102
RTVSPost2010PropOp56
 70
     1
102
RTVSPost2010Prop57
140
1.0
102
RTVSPost2010PropOp57
 70
     1
102
RTVSPropertyOp0
 70
     1
102
RTVSPropertyOp1
 70
     1
102
RTVSPropertyOp2
 70
     1
102
RTVSPropertyOp3
 70
     1
102
RTVSPropertyOp4
 70
     1
102
RTVSPropertyOp5
 70
     1
102
RTVSPropertyOp6
 70
     1
102
RTVSPropertyOp7
 70
     1
102
RTVSPropertyOp8
 70
     1
102
RTVSPropertyOp9
 70
     1
102
RTVSPropertyOp10
 70
     1
102
RTVSPropertyOp11
 70
     1
102
RTVSPropertyOp12
 70
     1
102
RTVSPropertyOp13
 70
     1
102
RTVSPropertyOp14
 70
     1
102
RTVSPropertyOp15
 70
     1
102
RTVSPropertyOp16
 70
     1
102
RTVSPropertyOp17
 70
     1
102
RTVSPropertyOp18
 70
     1
102
RTVSPropertyOp19
 70
     1
102
RTVSPropertyOp20
 70
     1
102
RTVSPropertyOp21
 70
     1
102
RTVSPropertyOp22
 70
     1
102
RTVSPropertyOp23
 70
     1
102
RTVSPropertyOp24
 70
     1
102
RTVSPropertyOp25
 70
     1
102
RTVSPropertyOp26
 70
     1
102
RTVSPropertyOp27
 70
     1
102
RTVSPropertyOp28
 70
     1
102
RTVSPropertyOp29
 70
     1
102
RTVSPropertyOp30
 70
     1
102
RTVSPropertyOp31
 70
     1
102
RTVSPropertyOp32
 70
     1
102
RTVSPropertyOp33
 70
     1
102
RTVSPropertyOp34
 70
     1
102
RTVSPropertyOp35
 70
     1
102
RTVSPropertyOp36
 70
     1
102
RTVSPropertyOp37
 70
     1
102
RTVSPropertyOp38
 70
     1
102
RTVSPropertyOp39
 70
     1
102
RTVSPropertyOp40
 70
     1
102
RTVSPropertyOp41
 70
     1
102
RTVSPropertyOp42
 70
     1
102
RTVSPropertyOp43
 70
     1
102
RTVSPropertyOp44
 70
     1
102
RTVSPropertyOp45
 70
     1
102
RTVSPropertyOp46
 70
     1
102
RTVSPropertyOp47
 70
     1
102
RTVSPropertyOp48
 70
     1
102
RTVSPropertyOp49
 70
     1
102
RTVSPropertyOp50
 70
     1
102
RTVSPropertyOp51
 70
     0
102
RTVSPropertyOp52
 70
     0
102
RTVSPropertyOp53
 70
     1
102
RTVSPropertyOp54
 70
     1
102
RTVSPropertyOp55
 70
     1
102
RTVSPropertyOp56
 70
     1
102
RTVSPropertyOp57
 70
     1
102
RTVSPropertyOp58
 70
     1
102
RTVSPropertyOp59
 70
     1
102
RTVSPropertyOp60
 70
     1
102
RTVSPropertyOp61
 70
     1
102
RTVSPropertyOp62
 70
     1
  0
XRECORD
  5
9645
102
{ACAD_REACTORS
330
9644
102
}
330
9644
100
AcDbXrecord
280
     1
102
RTVSPost2010Prop28
280
     0
102
RTVSPost2010PropOp28
 70
     1
102
RTVSPost2010Prop29
280
     1
102
RTVSPost2010PropOp29
 70
     1
102
RTVSPost2010Prop30
280
     1
102
RTVSPost2010PropOp30
 70
     1
102
RTVSPost2010Prop31
280
     0
102
RTVSPost2010PropOp31
 70
     1
102
RTVSPost2010Prop32
280
     0
102
RTVSPost2010PropOp32
 70
     1
102
RTVSPost2010Prop33
280
     0
102
RTVSPost2010PropOp33
 70
     1
102
RTVSPost2010Prop34
280
     0
102
RTVSPost2010PropOp34
 70
     1
102
RTVSPost2010Prop35
280
     0
102
RTVSPost2010PropOp35
 70
     1
102
RTVSPost2010Prop36
280
     0
102
RTVSPost2010PropOp36
 70
     1
102
RTVSPost2010Prop37
 90
       50
102
RTVSPost2010PropOp37
 70
     1
102
RTVSPost2010Prop38
140
0.0
102
RTVSPost2010PropOp38
 70
     1
102
RTVSPost2010Prop39
140
1.0
102
RTVSPost2010PropOp39
 70
     1
102
RTVSPost2010Prop40
 90
        0
102
RTVSPost2010PropOp40
 70
     1
102
RTVSPost2010Prop41ColorIndex
 90
       18
102
RTVSPost2010Prop41ColorRGB
 90
        0
102
RTVSPost2010PropOp41
 70
     1
102
RTVSPost2010Prop42
 90
       50
102
RTVSPost2010PropOp42
 70
     1
102
RTVSPost2010Prop43
 90
        3
102
RTVSPost2010PropOp43
 70
     1
102
RTVSPost2010Prop44ColorIndex
 90
        5
102
RTVSPost2010Prop44ColorRGB
 90
      255
102
RTVSPost2010PropOp44
 70
     1
102
RTVSPost2010Prop45
280
     0
102
RTVSPost2010PropOp45
 70
     1
102
RTVSPost2010Prop46
 90
       50
102
RTVSPost2010PropOp46
 70
     1
102
RTVSPost2010Prop47
 90
       50
102
RTVSPost2010PropOp47
 70
     1
102
RTVSPost2010Prop48
 90
       50
102
RTVSPost2010PropOp48
 70
     1
102
RTVSPost2010Prop49
280
     0
102
RTVSPost2010PropOp49
 70
     1
102
RTVSPost2010Prop50
 90
       50
102
RTVSPost2010PropOp50
 70
     1
102
RTVSPost2010Prop51ColorIndex
 90
      256
102
RTVSPost2010Prop51ColorRGB
 90
-16777216
102
RTVSPost2010PropOp51
 70
     0
102
RTVSPost2010Prop52
140
1.0
102
RTVSPost2010PropOp52
 70
     0
102
RTVSPost2010Prop53
 90
        2
102
RTVSPost2010PropOp53
 70
     1
102
RTVSPost2010Prop54
  1
strokes_ogs.tif
102
RTVSPost2010PropOp54
 70
     1
102
RTVSPost2010Prop55
280
     0
102
RTVSPost2010PropOp55
 70
     1
102
RTVSPost2010Prop56
140
1.0
102
RTVSPost2010PropOp56
 70
     1
102
RTVSPost2010Prop57
140
1.0
102
RTVSPost2010PropOp57
 70
     1
102
RTVSPropertyOp0
 70
     1
102
RTVSPropertyOp1
 70
     1
102
RTVSPropertyOp2
 70
     1
102
RTVSPropertyOp3
 70
     1
102
RTVSPropertyOp4
 70
     1
102
RTVSPropertyOp5
 70
     1
102
RTVSPropertyOp6
 70
     1
102
RTVSPropertyOp7
 70
     1
102
RTVSPropertyOp8
 70
     1
102
RTVSPropertyOp9
 70
     1
102
RTVSPropertyOp10
 70
     1
102
RTVSPropertyOp11
 70
     1
102
RTVSPropertyOp12
 70
     1
102
RTVSPropertyOp13
 70
     1
102
RTVSPropertyOp14
 70
     1
102
RTVSPropertyOp15
 70
     1
102
RTVSPropertyOp16
 70
     1
102
RTVSPropertyOp17
 70
     1
102
RTVSPropertyOp18
 70
     1
102
RTVSPropertyOp19
 70
     1
102
RTVSPropertyOp20
 70
     1
102
RTVSPropertyOp21
 70
     1
102
RTVSPropertyOp22
 70
     1
102
RTVSPropertyOp23
 70
     1
102
RTVSPropertyOp24
 70
     1
102
RTVSPropertyOp25
 70
     1
102
RTVSPropertyOp26
 70
     1
102
RTVSPropertyOp27
 70
     1
102
RTVSPropertyOp28
 70
     1
102
RTVSPropertyOp29
 70
     1
102
RTVSPropertyOp30
 70
     1
102
RTVSPropertyOp31
 70
     1
102
RTVSPropertyOp32
 70
     1
102
RTVSPropertyOp33
 70
     1
102
RTVSPropertyOp34
 70
     1
102
RTVSPropertyOp35
 70
     1
102
RTVSPropertyOp36
 70
     1
102
RTVSPropertyOp37
 70
     1
102
RTVSPropertyOp38
 70
     1
102
RTVSPropertyOp39
 70
     1
102
RTVSPropertyOp40
 70
     1
102
RTVSPropertyOp41
 70
     1
102
RTVSPropertyOp42
 70
     1
102
RTVSPropertyOp43
 70
     1
102
RTVSPropertyOp44
 70
     1
102
RTVSPropertyOp45
 70
     1
102
RTVSPropertyOp46
 70
     1
102
RTVSPropertyOp47
 70
     1
102
RTVSPropertyOp48
 70
     1
102
RTVSPropertyOp49
 70
     1
102
RTVSPropertyOp50
 70
     1
102
RTVSPropertyOp51
 70
     0
102
RTVSPropertyOp52
 70
     0
102
RTVSPropertyOp53
 70
     1
102
RTVSPropertyOp54
 70
     1
102
RTVSPropertyOp55
 70
     1
102
RTVSPropertyOp56
 70
     1
102
RTVSPropertyOp57
 70
     1
102
RTVSPropertyOp58
 70
     1
102
RTVSPropertyOp59
 70
     1
102
RTVSPropertyOp60
 70
     1
102
RTVSPropertyOp61
 70
     1
102
RTVSPropertyOp62
 70
     1
  0
XRECORD
  5
963B
102
{ACAD_REACTORS
330
963A
102
}
330
963A
100
AcDbXrecord
280
     1
102
RTVSPost2010Prop28
280
     0
102
RTVSPost2010PropOp28
 70
     1
102
RTVSPost2010Prop29
280
     1
102
RTVSPost2010PropOp29
 70
     1
102
RTVSPost2010Prop30
280
     1
102
RTVSPost2010PropOp30
 70
     1
102
RTVSPost2010Prop31
280
     0
102
RTVSPost2010PropOp31
 70
     1
102
RTVSPost2010Prop32
280
     0
102
RTVSPost2010PropOp32
 70
     1
102
RTVSPost2010Prop33
280
     0
102
RTVSPost2010PropOp33
 70
     1
102
RTVSPost2010Prop34
280
     0
102
RTVSPost2010PropOp34
 70
     1
102
RTVSPost2010Prop35
280
     0
102
RTVSPost2010PropOp35
 70
     1
102
RTVSPost2010Prop36
280
     0
102
RTVSPost2010PropOp36
 70
     1
102
RTVSPost2010Prop37
 90
       50
102
RTVSPost2010PropOp37
 70
     1
102
RTVSPost2010Prop38
140
0.0
102
RTVSPost2010PropOp38
 70
     1
102
RTVSPost2010Prop39
140
1.0
102
RTVSPost2010PropOp39
 70
     1
102
RTVSPost2010Prop40
 90
        0
102
RTVSPost2010PropOp40
 70
     1
102
RTVSPost2010Prop41ColorIndex
 90
       18
102
RTVSPost2010Prop41ColorRGB
 90
        0
102
RTVSPost2010PropOp41
 70
     1
102
RTVSPost2010Prop42
 90
       50
102
RTVSPost2010PropOp42
 70
     1
102
RTVSPost2010Prop43
 90
        3
102
RTVSPost2010PropOp43
 70
     1
102
RTVSPost2010Prop44ColorIndex
 90
        5
102
RTVSPost2010Prop44ColorRGB
 90
      255
102
RTVSPost2010PropOp44
 70
     1
102
RTVSPost2010Prop45
280
     0
102
RTVSPost2010PropOp45
 70
     1
102
RTVSPost2010Prop46
 90
       50
102
RTVSPost2010PropOp46
 70
     1
102
RTVSPost2010Prop47
 90
       50
102
RTVSPost2010PropOp47
 70
     1
102
RTVSPost2010Prop48
 90
       50
102
RTVSPost2010PropOp48
 70
     1
102
RTVSPost2010Prop49
280
     0
102
RTVSPost2010PropOp49
 70
     1
102
RTVSPost2010Prop50
 90
       50
102
RTVSPost2010PropOp50
 70
     1
102
RTVSPost2010Prop51ColorIndex
 90
      256
102
RTVSPost2010Prop51ColorRGB
 90
-16777216
102
RTVSPost2010PropOp51
 70
     0
102
RTVSPost2010Prop52
140
1.0
102
RTVSPost2010PropOp52
 70
     0
102
RTVSPost2010Prop53
 90
        2
102
RTVSPost2010PropOp53
 70
     1
102
RTVSPost2010Prop54
  1
strokes_ogs.tif
102
RTVSPost2010PropOp54
 70
     1
102
RTVSPost2010Prop55
280
     0
102
RTVSPost2010PropOp55
 70
     1
102
RTVSPost2010Prop56
140
1.0
102
RTVSPost2010PropOp56
 70
     1
102
RTVSPost2010Prop57
140
1.0
102
RTVSPost2010PropOp57
 70
     1
102
RTVSPropertyOp0
 70
     1
102
RTVSPropertyOp1
 70
     1
102
RTVSPropertyOp2
 70
     1
102
RTVSPropertyOp3
 70
     1
102
RTVSPropertyOp4
 70
     1
102
RTVSPropertyOp5
 70
     1
102
RTVSPropertyOp6
 70
     1
102
RTVSPropertyOp7
 70
     1
102
RTVSPropertyOp8
 70
     1
102
RTVSPropertyOp9
 70
     1
102
RTVSPropertyOp10
 70
     1
102
RTVSPropertyOp11
 70
     1
102
RTVSPropertyOp12
 70
     1
102
RTVSPropertyOp13
 70
     1
102
RTVSPropertyOp14
 70
     1
102
RTVSPropertyOp15
 70
     1
102
RTVSPropertyOp16
 70
     1
102
RTVSPropertyOp17
 70
     1
102
RTVSPropertyOp18
 70
     1
102
RTVSPropertyOp19
 70
     1
102
RTVSPropertyOp20
 70
     1
102
RTVSPropertyOp21
 70
     1
102
RTVSPropertyOp22
 70
     1
102
RTVSPropertyOp23
 70
     1
102
RTVSPropertyOp24
 70
     1
102
RTVSPropertyOp25
 70
     1
102
RTVSPropertyOp26
 70
     1
102
RTVSPropertyOp27
 70
     1
102
RTVSPropertyOp28
 70
     1
102
RTVSPropertyOp29
 70
     1
102
RTVSPropertyOp30
 70
     1
102
RTVSPropertyOp31
 70
     1
102
RTVSPropertyOp32
 70
     1
102
RTVSPropertyOp33
 70
     1
102
RTVSPropertyOp34
 70
     1
102
RTVSPropertyOp35
 70
     1
102
RTVSPropertyOp36
 70
     1
102
RTVSPropertyOp37
 70
     1
102
RTVSPropertyOp38
 70
     1
102
RTVSPropertyOp39
 70
     1
102
RTVSPropertyOp40
 70
     1
102
RTVSPropertyOp41
 70
     1
102
RTVSPropertyOp42
 70
     1
102
RTVSPropertyOp43
 70
     1
102
RTVSPropertyOp44
 70
     1
102
RTVSPropertyOp45
 70
     1
102
RTVSPropertyOp46
 70
     1
102
RTVSPropertyOp47
 70
     1
102
RTVSPropertyOp48
 70
     1
102
RTVSPropertyOp49
 70
     1
102
RTVSPropertyOp50
 70
     1
102
RTVSPropertyOp51
 70
     0
102
RTVSPropertyOp52
 70
     0
102
RTVSPropertyOp53
 70
     1
102
RTVSPropertyOp54
 70
     1
102
RTVSPropertyOp55
 70
     1
102
RTVSPropertyOp56
 70
     1
102
RTVSPropertyOp57
 70
     1
102
RTVSPropertyOp58
 70
     1
102
RTVSPropertyOp59
 70
     1
102
RTVSPropertyOp60
 70
     1
102
RTVSPropertyOp61
 70
     1
102
RTVSPropertyOp62
 70
     1
  0
XRECORD
  5
962F
102
{ACAD_REACTORS
330
962E
102
}
330
962E
100
AcDbXrecord
280
     1
102
RTVSPost2010Prop28
280
     0
102
RTVSPost2010PropOp28
 70
     1
102
RTVSPost2010Prop29
280
     1
102
RTVSPost2010PropOp29
 70
     1
102
RTVSPost2010Prop30
280
     1
102
RTVSPost2010PropOp30
 70
     1
102
RTVSPost2010Prop31
280
     0
102
RTVSPost2010PropOp31
 70
     1
102
RTVSPost2010Prop32
280
     0
102
RTVSPost2010PropOp32
 70
     1
102
RTVSPost2010Prop33
280
     0
102
RTVSPost2010PropOp33
 70
     1
102
RTVSPost2010Prop34
280
     0
102
RTVSPost2010PropOp34
 70
     1
102
RTVSPost2010Prop35
280
     0
102
RTVSPost2010PropOp35
 70
     1
102
RTVSPost2010Prop36
280
     0
102
RTVSPost2010PropOp36
 70
     1
102
RTVSPost2010Prop37
 90
       50
102
RTVSPost2010PropOp37
 70
     1
102
RTVSPost2010Prop38
140
0.0
102
RTVSPost2010PropOp38
 70
     1
102
RTVSPost2010Prop39
140
1.0
102
RTVSPost2010PropOp39
 70
     1
102
RTVSPost2010Prop40
 90
        0
102
RTVSPost2010PropOp40
 70
     1
102
RTVSPost2010Prop41ColorIndex
 90
       18
102
RTVSPost2010Prop41ColorRGB
 90
        0
102
RTVSPost2010PropOp41
 70
     1
102
RTVSPost2010Prop42
 90
       50
102
RTVSPost2010PropOp42
 70
     1
102
RTVSPost2010Prop43
 90
        3
102
RTVSPost2010PropOp43
 70
     1
102
RTVSPost2010Prop44ColorIndex
 90
        5
102
RTVSPost2010Prop44ColorRGB
 90
      255
102
RTVSPost2010PropOp44
 70
     1
102
RTVSPost2010Prop45
280
     0
102
RTVSPost2010PropOp45
 70
     1
102
RTVSPost2010Prop46
 90
       50
102
RTVSPost2010PropOp46
 70
     1
102
RTVSPost2010Prop47
 90
       50
102
RTVSPost2010PropOp47
 70
     1
102
RTVSPost2010Prop48
 90
       50
102
RTVSPost2010PropOp48
 70
     1
102
RTVSPost2010Prop49
280
     0
102
RTVSPost2010PropOp49
 70
     1
102
RTVSPost2010Prop50
 90
       50
102
RTVSPost2010PropOp50
 70
     1
102
RTVSPost2010Prop51ColorIndex
 90
      256
102
RTVSPost2010Prop51ColorRGB
 90
-16777216
102
RTVSPost2010PropOp51
 70
     0
102
RTVSPost2010Prop52
140
1.0
102
RTVSPost2010PropOp52
 70
     0
102
RTVSPost2010Prop53
 90
        2
102
RTVSPost2010PropOp53
 70
     1
102
RTVSPost2010Prop54
  1
strokes_ogs.tif
102
RTVSPost2010PropOp54
 70
     1
102
RTVSPost2010Prop55
280
     0
102
RTVSPost2010PropOp55
 70
     1
102
RTVSPost2010Prop56
140
1.0
102
RTVSPost2010PropOp56
 70
     1
102
RTVSPost2010Prop57
140
1.0
102
RTVSPost2010PropOp57
 70
     1
102
RTVSPropertyOp0
 70
     1
102
RTVSPropertyOp1
 70
     1
102
RTVSPropertyOp2
 70
     1
102
RTVSPropertyOp3
 70
     1
102
RTVSPropertyOp4
 70
     1
102
RTVSPropertyOp5
 70
     1
102
RTVSPropertyOp6
 70
     1
102
RTVSPropertyOp7
 70
     1
102
RTVSPropertyOp8
 70
     1
102
RTVSPropertyOp9
 70
     1
102
RTVSPropertyOp10
 70
     1
102
RTVSPropertyOp11
 70
     1
102
RTVSPropertyOp12
 70
     1
102
RTVSPropertyOp13
 70
     1
102
RTVSPropertyOp14
 70
     1
102
RTVSPropertyOp15
 70
     1
102
RTVSPropertyOp16
 70
     1
102
RTVSPropertyOp17
 70
     1
102
RTVSPropertyOp18
 70
     1
102
RTVSPropertyOp19
 70
     1
102
RTVSPropertyOp20
 70
     1
102
RTVSPropertyOp21
 70
     1
102
RTVSPropertyOp22
 70
     1
102
RTVSPropertyOp23
 70
     1
102
RTVSPropertyOp24
 70
     1
102
RTVSPropertyOp25
 70
     1
102
RTVSPropertyOp26
 70
     1
102
RTVSPropertyOp27
 70
     1
102
RTVSPropertyOp28
 70
     1
102
RTVSPropertyOp29
 70
     1
102
RTVSPropertyOp30
 70
     1
102
RTVSPropertyOp31
 70
     1
102
RTVSPropertyOp32
 70
     1
102
RTVSPropertyOp33
 70
     1
102
RTVSPropertyOp34
 70
     1
102
RTVSPropertyOp35
 70
     1
102
RTVSPropertyOp36
 70
     1
102
RTVSPropertyOp37
 70
     1
102
RTVSPropertyOp38
 70
     1
102
RTVSPropertyOp39
 70
     1
102
RTVSPropertyOp40
 70
     1
102
RTVSPropertyOp41
 70
     1
102
RTVSPropertyOp42
 70
     1
102
RTVSPropertyOp43
 70
     1
102
RTVSPropertyOp44
 70
     1
102
RTVSPropertyOp45
 70
     1
102
RTVSPropertyOp46
 70
     1
102
RTVSPropertyOp47
 70
     1
102
RTVSPropertyOp48
 70
     1
102
RTVSPropertyOp49
 70
     1
102
RTVSPropertyOp50
 70
     1
102
RTVSPropertyOp51
 70
     0
102
RTVSPropertyOp52
 70
     0
102
RTVSPropertyOp53
 70
     1
102
RTVSPropertyOp54
 70
     1
102
RTVSPropertyOp55
 70
     1
102
RTVSPropertyOp56
 70
     1
102
RTVSPropertyOp57
 70
     1
102
RTVSPropertyOp58
 70
     1
102
RTVSPropertyOp59
 70
     1
102
RTVSPropertyOp60
 70
     1
102
RTVSPropertyOp61
 70
     1
102
RTVSPropertyOp62
 70
     1
  0
XRECORD
  5
9647
102
{ACAD_REACTORS
330
9646
102
}
330
9646
100
AcDbXrecord
280
     1
102
RTVSPost2010Prop28
280
     0
102
RTVSPost2010PropOp28
 70
     1
102
RTVSPost2010Prop29
280
     1
102
RTVSPost2010PropOp29
 70
     1
102
RTVSPost2010Prop30
280
     1
102
RTVSPost2010PropOp30
 70
     1
102
RTVSPost2010Prop31
280
     0
102
RTVSPost2010PropOp31
 70
     1
102
RTVSPost2010Prop32
280
     0
102
RTVSPost2010PropOp32
 70
     1
102
RTVSPost2010Prop33
280
     0
102
RTVSPost2010PropOp33
 70
     1
102
RTVSPost2010Prop34
280
     0
102
RTVSPost2010PropOp34
 70
     1
102
RTVSPost2010Prop35
280
     0
102
RTVSPost2010PropOp35
 70
     1
102
RTVSPost2010Prop36
280
     0
102
RTVSPost2010PropOp36
 70
     1
102
RTVSPost2010Prop37
 90
       50
102
RTVSPost2010PropOp37
 70
     1
102
RTVSPost2010Prop38
140
0.0
102
RTVSPost2010PropOp38
 70
     1
102
RTVSPost2010Prop39
140
1.0
102
RTVSPost2010PropOp39
 70
     1
102
RTVSPost2010Prop40
 90
        0
102
RTVSPost2010PropOp40
 70
     1
102
RTVSPost2010Prop41ColorIndex
 90
       18
102
RTVSPost2010Prop41ColorRGB
 90
        0
102
RTVSPost2010PropOp41
 70
     1
102
RTVSPost2010Prop42
 90
       50
102
RTVSPost2010PropOp42
 70
     1
102
RTVSPost2010Prop43
 90
        3
102
RTVSPost2010PropOp43
 70
     1
102
RTVSPost2010Prop44ColorIndex
 90
        5
102
RTVSPost2010Prop44ColorRGB
 90
      255
102
RTVSPost2010PropOp44
 70
     1
102
RTVSPost2010Prop45
280
     0
102
RTVSPost2010PropOp45
 70
     1
102
RTVSPost2010Prop46
 90
       50
102
RTVSPost2010PropOp46
 70
     1
102
RTVSPost2010Prop47
 90
       50
102
RTVSPost2010PropOp47
 70
     1
102
RTVSPost2010Prop48
 90
       50
102
RTVSPost2010PropOp48
 70
     1
102
RTVSPost2010Prop49
280
     0
102
RTVSPost2010PropOp49
 70
     1
102
RTVSPost2010Prop50
 90
       50
102
RTVSPost2010PropOp50
 70
     1
102
RTVSPost2010Prop51ColorIndex
 90
      256
102
RTVSPost2010Prop51ColorRGB
 90
-16777216
102
RTVSPost2010PropOp51
 70
     0
102
RTVSPost2010Prop52
140
1.0
102
RTVSPost2010PropOp52
 70
     0
102
RTVSPost2010Prop53
 90
        2
102
RTVSPost2010PropOp53
 70
     1
102
RTVSPost2010Prop54
  1
strokes_ogs.tif
102
RTVSPost2010PropOp54
 70
     1
102
RTVSPost2010Prop55
280
     0
102
RTVSPost2010PropOp55
 70
     1
102
RTVSPost2010Prop56
140
1.0
102
RTVSPost2010PropOp56
 70
     1
102
RTVSPost2010Prop57
140
1.0
102
RTVSPost2010PropOp57
 70
     1
102
RTVSPropertyOp0
 70
     1
102
RTVSPropertyOp1
 70
     1
102
RTVSPropertyOp2
 70
     1
102
RTVSPropertyOp3
 70
     1
102
RTVSPropertyOp4
 70
     1
102
RTVSPropertyOp5
 70
     1
102
RTVSPropertyOp6
 70
     1
102
RTVSPropertyOp7
 70
     1
102
RTVSPropertyOp8
 70
     1
102
RTVSPropertyOp9
 70
     1
102
RTVSPropertyOp10
 70
     1
102
RTVSPropertyOp11
 70
     1
102
RTVSPropertyOp12
 70
     1
102
RTVSPropertyOp13
 70
     1
102
RTVSPropertyOp14
 70
     1
102
RTVSPropertyOp15
 70
     1
102
RTVSPropertyOp16
 70
     1
102
RTVSPropertyOp17
 70
     1
102
RTVSPropertyOp18
 70
     1
102
RTVSPropertyOp19
 70
     1
102
RTVSPropertyOp20
 70
     1
102
RTVSPropertyOp21
 70
     1
102
RTVSPropertyOp22
 70
     1
102
RTVSPropertyOp23
 70
     1
102
RTVSPropertyOp24
 70
     1
102
RTVSPropertyOp25
 70
     1
102
RTVSPropertyOp26
 70
     1
102
RTVSPropertyOp27
 70
     1
102
RTVSPropertyOp28
 70
     1
102
RTVSPropertyOp29
 70
     1
102
RTVSPropertyOp30
 70
     1
102
RTVSPropertyOp31
 70
     1
102
RTVSPropertyOp32
 70
     1
102
RTVSPropertyOp33
 70
     1
102
RTVSPropertyOp34
 70
     1
102
RTVSPropertyOp35
 70
     1
102
RTVSPropertyOp36
 70
     1
102
RTVSPropertyOp37
 70
     1
102
RTVSPropertyOp38
 70
     1
102
RTVSPropertyOp39
 70
     1
102
RTVSPropertyOp40
 70
     1
102
RTVSPropertyOp41
 70
     1
102
RTVSPropertyOp42
 70
     1
102
RTVSPropertyOp43
 70
     1
102
RTVSPropertyOp44
 70
     1
102
RTVSPropertyOp45
 70
     1
102
RTVSPropertyOp46
 70
     1
102
RTVSPropertyOp47
 70
     1
102
RTVSPropertyOp48
 70
     1
102
RTVSPropertyOp49
 70
     1
102
RTVSPropertyOp50
 70
     1
102
RTVSPropertyOp51
 70
     0
102
RTVSPropertyOp52
 70
     0
102
RTVSPropertyOp53
 70
     1
102
RTVSPropertyOp54
 70
     1
102
RTVSPropertyOp55
 70
     1
102
RTVSPropertyOp56
 70
     1
102
RTVSPropertyOp57
 70
     1
102
RTVSPropertyOp58
 70
     1
102
RTVSPropertyOp59
 70
     1
102
RTVSPropertyOp60
 70
     1
102
RTVSPropertyOp61
 70
     1
102
RTVSPropertyOp62
 70
     1
  0
ENDSEC
  0
EOF
